  0
SECTION
  2
HEADER
  9
$ACADVER
  1
AC1024
  9
$ACADMAINTVER
 70
     6
  9
$DWGCODEPAGE
  3
ANSI_932
  9
$INSBASE
 10
0.0
 20
0.0
 30
0.0
  9
$EXTMIN
 10
0.0
 20
0.0
 30
0.0
  9
$EXTMAX
 10
210.0015627369349
 20
152.9997242307662
 30
0.0
  9
$LIMMIN
 10
0.0
 20
0.0
  9
$LIMMAX
 10
210.0015627369349
 20
152.9997242307662
  9
$ORTHOMODE
 70
     0
  9
$REGENMODE
 70
     1
  9
$FILLMODE
 70
     1
  9
$QTEXTMODE
 70
     0
  9
$MIRRTEXT
 70
     1
  9
$LTSCALE
 40
1.0
  9
$ATTMODE
 70
     1
  9
$TEXTSIZE
 40
2.5
  9
$TRACEWID
 40
1.0
  9
$TEXTSTYLE
  7
Standard
  9
$CLAYER
  8
0
  9
$CELTYPE
  6
ByLayer
  9
$CECOLOR
 62
   256
  9
$CELTSCALE
 40
1.0
  9
$DISPSILH
 70
     0
  9
$DIMSCALE
 40
1.0
  9
$DIMASZ
 40
2.5
  9
$DIMEXO
 40
0.625
  9
$DIMDLI
 40
3.75
  9
$DIMRND
 40
0.0
  9
$DIMDLE
 40
0.0
  9
$DIMEXE
 40
1.25
  9
$DIMTP
 40
0.0
  9
$DIMTM
 40
0.0
  9
$DIMTXT
 40
2.5
  9
$DIMCEN
 40
2.5
  9
$DIMTSZ
 40
0.0
  9
$DIMTOL
 70
     0
  9
$DIMLIM
 70
     0
  9
$DIMTIH
 70
     0
  9
$DIMTOH
 70
     0
  9
$DIMSE1
 70
     0
  9
$DIMSE2
 70
     0
  9
$DIMTAD
 70
     1
  9
$DIMZIN
 70
     8
  9
$DIMBLK
  1

  9
$DIMASO
 70
     1
  9
$DIMSHO
 70
     1
  9
$DIMPOST
  1

  9
$DIMAPOST
  1

  9
$DIMALT
 70
     0
  9
$DIMALTD
 70
     3
  9
$DIMALTF
 40
0.03937007874016
  9
$DIMLFAC
 40
1.0
  9
$DIMTOFL
 70
     1
  9
$DIMTVP
 40
0.0
  9
$DIMTIX
 70
     0
  9
$DIMSOXD
 70
     0
  9
$DIMSAH
 70
     0
  9
$DIMBLK1
  1

  9
$DIMBLK2
  1

  9
$DIMSTYLE
  2
ISO-25
  9
$DIMCLRD
 70
     0
  9
$DIMCLRE
 70
     0
  9
$DIMCLRT
 70
     0
  9
$DIMTFAC
 40
1.0
  9
$DIMGAP
 40
0.625
  9
$DIMJUST
 70
     0
  9
$DIMSD1
 70
     0
  9
$DIMSD2
 70
     0
  9
$DIMTOLJ
 70
     0
  9
$DIMTZIN
 70
     8
  9
$DIMALTZ
 70
     0
  9
$DIMALTTZ
 70
     0
  9
$DIMUPT
 70
     0
  9
$DIMDEC
 70
     2
  9
$DIMTDEC
 70
     2
  9
$DIMALTU
 70
     2
  9
$DIMALTTD
 70
     3
  9
$DIMTXSTY
  7
Standard
  9
$DIMAUNIT
 70
     0
  9
$DIMADEC
 70
     0
  9
$DIMALTRND
 40
0.0
  9
$DIMAZIN
 70
     0
  9
$DIMDSEP
 70
    44
  9
$DIMATFIT
 70
     3
  9
$DIMFRAC
 70
     0
  9
$DIMLDRBLK
  1

  9
$DIMLUNIT
 70
     2
  9
$DIMLWD
 70
    -2
  9
$DIMLWE
 70
    -2
  9
$DIMTMOVE
 70
     0
  9
$DIMFXL
 40
1.0
  9
$DIMFXLON
 70
     0
  9
$DIMJOGANG
 40
0.7853981633974483
  9
$DIMTFILL
 70
     0
  9
$DIMTFILLCLR
 70
     0
  9
$DIMARCSYM
 70
     0
  9
$DIMLTYPE
  6

  9
$DIMLTEX1
  6

  9
$DIMLTEX2
  6

  9
$DIMTXTDIRECTION
 70
     0
  9
$LUNITS
 70
     2
  9
$LUPREC
 70
     4
  9
$SKETCHINC
 40
1.0
  9
$FILLETRAD
 40
10.0
  9
$AUNITS
 70
     0
  9
$AUPREC
 70
     0
  9
$MENU
  1
.
  9
$ELEVATION
 40
0.0
  9
$PELEVATION
 40
0.0
  9
$THICKNESS
 40
0.0
  9
$LIMCHECK
 70
     0
  9
$CHAMFERA
 40
0.0
  9
$CHAMFERB
 40
0.0
  9
$CHAMFERC
 40
0.0
  9
$CHAMFERD
 40
0.0
  9
$SKPOLY
 70
     0
  9
$TDCREATE
 40
2458500.717661389
  9
$TDUCREATE
 40
2458500.342661389
  9
$TDUPDATE
 40
2458500.717662211
  9
$TDUUPDATE
 40
2458500.342662211
  9
$TDINDWG
 40
0.0000000116
  9
$TDUSRTIMER
 40
0.0000000116
  9
$USRTIMER
 70
     1
  9
$ANGBASE
 50
0.0
  9
$ANGDIR
 70
     0
  9
$PDMODE
 70
     0
  9
$PDSIZE
 40
0.0
  9
$PLINEWID
 40
0.0
  9
$SPLFRAME
 70
     0
  9
$SPLINETYPE
 70
     6
  9
$SPLINESEGS
 70
     8
  9
$HANDSEED
  5
42A
  9
$SURFTAB1
 70
     6
  9
$SURFTAB2
 70
     6
  9
$SURFTYPE
 70
     6
  9
$SURFU
 70
     6
  9
$SURFV
 70
     6
  9
$UCSBASE
  2

  9
$UCSNAME
  2

  9
$UCSORG
 10
0.0
 20
0.0
 30
0.0
  9
$UCSXDIR
 10
1.0
 20
0.0
 30
0.0
  9
$UCSYDIR
 10
0.0
 20
1.0
 30
0.0
  9
$UCSORTHOREF
  2

  9
$UCSORTHOVIEW
 70
     0
  9
$UCSORGTOP
 10
0.0
 20
0.0
 30
0.0
  9
$UCSORGBOTTOM
 10
0.0
 20
0.0
 30
0.0
  9
$UCSORGLEFT
 10
0.0
 20
0.0
 30
0.0
  9
$UCSORGRIGHT
 10
0.0
 20
0.0
 30
0.0
  9
$UCSORGFRONT
 10
0.0
 20
0.0
 30
0.0
  9
$UCSORGBACK
 10
0.0
 20
0.0
 30
0.0
  9
$PUCSBASE
  2

  9
$PUCSNAME
  2

  9
$PUCSORG
 10
0.0
 20
0.0
 30
0.0
  9
$PUCSXDIR
 10
1.0
 20
0.0
 30
0.0
  9
$PUCSYDIR
 10
0.0
 20
1.0
 30
0.0
  9
$PUCSORTHOREF
  2

  9
$PUCSORTHOVIEW
 70
     0
  9
$PUCSORGTOP
 10
0.0
 20
0.0
 30
0.0
  9
$PUCSORGBOTTOM
 10
0.0
 20
0.0
 30
0.0
  9
$PUCSORGLEFT
 10
0.0
 20
0.0
 30
0.0
  9
$PUCSORGRIGHT
 10
0.0
 20
0.0
 30
0.0
  9
$PUCSORGFRONT
 10
0.0
 20
0.0
 30
0.0
  9
$PUCSORGBACK
 10
0.0
 20
0.0
 30
0.0
  9
$USERI1
 70
     0
  9
$USERI2
 70
     0
  9
$USERI3
 70
     0
  9
$USERI4
 70
     0
  9
$USERI5
 70
     0
  9
$USERR1
 40
0.0
  9
$USERR2
 40
0.0
  9
$USERR3
 40
0.0
  9
$USERR4
 40
0.0
  9
$USERR5
 40
0.0
  9
$WORLDVIEW
 70
     1
  9
$SHADEDGE
 70
     3
  9
$SHADEDIF
 70
    70
  9
$TILEMODE
 70
     1
  9
$MAXACTVP
 70
    64
  9
$PINSBASE
 10
0.0
 20
0.0
 30
0.0
  9
$PLIMCHECK
 70
     0
  9
$PEXTMIN
 10
1.000000000000000E+20
 20
1.000000000000000E+20
 30
1.000000000000000E+20
  9
$PEXTMAX
 10
-1.000000000000000E+20
 20
-1.000000000000000E+20
 30
-1.000000000000000E+20
  9
$PLIMMIN
 10
0.0
 20
0.0
  9
$PLIMMAX
 10
420.0
 20
297.0
  9
$UNITMODE
 70
     0
  9
$VISRETAIN
 70
     1
  9
$PLINEGEN
 70
     0
  9
$PSLTSCALE
 70
     1
  9
$TREEDEPTH
 70
  3020
  9
$CMLSTYLE
  2
Standard
  9
$CMLJUST
 70
     0
  9
$CMLSCALE
 40
20.0
  9
$PROXYGRAPHICS
 70
     1
  9
$MEASUREMENT
 70
     1
  9
$CELWEIGHT
370
    -1
  9
$ENDCAPS
280
     0
  9
$JOINSTYLE
280
     0
  9
$LWDISPLAY
290
     0
  9
$INSUNITS
 70
     4
  9
$HYPERLINKBASE
  1

  9
$STYLESHEET
  1

  9
$XEDIT
290
     1
  9
$CEPSNTYPE
380
     0
  9
$PSTYLEMODE
290
     1
  9
$FINGERPRINTGUID
  2
{98B82936-8A40-422D-AB9F-592920CFB5B8}
  9
$VERSIONGUID
  2
{FAEB1C32-E019-11D5-929B-00C0DF256EC4}
  9
$EXTNAMES
290
     1
  9
$PSVPSCALE
 40
0.0
  9
$OLESTARTUP
290
     0
  9
$SORTENTS
280
   127
  9
$INDEXCTL
280
     0
  9
$HIDETEXT
280
     1
  9
$XCLIPFRAME
280
     2
  9
$HALOGAP
280
     0
  9
$OBSCOLOR
 70
   257
  9
$OBSLTYPE
280
     0
  9
$INTERSECTIONDISPLAY
280
     0
  9
$INTERSECTIONCOLOR
 70
   257
  9
$DIMASSOC
280
     2
  9
$PROJECTNAME
  1

  9
$CAMERADISPLAY
290
     0
  9
$LENSLENGTH
 40
50.0
  9
$CAMERAHEIGHT
 40
0.0
  9
$STEPSPERSEC
 40
2.0
  9
$STEPSIZE
 40
6.0
  9
$3DDWFPREC
 40
2.0
  9
$PSOLWIDTH
 40
5.0
  9
$PSOLHEIGHT
 40
80.0
  9
$LOFTANG1
 40
1.570796326794897
  9
$LOFTANG2
 40
1.570796326794897
  9
$LOFTMAG1
 40
0.0
  9
$LOFTMAG2
 40
0.0
  9
$LOFTPARAM
 70
     7
  9
$LOFTNORMALS
280
     1
  9
$LATITUDE
 40
37.795
  9
$LONGITUDE
 40
-122.394
  9
$NORTHDIRECTION
 40
0.0
  9
$TIMEZONE
 70
 -8000
  9
$LIGHTGLYPHDISPLAY
280
     1
  9
$TILEMODELIGHTSYNCH
280
     1
  9
$CMATERIAL
347
44
  9
$SOLIDHIST
280
     0
  9
$SHOWHIST
280
     1
  9
$DWFFRAME
280
     2
  9
$DGNFRAME
280
     2
  9
$REALWORLDSCALE
290
     1
  9
$INTERFERECOLOR
 62
   256
  9
$CSHADOW
280
     0
  9
$SHADOWPLANELOCATION
 40
0.0
  0
ENDSEC
  0
SECTION
  2
CLASSES
  0
CLASS
  1
ACDBDICTIONARYWDFLT
  2
AcDbDictionaryWithDefault
  3
ObjectDBX Classes
 90
        0
 91
        4
280
     0
281
     0
  0
CLASS
  1
VISUALSTYLE
  2
AcDbVisualStyle
  3
ObjectDBX Classes
 90
     4095
 91
        4
280
     0
281
     0
  0
CLASS
  1
MATERIAL
  2
AcDbMaterial
  3
ObjectDBX Classes
 90
     1153
 91
        4
280
     0
281
     0
  0
CLASS
  1
SCALE
  2
AcDbScale
  3
ObjectDBX Classes
 90
     1153
 91
        4
280
     0
281
     0
  0
CLASS
  1
TABLESTYLE
  2
AcDbTableStyle
  3
ObjectDBX Classes
 90
     4095
 91
        4
280
     0
281
     0
  0
CLASS
  1
MLEADERSTYLE
  2
AcDbMLeaderStyle
  3
ACDB_MLEADERSTYLE_CLASS
 90
     4095
 91
        4
280
     0
281
     0
  0
CLASS
  1
SUN
  2
AcDbSun
  3
SCENEOE
 90
     1153
 91
        4
280
     0
281
     0
  0
CLASS
  1
DICTIONARYVAR
  2
AcDbDictionaryVar
  3
ObjectDBX Classes
 90
        0
 91
        4
280
     0
281
     0
  0
CLASS
  1
CELLSTYLEMAP
  2
AcDbCellStyleMap
  3
ObjectDBX Classes
 90
     1152
 91
        4
280
     0
281
     0
  0
ENDSEC
  0
SECTION
  2
TABLES
  0
TABLE
  2
VPORT
  5
8
330
0
100
AcDbSymbolTable
 70
     1
  0
VPORT
  5
29
330
8
100
AcDbSymbolTableRecord
100
AcDbViewportTableRecord
  2
*Active
 70
     0
 10
0.0
 20
0.0
 11
1.0
 21
1.0
 12
105.0007813684675
 22
76.49986211538311
 13
0.0
 23
0.0
 14
10.0
 24
10.0
 15
10.0
 25
10.0
 16
0.0
 26
0.0
 36
1.0
 17
0.0
 27
0.0
 37
0.0
 40
168.2996966538429
 41
1.372561707498205
 42
50.0
 43
0.0
 44
0.0
 50
0.0
 51
0.0
 71
     0
 72
 10000
 73
     1
 74
     3
 75
     0
 76
     0
 77
     0
 78
     0
281
     0
 65
     1
110
0.0
120
0.0
130
0.0
111
1.0
121
0.0
131
0.0
112
0.0
122
1.0
132
0.0
 79
     0
146
0.0
348
2F
 60
     3
 61
     5
292
     1
282
     1
141
0.0
142
0.0
 63
   250
361
6D
  0
ENDTAB
  0
TABLE
  2
LTYPE
  5
5
330
0
100
AcDbSymbolTable
 70
     1
  0
LTYPE
  5
14
330
5
100
AcDbSymbolTableRecord
100
AcDbLinetypeTableRecord
  2
ByBlock
 70
     0
  3

 72
    65
 73
     0
 40
0.0
  0
LTYPE
  5
15
330
5
100
AcDbSymbolTableRecord
100
AcDbLinetypeTableRecord
  2
ByLayer
 70
     0
  3

 72
    65
 73
     0
 40
0.0
  0
LTYPE
  5
16
330
5
100
AcDbSymbolTableRecord
100
AcDbLinetypeTableRecord
  2
Continuous
 70
     0
  3
Solid line
 72
    65
 73
     0
 40
0.0
  0
ENDTAB
  0
TABLE
  2
LAYER
  5
2
330
0
100
AcDbSymbolTable
 70
     2
  0
LAYER
  5
10
330
2
100
AcDbSymbolTableRecord
100
AcDbLayerTableRecord
  2
0
 70
     0
 62
     7
  6
Continuous
370
    -3
390
F
347
46
  0
LAYER
  5
6F
330
2
100
AcDbSymbolTableRecord
100
AcDbLayerTableRecord
  2
layer0
 70
     0
 62
     7
  6
Continuous
370
    -3
390
F
347
46
  0
ENDTAB
  0
TABLE
  2
STYLE
  5
3
330
0
100
AcDbSymbolTable
 70
     2
  0
STYLE
  5
11
330
3
100
AcDbSymbolTableRecord
100
AcDbTextStyleTableRecord
  2
Standard
 70
     0
 40
0.0
 41
1.0
 50
0.0
 71
     0
 42
2.5
  3
txt
  4

  0
STYLE
  5
6E
330
3
100
AcDbSymbolTableRecord
100
AcDbTextStyleTableRecord
  2
MS Gothic
 70
     0
 40
1.0
 41
1.0
 50
0.0
 71
     0
 42
2.5
  3

  4

1001
ACAD
1000
MS Gothic
1071
    32817
  0
ENDTAB
  0
TABLE
  2
VIEW
  5
6
330
0
100
AcDbSymbolTable
 70
     0
  0
ENDTAB
  0
TABLE
  2
UCS
  5
7
330
0
100
AcDbSymbolTable
 70
     0
  0
ENDTAB
  0
TABLE
  2
APPID
  5
9
330
0
100
AcDbSymbolTable
 70
     1
  0
APPID
  5
12
330
9
100
AcDbSymbolTableRecord
100
AcDbRegAppTableRecord
  2
ACAD
 70
     0
  0
ENDTAB
  0
TABLE
  2
DIMSTYLE
  5
A
330
0
100
AcDbSymbolTable
 70
     1
100
AcDbDimStyleTable
  0
DIMSTYLE
105
27
330
A
100
AcDbSymbolTableRecord
100
AcDbDimStyleTableRecord
  2
ISO-25
 70
     0
 41
2.5
 42
0.625
 43
3.75
 44
1.25
 73
     0
 74
     0
 77
     1
 78
     8
140
2.5
141
2.5
143
0.03937007874016
147
0.625
171
     3
172
     1
178
     0
271
     2
272
     2
274
     3
278
    44
283
     0
284
     8
340
11
  0
ENDTAB
  0
TABLE
  2
BLOCK_RECORD
  5
1
330
0
100
AcDbSymbolTable
 70
     1
  0
BLOCK_RECORD
  5
1F
330
1
100
AcDbSymbolTableRecord
100
AcDbBlockTableRecord
  2
*Model_Space
340
22
 70
     0
280
     1
281
     0
  0
BLOCK_RECORD
  5
1B
330
1
100
AcDbSymbolTableRecord
100
AcDbBlockTableRecord
  2
*Paper_Space
340
1E
 70
     0
280
     1
281
     0
  0
BLOCK_RECORD
  5
23
330
1
100
AcDbSymbolTableRecord
100
AcDbBlockTableRecord
  2
*Paper_Space0
340
26
 70
     0
280
     1
281
     0
  0
ENDTAB
  0
ENDSEC
  0
SECTION
  2
BLOCKS
  0
BLOCK
  5
20
330
1F
100
AcDbEntity
  8
0
100
AcDbBlockBegin
  2
*Model_Space
 70
     0
 10
0.0
 20
0.0
 30
0.0
  3
*Model_Space
  1

  0
ENDBLK
  5
21
330
1F
100
AcDbEntity
  8
0
100
AcDbBlockEnd
  0
BLOCK
  5
1C
330
1B
100
AcDbEntity
 67
     1
  8
0
100
AcDbBlockBegin
  2
*Paper_Space
 70
     0
 10
0.0
 20
0.0
 30
0.0
  3
*Paper_Space
  1

  0
ENDBLK
  5
1D
330
1B
100
AcDbEntity
 67
     1
  8
0
100
AcDbBlockEnd
  0
BLOCK
  5
24
330
23
100
AcDbEntity
  8
0
100
AcDbBlockBegin
  2
*Paper_Space0
 70
     0
 10
0.0
 20
0.0
 30
0.0
  3
*Paper_Space0
  1

  0
ENDBLK
  5
25
330
23
100
AcDbEntity
  8
0
100
AcDbBlockEnd
  0
ENDSEC
  0
SECTION
  2
ENTITIES
  0
LINE
  5
70
330
1F
100
AcDbEntity
  8
layer0
  6
Continuous
 62
    18
420
        0
370
     5
100
AcDbLine
 10
164.8318937341901
 20
31.43955336083309
 30
0.0
 11
202.3321558764777
 21
31.43955336083309
 31
0.0
  0
LINE
  5
71
330
1F
100
AcDbEntity
  8
layer0
  6
Continuous
 62
    18
420
        0
370
     5
100
AcDbLine
 10
105.0819133659469
 20
28.46563663117094
 30
0.0
 11
202.3321558764777
 21
28.46563663117094
 31
0.0
  0
LINE
  5
72
330
1F
100
AcDbEntity
  8
layer0
  6
Continuous
 62
    18
420
        0
370
     5
100
AcDbLine
 10
7.665861507362782
 20
31.43955336083309
 30
0.0
 11
104.9161073822446
 21
31.43955336083309
 31
0.0
  0
TEXT
  5
73
330
1F
100
AcDbEntity
  8
layer0
  6
Continuous
 62
    18
420
        0
100
AcDbText
 10
191.3537348513071
 20
4.994187026613283
 30
0.0
 40
1.142470816175143
  1
,
 41
0.2700051700367647
  7
MS Gothic
100
AcDbText
  0
TEXT
  5
74
330
1F
100
AcDbEntity
  8
layer0
  6
Continuous
 62
    18
420
        0
100
AcDbText
 10
187.2332715207206
 20
4.994187026613283
 30
0.0
 40
1.142470816175143
  1
（
 41
0.4164895450367648
  7
MS Gothic
100
AcDbText
  0
TEXT
  5
75
330
1F
100
AcDbEntity
  8
layer0
  6
Continuous
 62
    18
420
        0
100
AcDbText
 10
197.3015629276698
 20
5.015353504558402
 30
0.0
 40
1.142470816175143
  1
印
 41
0.7820111443014706
  7
MS Gothic
100
AcDbText
  0
TEXT
  5
76
330
1F
100
AcDbEntity
  8
layer0
  6
Continuous
 62
    18
420
        0
100
AcDbText
 10
199.0513268987868
 20
5.015353504558402
 30
0.0
 40
1.142470816175143
  1
刷
 41
0.8989975873161765
  7
MS Gothic
100
AcDbText
  0
TEXT
  5
77
330
1F
100
AcDbEntity
  8
layer0
  6
Continuous
 62
    18
420
        0
100
AcDbText
 10
194.7227582721179
 20
5.015353504558402
 30
0.0
 40
1.142470816175143
  1
1
 41
0.6210075827205883
  7
MS Gothic
100
AcDbText
  0
TEXT
  5
78
330
1F
100
AcDbEntity
  8
layer0
  6
Continuous
 62
    18
420
        0
100
AcDbText
 10
195.5976402576764
 20
5.015353504558402
 30
0.0
 40
1.142470816175143
  1
6
 41
0.7799862132352943
  7
MS Gothic
100
AcDbText
  0
TEXT
  5
79
330
1F
100
AcDbEntity
  8
layer0
  6
Continuous
 62
    18
420
        0
100
AcDbText
 10
192.1439320847195
 20
5.015353504558402
 30
0.0
 40
1.142470816175143
  1
1
 41
0.6210075827205883
  7
MS Gothic
100
AcDbText
  0
TEXT
  5
7A
330
1F
100
AcDbEntity
  8
layer0
  6
Continuous
 62
    18
420
        0
100
AcDbText
 10
189.5651274291675
 20
5.015353504558402
 30
0.0
 40
1.142470816175143
  1
1
 41
0.6210075827205883
  7
MS Gothic
100
AcDbText
  0
TEXT
  5
7B
330
1F
100
AcDbEntity
  8
layer0
  6
Continuous
 62
    18
420
        0
100
AcDbText
 10
190.4400309465725
 20
5.015353504558402
 30
0.0
 40
1.142470816175143
  1
9
 41
0.7800149356617647
  7
MS Gothic
100
AcDbText
  0
TEXT
  5
7C
330
1F
100
AcDbEntity
  8
layer0
  6
Continuous
 62
    18
420
        0
100
AcDbText
 10
194.0030993677242
 20
5.040048177407843
 30
0.0
 40
1.142470816175143
  1
,
 41
0.2700051700367647
  7
MS Gothic
100
AcDbText
  0
TEXT
  5
7D
330
1F
100
AcDbEntity
  8
layer0
  6
Continuous
 62
    18
420
        0
100
AcDbText
 10
200.9739700651699
 20
5.061214655352961
 30
0.0
 40
1.142470816175143
  1
）
 41
0.2380083869485294
  7
MS Gothic
100
AcDbText
  0
TEXT
  5
7E
330
1F
100
AcDbEntity
  8
layer0
  6
Continuous
 62
    18
420
        0
100
AcDbText
 10
128.0830284379853
 20
7.683157390308226
 30
0.0
 40
0.7607511347322468
  1
会
 41
0.8910054693055025
  7
MS Gothic
100
AcDbText
  0
TEXT
  5
7F
330
1F
100
AcDbEntity
  8
layer0
  6
Continuous
 62
    18
420
        0
100
AcDbText
 10
129.0849160199165
 20
7.683157390308226
 30
0.0
 40
0.7607511347322468
  1
社
 41
0.9029968289485655
  7
MS Gothic
100
AcDbText
  0
TEXT
  5
80
330
1F
100
AcDbEntity
  8
layer0
  6
Continuous
 62
    18
420
        0
100
AcDbText
 10
131.5825779120658
 20
7.660734595063165
 30
0.0
 40
1.524190497618039
  1
ウ
 41
0.7379979163814333
  7
MS Gothic
100
AcDbText
  0
TEXT
  5
81
330
1F
100
AcDbEntity
  8
layer0
  6
Continuous
 62
    18
420
        0
100
AcDbText
 10
135.5195791448488
 20
7.660734595063165
 30
0.0
 40
1.524190497618039
  1
ッ
 41
0.7746629930302723
  7
MS Gothic
100
AcDbText
  0
TEXT
  5
82
330
1F
100
AcDbEntity
  8
layer0
  6
Continuous
 62
    18
420
        0
100
AcDbText
 10
139.4565803776317
 20
7.660734595063165
 30
0.0
 40
1.524190497618039
  1
ド
 41
0.6614967539752408
  7
MS Gothic
100
AcDbText
  0
TEXT
  5
83
330
1F
100
AcDbEntity
  8
layer0
  6
Continuous
 62
    18
420
        0
100
AcDbText
 10
143.3971020673117
 20
7.660734595063165
 30
0.0
 40
1.524190497618039
  1
ワ
 41
0.6880018353604939
  7
MS Gothic
100
AcDbText
  0
TEXT
  5
84
330
1F
100
AcDbEntity
  8
layer0
  6
Continuous
 62
    18
420
        0
100
AcDbText
 10
147.3341140660179
 20
7.660734595063165
 30
0.0
 40
1.524190497618039
  1
ン
 41
0.8936689313768263
  7
MS Gothic
100
AcDbText
  0
TEXT
  5
85
330
1F
100
AcDbEntity
  8
layer0
  6
Continuous
 62
    18
420
        0
100
AcDbText
 10
128.0830284379853
 20
8.88260168216478
 30
0.0
 40
0.7607511347322468
  1
株
 41
0.9339996697523478
  7
MS Gothic
100
AcDbText
  0
TEXT
  5
86
330
1F
100
AcDbEntity
  8
layer0
  6
Continuous
 62
    18
420
        0
100
AcDbText
 10
129.0849160199165
 20
8.88260168216478
 30
0.0
 40
0.7607511347322468
  1
式
 41
0.8480004852618559
  7
MS Gothic
100
AcDbText
  0
TEXT
  5
87
330
1F
100
AcDbEntity
  8
layer0
  6
Continuous
 62
    18
420
        0
100
AcDbText
 10
178.8336336192555
 20
9.030768373521015
 30
0.0
 40
0.7607511347322468
  1
Ｎ
 41
0.5860022173770922
  7
MS Gothic
100
AcDbText
  0
TEXT
  5
88
330
1F
100
AcDbEntity
  8
layer0
  6
Continuous
 62
    18
420
        0
100
AcDbText
 10
179.8320007442898
 20
9.030768373521015
 30
0.0
 40
0.7607511347322468
  1
Ｏ
 41
0.6920049739340245
  7
MS Gothic
100
AcDbText
  0
TEXT
  5
89
330
1F
100
AcDbEntity
  8
layer0
  6
Continuous
 62
    18
420
        0
100
AcDbText
 10
180.8338775602978
 20
9.030768373521015
 30
0.0
 40
0.7607511347322468
  1
．
 41
0.08999989890378
  7
MS Gothic
100
AcDbText
  0
TEXT
  5
8A
330
1F
100
AcDbEntity
  8
layer0
  6
Continuous
 62
    18
420
        0
100
AcDbText
 10
153.8322746061749
 20
9.030768373521015
 30
0.0
 40
0.7607511347322468
  1
Ｆ
 41
0.5319979645961037
  7
MS Gothic
100
AcDbText
  0
TEXT
  5
8B
330
1F
100
AcDbEntity
  8
layer0
  6
Continuous
 62
    18
420
        0
100
AcDbText
 10
154.8341621881061
 20
9.030768373521015
 30
0.0
 40
0.7607511347322468
  1
Ｉ
 41
0.2000033698740004
  7
MS Gothic
100
AcDbText
  0
TEXT
  5
8C
330
1F
100
AcDbEntity
  8
layer0
  6
Continuous
 62
    18
420
        0
100
AcDbText
 10
155.8325293131404
 20
9.030768373521015
 30
0.0
 40
0.7607511347322468
  1
Ｌ
 41
0.5319979645961037
  7
MS Gothic
100
AcDbText
  0
TEXT
  5
8D
330
1F
100
AcDbEntity
  8
layer0
  6
Continuous
 62
    18
420
        0
100
AcDbText
 10
156.8344168950716
 20
9.030768373521015
 30
0.0
 40
0.7607511347322468
  1
Ｅ
 41
0.5859914337802908
  7
MS Gothic
100
AcDbText
  0
TEXT
  5
8E
330
1F
100
AcDbEntity
  8
layer0
  6
Continuous
 62
    18
420
        0
100
AcDbText
 10
113.3333906318876
 20
11.11840869930718
 30
0.0
 40
1.142470816175143
  1
Ｓ
 41
0.6242550120634192
  7
MS Gothic
100
AcDbText
  0
TEXT
  5
8F
330
1F
100
AcDbEntity
  8
layer0
  6
Continuous
 62
    18
420
        0
100
AcDbText
 10
114.5786957381036
 20
11.11840869930718
 30
0.0
 40
1.142470816175143
  1
Ｏ
 41
0.7861058852251838
  7
MS Gothic
100
AcDbText
  0
TEXT
  5
90
330
1F
100
AcDbEntity
  8
layer0
  6
Continuous
 62
    18
420
        0
100
AcDbText
 10
115.8239900783964
 20
11.11840869930718
 30
0.0
 40
1.142470816175143
  1
Ｆ
 41
0.5741038602941176
  7
MS Gothic
100
AcDbText
  0
TEXT
  5
91
330
1F
100
AcDbEntity
  8
layer0
  6
Continuous
 62
    18
420
        0
100
AcDbText
 10
117.0692951846124
 20
11.11840869930718
 30
0.0
 40
1.142470816175143
  1
Ｔ
 41
0.7829912971047795
  7
MS Gothic
100
AcDbText
  0
TEXT
  5
92
330
1F
100
AcDbEntity
  8
layer0
  6
Continuous
 62
    18
420
        0
100
AcDbText
 10
118.3146002908284
 20
11.11840869930718
 30
0.0
 40
1.142470816175143
  1
Ａ
 41
0.8639167336856618
  7
MS Gothic
100
AcDbText
  0
TEXT
  5
93
330
1F
100
AcDbEntity
  8
layer0
  6
Continuous
 62
    18
420
        0
100
AcDbText
 10
119.5599161629677
 20
11.11840869930718
 30
0.0
 40
1.142470816175143
  1
Ｒ
 41
0.6488037109375001
  7
MS Gothic
100
AcDbText
  0
TEXT
  5
94
330
1F
100
AcDbEntity
  8
layer0
  6
Continuous
 62
    18
420
        0
100
AcDbText
 10
120.8016900463634
 20
11.11840869930718
 30
0.0
 40
1.142470816175143
  1
Ｔ
 41
0.7829912971047795
  7
MS Gothic
100
AcDbText
  0
TEXT
  5
95
330
1F
100
AcDbEntity
  8
layer0
  6
Continuous
 62
    18
420
        0
100
AcDbText
 10
164.3344650171599
 20
11.13252013318406
 30
0.0
 40
1.142470816175143
  1
1
 41
0.6210075827205883
  7
MS Gothic
100
AcDbText
  0
TEXT
  5
96
330
1F
100
AcDbEntity
  8
layer0
  6
Continuous
 62
    18
420
        0
100
AcDbText
 10
165.2093577686416
 20
11.13252013318406
 30
0.0
 40
1.142470816175143
  1
/
 41
0.9060058593750001
  7
MS Gothic
100
AcDbText
  0
TEXT
  5
97
330
1F
100
AcDbEntity
  8
layer0
  6
Continuous
 62
    18
420
        0
100
AcDbText
 10
166.0842505201233
 20
11.13252013318406
 30
0.0
 40
1.142470816175143
  1
2
 41
0.7959989659926472
  7
MS Gothic
100
AcDbText
  0
TEXT
  5
98
330
1F
100
AcDbEntity
  8
layer0
  6
Continuous
 62
    18
420
        0
100
AcDbText
 10
127.1728557560709
 20
11.13252013318406
 30
0.0
 40
1.142470816175143
  1
洋
 41
0.8859935087316176
  7
MS Gothic
100
AcDbText
  0
TEXT
  5
99
330
1F
100
AcDbEntity
  8
layer0
  6
Continuous
 62
    18
420
        0
100
AcDbText
 10
128.9226304931112
 20
11.13252013318406
 30
0.0
 40
1.142470816175143
  1
風
 41
0.9260038488051471
  7
MS Gothic
100
AcDbText
  0
TEXT
  5
9A
330
1F
100
AcDbEntity
  8
layer0
  6
Continuous
 62
    18
420
        0
100
AcDbText
 10
130.6724159960747
 20
11.13252013318406
 30
0.0
 40
1.142470816175143
  1
造
 41
0.8979994829963236
  7
MS Gothic
100
AcDbText
  0
TEXT
  5
9B
330
1F
100
AcDbEntity
  8
layer0
  6
Continuous
 62
    18
420
        0
100
AcDbText
 10
132.4221907331149
 20
11.13252013318406
 30
0.0
 40
1.142470816175143
  1
作
 41
0.8750000000000001
  7
MS Gothic
100
AcDbText
  0
TEXT
  5
9C
330
1F
100
AcDbEntity
  8
layer0
  6
Continuous
 62
    18
420
        0
100
AcDbText
 10
134.1719654701552
 20
11.13252013318406
 30
0.0
 40
1.142470816175143
  1
材
 41
0.9030043658088236
  7
MS Gothic
100
AcDbText
  0
TEXT
  5
9D
330
1F
100
AcDbEntity
  8
layer0
  6
Continuous
 62
    18
420
        0
100
AcDbText
 10
178.8336336192555
 20
12.3645192654714
 30
0.0
 40
0.7607511347322468
  1
Ｄ
 41
0.608992845757497
  7
MS Gothic
100
AcDbText
  0
TEXT
  5
9E
330
1F
100
AcDbEntity
  8
layer0
  6
Continuous
 62
    18
420
        0
100
AcDbText
 10
179.8320007442898
 20
12.3645192654714
 30
0.0
 40
0.7607511347322468
  1
Ａ
 41
0.6880150431175378
  7
MS Gothic
100
AcDbText
  0
TEXT
  5
9F
330
1F
100
AcDbEntity
  8
layer0
  6
Continuous
 62
    18
420
        0
100
AcDbText
 10
180.8338775602978
 20
12.3645192654714
 30
0.0
 40
0.7607511347322468
  1
Ｔ
 41
0.5900137153871815
  7
MS Gothic
100
AcDbText
  0
TEXT
  5
A0
330
1F
100
AcDbEntity
  8
layer0
  6
Continuous
 62
    18
420
        0
100
AcDbText
 10
181.8322662171785
 20
12.3645192654714
 30
0.0
 40
0.7607511347322468
  1
Ｅ
 41
0.5860022173770922
  7
MS Gothic
100
AcDbText
  0
TEXT
  5
A1
330
1F
100
AcDbEntity
  8
layer0
  6
Continuous
 62
    18
420
        0
100
AcDbText
 10
153.8322746061749
 20
12.3645192654714
 30
0.0
 40
0.7607511347322468
  1
Ｓ
 41
0.6010022005277222
  7
MS Gothic
100
AcDbText
  0
TEXT
  5
A2
330
1F
100
AcDbEntity
  8
layer0
  6
Continuous
 62
    18
420
        0
100
AcDbText
 10
154.8341621881061
 20
12.3645192654714
 30
0.0
 40
0.7607511347322468
  1
Ｃ
 41
0.6449992754770898
  7
MS Gothic
100
AcDbText
  0
TEXT
  5
A3
330
1F
100
AcDbEntity
  8
layer0
  6
Continuous
 62
    18
420
        0
100
AcDbText
 10
155.8325293131404
 20
12.3645192654714
 30
0.0
 40
0.7607511347322468
  1
Ａ
 41
0.6880042595207364
  7
MS Gothic
100
AcDbText
  0
TEXT
  5
A4
330
1F
100
AcDbEntity
  8
layer0
  6
Continuous
 62
    18
420
        0
100
AcDbText
 10
156.8344168950716
 20
12.3645192654714
 30
0.0
 40
0.7607511347322468
  1
Ｌ
 41
0.5319979645961037
  7
MS Gothic
100
AcDbText
  0
TEXT
  5
A5
330
1F
100
AcDbEntity
  8
layer0
  6
Continuous
 62
    18
420
        0
100
AcDbText
 10
157.8327732541827
 20
12.3645192654714
 30
0.0
 40
0.7607511347322468
  1
Ｅ
 41
0.5859914337802908
  7
MS Gothic
100
AcDbText
  0
TEXT
  5
A6
330
1F
100
AcDbEntity
  8
layer0
  6
Continuous
 62
    18
420
        0
100
AcDbText
 10
106.5000761355825
 20
12.3645192654714
 30
0.0
 40
0.7607511347322468
  1
図
 41
0.7960019814859122
  7
MS Gothic
100
AcDbText
  0
TEXT
  5
A7
330
1F
100
AcDbEntity
  8
layer0
  6
Continuous
 62
    18
420
        0
100
AcDbText
 10
107.4984432606167
 20
12.3645192654714
 30
0.0
 40
0.7607511347322468
  1
面
 41
0.8480004852618559
  7
MS Gothic
100
AcDbText
  0
TEXT
  5
A8
330
1F
100
AcDbEntity
  8
layer0
  6
Continuous
 62
    18
420
        0
100
AcDbText
 10
108.500330842548
 20
12.3645192654714
 30
0.0
 40
0.7607511347322468
  1
名
 41
0.758000586358076
  7
MS Gothic
100
AcDbText
  0
TEXT
  5
A9
330
1F
100
AcDbEntity
  8
layer0
  6
Continuous
 62
    18
420
        0
100
AcDbText
 10
68.16724746900137
 20
139.8077543861895
 30
0.0
 40
1.524190497618039
  1
長
 41
0.6592496483851619
  7
MS Gothic
100
AcDbText
  0
TEXT
  5
AA
330
1F
100
AcDbEntity
  8
layer0
  6
Continuous
 62
    18
420
        0
100
AcDbText
 10
69.66655300203962
 20
139.8077543861895
 30
0.0
 40
1.524190497618039
  1
さ
 41
0.5809987795660058
  7
MS Gothic
100
AcDbText
  0
TEXT
  5
AB
330
1F
100
AcDbEntity
  8
layer0
  6
Continuous
 62
    18
420
        0
100
AcDbText
 10
71.16585853507786
 20
139.8077543861895
 30
0.0
 40
1.524190497618039
  1
×
 41
0.454997631792911
  7
MS Gothic
100
AcDbText
  0
TEXT
  5
AC
330
1F
100
AcDbEntity
  8
layer0
  6
Continuous
 62
    18
420
        0
100
AcDbText
 10
72.6651640681161
 20
139.8077543861895
 30
0.0
 40
1.524190497618039
  1
幅
 41
0.6675006971746009
  7
MS Gothic
100
AcDbText
  0
TEXT
  5
AD
330
1F
100
AcDbEntity
  8
layer0
  6
Continuous
 62
    18
420
        0
100
AcDbText
 10
74.16799544101296
 20
139.8077543861895
 30
0.0
 40
1.524190497618039
  1
×
 41
0.454997631792911
  7
MS Gothic
100
AcDbText
  0
TEXT
  5
AE
330
1F
100
AcDbEntity
  8
layer0
  6
Continuous
 62
    18
420
        0
100
AcDbText
 10
75.66730097405122
 20
139.8077543861895
 30
0.0
 40
1.524190497618039
  1
厚
 41
0.6734992580851228
  7
MS Gothic
100
AcDbText
  0
TEXT
  5
AF
330
1F
100
AcDbEntity
  8
layer0
  6
Continuous
 62
    18
420
        0
100
AcDbText
 10
77.16660650708945
 20
139.8077543861895
 30
0.0
 40
1.524190497618039
  1
さ
 41
0.5809987795660058
  7
MS Gothic
100
AcDbText
  0
TEXT
  5
B0
330
1F
100
AcDbEntity
  8
layer0
  6
Continuous
 62
    18
420
        0
100
AcDbText
 10
78.6659120401277
 20
139.8077543861895
 30
0.0
 40
1.524190497618039
  1
(
 41
0.5974968824773867
  7
MS Gothic
100
AcDbText
  0
TEXT
  5
B1
330
1F
100
AcDbEntity
  8
layer0
  6
Continuous
 62
    18
420
        0
100
AcDbText
 10
79.41733580101855
 20
139.8077543861895
 30
0.0
 40
1.524190497618039
  1
㎜
 41
0.6705013232020716
  7
MS Gothic
100
AcDbText
  0
TEXT
  5
B2
330
1F
100
AcDbEntity
  8
layer0
  6
Continuous
 62
    18
420
        0
100
AcDbText
 10
80.9166413340568
 20
139.8077543861895
 30
0.0
 40
1.524190497618039
  1
)
 41
0.5974968824773867
  7
MS Gothic
100
AcDbText
  0
TEXT
  5
B3
330
1F
100
AcDbEntity
  8
layer0
  6
Continuous
 62
    18
420
        0
100
AcDbText
 10
165.5833013461961
 20
139.8888971495922
 30
0.0
 40
1.524190497618039
  1
長
 41
0.6592496483851619
  7
MS Gothic
100
AcDbText
  0
TEXT
  5
B4
330
1F
100
AcDbEntity
  8
layer0
  6
Continuous
 62
    18
420
        0
100
AcDbText
 10
167.0826068792343
 20
139.8888971495922
 30
0.0
 40
1.524190497618039
  1
さ
 41
0.5810019332508721
  7
MS Gothic
100
AcDbText
  0
TEXT
  5
B5
330
1F
100
AcDbEntity
  8
layer0
  6
Continuous
 62
    18
420
        0
100
AcDbText
 10
168.5819124122726
 20
139.8888971495922
 30
0.0
 40
1.524190497618039
  1
×
 41
0.4550007434286458
  7
MS Gothic
100
AcDbText
  0
TEXT
  5
B6
330
1F
100
AcDbEntity
  8
layer0
  6
Continuous
 62
    18
420
        0
100
AcDbText
 10
170.0847491681311
 20
139.8888971495922
 30
0.0
 40
1.524190497618039
  1
幅
 41
0.6675006971746009
  7
MS Gothic
100
AcDbText
  0
TEXT
  5
B7
330
1F
100
AcDbEntity
  8
layer0
  6
Continuous
 62
    18
420
        0
100
AcDbText
 10
171.5840439352461
 20
139.8888971495922
 30
0.0
 40
1.524190497618039
  1
×
 41
0.4550007434286458
  7
MS Gothic
100
AcDbText
  0
TEXT
  5
B8
330
1F
100
AcDbEntity
  8
layer0
  6
Continuous
 62
    18
420
        0
100
AcDbText
 10
173.0833602342075
 20
139.8888971495922
 30
0.0
 40
1.524190497618039
  1
厚
 41
0.673501949229542
  7
MS Gothic
100
AcDbText
  0
TEXT
  5
B9
330
1F
100
AcDbEntity
  8
layer0
  6
Continuous
 62
    18
420
        0
100
AcDbText
 10
174.5826550013226
 20
139.8888971495922
 30
0.0
 40
1.524190497618039
  1
さ
 41
0.5810019332508721
  7
MS Gothic
100
AcDbText
  0
TEXT
  5
BA
330
1F
100
AcDbEntity
  8
layer0
  6
Continuous
 62
    18
420
        0
100
AcDbText
 10
176.081971300284
 20
139.8888971495922
 30
0.0
 40
1.524190497618039
  1
(
 41
0.5974878839632348
  7
MS Gothic
100
AcDbText
  0
TEXT
  5
BB
330
1F
100
AcDbEntity
  8
layer0
  6
Continuous
 62
    18
420
        0
100
AcDbText
 10
176.8333896782133
 20
139.8888971495922
 30
0.0
 40
1.524190497618039
  1
㎜
 41
0.6704986320576521
  7
MS Gothic
100
AcDbText
  0
TEXT
  5
BC
330
1F
100
AcDbEntity
  8
layer0
  6
Continuous
 62
    18
420
        0
100
AcDbText
 10
178.3326952112515
 20
139.8888971495922
 30
0.0
 40
1.524190497618039
  1
)
 41
0.5975058389424069
  7
MS Gothic
100
AcDbText
  0
TEXT
  5
BD
330
1F
100
AcDbEntity
  8
layer0
  6
Continuous
 62
    18
420
        0
100
AcDbText
 10
184.9578721137045
 20
141.7021800677804
 30
0.0
 40
1.524190497618039
  1
品
 41
0.7900015911391377
  7
MS Gothic
100
AcDbText
  0
TEXT
  5
BE
330
1F
100
AcDbEntity
  8
layer0
  6
Continuous
 62
    18
420
        0
100
AcDbText
 10
187.2085744928255
 20
141.7021800677804
 30
0.0
 40
1.524190497618039
  1
番
 41
0.8979918343950457
  7
MS Gothic
100
AcDbText
  0
TEXT
  5
BF
330
1F
100
AcDbEntity
  8
layer0
  6
Continuous
 62
    18
420
        0
100
AcDbText
 10
139.3331060040792
 20
141.7021800677804
 30
0.0
 40
1.524190497618039
  1
断
 41
0.8589971517600251
  7
MS Gothic
100
AcDbText
  0
TEXT
  5
C0
330
1F
100
AcDbEntity
  8
layer0
  6
Continuous
 62
    18
420
        0
100
AcDbText
 10
141.5838299150467
 20
141.7021800677804
 30
0.0
 40
1.524190497618039
  1
面
 41
0.8480011356629448
  7
MS Gothic
100
AcDbText
  0
TEXT
  5
C1
330
1F
100
AcDbEntity
  8
layer0
  6
Continuous
 62
    18
420
        0
100
AcDbText
 10
143.8345538260142
 20
141.7021800677804
 30
0.0
 40
1.524190497618039
  1
形
 41
0.8989983224078475
  7
MS Gothic
100
AcDbText
  0
TEXT
  5
C2
330
1F
100
AcDbEntity
  8
layer0
  6
Continuous
 62
    18
420
        0
100
AcDbText
 10
146.0817465141615
 20
141.7021800677804
 30
0.0
 40
1.524190497618039
  1
状
 41
0.8899991354698552
  7
MS Gothic
100
AcDbText
  0
TEXT
  5
C3
330
1F
100
AcDbEntity
  8
layer0
  6
Continuous
 62
    18
420
        0
100
AcDbText
 10
41.91705481836532
 20
141.7021800677804
 30
0.0
 40
1.524190497618039
  1
断
 41
0.8589998429044444
  7
MS Gothic
100
AcDbText
  0
TEXT
  5
C4
330
1F
100
AcDbEntity
  8
layer0
  6
Continuous
 62
    18
420
        0
100
AcDbText
 10
44.16777603785199
 20
141.7021800677804
 30
0.0
 40
1.524190497618039
  1
面
 41
0.8479997900907352
  7
MS Gothic
100
AcDbText
  0
TEXT
  5
C5
330
1F
100
AcDbEntity
  8
layer0
  6
Continuous
 62
    18
420
        0
100
AcDbText
 10
46.41497410896086
 20
141.7021800677804
 30
0.0
 40
1.524190497618039
  1
形
 41
0.8990010135522667
  7
MS Gothic
100
AcDbText
  0
TEXT
  5
C6
330
1F
100
AcDbEntity
  8
layer0
  6
Continuous
 62
    18
420
        0
100
AcDbText
 10
48.66569263696672
 20
141.7021800677804
 30
0.0
 40
1.524190497618039
  1
状
 41
0.8900018266142744
  7
MS Gothic
100
AcDbText
  0
TEXT
  5
C7
330
1F
100
AcDbEntity
  8
layer0
  6
Continuous
 62
    18
420
        0
100
AcDbText
 10
110.5005855495134
 20
141.7021800677804
 30
0.0
 40
1.524190497618039
  1
部
 41
0.8860000948628406
  7
MS Gothic
100
AcDbText
  0
TEXT
  5
C8
330
1F
100
AcDbEntity
  8
layer0
  6
Continuous
 62
    18
420
        0
100
AcDbText
 10
112.7513094604809
 20
141.7021800677804
 30
0.0
 40
1.524190497618039
  1
材
 41
0.902997363014862
  7
MS Gothic
100
AcDbText
  0
TEXT
  5
C9
330
1F
100
AcDbEntity
  8
layer0
  6
Continuous
 62
    18
420
        0
100
AcDbText
 10
114.998491382705
 20
141.7021800677804
 30
0.0
 40
1.524190497618039
  1
名
 41
0.7579985017053444
  7
MS Gothic
100
AcDbText
  0
TEXT
  5
CA
330
1F
100
AcDbEntity
  8
layer0
  6
Continuous
 62
    18
420
        0
100
AcDbText
 10
87.54180747058652
 20
141.7021800677804
 30
0.0
 40
1.524190497618039
  1
品
 41
0.7899988999947185
  7
MS Gothic
100
AcDbText
  0
TEXT
  5
CB
330
1F
100
AcDbEntity
  8
layer0
  6
Continuous
 62
    18
420
        0
100
AcDbText
 10
89.79252599859238
 20
141.7021800677804
 30
0.0
 40
1.524190497618039
  1
番
 41
0.8980025989727228
  7
MS Gothic
100
AcDbText
  0
TEXT
  5
CC
330
1F
100
AcDbEntity
  8
layer0
  6
Continuous
 62
    18
420
        0
100
AcDbText
 10
13.16566636127896
 20
141.7021800677804
 30
0.0
 40
1.524190497618039
  1
部
 41
0.8860000948628406
  7
MS Gothic
100
AcDbText
  0
TEXT
  5
CD
330
1F
100
AcDbEntity
  8
layer0
  6
Continuous
 62
    18
420
        0
100
AcDbText
 10
15.41638892650604
 20
141.7021800677804
 30
0.0
 40
1.524190497618039
  1
材
 41
0.9030000541592814
  7
MS Gothic
100
AcDbText
  0
TEXT
  5
CE
330
1F
100
AcDbEntity
  8
layer0
  6
Continuous
 62
    18
420
        0
100
AcDbText
 10
17.66711149173312
 20
141.7021800677804
 30
0.0
 40
1.524190497618039
  1
名
 41
0.7580005200636588
  7
MS Gothic
100
AcDbText
  0
TEXT
  5
CF
330
1F
100
AcDbEntity
  8
layer0
  6
Continuous
 62
    18
420
        0
100
AcDbText
 10
170.2082127757603
 20
143.5154522200454
 30
0.0
 40
1.524190497618039
  1
寸
 41
0.824001509732019
  7
MS Gothic
100
AcDbText
  0
TEXT
  5
D0
330
1F
100
AcDbEntity
  8
layer0
  6
Continuous
 62
    18
420
        0
100
AcDbText
 10
172.4589366867278
 20
143.5154522200454
 30
0.0
 40
1.524190497618039
  1
法
 41
0.8869958182979654
  7
MS Gothic
100
AcDbText
  0
TEXT
  5
D1
330
1F
100
AcDbEntity
  8
layer0
  6
Continuous
 62
    18
420
        0
100
AcDbText
 10
72.79216428152722
 20
143.5154522200454
 30
0.0
 40
1.524190497618039
  1
寸
 41
0.8239988185875998
  7
MS Gothic
100
AcDbText
  0
TEXT
  5
D2
330
1F
100
AcDbEntity
  8
layer0
  6
Continuous
 62
    18
420
        0
100
AcDbText
 10
75.0428881924947
 20
143.5154522200454
 30
0.0
 40
1.524190497618039
  1
法
 41
0.8870012005868038
  7
MS Gothic
100
AcDbText
  0
LINE
  5
D3
330
1F
100
AcDbEntity
  8
layer0
  6
Continuous
 62
    18
420
        0
370
     9
100
AcDbLine
 10
7.665861507362782
 20
146.3322157181635
 30
0.0
 11
7.665861507362782
 21
6.667499765290156
 31
0.0
  0
LINE
  5
D4
330
1F
100
AcDbEntity
  8
layer0
  6
Continuous
 62
    18
420
        0
370
     9
100
AcDbLine
 10
7.500055523660446
 20
146.3322157181635
 30
0.0
 11
202.5015038489235
 21
146.3322157181635
 31
0.0
  0
LINE
  5
D5
330
1F
100
AcDbEntity
  8
layer0
  6
Continuous
 62
    18
420
        0
370
     9
100
AcDbLine
 10
202.5015038489235
 20
146.3322157181635
 30
0.0
 11
202.5015038489235
 21
6.667499765290156
 31
0.0
  0
LINE
  5
D6
330
1F
100
AcDbEntity
  8
layer0
  6
Continuous
 62
    18
420
        0
370
     9
100
AcDbLine
 10
7.500055523660446
 20
146.3322157181635
 30
0.0
 11
7.500055523660446
 21
6.667499765290156
 31
0.0
  0
LINE
  5
D7
330
1F
100
AcDbEntity
  8
layer0
  6
Continuous
 62
    18
420
        0
370
     9
100
AcDbLine
 10
7.500055523660446
 20
146.1664097344611
 30
0.0
 11
202.5015038489235
 21
146.1664097344611
 31
0.0
  0
LINE
  5
D8
330
1F
100
AcDbEntity
  8
layer0
  6
Continuous
 62
    18
420
        0
370
     9
100
AcDbLine
 10
7.500055523660446
 20
146.251083720684
 30
0.0
 11
202.5015038489235
 21
146.251083720684
 31
0.0
  0
LINE
  5
D9
330
1F
100
AcDbEntity
  8
layer0
  6
Continuous
 62
    18
420
        0
370
     9
100
AcDbLine
 10
7.584722108311123
 20
146.3322157181635
 30
0.0
 11
7.584722108311123
 21
6.667499765290156
 31
0.0
  0
LINE
  5
DA
330
1F
100
AcDbEntity
  8
layer0
  6
Continuous
 62
    18
420
        0
370
     9
100
AcDbLine
 10
202.4168406286238
 20
146.3322157181635
 30
0.0
 11
202.4168406286238
 21
6.667499765290156
 31
0.0
  0
LINE
  5
DB
330
1F
100
AcDbEntity
  8
layer0
  6
Continuous
 62
    18
420
        0
370
     9
100
AcDbLine
 10
202.3321558764777
 20
146.3322157181635
 30
0.0
 11
202.3321558764777
 21
6.667499765290156
 31
0.0
  0
LINE
  5
DC
330
1F
100
AcDbEntity
  8
layer0
  6
Continuous
 62
    18
420
        0
370
     9
100
AcDbLine
 10
105.0007813684675
 20
146.3322157181635
 30
0.0
 11
105.0007813684675
 21
13.50080551428265
 31
0.0
  0
LINE
  5
DD
330
1F
100
AcDbEntity
  8
layer0
  6
Continuous
 62
    18
420
        0
370
     9
100
AcDbLine
 10
105.0819133659469
 20
146.3357469409837
 30
0.0
 11
105.0819133659469
 21
13.50080551428265
 31
0.0
  0
LINE
  5
DE
330
1F
100
AcDbEntity
  8
layer0
  6
Continuous
 62
    18
420
        0
370
     9
100
AcDbLine
 10
104.9161073822446
 20
146.3357469409837
 30
0.0
 11
104.9161073822446
 21
13.50080551428265
 31
0.0
  0
LINE
  5
DF
330
1F
100
AcDbEntity
  8
layer0
  6
Continuous
 62
    18
420
        0
370
     9
100
AcDbLine
 10
202.5015038489235
 20
138.58168762615
 30
0.0
 11
7.500055523660446
 21
138.58168762615
 31
0.0
  0
LINE
  5
E0
330
1F
100
AcDbEntity
  8
layer0
  6
Continuous
 62
    18
420
        0
370
     5
100
AcDbLine
 10
122.5832134910161
 20
146.3357469409837
 30
0.0
 11
122.5832134910161
 21
13.50080551428265
 31
0.0
  0
LINE
  5
E1
330
1F
100
AcDbEntity
  8
layer0
  6
Continuous
 62
    18
420
        0
370
     5
100
AcDbLine
 10
25.16716768826377
 20
146.3322157181635
 30
0.0
 11
25.16716768826377
 21
13.5819442404641
 31
0.0
  0
LINE
  5
E2
330
1F
100
AcDbEntity
  8
layer0
  6
Continuous
 62
    18
420
        0
370
     5
100
AcDbLine
 10
164.8318937341901
 20
146.3322157181635
 30
0.0
 11
164.8318937341901
 21
13.5819442404641
 31
0.0
  0
LINE
  5
E3
330
1F
100
AcDbEntity
  8
layer0
  6
Continuous
 62
    18
420
        0
370
     5
100
AcDbLine
 10
67.41583447403374
 20
146.3357469409837
 30
0.0
 11
67.41583447403374
 21
13.50080551428265
 31
0.0
  0
LINE
  5
E4
330
1F
100
AcDbEntity
  8
layer0
  6
Continuous
 62
    18
420
        0
370
     5
100
AcDbLine
 10
67.41583447403374
 20
142.5433858868281
 30
0.0
 11
82.41594686709504
 21
142.5433858868281
 31
0.0
  0
LINE
  5
E5
330
1F
100
AcDbEntity
  8
layer0
  6
Continuous
 62
    18
420
        0
370
     5
100
AcDbLine
 10
82.41594686709504
 20
146.3357469409837
 30
0.0
 11
82.41594686709504
 21
13.50080551428265
 31
0.0
  0
LINE
  5
E6
330
1F
100
AcDbEntity
  8
layer0
  6
Continuous
 62
    18
420
        0
370
     5
100
AcDbLine
 10
96.9151100862291
 20
146.3357469409837
 30
0.0
 11
96.9151100862291
 21
13.50080551428265
 31
0.0
  0
LINE
  5
E7
330
1F
100
AcDbEntity
  8
layer0
  6
Continuous
 62
    18
420
        0
370
     5
100
AcDbLine
 10
164.8318937341901
 20
142.5398546640079
 30
0.0
 11
179.8320007442898
 21
142.5398546640079
 31
0.0
  0
LINE
  5
E8
330
1F
100
AcDbEntity
  8
layer0
  6
Continuous
 62
    18
420
        0
370
     5
100
AcDbLine
 10
179.8320007442898
 20
146.3322157181635
 30
0.0
 11
179.8320007442898
 21
13.50080551428265
 31
0.0
  0
LINE
  5
E9
330
1F
100
AcDbEntity
  8
layer0
  6
Continuous
 62
    18
420
        0
370
     5
100
AcDbLine
 10
194.3346898032825
 20
146.3322157181635
 30
0.0
 11
194.3346898032825
 21
13.50080551428265
 31
0.0
  0
LINE
  5
EA
330
1F
100
AcDbEntity
  8
layer0
  6
Continuous
 62
    18
420
        0
370
     9
100
AcDbLine
 10
202.5015038489235
 20
138.7510248326726
 30
0.0
 11
7.500055523660446
 21
138.7510248326726
 31
0.0
  0
LINE
  5
EB
330
1F
100
AcDbEntity
  8
layer0
  6
Continuous
 62
    18
420
        0
370
     5
100
AcDbLine
 10
67.41583447403374
 20
135.6077735879687
 30
0.0
 11
104.9161073822446
 21
135.6077735879687
 31
0.0
  0
LINE
  5
EC
330
1F
100
AcDbEntity
  8
layer0
  6
Continuous
 62
    18
420
        0
370
     5
100
AcDbLine
 10
67.41583447403374
 20
123.7015237667826
 30
0.0
 11
104.9161073822446
 21
123.7015237667826
 31
0.0
  0
LINE
  5
ED
330
1F
100
AcDbEntity
  8
layer0
  6
Continuous
 62
    18
420
        0
370
     5
100
AcDbLine
 10
67.41583447403374
 20
126.6789690277841
 30
0.0
 11
104.9161073822446
 21
126.6789690277841
 31
0.0
  0
LINE
  5
EE
330
1F
100
AcDbEntity
  8
layer0
  6
Continuous
 62
    18
420
        0
370
     5
100
AcDbLine
 10
67.41583447403374
 20
129.6564142887857
 30
0.0
 11
104.9161073822446
 21
129.6564142887857
 31
0.0
  0
LINE
  5
EF
330
1F
100
AcDbEntity
  8
layer0
  6
Continuous
 62
    18
420
        0
370
     5
100
AcDbLine
 10
67.41583447403374
 20
132.6303283269671
 30
0.0
 11
104.9161073822446
 21
132.6303283269671
 31
0.0
  0
LINE
  5
F0
330
1F
100
AcDbEntity
  8
layer0
  6
Continuous
 62
    18
420
        0
370
     5
100
AcDbLine
 10
67.41583447403374
 20
117.7501644675997
 30
0.0
 11
104.9161073822446
 21
117.7501644675997
 31
0.0
  0
LINE
  5
F1
330
1F
100
AcDbEntity
  8
layer0
  6
Continuous
 62
    18
420
        0
370
     5
100
AcDbLine
 10
67.41583447403374
 20
105.8439146464136
 30
0.0
 11
104.9161073822446
 21
105.8439146464136
 31
0.0
  0
LINE
  5
F2
330
1F
100
AcDbEntity
  8
layer0
  6
Continuous
 62
    18
420
        0
370
     5
100
AcDbLine
 10
67.41583447403374
 20
108.8213599074152
 30
0.0
 11
104.9161073822446
 21
108.8213599074152
 31
0.0
  0
LINE
  5
F3
330
1F
100
AcDbEntity
  8
layer0
  6
Continuous
 62
    18
420
        0
370
     5
100
AcDbLine
 10
67.41583447403374
 20
111.7988051684167
 30
0.0
 11
104.9161073822446
 21
111.7988051684167
 31
0.0
  0
LINE
  5
F4
330
1F
100
AcDbEntity
  8
layer0
  6
Continuous
 62
    18
420
        0
370
     5
100
AcDbLine
 10
67.41583447403374
 20
114.7727192065981
 30
0.0
 11
104.9161073822446
 21
114.7727192065981
 31
0.0
  0
LINE
  5
F5
330
1F
100
AcDbEntity
  8
layer0
  6
Continuous
 62
    18
420
        0
370
     5
100
AcDbLine
 10
67.41583447403374
 20
99.89255534723068
 30
0.0
 11
104.9161073822446
 21
99.89255534723068
 31
0.0
  0
LINE
  5
F6
330
1F
100
AcDbEntity
  8
layer0
  6
Continuous
 62
    18
420
        0
370
     5
100
AcDbLine
 10
67.41583447403374
 20
87.98983136590323
 30
0.0
 11
104.9161073822446
 21
87.98983136590323
 31
0.0
  0
LINE
  5
F7
330
1F
100
AcDbEntity
  8
layer0
  6
Continuous
 62
    18
420
        0
370
     5
100
AcDbLine
 10
67.41583447403374
 20
90.96374002112296
 30
0.0
 11
104.9161073822446
 21
90.96374002112296
 31
0.0
  0
LINE
  5
F8
330
1F
100
AcDbEntity
  8
layer0
  6
Continuous
 62
    18
420
        0
370
     5
100
AcDbLine
 10
67.41583447403374
 20
93.94119604804777
 30
0.0
 11
104.9161073822446
 21
93.94119604804777
 31
0.0
  0
LINE
  5
F9
330
1F
100
AcDbEntity
  8
layer0
  6
Continuous
 62
    18
420
        0
370
     5
100
AcDbLine
 10
67.41583447403374
 20
96.9151100862291
 30
0.0
 11
104.9161073822446
 21
96.9151100862291
 31
0.0
  0
LINE
  5
FA
330
1F
100
AcDbEntity
  8
layer0
  6
Continuous
 62
    18
420
        0
370
     5
100
AcDbLine
 10
67.41583447403374
 20
82.03494084390007
 30
0.0
 11
104.9161073822446
 21
82.03494084390007
 31
0.0
  0
LINE
  5
FB
330
1F
100
AcDbEntity
  8
layer0
  6
Continuous
 62
    18
420
        0
370
     5
100
AcDbLine
 10
67.41583447403374
 20
70.13222224553425
 30
0.0
 11
104.9161073822446
 21
70.13222224553425
 31
0.0
  0
LINE
  5
FC
330
1F
100
AcDbEntity
  8
layer0
  6
Continuous
 62
    18
420
        0
370
     5
100
AcDbLine
 10
67.41583447403374
 20
73.10613628371559
 30
0.0
 11
104.9161073822446
 21
73.10613628371559
 31
0.0
  0
LINE
  5
FD
330
1F
100
AcDbEntity
  8
layer0
  6
Continuous
 62
    18
420
        0
370
     5
100
AcDbLine
 10
67.41583447403374
 20
76.08358692767878
 30
0.0
 11
104.9161073822446
 21
76.08358692767878
 31
0.0
  0
LINE
  5
FE
330
1F
100
AcDbEntity
  8
layer0
  6
Continuous
 62
    18
420
        0
370
     5
100
AcDbLine
 10
67.41583447403374
 20
79.06102680571874
 30
0.0
 11
104.9161073822446
 21
79.06102680571874
 31
0.0
  0
LINE
  5
FF
330
1F
100
AcDbEntity
  8
layer0
  6
Continuous
 62
    18
420
        0
370
     5
100
AcDbLine
 10
67.41583447403374
 20
64.1773317235311
 30
0.0
 11
104.9161073822446
 21
64.1773317235311
 31
0.0
  0
LINE
  5
100
330
1F
100
AcDbEntity
  8
layer0
  6
Continuous
 62
    18
420
        0
370
     5
100
AcDbLine
 10
67.41583447403374
 20
52.27461312516527
 30
0.0
 11
104.9161073822446
 21
52.27461312516527
 31
0.0
  0
LINE
  5
101
330
1F
100
AcDbEntity
  8
layer0
  6
Continuous
 62
    18
420
        0
370
     5
100
AcDbLine
 10
67.41583447403374
 20
55.24852716334661
 30
0.0
 11
104.9161073822446
 21
55.24852716334661
 31
0.0
  0
LINE
  5
102
330
1F
100
AcDbEntity
  8
layer0
  6
Continuous
 62
    18
420
        0
370
     5
100
AcDbLine
 10
67.41583447403374
 20
58.22597242434818
 30
0.0
 11
104.9161073822446
 21
58.22597242434818
 31
0.0
  0
LINE
  5
103
330
1F
100
AcDbEntity
  8
layer0
  6
Continuous
 62
    18
420
        0
370
     5
100
AcDbLine
 10
67.41583447403374
 20
61.20341230238814
 30
0.0
 11
104.9161073822446
 21
61.20341230238814
 31
0.0
  0
LINE
  5
104
330
1F
100
AcDbEntity
  8
layer0
  6
Continuous
 62
    18
420
        0
370
     5
100
AcDbLine
 10
67.41583447403374
 20
46.31972260316211
 30
0.0
 11
104.9161073822446
 21
46.31972260316211
 31
0.0
  0
LINE
  5
105
330
1F
100
AcDbEntity
  8
layer0
  6
Continuous
 62
    18
420
        0
370
     5
100
AcDbLine
 10
67.41583447403374
 20
34.41699862183467
 30
0.0
 11
104.9161073822446
 21
34.41699862183467
 31
0.0
  0
LINE
  5
106
330
1F
100
AcDbEntity
  8
layer0
  6
Continuous
 62
    18
420
        0
370
     5
100
AcDbLine
 10
67.41583447403374
 20
37.39444388283624
 30
0.0
 11
104.9161073822446
 21
37.39444388283624
 31
0.0
  0
LINE
  5
107
330
1F
100
AcDbEntity
  8
layer0
  6
Continuous
 62
    18
420
        0
370
     5
100
AcDbLine
 10
67.41583447403374
 20
40.36836061249839
 30
0.0
 11
104.9161073822446
 21
40.36836061249839
 31
0.0
  0
LINE
  5
108
330
1F
100
AcDbEntity
  8
layer0
  6
Continuous
 62
    18
420
        0
370
     5
100
AcDbLine
 10
67.41583447403374
 20
43.34580587349996
 30
0.0
 11
104.9161073822446
 21
43.34580587349996
 31
0.0
  0
LINE
  5
109
330
1F
100
AcDbEntity
  8
layer0
  6
Continuous
 62
    18
420
        0
370
     5
100
AcDbLine
 10
67.41583447403374
 20
28.46563663117094
 30
0.0
 11
104.9161073822446
 21
28.46563663117094
 31
0.0
  0
LINE
  5
10A
330
1F
100
AcDbEntity
  8
layer0
  6
Continuous
 62
    18
420
        0
370
     5
100
AcDbLine
 10
67.41583447403374
 20
16.55938950146568
 30
0.0
 11
104.9161073822446
 21
16.55938950146568
 31
0.0
  0
LINE
  5
10B
330
1F
100
AcDbEntity
  8
layer0
  6
Continuous
 62
    18
420
        0
370
     5
100
AcDbLine
 10
67.41583447403374
 20
19.53683341672685
 30
0.0
 11
104.9161073822446
 21
19.53683341672685
 31
0.0
  0
LINE
  5
10C
330
1F
100
AcDbEntity
  8
layer0
  6
Continuous
 62
    18
420
        0
370
     5
100
AcDbLine
 10
67.41583447403374
 20
22.5107488006486
 30
0.0
 11
104.9161073822446
 21
22.5107488006486
 31
0.0
  0
LINE
  5
10D
330
1F
100
AcDbEntity
  8
layer0
  6
Continuous
 62
    18
420
        0
370
     5
100
AcDbLine
 10
67.41583447403374
 20
25.48819406165017
 30
0.0
 11
104.9161073822446
 21
25.48819406165017
 31
0.0
  0
LINE
  5
10E
330
1F
100
AcDbEntity
  8
layer0
  6
Continuous
 62
    18
420
        0
370
     5
100
AcDbLine
 10
164.8318937341901
 20
135.6077735879687
 30
0.0
 11
202.3321558764777
 21
135.6077735879687
 31
0.0
  0
LINE
  5
10F
330
1F
100
AcDbEntity
  8
layer0
  6
Continuous
 62
    18
420
        0
370
     5
100
AcDbLine
 10
164.8318937341901
 20
123.7015237667826
 30
0.0
 11
202.3321558764777
 21
123.7015237667826
 31
0.0
  0
LINE
  5
110
330
1F
100
AcDbEntity
  8
layer0
  6
Continuous
 62
    18
420
        0
370
     5
100
AcDbLine
 10
164.8318937341901
 20
126.6789690277841
 30
0.0
 11
202.3321558764777
 21
126.6789690277841
 31
0.0
  0
LINE
  5
111
330
1F
100
AcDbEntity
  8
layer0
  6
Continuous
 62
    18
420
        0
370
     5
100
AcDbLine
 10
164.8318937341901
 20
129.6564142887857
 30
0.0
 11
202.3321558764777
 21
129.6564142887857
 31
0.0
  0
LINE
  5
112
330
1F
100
AcDbEntity
  8
layer0
  6
Continuous
 62
    18
420
        0
370
     5
100
AcDbLine
 10
164.8318937341901
 20
132.6303283269671
 30
0.0
 11
202.3321558764777
 21
132.6303283269671
 31
0.0
  0
LINE
  5
113
330
1F
100
AcDbEntity
  8
layer0
  6
Continuous
 62
    18
420
        0
370
     5
100
AcDbLine
 10
164.8318937341901
 20
117.7501644675997
 30
0.0
 11
202.3321558764777
 21
117.7501644675997
 31
0.0
  0
LINE
  5
114
330
1F
100
AcDbEntity
  8
layer0
  6
Continuous
 62
    18
420
        0
370
     5
100
AcDbLine
 10
164.8318937341901
 20
105.8439146464136
 30
0.0
 11
202.3321558764777
 21
105.8439146464136
 31
0.0
  0
LINE
  5
115
330
1F
100
AcDbEntity
  8
layer0
  6
Continuous
 62
    18
420
        0
370
     5
100
AcDbLine
 10
164.8318937341901
 20
108.8213599074152
 30
0.0
 11
202.3321558764777
 21
108.8213599074152
 31
0.0
  0
LINE
  5
116
330
1F
100
AcDbEntity
  8
layer0
  6
Continuous
 62
    18
420
        0
370
     5
100
AcDbLine
 10
164.8318937341901
 20
111.7988051684167
 30
0.0
 11
202.3321558764777
 21
111.7988051684167
 31
0.0
  0
LINE
  5
117
330
1F
100
AcDbEntity
  8
layer0
  6
Continuous
 62
    18
420
        0
370
     5
100
AcDbLine
 10
164.8318937341901
 20
114.7727192065981
 30
0.0
 11
202.3321558764777
 21
114.7727192065981
 31
0.0
  0
LINE
  5
118
330
1F
100
AcDbEntity
  8
layer0
  6
Continuous
 62
    18
420
        0
370
     5
100
AcDbLine
 10
164.8318937341901
 20
99.89255534723068
 30
0.0
 11
202.3321558764777
 21
99.89255534723068
 31
0.0
  0
LINE
  5
119
330
1F
100
AcDbEntity
  8
layer0
  6
Continuous
 62
    18
420
        0
370
     5
100
AcDbLine
 10
164.8318937341901
 20
87.98983136590323
 30
0.0
 11
202.3321558764777
 21
87.98983136590323
 31
0.0
  0
LINE
  5
11A
330
1F
100
AcDbEntity
  8
layer0
  6
Continuous
 62
    18
420
        0
370
     5
100
AcDbLine
 10
164.8318937341901
 20
90.96374002112296
 30
0.0
 11
202.3321558764777
 21
90.96374002112296
 31
0.0
  0
LINE
  5
11B
330
1F
100
AcDbEntity
  8
layer0
  6
Continuous
 62
    18
420
        0
370
     5
100
AcDbLine
 10
164.8318937341901
 20
93.94119604804777
 30
0.0
 11
202.3321558764777
 21
93.94119604804777
 31
0.0
  0
LINE
  5
11C
330
1F
100
AcDbEntity
  8
layer0
  6
Continuous
 62
    18
420
        0
370
     5
100
AcDbLine
 10
164.8318937341901
 20
96.9151100862291
 30
0.0
 11
202.3321558764777
 21
96.9151100862291
 31
0.0
  0
LINE
  5
11D
330
1F
100
AcDbEntity
  8
layer0
  6
Continuous
 62
    18
420
        0
370
     5
100
AcDbLine
 10
164.8318937341901
 20
82.03494084390007
 30
0.0
 11
202.3321558764777
 21
82.03494084390007
 31
0.0
  0
LINE
  5
11E
330
1F
100
AcDbEntity
  8
layer0
  6
Continuous
 62
    18
420
        0
370
     5
100
AcDbLine
 10
164.8318937341901
 20
70.13222224553425
 30
0.0
 11
202.3321558764777
 21
70.13222224553425
 31
0.0
  0
LINE
  5
11F
330
1F
100
AcDbEntity
  8
layer0
  6
Continuous
 62
    18
420
        0
370
     5
100
AcDbLine
 10
164.8318937341901
 20
73.10613628371559
 30
0.0
 11
202.3321558764777
 21
73.10613628371559
 31
0.0
  0
LINE
  5
120
330
1F
100
AcDbEntity
  8
layer0
  6
Continuous
 62
    18
420
        0
370
     5
100
AcDbLine
 10
164.8318937341901
 20
76.08358692767878
 30
0.0
 11
202.3321558764777
 21
76.08358692767878
 31
0.0
  0
LINE
  5
121
330
1F
100
AcDbEntity
  8
layer0
  6
Continuous
 62
    18
420
        0
370
     5
100
AcDbLine
 10
164.8318937341901
 20
79.06102680571874
 30
0.0
 11
202.3321558764777
 21
79.06102680571874
 31
0.0
  0
LINE
  5
122
330
1F
100
AcDbEntity
  8
layer0
  6
Continuous
 62
    18
420
        0
370
     5
100
AcDbLine
 10
164.8318937341901
 20
64.1773317235311
 30
0.0
 11
202.3321558764777
 21
64.1773317235311
 31
0.0
  0
LINE
  5
123
330
1F
100
AcDbEntity
  8
layer0
  6
Continuous
 62
    18
420
        0
370
     5
100
AcDbLine
 10
164.8318937341901
 20
52.27461312516527
 30
0.0
 11
202.3321558764777
 21
52.27461312516527
 31
0.0
  0
LINE
  5
124
330
1F
100
AcDbEntity
  8
layer0
  6
Continuous
 62
    18
420
        0
370
     5
100
AcDbLine
 10
164.8318937341901
 20
55.24852716334661
 30
0.0
 11
202.3321558764777
 21
55.24852716334661
 31
0.0
  0
LINE
  5
125
330
1F
100
AcDbEntity
  8
layer0
  6
Continuous
 62
    18
420
        0
370
     5
100
AcDbLine
 10
164.8318937341901
 20
58.22597242434818
 30
0.0
 11
202.3321558764777
 21
58.22597242434818
 31
0.0
  0
LINE
  5
126
330
1F
100
AcDbEntity
  8
layer0
  6
Continuous
 62
    18
420
        0
370
     5
100
AcDbLine
 10
164.8318937341901
 20
61.20341230238814
 30
0.0
 11
202.3321558764777
 21
61.20341230238814
 31
0.0
  0
LINE
  5
127
330
1F
100
AcDbEntity
  8
layer0
  6
Continuous
 62
    18
420
        0
370
     5
100
AcDbLine
 10
164.8318937341901
 20
16.55938950146568
 30
0.0
 11
202.3321558764777
 21
16.55938950146568
 31
0.0
  0
LINE
  5
128
330
1F
100
AcDbEntity
  8
layer0
  6
Continuous
 62
    18
420
        0
370
     5
100
AcDbLine
 10
164.8318937341901
 20
19.53683341672685
 30
0.0
 11
202.3321558764777
 21
19.53683341672685
 31
0.0
  0
LINE
  5
129
330
1F
100
AcDbEntity
  8
layer0
  6
Continuous
 62
    18
420
        0
370
     5
100
AcDbLine
 10
164.8318937341901
 20
22.5107488006486
 30
0.0
 11
202.3321558764777
 21
22.5107488006486
 31
0.0
  0
LINE
  5
12A
330
1F
100
AcDbEntity
  8
layer0
  6
Continuous
 62
    18
420
        0
370
     5
100
AcDbLine
 10
164.8318937341901
 20
46.31972260316211
 30
0.0
 11
202.3321558764777
 21
46.31972260316211
 31
0.0
  0
LINE
  5
12B
330
1F
100
AcDbEntity
  8
layer0
  6
Continuous
 62
    18
420
        0
370
     5
100
AcDbLine
 10
164.8318937341901
 20
34.41699862183467
 30
0.0
 11
202.3321558764777
 21
34.41699862183467
 31
0.0
  0
LINE
  5
12C
330
1F
100
AcDbEntity
  8
layer0
  6
Continuous
 62
    18
420
        0
370
     5
100
AcDbLine
 10
164.8318937341901
 20
37.39444388283624
 30
0.0
 11
202.3321558764777
 21
37.39444388283624
 31
0.0
  0
LINE
  5
12D
330
1F
100
AcDbEntity
  8
layer0
  6
Continuous
 62
    18
420
        0
370
     5
100
AcDbLine
 10
164.8318937341901
 20
40.36836061249839
 30
0.0
 11
202.3321558764777
 21
40.36836061249839
 31
0.0
  0
LINE
  5
12E
330
1F
100
AcDbEntity
  8
layer0
  6
Continuous
 62
    18
420
        0
370
     5
100
AcDbLine
 10
164.8318937341901
 20
43.34580587349996
 30
0.0
 11
202.3321558764777
 21
43.34580587349996
 31
0.0
  0
LINE
  5
12F
330
1F
100
AcDbEntity
  8
layer0
  6
Continuous
 62
    18
420
        0
370
     5
100
AcDbLine
 10
164.8318937341901
 20
28.46563663117094
 30
0.0
 11
202.3321558764777
 21
28.46563663117094
 31
0.0
  0
LINE
  5
130
330
1F
100
AcDbEntity
  8
layer0
  6
Continuous
 62
    18
420
        0
370
     5
100
AcDbLine
 10
164.8318937341901
 20
25.48819406165017
 30
0.0
 11
202.3321558764777
 21
25.48819406165017
 31
0.0
  0
LINE
  5
131
330
1F
100
AcDbEntity
  8
layer0
  6
Continuous
 62
    18
420
        0
370
     5
100
AcDbLine
 10
7.665861507362782
 20
85.01238610490165
 30
0.0
 11
202.3321558764777
 21
85.01238610490165
 31
0.0
  0
LINE
  5
132
330
1F
100
AcDbEntity
  8
layer0
  6
Continuous
 62
    18
420
        0
370
     5
100
AcDbLine
 10
7.665861507362782
 20
49.29716248120207
 30
0.0
 11
202.3321558764777
 21
49.29716248120207
 31
0.0
  0
LINE
  5
133
330
1F
100
AcDbEntity
  8
layer0
  6
Continuous
 62
    18
420
        0
370
     9
100
AcDbLine
 10
202.5015038489235
 20
6.667499765290156
 30
0.0
 11
7.500055523660446
 21
6.667499765290156
 31
0.0
  0
LINE
  5
134
330
1F
100
AcDbEntity
  8
layer0
  6
Continuous
 62
    18
420
        0
370
     9
100
AcDbLine
 10
202.5015038489235
 20
6.748639164341815
 30
0.0
 11
7.500055523660446
 21
6.748639164341815
 31
0.0
  0
LINE
  5
135
330
1F
100
AcDbEntity
  8
layer0
  6
Continuous
 62
    18
420
        0
370
     9
100
AcDbLine
 10
202.5015038489235
 20
6.83330507612229
 30
0.0
 11
7.500055523660446
 21
6.83330507612229
 31
0.0
  0
LINE
  5
136
330
1F
100
AcDbEntity
  8
layer0
  6
Continuous
 62
    18
420
        0
370
     9
100
AcDbLine
 10
177.3343280862173
 20
13.50080551428265
 30
0.0
 11
177.3343280862173
 21
6.83330507612229
 31
0.0
  0
LINE
  5
137
330
1F
100
AcDbEntity
  8
layer0
  6
Continuous
 62
    18
420
        0
370
     9
100
AcDbLine
 10
152.3329690731367
 20
13.50080551428265
 30
0.0
 11
152.3329690731367
 21
6.83330507612229
 31
0.0
  0
LINE
  5
138
330
1F
100
AcDbEntity
  8
layer0
  6
Continuous
 62
    18
420
        0
370
     9
100
AcDbLine
 10
105.0007813684675
 20
13.50080551428265
 30
0.0
 11
105.0007813684675
 21
6.83330507612229
 31
0.0
  0
LINE
  5
139
330
1F
100
AcDbEntity
  8
layer0
  6
Continuous
 62
    18
420
        0
370
     9
100
AcDbLine
 10
105.0007813684675
 20
10.16705529520247
 30
0.0
 11
202.3321558764777
 21
10.16705529520247
 31
0.0
  0
LINE
  5
13A
330
1F
100
AcDbEntity
  8
layer0
  6
Continuous
 62
    18
420
        0
370
     9
100
AcDbLine
 10
202.5015038489235
 20
13.50080551428265
 30
0.0
 11
7.500055523660446
 21
13.50080551428265
 31
0.0
  0
LINE
  5
13B
330
1F
100
AcDbEntity
  8
layer0
  6
Continuous
 62
    18
420
        0
370
     9
100
AcDbLine
 10
202.5015038489235
 20
13.5819442404641
 30
0.0
 11
7.500055523660446
 21
13.5819442404641
 31
0.0
  0
TEXT
  5
13C
330
1F
100
AcDbEntity
  8
layer0
  6
Continuous
 62
    18
420
        0
100
AcDbText
 10
189.7697660979692
 20
7.798769914103881
 30
0.0
 40
1.142470816175143
  1
0
 41
0.8599781709558825
  7
MS Gothic
100
AcDbText
  0
TEXT
  5
13D
330
1F
100
AcDbEntity
  8
layer0
  6
Continuous
 62
    18
420
        0
100
AcDbText
 10
190.6446480835277
 20
7.798769914103881
 30
0.0
 40
1.142470816175143
  1
1
 41
0.6210075827205883
  7
MS Gothic
100
AcDbText
  0
TEXT
  5
13E
330
1F
100
AcDbEntity
  8
layer0
  6
Continuous
 62
    18
420
        0
100
AcDbText
 10
98.79189041964209
 20
143.5154522200454
 30
0.0
 40
1.524190497618039
  1
梱
 41
0.8869958182979654
  7
MS Gothic
100
AcDbText
  0
TEXT
  5
13F
330
1F
100
AcDbEntity
  8
layer0
  6
Continuous
 62
    18
420
        0
100
AcDbText
 10
101.0426035646863
 20
143.5154522200454
 30
0.0
 40
1.524190497618039
  1
包
 41
0.8979972166838841
  7
MS Gothic
100
AcDbText
  0
TEXT
  5
140
330
1F
100
AcDbEntity
  8
layer0
  6
Continuous
 62
    18
420
        0
100
AcDbText
 10
98.79189041964209
 20
139.8077543861895
 30
0.0
 40
1.524190497618039
  1
入
 41
0.8749986964769217
  7
MS Gothic
100
AcDbText
  0
TEXT
  5
141
330
1F
100
AcDbEntity
  8
layer0
  6
Continuous
 62
    18
420
        0
100
AcDbText
 10
101.0426035646863
 20
139.8077543861895
 30
0.0
 40
1.524190497618039
  1
数
 41
0.8939981760768697
  7
MS Gothic
100
AcDbText
  0
LINE
  5
142
330
1F
100
AcDbEntity
  8
layer0
  6
Continuous
 62
    18
420
        0
370
     5
100
AcDbLine
 10
63.12252424595095
 20
91.95152424361973
 30
0.0
 11
63.12252424595095
 21
93.70130974658322
 31
0.0
  0
LINE
  5
143
330
1F
100
AcDbEntity
  8
layer0
  6
Continuous
 62
    18
420
        0
370
     5
100
AcDbLine
 10
59.37250018490684
 20
93.70130974658322
 30
0.0
 11
63.12252424595095
 21
93.70130974658322
 31
0.0
  0
LINE
  5
144
330
1F
100
AcDbEntity
  8
layer0
  6
Continuous
 62
    18
420
        0
370
     5
100
AcDbLine
 10
59.49597455845934
 20
93.57430415021048
 30
0.0
 11
62.99552941550144
 21
93.57430415021048
 31
0.0
  0
LINE
  5
145
330
1F
100
AcDbEntity
  8
layer0
  6
Continuous
 62
    18
420
        0
370
     5
100
AcDbLine
 10
62.99552941550144
 20
92.07499861717224
 30
0.0
 11
62.99552941550144
 21
93.57430415021048
 31
0.0
  0
LINE
  5
146
330
1F
100
AcDbEntity
  8
layer0
  6
Continuous
 62
    18
420
        0
370
     5
100
AcDbLine
 10
35.99744422679477
 20
93.57430415021048
 30
0.0
 11
32.49788667827185
 21
93.57430415021048
 31
0.0
  0
LINE
  5
147
330
1F
100
AcDbEntity
  8
layer0
  6
Continuous
 62
    18
420
        0
370
     5
100
AcDbLine
 10
32.49788667827185
 20
92.07499861717224
 30
0.0
 11
32.49788667827185
 21
93.57430415021048
 31
0.0
  0
LINE
  5
148
330
1F
100
AcDbEntity
  8
layer0
  6
Continuous
 62
    18
420
        0
370
     5
100
AcDbLine
 10
32.37088646486073
 20
91.95152424361973
 30
0.0
 11
32.37088646486073
 21
93.70130974658322
 31
0.0
  0
LINE
  5
149
330
1F
100
AcDbEntity
  8
layer0
  6
Continuous
 62
    18
420
        0
370
     5
100
AcDbLine
 10
36.12091590886646
 20
93.70130974658322
 30
0.0
 11
32.37088646486073
 21
93.70130974658322
 31
0.0
  0
TEXT
  5
14A
330
1F
100
AcDbEntity
  8
layer0
  6
Continuous
 62
    18
420
        0
100
AcDbText
 10
46.49611148940191
 20
89.7490502291851
 30
0.0
 40
1.142470816175143
  1
1
 41
0.6209968118106618
  7
MS Gothic
100
AcDbText
  0
TEXT
  5
14B
330
1F
100
AcDbEntity
  8
layer0
  6
Continuous
 62
    18
420
        0
100
AcDbText
 10
47.37099885792203
 20
89.7490502291851
 30
0.0
 40
1.142470816175143
  1
2
 41
0.7959989659926472
  7
MS Gothic
100
AcDbText
  0
TEXT
  5
14C
330
1F
100
AcDbEntity
  8
layer0
  6
Continuous
 62
    18
420
        0
100
AcDbText
 10
48.24588622644215
 20
89.7490502291851
 30
0.0
 40
1.142470816175143
  1
3
 41
0.7959989659926472
  7
MS Gothic
100
AcDbText
  0
TEXT
  5
14D
330
1F
100
AcDbEntity
  8
layer0
  6
Continuous
 62
    18
420
        0
100
AcDbText
 10
55.60950615776249
 20
92.03971867749895
 30
0.0
 40
1.142470816175143
  1
4
 50
90.00000250447816
 41
0.8680060891544119
  7
MS Gothic
100
AcDbText
  0
TEXT
  5
14E
330
1F
100
AcDbEntity
  8
layer0
  6
Continuous
 62
    18
420
        0
100
AcDbText
 10
55.60950615776249
 20
92.78760583260797
 30
0.0
 40
1.142470816175143
  1
.
 50
90.00000250447816
 41
0.2699836282169118
  7
MS Gothic
100
AcDbText
  0
TEXT
  5
14F
330
1F
100
AcDbEntity
  8
layer0
  6
Continuous
 62
    18
420
        0
100
AcDbText
 10
55.60950615776249
 20
93.53902421053719
 30
0.0
 40
1.142470816175143
  1
3
 50
90.00000250447816
 41
0.7959989659926472
  7
MS Gothic
100
AcDbText
  0
TEXT
  5
150
330
1F
100
AcDbEntity
  8
layer0
  6
Continuous
 62
    18
420
        0
100
AcDbText
 10
29.57450816365744
 20
92.20199343838105
 30
0.0
 40
1.142470816175143
  1
7
 50
90.00000250447816
 41
0.7420008042279412
  7
MS Gothic
100
AcDbText
  0
TEXT
  5
151
330
1F
100
AcDbEntity
  8
layer0
  6
Continuous
 62
    18
420
        0
100
AcDbText
 10
60.43435934220421
 20
96.49768535630571
 30
0.0
 40
1.142470816175143
  1
1
 41
0.6209968118106618
  7
MS Gothic
100
AcDbText
  0
TEXT
  5
152
330
1F
100
AcDbEntity
  8
layer0
  6
Continuous
 62
    18
420
        0
100
AcDbText
 10
61.30924671072433
 20
96.49768535630571
 30
0.0
 40
1.142470816175143
  1
5
 41
0.7959989659926472
  7
MS Gothic
100
AcDbText
  0
TEXT
  5
153
330
1F
100
AcDbEntity
  8
layer0
  6
Continuous
 62
    18
420
        0
100
AcDbText
 10
58.37060722001399
 20
96.49768535630571
 30
0.0
 40
1.142470816175143
  1
5
 41
0.7959989659926472
  7
MS Gothic
100
AcDbText
  0
TEXT
  5
154
330
1F
100
AcDbEntity
  8
layer0
  6
Continuous
 62
    18
420
        0
100
AcDbText
 10
46.93355248218116
 20
96.49768535630571
 30
0.0
 40
1.142470816175143
  1
8
 41
0.8119973575367646
  7
MS Gothic
100
AcDbText
  0
TEXT
  5
155
330
1F
100
AcDbEntity
  8
layer0
  6
Continuous
 62
    18
420
        0
100
AcDbText
 10
47.8084452336629
 20
96.49768535630571
 30
0.0
 40
1.142470816175143
  1
3
 41
0.7959989659926472
  7
MS Gothic
100
AcDbText
  0
TEXT
  5
156
330
1F
100
AcDbEntity
  8
layer0
  6
Continuous
 62
    18
420
        0
100
AcDbText
 10
36.37138780434927
 20
96.49768535630571
 30
0.0
 40
1.142470816175143
  1
5
 41
0.7960025562959558
  7
MS Gothic
100
AcDbText
  0
TEXT
  5
157
330
1F
100
AcDbEntity
  8
layer0
  6
Continuous
 62
    18
420
        0
100
AcDbText
 10
33.43627684497834
 20
96.49768535630571
 30
0.0
 40
1.142470816175143
  1
1
 41
0.621002197265625
  7
MS Gothic
100
AcDbText
  0
TEXT
  5
158
330
1F
100
AcDbEntity
  8
layer0
  6
Continuous
 62
    18
420
        0
100
AcDbText
 10
34.31116421349846
 20
96.49768535630571
 30
0.0
 40
1.142470816175143
  1
5
 41
0.7960025562959558
  7
MS Gothic
100
AcDbText
  0
TEXT
  5
159
330
1F
100
AcDbEntity
  8
layer0
  6
Continuous
 62
    18
420
        0
100
AcDbText
 10
46.49611148940191
 20
107.6066539665925
 30
0.0
 40
1.142470816175143
  1
1
 41
0.6209968118106618
  7
MS Gothic
100
AcDbText
  0
TEXT
  5
15A
330
1F
100
AcDbEntity
  8
layer0
  6
Continuous
 62
    18
420
        0
100
AcDbText
 10
47.37099885792203
 20
107.6066539665925
 30
0.0
 40
1.142470816175143
  1
2
 41
0.7959989659926472
  7
MS Gothic
100
AcDbText
  0
TEXT
  5
15B
330
1F
100
AcDbEntity
  8
layer0
  6
Continuous
 62
    18
420
        0
100
AcDbText
 10
48.24588622644215
 20
107.6066539665925
 30
0.0
 40
1.142470816175143
  1
3
 41
0.7959989659926472
  7
MS Gothic
100
AcDbText
  0
TEXT
  5
15C
330
1F
100
AcDbEntity
  8
layer0
  6
Continuous
 62
    18
420
        0
100
AcDbText
 10
55.60950615776249
 20
110.3947457489749
 30
0.0
 40
1.142470816175143
  1
4
 50
90.00000250447816
 41
0.8680060891544119
  7
MS Gothic
100
AcDbText
  0
TEXT
  5
15D
330
1F
100
AcDbEntity
  8
layer0
  6
Continuous
 62
    18
420
        0
100
AcDbText
 10
55.60950615776249
 20
111.1461641269042
 30
0.0
 40
1.142470816175143
  1
.
 50
90.00000250447816
 41
0.2699836282169118
  7
MS Gothic
100
AcDbText
  0
TEXT
  5
15E
330
1F
100
AcDbEntity
  8
layer0
  6
Continuous
 62
    18
420
        0
100
AcDbText
 10
55.60950615776249
 20
111.8940512820132
 30
0.0
 40
1.142470816175143
  1
3
 50
90.00000250447816
 41
0.7959989659926472
  7
MS Gothic
100
AcDbText
  0
TEXT
  5
15F
330
1F
100
AcDbEntity
  8
layer0
  6
Continuous
 62
    18
420
        0
100
AcDbText
 10
29.57450816365744
 20
110.557020509857
 30
0.0
 40
1.142470816175143
  1
9
 50
90.00000250447816
 41
0.7800005744485294
  7
MS Gothic
100
AcDbText
  0
TEXT
  5
160
330
1F
100
AcDbEntity
  8
layer0
  6
Continuous
 62
    18
420
        0
100
AcDbText
 10
60.43435934220421
 20
114.8562436506019
 30
0.0
 40
1.142470816175143
  1
1
 41
0.6209968118106618
  7
MS Gothic
100
AcDbText
  0
TEXT
  5
161
330
1F
100
AcDbEntity
  8
layer0
  6
Continuous
 62
    18
420
        0
100
AcDbText
 10
61.30924671072433
 20
114.8562436506019
 30
0.0
 40
1.142470816175143
  1
5
 41
0.7959989659926472
  7
MS Gothic
100
AcDbText
  0
TEXT
  5
162
330
1F
100
AcDbEntity
  8
layer0
  6
Continuous
 62
    18
420
        0
100
AcDbText
 10
58.37060722001399
 20
114.8562436506019
 30
0.0
 40
1.142470816175143
  1
5
 41
0.7959989659926472
  7
MS Gothic
100
AcDbText
  0
TEXT
  5
163
330
1F
100
AcDbEntity
  8
layer0
  6
Continuous
 62
    18
420
        0
100
AcDbText
 10
46.93355248218116
 20
114.8562436506019
 30
0.0
 40
1.142470816175143
  1
8
 41
0.8119973575367646
  7
MS Gothic
100
AcDbText
  0
TEXT
  5
164
330
1F
100
AcDbEntity
  8
layer0
  6
Continuous
 62
    18
420
        0
100
AcDbText
 10
47.8084452336629
 20
114.8562436506019
 30
0.0
 40
1.142470816175143
  1
3
 41
0.7959989659926472
  7
MS Gothic
100
AcDbText
  0
TEXT
  5
165
330
1F
100
AcDbEntity
  8
layer0
  6
Continuous
 62
    18
420
        0
100
AcDbText
 10
36.37138780434927
 20
114.8562436506019
 30
0.0
 40
1.142470816175143
  1
5
 41
0.7960025562959558
  7
MS Gothic
100
AcDbText
  0
TEXT
  5
166
330
1F
100
AcDbEntity
  8
layer0
  6
Continuous
 62
    18
420
        0
100
AcDbText
 10
33.43627684497834
 20
114.8562436506019
 30
0.0
 40
1.142470816175143
  1
1
 41
0.621002197265625
  7
MS Gothic
100
AcDbText
  0
TEXT
  5
167
330
1F
100
AcDbEntity
  8
layer0
  6
Continuous
 62
    18
420
        0
100
AcDbText
 10
34.31116421349846
 20
114.8562436506019
 30
0.0
 40
1.142470816175143
  1
5
 41
0.7960025562959558
  7
MS Gothic
100
AcDbText
  0
TEXT
  5
168
330
1F
100
AcDbEntity
  8
layer0
  6
Continuous
 62
    18
420
        0
100
AcDbText
 10
70.04049657959412
 20
100.6781041133735
 30
0.0
 40
1.142470816175143
  1
3
 41
0.7959989659926472
  7
MS Gothic
100
AcDbText
  0
TEXT
  5
169
330
1F
100
AcDbEntity
  8
layer0
  6
Continuous
 62
    18
420
        0
100
AcDbText
 10
70.79192034048498
 20
100.6781041133735
 30
0.0
 40
1.142470816175143
  1
,
 41
0.2700051700367647
  7
MS Gothic
100
AcDbText
  0
TEXT
  5
16A
330
1F
100
AcDbEntity
  8
layer0
  6
Continuous
 62
    18
420
        0
100
AcDbText
 10
71.54333333545259
 20
100.6781041133735
 30
0.0
 40
1.142470816175143
  1
9
 41
0.7800005744485294
  7
MS Gothic
100
AcDbText
  0
TEXT
  5
16B
330
1F
100
AcDbEntity
  8
layer0
  6
Continuous
 62
    18
420
        0
100
AcDbText
 10
72.2912204905616
 20
100.6781041133735
 30
0.0
 40
1.142470816175143
  1
0
 41
0.8599997127757353
  7
MS Gothic
100
AcDbText
  0
TEXT
  5
16C
330
1F
100
AcDbEntity
  8
layer0
  6
Continuous
 62
    18
420
        0
100
AcDbText
 10
73.04263886849084
 20
100.6781041133735
 30
0.0
 40
1.142470816175143
  1
0
 41
0.8599997127757353
  7
MS Gothic
100
AcDbText
  0
TEXT
  5
16D
330
1F
100
AcDbEntity
  8
layer0
  6
Continuous
 62
    18
420
        0
100
AcDbText
 10
73.79053140656146
 20
100.6781041133735
 30
0.0
 40
1.142470816175143
  1
×
 41
0.6499974867876839
  7
MS Gothic
100
AcDbText
  0
TEXT
  5
16E
330
1F
100
AcDbEntity
  8
layer0
  6
Continuous
 62
    18
420
        0
100
AcDbText
 10
75.2933573964967
 20
100.6781041133735
 30
0.0
 40
1.142470816175143
  1
1
 41
0.6209968118106618
  7
MS Gothic
100
AcDbText
  0
TEXT
  5
16F
330
1F
100
AcDbEntity
  8
layer0
  6
Continuous
 62
    18
420
        0
100
AcDbText
 10
76.04124993456733
 20
100.6781041133735
 30
0.0
 40
1.142470816175143
  1
2
 41
0.7959989659926472
  7
MS Gothic
100
AcDbText
  0
TEXT
  5
170
330
1F
100
AcDbEntity
  8
layer0
  6
Continuous
 62
    18
420
        0
100
AcDbText
 10
76.79266831249657
 20
100.6781041133735
 30
0.0
 40
1.142470816175143
  1
3
 41
0.7959989659926472
  7
MS Gothic
100
AcDbText
  0
TEXT
  5
171
330
1F
100
AcDbEntity
  8
layer0
  6
Continuous
 62
    18
420
        0
100
AcDbText
 10
77.54055546760557
 20
100.6781041133735
 30
0.0
 40
1.142470816175143
  1
×
 41
0.6499974867876839
  7
MS Gothic
100
AcDbText
  0
TEXT
  5
172
330
1F
100
AcDbEntity
  8
layer0
  6
Continuous
 62
    18
420
        0
100
AcDbText
 10
79.04338684050244
 20
100.6781041133735
 30
0.0
 40
1.142470816175143
  1
7
 41
0.7420008042279412
  7
MS Gothic
100
AcDbText
  0
TEXT
  5
173
330
1F
100
AcDbEntity
  8
layer0
  6
Continuous
 62
    18
420
        0
100
AcDbText
 10
10.91494446892208
 20
113.3882326034733
 30
0.0
 40
1.524190497618039
  1
胴
 41
0.8509997433321008
  7
MS Gothic
100
AcDbText
  0
TEXT
  5
174
330
1F
100
AcDbEntity
  8
layer0
  6
Continuous
 62
    18
420
        0
100
AcDbText
 10
13.16566636127896
 20
113.3882326034733
 30
0.0
 40
1.524190497618039
  1
見
 41
0.8820003814697213
  7
MS Gothic
100
AcDbText
  0
TEXT
  5
175
330
1F
100
AcDbEntity
  8
layer0
  6
Continuous
 62
    18
420
        0
100
AcDbText
 10
15.41638892650604
 20
113.3882326034733
 30
0.0
 40
1.524190497618039
  1
切
 41
0.8510004161182058
  7
MS Gothic
100
AcDbText
  0
TEXT
  5
176
330
1F
100
AcDbEntity
  8
layer0
  6
Continuous
 62
    18
420
        0
100
AcDbText
 10
17.66711149173312
 20
113.3882326034733
 30
0.0
 40
1.524190497618039
  1
り
 41
0.6148326461383926
  7
MS Gothic
100
AcDbText
  0
TEXT
  5
177
330
1F
100
AcDbEntity
  8
layer0
  6
Continuous
 62
    18
420
        0
100
AcDbText
 10
19.9178340569602
 20
113.3882326034733
 30
0.0
 40
1.524190497618039
  1
材
 41
0.9030000541592814
  7
MS Gothic
100
AcDbText
  0
TEXT
  5
178
330
1F
100
AcDbEntity
  8
layer0
  6
Continuous
 62
    18
420
        0
100
AcDbText
 10
70.04049657959412
 20
118.5357132337424
 30
0.0
 40
1.142470816175143
  1
3
 41
0.7959989659926472
  7
MS Gothic
100
AcDbText
  0
TEXT
  5
179
330
1F
100
AcDbEntity
  8
layer0
  6
Continuous
 62
    18
420
        0
100
AcDbText
 10
70.79192034048498
 20
118.5357132337424
 30
0.0
 40
1.142470816175143
  1
,
 41
0.2700051700367647
  7
MS Gothic
100
AcDbText
  0
TEXT
  5
17A
330
1F
100
AcDbEntity
  8
layer0
  6
Continuous
 62
    18
420
        0
100
AcDbText
 10
71.54333333545259
 20
118.5357132337424
 30
0.0
 40
1.142470816175143
  1
9
 41
0.7800005744485294
  7
MS Gothic
100
AcDbText
  0
TEXT
  5
17B
330
1F
100
AcDbEntity
  8
layer0
  6
Continuous
 62
    18
420
        0
100
AcDbText
 10
72.2912204905616
 20
118.5357132337424
 30
0.0
 40
1.142470816175143
  1
0
 41
0.8599997127757353
  7
MS Gothic
100
AcDbText
  0
TEXT
  5
17C
330
1F
100
AcDbEntity
  8
layer0
  6
Continuous
 62
    18
420
        0
100
AcDbText
 10
73.04263886849084
 20
118.5357132337424
 30
0.0
 40
1.142470816175143
  1
0
 41
0.8599997127757353
  7
MS Gothic
100
AcDbText
  0
TEXT
  5
17D
330
1F
100
AcDbEntity
  8
layer0
  6
Continuous
 62
    18
420
        0
100
AcDbText
 10
73.79053140656146
 20
118.5357132337424
 30
0.0
 40
1.142470816175143
  1
×
 41
0.6499974867876839
  7
MS Gothic
100
AcDbText
  0
TEXT
  5
17E
330
1F
100
AcDbEntity
  8
layer0
  6
Continuous
 62
    18
420
        0
100
AcDbText
 10
75.2933573964967
 20
118.5357132337424
 30
0.0
 40
1.142470816175143
  1
1
 41
0.6209968118106618
  7
MS Gothic
100
AcDbText
  0
TEXT
  5
17F
330
1F
100
AcDbEntity
  8
layer0
  6
Continuous
 62
    18
420
        0
100
AcDbText
 10
76.04124993456733
 20
118.5357132337424
 30
0.0
 40
1.142470816175143
  1
2
 41
0.7959989659926472
  7
MS Gothic
100
AcDbText
  0
TEXT
  5
180
330
1F
100
AcDbEntity
  8
layer0
  6
Continuous
 62
    18
420
        0
100
AcDbText
 10
76.79266831249657
 20
118.5357132337424
 30
0.0
 40
1.142470816175143
  1
3
 41
0.7959989659926472
  7
MS Gothic
100
AcDbText
  0
TEXT
  5
181
330
1F
100
AcDbEntity
  8
layer0
  6
Continuous
 62
    18
420
        0
100
AcDbText
 10
77.54055546760557
 20
118.5357132337424
 30
0.0
 40
1.142470816175143
  1
×
 41
0.6499974867876839
  7
MS Gothic
100
AcDbText
  0
TEXT
  5
182
330
1F
100
AcDbEntity
  8
layer0
  6
Continuous
 62
    18
420
        0
100
AcDbText
 10
79.04338684050244
 20
118.5357132337424
 30
0.0
 40
1.142470816175143
  1
9
 41
0.7800005744485294
  7
MS Gothic
100
AcDbText
  0
LINE
  5
183
330
1F
100
AcDbEntity
  8
layer0
  6
Continuous
 62
    18
420
        0
370
     0
100
AcDbLine
 10
55.9046940354771
 20
92.62533108096653
 30
0.0
 11
57.24171942467163
 21
92.62533108096653
 31
0.0
  0
LINE
  5
184
330
1F
100
AcDbEntity
  8
layer0
  6
Continuous
 62
    18
420
        0
370
     0
100
AcDbLine
 10
55.9046940354771
 20
93.70130974658322
 30
0.0
 11
57.24171942467163
 21
93.70130974658322
 31
0.0
  0
LINE
  5
185
330
1F
100
AcDbEntity
  8
layer0
  6
Continuous
 62
    18
420
        0
370
     9
100
AcDbLine
 10
55.9046940354771
 20
92.62533108096653
 30
0.0
 11
55.90821987533571
 21
92.62533108096653
 31
0.0
  0
LINE
  5
186
330
1F
100
AcDbEntity
  8
layer0
  6
Continuous
 62
    18
420
        0
370
     9
100
AcDbLine
 10
55.9046940354771
 20
93.70130974658322
 30
0.0
 11
55.90821987533571
 21
93.70130974658322
 31
0.0
  0
LINE
  5
187
330
1F
100
AcDbEntity
  8
layer0
  6
Continuous
 62
    18
420
        0
370
     0
100
AcDbLine
 10
55.9046940354771
 20
93.70130974658322
 30
0.0
 11
55.9046940354771
 21
92.62533108096653
 31
0.0
  0
LINE
  5
188
330
1F
100
AcDbEntity
  8
layer0
  6
Continuous
 62
    18
420
        0
370
     5
100
AcDbLine
 10
35.99744422679477
 20
92.50186747333727
 30
0.0
 11
35.99744422679477
 21
93.57430415021048
 31
0.0
  0
LINE
  5
189
330
1F
100
AcDbEntity
  8
layer0
  6
Continuous
 62
    18
420
        0
370
     5
100
AcDbLine
 10
36.12091590886646
 20
92.62533108096653
 30
0.0
 11
36.12091590886646
 21
93.70130974658322
 31
0.0
  0
LINE
  5
18A
330
1F
100
AcDbEntity
  8
layer0
  6
Continuous
 62
    18
420
        0
370
     5
100
AcDbLine
 10
37.49674706835221
 20
92.50186747333727
 30
0.0
 11
35.99744422679477
 21
92.50186747333727
 31
0.0
  0
LINE
  5
18B
330
1F
100
AcDbEntity
  8
layer0
  6
Continuous
 62
    18
420
        0
370
     5
100
AcDbLine
 10
37.37327807776132
 20
92.62533108096653
 30
0.0
 11
36.12091590886646
 21
92.62533108096653
 31
0.0
  0
LINE
  5
18C
330
1F
100
AcDbEntity
  8
layer0
  6
Continuous
 62
    18
420
        0
370
     5
100
AcDbLine
 10
37.49674706835221
 20
93.57430415021048
 30
0.0
 11
37.49674706835221
 21
92.50186747333727
 31
0.0
  0
LINE
  5
18D
330
1F
100
AcDbEntity
  8
layer0
  6
Continuous
 62
    18
420
        0
370
     5
100
AcDbLine
 10
37.37327807776132
 20
93.70130974658322
 30
0.0
 11
37.37327807776132
 21
92.62533108096653
 31
0.0
  0
LINE
  5
18E
330
1F
100
AcDbEntity
  8
layer0
  6
Continuous
 62
    18
420
        0
370
     5
100
AcDbLine
 10
57.99666364245948
 20
93.57430415021048
 30
0.0
 11
37.49674706835221
 21
93.57430415021048
 31
0.0
  0
LINE
  5
18F
330
1F
100
AcDbEntity
  8
layer0
  6
Continuous
 62
    18
420
        0
370
     5
100
AcDbLine
 10
58.1236638558706
 20
93.70130974658322
 30
0.0
 11
37.37327807776132
 21
93.70130974658322
 31
0.0
  0
LINE
  5
190
330
1F
100
AcDbEntity
  8
layer0
  6
Continuous
 62
    18
420
        0
370
     5
100
AcDbLine
 10
57.99666364245948
 20
92.50186747333727
 30
0.0
 11
57.99666364245948
 21
93.57430415021048
 31
0.0
  0
LINE
  5
191
330
1F
100
AcDbEntity
  8
layer0
  6
Continuous
 62
    18
420
        0
370
     5
100
AcDbLine
 10
58.1236638558706
 20
92.62533108096653
 30
0.0
 11
58.1236638558706
 21
93.70130974658322
 31
0.0
  0
LINE
  5
192
330
1F
100
AcDbEntity
  8
layer0
  6
Continuous
 62
    18
420
        0
370
     5
100
AcDbLine
 10
59.49597455845934
 20
92.50186747333727
 30
0.0
 11
59.49597455845934
 21
93.57430415021048
 31
0.0
  0
LINE
  5
193
330
1F
100
AcDbEntity
  8
layer0
  6
Continuous
 62
    18
420
        0
370
     5
100
AcDbLine
 10
59.37250018490684
 20
92.62533108096653
 30
0.0
 11
59.37250018490684
 21
93.70130974658322
 31
0.0
  0
LINE
  5
194
330
1F
100
AcDbEntity
  8
layer0
  6
Continuous
 62
    18
420
        0
370
     5
100
AcDbLine
 10
59.49597455845934
 20
92.50186747333727
 30
0.0
 11
57.99666364245948
 21
92.50186747333727
 31
0.0
  0
LINE
  5
195
330
1F
100
AcDbEntity
  8
layer0
  6
Continuous
 62
    18
420
        0
370
     5
100
AcDbLine
 10
59.37250018490684
 20
92.62533108096653
 30
0.0
 11
58.1236638558706
 21
92.62533108096653
 31
0.0
  0
LINE
  5
196
330
1F
100
AcDbEntity
  8
layer0
  6
Continuous
 62
    18
420
        0
370
     0
100
AcDbLine
 10
29.87322188123067
 20
93.70130974658322
 30
0.0
 11
31.1220528273053
 21
93.70130974658322
 31
0.0
  0
LINE
  5
197
330
1F
100
AcDbEntity
  8
layer0
  6
Continuous
 62
    18
420
        0
370
     9
100
AcDbLine
 10
29.87322188123067
 20
93.70130974658322
 30
0.0
 11
29.87674772108928
 21
93.70130974658322
 31
0.0
  0
LINE
  5
198
330
1F
100
AcDbEntity
  8
layer0
  6
Continuous
 62
    18
420
        0
370
     0
100
AcDbLine
 10
29.87322188123067
 20
93.70130974658322
 30
0.0
 11
29.87322188123067
 21
91.95152424361973
 31
0.0
  0
LINE
  5
199
330
1F
100
AcDbEntity
  8
layer0
  6
Continuous
 62
    18
420
        0
370
     0
100
AcDbLine
 10
63.12252424595095
 20
96.19897163873247
 30
0.0
 11
63.12252424595095
 21
94.95013530969624
 31
0.0
  0
LINE
  5
19A
330
1F
100
AcDbEntity
  8
layer0
  6
Continuous
 62
    18
420
        0
370
     9
100
AcDbLine
 10
63.12252424595095
 20
96.19897163873247
 30
0.0
 11
63.12605008580957
 21
96.19897163873247
 31
0.0
  0
LINE
  5
19B
330
1F
100
AcDbEntity
  8
layer0
  6
Continuous
 62
    18
420
        0
370
     0
100
AcDbLine
 10
59.37250018490684
 20
96.19897163873247
 30
0.0
 11
59.37250018490684
 21
94.95013530969624
 31
0.0
  0
LINE
  5
19C
330
1F
100
AcDbEntity
  8
layer0
  6
Continuous
 62
    18
420
        0
370
     9
100
AcDbLine
 10
59.37250018490684
 20
96.19897163873247
 30
0.0
 11
59.37602602476545
 21
96.19897163873247
 31
0.0
  0
LINE
  5
19D
330
1F
100
AcDbEntity
  8
layer0
  6
Continuous
 62
    18
420
        0
370
     0
100
AcDbLine
 10
58.1236638558706
 20
96.19897163873247
 30
0.0
 11
58.1236638558706
 21
94.95013530969624
 31
0.0
  0
LINE
  5
19E
330
1F
100
AcDbEntity
  8
layer0
  6
Continuous
 62
    18
420
        0
370
     9
100
AcDbLine
 10
58.1236638558706
 20
96.19897163873247
 30
0.0
 11
58.12719507869082
 21
96.19897163873247
 31
0.0
  0
LINE
  5
19F
330
1F
100
AcDbEntity
  8
layer0
  6
Continuous
 62
    18
420
        0
370
     0
100
AcDbLine
 10
37.37327807776132
 20
96.19897163873247
 30
0.0
 11
37.37327807776132
 21
94.95013530969624
 31
0.0
  0
LINE
  5
1A0
330
1F
100
AcDbEntity
  8
layer0
  6
Continuous
 62
    18
420
        0
370
     9
100
AcDbLine
 10
37.37327807776132
 20
96.19897163873247
 30
0.0
 11
37.37680660910074
 21
96.19897163873247
 31
0.0
  0
LINE
  5
1A1
330
1F
100
AcDbEntity
  8
layer0
  6
Continuous
 62
    18
420
        0
370
     0
100
AcDbLine
 10
36.12091590886646
 20
96.19897163873247
 30
0.0
 11
36.12091590886646
 21
94.95013530969624
 31
0.0
  0
LINE
  5
1A2
330
1F
100
AcDbEntity
  8
layer0
  6
Continuous
 62
    18
420
        0
370
     0
100
AcDbLine
 10
32.37088646486073
 20
96.19897163873247
 30
0.0
 11
32.37088646486073
 21
94.95013530969624
 31
0.0
  0
LINE
  5
1A3
330
1F
100
AcDbEntity
  8
layer0
  6
Continuous
 62
    18
420
        0
370
     9
100
AcDbLine
 10
36.12091590886646
 20
96.19897163873247
 30
0.0
 11
36.12444444020588
 21
96.19897163873247
 31
0.0
  0
LINE
  5
1A4
330
1F
100
AcDbEntity
  8
layer0
  6
Continuous
 62
    18
420
        0
370
     9
100
AcDbLine
 10
32.37088646486073
 20
96.19897163873247
 30
0.0
 11
32.37441499620016
 21
96.19897163873247
 31
0.0
  0
LINE
  5
1A5
330
1F
100
AcDbEntity
  8
layer0
  6
Continuous
 62
    18
420
        0
370
     0
100
AcDbLine
 10
32.37088646486073
 20
96.19897163873247
 30
0.0
 11
63.12252424595095
 21
96.19897163873247
 31
0.0
  0
LINE
  5
1A6
330
1F
100
AcDbEntity
  8
layer0
  6
Continuous
 62
    18
420
        0
370
     5
100
AcDbLine
 10
35.37302606227665
 20
92.07499861717224
 30
0.0
 11
35.37302606227665
 21
91.95152424361973
 31
0.0
  0
LINE
  5
1A7
330
1F
100
AcDbEntity
  8
layer0
  6
Continuous
 62
    18
420
        0
370
     5
100
AcDbLine
 10
63.12252424595095
 20
91.95152424361973
 30
0.0
 11
32.37088646486073
 21
91.95152424361973
 31
0.0
  0
LINE
  5
1A8
330
1F
100
AcDbEntity
  8
layer0
  6
Continuous
 62
    18
420
        0
370
     5
100
AcDbLine
 10
32.49788667827185
 20
92.07499861717224
 30
0.0
 11
35.37302606227665
 21
92.07499861717224
 31
0.0
  0
LINE
  5
1A9
330
1F
100
AcDbEntity
  8
layer0
  6
Continuous
 62
    18
420
        0
370
     5
100
AcDbLine
 10
60.12038734001585
 20
92.07499861717224
 30
0.0
 11
62.99552941550144
 21
92.07499861717224
 31
0.0
  0
LINE
  5
1AA
330
1F
100
AcDbEntity
  8
layer0
  6
Continuous
 62
    18
420
        0
370
     5
100
AcDbLine
 10
60.12038734001585
 20
92.07499861717224
 30
0.0
 11
60.12038734001585
 21
91.95152424361973
 31
0.0
  0
LINE
  5
1AB
330
1F
100
AcDbEntity
  8
layer0
  6
Continuous
 62
    18
420
        0
370
     0
100
AcDbLine
 10
29.87322188123067
 20
91.95152424361973
 30
0.0
 11
31.1220528273053
 21
91.95152424361973
 31
0.0
  0
LINE
  5
1AC
330
1F
100
AcDbEntity
  8
layer0
  6
Continuous
 62
    18
420
        0
370
     9
100
AcDbLine
 10
29.87322188123067
 20
91.95152424361973
 30
0.0
 11
29.87674772108928
 21
91.95152424361973
 31
0.0
  0
LINE
  5
1AD
330
1F
100
AcDbEntity
  8
layer0
  6
Continuous
 62
    18
420
        0
370
     0
100
AcDbLine
 10
63.12252424595095
 20
89.45033112865025
 30
0.0
 11
63.12252424595095
 21
90.6991674576865
 31
0.0
  0
LINE
  5
1AE
330
1F
100
AcDbEntity
  8
layer0
  6
Continuous
 62
    18
420
        0
370
     0
100
AcDbLine
 10
32.37088646486073
 20
89.45033112865025
 30
0.0
 11
32.37088646486073
 21
90.6991674576865
 31
0.0
  0
LINE
  5
1AF
330
1F
100
AcDbEntity
  8
layer0
  6
Continuous
 62
    18
420
        0
370
     9
100
AcDbLine
 10
63.12252424595095
 20
89.45033112865025
 30
0.0
 11
63.12605008580957
 21
89.45033112865025
 31
0.0
  0
LINE
  5
1B0
330
1F
100
AcDbEntity
  8
layer0
  6
Continuous
 62
    18
420
        0
370
     9
100
AcDbLine
 10
32.37088646486073
 20
89.45033112865025
 30
0.0
 11
32.37441499620016
 21
89.45033112865025
 31
0.0
  0
LINE
  5
1B1
330
1F
100
AcDbEntity
  8
layer0
  6
Continuous
 62
    18
420
        0
370
     0
100
AcDbLine
 10
32.37088646486073
 20
89.45033112865025
 30
0.0
 11
63.12252424595095
 21
89.45033112865025
 31
0.0
  0
LINE
  5
1B2
330
1F
100
AcDbEntity
  8
layer0
  6
Continuous
 62
    18
420
        0
370
     0
100
AcDbLine
 10
32.37088646486073
 20
114.5575299330287
 30
0.0
 11
63.12252424595095
 21
114.5575299330287
 31
0.0
  0
LINE
  5
1B3
330
1F
100
AcDbEntity
  8
layer0
  6
Continuous
 62
    18
420
        0
370
     9
100
AcDbLine
 10
32.37088646486073
 20
114.5575299330287
 30
0.0
 11
32.37441499620016
 21
114.5575299330287
 31
0.0
  0
LINE
  5
1B4
330
1F
100
AcDbEntity
  8
layer0
  6
Continuous
 62
    18
420
        0
370
     9
100
AcDbLine
 10
36.12091590886646
 20
114.5575299330287
 30
0.0
 11
36.12444444020588
 21
114.5575299330287
 31
0.0
  0
LINE
  5
1B5
330
1F
100
AcDbEntity
  8
layer0
  6
Continuous
 62
    18
420
        0
370
     0
100
AcDbLine
 10
32.37088646486073
 20
114.5575299330287
 30
0.0
 11
32.37088646486073
 21
113.3086936039924
 31
0.0
  0
LINE
  5
1B6
330
1F
100
AcDbEntity
  8
layer0
  6
Continuous
 62
    18
420
        0
370
     0
100
AcDbLine
 10
36.12091590886646
 20
114.5575299330287
 30
0.0
 11
36.12091590886646
 21
113.3086936039924
 31
0.0
  0
LINE
  5
1B7
330
1F
100
AcDbEntity
  8
layer0
  6
Continuous
 62
    18
420
        0
370
     9
100
AcDbLine
 10
37.37327807776132
 20
114.5575299330287
 30
0.0
 11
37.37680660910074
 21
114.5575299330287
 31
0.0
  0
LINE
  5
1B8
330
1F
100
AcDbEntity
  8
layer0
  6
Continuous
 62
    18
420
        0
370
     0
100
AcDbLine
 10
37.37327807776132
 20
114.5575299330287
 30
0.0
 11
37.37327807776132
 21
113.3086936039924
 31
0.0
  0
LINE
  5
1B9
330
1F
100
AcDbEntity
  8
layer0
  6
Continuous
 62
    18
420
        0
370
     9
100
AcDbLine
 10
58.1236638558706
 20
114.5575299330287
 30
0.0
 11
58.12719507869082
 21
114.5575299330287
 31
0.0
  0
LINE
  5
1BA
330
1F
100
AcDbEntity
  8
layer0
  6
Continuous
 62
    18
420
        0
370
     0
100
AcDbLine
 10
58.1236638558706
 20
114.5575299330287
 30
0.0
 11
58.1236638558706
 21
113.3086936039924
 31
0.0
  0
LINE
  5
1BB
330
1F
100
AcDbEntity
  8
layer0
  6
Continuous
 62
    18
420
        0
370
     9
100
AcDbLine
 10
59.37250018490684
 20
114.5575299330287
 30
0.0
 11
59.37602602476545
 21
114.5575299330287
 31
0.0
  0
LINE
  5
1BC
330
1F
100
AcDbEntity
  8
layer0
  6
Continuous
 62
    18
420
        0
370
     0
100
AcDbLine
 10
59.37250018490684
 20
114.5575299330287
 30
0.0
 11
59.37250018490684
 21
113.3086936039924
 31
0.0
  0
LINE
  5
1BD
330
1F
100
AcDbEntity
  8
layer0
  6
Continuous
 62
    18
420
        0
370
     9
100
AcDbLine
 10
63.12252424595095
 20
114.5575299330287
 30
0.0
 11
63.12605008580957
 21
114.5575299330287
 31
0.0
  0
LINE
  5
1BE
330
1F
100
AcDbEntity
  8
layer0
  6
Continuous
 62
    18
420
        0
370
     0
100
AcDbLine
 10
63.12252424595095
 20
114.5575299330287
 30
0.0
 11
63.12252424595095
 21
113.3086936039924
 31
0.0
  0
LINE
  5
1BF
330
1F
100
AcDbEntity
  8
layer0
  6
Continuous
 62
    18
420
        0
370
     0
100
AcDbLine
 10
32.37088646486073
 20
107.3079402490192
 30
0.0
 11
63.12252424595095
 21
107.3079402490192
 31
0.0
  0
LINE
  5
1C0
330
1F
100
AcDbEntity
  8
layer0
  6
Continuous
 62
    18
420
        0
370
     9
100
AcDbLine
 10
32.37088646486073
 20
107.3079402490192
 30
0.0
 11
32.37441499620016
 21
107.3079402490192
 31
0.0
  0
LINE
  5
1C1
330
1F
100
AcDbEntity
  8
layer0
  6
Continuous
 62
    18
420
        0
370
     9
100
AcDbLine
 10
63.12252424595095
 20
107.3079402490192
 30
0.0
 11
63.12605008580957
 21
107.3079402490192
 31
0.0
  0
LINE
  5
1C2
330
1F
100
AcDbEntity
  8
layer0
  6
Continuous
 62
    18
420
        0
370
     0
100
AcDbLine
 10
32.37088646486073
 20
107.3079402490192
 30
0.0
 11
32.37088646486073
 21
108.5567765780555
 31
0.0
  0
LINE
  5
1C3
330
1F
100
AcDbEntity
  8
layer0
  6
Continuous
 62
    18
420
        0
370
     0
100
AcDbLine
 10
63.12252424595095
 20
107.3079402490192
 30
0.0
 11
63.12252424595095
 21
108.5567765780555
 31
0.0
  0
LINE
  5
1C4
330
1F
100
AcDbEntity
  8
layer0
  6
Continuous
 62
    18
420
        0
370
     0
100
AcDbLine
 10
29.87322188123067
 20
112.0563368180592
 30
0.0
 11
29.87322188123067
 21
109.809144129912
 31
0.0
  0
LINE
  5
1C5
330
1F
100
AcDbEntity
  8
layer0
  6
Continuous
 62
    18
420
        0
370
     9
100
AcDbLine
 10
29.87322188123067
 20
112.0563368180592
 30
0.0
 11
29.87674772108928
 21
112.0563368180592
 31
0.0
  0
LINE
  5
1C6
330
1F
100
AcDbEntity
  8
layer0
  6
Continuous
 62
    18
420
        0
370
     9
100
AcDbLine
 10
29.87322188123067
 20
109.809144129912
 30
0.0
 11
29.87674772108928
 21
109.809144129912
 31
0.0
  0
LINE
  5
1C7
330
1F
100
AcDbEntity
  8
layer0
  6
Continuous
 62
    18
420
        0
370
     0
100
AcDbLine
 10
29.87322188123067
 20
112.0563368180592
 30
0.0
 11
31.1220528273053
 21
112.0563368180592
 31
0.0
  0
LINE
  5
1C8
330
1F
100
AcDbEntity
  8
layer0
  6
Continuous
 62
    18
420
        0
370
     0
100
AcDbLine
 10
29.87322188123067
 20
109.809144129912
 30
0.0
 11
31.1220528273053
 21
109.809144129912
 31
0.0
  0
LINE
  5
1C9
330
1F
100
AcDbEntity
  8
layer0
  6
Continuous
 62
    18
420
        0
370
     5
100
AcDbLine
 10
60.12038734001585
 20
109.9326077375412
 30
0.0
 11
60.12038734001585
 21
109.809144129912
 31
0.0
  0
LINE
  5
1CA
330
1F
100
AcDbEntity
  8
layer0
  6
Continuous
 62
    18
420
        0
370
     5
100
AcDbLine
 10
60.12038734001585
 20
109.9326077375412
 30
0.0
 11
62.99552941550144
 21
109.9326077375412
 31
0.0
  0
LINE
  5
1CB
330
1F
100
AcDbEntity
  8
layer0
  6
Continuous
 62
    18
420
        0
370
     5
100
AcDbLine
 10
63.12252424595095
 20
109.809144129912
 30
0.0
 11
63.12252424595095
 21
111.1743923868602
 31
0.0
  0
LINE
  5
1CC
330
1F
100
AcDbEntity
  8
layer0
  6
Continuous
 62
    18
420
        0
370
     5
100
AcDbLine
 10
62.99552941550144
 20
109.9326077375412
 30
0.0
 11
62.99552941550144
 21
111.1214671082497
 31
0.0
  0
LINE
  5
1CD
330
1F
100
AcDbEntity
  8
layer0
  6
Continuous
 62
    18
420
        0
370
     5
100
AcDbLine
 10
63.12252424595095
 20
111.1743923868602
 30
0.0
 11
62.23705397489337
 21
112.0563368180592
 31
0.0
  0
LINE
  5
1CE
330
1F
100
AcDbEntity
  8
layer0
  6
Continuous
 62
    18
420
        0
370
     5
100
AcDbLine
 10
62.99552941550144
 20
111.1214671082497
 30
0.0
 11
62.18766530206469
 21
111.9328624445067
 31
0.0
  0
LINE
  5
1CF
330
1F
100
AcDbEntity
  8
layer0
  6
Continuous
 62
    18
420
        0
370
     5
100
AcDbLine
 10
59.37250018490684
 20
110.9838893752628
 30
0.0
 11
58.1236638558706
 21
110.9838893752628
 31
0.0
  0
LINE
  5
1D0
330
1F
100
AcDbEntity
  8
layer0
  6
Continuous
 62
    18
420
        0
370
     5
100
AcDbLine
 10
59.49597455845934
 20
110.8568945448133
 30
0.0
 11
57.99666364245948
 21
110.8568945448133
 31
0.0
  0
LINE
  5
1D1
330
1F
100
AcDbEntity
  8
layer0
  6
Continuous
 62
    18
420
        0
370
     5
100
AcDbLine
 10
62.23705397489337
 20
112.0563368180592
 30
0.0
 11
59.37250018490684
 21
112.0563368180592
 31
0.0
  0
LINE
  5
1D2
330
1F
100
AcDbEntity
  8
layer0
  6
Continuous
 62
    18
420
        0
370
     5
100
AcDbLine
 10
62.18766530206469
 20
111.9328624445067
 30
0.0
 11
59.49597455845934
 21
111.9328624445067
 31
0.0
  0
LINE
  5
1D3
330
1F
100
AcDbEntity
  8
layer0
  6
Continuous
 62
    18
420
        0
370
     5
100
AcDbLine
 10
59.37250018490684
 20
110.9838893752628
 30
0.0
 11
59.37250018490684
 21
112.0563368180592
 31
0.0
  0
LINE
  5
1D4
330
1F
100
AcDbEntity
  8
layer0
  6
Continuous
 62
    18
420
        0
370
     5
100
AcDbLine
 10
59.49597455845934
 20
110.8568945448133
 30
0.0
 11
59.49597455845934
 21
111.9328624445067
 31
0.0
  0
LINE
  5
1D5
330
1F
100
AcDbEntity
  8
layer0
  6
Continuous
 62
    18
420
        0
370
     5
100
AcDbLine
 10
58.1236638558706
 20
110.9838893752628
 30
0.0
 11
58.1236638558706
 21
112.0563368180592
 31
0.0
  0
LINE
  5
1D6
330
1F
100
AcDbEntity
  8
layer0
  6
Continuous
 62
    18
420
        0
370
     5
100
AcDbLine
 10
57.99666364245948
 20
110.8568945448133
 30
0.0
 11
57.99666364245948
 21
111.9328624445067
 31
0.0
  0
LINE
  5
1D7
330
1F
100
AcDbEntity
  8
layer0
  6
Continuous
 62
    18
420
        0
370
     5
100
AcDbLine
 10
58.1236638558706
 20
112.0563368180592
 30
0.0
 11
37.37327807776132
 21
112.0563368180592
 31
0.0
  0
LINE
  5
1D8
330
1F
100
AcDbEntity
  8
layer0
  6
Continuous
 62
    18
420
        0
370
     5
100
AcDbLine
 10
57.99666364245948
 20
111.9328624445067
 30
0.0
 11
37.49674706835221
 21
111.9328624445067
 31
0.0
  0
LINE
  5
1D9
330
1F
100
AcDbEntity
  8
layer0
  6
Continuous
 62
    18
420
        0
370
     5
100
AcDbLine
 10
37.37327807776132
 20
112.0563368180592
 30
0.0
 11
37.37327807776132
 21
110.9838893752628
 31
0.0
  0
LINE
  5
1DA
330
1F
100
AcDbEntity
  8
layer0
  6
Continuous
 62
    18
420
        0
370
     5
100
AcDbLine
 10
37.49674706835221
 20
111.9328624445067
 30
0.0
 11
37.49674706835221
 21
110.8568945448133
 31
0.0
  0
LINE
  5
1DB
330
1F
100
AcDbEntity
  8
layer0
  6
Continuous
 62
    18
420
        0
370
     5
100
AcDbLine
 10
37.37327807776132
 20
110.9838893752628
 30
0.0
 11
36.12091590886646
 21
110.9838893752628
 31
0.0
  0
LINE
  5
1DC
330
1F
100
AcDbEntity
  8
layer0
  6
Continuous
 62
    18
420
        0
370
     5
100
AcDbLine
 10
37.49674706835221
 20
110.8568945448133
 30
0.0
 11
35.99744422679477
 21
110.8568945448133
 31
0.0
  0
LINE
  5
1DD
330
1F
100
AcDbEntity
  8
layer0
  6
Continuous
 62
    18
420
        0
370
     5
100
AcDbLine
 10
36.12091590886646
 20
110.9838893752628
 30
0.0
 11
36.12091590886646
 21
112.0563368180592
 31
0.0
  0
LINE
  5
1DE
330
1F
100
AcDbEntity
  8
layer0
  6
Continuous
 62
    18
420
        0
370
     5
100
AcDbLine
 10
35.99744422679477
 20
110.8568945448133
 30
0.0
 11
35.99744422679477
 21
111.9328624445067
 31
0.0
  0
LINE
  5
1DF
330
1F
100
AcDbEntity
  8
layer0
  6
Continuous
 62
    18
420
        0
370
     5
100
AcDbLine
 10
36.12091590886646
 20
112.0563368180592
 30
0.0
 11
33.25635942739912
 21
112.0563368180592
 31
0.0
  0
LINE
  5
1E0
330
1F
100
AcDbEntity
  8
layer0
  6
Continuous
 62
    18
420
        0
370
     5
100
AcDbLine
 10
35.99744422679477
 20
111.9328624445067
 30
0.0
 11
33.30927663156722
 21
111.9328624445067
 31
0.0
  0
LINE
  5
1E1
330
1F
100
AcDbEntity
  8
layer0
  6
Continuous
 62
    18
420
        0
370
     5
100
AcDbLine
 10
33.25635942739912
 20
112.0563368180592
 30
0.0
 11
32.37088646486073
 21
111.1743923868602
 31
0.0
  0
LINE
  5
1E2
330
1F
100
AcDbEntity
  8
layer0
  6
Continuous
 62
    18
420
        0
370
     5
100
AcDbLine
 10
33.30927663156722
 20
111.9328624445067
 30
0.0
 11
32.49788667827185
 21
111.1214671082497
 31
0.0
  0
LINE
  5
1E3
330
1F
100
AcDbEntity
  8
layer0
  6
Continuous
 62
    18
420
        0
370
     5
100
AcDbLine
 10
32.37088646486073
 20
111.1743923868602
 30
0.0
 11
32.37088646486073
 21
109.809144129912
 31
0.0
  0
LINE
  5
1E4
330
1F
100
AcDbEntity
  8
layer0
  6
Continuous
 62
    18
420
        0
370
     5
100
AcDbLine
 10
32.49788667827185
 20
111.1214671082497
 30
0.0
 11
32.49788667827185
 21
109.9326077375412
 31
0.0
  0
LINE
  5
1E5
330
1F
100
AcDbEntity
  8
layer0
  6
Continuous
 62
    18
420
        0
370
     5
100
AcDbLine
 10
32.49788667827185
 20
109.9326077375412
 30
0.0
 11
35.37302606227665
 21
109.9326077375412
 31
0.0
  0
LINE
  5
1E6
330
1F
100
AcDbEntity
  8
layer0
  6
Continuous
 62
    18
420
        0
370
     5
100
AcDbLine
 10
63.12252424595095
 20
109.809144129912
 30
0.0
 11
32.37088646486073
 21
109.809144129912
 31
0.0
  0
LINE
  5
1E7
330
1F
100
AcDbEntity
  8
layer0
  6
Continuous
 62
    18
420
        0
370
     5
100
AcDbLine
 10
35.37302606227665
 20
109.9326077375412
 30
0.0
 11
35.37302606227665
 21
109.809144129912
 31
0.0
  0
LINE
  5
1E8
330
1F
100
AcDbEntity
  8
layer0
  6
Continuous
 62
    18
420
        0
370
     0
100
AcDbLine
 10
55.9046940354771
 20
112.0563368180592
 30
0.0
 11
55.9046940354771
 21
110.9838893752628
 31
0.0
  0
LINE
  5
1E9
330
1F
100
AcDbEntity
  8
layer0
  6
Continuous
 62
    18
420
        0
370
     9
100
AcDbLine
 10
55.9046940354771
 20
112.0563368180592
 30
0.0
 11
55.90821987533571
 21
112.0563368180592
 31
0.0
  0
LINE
  5
1EA
330
1F
100
AcDbEntity
  8
layer0
  6
Continuous
 62
    18
420
        0
370
     9
100
AcDbLine
 10
55.9046940354771
 20
110.9838893752628
 30
0.0
 11
55.90821987533571
 21
110.9838893752628
 31
0.0
  0
LINE
  5
1EB
330
1F
100
AcDbEntity
  8
layer0
  6
Continuous
 62
    18
420
        0
370
     0
100
AcDbLine
 10
55.9046940354771
 20
112.0563368180592
 30
0.0
 11
57.24171942467163
 21
112.0563368180592
 31
0.0
  0
LINE
  5
1EC
330
1F
100
AcDbEntity
  8
layer0
  6
Continuous
 62
    18
420
        0
370
     0
100
AcDbLine
 10
55.9046940354771
 20
110.9838893752628
 30
0.0
 11
57.24171942467163
 21
110.9838893752628
 31
0.0
  0
TEXT
  5
1ED
330
1F
100
AcDbEntity
  8
layer0
  6
Continuous
 62
    18
420
        0
100
AcDbText
 10
25.98208348141776
 20
136.0330386802119
 30
0.0
 40
1.524190497618039
  1
Ｍ
 41
0.7500004204913153
  7
MS Gothic
100
AcDbText
  0
TEXT
  5
1EE
330
1F
100
AcDbEntity
  8
layer0
  6
Continuous
 62
    18
420
        0
100
AcDbText
 10
27.98233280542162
 20
136.0330386802119
 30
0.0
 40
1.524190497618039
  1
型
 41
0.859999603056198
  7
MS Gothic
100
AcDbText
  0
TEXT
  5
1EF
330
1F
100
AcDbEntity
  8
layer0
  6
Continuous
 62
    18
420
        0
100
AcDbText
 10
25.98208348141776
 20
118.1754295598429
 30
0.0
 40
1.524190497618039
  1
Ｂ
 41
0.628999839540514
  7
MS Gothic
100
AcDbText
  0
TEXT
  5
1F0
330
1F
100
AcDbEntity
  8
layer0
  6
Continuous
 62
    18
420
        0
100
AcDbText
 10
27.98233280542162
 20
118.1754295598429
 30
0.0
 40
1.524190497618039
  1
型
 41
0.859999603056198
  7
MS Gothic
100
AcDbText
  0
TEXT
  5
1F1
330
1F
100
AcDbEntity
  8
layer0
  6
Continuous
 62
    18
420
        0
100
AcDbText
 10
25.98208348141776
 20
100.3178204394739
 30
0.0
 40
1.524190497618039
  1
Ｐ
 41
0.6568343462688796
  7
MS Gothic
100
AcDbText
  0
TEXT
  5
1F2
330
1F
100
AcDbEntity
  8
layer0
  6
Continuous
 62
    18
420
        0
100
AcDbText
 10
27.98233280542162
 20
100.3178204394739
 30
0.0
 40
1.524190497618039
  1
型
 41
0.859999603056198
  7
MS Gothic
100
AcDbText
  0
LINE
  5
1F3
330
1F
100
AcDbEntity
  8
layer0
  6
Continuous
 62
    18
420
        0
370
     5
100
AcDbLine
 10
25.16716768826377
 20
102.8700006082323
 30
0.0
 11
202.3321558764777
 21
102.8700006082323
 31
0.0
  0
TEXT
  5
1F4
330
1F
100
AcDbEntity
  8
layer0
  6
Continuous
 62
    18
420
        0
100
AcDbText
 10
100.5416651566823
 20
118.5357132337424
 30
0.0
 40
1.142470816175143
  1
2
 41
0.7959989659926472
  7
MS Gothic
100
AcDbText
  0
TEXT
  5
1F5
330
1F
100
AcDbEntity
  8
layer0
  6
Continuous
 62
    18
420
        0
100
AcDbText
 10
83.41782906606467
 20
118.5357132337424
 30
0.0
 40
1.142470816175143
  1
Ｄ
 41
0.7612475226907169
  7
MS Gothic
100
AcDbText
  0
TEXT
  5
1F6
330
1F
100
AcDbEntity
  8
layer0
  6
Continuous
 62
    18
420
        0
100
AcDbText
 10
84.91713459910292
 20
118.5357132337424
 30
0.0
 40
1.142470816175143
  1
Ｈ
 41
0.5860021254595589
  7
MS Gothic
100
AcDbText
  0
TEXT
  5
1F7
330
1F
100
AcDbEntity
  8
layer0
  6
Continuous
 62
    18
420
        0
100
AcDbText
 10
86.41644013214116
 20
118.5357132337424
 30
0.0
 40
1.142470816175143
  1
Ｆ
 41
0.532000373391544
  7
MS Gothic
100
AcDbText
  0
TEXT
  5
1F8
330
1F
100
AcDbEntity
  8
layer0
  6
Continuous
 62
    18
420
        0
100
AcDbText
 10
87.9157456651794
 20
118.5357132337424
 30
0.0
 40
1.142470816175143
  1
Ｂ
 41
0.6289995978860294
  7
MS Gothic
100
AcDbText
  0
TEXT
  5
1F9
330
1F
100
AcDbEntity
  8
layer0
  6
Continuous
 62
    18
420
        0
100
AcDbText
 10
89.41505119821764
 20
118.5357132337424
 30
0.0
 40
1.142470816175143
  1
1
 41
0.6209968118106618
  7
MS Gothic
100
AcDbText
  0
TEXT
  5
1FA
330
1F
100
AcDbEntity
  8
layer0
  6
Continuous
 62
    18
420
        0
100
AcDbText
 10
90.16646957614688
 20
118.5357132337424
 30
0.0
 40
1.142470816175143
  1
2
 41
0.7959917853860294
  7
MS Gothic
100
AcDbText
  0
TEXT
  5
1FB
330
1F
100
AcDbEntity
  8
layer0
  6
Continuous
 62
    18
420
        0
100
AcDbText
 10
90.91788795407612
 20
118.5357132337424
 30
0.0
 40
1.142470816175143
  1
-
 41
0.8920036764705882
  7
MS Gothic
100
AcDbText
  0
TEXT
  5
1FC
330
1F
100
AcDbEntity
  8
layer0
  6
Continuous
 62
    18
420
        0
100
AcDbText
 10
91.66577510918513
 20
118.5357132337424
 30
0.0
 40
1.142470816175143
  1
□
 41
0.7460004021139707
  7
MS Gothic
100
AcDbText
  0
TEXT
  5
1FD
330
1F
100
AcDbEntity
  8
layer0
  6
Continuous
 62
    18
420
        0
100
AcDbText
 10
83.41782906606467
 20
100.6781041133735
 30
0.0
 40
1.142470816175143
  1
Ｄ
 41
0.7612475226907169
  7
MS Gothic
100
AcDbText
  0
TEXT
  5
1FE
330
1F
100
AcDbEntity
  8
layer0
  6
Continuous
 62
    18
420
        0
100
AcDbText
 10
84.91713459910292
 20
100.6781041133735
 30
0.0
 40
1.142470816175143
  1
Ｈ
 41
0.5860021254595589
  7
MS Gothic
100
AcDbText
  0
TEXT
  5
1FF
330
1F
100
AcDbEntity
  8
layer0
  6
Continuous
 62
    18
420
        0
100
AcDbText
 10
86.41644013214116
 20
100.6781041133735
 30
0.0
 40
1.142470816175143
  1
Ｆ
 41
0.532000373391544
  7
MS Gothic
100
AcDbText
  0
TEXT
  5
200
330
1F
100
AcDbEntity
  8
layer0
  6
Continuous
 62
    18
420
        0
100
AcDbText
 10
87.9157456651794
 20
100.6781041133735
 30
0.0
 40
1.142470816175143
  1
Ｐ
 41
0.5629990521599265
  7
MS Gothic
100
AcDbText
  0
TEXT
  5
201
330
1F
100
AcDbEntity
  8
layer0
  6
Continuous
 62
    18
420
        0
100
AcDbText
 10
89.41505119821764
 20
100.6781041133735
 30
0.0
 40
1.142470816175143
  1
1
 41
0.6209968118106618
  7
MS Gothic
100
AcDbText
  0
TEXT
  5
202
330
1F
100
AcDbEntity
  8
layer0
  6
Continuous
 62
    18
420
        0
100
AcDbText
 10
90.16646957614688
 20
100.6781041133735
 30
0.0
 40
1.142470816175143
  1
2
 41
0.7959917853860294
  7
MS Gothic
100
AcDbText
  0
TEXT
  5
203
330
1F
100
AcDbEntity
  8
layer0
  6
Continuous
 62
    18
420
        0
100
AcDbText
 10
90.91788795407612
 20
100.6781041133735
 30
0.0
 40
1.142470816175143
  1
-
 41
0.8920036764705882
  7
MS Gothic
100
AcDbText
  0
TEXT
  5
204
330
1F
100
AcDbEntity
  8
layer0
  6
Continuous
 62
    18
420
        0
100
AcDbText
 10
91.66577510918513
 20
100.6781041133735
 30
0.0
 40
1.142470816175143
  1
□
 41
0.7460004021139707
  7
MS Gothic
100
AcDbText
  0
TEXT
  5
205
330
1F
100
AcDbEntity
  8
layer0
  6
Continuous
 62
    18
420
        0
100
AcDbText
 10
100.5416651566823
 20
100.6781041133735
 30
0.0
 40
1.142470816175143
  1
2
 41
0.7959989659926472
  7
MS Gothic
100
AcDbText
  0
LINE
  5
206
330
1F
100
AcDbEntity
  8
layer0
  6
Continuous
 62
    18
420
        0
370
     5
100
AcDbLine
 10
32.49788667827185
 20
127.7902276238334
 30
0.0
 11
32.49788667827185
 21
129.2895223909484
 31
0.0
  0
LINE
  5
207
330
1F
100
AcDbEntity
  8
layer0
  6
Continuous
 62
    18
420
        0
370
     5
100
AcDbLine
 10
32.37088646486073
 20
127.6632112615375
 30
0.0
 11
32.37088646486073
 21
129.416517221398
 31
0.0
  0
TEXT
  5
208
330
1F
100
AcDbEntity
  8
layer0
  6
Continuous
 62
    18
420
        0
100
AcDbText
 10
29.57450816365744
 20
127.913691222222
 30
0.0
 40
1.142470816175143
  1
7
 50
90.00000250447816
 41
0.7420008042279412
  7
MS Gothic
100
AcDbText
  0
LINE
  5
209
330
1F
100
AcDbEntity
  8
layer0
  6
Continuous
 62
    18
420
        0
370
     0
100
AcDbLine
 10
29.87322188123067
 20
129.416517221398
 30
0.0
 11
31.1220528273053
 21
129.416517221398
 31
0.0
  0
LINE
  5
20A
330
1F
100
AcDbEntity
  8
layer0
  6
Continuous
 62
    18
420
        0
370
     9
100
AcDbLine
 10
29.87322188123067
 20
129.416517221398
 30
0.0
 11
29.87674772108928
 21
129.416517221398
 31
0.0
  0
LINE
  5
20B
330
1F
100
AcDbEntity
  8
layer0
  6
Continuous
 62
    18
420
        0
370
     0
100
AcDbLine
 10
29.87322188123067
 20
129.416517221398
 30
0.0
 11
29.87322188123067
 21
127.6632112615375
 31
0.0
  0
LINE
  5
20C
330
1F
100
AcDbEntity
  8
layer0
  6
Continuous
 62
    18
420
        0
370
     0
100
AcDbLine
 10
32.37088646486073
 20
131.9141898794704
 30
0.0
 11
32.37088646486073
 21
130.6653535504342
 31
0.0
  0
LINE
  5
20D
330
1F
100
AcDbEntity
  8
layer0
  6
Continuous
 62
    18
420
        0
370
     9
100
AcDbLine
 10
32.37088646486073
 20
131.9141898794704
 30
0.0
 11
32.37441499620016
 21
131.9141898794704
 31
0.0
  0
LINE
  5
20E
330
1F
100
AcDbEntity
  8
layer0
  6
Continuous
 62
    18
420
        0
370
     5
100
AcDbLine
 10
35.37302606227665
 20
127.7902276238334
 30
0.0
 11
35.37302606227665
 21
127.6632112615375
 31
0.0
  0
LINE
  5
20F
330
1F
100
AcDbEntity
  8
layer0
  6
Continuous
 62
    18
420
        0
370
     5
100
AcDbLine
 10
32.49788667827185
 20
127.7902276238334
 30
0.0
 11
35.37302606227665
 21
127.7902276238334
 31
0.0
  0
LINE
  5
210
330
1F
100
AcDbEntity
  8
layer0
  6
Continuous
 62
    18
420
        0
370
     0
100
AcDbLine
 10
29.87322188123067
 20
127.6632112615375
 30
0.0
 11
31.1220528273053
 21
127.6632112615375
 31
0.0
  0
LINE
  5
211
330
1F
100
AcDbEntity
  8
layer0
  6
Continuous
 62
    18
420
        0
370
     9
100
AcDbLine
 10
29.87322188123067
 20
127.6632112615375
 30
0.0
 11
29.87674772108928
 21
127.6632112615375
 31
0.0
  0
LINE
  5
212
330
1F
100
AcDbEntity
  8
layer0
  6
Continuous
 62
    18
420
        0
370
     0
100
AcDbLine
 10
32.37088646486073
 20
125.1655493693882
 30
0.0
 11
32.37088646486073
 21
126.4143856984245
 31
0.0
  0
LINE
  5
213
330
1F
100
AcDbEntity
  8
layer0
  6
Continuous
 62
    18
420
        0
370
     9
100
AcDbLine
 10
32.37088646486073
 20
125.1655493693882
 30
0.0
 11
32.37441499620016
 21
125.1655493693882
 31
0.0
  0
TEXT
  5
214
330
1F
100
AcDbEntity
  8
layer0
  6
Continuous
 62
    18
420
        0
100
AcDbText
 10
100.5416651566823
 20
136.3933223541114
 30
0.0
 40
1.142470816175143
  1
2
 41
0.7959989659926472
  7
MS Gothic
100
AcDbText
  0
TEXT
  5
215
330
1F
100
AcDbEntity
  8
layer0
  6
Continuous
 62
    18
420
        0
100
AcDbText
 10
70.04049657959412
 20
136.3933223541114
 30
0.0
 40
1.142470816175143
  1
3
 41
0.7959989659926472
  7
MS Gothic
100
AcDbText
  0
TEXT
  5
216
330
1F
100
AcDbEntity
  8
layer0
  6
Continuous
 62
    18
420
        0
100
AcDbText
 10
70.79192034048498
 20
136.3933223541114
 30
0.0
 40
1.142470816175143
  1
,
 41
0.2700051700367647
  7
MS Gothic
100
AcDbText
  0
TEXT
  5
217
330
1F
100
AcDbEntity
  8
layer0
  6
Continuous
 62
    18
420
        0
100
AcDbText
 10
71.54333333545259
 20
136.3933223541114
 30
0.0
 40
1.142470816175143
  1
9
 41
0.7800005744485294
  7
MS Gothic
100
AcDbText
  0
TEXT
  5
218
330
1F
100
AcDbEntity
  8
layer0
  6
Continuous
 62
    18
420
        0
100
AcDbText
 10
72.2912204905616
 20
136.3933223541114
 30
0.0
 40
1.142470816175143
  1
0
 41
0.8599997127757353
  7
MS Gothic
100
AcDbText
  0
TEXT
  5
219
330
1F
100
AcDbEntity
  8
layer0
  6
Continuous
 62
    18
420
        0
100
AcDbText
 10
73.04263886849084
 20
136.3933223541114
 30
0.0
 40
1.142470816175143
  1
0
 41
0.8599997127757353
  7
MS Gothic
100
AcDbText
  0
TEXT
  5
21A
330
1F
100
AcDbEntity
  8
layer0
  6
Continuous
 62
    18
420
        0
100
AcDbText
 10
73.79053140656146
 20
136.3933223541114
 30
0.0
 40
1.142470816175143
  1
×
 41
0.6499974867876839
  7
MS Gothic
100
AcDbText
  0
TEXT
  5
21B
330
1F
100
AcDbEntity
  8
layer0
  6
Continuous
 62
    18
420
        0
100
AcDbText
 10
75.2933573964967
 20
136.3933223541114
 30
0.0
 40
1.142470816175143
  1
6
 41
0.7800005744485294
  7
MS Gothic
100
AcDbText
  0
TEXT
  5
21C
330
1F
100
AcDbEntity
  8
layer0
  6
Continuous
 62
    18
420
        0
100
AcDbText
 10
76.04124993456733
 20
136.3933223541114
 30
0.0
 40
1.142470816175143
  1
3
 41
0.7959989659926472
  7
MS Gothic
100
AcDbText
  0
TEXT
  5
21D
330
1F
100
AcDbEntity
  8
layer0
  6
Continuous
 62
    18
420
        0
100
AcDbText
 10
76.79266831249657
 20
136.3933223541114
 30
0.0
 40
1.142470816175143
  1
×
 41
0.6499974867876839
  7
MS Gothic
100
AcDbText
  0
TEXT
  5
21E
330
1F
100
AcDbEntity
  8
layer0
  6
Continuous
 62
    18
420
        0
100
AcDbText
 10
78.2919684625732
 20
136.3933223541114
 30
0.0
 40
1.142470816175143
  1
7
 41
0.7420008042279412
  7
MS Gothic
100
AcDbText
  0
TEXT
  5
21F
330
1F
100
AcDbEntity
  8
layer0
  6
Continuous
 62
    18
420
        0
100
AcDbText
 10
83.41782906606467
 20
136.3933223541114
 30
0.0
 40
1.142470816175143
  1
Ｄ
 41
0.7612475226907169
  7
MS Gothic
100
AcDbText
  0
TEXT
  5
220
330
1F
100
AcDbEntity
  8
layer0
  6
Continuous
 62
    18
420
        0
100
AcDbText
 10
84.91713459910292
 20
136.3933223541114
 30
0.0
 40
1.142470816175143
  1
Ｈ
 41
0.5860021254595589
  7
MS Gothic
100
AcDbText
  0
TEXT
  5
221
330
1F
100
AcDbEntity
  8
layer0
  6
Continuous
 62
    18
420
        0
100
AcDbText
 10
86.41644013214116
 20
136.3933223541114
 30
0.0
 40
1.142470816175143
  1
Ｆ
 41
0.532000373391544
  7
MS Gothic
100
AcDbText
  0
TEXT
  5
222
330
1F
100
AcDbEntity
  8
layer0
  6
Continuous
 62
    18
420
        0
100
AcDbText
 10
87.9157456651794
 20
136.3933223541114
 30
0.0
 40
1.142470816175143
  1
Ｍ
 41
0.7500000000000001
  7
MS Gothic
100
AcDbText
  0
TEXT
  5
223
330
1F
100
AcDbEntity
  8
layer0
  6
Continuous
 62
    18
420
        0
100
AcDbText
 10
89.41505119821764
 20
136.3933223541114
 30
0.0
 40
1.142470816175143
  1
1
 41
0.6209968118106618
  7
MS Gothic
100
AcDbText
  0
TEXT
  5
224
330
1F
100
AcDbEntity
  8
layer0
  6
Continuous
 62
    18
420
        0
100
AcDbText
 10
90.16646957614688
 20
136.3933223541114
 30
0.0
 40
1.142470816175143
  1
2
 41
0.7959917853860294
  7
MS Gothic
100
AcDbText
  0
TEXT
  5
225
330
1F
100
AcDbEntity
  8
layer0
  6
Continuous
 62
    18
420
        0
100
AcDbText
 10
90.91788795407612
 20
136.3933223541114
 30
0.0
 40
1.142470816175143
  1
-
 41
0.8920036764705882
  7
MS Gothic
100
AcDbText
  0
TEXT
  5
226
330
1F
100
AcDbEntity
  8
layer0
  6
Continuous
 62
    18
420
        0
100
AcDbText
 10
91.66577510918513
 20
136.3933223541114
 30
0.0
 40
1.142470816175143
  1
□
 41
0.7460004021139707
  7
MS Gothic
100
AcDbText
  0
LINE
  5
227
330
1F
100
AcDbEntity
  8
layer0
  6
Continuous
 62
    18
420
        0
370
     0
100
AcDbLine
 10
48.12241185288966
 20
125.1655493693882
 30
0.0
 11
48.12241185288966
 21
126.4143856984245
 31
0.0
  0
LINE
  5
228
330
1F
100
AcDbEntity
  8
layer0
  6
Continuous
 62
    18
420
        0
370
     5
100
AcDbLine
 10
48.12241185288966
 20
127.6632112615375
 30
0.0
 11
48.12241185288966
 21
129.416517221398
 31
0.0
  0
LINE
  5
229
330
1F
100
AcDbEntity
  8
layer0
  6
Continuous
 62
    18
420
        0
370
     5
100
AcDbLine
 10
47.99541702244015
 20
127.7902276238334
 30
0.0
 11
47.99541702244015
 21
129.2895223909484
 31
0.0
  0
LINE
  5
22A
330
1F
100
AcDbEntity
  8
layer0
  6
Continuous
 62
    18
420
        0
370
     0
100
AcDbLine
 10
48.12241185288966
 20
131.9141898794704
 30
0.0
 11
48.12241185288966
 21
130.6653535504342
 31
0.0
  0
LINE
  5
22B
330
1F
100
AcDbEntity
  8
layer0
  6
Continuous
 62
    18
420
        0
370
     9
100
AcDbLine
 10
48.12241185288966
 20
131.9141898794704
 30
0.0
 11
48.12594307570988
 21
131.9141898794704
 31
0.0
  0
LINE
  5
22C
330
1F
100
AcDbEntity
  8
layer0
  6
Continuous
 62
    18
420
        0
370
     0
100
AcDbLine
 10
32.37088646486073
 20
131.9141898794704
 30
0.0
 11
48.12241185288966
 21
131.9141898794704
 31
0.0
  0
LINE
  5
22D
330
1F
100
AcDbEntity
  8
layer0
  6
Continuous
 62
    18
420
        0
370
     5
100
AcDbLine
 10
48.12241185288966
 20
127.6632112615375
 30
0.0
 11
32.37088646486073
 21
127.6632112615375
 31
0.0
  0
LINE
  5
22E
330
1F
100
AcDbEntity
  8
layer0
  6
Continuous
 62
    18
420
        0
370
     5
100
AcDbLine
 10
45.12380616977478
 20
127.7902276238334
 30
0.0
 11
47.99541702244015
 21
127.7902276238334
 31
0.0
  0
LINE
  5
22F
330
1F
100
AcDbEntity
  8
layer0
  6
Continuous
 62
    18
420
        0
370
     5
100
AcDbLine
 10
45.12380616977478
 20
127.7902276238334
 30
0.0
 11
45.12380616977478
 21
127.6632112615375
 31
0.0
  0
LINE
  5
230
330
1F
100
AcDbEntity
  8
layer0
  6
Continuous
 62
    18
420
        0
370
     0
100
AcDbLine
 10
48.12241185288966
 20
125.1655493693882
 30
0.0
 11
48.12241185288966
 21
126.4143856984245
 31
0.0
  0
LINE
  5
231
330
1F
100
AcDbEntity
  8
layer0
  6
Continuous
 62
    18
420
        0
370
     9
100
AcDbLine
 10
48.12241185288966
 20
125.1655493693882
 30
0.0
 11
48.12594307570988
 21
125.1655493693882
 31
0.0
  0
LINE
  5
232
330
1F
100
AcDbEntity
  8
layer0
  6
Continuous
 62
    18
420
        0
370
     0
100
AcDbLine
 10
32.37088646486073
 20
125.1655493693882
 30
0.0
 11
48.12241185288966
 21
125.1655493693882
 31
0.0
  0
TEXT
  5
233
330
1F
100
AcDbEntity
  8
layer0
  6
Continuous
 62
    18
420
        0
100
AcDbText
 10
39.43349897713132
 20
125.4642738528847
 30
0.0
 40
1.142470816175143
  1
6
 41
0.7800005744485294
  7
MS Gothic
100
AcDbText
  0
TEXT
  5
234
330
1F
100
AcDbEntity
  8
layer0
  6
Continuous
 62
    18
420
        0
100
AcDbText
 10
40.30838634565144
 20
125.4642738528847
 30
0.0
 40
1.142470816175143
  1
3
 41
0.7960025562959558
  7
MS Gothic
100
AcDbText
  0
LINE
  5
235
330
1F
100
AcDbEntity
  8
layer0
  6
Continuous
 62
    18
420
        0
370
     5
100
AcDbLine
 10
34.74861058923933
 20
129.2895223909484
 30
0.0
 11
32.49788667827185
 21
129.2895223909484
 31
0.0
  0
LINE
  5
236
330
1F
100
AcDbEntity
  8
layer0
  6
Continuous
 62
    18
420
        0
370
     5
100
AcDbLine
 10
34.87208496279183
 20
129.416517221398
 30
0.0
 11
32.37088646486073
 21
129.416517221398
 31
0.0
  0
TEXT
  5
237
330
1F
100
AcDbEntity
  8
layer0
  6
Continuous
 62
    18
420
        0
100
AcDbText
 10
35.12255416679383
 20
132.2129143629669
 30
0.0
 40
1.142470816175143
  1
5
 41
0.7960025562959558
  7
MS Gothic
100
AcDbText
  0
LINE
  5
238
330
1F
100
AcDbEntity
  8
layer0
  6
Continuous
 62
    18
420
        0
370
     0
100
AcDbLine
 10
36.12091590886646
 20
131.9141898794704
 30
0.0
 11
36.12091590886646
 21
130.6653535504342
 31
0.0
  0
LINE
  5
239
330
1F
100
AcDbEntity
  8
layer0
  6
Continuous
 62
    18
420
        0
370
     9
100
AcDbLine
 10
36.12091590886646
 20
131.9141898794704
 30
0.0
 11
36.12444444020588
 21
131.9141898794704
 31
0.0
  0
LINE
  5
23A
330
1F
100
AcDbEntity
  8
layer0
  6
Continuous
 62
    18
420
        0
370
     0
100
AcDbLine
 10
34.87208496279183
 20
131.9141898794704
 30
0.0
 11
34.87208496279183
 21
130.6653535504342
 31
0.0
  0
LINE
  5
23B
330
1F
100
AcDbEntity
  8
layer0
  6
Continuous
 62
    18
420
        0
370
     9
100
AcDbLine
 10
34.87208496279183
 20
131.9141898794704
 30
0.0
 11
34.87561080265045
 21
131.9141898794704
 31
0.0
  0
LINE
  5
23C
330
1F
100
AcDbEntity
  8
layer0
  6
Continuous
 62
    18
420
        0
370
     5
100
AcDbLine
 10
34.74861058923933
 20
128.9155788133939
 30
0.0
 11
34.74861058923933
 21
129.2895223909484
 31
0.0
  0
LINE
  5
23D
330
1F
100
AcDbEntity
  8
layer0
  6
Continuous
 62
    18
420
        0
370
     5
100
AcDbLine
 10
34.87208496279183
 20
129.0390531869464
 30
0.0
 11
34.87208496279183
 21
129.416517221398
 31
0.0
  0
LINE
  5
23E
330
1F
100
AcDbEntity
  8
layer0
  6
Continuous
 62
    18
420
        0
370
     5
100
AcDbLine
 10
36.24791612227757
 20
128.9155788133939
 30
0.0
 11
34.74861058923933
 21
128.9155788133939
 31
0.0
  0
LINE
  5
23F
330
1F
100
AcDbEntity
  8
layer0
  6
Continuous
 62
    18
420
        0
370
     5
100
AcDbLine
 10
36.12091590886646
 20
129.0390531869464
 30
0.0
 11
34.87208496279183
 21
129.0390531869464
 31
0.0
  0
LINE
  5
240
330
1F
100
AcDbEntity
  8
layer0
  6
Continuous
 62
    18
420
        0
370
     5
100
AcDbLine
 10
36.24791612227757
 20
129.2895223909484
 30
0.0
 11
36.24791612227757
 21
128.9155788133939
 31
0.0
  0
LINE
  5
241
330
1F
100
AcDbEntity
  8
layer0
  6
Continuous
 62
    18
420
        0
370
     5
100
AcDbLine
 10
36.12091590886646
 20
129.416517221398
 30
0.0
 11
36.12091590886646
 21
129.0390531869464
 31
0.0
  0
LINE
  5
242
330
1F
100
AcDbEntity
  8
layer0
  6
Continuous
 62
    18
420
        0
370
     5
100
AcDbLine
 10
45.62122412088178
 20
129.416517221398
 30
0.0
 11
48.12241185288966
 21
129.416517221398
 31
0.0
  0
LINE
  5
243
330
1F
100
AcDbEntity
  8
layer0
  6
Continuous
 62
    18
420
        0
370
     5
100
AcDbLine
 10
45.7482243342929
 20
129.2895223909484
 30
0.0
 11
47.99541702244015
 21
129.2895223909484
 31
0.0
  0
TEXT
  5
244
330
1F
100
AcDbEntity
  8
layer0
  6
Continuous
 62
    18
420
        0
100
AcDbText
 10
44.62285968732835
 20
132.2129143629669
 30
0.0
 40
1.142470816175143
  1
5
 41
0.7959989659926472
  7
MS Gothic
100
AcDbText
  0
LINE
  5
245
330
1F
100
AcDbEntity
  8
layer0
  6
Continuous
 62
    18
420
        0
370
     0
100
AcDbLine
 10
42.15694381131066
 20
129.416517221398
 30
0.0
 11
43.49044336064657
 21
129.416517221398
 31
0.0
  0
LINE
  5
246
330
1F
100
AcDbEntity
  8
layer0
  6
Continuous
 62
    18
420
        0
370
     9
100
AcDbLine
 10
42.15694381131066
 20
129.416517221398
 30
0.0
 11
42.16047234265008
 21
129.416517221398
 31
0.0
  0
LINE
  5
247
330
1F
100
AcDbEntity
  8
layer0
  6
Continuous
 62
    18
420
        0
370
     0
100
AcDbLine
 10
45.62122412088178
 20
131.9141898794704
 30
0.0
 11
45.62122412088178
 21
130.6653535504342
 31
0.0
  0
LINE
  5
248
330
1F
100
AcDbEntity
  8
layer0
  6
Continuous
 62
    18
420
        0
370
     9
100
AcDbLine
 10
45.62122412088178
 20
131.9141898794704
 30
0.0
 11
45.6247499607404
 21
131.9141898794704
 31
0.0
  0
LINE
  5
249
330
1F
100
AcDbEntity
  8
layer0
  6
Continuous
 62
    18
420
        0
370
     0
100
AcDbLine
 10
44.37238779184554
 20
131.9141898794704
 30
0.0
 11
44.37238779184554
 21
130.6653535504342
 31
0.0
  0
LINE
  5
24A
330
1F
100
AcDbEntity
  8
layer0
  6
Continuous
 62
    18
420
        0
370
     9
100
AcDbLine
 10
44.37238779184554
 20
131.9141898794704
 30
0.0
 11
44.37591363170415
 21
131.9141898794704
 31
0.0
  0
LINE
  5
24B
330
1F
100
AcDbEntity
  8
layer0
  6
Continuous
 62
    18
420
        0
370
     0
100
AcDbLine
 10
42.15694381131066
 20
129.0390531869464
 30
0.0
 11
43.49044336064657
 21
129.0390531869464
 31
0.0
  0
LINE
  5
24C
330
1F
100
AcDbEntity
  8
layer0
  6
Continuous
 62
    18
420
        0
370
     9
100
AcDbLine
 10
42.15694381131066
 20
129.0390531869464
 30
0.0
 11
42.16047234265008
 21
129.0390531869464
 31
0.0
  0
LINE
  5
24D
330
1F
100
AcDbEntity
  8
layer0
  6
Continuous
 62
    18
420
        0
370
     0
100
AcDbLine
 10
42.15694381131066
 20
129.416517221398
 30
0.0
 11
42.15694381131066
 21
129.0390531869464
 31
0.0
  0
LINE
  5
24E
330
1F
100
AcDbEntity
  8
layer0
  6
Continuous
 62
    18
420
        0
370
     5
100
AcDbLine
 10
44.24538757843442
 20
128.9155788133939
 30
0.0
 11
44.24538757843442
 21
129.2895223909484
 31
0.0
  0
LINE
  5
24F
330
1F
100
AcDbEntity
  8
layer0
  6
Continuous
 62
    18
420
        0
370
     5
100
AcDbLine
 10
44.37238779184554
 20
129.0390531869464
 30
0.0
 11
44.37238779184554
 21
129.416517221398
 31
0.0
  0
LINE
  5
250
330
1F
100
AcDbEntity
  8
layer0
  6
Continuous
 62
    18
420
        0
370
     5
100
AcDbLine
 10
45.7482243342929
 20
128.9155788133939
 30
0.0
 11
45.7482243342929
 21
129.2895223909484
 31
0.0
  0
LINE
  5
251
330
1F
100
AcDbEntity
  8
layer0
  6
Continuous
 62
    18
420
        0
370
     5
100
AcDbLine
 10
45.62122412088178
 20
129.0390531869464
 30
0.0
 11
45.62122412088178
 21
129.416517221398
 31
0.0
  0
LINE
  5
252
330
1F
100
AcDbEntity
  8
layer0
  6
Continuous
 62
    18
420
        0
370
     5
100
AcDbLine
 10
45.7482243342929
 20
128.9155788133939
 30
0.0
 11
44.24538757843442
 21
128.9155788133939
 31
0.0
  0
LINE
  5
253
330
1F
100
AcDbEntity
  8
layer0
  6
Continuous
 62
    18
420
        0
370
     5
100
AcDbLine
 10
45.62122412088178
 20
129.0390531869464
 30
0.0
 11
44.37238779184554
 21
129.0390531869464
 31
0.0
  0
TEXT
  5
254
330
1F
100
AcDbEntity
  8
layer0
  6
Continuous
 62
    18
420
        0
100
AcDbText
 10
41.85822740225662
 20
128.5028348392692
 30
0.0
 40
1.142470816175143
  1
2
 50
90.00000250447816
 41
0.7959989659926472
  7
MS Gothic
100
AcDbText
  0
LINE
  5
255
330
1F
100
AcDbEntity
  8
layer0
  6
Continuous
 62
    18
420
        0
370
     5
100
AcDbLine
 10
44.24538757843442
 20
129.2895223909484
 30
0.0
 11
36.24791612227757
 21
129.2895223909484
 31
0.0
  0
LINE
  5
256
330
1F
100
AcDbEntity
  8
layer0
  6
Continuous
 62
    18
420
        0
370
     5
100
AcDbLine
 10
44.37238779184554
 20
129.416517221398
 30
0.0
 11
36.12091590886646
 21
129.416517221398
 31
0.0
  0
TEXT
  5
257
330
1F
100
AcDbEntity
  8
layer0
  6
Continuous
 62
    18
420
        0
100
AcDbText
 10
32.80833284060161
 20
132.2129143629669
 30
0.0
 40
1.142470816175143
  1
1
 41
0.621002197265625
  7
MS Gothic
100
AcDbText
  0
TEXT
  5
258
330
1F
100
AcDbEntity
  8
layer0
  6
Continuous
 62
    18
420
        0
100
AcDbText
 10
33.68322290060253
 20
132.2129143629669
 30
0.0
 40
1.142470816175143
  1
0
 41
0.8599997127757353
  7
MS Gothic
100
AcDbText
  0
TEXT
  5
259
330
1F
100
AcDbEntity
  8
layer0
  6
Continuous
 62
    18
420
        0
100
AcDbText
 10
39.43349897713132
 20
132.2129143629669
 30
0.0
 40
1.142470816175143
  1
3
 41
0.7960025562959558
  7
MS Gothic
100
AcDbText
  0
TEXT
  5
25A
330
1F
100
AcDbEntity
  8
layer0
  6
Continuous
 62
    18
420
        0
100
AcDbText
 10
40.30838634565144
 20
132.2129143629669
 30
0.0
 40
1.142470816175143
  1
3
 41
0.7960025562959558
  7
MS Gothic
100
AcDbText
  0
TEXT
  5
25B
330
1F
100
AcDbEntity
  8
layer0
  6
Continuous
 62
    18
420
        0
100
AcDbText
 10
46.05866511366104
 20
132.2129143629669
 30
0.0
 40
1.142470816175143
  1
1
 41
0.6209968118106618
  7
MS Gothic
100
AcDbText
  0
TEXT
  5
25C
330
1F
100
AcDbEntity
  8
layer0
  6
Continuous
 62
    18
420
        0
100
AcDbText
 10
46.93355248218116
 20
132.2129143629669
 30
0.0
 40
1.142470816175143
  1
0
 41
0.8599997127757353
  7
MS Gothic
100
AcDbText
  0
LINE
  5
25D
330
1F
100
AcDbEntity
  8
layer0
  6
Continuous
 62
    18
420
        0
370
     5
100
AcDbLine
 10
7.665861507362782
 20
67.15477698453267
 30
0.0
 11
104.9161073822446
 21
67.15477698453267
 31
0.0
  0
TEXT
  5
25E
330
1F
100
AcDbEntity
  8
layer0
  6
Continuous
 62
    18
420
        0
100
AcDbText
 10
20.04130439329149
 20
9.463881430844463
 30
0.0
 40
1.142470816175143
  1
ソ
 41
0.8887504128848805
  7
MS Gothic
100
AcDbText
  0
TEXT
  5
25F
330
1F
100
AcDbEntity
  8
layer0
  6
Continuous
 62
    18
420
        0
100
AcDbText
 10
21.79108316755295
 20
9.463881430844463
 30
0.0
 40
1.142470816175143
  1
フ
 41
0.8637506821576287
  7
MS Gothic
100
AcDbText
  0
TEXT
  5
260
330
1F
100
AcDbEntity
  8
layer0
  6
Continuous
 62
    18
420
        0
100
AcDbText
 10
23.5408592503336
 20
9.463881430844463
 30
0.0
 40
1.142470816175143
  1
ト
 41
0.5950007719152114
  7
MS Gothic
100
AcDbText
  0
TEXT
  5
261
330
1F
100
AcDbEntity
  8
layer0
  6
Continuous
 62
    18
420
        0
100
AcDbText
 10
25.29063667885465
 20
9.463881430844463
 30
0.0
 40
1.142470816175143
  1
ア
 41
0.8079995548023898
  7
MS Gothic
100
AcDbText
  0
TEXT
  5
262
330
1F
100
AcDbEntity
  8
layer0
  6
Continuous
 62
    18
420
        0
100
AcDbText
 10
27.04041679885652
 20
9.463881430844463
 30
0.0
 40
1.142470816175143
  1
ー
 41
0.8709986069623162
  7
MS Gothic
100
AcDbText
  0
TEXT
  5
263
330
1F
100
AcDbEntity
  8
layer0
  6
Continuous
 62
    18
420
        0
100
AcDbText
 10
28.79019422737757
 20
9.463881430844463
 30
0.0
 40
1.142470816175143
  1
ト
 41
0.5950007719152114
  7
MS Gothic
100
AcDbText
  0
TEXT
  5
264
330
1F
100
AcDbEntity
  8
layer0
  6
Continuous
 62
    18
420
        0
100
AcDbText
 10
30.53997165589863
 20
9.463881430844463
 30
0.0
 40
1.142470816175143
  1
　
 41
0.0
  7
MS Gothic
100
AcDbText
  0
TEXT
  5
265
330
1F
100
AcDbEntity
  8
layer0
  6
Continuous
 62
    18
420
        0
100
AcDbText
 10
32.28974908441968
 20
9.463881430844463
 30
0.0
 40
1.142470816175143
  1
洋
 41
0.8860006893382353
  7
MS Gothic
100
AcDbText
  0
TEXT
  5
266
330
1F
100
AcDbEntity
  8
layer0
  6
Continuous
 62
    18
420
        0
100
AcDbText
 10
34.03952651294074
 20
9.463881430844463
 30
0.0
 40
1.142470816175143
  1
風
 41
0.9260002585018383
  7
MS Gothic
100
AcDbText
  0
TEXT
  5
267
330
1F
100
AcDbEntity
  8
layer0
  6
Continuous
 62
    18
420
        0
100
AcDbText
 10
35.7893066329426
 20
9.463881430844463
 30
0.0
 40
1.142470816175143
  1
造
 41
0.8979994829963236
  7
MS Gothic
100
AcDbText
  0
TEXT
  5
268
330
1F
100
AcDbEntity
  8
layer0
  6
Continuous
 62
    18
420
        0
100
AcDbText
 10
37.54260990132227
 20
9.463881430844463
 30
0.0
 40
1.142470816175143
  1
作
 41
0.8750000000000001
  7
MS Gothic
100
AcDbText
  0
TEXT
  5
269
330
1F
100
AcDbEntity
  8
layer0
  6
Continuous
 62
    18
420
        0
100
AcDbText
 10
39.29239002132413
 20
9.463881430844463
 30
0.0
 40
1.142470816175143
  1
材
 41
0.9030007755055148
  7
MS Gothic
100
AcDbText
  0
TEXT
  5
26A
330
1F
100
AcDbEntity
  8
layer0
  6
Continuous
 62
    18
420
        0
100
AcDbText
 10
41.04216744984519
 20
9.463881430844463
 30
0.0
 40
1.142470816175143
  1
　
 41
0.0
  7
MS Gothic
100
AcDbText
  0
TEXT
  5
26B
330
1F
100
AcDbEntity
  8
layer0
  6
Continuous
 62
    18
420
        0
100
AcDbText
 10
42.79194487836624
 20
9.463881430844463
 30
0.0
 40
1.142470816175143
  1
和
 41
0.8709986069623162
  7
MS Gothic
100
AcDbText
  0
TEXT
  5
26C
330
1F
100
AcDbEntity
  8
layer0
  6
Continuous
 62
    18
420
        0
100
AcDbText
 10
44.54171961540649
 20
9.463881430844463
 30
0.0
 40
1.142470816175143
  1
-
 41
0.8920036764705882
  7
MS Gothic
100
AcDbText
  0
TEXT
  5
26D
330
1F
100
AcDbEntity
  8
layer0
  6
Continuous
 62
    18
420
        0
100
AcDbText
 10
45.41660698392661
 20
9.463881430844463
 30
0.0
 40
1.142470816175143
  1
洋
 41
0.8860006893382353
  7
MS Gothic
100
AcDbText
  0
TEXT
  5
26E
330
1F
100
AcDbEntity
  8
layer0
  6
Continuous
 62
    18
420
        0
100
AcDbText
 10
47.16638710392847
 20
9.463881430844463
 30
0.0
 40
1.142470816175143
  1
見
 41
0.882001091452206
  7
MS Gothic
100
AcDbText
  0
TEXT
  5
26F
330
1F
100
AcDbEntity
  8
layer0
  6
Continuous
 62
    18
420
        0
100
AcDbText
 10
48.91616722393034
 20
9.463881430844463
 30
0.0
 40
1.142470816175143
  1
切
 41
0.8509988223805146
  7
MS Gothic
100
AcDbText
  0
TEXT
  5
270
330
1F
100
AcDbEntity
  8
layer0
  6
Continuous
 62
    18
420
        0
100
AcDbText
 10
50.6659473439322
 20
9.463881430844463
 30
0.0
 40
1.142470816175143
  1
り
 41
0.6587488511029412
  7
MS Gothic
100
AcDbText
  0
TEXT
  5
271
330
1F
100
AcDbEntity
  8
layer0
  6
Continuous
 62
    18
420
        0
100
AcDbText
 10
52.41572208097245
 20
9.463881430844463
 30
0.0
 40
1.142470816175143
  1
材
 41
0.9030007755055148
  7
MS Gothic
100
AcDbText
  0
TEXT
  5
272
330
1F
100
AcDbEntity
  8
layer0
  6
Continuous
 62
    18
420
        0
100
AcDbText
 10
54.16549681801269
 20
9.463881430844463
 30
0.0
 40
1.142470816175143
  1
・
 41
0.2519962086397059
  7
MS Gothic
100
AcDbText
  0
TEXT
  5
273
330
1F
100
AcDbEntity
  8
layer0
  6
Continuous
 62
    18
420
        0
100
AcDbText
 10
55.91527693801456
 20
9.463881430844463
 30
0.0
 40
1.142470816175143
  1
胴
 41
0.8509988223805146
  7
MS Gothic
100
AcDbText
  0
TEXT
  5
274
330
1F
100
AcDbEntity
  8
layer0
  6
Continuous
 62
    18
420
        0
100
AcDbText
 10
57.66505167505481
 20
9.463881430844463
 30
0.0
 40
1.142470816175143
  1
見
 41
0.882001091452206
  7
MS Gothic
100
AcDbText
  0
TEXT
  5
275
330
1F
100
AcDbEntity
  8
layer0
  6
Continuous
 62
    18
420
        0
100
AcDbText
 10
59.41483179505667
 20
9.463881430844463
 30
0.0
 40
1.142470816175143
  1
切
 41
0.8509988223805146
  7
MS Gothic
100
AcDbText
  0
TEXT
  5
276
330
1F
100
AcDbEntity
  8
layer0
  6
Continuous
 62
    18
420
        0
100
AcDbText
 10
61.16461191505854
 20
9.463881430844463
 30
0.0
 40
1.142470816175143
  1
り
 41
0.6587488511029412
  7
MS Gothic
100
AcDbText
  0
TEXT
  5
277
330
1F
100
AcDbEntity
  8
layer0
  6
Continuous
 62
    18
420
        0
100
AcDbText
 10
62.91438665209878
 20
9.463881430844463
 30
0.0
 40
1.142470816175143
  1
材
 41
0.9030007755055148
  7
MS Gothic
100
AcDbText
  0
TEXT
  5
278
330
1F
100
AcDbEntity
  8
layer0
  6
Continuous
 62
    18
420
        0
100
AcDbText
 10
64.66416677210064
 20
9.463881430844463
 30
0.0
 40
1.142470816175143
  1
・
 41
0.2519962086397059
  7
MS Gothic
100
AcDbText
  0
TEXT
  5
279
330
1F
100
AcDbEntity
  8
layer0
  6
Continuous
 62
    18
420
        0
100
AcDbText
 10
66.41747273196111
 20
9.463881430844463
 30
0.0
 40
1.142470816175143
  1
出
 41
0.7889978745404411
  7
MS Gothic
100
AcDbText
  0
TEXT
  5
27A
330
1F
100
AcDbEntity
  8
layer0
  6
Continuous
 62
    18
420
        0
100
AcDbText
 10
68.16724746900137
 20
9.463881430844463
 30
0.0
 40
1.142470816175143
  1
隅
 41
0.8599997127757353
  7
MS Gothic
100
AcDbText
  0
TEXT
  5
27B
330
1F
100
AcDbEntity
  8
layer0
  6
Continuous
 62
    18
420
        0
100
AcDbText
 10
69.91702758900323
 20
9.463881430844463
 30
0.0
 40
1.142470816175143
  1
材
 41
0.9030007755055148
  7
MS Gothic
100
AcDbText
  0
TEXT
  5
27C
330
1F
100
AcDbEntity
  8
layer0
  6
Continuous
 62
    18
420
        0
100
AcDbText
 10
71.6668077090051
 20
9.463881430844463
 30
0.0
 40
1.142470816175143
  1
・
 41
0.2519962086397059
  7
MS Gothic
100
AcDbText
  0
TEXT
  5
27D
330
1F
100
AcDbEntity
  8
layer0
  6
Continuous
 62
    18
420
        0
100
AcDbText
 10
73.41658244604534
 20
9.463881430844463
 30
0.0
 40
1.142470816175143
  1
隅
 41
0.8599997127757353
  7
MS Gothic
100
AcDbText
  0
TEXT
  5
27E
330
1F
100
AcDbEntity
  8
layer0
  6
Continuous
 62
    18
420
        0
100
AcDbText
 10
75.16636256604721
 20
9.463881430844463
 30
0.0
 40
1.142470816175143
  1
柱
 41
0.8979994829963236
  7
MS Gothic
100
AcDbText
  0
TEXT
  5
27F
330
1F
100
AcDbEntity
  8
layer0
  6
Continuous
 62
    18
420
        0
100
AcDbText
 10
76.91613730308745
 20
9.463881430844463
 30
0.0
 40
1.142470816175143
  1
・
 41
0.2519962086397059
  7
MS Gothic
100
AcDbText
  0
TEXT
  5
280
330
1F
100
AcDbEntity
  8
layer0
  6
Continuous
 62
    18
420
        0
100
AcDbText
 10
78.6659120401277
 20
9.463881430844463
 30
0.0
 40
1.142470816175143
  1
床
 41
0.8750000000000001
  7
MS Gothic
100
AcDbText
  0
TEXT
  5
281
330
1F
100
AcDbEntity
  8
layer0
  6
Continuous
 62
    18
420
        0
100
AcDbText
 10
80.41569216012957
 20
9.463881430844463
 30
0.0
 40
1.142470816175143
  1
見
 41
0.882001091452206
  7
MS Gothic
100
AcDbText
  0
TEXT
  5
282
330
1F
100
AcDbEntity
  8
layer0
  6
Continuous
 62
    18
420
        0
100
AcDbText
 10
82.16546689716981
 20
9.463881430844463
 30
0.0
 40
1.142470816175143
  1
切
 41
0.8509988223805146
  7
MS Gothic
100
AcDbText
  0
TEXT
  5
283
330
1F
100
AcDbEntity
  8
layer0
  6
Continuous
 62
    18
420
        0
100
AcDbText
 10
83.91525240013328
 20
9.463881430844463
 30
0.0
 40
1.142470816175143
  1
り
 41
0.6587488511029412
  7
MS Gothic
100
AcDbText
  0
TEXT
  5
284
330
1F
100
AcDbEntity
  8
layer0
  6
Continuous
 62
    18
420
        0
100
AcDbText
 10
85.66502713717354
 20
9.463881430844463
 30
0.0
 40
1.142470816175143
  1
材
 41
0.9030007755055148
  7
MS Gothic
100
AcDbText
  0
TEXT
  5
285
330
1F
100
AcDbEntity
  8
layer0
  6
Continuous
 62
    18
420
        0
100
AcDbText
 10
187.1450986094472
 20
11.25599181525575
 30
0.0
 40
1.142470816175143
  1
2
 41
0.7959846047794118
  7
MS Gothic
100
AcDbText
  0
TEXT
  5
286
330
1F
100
AcDbEntity
  8
layer0
  6
Continuous
 62
    18
420
        0
100
AcDbText
 10
188.0199805950057
 20
11.25599181525575
 30
0.0
 40
1.142470816175143
  1
0
 41
0.8599781709558825
  7
MS Gothic
100
AcDbText
  0
TEXT
  5
287
330
1F
100
AcDbEntity
  8
layer0
  6
Continuous
 62
    18
420
        0
100
AcDbText
 10
188.8948625805642
 20
11.25599181525575
 30
0.0
 40
1.142470816175143
  1
1
 41
0.6210075827205883
  7
MS Gothic
100
AcDbText
  0
TEXT
  5
288
330
1F
100
AcDbEntity
  8
layer0
  6
Continuous
 62
    18
420
        0
100
AcDbText
 10
189.7697660979692
 20
11.25599181525575
 30
0.0
 40
1.142470816175143
  1
9
 41
0.7800149356617647
  7
MS Gothic
100
AcDbText
  0
TEXT
  5
289
330
1F
100
AcDbEntity
  8
layer0
  6
Continuous
 62
    18
420
        0
100
AcDbText
 10
190.6446480835277
 20
11.25599181525575
 30
0.0
 40
1.142470816175143
  1
.
 41
0.2700051700367647
  7
MS Gothic
100
AcDbText
  0
TEXT
  5
28A
330
1F
100
AcDbEntity
  8
layer0
  6
Continuous
 62
    18
420
        0
100
AcDbText
 10
191.5195300690862
 20
11.25599181525575
 30
0.0
 40
1.142470816175143
  1
0
 41
0.8599781709558825
  7
MS Gothic
100
AcDbText
  0
TEXT
  5
28B
330
1F
100
AcDbEntity
  8
layer0
  6
Continuous
 62
    18
420
        0
100
AcDbText
 10
192.3944120546447
 20
11.25599181525575
 30
0.0
 40
1.142470816175143
  1
1
 41
0.6210075827205883
  7
MS Gothic
100
AcDbText
  0
TEXT
  5
28C
330
1F
100
AcDbEntity
  8
layer0
  6
Continuous
 62
    18
420
        0
100
AcDbText
 10
193.2692940402032
 20
11.25599181525575
 30
0.0
 40
1.142470816175143
  1
.
 41
0.2700051700367647
  7
MS Gothic
100
AcDbText
  0
TEXT
  5
28D
330
1F
100
AcDbEntity
  8
layer0
  6
Continuous
 62
    18
420
        0
100
AcDbText
 10
194.1441975576082
 20
11.25599181525575
 30
0.0
 40
1.142470816175143
  1
1
 41
0.6210075827205883
  7
MS Gothic
100
AcDbText
  0
TEXT
  5
28E
330
1F
100
AcDbEntity
  8
layer0
  6
Continuous
 62
    18
420
        0
100
AcDbText
 10
195.0190795431667
 20
11.25599181525575
 30
0.0
 40
1.142470816175143
  1
5
 41
0.7960133272058825
  7
MS Gothic
100
AcDbText
  0
TEXT
  5
28F
330
1F
100
AcDbEntity
  8
layer0
  6
Continuous
 62
    18
420
        0
100
AcDbText
 10
161.7097975286379
 20
7.798769914103881
 30
0.0
 40
1.142470816175143
  1
F
 41
0.8200109145220588
  7
MS Gothic
100
AcDbText
  0
TEXT
  5
290
330
1F
100
AcDbEntity
  8
layer0
  6
Continuous
 62
    18
420
        0
100
AcDbText
 10
162.5846902801196
 20
7.798769914103881
 30
0.0
 40
1.142470816175143
  1
Y
 41
0.9140050551470589
  7
MS Gothic
100
AcDbText
  0
TEXT
  5
291
330
1F
100
AcDbEntity
  8
layer0
  6
Continuous
 62
    18
420
        0
100
AcDbText
 10
163.4595722656781
 20
7.798769914103881
 30
0.0
 40
1.142470816175143
  1
Z
 41
0.8360093060661766
  7
MS Gothic
100
AcDbText
  0
TEXT
  5
292
330
1F
100
AcDbEntity
  8
layer0
  6
Continuous
 62
    18
420
        0
100
AcDbText
 10
164.3344650171599
 20
7.798769914103881
 30
0.0
 40
1.142470816175143
  1
D
 41
0.8280101102941176
  7
MS Gothic
100
AcDbText
  0
TEXT
  5
293
330
1F
100
AcDbEntity
  8
layer0
  6
Continuous
 62
    18
420
        0
100
AcDbText
 10
165.2093577686416
 20
7.798769914103881
 30
0.0
 40
1.142470816175143
  1
H
 41
0.8040125229779412
  7
MS Gothic
100
AcDbText
  0
TEXT
  5
294
330
1F
100
AcDbEntity
  8
layer0
  6
Continuous
 62
    18
420
        0
100
AcDbText
 10
166.0842505201233
 20
7.798769914103881
 30
0.0
 40
1.142470816175143
  1
_
 41
0.9920008042279412
  7
MS Gothic
100
AcDbText
  0
TEXT
  5
295
330
1F
100
AcDbEntity
  8
layer0
  6
Continuous
 62
    18
420
        0
100
AcDbText
 10
166.9591432716051
 20
7.798769914103881
 30
0.0
 40
1.142470816175143
  1
A
 41
0.9360064338235294
  7
MS Gothic
100
AcDbText
  0
TEXT
  5
296
330
1F
100
AcDbEntity
  8
layer0
  6
Continuous
 62
    18
420
        0
100
AcDbText
 10
167.8340252571636
 20
7.798769914103881
 30
0.0
 40
1.142470816175143
  1
0
 41
0.860006893382353
  7
MS Gothic
100
AcDbText
  0
TEXT
  5
297
330
1F
100
AcDbEntity
  8
layer0
  6
Continuous
 62
    18
420
        0
100
AcDbText
 10
168.7089180086453
 20
7.798769914103881
 30
0.0
 40
1.142470816175143
  1
3
 41
0.7959989659926472
  7
MS Gothic
100
AcDbText
  0
TEXT
  5
298
330
1F
100
AcDbEntity
  8
layer0
  6
Continuous
 62
    18
420
        0
100
AcDbText
 10
48.70211672665677
 20
37.87069601962764
 30
0.0
 40
1.142470816175143
  1
1
 50
90.00000250447816
 41
0.621002197265625
  7
MS Gothic
100
AcDbText
  0
TEXT
  5
299
330
1F
100
AcDbEntity
  8
layer0
  6
Continuous
 62
    18
420
        0
100
AcDbText
 10
48.70211672665677
 20
38.74558338814776
 30
0.0
 40
1.142470816175143
  1
5
 50
90.00000250447816
 41
0.7960025562959558
  7
MS Gothic
100
AcDbText
  0
TEXT
  5
29A
330
1F
100
AcDbEntity
  8
layer0
  6
Continuous
 62
    18
420
        0
100
AcDbText
 10
48.02966572814194
 20
42.52280996698325
 30
0.0
 40
1.147145349090626
  1
1
 50
315.0000190109573
 41
0.6210005537823694
  7
MS Gothic
100
AcDbText
  0
TEXT
  5
29B
330
1F
100
AcDbEntity
  8
layer0
  6
Continuous
 62
    18
420
        0
100
AcDbText
 10
43.81146973403298
 20
43.35876776515778
 30
0.0
 40
1.142470816175143
  1
1
 41
0.621002197265625
  7
MS Gothic
100
AcDbText
  0
TEXT
  5
29C
330
1F
100
AcDbEntity
  8
layer0
  6
Continuous
 62
    18
420
        0
100
AcDbText
 10
44.6863597940339
 20
43.35876776515778
 30
0.0
 40
1.142470816175143
  1
5
 41
0.7960025562959558
  7
MS Gothic
100
AcDbText
  0
TEXT
  5
29D
330
1F
100
AcDbEntity
  8
layer0
  6
Continuous
 62
    18
420
        0
100
AcDbText
 10
46.94060954486001
 20
50.51310594336849
 30
0.0
 40
1.142470816175143
  1
1
 41
0.6209968118106618
  7
MS Gothic
100
AcDbText
  0
TEXT
  5
29E
330
1F
100
AcDbEntity
  8
layer0
  6
Continuous
 62
    18
420
        0
100
AcDbText
 10
47.81549691338013
 20
50.51310594336849
 30
0.0
 40
1.142470816175143
  1
2
 41
0.7959989659926472
  7
MS Gothic
100
AcDbText
  0
TEXT
  5
29F
330
1F
100
AcDbEntity
  8
layer0
  6
Continuous
 62
    18
420
        0
100
AcDbText
 10
53.20355916563012
 20
56.40211197734343
 30
0.0
 40
1.142470816175143
  1
3
 50
90.00000250447816
 41
0.7959989659926472
  7
MS Gothic
100
AcDbText
  0
TEXT
  5
2A0
330
1F
100
AcDbEntity
  8
layer0
  6
Continuous
 62
    18
420
        0
100
AcDbText
 10
53.20355916563012
 20
57.27699934586355
 30
0.0
 40
1.142470816175143
  1
6
 50
90.00000250447816
 41
0.7800005744485294
  7
MS Gothic
100
AcDbText
  0
TEXT
  5
2A1
330
1F
100
AcDbEntity
  8
layer0
  6
Continuous
 62
    18
420
        0
100
AcDbText
 10
37.45203646908202
 20
59.40072304341992
 30
0.0
 40
1.142470816175143
  1
1
 50
90.00000250447816
 41
0.6209968118106618
  7
MS Gothic
100
AcDbText
  0
TEXT
  5
2A2
330
1F
100
AcDbEntity
  8
layer0
  6
Continuous
 62
    18
420
        0
100
AcDbText
 10
37.45203646908202
 20
60.27561041194004
 30
0.0
 40
1.142470816175143
  1
2
 50
90.00000250447816
 41
0.7959989659926472
  7
MS Gothic
100
AcDbText
  0
TEXT
  5
2A3
330
1F
100
AcDbEntity
  8
layer0
  6
Continuous
 62
    18
420
        0
100
AcDbText
 10
50.70236605066064
 20
60.84005161813041
 30
0.0
 40
1.142470816175143
  1
4
 50
90.00000250447816
 41
0.8680060891544119
  7
MS Gothic
100
AcDbText
  0
TEXT
  5
2A4
330
1F
100
AcDbEntity
  8
layer0
  6
Continuous
 62
    18
420
        0
100
AcDbText
 10
43.9384726389249
 20
64.26085616753494
 30
0.0
 40
1.142470816175143
  1
3
 41
0.7960025562959558
  7
MS Gothic
100
AcDbText
  0
TEXT
  5
2A5
330
1F
100
AcDbEntity
  8
layer0
  6
Continuous
 62
    18
420
        0
100
AcDbText
 10
44.81336000744503
 20
64.26085616753494
 30
0.0
 40
1.142470816175143
  1
6
 41
0.7800005744485294
  7
MS Gothic
100
AcDbText
  0
TEXT
  5
2A6
330
1F
100
AcDbEntity
  8
layer0
  6
Continuous
 62
    18
420
        0
100
AcDbText
 10
13.16566636127896
 20
38.54290179377412
 30
0.0
 40
1.524190497618039
  1
Ａ
 41
0.8026664531692093
  7
MS Gothic
100
AcDbText
  0
TEXT
  5
2A7
330
1F
100
AcDbEntity
  8
layer0
  6
Continuous
 62
    18
420
        0
100
AcDbText
 10
15.41638892650604
 20
38.54290179377412
 30
0.0
 40
1.524190497618039
  1
　
 41
0.0
  7
MS Gothic
100
AcDbText
  0
TEXT
  5
2A8
330
1F
100
AcDbEntity
  8
layer0
  6
Continuous
 62
    18
420
        0
100
AcDbText
 10
17.66711149173312
 20
38.54290179377412
 30
0.0
 40
1.524190497618039
  1
型
 41
0.859999603056198
  7
MS Gothic
100
AcDbText
  0
TEXT
  5
2A9
330
1F
100
AcDbEntity
  8
layer0
  6
Continuous
 62
    18
420
        0
100
AcDbText
 10
13.16566636127896
 20
41.96131657889437
 30
0.0
 40
1.524190497618039
  1
隅
 41
0.859999603056198
  7
MS Gothic
100
AcDbText
  0
TEXT
  5
2AA
330
1F
100
AcDbEntity
  8
layer0
  6
Continuous
 62
    18
420
        0
100
AcDbText
 10
15.41638892650604
 20
41.96131657889437
 30
0.0
 40
1.524190497618039
  1
　
 41
0.0
  7
MS Gothic
100
AcDbText
  0
TEXT
  5
2AB
330
1F
100
AcDbEntity
  8
layer0
  6
Continuous
 62
    18
420
        0
100
AcDbText
 10
17.66711149173312
 20
41.96131657889437
 30
0.0
 40
1.524190497618039
  1
柱
 41
0.8979999078283035
  7
MS Gothic
100
AcDbText
  0
TEXT
  5
2AC
330
1F
100
AcDbEntity
  8
layer0
  6
Continuous
 62
    18
420
        0
100
AcDbText
 10
100.5416651566823
 20
47.10879720916351
 30
0.0
 40
1.142470816175143
  1
4
 41
0.8680060891544119
  7
MS Gothic
100
AcDbText
  0
TEXT
  5
2AD
330
1F
100
AcDbEntity
  8
layer0
  6
Continuous
 62
    18
420
        0
100
AcDbText
 10
70.04049657959412
 20
47.10879720916351
 30
0.0
 40
1.142470816175143
  1
2
 41
0.7959989659926472
  7
MS Gothic
100
AcDbText
  0
TEXT
  5
2AE
330
1F
100
AcDbEntity
  8
layer0
  6
Continuous
 62
    18
420
        0
100
AcDbText
 10
70.79192034048498
 20
47.10879720916351
 30
0.0
 40
1.142470816175143
  1
,
 41
0.2700051700367647
  7
MS Gothic
100
AcDbText
  0
TEXT
  5
2AF
330
1F
100
AcDbEntity
  8
layer0
  6
Continuous
 62
    18
420
        0
100
AcDbText
 10
71.54333333545259
 20
47.10879720916351
 30
0.0
 40
1.142470816175143
  1
7
 41
0.7420008042279412
  7
MS Gothic
100
AcDbText
  0
TEXT
  5
2B0
330
1F
100
AcDbEntity
  8
layer0
  6
Continuous
 62
    18
420
        0
100
AcDbText
 10
72.2912204905616
 20
47.10879720916351
 30
0.0
 40
1.142470816175143
  1
0
 41
0.8599997127757353
  7
MS Gothic
100
AcDbText
  0
TEXT
  5
2B1
330
1F
100
AcDbEntity
  8
layer0
  6
Continuous
 62
    18
420
        0
100
AcDbText
 10
73.04263886849084
 20
47.10879720916351
 30
0.0
 40
1.142470816175143
  1
0
 41
0.8599997127757353
  7
MS Gothic
100
AcDbText
  0
TEXT
  5
2B2
330
1F
100
AcDbEntity
  8
layer0
  6
Continuous
 62
    18
420
        0
100
AcDbText
 10
73.79053140656146
 20
47.10879720916351
 30
0.0
 40
1.142470816175143
  1
×
 41
0.6499974867876839
  7
MS Gothic
100
AcDbText
  0
TEXT
  5
2B3
330
1F
100
AcDbEntity
  8
layer0
  6
Continuous
 62
    18
420
        0
100
AcDbText
 10
75.2933573964967
 20
47.10879720916351
 30
0.0
 40
1.142470816175143
  1
1
 41
0.6209968118106618
  7
MS Gothic
100
AcDbText
  0
TEXT
  5
2B4
330
1F
100
AcDbEntity
  8
layer0
  6
Continuous
 62
    18
420
        0
100
AcDbText
 10
76.04124993456733
 20
47.10879720916351
 30
0.0
 40
1.142470816175143
  1
5
 41
0.7959989659926472
  7
MS Gothic
100
AcDbText
  0
TEXT
  5
2B5
330
1F
100
AcDbEntity
  8
layer0
  6
Continuous
 62
    18
420
        0
100
AcDbText
 10
76.79266831249657
 20
47.10879720916351
 30
0.0
 40
1.142470816175143
  1
×
 41
0.6499974867876839
  7
MS Gothic
100
AcDbText
  0
TEXT
  5
2B6
330
1F
100
AcDbEntity
  8
layer0
  6
Continuous
 62
    18
420
        0
100
AcDbText
 10
78.2919684625732
 20
47.10879720916351
 30
0.0
 40
1.142470816175143
  1
1
 41
0.6209968118106618
  7
MS Gothic
100
AcDbText
  0
TEXT
  5
2B7
330
1F
100
AcDbEntity
  8
layer0
  6
Continuous
 62
    18
420
        0
100
AcDbText
 10
79.04338684050244
 20
47.10879720916351
 30
0.0
 40
1.142470816175143
  1
5
 41
0.7959989659926472
  7
MS Gothic
100
AcDbText
  0
TEXT
  5
2B8
330
1F
100
AcDbEntity
  8
layer0
  6
Continuous
 62
    18
420
        0
100
AcDbText
 10
13.16566636127896
 20
56.4005082226623
 30
0.0
 40
1.524190497618039
  1
Ａ
 41
0.8026664531692093
  7
MS Gothic
100
AcDbText
  0
TEXT
  5
2B9
330
1F
100
AcDbEntity
  8
layer0
  6
Continuous
 62
    18
420
        0
100
AcDbText
 10
15.41638892650604
 20
56.4005082226623
 30
0.0
 40
1.524190497618039
  1
　
 41
0.0
  7
MS Gothic
100
AcDbText
  0
TEXT
  5
2BA
330
1F
100
AcDbEntity
  8
layer0
  6
Continuous
 62
    18
420
        0
100
AcDbText
 10
17.66711149173312
 20
56.4005082226623
 30
0.0
 40
1.524190497618039
  1
型
 41
0.859999603056198
  7
MS Gothic
100
AcDbText
  0
TEXT
  5
2BB
330
1F
100
AcDbEntity
  8
layer0
  6
Continuous
 62
    18
420
        0
100
AcDbText
 10
13.16566636127896
 20
59.81892569926335
 30
0.0
 40
1.524190497618039
  1
出
 41
0.7889998126290697
  7
MS Gothic
100
AcDbText
  0
TEXT
  5
2BC
330
1F
100
AcDbEntity
  8
layer0
  6
Continuous
 62
    18
420
        0
100
AcDbText
 10
15.41638892650604
 20
59.81892569926335
 30
0.0
 40
1.524190497618039
  1
隅
 41
0.859999603056198
  7
MS Gothic
100
AcDbText
  0
TEXT
  5
2BD
330
1F
100
AcDbEntity
  8
layer0
  6
Continuous
 62
    18
420
        0
100
AcDbText
 10
17.66711149173312
 20
59.81892569926335
 30
0.0
 40
1.524190497618039
  1
材
 41
0.9030000541592814
  7
MS Gothic
100
AcDbText
  0
TEXT
  5
2BE
330
1F
100
AcDbEntity
  8
layer0
  6
Continuous
 62
    18
420
        0
100
AcDbText
 10
100.5416651566823
 20
61.98896645149253
 30
0.0
 40
1.142470816175143
  1
4
 41
0.8680060891544119
  7
MS Gothic
100
AcDbText
  0
TEXT
  5
2BF
330
1F
100
AcDbEntity
  8
layer0
  6
Continuous
 62
    18
420
        0
100
AcDbText
 10
100.5416651566823
 20
64.96641171249411
 30
0.0
 40
1.142470816175143
  1
4
 41
0.8680060891544119
  7
MS Gothic
100
AcDbText
  0
TEXT
  5
2C0
330
1F
100
AcDbEntity
  8
layer0
  6
Continuous
 62
    18
420
        0
100
AcDbText
 10
70.04049657959412
 20
64.96641171249411
 30
0.0
 40
1.142470816175143
  1
2
 41
0.7959989659926472
  7
MS Gothic
100
AcDbText
  0
TEXT
  5
2C1
330
1F
100
AcDbEntity
  8
layer0
  6
Continuous
 62
    18
420
        0
100
AcDbText
 10
70.79192034048498
 20
64.96641171249411
 30
0.0
 40
1.142470816175143
  1
,
 41
0.2700051700367647
  7
MS Gothic
100
AcDbText
  0
TEXT
  5
2C2
330
1F
100
AcDbEntity
  8
layer0
  6
Continuous
 62
    18
420
        0
100
AcDbText
 10
71.54333333545259
 20
64.96641171249411
 30
0.0
 40
1.142470816175143
  1
4
 41
0.8680060891544119
  7
MS Gothic
100
AcDbText
  0
TEXT
  5
2C3
330
1F
100
AcDbEntity
  8
layer0
  6
Continuous
 62
    18
420
        0
100
AcDbText
 10
72.2912204905616
 20
64.96641171249411
 30
0.0
 40
1.142470816175143
  1
5
 41
0.7959989659926472
  7
MS Gothic
100
AcDbText
  0
TEXT
  5
2C4
330
1F
100
AcDbEntity
  8
layer0
  6
Continuous
 62
    18
420
        0
100
AcDbText
 10
73.04263886849084
 20
64.96641171249411
 30
0.0
 40
1.142470816175143
  1
0
 41
0.8599997127757353
  7
MS Gothic
100
AcDbText
  0
TEXT
  5
2C5
330
1F
100
AcDbEntity
  8
layer0
  6
Continuous
 62
    18
420
        0
100
AcDbText
 10
73.79053140656146
 20
64.96641171249411
 30
0.0
 40
1.142470816175143
  1
×
 41
0.6499974867876839
  7
MS Gothic
100
AcDbText
  0
TEXT
  5
2C6
330
1F
100
AcDbEntity
  8
layer0
  6
Continuous
 62
    18
420
        0
100
AcDbText
 10
75.2933573964967
 20
64.96641171249411
 30
0.0
 40
1.142470816175143
  1
3
 41
0.7959989659926472
  7
MS Gothic
100
AcDbText
  0
TEXT
  5
2C7
330
1F
100
AcDbEntity
  8
layer0
  6
Continuous
 62
    18
420
        0
100
AcDbText
 10
76.04124993456733
 20
64.96641171249411
 30
0.0
 40
1.142470816175143
  1
6
 41
0.7800005744485294
  7
MS Gothic
100
AcDbText
  0
TEXT
  5
2C8
330
1F
100
AcDbEntity
  8
layer0
  6
Continuous
 62
    18
420
        0
100
AcDbText
 10
76.79266831249657
 20
64.96641171249411
 30
0.0
 40
1.142470816175143
  1
×
 41
0.6499974867876839
  7
MS Gothic
100
AcDbText
  0
TEXT
  5
2C9
330
1F
100
AcDbEntity
  8
layer0
  6
Continuous
 62
    18
420
        0
100
AcDbText
 10
78.2919684625732
 20
64.96641171249411
 30
0.0
 40
1.142470816175143
  1
3
 41
0.7959989659926472
  7
MS Gothic
100
AcDbText
  0
TEXT
  5
2CA
330
1F
100
AcDbEntity
  8
layer0
  6
Continuous
 62
    18
420
        0
100
AcDbText
 10
79.04338684050244
 20
64.96641171249411
 30
0.0
 40
1.142470816175143
  1
6
 41
0.7800005744485294
  7
MS Gothic
100
AcDbText
  0
LINE
  5
2CB
330
1F
100
AcDbEntity
  8
layer0
  6
Continuous
 62
    18
420
        0
370
     5
100
AcDbLine
 10
46.25269396511713
 20
52.71205411794452
 30
0.0
 11
46.25269396511713
 21
58.71280208995611
 31
0.0
  0
LINE
  5
2CC
330
1F
100
AcDbEntity
  8
layer0
  6
Continuous
 62
    18
420
        0
370
     9
100
AcDbLine
 10
49.25130503119362
 20
64.2126116539637
 30
0.0
 11
49.25483625401385
 21
64.2126116539637
 31
0.0
  0
LINE
  5
2CD
330
1F
100
AcDbEntity
  8
layer0
  6
Continuous
 62
    18
420
        0
370
     0
100
AcDbLine
 10
49.25130503119362
 20
64.2126116539637
 30
0.0
 11
49.25130503119362
 21
62.96377532492746
 31
0.0
  0
LINE
  5
2CE
330
1F
100
AcDbEntity
  8
layer0
  6
Continuous
 62
    18
420
        0
370
     0
100
AcDbLine
 10
46.25269396511713
 20
50.21438684283365
 30
0.0
 11
49.25130503119362
 21
50.21438684283365
 31
0.0
  0
LINE
  5
2CF
330
1F
100
AcDbEntity
  8
layer0
  6
Continuous
 62
    18
420
        0
370
     9
100
AcDbLine
 10
46.25269396511713
 20
50.21438684283365
 30
0.0
 11
46.25622518793736
 21
50.21438684283365
 31
0.0
  0
LINE
  5
2D0
330
1F
100
AcDbEntity
  8
layer0
  6
Continuous
 62
    18
420
        0
370
     9
100
AcDbLine
 10
49.25130503119362
 20
50.21438684283365
 30
0.0
 11
49.25483625401385
 21
50.21438684283365
 31
0.0
  0
LINE
  5
2D1
330
1F
100
AcDbEntity
  8
layer0
  6
Continuous
 62
    18
420
        0
370
     0
100
AcDbLine
 10
46.25269396511713
 20
50.21438684283365
 30
0.0
 11
46.25269396511713
 21
51.46322317186988
 31
0.0
  0
LINE
  5
2D2
330
1F
100
AcDbEntity
  8
layer0
  6
Continuous
 62
    18
420
        0
370
     0
100
AcDbLine
 10
49.25130503119362
 20
50.21438684283365
 30
0.0
 11
49.25130503119362
 21
51.46322317186988
 31
0.0
  0
LINE
  5
2D3
330
1F
100
AcDbEntity
  8
layer0
  6
Continuous
 62
    18
420
        0
370
     0
100
AcDbLine
 10
51.00108515119549
 20
61.71493899589121
 30
0.0
 11
51.00108515119549
 21
60.71305679692159
 31
0.0
  0
LINE
  5
2D4
330
1F
100
AcDbEntity
  8
layer0
  6
Continuous
 62
    18
420
        0
370
     9
100
AcDbLine
 10
51.00108515119549
 20
61.71493899589121
 30
0.0
 11
51.0046109910541
 21
61.71493899589121
 31
0.0
  0
LINE
  5
2D5
330
1F
100
AcDbEntity
  8
layer0
  6
Continuous
 62
    18
420
        0
370
     9
100
AcDbLine
 10
51.00108515119549
 20
60.71305679692159
 30
0.0
 11
51.0046109910541
 21
60.71305679692159
 31
0.0
  0
LINE
  5
2D6
330
1F
100
AcDbEntity
  8
layer0
  6
Continuous
 62
    18
420
        0
370
     0
100
AcDbLine
 10
53.50227826616497
 20
61.71493899589121
 30
0.0
 11
49.75224882215925
 21
61.71493899589121
 31
0.0
  0
LINE
  5
2D7
330
1F
100
AcDbEntity
  8
layer0
  6
Continuous
 62
    18
420
        0
370
     0
100
AcDbLine
 10
51.00108515119549
 20
60.71305679692159
 30
0.0
 11
49.75224882215925
 21
60.71305679692159
 31
0.0
  0
LINE
  5
2D8
330
1F
100
AcDbEntity
  8
layer0
  6
Continuous
 62
    18
420
        0
370
     0
100
AcDbLine
 10
53.50227826616497
 20
61.71493899589121
 30
0.0
 11
53.50227826616497
 21
52.71205411794452
 31
0.0
  0
LINE
  5
2D9
330
1F
100
AcDbEntity
  8
layer0
  6
Continuous
 62
    18
420
        0
370
     9
100
AcDbLine
 10
53.50227826616497
 20
61.71493899589121
 30
0.0
 11
53.5058094889852
 21
61.71493899589121
 31
0.0
  0
LINE
  5
2DA
330
1F
100
AcDbEntity
  8
layer0
  6
Continuous
 62
    18
420
        0
370
     9
100
AcDbLine
 10
53.50227826616497
 20
52.71205411794452
 30
0.0
 11
53.5058094889852
 21
52.71205411794452
 31
0.0
  0
LINE
  5
2DB
330
1F
100
AcDbEntity
  8
layer0
  6
Continuous
 62
    18
420
        0
370
     5
100
AcDbLine
 10
46.25269396511713
 20
52.71205411794452
 30
0.0
 11
49.25130503119362
 21
52.71205411794452
 31
0.0
  0
LINE
  5
2DC
330
1F
100
AcDbEntity
  8
layer0
  6
Continuous
 62
    18
420
        0
370
     5
100
AcDbLine
 10
46.25269396511713
 20
52.83905433135563
 30
0.0
 11
49.12783065764113
 21
52.83905433135563
 31
0.0
  0
LINE
  5
2DD
330
1F
100
AcDbEntity
  8
layer0
  6
Continuous
 62
    18
420
        0
370
     0
100
AcDbLine
 10
53.50227826616497
 20
52.71205411794452
 30
0.0
 11
49.75224882215925
 21
52.71205411794452
 31
0.0
  0
LINE
  5
2DE
330
1F
100
AcDbEntity
  8
layer0
  6
Continuous
 62
    18
420
        0
370
     5
100
AcDbLine
 10
49.25130503119362
 20
52.71205411794452
 30
0.0
 11
49.25130503119362
 21
60.71305679692159
 31
0.0
  0
LINE
  5
2DF
330
1F
100
AcDbEntity
  8
layer0
  6
Continuous
 62
    18
420
        0
370
     5
100
AcDbLine
 10
49.12783065764113
 20
52.83905433135563
 30
0.0
 11
49.12783065764113
 21
60.66013690127269
 31
0.0
  0
LINE
  5
2E0
330
1F
100
AcDbEntity
  8
layer0
  6
Continuous
 62
    18
420
        0
370
     5
100
AcDbLine
 10
49.25130503119362
 20
60.71305679692159
 30
0.0
 11
48.252943289121
 21
61.71493899589121
 31
0.0
  0
LINE
  5
2E1
330
1F
100
AcDbEntity
  8
layer0
  6
Continuous
 62
    18
420
        0
370
     5
100
AcDbLine
 10
49.12783065764113
 20
60.66013690127269
 30
0.0
 11
48.20002877643371
 21
61.58794416544171
 31
0.0
  0
LINE
  5
2E2
330
1F
100
AcDbEntity
  8
layer0
  6
Continuous
 62
    18
420
        0
370
     5
100
AcDbLine
 10
40.25194330162473
 20
58.71280208995611
 30
0.0
 11
46.25269396511713
 21
58.71280208995611
 31
0.0
  0
LINE
  5
2E3
330
1F
100
AcDbEntity
  8
layer0
  6
Continuous
 62
    18
420
        0
370
     0
100
AcDbLine
 10
40.25194330162473
 20
64.2126116539637
 30
0.0
 11
49.25130503119362
 21
64.2126116539637
 31
0.0
  0
LINE
  5
2E4
330
1F
100
AcDbEntity
  8
layer0
  6
Continuous
 62
    18
420
        0
370
     9
100
AcDbLine
 10
40.25194330162473
 20
64.2126116539637
 30
0.0
 11
40.25547183296415
 21
64.2126116539637
 31
0.0
  0
LINE
  5
2E5
330
1F
100
AcDbEntity
  8
layer0
  6
Continuous
 62
    18
420
        0
370
     0
100
AcDbLine
 10
40.25194330162473
 20
64.2126116539637
 30
0.0
 11
40.25194330162473
 21
62.96377532492746
 31
0.0
  0
LINE
  5
2E6
330
1F
100
AcDbEntity
  8
layer0
  6
Continuous
 62
    18
420
        0
370
     0
100
AcDbLine
 10
37.75075018665525
 20
61.71493899589121
 30
0.0
 11
37.75075018665525
 21
58.71280208995611
 31
0.0
  0
LINE
  5
2E7
330
1F
100
AcDbEntity
  8
layer0
  6
Continuous
 62
    18
420
        0
370
     9
100
AcDbLine
 10
37.75075018665525
 20
61.71493899589121
 30
0.0
 11
37.75427602651386
 21
61.71493899589121
 31
0.0
  0
LINE
  5
2E8
330
1F
100
AcDbEntity
  8
layer0
  6
Continuous
 62
    18
420
        0
370
     9
100
AcDbLine
 10
37.75075018665525
 20
58.71280208995611
 30
0.0
 11
37.75427602651386
 21
58.71280208995611
 31
0.0
  0
LINE
  5
2E9
330
1F
100
AcDbEntity
  8
layer0
  6
Continuous
 62
    18
420
        0
370
     0
100
AcDbLine
 10
37.75075018665525
 20
61.71493899589121
 30
0.0
 11
39.0031096640693
 21
61.71493899589121
 31
0.0
  0
LINE
  5
2EA
330
1F
100
AcDbEntity
  8
layer0
  6
Continuous
 62
    18
420
        0
370
     0
100
AcDbLine
 10
37.75075018665525
 20
58.71280208995611
 30
0.0
 11
39.0031096640693
 21
58.71280208995611
 31
0.0
  0
LINE
  5
2EB
330
1F
100
AcDbEntity
  8
layer0
  6
Continuous
 62
    18
420
        0
370
     5
100
AcDbLine
 10
40.25194330162473
 20
58.71280208995611
 30
0.0
 11
40.25194330162473
 21
61.71493899589121
 31
0.0
  0
LINE
  5
2EC
330
1F
100
AcDbEntity
  8
layer0
  6
Continuous
 62
    18
420
        0
370
     5
100
AcDbLine
 10
40.37541767517723
 20
58.71280208995611
 30
0.0
 11
40.37541767517723
 21
61.58794416544171
 31
0.0
  0
LINE
  5
2ED
330
1F
100
AcDbEntity
  8
layer0
  6
Continuous
 62
    18
420
        0
370
     5
100
AcDbLine
 10
48.252943289121
 20
61.71493899589121
 30
0.0
 11
40.25194330162473
 21
61.71493899589121
 31
0.0
  0
LINE
  5
2EE
330
1F
100
AcDbEntity
  8
layer0
  6
Continuous
 62
    18
420
        0
370
     5
100
AcDbLine
 10
48.20002877643371
 20
61.58794416544171
 30
0.0
 11
40.37541767517723
 21
61.58794416544171
 31
0.0
  0
LINE
  5
2EF
330
1F
100
AcDbEntity
  8
layer0
  6
Continuous
 62
    18
420
        0
370
     5
100
AcDbLine
 10
42.74961057673561
 20
36.80883418009014
 30
0.0
 11
46.49963732926052
 21
36.80883418009014
 31
0.0
  0
LINE
  5
2F0
330
1F
100
AcDbEntity
  8
layer0
  6
Continuous
 62
    18
420
        0
370
     5
100
AcDbLine
 10
42.74961057673561
 20
40.55886093261506
 30
0.0
 11
42.74961057673561
 21
36.80883418009014
 31
0.0
  0
LINE
  5
2F1
330
1F
100
AcDbEntity
  8
layer0
  6
Continuous
 62
    18
420
        0
370
     0
100
AcDbLine
 10
42.74961057673561
 20
43.06005404758454
 30
0.0
 11
46.49963732926052
 21
43.06005404758454
 31
0.0
  0
LINE
  5
2F2
330
1F
100
AcDbEntity
  8
layer0
  6
Continuous
 62
    18
420
        0
370
     9
100
AcDbLine
 10
42.74961057673561
 20
43.06005404758454
 30
0.0
 11
42.75313641659422
 21
43.06005404758454
 31
0.0
  0
LINE
  5
2F3
330
1F
100
AcDbEntity
  8
layer0
  6
Continuous
 62
    18
420
        0
370
     9
100
AcDbLine
 10
46.49963732926052
 20
43.06005404758454
 30
0.0
 11
46.50316855208075
 21
43.06005404758454
 31
0.0
  0
LINE
  5
2F4
330
1F
100
AcDbEntity
  8
layer0
  6
Continuous
 62
    18
420
        0
370
     0
100
AcDbLine
 10
42.74961057673561
 20
43.06005404758454
 30
0.0
 11
42.74961057673561
 21
41.8076945701705
 31
0.0
  0
LINE
  5
2F5
330
1F
100
AcDbEntity
  8
layer0
  6
Continuous
 62
    18
420
        0
370
     0
100
AcDbLine
 10
46.49963732926052
 20
43.06005404758454
 30
0.0
 11
46.49963732926052
 21
41.8076945701705
 31
0.0
  0
LINE
  5
2F6
330
1F
100
AcDbEntity
  8
layer0
  6
Continuous
 62
    18
420
        0
370
     0
100
AcDbLine
 10
48.99730460437139
 20
40.55886093261506
 30
0.0
 11
48.99730460437139
 21
36.80883418009014
 31
0.0
  0
LINE
  5
2F7
330
1F
100
AcDbEntity
  8
layer0
  6
Continuous
 62
    18
420
        0
370
     9
100
AcDbLine
 10
48.99730460437139
 20
40.55886093261506
 30
0.0
 11
49.00083044423
 21
40.55886093261506
 31
0.0
  0
LINE
  5
2F8
330
1F
100
AcDbEntity
  8
layer0
  6
Continuous
 62
    18
420
        0
370
     9
100
AcDbLine
 10
48.99730460437139
 20
36.80883418009014
 30
0.0
 11
49.00083044423
 21
36.80883418009014
 31
0.0
  0
LINE
  5
2F9
330
1F
100
AcDbEntity
  8
layer0
  6
Continuous
 62
    18
420
        0
370
     0
100
AcDbLine
 10
48.99730460437139
 20
40.55886093261506
 30
0.0
 11
47.74847365829676
 21
40.55886093261506
 31
0.0
  0
LINE
  5
2FA
330
1F
100
AcDbEntity
  8
layer0
  6
Continuous
 62
    18
420
        0
370
     0
100
AcDbLine
 10
48.99730460437139
 20
36.80883418009014
 30
0.0
 11
47.74847365829676
 21
36.80883418009014
 31
0.0
  0
LINE
  5
2FB
330
1F
100
AcDbEntity
  8
layer0
  6
Continuous
 62
    18
420
        0
370
     5
100
AcDbLine
 10
46.3726371158494
 20
40.18491735506056
 30
0.0
 11
46.3726371158494
 21
36.80883418009014
 31
0.0
  0
LINE
  5
2FC
330
1F
100
AcDbEntity
  8
layer0
  6
Continuous
 62
    18
420
        0
370
     5
100
AcDbLine
 10
46.12216252888579
 20
40.43538655906256
 30
0.0
 11
42.74961057673561
 21
40.43538655906256
 31
0.0
  0
LINE
  5
2FD
330
1F
100
AcDbEntity
  8
layer0
  6
Continuous
 62
    18
420
        0
370
     5
100
AcDbLine
 10
46.3726371158494
 20
40.18491735506056
 30
0.0
 11
46.12216252888579
 21
40.43538655906256
 31
0.0
  0
LINE
  5
2FE
330
1F
100
AcDbEntity
  8
layer0
  6
Continuous
 62
    18
420
        0
370
     5
100
AcDbLine
 10
46.49963732926052
 20
40.30838634565144
 30
0.0
 11
46.49963732926052
 21
36.80883418009014
 31
0.0
  0
LINE
  5
2FF
330
1F
100
AcDbEntity
  8
layer0
  6
Continuous
 62
    18
420
        0
370
     5
100
AcDbLine
 10
46.24916812525852
 20
40.55886093261506
 30
0.0
 11
42.74961057673561
 21
40.55886093261506
 31
0.0
  0
LINE
  5
300
330
1F
100
AcDbEntity
  8
layer0
  6
Continuous
 62
    18
420
        0
370
     5
100
AcDbLine
 10
46.49963732926052
 20
40.30838634565144
 30
0.0
 11
46.24916812525852
 21
40.55886093261506
 31
0.0
  0
LINE
  5
301
330
1F
100
AcDbEntity
  8
layer0
  6
Continuous
 62
    18
420
        0
370
     0
100
AcDbLine
 10
48.0589144376649
 20
42.36860993650225
 30
0.0
 11
47.3110272825559
 21
41.62072278139324
 31
0.0
  0
LINE
  5
302
330
1F
100
AcDbEntity
  8
layer0
  6
Continuous
 62
    18
420
        0
370
     0
100
AcDbLine
 10
48.3093836416669
 20
42.11813804101944
 30
0.0
 11
47.55797064669928
 21
41.37024819442963
 31
0.0
  0
LINE
  5
303
330
1F
100
AcDbEntity
  8
layer0
  6
Continuous
 62
    18
420
        0
370
     9
100
AcDbLine
 10
48.0589144376649
 20
42.36860993650225
 30
0.0
 11
48.06244027752352
 21
42.36860993650225
 31
0.0
  0
LINE
  5
304
330
1F
100
AcDbEntity
  8
layer0
  6
Continuous
 62
    18
420
        0
370
     9
100
AcDbLine
 10
48.3093836416669
 20
42.11813804101944
 30
0.0
 11
48.31291486448713
 21
42.11813804101944
 31
0.0
  0
LINE
  5
305
330
1F
100
AcDbEntity
  8
layer0
  6
Continuous
 62
    18
420
        0
370
     0
100
AcDbLine
 10
48.3093836416669
 20
42.11813804101944
 30
0.0
 11
48.0589144376649
 21
42.36860993650225
 31
0.0
  0
TEXT
  5
306
330
1F
100
AcDbEntity
  8
layer0
  6
Continuous
 62
    18
420
        0
100
AcDbText
 10
83.41782906606467
 20
64.96641171249411
 30
0.0
 40
1.142470816175143
  1
Ｇ
 41
0.8149988511029412
  7
MS Gothic
100
AcDbText
  0
TEXT
  5
307
330
1F
100
AcDbEntity
  8
layer0
  6
Continuous
 62
    18
420
        0
100
AcDbText
 10
84.91713459910292
 20
64.96641171249411
 30
0.0
 40
1.142470816175143
  1
Ｕ
 41
0.5860021254595589
  7
MS Gothic
100
AcDbText
  0
TEXT
  5
308
330
1F
100
AcDbEntity
  8
layer0
  6
Continuous
 62
    18
420
        0
100
AcDbText
 10
86.41644013214116
 20
64.96641171249411
 30
0.0
 40
1.142470816175143
  1
Ｆ
 41
0.532000373391544
  7
MS Gothic
100
AcDbText
  0
TEXT
  5
309
330
1F
100
AcDbEntity
  8
layer0
  6
Continuous
 62
    18
420
        0
100
AcDbText
 10
87.9157456651794
 20
64.96641171249411
 30
0.0
 40
1.142470816175143
  1
Ａ
 41
0.8600033030790442
  7
MS Gothic
100
AcDbText
  0
TEXT
  5
30A
330
1F
100
AcDbEntity
  8
layer0
  6
Continuous
 62
    18
420
        0
100
AcDbText
 10
89.41505119821764
 20
64.96641171249411
 30
0.0
 40
1.142470816175143
  1
1
 41
0.6209968118106618
  7
MS Gothic
100
AcDbText
  0
TEXT
  5
30B
330
1F
100
AcDbEntity
  8
layer0
  6
Continuous
 62
    18
420
        0
100
AcDbText
 10
90.16646957614688
 20
64.96641171249411
 30
0.0
 40
1.142470816175143
  1
5
 41
0.7959917853860294
  7
MS Gothic
100
AcDbText
  0
TEXT
  5
30C
330
1F
100
AcDbEntity
  8
layer0
  6
Continuous
 62
    18
420
        0
100
AcDbText
 10
90.91788795407612
 20
64.96641171249411
 30
0.0
 40
1.142470816175143
  1
-
 41
0.8920036764705882
  7
MS Gothic
100
AcDbText
  0
TEXT
  5
30D
330
1F
100
AcDbEntity
  8
layer0
  6
Continuous
 62
    18
420
        0
100
AcDbText
 10
91.66577510918513
 20
64.96641171249411
 30
0.0
 40
1.142470816175143
  1
□
 41
0.7460004021139707
  7
MS Gothic
100
AcDbText
  0
TEXT
  5
30E
330
1F
100
AcDbEntity
  8
layer0
  6
Continuous
 62
    18
420
        0
100
AcDbText
 10
83.41782906606467
 20
47.10879720916351
 30
0.0
 40
1.142470816175143
  1
Ｇ
 41
0.8149988511029412
  7
MS Gothic
100
AcDbText
  0
TEXT
  5
30F
330
1F
100
AcDbEntity
  8
layer0
  6
Continuous
 62
    18
420
        0
100
AcDbText
 10
84.91713459910292
 20
47.10879720916351
 30
0.0
 40
1.142470816175143
  1
Ｄ
 41
0.7612475226907169
  7
MS Gothic
100
AcDbText
  0
TEXT
  5
310
330
1F
100
AcDbEntity
  8
layer0
  6
Continuous
 62
    18
420
        0
100
AcDbText
 10
86.41644013214116
 20
47.10879720916351
 30
0.0
 40
1.142470816175143
  1
Ｆ
 41
0.532000373391544
  7
MS Gothic
100
AcDbText
  0
TEXT
  5
311
330
1F
100
AcDbEntity
  8
layer0
  6
Continuous
 62
    18
420
        0
100
AcDbText
 10
87.9157456651794
 20
47.10879720916351
 30
0.0
 40
1.142470816175143
  1
Ａ
 41
0.8600033030790442
  7
MS Gothic
100
AcDbText
  0
TEXT
  5
312
330
1F
100
AcDbEntity
  8
layer0
  6
Continuous
 62
    18
420
        0
100
AcDbText
 10
89.41505119821764
 20
47.10879720916351
 30
0.0
 40
1.142470816175143
  1
1
 41
0.6209968118106618
  7
MS Gothic
100
AcDbText
  0
TEXT
  5
313
330
1F
100
AcDbEntity
  8
layer0
  6
Continuous
 62
    18
420
        0
100
AcDbText
 10
90.16646957614688
 20
47.10879720916351
 30
0.0
 40
1.142470816175143
  1
6
 41
0.7799933938419118
  7
MS Gothic
100
AcDbText
  0
TEXT
  5
314
330
1F
100
AcDbEntity
  8
layer0
  6
Continuous
 62
    18
420
        0
100
AcDbText
 10
90.91788795407612
 20
47.10879720916351
 30
0.0
 40
1.142470816175143
  1
-
 41
0.8920036764705882
  7
MS Gothic
100
AcDbText
  0
TEXT
  5
315
330
1F
100
AcDbEntity
  8
layer0
  6
Continuous
 62
    18
420
        0
100
AcDbText
 10
91.66577510918513
 20
47.10879720916351
 30
0.0
 40
1.142470816175143
  1
□
 41
0.7460004021139707
  7
MS Gothic
100
AcDbText
  0
TEXT
  5
316
330
1F
100
AcDbEntity
  8
layer0
  6
Continuous
 62
    18
420
        0
100
AcDbText
 10
70.04049657959412
 20
61.98896645149253
 30
0.0
 40
1.142470816175143
  1
3
 41
0.7959989659926472
  7
MS Gothic
100
AcDbText
  0
TEXT
  5
317
330
1F
100
AcDbEntity
  8
layer0
  6
Continuous
 62
    18
420
        0
100
AcDbText
 10
70.79192034048498
 20
61.98896645149253
 30
0.0
 40
1.142470816175143
  1
,
 41
0.2700051700367647
  7
MS Gothic
100
AcDbText
  0
TEXT
  5
318
330
1F
100
AcDbEntity
  8
layer0
  6
Continuous
 62
    18
420
        0
100
AcDbText
 10
71.54333333545259
 20
61.98896645149253
 30
0.0
 40
1.142470816175143
  1
9
 41
0.7800005744485294
  7
MS Gothic
100
AcDbText
  0
TEXT
  5
319
330
1F
100
AcDbEntity
  8
layer0
  6
Continuous
 62
    18
420
        0
100
AcDbText
 10
72.2912204905616
 20
61.98896645149253
 30
0.0
 40
1.142470816175143
  1
0
 41
0.8599997127757353
  7
MS Gothic
100
AcDbText
  0
TEXT
  5
31A
330
1F
100
AcDbEntity
  8
layer0
  6
Continuous
 62
    18
420
        0
100
AcDbText
 10
73.04263886849084
 20
61.98896645149253
 30
0.0
 40
1.142470816175143
  1
0
 41
0.8599997127757353
  7
MS Gothic
100
AcDbText
  0
TEXT
  5
31B
330
1F
100
AcDbEntity
  8
layer0
  6
Continuous
 62
    18
420
        0
100
AcDbText
 10
73.79053140656146
 20
61.98896645149253
 30
0.0
 40
1.142470816175143
  1
×
 41
0.6499974867876839
  7
MS Gothic
100
AcDbText
  0
TEXT
  5
31C
330
1F
100
AcDbEntity
  8
layer0
  6
Continuous
 62
    18
420
        0
100
AcDbText
 10
75.2933573964967
 20
61.98896645149253
 30
0.0
 40
1.142470816175143
  1
3
 41
0.7959989659926472
  7
MS Gothic
100
AcDbText
  0
TEXT
  5
31D
330
1F
100
AcDbEntity
  8
layer0
  6
Continuous
 62
    18
420
        0
100
AcDbText
 10
76.04124993456733
 20
61.98896645149253
 30
0.0
 40
1.142470816175143
  1
6
 41
0.7800005744485294
  7
MS Gothic
100
AcDbText
  0
TEXT
  5
31E
330
1F
100
AcDbEntity
  8
layer0
  6
Continuous
 62
    18
420
        0
100
AcDbText
 10
76.79266831249657
 20
61.98896645149253
 30
0.0
 40
1.142470816175143
  1
×
 41
0.6499974867876839
  7
MS Gothic
100
AcDbText
  0
TEXT
  5
31F
330
1F
100
AcDbEntity
  8
layer0
  6
Continuous
 62
    18
420
        0
100
AcDbText
 10
78.2919684625732
 20
61.98896645149253
 30
0.0
 40
1.142470816175143
  1
3
 41
0.7959989659926472
  7
MS Gothic
100
AcDbText
  0
TEXT
  5
320
330
1F
100
AcDbEntity
  8
layer0
  6
Continuous
 62
    18
420
        0
100
AcDbText
 10
79.04338684050244
 20
61.98896645149253
 30
0.0
 40
1.142470816175143
  1
6
 41
0.7800005744485294
  7
MS Gothic
100
AcDbText
  0
TEXT
  5
321
330
1F
100
AcDbEntity
  8
layer0
  6
Continuous
 62
    18
420
        0
100
AcDbText
 10
83.41782906606467
 20
61.98896645149253
 30
0.0
 40
1.142470816175143
  1
Ｇ
 41
0.8149988511029412
  7
MS Gothic
100
AcDbText
  0
TEXT
  5
322
330
1F
100
AcDbEntity
  8
layer0
  6
Continuous
 62
    18
420
        0
100
AcDbText
 10
84.91713459910292
 20
61.98896645149253
 30
0.0
 40
1.142470816175143
  1
Ｕ
 41
0.5860021254595589
  7
MS Gothic
100
AcDbText
  0
TEXT
  5
323
330
1F
100
AcDbEntity
  8
layer0
  6
Continuous
 62
    18
420
        0
100
AcDbText
 10
86.41644013214116
 20
61.98896645149253
 30
0.0
 40
1.142470816175143
  1
Ｆ
 41
0.532000373391544
  7
MS Gothic
100
AcDbText
  0
TEXT
  5
324
330
1F
100
AcDbEntity
  8
layer0
  6
Continuous
 62
    18
420
        0
100
AcDbText
 10
87.9157456651794
 20
61.98896645149253
 30
0.0
 40
1.142470816175143
  1
Ａ
 41
0.8600033030790442
  7
MS Gothic
100
AcDbText
  0
TEXT
  5
325
330
1F
100
AcDbEntity
  8
layer0
  6
Continuous
 62
    18
420
        0
100
AcDbText
 10
89.41505119821764
 20
61.98896645149253
 30
0.0
 40
1.142470816175143
  1
1
 41
0.6209968118106618
  7
MS Gothic
100
AcDbText
  0
TEXT
  5
326
330
1F
100
AcDbEntity
  8
layer0
  6
Continuous
 62
    18
420
        0
100
AcDbText
 10
90.16646957614688
 20
61.98896645149253
 30
0.0
 40
1.142470816175143
  1
9
 41
0.7799933938419118
  7
MS Gothic
100
AcDbText
  0
TEXT
  5
327
330
1F
100
AcDbEntity
  8
layer0
  6
Continuous
 62
    18
420
        0
100
AcDbText
 10
90.91788795407612
 20
61.98896645149253
 30
0.0
 40
1.142470816175143
  1
-
 41
0.8920036764705882
  7
MS Gothic
100
AcDbText
  0
TEXT
  5
328
330
1F
100
AcDbEntity
  8
layer0
  6
Continuous
 62
    18
420
        0
100
AcDbText
 10
91.66577510918513
 20
61.98896645149253
 30
0.0
 40
1.142470816175143
  1
□
 41
0.7460004021139707
  7
MS Gothic
100
AcDbText
  0
TEXT
  5
329
330
1F
100
AcDbEntity
  8
layer0
  6
Continuous
 62
    18
420
        0
100
AcDbText
 10
142.5610312350061
 20
106.3296109186873
 30
0.0
 40
1.142470816175143
  1
5
 41
0.7959989659926472
  7
MS Gothic
100
AcDbText
  0
TEXT
  5
32A
330
1F
100
AcDbEntity
  8
layer0
  6
Continuous
 62
    18
420
        0
100
AcDbText
 10
143.308918390115
 20
106.3296109186873
 30
0.0
 40
1.142470816175143
  1
0
 41
0.860006893382353
  7
MS Gothic
100
AcDbText
  0
TEXT
  5
32B
330
1F
100
AcDbEntity
  8
layer0
  6
Continuous
 62
    18
420
        0
100
AcDbText
 10
134.2613094554941
 20
108.5285590840226
 30
0.0
 40
1.142470816175143
  1
3
 50
90.00000250447816
 41
0.7959989659926472
  7
MS Gothic
100
AcDbText
  0
TEXT
  5
32C
330
1F
100
AcDbEntity
  8
layer0
  6
Continuous
 62
    18
420
        0
100
AcDbText
 10
151.7626095805633
 20
109.4034410695812
 30
0.0
 40
1.142470816175143
  1
1
 50
90.00000250447816
 41
0.6210075827205883
  7
MS Gothic
100
AcDbText
  0
TEXT
  5
32D
330
1F
100
AcDbEntity
  8
layer0
  6
Continuous
 62
    18
420
        0
100
AcDbText
 10
151.7626095805633
 20
110.1548594475104
 30
0.0
 40
1.142470816175143
  1
3
 50
90.00000250447816
 41
0.7959989659926472
  7
MS Gothic
100
AcDbText
  0
TEXT
  5
32E
330
1F
100
AcDbEntity
  8
layer0
  6
Continuous
 62
    18
420
        0
100
AcDbText
 10
131.4132514714664
 20
111.4977923664054
 30
0.0
 40
1.142470816175143
  1
C
 41
0.860006893382353
  7
MS Gothic
100
AcDbText
  0
TEXT
  5
32F
330
1F
100
AcDbEntity
  8
layer0
  6
Continuous
 62
    18
420
        0
100
AcDbText
 10
132.1611386265755
 20
111.4977923664054
 30
0.0
 40
1.142470816175143
  1
=
 41
0.8920036764705882
  7
MS Gothic
100
AcDbText
  0
TEXT
  5
330
330
1F
100
AcDbEntity
  8
layer0
  6
Continuous
 62
    18
420
        0
100
AcDbText
 10
132.9125570045047
 20
111.4977923664054
 30
0.0
 40
1.142470816175143
  1
2
 41
0.7959989659926472
  7
MS Gothic
100
AcDbText
  0
TEXT
  5
331
330
1F
100
AcDbEntity
  8
layer0
  6
Continuous
 62
    18
420
        0
100
AcDbText
 10
153.0208900358411
 20
112.5243769762318
 30
0.0
 40
1.142470816175143
  1
C
 41
0.860006893382353
  7
MS Gothic
100
AcDbText
  0
TEXT
  5
332
330
1F
100
AcDbEntity
  8
layer0
  6
Continuous
 62
    18
420
        0
100
AcDbText
 10
153.7722976478472
 20
112.5243769762318
 30
0.0
 40
1.142470816175143
  1
=
 41
0.8920036764705882
  7
MS Gothic
100
AcDbText
  0
TEXT
  5
333
330
1F
100
AcDbEntity
  8
layer0
  6
Continuous
 62
    18
420
        0
100
AcDbText
 10
154.5201955688794
 20
112.5243769762318
 30
0.0
 40
1.142470816175143
  1
1
 41
0.6210075827205883
  7
MS Gothic
100
AcDbText
  0
TEXT
  5
334
330
1F
100
AcDbEntity
  8
layer0
  6
Continuous
 62
    18
420
        0
100
AcDbText
 10
146.9354734605683
 20
114.5775461958846
 30
0.0
 40
1.142470816175143
  1
1
 41
0.6210075827205883
  7
MS Gothic
100
AcDbText
  0
TEXT
  5
335
330
1F
100
AcDbEntity
  8
layer0
  6
Continuous
 62
    18
420
        0
100
AcDbText
 10
147.6833606156773
 20
114.5775461958846
 30
0.0
 40
1.142470816175143
  1
5
 41
0.7959989659926472
  7
MS Gothic
100
AcDbText
  0
TEXT
  5
336
330
1F
100
AcDbEntity
  8
layer0
  6
Continuous
 62
    18
420
        0
100
AcDbText
 10
140.6842509015931
 20
114.5775461958846
 30
0.0
 40
1.142470816175143
  1
3
 41
0.7959989659926472
  7
MS Gothic
100
AcDbText
  0
TEXT
  5
337
330
1F
100
AcDbEntity
  8
layer0
  6
Continuous
 62
    18
420
        0
100
AcDbText
 10
141.4356585135991
 20
114.5775461958846
 30
0.0
 40
1.142470816175143
  1
5
 41
0.7959989659926472
  7
MS Gothic
100
AcDbText
  0
TEXT
  5
338
330
1F
100
AcDbEntity
  8
layer0
  6
Continuous
 62
    18
420
        0
100
AcDbText
 10
197.9577028849922
 20
118.5357132337424
 30
0.0
 40
1.142470816175143
  1
1
 41
0.6210075827205883
  7
MS Gothic
100
AcDbText
  0
TEXT
  5
339
330
1F
100
AcDbEntity
  8
layer0
  6
Continuous
 62
    18
420
        0
100
AcDbText
 10
167.4565504567888
 20
118.5357132337424
 30
0.0
 40
1.142470816175143
  1
1
 41
0.6210075827205883
  7
MS Gothic
100
AcDbText
  0
TEXT
  5
33A
330
1F
100
AcDbEntity
  8
layer0
  6
Continuous
 62
    18
420
        0
100
AcDbText
 10
168.2079688347181
 20
118.5357132337424
 30
0.0
 40
1.142470816175143
  1
,
 41
0.2699836282169118
  7
MS Gothic
100
AcDbText
  0
TEXT
  5
33B
330
1F
100
AcDbEntity
  8
layer0
  6
Continuous
 62
    18
420
        0
100
AcDbText
 10
168.9593872126473
 20
118.5357132337424
 30
0.0
 40
1.142470816175143
  1
9
 41
0.7800005744485294
  7
MS Gothic
100
AcDbText
  0
TEXT
  5
33C
330
1F
100
AcDbEntity
  8
layer0
  6
Continuous
 62
    18
420
        0
100
AcDbText
 10
169.7072743677563
 20
118.5357132337424
 30
0.0
 40
1.142470816175143
  1
0
 41
0.860006893382353
  7
MS Gothic
100
AcDbText
  0
TEXT
  5
33D
330
1F
100
AcDbEntity
  8
layer0
  6
Continuous
 62
    18
420
        0
100
AcDbText
 10
170.4586927456856
 20
118.5357132337424
 30
0.0
 40
1.142470816175143
  1
0
 41
0.860006893382353
  7
MS Gothic
100
AcDbText
  0
TEXT
  5
33E
330
1F
100
AcDbEntity
  8
layer0
  6
Continuous
 62
    18
420
        0
100
AcDbText
 10
171.2065799007946
 20
118.5357132337424
 30
0.0
 40
1.142470816175143
  1
×
 41
0.6499974867876839
  7
MS Gothic
100
AcDbText
  0
TEXT
  5
33F
330
1F
100
AcDbEntity
  8
layer0
  6
Continuous
 62
    18
420
        0
100
AcDbText
 10
172.709416656653
 20
118.5357132337424
 30
0.0
 40
1.142470816175143
  1
5
 41
0.7959989659926472
  7
MS Gothic
100
AcDbText
  0
TEXT
  5
340
330
1F
100
AcDbEntity
  8
layer0
  6
Continuous
 62
    18
420
        0
100
AcDbText
 10
173.4573038117621
 20
118.5357132337424
 30
0.0
 40
1.142470816175143
  1
0
 41
0.860006893382353
  7
MS Gothic
100
AcDbText
  0
TEXT
  5
341
330
1F
100
AcDbEntity
  8
layer0
  6
Continuous
 62
    18
420
        0
100
AcDbText
 10
174.2087114237681
 20
118.5357132337424
 30
0.0
 40
1.142470816175143
  1
×
 41
0.6499974867876839
  7
MS Gothic
100
AcDbText
  0
TEXT
  5
342
330
1F
100
AcDbEntity
  8
layer0
  6
Continuous
 62
    18
420
        0
100
AcDbText
 10
175.7080277227295
 20
118.5357132337424
 30
0.0
 40
1.142470816175143
  1
1
 41
0.6210075827205883
  7
MS Gothic
100
AcDbText
  0
TEXT
  5
343
330
1F
100
AcDbEntity
  8
layer0
  6
Continuous
 62
    18
420
        0
100
AcDbText
 10
176.4594461006588
 20
118.5357132337424
 30
0.0
 40
1.142470816175143
  1
3
 41
0.7959989659926472
  7
MS Gothic
100
AcDbText
  0
TEXT
  5
344
330
1F
100
AcDbEntity
  8
layer0
  6
Continuous
 62
    18
420
        0
100
AcDbText
 10
167.4565504567888
 20
133.4158770931099
 30
0.0
 40
1.142470816175143
  1
1
 41
0.6210075827205883
  7
MS Gothic
100
AcDbText
  0
TEXT
  5
345
330
1F
100
AcDbEntity
  8
layer0
  6
Continuous
 62
    18
420
        0
100
AcDbText
 10
168.2079688347181
 20
133.4158770931099
 30
0.0
 40
1.142470816175143
  1
,
 41
0.2699836282169118
  7
MS Gothic
100
AcDbText
  0
TEXT
  5
346
330
1F
100
AcDbEntity
  8
layer0
  6
Continuous
 62
    18
420
        0
100
AcDbText
 10
168.9593872126473
 20
133.4158770931099
 30
0.0
 40
1.142470816175143
  1
9
 41
0.7800005744485294
  7
MS Gothic
100
AcDbText
  0
TEXT
  5
347
330
1F
100
AcDbEntity
  8
layer0
  6
Continuous
 62
    18
420
        0
100
AcDbText
 10
169.7072743677563
 20
133.4158770931099
 30
0.0
 40
1.142470816175143
  1
0
 41
0.860006893382353
  7
MS Gothic
100
AcDbText
  0
TEXT
  5
348
330
1F
100
AcDbEntity
  8
layer0
  6
Continuous
 62
    18
420
        0
100
AcDbText
 10
170.4586927456856
 20
133.4158770931099
 30
0.0
 40
1.142470816175143
  1
0
 41
0.860006893382353
  7
MS Gothic
100
AcDbText
  0
TEXT
  5
349
330
1F
100
AcDbEntity
  8
layer0
  6
Continuous
 62
    18
420
        0
100
AcDbText
 10
171.2065799007946
 20
133.4158770931099
 30
0.0
 40
1.142470816175143
  1
×
 41
0.6499974867876839
  7
MS Gothic
100
AcDbText
  0
TEXT
  5
34A
330
1F
100
AcDbEntity
  8
layer0
  6
Continuous
 62
    18
420
        0
100
AcDbText
 10
172.709416656653
 20
133.4158770931099
 30
0.0
 40
1.142470816175143
  1
3
 41
0.7959989659926472
  7
MS Gothic
100
AcDbText
  0
TEXT
  5
34B
330
1F
100
AcDbEntity
  8
layer0
  6
Continuous
 62
    18
420
        0
100
AcDbText
 10
173.4573038117621
 20
133.4158770931099
 30
0.0
 40
1.142470816175143
  1
0
 41
0.860006893382353
  7
MS Gothic
100
AcDbText
  0
TEXT
  5
34C
330
1F
100
AcDbEntity
  8
layer0
  6
Continuous
 62
    18
420
        0
100
AcDbText
 10
174.2087114237681
 20
133.4158770931099
 30
0.0
 40
1.142470816175143
  1
×
 41
0.6499974867876839
  7
MS Gothic
100
AcDbText
  0
TEXT
  5
34D
330
1F
100
AcDbEntity
  8
layer0
  6
Continuous
 62
    18
420
        0
100
AcDbText
 10
175.7080277227295
 20
133.4158770931099
 30
0.0
 40
1.142470816175143
  1
1
 41
0.6210075827205883
  7
MS Gothic
100
AcDbText
  0
TEXT
  5
34E
330
1F
100
AcDbEntity
  8
layer0
  6
Continuous
 62
    18
420
        0
100
AcDbText
 10
176.4594461006588
 20
133.4158770931099
 30
0.0
 40
1.142470816175143
  1
5
 41
0.7959989659926472
  7
MS Gothic
100
AcDbText
  0
LINE
  5
34F
330
1F
100
AcDbEntity
  8
layer0
  6
Continuous
 62
    18
420
        0
370
     5
100
AcDbLine
 10
137.0612162880368
 20
108.5285590932633
 30
0.0
 11
149.560130183167
 21
108.5285590932633
 31
0.0
  0
LINE
  5
350
330
1F
100
AcDbEntity
  8
layer0
  6
Continuous
 62
    18
420
        0
370
     5
100
AcDbLine
 10
149.3837412969272
 20
111.7811598202388
 30
0.0
 11
145.8101007391613
 21
111.7811598202388
 31
0.0
  0
LINE
  5
351
330
1F
100
AcDbEntity
  8
layer0
  6
Continuous
 62
    18
420
        0
370
     5
100
AcDbLine
 10
149.560130183167
 20
111.604770933999
 30
0.0
 11
149.560130183167
 21
108.5285590932633
 31
0.0
  0
LINE
  5
352
330
1F
100
AcDbEntity
  8
layer0
  6
Continuous
 62
    18
420
        0
370
     5
100
AcDbLine
 10
149.3837412969272
 20
111.7811598202388
 30
0.0
 11
149.560130183167
 21
111.604770933999
 31
0.0
  0
LINE
  5
353
330
1F
100
AcDbEntity
  8
layer0
  6
Continuous
 62
    18
420
        0
370
     5
100
AcDbLine
 10
145.8277460873392
 20
111.6541649897893
 30
0.0
 11
149.3308267842399
 21
111.6541649897893
 31
0.0
  0
LINE
  5
354
330
1F
100
AcDbEntity
  8
layer0
  6
Continuous
 62
    18
420
        0
370
     5
100
AcDbLine
 10
149.3308267842399
 20
111.6541649897893
 30
0.0
 11
149.4331353527175
 21
111.551867187235
 31
0.0
  0
LINE
  5
355
330
1F
100
AcDbEntity
  8
layer0
  6
Continuous
 62
    18
420
        0
370
     5
100
AcDbLine
 10
149.4331353527175
 20
108.5285590932633
 30
0.0
 11
149.4331353527175
 21
111.551867187235
 31
0.0
  0
LINE
  5
356
330
1F
100
AcDbEntity
  8
layer0
  6
Continuous
 62
    18
420
        0
370
     5
100
AcDbLine
 10
137.1846906615893
 20
108.5285590932633
 30
0.0
 11
137.1846906615893
 21
108.9236684758928
 31
0.0
  0
LINE
  5
357
330
1F
100
AcDbEntity
  8
layer0
  6
Continuous
 62
    18
420
        0
370
     5
100
AcDbLine
 10
137.0612162880368
 20
108.5285590932633
 30
0.0
 11
137.0612162880368
 21
108.9659893201194
 31
0.0
  0
LINE
  5
358
330
1F
100
AcDbEntity
  8
layer0
  6
Continuous
 62
    18
420
        0
370
     5
100
AcDbLine
 10
145.8101007391613
 20
111.7811598202388
 30
0.0
 11
137.3610795478291
 21
109.3646406914922
 31
0.0
  0
LINE
  5
359
330
1F
100
AcDbEntity
  8
layer0
  6
Continuous
 62
    18
420
        0
370
     5
100
AcDbLine
 10
137.0612162880368
 20
108.9659893201194
 30
0.0
 11
137.3610795478291
 21
109.3646406914922
 31
0.0
  0
LINE
  5
35A
330
1F
100
AcDbEntity
  8
layer0
  6
Continuous
 62
    18
420
        0
370
     5
100
AcDbLine
 10
137.1846906615893
 20
108.9236684758928
 30
0.0
 11
137.4351598655913
 21
109.2588116661177
 31
0.0
  0
LINE
  5
35B
330
1F
100
AcDbEntity
  8
layer0
  6
Continuous
 62
    18
420
        0
370
     5
100
AcDbLine
 10
145.8453806695939
 20
111.6612166695065
 30
0.0
 11
137.4351598655913
 21
109.2588116661177
 31
0.0
  0
LINE
  5
35C
330
1F
100
AcDbEntity
  8
layer0
  6
Continuous
 62
    18
420
        0
370
     0
100
AcDbLine
 10
137.0612162880368
 20
114.2788324783113
 30
0.0
 11
145.8101007391613
 21
114.2788324783113
 31
0.0
  0
LINE
  5
35D
330
1F
100
AcDbEntity
  8
layer0
  6
Continuous
 62
    18
420
        0
370
     9
100
AcDbLine
 10
137.0612162880368
 20
114.2788324783113
 30
0.0
 11
137.064747510857
 21
114.2788324783113
 31
0.0
  0
LINE
  5
35E
330
1F
100
AcDbEntity
  8
layer0
  6
Continuous
 62
    18
420
        0
370
     9
100
AcDbLine
 10
145.8101007391613
 20
114.2788324783113
 30
0.0
 11
145.8136319619815
 21
114.2788324783113
 31
0.0
  0
LINE
  5
35F
330
1F
100
AcDbEntity
  8
layer0
  6
Continuous
 62
    18
420
        0
370
     0
100
AcDbLine
 10
137.0612162880368
 20
114.2788324783113
 30
0.0
 11
137.0612162880368
 21
113.0299961492751
 31
0.0
  0
LINE
  5
360
330
1F
100
AcDbEntity
  8
layer0
  6
Continuous
 62
    18
420
        0
370
     0
100
AcDbLine
 10
145.8101007391613
 20
114.2788324783113
 30
0.0
 11
145.8101007391613
 21
113.0299961492751
 31
0.0
  0
LINE
  5
361
330
1F
100
AcDbEntity
  8
layer0
  6
Continuous
 62
    18
420
        0
370
     0
100
AcDbLine
 10
145.8101007391613
 20
114.2788324783113
 30
0.0
 11
149.560130183167
 21
114.2788324783113
 31
0.0
  0
LINE
  5
362
330
1F
100
AcDbEntity
  8
layer0
  6
Continuous
 62
    18
420
        0
370
     9
100
AcDbLine
 10
149.560130183167
 20
114.2788324783113
 30
0.0
 11
149.5636614059873
 21
114.2788324783113
 31
0.0
  0
LINE
  5
363
330
1F
100
AcDbEntity
  8
layer0
  6
Continuous
 62
    18
420
        0
370
     0
100
AcDbLine
 10
149.560130183167
 20
114.2788324783113
 30
0.0
 11
149.560130183167
 21
113.0299961492751
 31
0.0
  0
LINE
  5
364
330
1F
100
AcDbEntity
  8
layer0
  6
Continuous
 62
    18
420
        0
370
     0
100
AcDbLine
 10
137.0612162880368
 20
106.0308864351909
 30
0.0
 11
149.560130183167
 21
106.0308864351909
 31
0.0
  0
LINE
  5
365
330
1F
100
AcDbEntity
  8
layer0
  6
Continuous
 62
    18
420
        0
370
     9
100
AcDbLine
 10
137.0612162880368
 20
106.0308864351909
 30
0.0
 11
137.064747510857
 21
106.0308864351909
 31
0.0
  0
LINE
  5
366
330
1F
100
AcDbEntity
  8
layer0
  6
Continuous
 62
    18
420
        0
370
     9
100
AcDbLine
 10
149.560130183167
 20
106.0308864351909
 30
0.0
 11
149.5636614059873
 21
106.0308864351909
 31
0.0
  0
LINE
  5
367
330
1F
100
AcDbEntity
  8
layer0
  6
Continuous
 62
    18
420
        0
370
     0
100
AcDbLine
 10
137.0612162880368
 20
106.0308864351909
 30
0.0
 11
137.0612162880368
 21
107.2797227642271
 31
0.0
  0
LINE
  5
368
330
1F
100
AcDbEntity
  8
layer0
  6
Continuous
 62
    18
420
        0
370
     0
100
AcDbLine
 10
149.560130183167
 20
106.0308864351909
 30
0.0
 11
149.560130183167
 21
107.2797227642271
 31
0.0
  0
LINE
  5
369
330
1F
100
AcDbEntity
  8
layer0
  6
Continuous
 62
    18
420
        0
370
     0
100
AcDbLine
 10
152.0613340640597
 20
111.7811598202388
 30
0.0
 11
152.0613340640597
 21
108.5285590932633
 31
0.0
  0
LINE
  5
36A
330
1F
100
AcDbEntity
  8
layer0
  6
Continuous
 62
    18
420
        0
370
     9
100
AcDbLine
 10
152.0613340640597
 20
111.7811598202388
 30
0.0
 11
152.0648545209567
 21
111.7811598202388
 31
0.0
  0
LINE
  5
36B
330
1F
100
AcDbEntity
  8
layer0
  6
Continuous
 62
    18
420
        0
370
     9
100
AcDbLine
 10
152.0613340640597
 20
108.5285590932633
 30
0.0
 11
152.0648545209567
 21
108.5285590932633
 31
0.0
  0
LINE
  5
36C
330
1F
100
AcDbEntity
  8
layer0
  6
Continuous
 62
    18
420
        0
370
     0
100
AcDbLine
 10
152.0613340640597
 20
111.7811598202388
 30
0.0
 11
150.8089665122033
 21
111.7811598202388
 31
0.0
  0
LINE
  5
36D
330
1F
100
AcDbEntity
  8
layer0
  6
Continuous
 62
    18
420
        0
370
     0
100
AcDbLine
 10
152.0613340640597
 20
108.5285590932633
 30
0.0
 11
150.8089665122033
 21
108.5285590932633
 31
0.0
  0
LINE
  5
36E
330
1F
100
AcDbEntity
  8
layer0
  6
Continuous
 62
    18
420
        0
370
     0
100
AcDbLine
 10
134.5600231730673
 20
108.5285590932633
 30
0.0
 11
134.5600231730673
 21
109.2799774711926
 31
0.0
  0
LINE
  5
36F
330
1F
100
AcDbEntity
  8
layer0
  6
Continuous
 62
    18
420
        0
370
     9
100
AcDbLine
 10
134.5600231730673
 20
108.5285590932633
 30
0.0
 11
134.5635543958876
 21
108.5285590932633
 31
0.0
  0
LINE
  5
370
330
1F
100
AcDbEntity
  8
layer0
  6
Continuous
 62
    18
420
        0
370
     9
100
AcDbLine
 10
134.5600231730673
 20
109.2799774711926
 30
0.0
 11
134.5635543958876
 21
109.2799774711926
 31
0.0
  0
LINE
  5
371
330
1F
100
AcDbEntity
  8
layer0
  6
Continuous
 62
    18
420
        0
370
     0
100
AcDbLine
 10
134.5600231730673
 20
108.5285590932633
 30
0.0
 11
135.8088595021036
 21
108.5285590932633
 31
0.0
  0
LINE
  5
372
330
1F
100
AcDbEntity
  8
layer0
  6
Continuous
 62
    18
420
        0
370
     0
100
AcDbLine
 10
134.5600231730673
 20
109.2799774711926
 30
0.0
 11
135.8088595021036
 21
109.2799774711926
 31
0.0
  0
LINE
  5
373
330
1F
100
AcDbEntity
  8
layer0
  6
Continuous
 62
    18
420
        0
370
     0
100
AcDbLine
 10
137.2093876894845
 20
109.1670752342543
 30
0.0
 11
135.459602186521
 21
112.2009662307634
 31
0.0
  0
LINE
  5
374
330
1F
100
AcDbEntity
  8
layer0
  6
Continuous
 62
    18
420
        0
370
     0
100
AcDbLine
 10
135.459602186521
 20
112.2009662307634
 30
0.0
 11
133.7874497559864
 21
112.2009662307634
 31
0.0
  0
LINE
  5
375
330
1F
100
AcDbEntity
  8
layer0
  6
Continuous
 62
    18
420
        0
370
     0
100
AcDbLine
 10
150.3574221599895
 20
113.2240196177696
 30
0.0
 11
152.8974156622887
 21
113.2240196177696
 31
0.0
  0
LINE
  5
376
330
1F
100
AcDbEntity
  8
layer0
  6
Continuous
 62
    18
420
        0
370
     0
100
AcDbLine
 10
149.4719465059704
 20
111.6929761430422
 30
0.0
 11
150.3574221599895
 21
113.2240196177696
 31
0.0
  0
TEXT
  5
377
330
1F
100
AcDbEntity
  8
layer0
  6
Continuous
 62
    18
420
        0
100
AcDbText
 10
180.8338775602978
 20
133.4158770931099
 30
0.0
 40
1.142470816175143
  1
Ｄ
 41
0.7612520105698529
  7
MS Gothic
100
AcDbText
  0
TEXT
  5
378
330
1F
100
AcDbEntity
  8
layer0
  6
Continuous
 62
    18
420
        0
100
AcDbText
 10
182.333183093336
 20
133.4158770931099
 30
0.0
 40
1.142470816175143
  1
Ｈ
 41
0.5860093060661765
  7
MS Gothic
100
AcDbText
  0
TEXT
  5
379
330
1F
100
AcDbEntity
  8
layer0
  6
Continuous
 62
    18
420
        0
100
AcDbText
 10
183.8324886263743
 20
133.4158770931099
 30
0.0
 40
1.142470816175143
  1
Ｄ
 41
0.7612520105698529
  7
MS Gothic
100
AcDbText
  0
TEXT
  5
37A
330
1F
100
AcDbEntity
  8
layer0
  6
Continuous
 62
    18
420
        0
100
AcDbText
 10
185.3317941594125
 20
133.4158770931099
 30
0.0
 40
1.142470816175143
  1
7
 41
0.7419864430147061
  7
MS Gothic
100
AcDbText
  0
TEXT
  5
37B
330
1F
100
AcDbEntity
  8
layer0
  6
Continuous
 62
    18
420
        0
100
AcDbText
 10
186.0832340691882
 20
133.4158770931099
 30
0.0
 40
1.142470816175143
  1
7
 41
0.7419864430147061
  7
MS Gothic
100
AcDbText
  0
TEXT
  5
37C
330
1F
100
AcDbEntity
  8
layer0
  6
Continuous
 62
    18
420
        0
100
AcDbText
 10
186.834630915271
 20
133.4158770931099
 30
0.0
 40
1.142470816175143
  1
0
 41
0.8599781709558825
  7
MS Gothic
100
AcDbText
  0
TEXT
  5
37D
330
1F
100
AcDbEntity
  8
layer0
  6
Continuous
 62
    18
420
        0
100
AcDbText
 10
187.5825396022265
 20
133.4158770931099
 30
0.0
 40
1.142470816175143
  1
3
 41
0.7960133272058825
  7
MS Gothic
100
AcDbText
  0
TEXT
  5
37E
330
1F
100
AcDbEntity
  8
layer0
  6
Continuous
 62
    18
420
        0
100
AcDbText
 10
188.3339364483092
 20
133.4158770931099
 30
0.0
 40
1.142470816175143
  1
-
 41
0.8919749540441178
  7
MS Gothic
100
AcDbText
  0
TEXT
  5
37F
330
1F
100
AcDbEntity
  8
layer0
  6
Continuous
 62
    18
420
        0
100
AcDbText
 10
189.0818451352647
 20
133.4158770931099
 30
0.0
 40
1.142470816175143
  1
7
 41
0.7419864430147061
  7
MS Gothic
100
AcDbText
  0
TEXT
  5
380
330
1F
100
AcDbEntity
  8
layer0
  6
Continuous
 62
    18
420
        0
100
AcDbText
 10
189.8332419813475
 20
133.4158770931099
 30
0.0
 40
1.142470816175143
  1
-
 41
0.8919749540441178
  7
MS Gothic
100
AcDbText
  0
TEXT
  5
381
330
1F
100
AcDbEntity
  8
layer0
  6
Continuous
 62
    18
420
        0
100
AcDbText
 10
190.5846603592767
 20
133.4158770931099
 30
0.0
 40
1.142470816175143
  1
□
 41
0.7459932215073531
  7
MS Gothic
100
AcDbText
  0
TEXT
  5
382
330
1F
100
AcDbEntity
  8
layer0
  6
Continuous
 62
    18
420
        0
100
AcDbText
 10
167.4565504567888
 20
130.4419630549285
 30
0.0
 40
1.142470816175143
  1
3
 41
0.7959989659926472
  7
MS Gothic
100
AcDbText
  0
TEXT
  5
383
330
1F
100
AcDbEntity
  8
layer0
  6
Continuous
 62
    18
420
        0
100
AcDbText
 10
168.2079688347181
 20
130.4419630549285
 30
0.0
 40
1.142470816175143
  1
,
 41
0.2699836282169118
  7
MS Gothic
100
AcDbText
  0
TEXT
  5
384
330
1F
100
AcDbEntity
  8
layer0
  6
Continuous
 62
    18
420
        0
100
AcDbText
 10
168.9593872126473
 20
130.4419630549285
 30
0.0
 40
1.142470816175143
  1
9
 41
0.7800005744485294
  7
MS Gothic
100
AcDbText
  0
TEXT
  5
385
330
1F
100
AcDbEntity
  8
layer0
  6
Continuous
 62
    18
420
        0
100
AcDbText
 10
169.7072743677563
 20
130.4419630549285
 30
0.0
 40
1.142470816175143
  1
0
 41
0.860006893382353
  7
MS Gothic
100
AcDbText
  0
TEXT
  5
386
330
1F
100
AcDbEntity
  8
layer0
  6
Continuous
 62
    18
420
        0
100
AcDbText
 10
170.4586927456856
 20
130.4419630549285
 30
0.0
 40
1.142470816175143
  1
0
 41
0.860006893382353
  7
MS Gothic
100
AcDbText
  0
TEXT
  5
387
330
1F
100
AcDbEntity
  8
layer0
  6
Continuous
 62
    18
420
        0
100
AcDbText
 10
171.2065799007946
 20
130.4419630549285
 30
0.0
 40
1.142470816175143
  1
×
 41
0.6499974867876839
  7
MS Gothic
100
AcDbText
  0
TEXT
  5
388
330
1F
100
AcDbEntity
  8
layer0
  6
Continuous
 62
    18
420
        0
100
AcDbText
 10
172.709416656653
 20
130.4419630549285
 30
0.0
 40
1.142470816175143
  1
3
 41
0.7959989659926472
  7
MS Gothic
100
AcDbText
  0
TEXT
  5
389
330
1F
100
AcDbEntity
  8
layer0
  6
Continuous
 62
    18
420
        0
100
AcDbText
 10
173.4573038117621
 20
130.4419630549285
 30
0.0
 40
1.142470816175143
  1
0
 41
0.860006893382353
  7
MS Gothic
100
AcDbText
  0
TEXT
  5
38A
330
1F
100
AcDbEntity
  8
layer0
  6
Continuous
 62
    18
420
        0
100
AcDbText
 10
174.2087114237681
 20
130.4419630549285
 30
0.0
 40
1.142470816175143
  1
×
 41
0.6499974867876839
  7
MS Gothic
100
AcDbText
  0
TEXT
  5
38B
330
1F
100
AcDbEntity
  8
layer0
  6
Continuous
 62
    18
420
        0
100
AcDbText
 10
175.7080277227295
 20
130.4419630549285
 30
0.0
 40
1.142470816175143
  1
1
 41
0.6210075827205883
  7
MS Gothic
100
AcDbText
  0
TEXT
  5
38C
330
1F
100
AcDbEntity
  8
layer0
  6
Continuous
 62
    18
420
        0
100
AcDbText
 10
176.4594461006588
 20
130.4419630549285
 30
0.0
 40
1.142470816175143
  1
5
 41
0.7959989659926472
  7
MS Gothic
100
AcDbText
  0
TEXT
  5
38D
330
1F
100
AcDbEntity
  8
layer0
  6
Continuous
 62
    18
420
        0
100
AcDbText
 10
180.8338775602978
 20
130.4419630549285
 30
0.0
 40
1.142470816175143
  1
Ｄ
 41
0.7612520105698529
  7
MS Gothic
100
AcDbText
  0
TEXT
  5
38E
330
1F
100
AcDbEntity
  8
layer0
  6
Continuous
 62
    18
420
        0
100
AcDbText
 10
182.333183093336
 20
130.4419630549285
 30
0.0
 40
1.142470816175143
  1
Ｈ
 41
0.5860093060661765
  7
MS Gothic
100
AcDbText
  0
TEXT
  5
38F
330
1F
100
AcDbEntity
  8
layer0
  6
Continuous
 62
    18
420
        0
100
AcDbText
 10
183.8324886263743
 20
130.4419630549285
 30
0.0
 40
1.142470816175143
  1
Ｄ
 41
0.7612520105698529
  7
MS Gothic
100
AcDbText
  0
TEXT
  5
390
330
1F
100
AcDbEntity
  8
layer0
  6
Continuous
 62
    18
420
        0
100
AcDbText
 10
185.3317941594125
 20
130.4419630549285
 30
0.0
 40
1.142470816175143
  1
7
 41
0.7419864430147061
  7
MS Gothic
100
AcDbText
  0
TEXT
  5
391
330
1F
100
AcDbEntity
  8
layer0
  6
Continuous
 62
    18
420
        0
100
AcDbText
 10
186.0832340691882
 20
130.4419630549285
 30
0.0
 40
1.142470816175143
  1
7
 41
0.7419864430147061
  7
MS Gothic
100
AcDbText
  0
TEXT
  5
392
330
1F
100
AcDbEntity
  8
layer0
  6
Continuous
 62
    18
420
        0
100
AcDbText
 10
186.834630915271
 20
130.4419630549285
 30
0.0
 40
1.142470816175143
  1
0
 41
0.8599781709558825
  7
MS Gothic
100
AcDbText
  0
TEXT
  5
393
330
1F
100
AcDbEntity
  8
layer0
  6
Continuous
 62
    18
420
        0
100
AcDbText
 10
187.5825396022265
 20
130.4419630549285
 30
0.0
 40
1.142470816175143
  1
6
 41
0.7799862132352943
  7
MS Gothic
100
AcDbText
  0
TEXT
  5
394
330
1F
100
AcDbEntity
  8
layer0
  6
Continuous
 62
    18
420
        0
100
AcDbText
 10
188.3339364483092
 20
130.4419630549285
 30
0.0
 40
1.142470816175143
  1
-
 41
0.8919749540441178
  7
MS Gothic
100
AcDbText
  0
TEXT
  5
395
330
1F
100
AcDbEntity
  8
layer0
  6
Continuous
 62
    18
420
        0
100
AcDbText
 10
189.0818451352647
 20
130.4419630549285
 30
0.0
 40
1.142470816175143
  1
7
 41
0.7419864430147061
  7
MS Gothic
100
AcDbText
  0
TEXT
  5
396
330
1F
100
AcDbEntity
  8
layer0
  6
Continuous
 62
    18
420
        0
100
AcDbText
 10
189.8332419813475
 20
130.4419630549285
 30
0.0
 40
1.142470816175143
  1
-
 41
0.8919749540441178
  7
MS Gothic
100
AcDbText
  0
TEXT
  5
397
330
1F
100
AcDbEntity
  8
layer0
  6
Continuous
 62
    18
420
        0
100
AcDbText
 10
190.5846603592767
 20
130.4419630549285
 30
0.0
 40
1.142470816175143
  1
□
 41
0.7459932215073531
  7
MS Gothic
100
AcDbText
  0
TEXT
  5
398
330
1F
100
AcDbEntity
  8
layer0
  6
Continuous
 62
    18
420
        0
100
AcDbText
 10
168.2079688347181
 20
136.3933223541114
 30
0.0
 40
1.142470816175143
  1
8
 41
0.81201171875
  7
MS Gothic
100
AcDbText
  0
TEXT
  5
399
330
1F
100
AcDbEntity
  8
layer0
  6
Continuous
 62
    18
420
        0
100
AcDbText
 10
168.9593872126473
 20
136.3933223541114
 30
0.0
 40
1.142470816175143
  1
0
 41
0.860006893382353
  7
MS Gothic
100
AcDbText
  0
TEXT
  5
39A
330
1F
100
AcDbEntity
  8
layer0
  6
Continuous
 62
    18
420
        0
100
AcDbText
 10
169.7072743677563
 20
136.3933223541114
 30
0.0
 40
1.142470816175143
  1
0
 41
0.860006893382353
  7
MS Gothic
100
AcDbText
  0
TEXT
  5
39B
330
1F
100
AcDbEntity
  8
layer0
  6
Continuous
 62
    18
420
        0
100
AcDbText
 10
170.4586927456856
 20
136.3933223541114
 30
0.0
 40
1.142470816175143
  1
×
 41
0.6499974867876839
  7
MS Gothic
100
AcDbText
  0
TEXT
  5
39C
330
1F
100
AcDbEntity
  8
layer0
  6
Continuous
 62
    18
420
        0
100
AcDbText
 10
171.9579982787238
 20
136.3933223541114
 30
0.0
 40
1.142470816175143
  1
3
 41
0.7959989659926472
  7
MS Gothic
100
AcDbText
  0
TEXT
  5
39D
330
1F
100
AcDbEntity
  8
layer0
  6
Continuous
 62
    18
420
        0
100
AcDbText
 10
172.709416656653
 20
136.3933223541114
 30
0.0
 40
1.142470816175143
  1
0
 41
0.860006893382353
  7
MS Gothic
100
AcDbText
  0
TEXT
  5
39E
330
1F
100
AcDbEntity
  8
layer0
  6
Continuous
 62
    18
420
        0
100
AcDbText
 10
173.4573038117621
 20
136.3933223541114
 30
0.0
 40
1.142470816175143
  1
×
 41
0.6499974867876839
  7
MS Gothic
100
AcDbText
  0
TEXT
  5
39F
330
1F
100
AcDbEntity
  8
layer0
  6
Continuous
 62
    18
420
        0
100
AcDbText
 10
174.9566093448003
 20
136.3933223541114
 30
0.0
 40
1.142470816175143
  1
1
 41
0.6210075827205883
  7
MS Gothic
100
AcDbText
  0
TEXT
  5
3A0
330
1F
100
AcDbEntity
  8
layer0
  6
Continuous
 62
    18
420
        0
100
AcDbText
 10
175.7080277227295
 20
136.3933223541114
 30
0.0
 40
1.142470816175143
  1
5
 41
0.7959989659926472
  7
MS Gothic
100
AcDbText
  0
TEXT
  5
3A1
330
1F
100
AcDbEntity
  8
layer0
  6
Continuous
 62
    18
420
        0
100
AcDbText
 10
197.9577028849922
 20
136.3933223541114
 30
0.0
 40
1.142470816175143
  1
1
 41
0.6210075827205883
  7
MS Gothic
100
AcDbText
  0
TEXT
  5
3A2
330
1F
100
AcDbEntity
  8
layer0
  6
Continuous
 62
    18
420
        0
100
AcDbText
 10
197.9577028849922
 20
133.4158770931099
 30
0.0
 40
1.142470816175143
  1
1
 41
0.6210075827205883
  7
MS Gothic
100
AcDbText
  0
TEXT
  5
3A3
330
1F
100
AcDbEntity
  8
layer0
  6
Continuous
 62
    18
420
        0
100
AcDbText
 10
197.9577028849922
 20
130.4419630549285
 30
0.0
 40
1.142470816175143
  1
1
 41
0.6210075827205883
  7
MS Gothic
100
AcDbText
  0
TEXT
  5
3A4
330
1F
100
AcDbEntity
  8
layer0
  6
Continuous
 62
    18
420
        0
100
AcDbText
 10
123.4016605069903
 20
136.0330386802119
 30
0.0
 40
1.524190497618039
  1
Ｄ
 41
0.7105007277863686
  7
MS Gothic
100
AcDbText
  0
TEXT
  5
3A5
330
1F
100
AcDbEntity
  8
layer0
  6
Continuous
 62
    18
420
        0
100
AcDbText
 10
125.3983839911355
 20
136.0330386802119
 30
0.0
 40
1.524190497618039
  1
型
 41
0.8600036397728269
  7
MS Gothic
100
AcDbText
  0
TEXT
  5
3A6
330
1F
100
AcDbEntity
  8
layer0
  6
Continuous
 62
    18
420
        0
100
AcDbText
 10
123.4016605069903
 20
118.1754295598429
 30
0.0
 40
1.524190497618039
  1
Ｃ
 41
0.7525031848012236
  7
MS Gothic
100
AcDbText
  0
TEXT
  5
3A7
330
1F
100
AcDbEntity
  8
layer0
  6
Continuous
 62
    18
420
        0
100
AcDbText
 10
125.3983839911355
 20
118.1754295598429
 30
0.0
 40
1.524190497618039
  1
型
 41
0.8600036397728269
  7
MS Gothic
100
AcDbText
  0
TEXT
  5
3A8
330
1F
100
AcDbEntity
  8
layer0
  6
Continuous
 62
    18
420
        0
100
AcDbText
 10
127.398638698101
 20
118.1754295598429
 30
0.0
 40
1.524190497618039
  1
（
 41
0.3569991452252537
  7
MS Gothic
100
AcDbText
  0
TEXT
  5
3A9
330
1F
100
AcDbEntity
  8
layer0
  6
Continuous
 62
    18
420
        0
100
AcDbText
 10
129.3988826391433
 20
118.1754295598429
 30
0.0
 40
1.524190497618039
  1
リ
 41
0.610163174177931
  7
MS Gothic
100
AcDbText
  0
TEXT
  5
3AA
330
1F
100
AcDbEntity
  8
layer0
  6
Continuous
 62
    18
420
        0
100
AcDbText
 10
131.3991373461087
 20
118.1754295598429
 30
0.0
 40
1.524190497618039
  1
フ
 41
0.8061726779544476
  7
MS Gothic
100
AcDbText
  0
TEXT
  5
3AB
330
1F
100
AcDbEntity
  8
layer0
  6
Continuous
 62
    18
420
        0
100
AcDbText
 10
133.3993920530742
 20
118.1754295598429
 30
0.0
 40
1.524190497618039
  1
ォ
 41
0.8248348394210944
  7
MS Gothic
100
AcDbText
  0
TEXT
  5
3AC
330
1F
100
AcDbEntity
  8
layer0
  6
Continuous
 62
    18
420
        0
100
AcDbText
 10
135.3996359941165
 20
118.1754295598429
 30
0.0
 40
1.524190497618039
  1
ー
 41
0.8709996558699072
  7
MS Gothic
100
AcDbText
  0
TEXT
  5
3AD
330
1F
100
AcDbEntity
  8
layer0
  6
Continuous
 62
    18
420
        0
100
AcDbText
 10
137.3998799351587
 20
118.1754295598429
 30
0.0
 40
1.524190497618039
  1
ム
 41
0.8709996558699072
  7
MS Gothic
100
AcDbText
  0
TEXT
  5
3AE
330
1F
100
AcDbEntity
  8
layer0
  6
Continuous
 62
    18
420
        0
100
AcDbText
 10
139.4001346421242
 20
118.1754295598429
 30
0.0
 40
1.524190497618039
  1
用
 41
0.8280005503390335
  7
MS Gothic
100
AcDbText
  0
TEXT
  5
3AF
330
1F
100
AcDbEntity
  8
layer0
  6
Continuous
 62
    18
420
        0
100
AcDbText
 10
141.4003785831665
 20
118.1754295598429
 30
0.0
 40
1.524190497618039
  1
）
 41
0.2379994301501692
  7
MS Gothic
100
AcDbText
  0
TEXT
  5
3B0
330
1F
100
AcDbEntity
  8
layer0
  6
Continuous
 62
    18
420
        0
100
AcDbText
 10
108.3345248588456
 20
120.0134095059263
 30
0.0
 40
1.524190497618039
  1
床
 41
0.8750040787657603
  7
MS Gothic
100
AcDbText
  0
TEXT
  5
3B1
330
1F
100
AcDbEntity
  8
layer0
  6
Continuous
 62
    18
420
        0
100
AcDbText
 10
110.5817175469929
 20
120.0134095059263
 30
0.0
 40
1.524190497618039
  1
見
 41
0.8820010542558262
  7
MS Gothic
100
AcDbText
  0
TEXT
  5
3B2
330
1F
100
AcDbEntity
  8
layer0
  6
Continuous
 62
    18
420
        0
100
AcDbText
 10
112.8324414579604
 20
120.0134095059263
 30
0.0
 40
1.524190497618039
  1
切
 41
0.8509990705459961
  7
MS Gothic
100
AcDbText
  0
TEXT
  5
3B3
330
1F
100
AcDbEntity
  8
layer0
  6
Continuous
 62
    18
420
        0
100
AcDbText
 10
115.0831653689278
 20
120.0134095059263
 30
0.0
 40
1.524190497618039
  1
り
 41
0.6148350008897595
  7
MS Gothic
100
AcDbText
  0
TEXT
  5
3B4
330
1F
100
AcDbEntity
  8
layer0
  6
Continuous
 62
    18
420
        0
100
AcDbText
 10
117.3338892798953
 20
120.0134095059263
 30
0.0
 40
1.524190497618039
  1
材
 41
0.902997363014862
  7
MS Gothic
100
AcDbText
  0
TEXT
  5
3B5
330
1F
100
AcDbEntity
  8
layer0
  6
Continuous
 62
    18
420
        0
100
AcDbText
 10
180.8338775602978
 20
118.5357132337424
 30
0.0
 40
1.142470816175143
  1
Ｄ
 41
0.7612520105698529
  7
MS Gothic
100
AcDbText
  0
TEXT
  5
3B6
330
1F
100
AcDbEntity
  8
layer0
  6
Continuous
 62
    18
420
        0
100
AcDbText
 10
182.333183093336
 20
118.5357132337424
 30
0.0
 40
1.142470816175143
  1
Ｈ
 41
0.5860093060661765
  7
MS Gothic
100
AcDbText
  0
TEXT
  5
3B7
330
1F
100
AcDbEntity
  8
layer0
  6
Continuous
 62
    18
420
        0
100
AcDbText
 10
183.8324886263743
 20
118.5357132337424
 30
0.0
 40
1.142470816175143
  1
Ｃ
 41
0.8062385110294118
  7
MS Gothic
100
AcDbText
  0
TEXT
  5
3B8
330
1F
100
AcDbEntity
  8
layer0
  6
Continuous
 62
    18
420
        0
100
AcDbText
 10
185.3317941594125
 20
118.5357132337424
 30
0.0
 40
1.142470816175143
  1
7
 41
0.7419864430147061
  7
MS Gothic
100
AcDbText
  0
TEXT
  5
3B9
330
1F
100
AcDbEntity
  8
layer0
  6
Continuous
 62
    18
420
        0
100
AcDbText
 10
186.0832340691882
 20
118.5357132337424
 30
0.0
 40
1.142470816175143
  1
7
 41
0.7419864430147061
  7
MS Gothic
100
AcDbText
  0
TEXT
  5
3BA
330
1F
100
AcDbEntity
  8
layer0
  6
Continuous
 62
    18
420
        0
100
AcDbText
 10
186.834630915271
 20
118.5357132337424
 30
0.0
 40
1.142470816175143
  1
1
 41
0.6210075827205883
  7
MS Gothic
100
AcDbText
  0
TEXT
  5
3BB
330
1F
100
AcDbEntity
  8
layer0
  6
Continuous
 62
    18
420
        0
100
AcDbText
 10
187.5825396022265
 20
118.5357132337424
 30
0.0
 40
1.142470816175143
  1
3
 41
0.7960133272058825
  7
MS Gothic
100
AcDbText
  0
TEXT
  5
3BC
330
1F
100
AcDbEntity
  8
layer0
  6
Continuous
 62
    18
420
        0
100
AcDbText
 10
188.3339364483092
 20
118.5357132337424
 30
0.0
 40
1.142470816175143
  1
-
 41
0.8919749540441178
  7
MS Gothic
100
AcDbText
  0
TEXT
  5
3BD
330
1F
100
AcDbEntity
  8
layer0
  6
Continuous
 62
    18
420
        0
100
AcDbText
 10
189.0818451352647
 20
118.5357132337424
 30
0.0
 40
1.142470816175143
  1
7
 41
0.7419864430147061
  7
MS Gothic
100
AcDbText
  0
TEXT
  5
3BE
330
1F
100
AcDbEntity
  8
layer0
  6
Continuous
 62
    18
420
        0
100
AcDbText
 10
189.8332419813475
 20
118.5357132337424
 30
0.0
 40
1.142470816175143
  1
-
 41
0.8919749540441178
  7
MS Gothic
100
AcDbText
  0
TEXT
  5
3BF
330
1F
100
AcDbEntity
  8
layer0
  6
Continuous
 62
    18
420
        0
100
AcDbText
 10
190.5846603592767
 20
118.5357132337424
 30
0.0
 40
1.142470816175143
  1
□
 41
0.7459932215073531
  7
MS Gothic
100
AcDbText
  0
TEXT
  5
3C0
330
1F
100
AcDbEntity
  8
layer0
  6
Continuous
 62
    18
420
        0
100
AcDbText
 10
180.8338775602978
 20
136.3933223541114
 30
0.0
 40
1.142470816175143
  1
Ｄ
 41
0.7612520105698529
  7
MS Gothic
100
AcDbText
  0
TEXT
  5
3C1
330
1F
100
AcDbEntity
  8
layer0
  6
Continuous
 62
    18
420
        0
100
AcDbText
 10
182.333183093336
 20
136.3933223541114
 30
0.0
 40
1.142470816175143
  1
Ｈ
 41
0.5860093060661765
  7
MS Gothic
100
AcDbText
  0
TEXT
  5
3C2
330
1F
100
AcDbEntity
  8
layer0
  6
Continuous
 62
    18
420
        0
100
AcDbText
 10
183.8324886263743
 20
136.3933223541114
 30
0.0
 40
1.142470816175143
  1
Ｄ
 41
0.7612520105698529
  7
MS Gothic
100
AcDbText
  0
TEXT
  5
3C3
330
1F
100
AcDbEntity
  8
layer0
  6
Continuous
 62
    18
420
        0
100
AcDbText
 10
185.3317941594125
 20
136.3933223541114
 30
0.0
 40
1.142470816175143
  1
7
 41
0.7419864430147061
  7
MS Gothic
100
AcDbText
  0
TEXT
  5
3C4
330
1F
100
AcDbEntity
  8
layer0
  6
Continuous
 62
    18
420
        0
100
AcDbText
 10
186.0832340691882
 20
136.3933223541114
 30
0.0
 40
1.142470816175143
  1
7
 41
0.7419864430147061
  7
MS Gothic
100
AcDbText
  0
TEXT
  5
3C5
330
1F
100
AcDbEntity
  8
layer0
  6
Continuous
 62
    18
420
        0
100
AcDbText
 10
186.834630915271
 20
136.3933223541114
 30
0.0
 40
1.142470816175143
  1
0
 41
0.8599781709558825
  7
MS Gothic
100
AcDbText
  0
TEXT
  5
3C6
330
1F
100
AcDbEntity
  8
layer0
  6
Continuous
 62
    18
420
        0
100
AcDbText
 10
187.5825396022265
 20
136.3933223541114
 30
0.0
 40
1.142470816175143
  1
1
 41
0.6210075827205883
  7
MS Gothic
100
AcDbText
  0
TEXT
  5
3C7
330
1F
100
AcDbEntity
  8
layer0
  6
Continuous
 62
    18
420
        0
100
AcDbText
 10
188.3339364483092
 20
136.3933223541114
 30
0.0
 40
1.142470816175143
  1
-
 41
0.8919749540441178
  7
MS Gothic
100
AcDbText
  0
TEXT
  5
3C8
330
1F
100
AcDbEntity
  8
layer0
  6
Continuous
 62
    18
420
        0
100
AcDbText
 10
189.0818451352647
 20
136.3933223541114
 30
0.0
 40
1.142470816175143
  1
7
 41
0.7419864430147061
  7
MS Gothic
100
AcDbText
  0
TEXT
  5
3C9
330
1F
100
AcDbEntity
  8
layer0
  6
Continuous
 62
    18
420
        0
100
AcDbText
 10
189.8332419813475
 20
136.3933223541114
 30
0.0
 40
1.142470816175143
  1
-
 41
0.8919749540441178
  7
MS Gothic
100
AcDbText
  0
TEXT
  5
3CA
330
1F
100
AcDbEntity
  8
layer0
  6
Continuous
 62
    18
420
        0
100
AcDbText
 10
190.5846603592767
 20
136.3933223541114
 30
0.0
 40
1.142470816175143
  1
□
 41
0.7459932215073531
  7
MS Gothic
100
AcDbText
  0
TEXT
  5
3CB
330
1F
100
AcDbEntity
  8
layer0
  6
Continuous
 62
    18
420
        0
100
AcDbText
 10
137.8702191777694
 20
128.1359429414319
 30
0.0
 40
1.142470816175143
  1
1
 50
90.00000250447816
 41
0.6210075827205883
  7
MS Gothic
100
AcDbText
  0
TEXT
  5
3CC
330
1F
100
AcDbEntity
  8
layer0
  6
Continuous
 62
    18
420
        0
100
AcDbText
 10
137.8702191777694
 20
128.8873505534379
 30
0.0
 40
1.142470816175143
  1
5
 50
90.00000250447816
 41
0.7959989659926472
  7
MS Gothic
100
AcDbText
  0
TEXT
  5
3CD
330
1F
100
AcDbEntity
  8
layer0
  6
Continuous
 62
    18
420
        0
100
AcDbText
 10
150.6149430437088
 20
132.558629689806
 30
0.0
 40
1.142470816175143
  1
3
 41
0.7959989659926472
  7
MS Gothic
100
AcDbText
  0
TEXT
  5
3CE
330
1F
100
AcDbEntity
  8
layer0
  6
Continuous
 62
    18
420
        0
100
AcDbText
 10
151.3628301988178
 20
132.558629689806
 30
0.0
 40
1.142470816175143
  1
R
 41
0.8520076976102942
  7
MS Gothic
100
AcDbText
  0
TEXT
  5
3CF
330
1F
100
AcDbEntity
  8
layer0
  6
Continuous
 62
    18
420
        0
100
AcDbText
 10
143.6687478423119
 20
133.5605172717373
 30
0.0
 40
1.142470816175143
  1
3
 41
0.7959989659926472
  7
MS Gothic
100
AcDbText
  0
TEXT
  5
3D0
330
1F
100
AcDbEntity
  8
layer0
  6
Continuous
 62
    18
420
        0
100
AcDbText
 10
144.4201554543179
 20
133.5605172717373
 30
0.0
 40
1.142470816175143
  1
0
 41
0.860006893382353
  7
MS Gothic
100
AcDbText
  0
LINE
  5
3D1
330
1F
100
AcDbEntity
  8
layer0
  6
Continuous
 62
    18
420
        0
370
     5
100
AcDbLine
 10
140.6701367762354
 20
127.0105809951888
 30
0.0
 11
148.1701956642468
 21
127.0105809951888
 31
0.0
  0
LINE
  5
3D2
330
1F
100
AcDbEntity
  8
layer0
  6
Continuous
 62
    18
420
        0
370
     5
100
AcDbLine
 10
140.6701367762354
 20
130.0127232840856
 30
0.0
 11
140.6701367762354
 21
127.0105809951888
 31
0.0
  0
LWPOLYLINE
  5
3D3
330
1F
100
AcDbEntity
  8
layer0
  6
Continuous
 62
    18
420
        0
370
     5
100
AcDbPolyline
 90
       34
 70
     0
 43
0.0
 10
141.4180239313444
 20
130.7606104391946
 10
141.3810752828107
 20
130.7596953357198
 10
141.344352718665
 20
130.7570038549117
 10
141.3079208344465
 20
130.752525230847
 10
141.2718334597715
 20
130.7462809953722
 10
141.2361767220257
 20
130.738303446257
 10
141.200982918979
 20
130.7286141153479
 10
141.1663274120939
 20
130.7172237685679
 10
141.1322747969098
 20
130.704164703687
 10
141.0988896689661
 20
130.6894476866283
 10
141.0662150919557
 20
130.6731050151615
 10
141.0343371932645
 20
130.6551474552099
 10
141.0032882706623
 20
130.6355965386198
 10
140.973165217458
 20
130.6144737972378
 10
140.9440110973446
 20
130.5918007629104
 10
140.9158905058616
 20
130.5675989674839
 10
140.888857272625
 20
130.5418899428049
 10
140.888857272625
 20
130.5418899428049
 10
140.863148247946
 20
130.5148567095683
 10
140.8389464525196
 20
130.4867468840085
 10
140.8162734181921
 20
130.4575927638951
 10
140.7951506768101
 20
130.4274589447676
 10
140.77559976022
 20
130.3964207880886
 10
140.7576422002684
 20
130.3645321234742
 10
140.7412995288016
 20
130.3318683123871
 10
140.7265825117429
 20
130.2984724185201
 10
140.713523446862
 20
130.2644090374128
 10
140.7021331000821
 20
130.2297642964509
 10
140.6924437691729
 20
130.1945704934042
 10
140.6844662200577
 20
130.1589029897352
 10
140.6782327505061
 20
130.1228263809834
 10
140.6737541264415
 20
130.0863944967649
 10
140.6710411137869
 20
130.0496719326192
 10
140.6701367762354
 20
130.0127232840856
  0
LWPOLYLINE
  5
3D4
330
1F
100
AcDbEntity
  8
layer0
  6
Continuous
 62
    18
420
        0
370
     5
100
AcDbPolyline
 90
       34
 70
     0
 43
0.0
 10
148.1701956642468
 20
130.0127232840856
 10
148.1692482630024
 20
130.049661166696
 10
148.1664275911155
 20
130.0863944967649
 10
148.1617767122791
 20
130.1228263809834
 10
148.1553171583396
 20
130.158892223812
 10
148.1470704611436
 20
130.1945704934042
 10
148.1370796843839
 20
130.2297642964509
 10
148.1253771258303
 20
130.264419803336
 10
148.1119843173292
 20
130.2984831844434
 10
148.0969443225735
 20
130.3318683123871
 10
148.0802786734097
 20
130.3645321234742
 10
148.0620196676076
 20
130.3964207880886
 10
148.0421996029367
 20
130.4274589447676
 10
148.0208507771669
 20
130.4575819979719
 10
147.9980054880677
 20
130.4867468840085
 10
147.9736852674857
 20
130.5148674754916
 10
147.9479331791137
 20
130.5418899428049
 10
147.9479331791137
 20
130.5418899428049
 10
147.9208999458772
 20
130.5675989674839
 10
147.8927793543941
 20
130.5918007629104
 10
147.863636000204
 20
130.6144737972378
 10
147.8335129469997
 20
130.6355965386198
 10
147.8024640243974
 20
130.6551474552099
 10
147.7705861257062
 20
130.6730942492383
 10
147.7379115486959
 20
130.6894476866283
 10
147.704515654829
 20
130.704164703687
 10
147.6704630396449
 20
130.7172237685679
 10
147.635818298683
 20
130.7286141153479
 10
147.6006244956362
 20
130.738303446257
 10
147.5649569919672
 20
130.7462809953722
 10
147.5288696172922
 20
130.7525144649238
 10
147.4924377330737
 20
130.7570038549117
 10
147.455715168928
 20
130.759706101643
 10
147.4187665203943
 20
130.7606104391946
  0
LWPOLYLINE
  5
3D5
330
1F
100
AcDbEntity
  8
layer0
  6
Continuous
 62
    18
420
        0
370
     5
100
AcDbPolyline
 90
       34
 70
     0
 43
0.0
 10
141.4180239313444
 20
130.637136065642
 10
141.3870288383583
 20
130.6363501532461
 10
141.3562490638368
 20
130.6340247138279
 10
141.3257384373962
 20
130.6301920451571
 10
141.2955507886525
 20
130.6248413813107
 10
141.2657184153755
 20
130.6180373178278
 10
141.236327444951
 20
130.6097906206317
 10
141.2074101751488
 20
130.6001335874923
 10
141.1790204355849
 20
130.5890769843326
 10
141.1512012899523
 20
130.5766423429992
 10
141.1240173337905
 20
130.5628942590313
 10
141.0975223967155
 20
130.5478327324292
 10
141.0717487764971
 20
130.531468529116
 10
141.046771834598
 20
130.5138554787077
 10
141.0226238687877
 20
130.4950043471278
 10
140.9993694746057
 20
130.4749366662226
 10
140.9770517157449
 20
130.453695499685
 10
140.9770517157449
 20
130.453695499685
 10
140.9558105492073
 20
130.4313777408242
 10
140.9357321023789
 20
130.4081233466422
 10
140.9169025026454
 20
130.3839753808319
 10
140.8992786863139
 20
130.3589876730095
 10
140.8829144830007
 20
130.3332248187144
 10
140.8678529563986
 20
130.3067191157162
 10
140.8540833405843
 20
130.2795459254776
 10
140.8416809970206
 20
130.251726779845
 10
140.8306136279377
 20
130.2233370402812
 10
140.8209565947982
 20
130.1944197704789
 10
140.8127098976022
 20
130.1650288000544
 10
140.805895068196
 20
130.1352071927006
 10
140.800565936196
 20
130.1050087780338
 10
140.796722501602
 20
130.0744981515931
 10
140.7943970621838
 20
130.0437183770717
 10
140.7936111497879
 20
130.0127232840856
  0
LINE
  5
3D6
330
1F
100
AcDbEntity
  8
layer0
  6
Continuous
 62
    18
420
        0
370
     5
100
AcDbLine
 10
140.7936111497879
 20
130.0127232840856
 30
0.0
 11
140.7936111497879
 21
127.0105809951888
 31
0.0
  0
LWPOLYLINE
  5
3D7
330
1F
100
AcDbEntity
  8
layer0
  6
Continuous
 62
    18
420
        0
370
     5
100
AcDbPolyline
 90
       34
 70
     0
 43
0.0
 10
148.0431900678741
 20
130.0127232840856
 10
148.0424149214014
 20
130.0437183770717
 10
148.0400787160599
 20
130.0745089175163
 10
148.0362460473892
 20
130.105019543957
 10
148.0309061494659
 20
130.1351964267774
 10
148.0240913200598
 20
130.1650180341312
 10
148.0158446228638
 20
130.1944090045557
 10
148.0061875897243
 20
130.2233370402812
 10
147.9951202206414
 20
130.251726779845
 10
147.9827071111544
 20
130.2795459254776
 10
147.9689482612634
 20
130.3067191157162
 10
147.953875968738
 20
130.3332248187144
 10
147.937522531348
 20
130.3589984389328
 10
147.9199094809398
 20
130.3839753808319
 10
147.9010583493598
 20
130.4081233466422
 10
147.8809906684546
 20
130.4313777408242
 10
147.8597495019171
 20
130.453695499685
 10
147.8597495019171
 20
130.453695499685
 10
147.8374317430563
 20
130.4749366662226
 10
147.814166582951
 20
130.4950043471278
 10
147.790029383064
 20
130.5138447127845
 10
147.7650524411648
 20
130.531468529116
 10
147.7392788209464
 20
130.547821966506
 10
147.7127838838715
 20
130.5628942590313
 10
147.6855999277096
 20
130.5766531089224
 10
147.6577807820771
 20
130.5890769843326
 10
147.62938027659
 20
130.600122821569
 10
147.6004630067877
 20
130.6097906206317
 10
147.5710720363633
 20
130.6180373178278
 10
147.5412504290095
 20
130.6248413813107
 10
147.5110520143426
 20
130.6301812792339
 10
147.4805413879019
 20
130.6340247138279
 10
147.4497616133805
 20
130.6363501532461
 10
147.4187665203943
 20
130.637136065642
  0
LINE
  5
3D8
330
1F
100
AcDbEntity
  8
layer0
  6
Continuous
 62
    18
420
        0
370
     5
100
AcDbLine
 10
141.4180239313444
 20
130.7606104391946
 30
0.0
 11
147.4187665203943
 21
130.7606104391946
 31
0.0
  0
LINE
  5
3D9
330
1F
100
AcDbEntity
  8
layer0
  6
Continuous
 62
    18
420
        0
370
     5
100
AcDbLine
 10
141.4180239313444
 20
130.637136065642
 30
0.0
 11
147.4187665203943
 21
130.637136065642
 31
0.0
  0
LINE
  5
3DA
330
1F
100
AcDbEntity
  8
layer0
  6
Continuous
 62
    18
420
        0
370
     5
100
AcDbLine
 10
148.1701956642468
 20
127.0105809951888
 30
0.0
 11
148.1701956642468
 21
130.0127232840856
 31
0.0
  0
LINE
  5
3DB
330
1F
100
AcDbEntity
  8
layer0
  6
Continuous
 62
    18
420
        0
370
     5
100
AcDbLine
 10
148.0431900678741
 20
127.0105809951888
 30
0.0
 11
148.0431900678741
 21
130.0127232840856
 31
0.0
  0
LINE
  5
3DC
330
1F
100
AcDbEntity
  8
layer0
  6
Continuous
 62
    18
420
        0
370
     0
100
AcDbLine
 10
140.6701367762354
 20
133.261803554164
 30
0.0
 11
148.1701956642468
 21
133.261803554164
 31
0.0
  0
LINE
  5
3DD
330
1F
100
AcDbEntity
  8
layer0
  6
Continuous
 62
    18
420
        0
370
     9
100
AcDbLine
 10
140.6701367762354
 20
133.261803554164
 30
0.0
 11
140.6736679990556
 21
133.261803554164
 31
0.0
  0
LINE
  5
3DE
330
1F
100
AcDbEntity
  8
layer0
  6
Continuous
 62
    18
420
        0
370
     9
100
AcDbLine
 10
148.1701956642468
 20
133.261803554164
 30
0.0
 11
148.1737161211438
 21
133.261803554164
 31
0.0
  0
LINE
  5
3DF
330
1F
100
AcDbEntity
  8
layer0
  6
Continuous
 62
    18
420
        0
370
     0
100
AcDbLine
 10
140.6701367762354
 20
133.261803554164
 30
0.0
 11
140.6701367762354
 21
132.012977991051
 31
0.0
  0
LINE
  5
3E0
330
1F
100
AcDbEntity
  8
layer0
  6
Continuous
 62
    18
420
        0
370
     0
100
AcDbLine
 10
148.1701956642468
 20
133.261803554164
 30
0.0
 11
148.1701956642468
 21
132.012977991051
 31
0.0
  0
LINE
  5
3E1
330
1F
100
AcDbEntity
  8
layer0
  6
Continuous
 62
    18
420
        0
370
     0
100
AcDbLine
 10
138.1689436612659
 20
130.7606104391946
 30
0.0
 11
138.1689436612659
 21
127.0105809951888
 31
0.0
  0
LINE
  5
3E2
330
1F
100
AcDbEntity
  8
layer0
  6
Continuous
 62
    18
420
        0
370
     9
100
AcDbLine
 10
138.1689436612659
 20
130.7606104391946
 30
0.0
 11
138.1724748840861
 21
130.7606104391946
 31
0.0
  0
LINE
  5
3E3
330
1F
100
AcDbEntity
  8
layer0
  6
Continuous
 62
    18
420
        0
370
     9
100
AcDbLine
 10
138.1689436612659
 20
127.0105809951888
 30
0.0
 11
138.1724748840861
 21
127.0105809951888
 31
0.0
  0
LINE
  5
3E4
330
1F
100
AcDbEntity
  8
layer0
  6
Continuous
 62
    18
420
        0
370
     0
100
AcDbLine
 10
138.1689436612659
 20
130.7606104391946
 30
0.0
 11
139.4177799903021
 21
130.7606104391946
 31
0.0
  0
LINE
  5
3E5
330
1F
100
AcDbEntity
  8
layer0
  6
Continuous
 62
    18
420
        0
370
     0
100
AcDbLine
 10
138.1689436612659
 20
127.0105809951888
 30
0.0
 11
139.4177799903021
 21
127.0105809951888
 31
0.0
  0
LINE
  5
3E6
330
1F
100
AcDbEntity
  8
layer0
  6
Continuous
 62
    18
420
        0
370
     0
100
AcDbLine
 10
147.7927208638721
 20
130.38666686164
 30
0.0
 11
149.4543011577924
 21
133.261803554164
 31
0.0
  0
LINE
  5
3E7
330
1F
100
AcDbEntity
  8
layer0
  6
Continuous
 62
    18
420
        0
370
     0
100
AcDbLine
 10
149.4543011577924
 20
133.261803554164
 30
0.0
 11
150.551445628484
 21
133.261803554164
 31
0.0
  0
LINE
  5
3E8
330
1F
100
AcDbEntity
  8
layer0
  6
Continuous
 62
    18
420
        0
370
     5
100
AcDbLine
 10
122.5832134910161
 20
120.7276097286012
 30
0.0
 11
202.3321558764777
 21
120.7276097286012
 31
0.0
  0
LINE
  5
3E9
330
1F
100
AcDbEntity
  8
layer0
  6
Continuous
 62
    18
420
        0
370
     5
100
AcDbLine
 10
25.16716768826377
 20
120.7276097286012
 30
0.0
 11
104.9161073822446
 21
120.7276097286012
 31
0.0
  0
LINE
  5
3EA
330
1F
100
AcDbEntity
  8
layer0
  6
Continuous
 62
    18
420
        0
370
     5
100
AcDbLine
 10
104.9161073822446
 20
67.15477698453267
 30
0.0
 11
202.3321558764777
 21
67.15477698453267
 31
0.0
  0
TEXT
  5
3EB
330
1F
100
AcDbEntity
  8
layer0
  6
Continuous
 62
    18
420
        0
100
AcDbText
 10
196.2079389138752
 20
143.5154522200454
 30
0.0
 40
1.524190497618039
  1
発
 41
0.9020070218685758
  7
MS Gothic
100
AcDbText
  0
TEXT
  5
3EC
330
1F
100
AcDbEntity
  8
layer0
  6
Continuous
 62
    18
420
        0
100
AcDbText
 10
198.4586628248427
 20
143.5154522200454
 30
0.0
 40
1.524190497618039
  1
注
 41
0.8940089406545467
  7
MS Gothic
100
AcDbText
  0
TEXT
  5
3ED
330
1F
100
AcDbEntity
  8
layer0
  6
Continuous
 62
    18
420
        0
100
AcDbText
 10
196.2079389138752
 20
139.8888971495922
 30
0.0
 40
1.524190497618039
  1
単
 41
0.8900045177586936
  7
MS Gothic
100
AcDbText
  0
TEXT
  5
3EE
330
1F
100
AcDbEntity
  8
layer0
  6
Continuous
 62
    18
420
        0
100
AcDbText
 10
198.4586628248427
 20
139.8888971495922
 30
0.0
 40
1.524190497618039
  1
位
 41
0.9019962572908988
  7
MS Gothic
100
AcDbText
  0
ENDSEC
  0
SECTION
  2
OBJECTS
  0
DICTIONARY
  5
C
330
0
100
AcDbDictionary
281
     1
  3
ACAD_DETAILVIEWSTYLE
350
426
  3
ACAD_GROUP
350
D
  3
ACAD_LAYOUT
350
1A
  3
ACAD_MATERIAL
350
43
  3
ACAD_MLEADERSTYLE
350
6B
  3
ACAD_MLINESTYLE
350
17
  3
ACAD_PLOTSETTINGS
350
19
  3
ACAD_PLOTSTYLENAME
350
E
  3
ACAD_SCALELIST
350
47
  3
ACAD_SECTIONVIEWSTYLE
350
427
  3
ACAD_TABLESTYLE
350
69
  3
ACAD_VISUALSTYLE
350
2A
  3
ACDB_RECOMPOSE_DATA
350
423
  3
AcDbVariableDictionary
350
3EF
  0
SUN
  5
6D
330
29
100
AcDbSun
 90
        1
290
     0
 63
     7
421
 16777215
 40
1.0
291
     1
 91
  2455826
 92
 54000000
292
     0
 70
     2
 71
   256
280
     1
  0
DICTIONARY
  5
426
102
{ACAD_REACTORS
330
C
102
}
330
C
100
AcDbDictionary
281
     1
  0
DICTIONARY
  5
D
102
{ACAD_REACTORS
330
C
102
}
330
C
100
AcDbDictionary
281
     1
  0
DICTIONARY
  5
1A
102
{ACAD_REACTORS
330
C
102
}
330
C
100
AcDbDictionary
281
     1
  3
Layout1
350
1E
  3
Layout2
350
26
  3
Model
350
22
  0
DICTIONARY
  5
43
102
{ACAD_REACTORS
330
C
102
}
330
C
100
AcDbDictionary
281
     1
  3
ByBlock
350
45
  3
ByLayer
350
44
  3
Global
350
46
  0
DICTIONARY
  5
6B
102
{ACAD_REACTORS
330
C
102
}
330
C
100
AcDbDictionary
281
     1
  3
Standard
350
6C
  0
DICTIONARY
  5
17
102
{ACAD_REACTORS
330
C
102
}
330
C
100
AcDbDictionary
281
     1
  3
Standard
350
18
  0
DICTIONARY
  5
19
102
{ACAD_REACTORS
330
C
102
}
330
C
100
AcDbDictionary
281
     1
  0
ACDBDICTIONARYWDFLT
  5
E
102
{ACAD_REACTORS
330
C
102
}
330
C
100
AcDbDictionary
281
     1
  3
Normal
350
F
100
AcDbDictionaryWithDefault
340
F
  0
DICTIONARY
  5
47
102
{ACAD_REACTORS
330
C
102
}
330
C
100
AcDbDictionary
281
     1
  3
A0
350
48
  3
A1
350
49
  3
A2
350
4A
  3
A3
350
4B
  3
A4
350
4C
  3
A5
350
4D
  3
A6
350
4E
  3
A7
350
4F
  3
A8
350
50
  3
A9
350
51
  3
B0
350
52
  3
B1
350
53
  3
B2
350
54
  3
B3
350
55
  3
B4
350
56
  3
B5
350
57
  3
B6
350
58
  3
B7
350
59
  3
B8
350
5A
  3
B9
350
5B
  3
C0
350
5C
  3
C1
350
5D
  3
C2
350
5E
  3
C3
350
5F
  3
C4
350
60
  3
C5
350
61
  3
C6
350
62
  3
C7
350
63
  3
C8
350
64
  3
C9
350
65
  3
D0
350
66
  3
D1
350
67
  3
D2
350
68
  0
DICTIONARY
  5
427
102
{ACAD_REACTORS
330
C
102
}
330
C
100
AcDbDictionary
281
     1
  0
DICTIONARY
  5
69
102
{ACAD_REACTORS
330
C
102
}
330
C
100
AcDbDictionary
281
     1
  3
Standard
350
6A
  0
DICTIONARY
  5
2A
102
{ACAD_REACTORS
330
C
102
}
330
C
100
AcDbDictionary
281
     1
  3
2dWireframe
350
2F
  3
Basic
350
32
  3
Brighten
350
36
  3
ColorChange
350
3A
  3
Conceptual
350
34
  3
Dim
350
35
  3
EdgeColorOff
350
3D
  3
Facepattern
350
39
  3
Flat
350
2B
  3
FlatWithEdges
350
2C
  3
Gouraud
350
2D
  3
GouraudWithEdges
350
2E
  3
Hidden
350
31
  3
JitterOff
350
3B
  3
Linepattern
350
38
  3
OverhangOff
350
3C
  3
Realistic
350
33
  3
Shaded
350
42
  3
Shaded with edges
350
41
  3
Shades of Gray
350
3E
  3
Sketchy
350
3F
  3
Thicken
350
37
  3
Wireframe
350
30
  3
X-Ray
350
40
  0
XRECORD
  5
423
102
{ACAD_REACTORS
330
C
102
}
330
C
100
AcDbXrecord
280
     1
 90
        1
330
6A
  0
DICTIONARY
  5
3EF
102
{ACAD_REACTORS
330
C
102
}
330
C
100
AcDbDictionary
281
     1
  3
CANNOSCALE
350
3F0
  3
CENTEREXE
350
428
  3
CENTERLTYPEFILE
350
429
  3
CMLEADERSTYLE
350
425
  3
CTABLESTYLE
350
424
  0
LAYOUT
  5
1E
102
{ACAD_REACTORS
330
1A
102
}
330
1A
100
AcDbPlotSettings
  1

  2
none_device
  4

  6

 40
0.0
 41
0.0
 42
0.0
 43
0.0
 44
0.0
 45
0.0
 46
0.0
 47
0.0
 48
0.0
 49
0.0
140
0.0
141
0.0
142
1.0
143
1.0
 70
   688
 72
     1
 73
     0
 74
     5
  7

 75
    16
 76
     0
 77
     5
 78
   300
147
1.0
148
0.0
149
0.0
100
AcDbLayout
  1
Layout1
 70
     1
 71
     1
 10
0.0
 20
0.0
 11
420.0
 21
297.0
 12
0.0
 22
0.0
 32
0.0
 14
1.000000000000000E+20
 24
1.000000000000000E+20
 34
1.000000000000000E+20
 15
-1.000000000000000E+20
 25
-1.000000000000000E+20
 35
-1.000000000000000E+20
146
0.0
 13
0.0
 23
0.0
 33
0.0
 16
1.0
 26
0.0
 36
0.0
 17
0.0
 27
1.0
 37
0.0
 76
     0
330
1B
  0
LAYOUT
  5
26
102
{ACAD_REACTORS
330
1A
102
}
330
1A
100
AcDbPlotSettings
  1

  2
none_device
  4

  6

 40
0.0
 41
0.0
 42
0.0
 43
0.0
 44
0.0
 45
0.0
 46
0.0
 47
0.0
 48
0.0
 49
0.0
140
0.0
141
0.0
142
1.0
143
1.0
 70
   688
 72
     1
 73
     0
 74
     5
  7

 75
    16
 76
     0
 77
     5
 78
   300
147
1.0
148
0.0
149
0.0
100
AcDbLayout
  1
Layout2
 70
     1
 71
     2
 10
0.0
 20
0.0
 11
0.0
 21
0.0
 12
0.0
 22
0.0
 32
0.0
 14
0.0
 24
0.0
 34
0.0
 15
0.0
 25
0.0
 35
0.0
146
0.0
 13
0.0
 23
0.0
 33
0.0
 16
1.0
 26
0.0
 36
0.0
 17
0.0
 27
1.0
 37
0.0
 76
     0
330
23
  0
LAYOUT
  5
22
102
{ACAD_REACTORS
330
1A
102
}
330
1A
100
AcDbPlotSettings
  1

  2
none_device
  4
Letter_(8.50_x_11.00_Inches)
  6

 40
6.35
 41
6.35
 42
6.35000508
 43
6.35000508
 44
215.9
 45
279.4
 46
0.0
 47
0.0
 48
0.0
 49
0.0
140
0.0
141
0.0
142
1.0
143
1.0
 70
  1712
 72
     1
 73
     0
 74
     0
  7

 75
     0
 76
     0
 77
     5
 78
   300
147
1.0
148
0.0
149
0.0
100
AcDbLayout
  1
Model
 70
     1
 71
     0
 10
0.0
 20
0.0
 11
210.0015627369349
 21
152.9997242307662
 12
0.0
 22
0.0
 32
0.0
 14
0.0
 24
0.0
 34
0.0
 15
210.0015627369349
 25
152.9997242307662
 35
0.0
146
0.0
 13
0.0
 23
0.0
 33
0.0
 16
1.0
 26
0.0
 36
0.0
 17
0.0
 27
1.0
 37
0.0
 76
     0
330
1F
331
29
  0
MATERIAL
  5
45
102
{ACAD_REACTORS
330
43
102
}
330
43
100
AcDbMaterial
  1
ByBlock
 72
     1
 94
      127
  0
MATERIAL
  5
44
102
{ACAD_REACTORS
330
43
102
}
330
43
100
AcDbMaterial
  1
ByLayer
 72
     1
 94
      127
  0
MATERIAL
  5
46
102
{ACAD_REACTORS
330
43
102
}
330
43
100
AcDbMaterial
  1
Global
 72
     1
 94
      127
  0
MLEADERSTYLE
  5
6C
102
{ACAD_REACTORS
330
6B
102
}
330
6B
100
AcDbMLeaderStyle
179
     2
170
     2
171
     1
172
     0
 90
        2
 40
0.0
 41
0.0
173
     1
 91
-1056964608
340
14
 92
       -2
290
     1
 42
2.0
291
     1
 43
8.0
  3
Standard
341
0
 44
4.0
300

342
11
174
     1
178
     6
175
     1
176
     0
 93
-1056964608
 45
4.0
292
     0
297
     0
 46
4.0
343
0
 94
-1056964608
 47
1.0
 49
1.0
140
1.0
293
     1
141
0.0
294
     1
177
     0
142
1.0
295
     0
296
     0
143
3.75
271
     0
272
     9
273
     9
  0
MLINESTYLE
  5
18
102
{ACAD_REACTORS
330
17
102
}
330
17
100
AcDbMlineStyle
  2
Standard
 70
     0
  3

 62
   256
 51
90.0
 52
90.0
 71
     2
 49
0.5
 62
   256
  6
BYLAYER
 49
-0.5
 62
   256
  6
BYLAYER
  0
ACDBPLACEHOLDER
  5
F
102
{ACAD_REACTORS
330
E
102
}
330
E
  0
SCALE
  5
48
102
{ACAD_REACTORS
330
47
102
}
330
47
100
AcDbScale
 70
     0
300
1:1
140
1.0
141
1.0
290
     1
  0
SCALE
  5
49
102
{ACAD_REACTORS
330
47
102
}
330
47
100
AcDbScale
 70
     0
300
1:2
140
1.0
141
2.0
290
     0
  0
SCALE
  5
4A
102
{ACAD_REACTORS
330
47
102
}
330
47
100
AcDbScale
 70
     0
300
1:4
140
1.0
141
4.0
290
     0
  0
SCALE
  5
4B
102
{ACAD_REACTORS
330
47
102
}
330
47
100
AcDbScale
 70
     0
300
1:5
140
1.0
141
5.0
290
     0
  0
SCALE
  5
4C
102
{ACAD_REACTORS
330
47
102
}
330
47
100
AcDbScale
 70
     0
300
1:8
140
1.0
141
8.0
290
     0
  0
SCALE
  5
4D
102
{ACAD_REACTORS
330
47
102
}
330
47
100
AcDbScale
 70
     0
300
1:10
140
1.0
141
10.0
290
     0
  0
SCALE
  5
4E
102
{ACAD_REACTORS
330
47
102
}
330
47
100
AcDbScale
 70
     0
300
1:16
140
1.0
141
16.0
290
     0
  0
SCALE
  5
4F
102
{ACAD_REACTORS
330
47
102
}
330
47
100
AcDbScale
 70
     0
300
1:20
140
1.0
141
20.0
290
     0
  0
SCALE
  5
50
102
{ACAD_REACTORS
330
47
102
}
330
47
100
AcDbScale
 70
     0
300
1:30
140
1.0
141
30.0
290
     0
  0
SCALE
  5
51
102
{ACAD_REACTORS
330
47
102
}
330
47
100
AcDbScale
 70
     0
300
1:40
140
1.0
141
40.0
290
     0
  0
SCALE
  5
52
102
{ACAD_REACTORS
330
47
102
}
330
47
100
AcDbScale
 70
     0
300
1:50
140
1.0
141
50.0
290
     0
  0
SCALE
  5
53
102
{ACAD_REACTORS
330
47
102
}
330
47
100
AcDbScale
 70
     0
300
1:100
140
1.0
141
100.0
290
     0
  0
SCALE
  5
54
102
{ACAD_REACTORS
330
47
102
}
330
47
100
AcDbScale
 70
     0
300
2:1
140
2.0
141
1.0
290
     0
  0
SCALE
  5
55
102
{ACAD_REACTORS
330
47
102
}
330
47
100
AcDbScale
 70
     0
300
4:1
140
4.0
141
1.0
290
     0
  0
SCALE
  5
56
102
{ACAD_REACTORS
330
47
102
}
330
47
100
AcDbScale
 70
     0
300
8:1
140
8.0
141
1.0
290
     0
  0
SCALE
  5
57
102
{ACAD_REACTORS
330
47
102
}
330
47
100
AcDbScale
 70
     0
300
10:1
140
10.0
141
1.0
290
     0
  0
SCALE
  5
58
102
{ACAD_REACTORS
330
47
102
}
330
47
100
AcDbScale
 70
     0
300
100:1
140
100.0
141
1.0
290
     0
  0
SCALE
  5
59
102
{ACAD_REACTORS
330
47
102
}
330
47
100
AcDbScale
 70
     0
300
1/128" = 1'-0"
140
0.0078125
141
12.0
290
     0
  0
SCALE
  5
5A
102
{ACAD_REACTORS
330
47
102
}
330
47
100
AcDbScale
 70
     0
300
1/64" = 1'-0"
140
0.015625
141
12.0
290
     0
  0
SCALE
  5
5B
102
{ACAD_REACTORS
330
47
102
}
330
47
100
AcDbScale
 70
     0
300
1/32" = 1'-0"
140
0.03125
141
12.0
290
     0
  0
SCALE
  5
5C
102
{ACAD_REACTORS
330
47
102
}
330
47
100
AcDbScale
 70
     0
300
1/16" = 1'-0"
140
0.0625
141
12.0
290
     0
  0
SCALE
  5
5D
102
{ACAD_REACTORS
330
47
102
}
330
47
100
AcDbScale
 70
     0
300
3/32" = 1'-0"
140
0.09375
141
12.0
290
     0
  0
SCALE
  5
5E
102
{ACAD_REACTORS
330
47
102
}
330
47
100
AcDbScale
 70
     0
300
1/8" = 1'-0"
140
0.125
141
12.0
290
     0
  0
SCALE
  5
5F
102
{ACAD_REACTORS
330
47
102
}
330
47
100
AcDbScale
 70
     0
300
3/16" = 1'-0"
140
0.1875
141
12.0
290
     0
  0
SCALE
  5
60
102
{ACAD_REACTORS
330
47
102
}
330
47
100
AcDbScale
 70
     0
300
1/4" = 1'-0"
140
0.25
141
12.0
290
     0
  0
SCALE
  5
61
102
{ACAD_REACTORS
330
47
102
}
330
47
100
AcDbScale
 70
     0
300
3/8" = 1'-0"
140
0.375
141
12.0
290
     0
  0
SCALE
  5
62
102
{ACAD_REACTORS
330
47
102
}
330
47
100
AcDbScale
 70
     0
300
1/2" = 1'-0"
140
0.5
141
12.0
290
     0
  0
SCALE
  5
63
102
{ACAD_REACTORS
330
47
102
}
330
47
100
AcDbScale
 70
     0
300
3/4" = 1'-0"
140
0.75
141
12.0
290
     0
  0
SCALE
  5
64
102
{ACAD_REACTORS
330
47
102
}
330
47
100
AcDbScale
 70
     0
300
1" = 1'-0"
140
1.0
141
12.0
290
     0
  0
SCALE
  5
65
102
{ACAD_REACTORS
330
47
102
}
330
47
100
AcDbScale
 70
     0
300
1-1/2" = 1'-0"
140
1.5
141
12.0
290
     0
  0
SCALE
  5
66
102
{ACAD_REACTORS
330
47
102
}
330
47
100
AcDbScale
 70
     0
300
3" = 1'-0"
140
3.0
141
12.0
290
     0
  0
SCALE
  5
67
102
{ACAD_REACTORS
330
47
102
}
330
47
100
AcDbScale
 70
     0
300
6" = 1'-0"
140
6.0
141
12.0
290
     0
  0
SCALE
  5
68
102
{ACAD_REACTORS
330
47
102
}
330
47
100
AcDbScale
 70
     0
300
1'-0" = 1'-0"
140
12.0
141
12.0
290
     0
  0
TABLESTYLE
  5
6A
102
{ACAD_REACTORS
330
69
102
}
102
{ACAD_XDICTIONARY
360
421
102
}
330
69
100
AcDbTableStyle
  3
Standard
 70
     0
 71
     0
 40
0.06
 41
0.06
280
     0
281
     0
  7
Standard
140
4.5
170
     2
 62
     0
 63
   257
283
     0
 90
        4
 91
        0
  1

274
    -2
284
     1
 64
     0
275
    -2
285
     1
 65
     0
276
    -2
286
     1
 66
     0
277
    -2
287
     1
 67
     0
278
    -2
288
     1
 68
     0
279
    -2
289
     1
 69
     0
  7
Standard
140
6.0
170
     5
 62
     0
 63
   257
283
     0
 90
        4
 91
        0
  1

274
    -2
284
     1
 64
     0
275
    -2
285
     1
 65
     0
276
    -2
286
     1
 66
     0
277
    -2
287
     1
 67
     0
278
    -2
288
     1
 68
     0
279
    -2
289
     1
 69
     0
  7
Standard
140
4.5
170
     5
 62
     0
 63
   257
283
     0
 90
        4
 91
        0
  1

274
    -2
284
     1
 64
     0
275
    -2
285
     1
 65
     0
276
    -2
286
     1
 66
     0
277
    -2
287
     1
 67
     0
278
    -2
288
     1
 68
     0
279
    -2
289
     1
 69
     0
  0
VISUALSTYLE
  5
2F
102
{ACAD_REACTORS
330
2A
102
}
102
{ACAD_XDICTIONARY
360
3F9
102
}
330
2A
100
AcDbVisualStyle
  2
2dWireframe
 70
     4
177
     2
291
     0
 71
     0
176
     1
 72
     2
176
     1
 73
     0
176
     1
 90
        0
176
     1
 40
0.6
176
     1
 41
30.0
176
     1
 62
     5
 63
     7
421
 16777215
176
     1
 74
     1
176
     1
 91
        4
176
     1
 64
     7
176
     1
 65
   257
176
     1
 75
     1
176
     1
175
     1
176
     1
 42
1.0
176
     1
 92
        0
176
     1
 66
   257
176
     1
 43
1.0
176
     1
 76
     1
176
     1
 77
     6
176
     1
 78
     2
176
     1
 67
     7
176
     1
 79
     5
176
     1
170
     0
176
     1
171
     0
176
     1
290
     0
176
     1
 93
        1
176
     1
 44
0.0
176
     1
173
     0
176
     1
  0
VISUALSTYLE
  5
32
102
{ACAD_REACTORS
330
2A
102
}
102
{ACAD_XDICTIONARY
360
3FF
102
}
330
2A
100
AcDbVisualStyle
  2
Basic
 70
     7
177
     2
291
     1
 71
     1
176
     1
 72
     0
176
     1
 73
     1
176
     1
 90
        0
176
     1
 40
0.6
176
     1
 41
30.0
176
     1
 62
     5
 63
     7
421
 16777215
176
     1
 74
     0
176
     1
 91
        4
176
     1
 64
     7
176
     1
 65
   257
176
     1
 75
     1
176
     1
175
     1
176
     1
 42
1.0
176
     1
 92
        8
176
     1
 66
     7
176
     1
 43
1.0
176
     1
 76
     1
176
     1
 77
     6
176
     1
 78
     2
176
     1
 67
     7
176
     1
 79
     5
176
     1
170
     0
176
     1
171
     0
176
     1
290
     0
176
     1
 93
        1
176
     1
 44
0.0
176
     1
173
     0
176
     1
  0
VISUALSTYLE
  5
36
102
{ACAD_REACTORS
330
2A
102
}
102
{ACAD_XDICTIONARY
360
407
102
}
330
2A
100
AcDbVisualStyle
  2
Brighten
 70
    12
177
     2
291
     1
 71
     2
176
     1
 72
     2
176
     1
 73
     0
176
     1
 90
        0
176
     1
 40
0.6
176
     1
 41
30.0
176
     1
 62
     5
 63
     7
421
 16777215
176
     1
 74
     1
176
     1
 91
        4
176
     1
 64
     7
176
     1
 65
   257
176
     1
 75
     1
176
     1
175
     1
176
     1
 42
1.0
176
     1
 92
        8
176
     1
 66
     7
176
     1
 43
1.0
176
     1
 76
     1
176
     1
 77
     6
176
     1
 78
     2
176
     1
 67
     7
176
     1
 79
     5
176
     1
170
     0
176
     1
171
     0
176
     1
290
     0
176
     1
 93
        1
176
     1
 44
50.0
176
     1
173
     0
176
     1
  0
VISUALSTYLE
  5
3A
102
{ACAD_REACTORS
330
2A
102
}
102
{ACAD_XDICTIONARY
360
40F
102
}
330
2A
100
AcDbVisualStyle
  2
ColorChange
 70
    16
177
     2
291
     1
 71
     2
176
     1
 72
     2
176
     1
 73
     3
176
     1
 90
        0
176
     1
 40
0.6
176
     1
 41
30.0
176
     1
 62
     5
 63
     8
421
  8421504
176
     1
 74
     1
176
     1
 91
        4
176
     1
 64
     7
176
     1
 65
   257
176
     1
 75
     1
176
     1
175
     1
176
     1
 42
1.0
176
     1
 92
        8
176
     1
 66
     8
424
  8421504
176
     1
 43
1.0
176
     1
 76
     1
176
     1
 77
     6
176
     1
 78
     2
176
     1
 67
     7
176
     1
 79
     5
176
     1
170
     0
176
     1
171
     0
176
     1
290
     0
176
     1
 93
        1
176
     1
 44
0.0
176
     1
173
     0
176
     1
  0
VISUALSTYLE
  5
34
102
{ACAD_REACTORS
330
2A
102
}
102
{ACAD_XDICTIONARY
360
403
102
}
330
2A
100
AcDbVisualStyle
  2
Conceptual
 70
     9
177
     2
291
     0
 71
     3
176
     1
 72
     2
176
     1
 73
     0
176
     1
 90
        0
176
     1
 40
0.6
176
     1
 41
30.0
176
     1
 62
     5
 63
     7
421
 16777215
176
     1
 74
     2
176
     1
 91
        2
176
     1
 64
     7
176
     1
 65
   257
176
     1
 75
     1
176
     1
175
     1
176
     1
 42
179.0
176
     1
 92
        8
176
     1
 66
     7
176
     1
 43
1.0
176
     1
 76
     1
176
     1
 77
     6
176
     1
 78
     2
176
     1
 67
     7
176
     1
 79
     3
176
     1
170
     0
176
     1
171
     0
176
     1
290
     0
176
     1
 93
        1
176
     1
 44
0.0
176
     1
173
     0
176
     1
  0
VISUALSTYLE
  5
35
102
{ACAD_REACTORS
330
2A
102
}
102
{ACAD_XDICTIONARY
360
405
102
}
330
2A
100
AcDbVisualStyle
  2
Dim
 70
    11
177
     2
291
     1
 71
     2
176
     1
 72
     2
176
     1
 73
     0
176
     1
 90
        0
176
     1
 40
0.6
176
     1
 41
30.0
176
     1
 62
     5
 63
     7
421
 16777215
176
     1
 74
     1
176
     1
 91
        4
176
     1
 64
     7
176
     1
 65
   257
176
     1
 75
     1
176
     1
175
     1
176
     1
 42
1.0
176
     1
 92
        8
176
     1
 66
     7
176
     1
 43
1.0
176
     1
 76
     1
176
     1
 77
     6
176
     1
 78
     2
176
     1
 67
     7
176
     1
 79
     5
176
     1
170
     0
176
     1
171
     0
176
     1
290
     0
176
     1
 93
        1
176
     1
 44
-50.0
176
     1
173
     0
176
     1
  0
VISUALSTYLE
  5
3D
102
{ACAD_REACTORS
330
2A
102
}
102
{ACAD_XDICTIONARY
360
415
102
}
330
2A
100
AcDbVisualStyle
  2
EdgeColorOff
 70
    22
177
     2
291
     1
 71
     2
176
     0
 72
     2
176
     0
 73
     0
176
     0
 90
        0
176
     0
 40
0.6
176
     0
 41
30.0
176
     0
 62
     5
 63
     7
421
 16777215
176
     0
 74
     1
176
     0
 91
        4
176
     0
 64
     7
176
     0
 65
   257
176
     0
 75
     1
176
     0
175
     1
176
     0
 42
1.0
176
     0
 92
        8
176
     2
 66
     7
176
     0
 43
1.0
176
     0
 76
     1
176
     0
 77
     6
176
     0
 78
     2
176
     0
 67
     7
176
     0
 79
     5
176
     0
170
     0
176
     0
171
     0
176
     0
290
     0
176
     0
 93
        1
176
     0
 44
0.0
176
     0
173
     0
176
     0
  0
VISUALSTYLE
  5
39
102
{ACAD_REACTORS
330
2A
102
}
102
{ACAD_XDICTIONARY
360
40D
102
}
330
2A
100
AcDbVisualStyle
  2
Facepattern
 70
    15
177
     2
291
     1
 71
     2
176
     1
 72
     2
176
     1
 73
     0
176
     1
 90
        0
176
     1
 40
0.6
176
     1
 41
30.0
176
     1
 62
     5
 63
     7
421
 16777215
176
     1
 74
     1
176
     1
 91
        4
176
     1
 64
     7
176
     1
 65
   257
176
     1
 75
     1
176
     1
175
     1
176
     1
 42
1.0
176
     1
 92
        8
176
     1
 66
     7
176
     1
 43
1.0
176
     1
 76
     1
176
     1
 77
     6
176
     1
 78
     2
176
     1
 67
     7
176
     1
 79
     5
176
     1
170
     0
176
     1
171
     0
176
     1
290
     0
176
     1
 93
        1
176
     1
 44
0.0
176
     1
173
     0
176
     1
  0
VISUALSTYLE
  5
2B
102
{ACAD_REACTORS
330
2A
102
}
102
{ACAD_XDICTIONARY
360
3F1
102
}
330
2A
100
AcDbVisualStyle
  2
Flat
 70
     0
177
     2
291
     1
 71
     2
176
     1
 72
     1
176
     1
 73
     1
176
     1
 90
        2
176
     1
 40
0.6
176
     1
 41
30.0
176
     1
 62
     5
 63
     7
421
 16777215
176
     1
 74
     0
176
     1
 91
        0
176
     1
 64
     7
176
     1
 65
   257
176
     1
 75
     1
176
     1
175
     1
176
     1
 42
1.0
176
     1
 92
        8
176
     1
 66
     7
176
     1
 43
1.0
176
     1
 76
     1
176
     1
 77
     6
176
     1
 78
     2
176
     1
 67
     7
176
     1
 79
     5
176
     1
170
     0
176
     1
171
     0
176
     1
290
     0
176
     1
 93
       13
176
     1
 44
0.0
176
     1
173
     0
176
     1
  0
VISUALSTYLE
  5
2C
102
{ACAD_REACTORS
330
2A
102
}
102
{ACAD_XDICTIONARY
360
3F3
102
}
330
2A
100
AcDbVisualStyle
  2
FlatWithEdges
 70
     1
177
     2
291
     1
 71
     2
176
     1
 72
     1
176
     1
 73
     1
176
     1
 90
        2
176
     1
 40
0.6
176
     1
 41
30.0
176
     1
 62
     5
 63
     7
421
 16777215
176
     1
 74
     1
176
     1
 91
        0
176
     1
 64
     7
176
     1
 65
   257
176
     1
 75
     1
176
     1
175
     1
176
     1
 42
1.0
176
     1
 92
        0
176
     1
 66
   257
176
     1
 43
1.0
176
     1
 76
     1
176
     1
 77
     6
176
     1
 78
     2
176
     1
 67
     7
176
     1
 79
     5
176
     1
170
     0
176
     1
171
     0
176
     1
290
     0
176
     1
 93
       13
176
     1
 44
0.0
176
     1
173
     0
176
     1
  0
VISUALSTYLE
  5
2D
102
{ACAD_REACTORS
330
2A
102
}
102
{ACAD_XDICTIONARY
360
3F5
102
}
330
2A
100
AcDbVisualStyle
  2
Gouraud
 70
     2
177
     2
291
     1
 71
     2
176
     1
 72
     2
176
     1
 73
     1
176
     1
 90
        2
176
     1
 40
0.6
176
     1
 41
30.0
176
     1
 62
     5
 63
     7
421
 16777215
176
     1
 74
     0
176
     1
 91
        0
176
     1
 64
     7
176
     1
 65
   257
176
     1
 75
     1
176
     1
175
     1
176
     1
 42
1.0
176
     1
 92
        0
176
     1
 66
     7
176
     1
 43
1.0
176
     1
 76
     1
176
     1
 77
     6
176
     1
 78
     2
176
     1
 67
     7
176
     1
 79
     5
176
     1
170
     0
176
     1
171
     0
176
     1
290
     0
176
     1
 93
       13
176
     1
 44
0.0
176
     1
173
     0
176
     1
  0
VISUALSTYLE
  5
2E
102
{ACAD_REACTORS
330
2A
102
}
102
{ACAD_XDICTIONARY
360
3F7
102
}
330
2A
100
AcDbVisualStyle
  2
GouraudWithEdges
 70
     3
177
     2
291
     1
 71
     2
176
     1
 72
     2
176
     1
 73
     1
176
     1
 90
        2
176
     1
 40
0.6
176
     1
 41
30.0
176
     1
 62
     5
 63
     7
421
 16777215
176
     1
 74
     1
176
     1
 91
        0
176
     1
 64
     7
176
     1
 65
   257
176
     1
 75
     1
176
     1
175
     1
176
     1
 42
1.0
176
     1
 92
        0
176
     1
 66
   257
176
     1
 43
1.0
176
     1
 76
     1
176
     1
 77
     6
176
     1
 78
     2
176
     1
 67
     7
176
     1
 79
     5
176
     1
170
     0
176
     1
171
     0
176
     1
290
     0
176
     1
 93
       13
176
     1
 44
0.0
176
     1
173
     0
176
     1
  0
VISUALSTYLE
  5
31
102
{ACAD_REACTORS
330
2A
102
}
102
{ACAD_XDICTIONARY
360
3FD
102
}
330
2A
100
AcDbVisualStyle
  2
Hidden
 70
     6
177
     2
291
     0
 71
     1
176
     1
 72
     2
176
     1
 73
     2
176
     1
 90
        0
176
     1
 40
0.6
176
     1
 41
30.0
176
     1
 62
     5
 63
     7
421
 16777215
176
     1
 74
     2
176
     1
 91
        2
176
     1
 64
     7
176
     1
 65
   257
176
     1
 75
     2
176
     1
175
     1
176
     1
 42
40.0
176
     1
 92
        0
176
     1
 66
   257
176
     1
 43
1.0
176
     1
 76
     1
176
     1
 77
     6
176
     1
 78
     2
176
     1
 67
     7
176
     1
 79
     3
176
     1
170
     0
176
     1
171
     0
176
     1
290
     0
176
     1
 93
        1
176
     1
 44
0.0
176
     1
173
     0
176
     1
  0
VISUALSTYLE
  5
3B
102
{ACAD_REACTORS
330
2A
102
}
102
{ACAD_XDICTIONARY
360
411
102
}
330
2A
100
AcDbVisualStyle
  2
JitterOff
 70
    20
177
     2
291
     1
 71
     2
176
     0
 72
     2
176
     0
 73
     0
176
     0
 90
        0
176
     0
 40
0.6
176
     0
 41
30.0
176
     0
 62
     5
 63
     7
421
 16777215
176
     0
 74
     1
176
     0
 91
        4
176
     0
 64
     7
176
     0
 65
   257
176
     0
 75
     1
176
     0
175
     1
176
     0
 42
1.0
176
     0
 92
       10
176
     2
 66
     7
176
     0
 43
1.0
176
     0
 76
     1
176
     0
 77
     6
176
     0
 78
     2
176
     0
 67
     7
176
     0
 79
     5
176
     0
170
     0
176
     0
171
     0
176
     0
290
     0
176
     0
 93
        1
176
     0
 44
0.0
176
     0
173
     0
176
     0
  0
VISUALSTYLE
  5
38
102
{ACAD_REACTORS
330
2A
102
}
102
{ACAD_XDICTIONARY
360
40B
102
}
330
2A
100
AcDbVisualStyle
  2
Linepattern
 70
    14
177
     2
291
     1
 71
     2
176
     1
 72
     2
176
     1
 73
     0
176
     1
 90
        0
176
     1
 40
0.6
176
     1
 41
30.0
176
     1
 62
     5
 63
     7
421
 16777215
176
     1
 74
     1
176
     1
 91
        4
176
     1
 64
     7
176
     1
 65
   257
176
     1
 75
     7
176
     1
175
     7
176
     1
 42
1.0
176
     1
 92
        8
176
     1
 66
     7
176
     1
 43
1.0
176
     1
 76
     1
176
     1
 77
     6
176
     1
 78
     2
176
     1
 67
     7
176
     1
 79
     5
176
     1
170
     0
176
     1
171
     0
176
     1
290
     0
176
     1
 93
        1
176
     1
 44
0.0
176
     1
173
     0
176
     1
  0
VISUALSTYLE
  5
3C
102
{ACAD_REACTORS
330
2A
102
}
102
{ACAD_XDICTIONARY
360
413
102
}
330
2A
100
AcDbVisualStyle
  2
OverhangOff
 70
    21
177
     2
291
     1
 71
     2
176
     0
 72
     2
176
     0
 73
     0
176
     0
 90
        0
176
     0
 40
0.6
176
     0
 41
30.0
176
     0
 62
     5
 63
     7
421
 16777215
176
     0
 74
     1
176
     0
 91
        4
176
     0
 64
     7
176
     0
 65
   257
176
     0
 75
     1
176
     0
175
     1
176
     0
 42
1.0
176
     0
 92
        9
176
     2
 66
     7
176
     0
 43
1.0
176
     0
 76
     1
176
     0
 77
     6
176
     0
 78
     2
176
     0
 67
     7
176
     0
 79
     5
176
     0
170
     0
176
     0
171
     0
176
     0
290
     0
176
     0
 93
        1
176
     0
 44
0.0
176
     0
173
     0
176
     0
  0
VISUALSTYLE
  5
33
102
{ACAD_REACTORS
330
2A
102
}
102
{ACAD_XDICTIONARY
360
401
102
}
330
2A
100
AcDbVisualStyle
  2
Realistic
 70
     8
177
     2
291
     0
 71
     2
176
     1
 72
     3
176
     1
 73
     0
176
     1
 90
        2
176
     1
 40
0.6
176
     1
 41
30.0
176
     1
 62
     5
 63
     7
421
 16777215
176
     1
 74
     0
176
     1
 91
        0
176
     1
 64
     7
176
     1
 65
   257
176
     1
 75
     1
176
     1
175
     1
176
     1
 42
1.0
176
     1
 92
        8
176
     1
 66
   257
176
     1
 43
1.0
176
     1
 76
     1
176
     1
 77
     6
176
     1
 78
     2
176
     1
 67
     7
176
     1
 79
     3
176
     1
170
     0
176
     1
171
     0
176
     1
290
     0
176
     1
 93
       13
176
     1
 44
0.0
176
     1
173
     0
176
     1
  0
VISUALSTYLE
  5
42
102
{ACAD_REACTORS
330
2A
102
}
102
{ACAD_XDICTIONARY
360
41F
102
}
330
2A
100
AcDbVisualStyle
  2
Shaded
 70
    27
177
     2
291
     0
 71
     2
176
     1
 72
     2
176
     1
 73
     1
176
     1
 90
        2
176
     1
 40
0.6
176
     1
 41
30.0
176
     1
 62
     5
 63
     7
421
 16777215
176
     1
 74
     0
176
     1
 91
        4
176
     1
 64
     7
176
     1
 65
   257
176
     1
 75
     1
176
     1
175
     1
176
     1
 42
1.0
176
     1
 92
        8
176
     1
 66
   257
176
     1
 43
1.0
176
     1
 76
     1
176
     1
 77
     6
176
     1
 78
     2
176
     1
 67
     8
425
  7895160
176
     1
 79
     3
176
     1
170
     0
176
     1
171
     0
176
     1
290
     0
176
     1
 93
        5
176
     1
 44
0.0
176
     1
173
     0
176
     1
  0
VISUALSTYLE
  5
41
102
{ACAD_REACTORS
330
2A
102
}
102
{ACAD_XDICTIONARY
360
41D
102
}
330
2A
100
AcDbVisualStyle
  2
Shaded with edges
 70
    26
177
     2
291
     0
 71
     2
176
     1
 72
     2
176
     1
 73
     1
176
     1
 90
        2
176
     1
 40
0.6
176
     1
 41
30.0
176
     1
 62
     5
 63
     7
421
 16777215
176
     1
 74
     1
176
     1
 91
       10
176
     1
 64
     7
176
     1
 65
   257
176
     1
 75
     2
176
     1
175
     1
176
     1
 42
1.0
176
     1
 92
        8
176
     1
 66
   257
176
     1
 43
1.0
176
     1
 76
     1
176
     1
 77
     6
176
     1
 78
     2
176
     1
 67
     7
176
     1
 79
     3
176
     1
170
     0
176
     1
171
     0
176
     1
290
     0
176
     1
 93
        5
176
     1
 44
0.0
176
     1
173
     0
176
     1
  0
VISUALSTYLE
  5
3E
102
{ACAD_REACTORS
330
2A
102
}
102
{ACAD_XDICTIONARY
360
417
102
}
330
2A
100
AcDbVisualStyle
  2
Shades of Gray
 70
    23
177
     2
291
     0
 71
     2
176
     1
 72
     2
176
     1
 73
     3
176
     1
 90
        0
176
     1
 40
0.6
176
     1
 41
30.0
176
     1
 62
     5
 63
     7
421
 16777215
176
     1
 74
     2
176
     1
 91
        2
176
     1
 64
     7
176
     1
 65
     7
176
     1
 75
     1
176
     1
175
     1
176
     1
 42
40.0
176
     1
 92
        8
176
     1
 66
     7
176
     1
 43
1.0
176
     1
 76
     1
176
     1
 77
     6
176
     1
 78
     2
176
     1
 67
     7
176
     1
 79
     3
176
     1
170
     0
176
     1
171
     0
176
     1
290
     0
176
     1
 93
        1
176
     1
 44
0.0
176
     1
173
     0
176
     1
  0
VISUALSTYLE
  5
3F
102
{ACAD_REACTORS
330
2A
102
}
102
{ACAD_XDICTIONARY
360
419
102
}
330
2A
100
AcDbVisualStyle
  2
Sketchy
 70
    24
177
     2
291
     0
 71
     1
176
     1
 72
     2
176
     1
 73
     2
176
     1
 90
        0
176
     1
 40
0.6
176
     1
 41
30.0
176
     1
 62
     5
 63
     7
421
 16777215
176
     1
 74
     2
176
     1
 91
        2
176
     1
 64
     7
176
     1
 65
     7
176
     1
 75
     1
176
     1
175
     1
176
     1
 42
40.0
176
     1
 92
       11
176
     1
 66
     7
176
     1
 43
1.0
176
     1
 76
     1
176
     1
 77
     6
176
     1
 78
     2
176
     1
 67
     7
176
     1
 79
     6
176
     1
170
     0
176
     1
171
     0
176
     1
290
     0
176
     1
 93
        1
176
     1
 44
0.0
176
     1
173
     0
176
     1
  0
VISUALSTYLE
  5
37
102
{ACAD_REACTORS
330
2A
102
}
102
{ACAD_XDICTIONARY
360
409
102
}
330
2A
100
AcDbVisualStyle
  2
Thicken
 70
    13
177
     2
291
     1
 71
     2
176
     1
 72
     2
176
     1
 73
     0
176
     1
 90
        0
176
     1
 40
0.6
176
     1
 41
30.0
176
     1
 62
     5
 63
     7
421
 16777215
176
     1
 74
     1
176
     1
 91
        4
176
     1
 64
     7
176
     1
 65
   257
176
     1
 75
     1
176
     1
175
     1
176
     1
 42
1.0
176
     1
 92
       12
176
     1
 66
     7
176
     1
 43
1.0
176
     1
 76
     1
176
     1
 77
     6
176
     1
 78
     2
176
     1
 67
     7
176
     1
 79
     5
176
     1
170
     0
176
     1
171
     0
176
     1
290
     0
176
     1
 93
        1
176
     1
 44
0.0
176
     1
173
     0
176
     1
  0
VISUALSTYLE
  5
30
102
{ACAD_REACTORS
330
2A
102
}
102
{ACAD_XDICTIONARY
360
3FB
102
}
330
2A
100
AcDbVisualStyle
  2
Wireframe
 70
     5
177
     2
291
     0
 71
     0
176
     1
 72
     2
176
     1
 73
     0
176
     1
 90
        0
176
     1
 40
0.6
176
     1
 41
30.0
176
     1
 62
     5
 63
     7
421
 16777215
176
     1
 74
     1
176
     1
 91
        4
176
     1
 64
     7
176
     1
 65
   257
176
     1
 75
     1
176
     1
175
     1
176
     1
 42
1.0
176
     1
 92
        0
176
     1
 66
   257
176
     1
 43
1.0
176
     1
 76
     1
176
     1
 77
     6
176
     1
 78
     2
176
     1
 67
     7
176
     1
 79
     3
176
     1
170
     0
176
     1
171
     0
176
     1
290
     0
176
     1
 93
        1
176
     1
 44
0.0
176
     1
173
     0
176
     1
  0
VISUALSTYLE
  5
40
102
{ACAD_REACTORS
330
2A
102
}
102
{ACAD_XDICTIONARY
360
41B
102
}
330
2A
100
AcDbVisualStyle
  2
X-Ray
 70
    25
177
     2
291
     0
 71
     2
176
     1
 72
     2
176
     1
 73
     1
176
     1
 90
        1
176
     1
 40
0.5
176
     1
 41
30.0
176
     1
 62
     5
 63
     7
421
 16777215
176
     1
 74
     1
176
     1
 91
        0
176
     1
 64
     7
176
     1
 65
   257
176
     1
 75
     1
176
     1
175
     1
176
     1
 42
1.0
176
     1
 92
        8
176
     1
 66
     7
176
     1
 43
1.0
176
     1
 76
     1
176
     1
 77
     6
176
     1
 78
     2
176
     1
 67
     7
176
     1
 79
     3
176
     1
170
     0
176
     1
171
     0
176
     1
290
     0
176
     1
 93
       13
176
     1
 44
0.0
176
     1
173
     0
176
     1
  0
DICTIONARYVAR
  5
3F0
102
{ACAD_REACTORS
330
3EF
102
}
330
3EF
100
DictionaryVariables
280
     0
  1
1:1
  0
DICTIONARYVAR
  5
428
102
{ACAD_REACTORS
330
3EF
102
}
330
3EF
100
DictionaryVariables
280
     0
  1
3.500000
  0
DICTIONARYVAR
  5
429
102
{ACAD_REACTORS
330
3EF
102
}
330
3EF
100
DictionaryVariables
280
     0
  1
acadiso.lin
  0
DICTIONARYVAR
  5
425
102
{ACAD_REACTORS
330
3EF
102
}
330
3EF
100
DictionaryVariables
280
     0
  1
Standard
  0
DICTIONARYVAR
  5
424
102
{ACAD_REACTORS
330
3EF
102
}
330
3EF
100
DictionaryVariables
280
     0
  1
Standard
  0
DICTIONARY
  5
421
330
6A
100
AcDbDictionary
280
     1
281
     1
  3
ACAD_ROUNDTRIP_2008_TABLESTYLE_CELLSTYLEMAP
360
422
  0
DICTIONARY
  5
3F9
330
2F
100
AcDbDictionary
280
     1
281
     1
  3
ACAD_XREC_ROUNDTRIP
360
3FA
  0
DICTIONARY
  5
3FF
330
32
100
AcDbDictionary
280
     1
281
     1
  3
ACAD_XREC_ROUNDTRIP
360
400
  0
DICTIONARY
  5
407
330
36
100
AcDbDictionary
280
     1
281
     1
  3
ACAD_XREC_ROUNDTRIP
360
408
  0
DICTIONARY
  5
40F
330
3A
100
AcDbDictionary
280
     1
281
     1
  3
ACAD_XREC_ROUNDTRIP
360
410
  0
DICTIONARY
  5
403
330
34
100
AcDbDictionary
280
     1
281
     1
  3
ACAD_XREC_ROUNDTRIP
360
404
  0
DICTIONARY
  5
405
330
35
100
AcDbDictionary
280
     1
281
     1
  3
ACAD_XREC_ROUNDTRIP
360
406
  0
DICTIONARY
  5
415
330
3D
100
AcDbDictionary
280
     1
281
     1
  3
ACAD_XREC_ROUNDTRIP
360
416
  0
DICTIONARY
  5
40D
330
39
100
AcDbDictionary
280
     1
281
     1
  3
ACAD_XREC_ROUNDTRIP
360
40E
  0
DICTIONARY
  5
3F1
330
2B
100
AcDbDictionary
280
     1
281
     1
  3
ACAD_XREC_ROUNDTRIP
360
3F2
  0
DICTIONARY
  5
3F3
330
2C
100
AcDbDictionary
280
     1
281
     1
  3
ACAD_XREC_ROUNDTRIP
360
3F4
  0
DICTIONARY
  5
3F5
330
2D
100
AcDbDictionary
280
     1
281
     1
  3
ACAD_XREC_ROUNDTRIP
360
3F6
  0
DICTIONARY
  5
3F7
330
2E
100
AcDbDictionary
280
     1
281
     1
  3
ACAD_XREC_ROUNDTRIP
360
3F8
  0
DICTIONARY
  5
3FD
330
31
100
AcDbDictionary
280
     1
281
     1
  3
ACAD_XREC_ROUNDTRIP
360
3FE
  0
DICTIONARY
  5
411
330
3B
100
AcDbDictionary
280
     1
281
     1
  3
ACAD_XREC_ROUNDTRIP
360
412
  0
DICTIONARY
  5
40B
330
38
100
AcDbDictionary
280
     1
281
     1
  3
ACAD_XREC_ROUNDTRIP
360
40C
  0
DICTIONARY
  5
413
330
3C
100
AcDbDictionary
280
     1
281
     1
  3
ACAD_XREC_ROUNDTRIP
360
414
  0
DICTIONARY
  5
401
330
33
100
AcDbDictionary
280
     1
281
     1
  3
ACAD_XREC_ROUNDTRIP
360
402
  0
DICTIONARY
  5
41F
330
42
100
AcDbDictionary
280
     1
281
     1
  3
ACAD_XREC_ROUNDTRIP
360
420
  0
DICTIONARY
  5
41D
330
41
100
AcDbDictionary
280
     1
281
     1
  3
ACAD_XREC_ROUNDTRIP
360
41E
  0
DICTIONARY
  5
417
330
3E
100
AcDbDictionary
280
     1
281
     1
  3
ACAD_XREC_ROUNDTRIP
360
418
  0
DICTIONARY
  5
419
330
3F
100
AcDbDictionary
280
     1
281
     1
  3
ACAD_XREC_ROUNDTRIP
360
41A
  0
DICTIONARY
  5
409
330
37
100
AcDbDictionary
280
     1
281
     1
  3
ACAD_XREC_ROUNDTRIP
360
40A
  0
DICTIONARY
  5
3FB
330
30
100
AcDbDictionary
280
     1
281
     1
  3
ACAD_XREC_ROUNDTRIP
360
3FC
  0
DICTIONARY
  5
41B
330
40
100
AcDbDictionary
280
     1
281
     1
  3
ACAD_XREC_ROUNDTRIP
360
41C
  0
CELLSTYLEMAP
  5
422
102
{ACAD_REACTORS
330
421
102
}
330
421
100
AcDbCellStyleMap
 90
        3
300
CELLSTYLE
  1
TABLEFORMAT_BEGIN
 90
        5
170
     1
 91
        0
 92
    32768
 62
   257
 93
        1
300
CONTENTFORMAT
  1
CONTENTFORMAT_BEGIN
 90
        0
 91
        0
 92
        4
 93
        0
300

 40
0.0
140
1.0
 94
        5
 62
     0
340
11
144
6.0
309
CONTENTFORMAT_END
171
     1
301
MARGIN
  1
CELLMARGIN_BEGIN
 40
1.5
 40
1.5
 40
1.5
 40
1.5
 40
1.5
 40
1.5
309
CELLMARGIN_END
 94
        6
 95
        1
302
GRIDFORMAT
  1
GRIDFORMAT_BEGIN
 90
        0
 91
        1
 62
     0
 92
       -2
340
14
 93
        0
 40
0.045
309
GRIDFORMAT_END
 95
        2
302
GRIDFORMAT
  1
GRIDFORMAT_BEGIN
 90
        0
 91
        1
 62
     0
 92
       -2
340
14
 93
        0
 40
0.045
309
GRIDFORMAT_END
 95
        4
302
GRIDFORMAT
  1
GRIDFORMAT_BEGIN
 90
        0
 91
        1
 62
     0
 92
       -2
340
14
 93
        0
 40
0.045
309
GRIDFORMAT_END
 95
        8
302
GRIDFORMAT
  1
GRIDFORMAT_BEGIN
 90
        0
 91
        1
 62
     0
 92
       -2
340
14
 93
        0
 40
0.045
309
GRIDFORMAT_END
 95
       16
302
GRIDFORMAT
  1
GRIDFORMAT_BEGIN
 90
        0
 91
        1
 62
     0
 92
       -2
340
14
 93
        0
 40
0.045
309
GRIDFORMAT_END
 95
       32
302
GRIDFORMAT
  1
GRIDFORMAT_BEGIN
 90
        0
 91
        1
 62
     0
 92
       -2
340
14
 93
        0
 40
0.045
309
GRIDFORMAT_END
309
TABLEFORMAT_END
  1
CELLSTYLE_BEGIN
 90
        1
 91
        1
300
_TITLE
309
CELLSTYLE_END
300
CELLSTYLE
  1
TABLEFORMAT_BEGIN
 90
        5
170
     1
 91
        0
 92
        0
 62
   257
 93
        1
300
CONTENTFORMAT
  1
CONTENTFORMAT_BEGIN
 90
        0
 91
        0
 92
        4
 93
        0
300

 40
0.0
140
1.0
 94
        5
 62
     0
340
11
144
4.5
309
CONTENTFORMAT_END
171
     1
301
MARGIN
  1
CELLMARGIN_BEGIN
 40
1.5
 40
1.5
 40
1.5
 40
1.5
 40
1.5
 40
1.5
309
CELLMARGIN_END
 94
        6
 95
        1
302
GRIDFORMAT
  1
GRIDFORMAT_BEGIN
 90
        0
 91
        1
 62
     0
 92
       -2
340
14
 93
        0
 40
0.045
309
GRIDFORMAT_END
 95
        2
302
GRIDFORMAT
  1
GRIDFORMAT_BEGIN
 90
        0
 91
        1
 62
     0
 92
       -2
340
14
 93
        0
 40
0.045
309
GRIDFORMAT_END
 95
        4
302
GRIDFORMAT
  1
GRIDFORMAT_BEGIN
 90
        0
 91
        1
 62
     0
 92
       -2
340
14
 93
        0
 40
0.045
309
GRIDFORMAT_END
 95
        8
302
GRIDFORMAT
  1
GRIDFORMAT_BEGIN
 90
        0
 91
        1
 62
     0
 92
       -2
340
14
 93
        0
 40
0.045
309
GRIDFORMAT_END
 95
       16
302
GRIDFORMAT
  1
GRIDFORMAT_BEGIN
 90
        0
 91
        1
 62
     0
 92
       -2
340
14
 93
        0
 40
0.045
309
GRIDFORMAT_END
 95
       32
302
GRIDFORMAT
  1
GRIDFORMAT_BEGIN
 90
        0
 91
        1
 62
     0
 92
       -2
340
14
 93
        0
 40
0.045
309
GRIDFORMAT_END
309
TABLEFORMAT_END
  1
CELLSTYLE_BEGIN
 90
        2
 91
        1
300
_HEADER
309
CELLSTYLE_END
300
CELLSTYLE
  1
TABLEFORMAT_BEGIN
 90
        5
170
     1
 91
        0
 92
        0
 62
   257
 93
        1
300
CONTENTFORMAT
  1
CONTENTFORMAT_BEGIN
 90
        0
 91
        0
 92
        4
 93
        0
300

 40
0.0
140
1.0
 94
        2
 62
     0
340
11
144
4.5
309
CONTENTFORMAT_END
171
     1
301
MARGIN
  1
CELLMARGIN_BEGIN
 40
1.5
 40
1.5
 40
1.5
 40
1.5
 40
1.5
 40
1.5
309
CELLMARGIN_END
 94
        6
 95
        1
302
GRIDFORMAT
  1
GRIDFORMAT_BEGIN
 90
        0
 91
        1
 62
     0
 92
       -2
340
14
 93
        0
 40
0.045
309
GRIDFORMAT_END
 95
        2
302
GRIDFORMAT
  1
GRIDFORMAT_BEGIN
 90
        0
 91
        1
 62
     0
 92
       -2
340
14
 93
        0
 40
0.045
309
GRIDFORMAT_END
 95
        4
302
GRIDFORMAT
  1
GRIDFORMAT_BEGIN
 90
        0
 91
        1
 62
     0
 92
       -2
340
14
 93
        0
 40
0.045
309
GRIDFORMAT_END
 95
        8
302
GRIDFORMAT
  1
GRIDFORMAT_BEGIN
 90
        0
 91
        1
 62
     0
 92
       -2
340
14
 93
        0
 40
0.045
309
GRIDFORMAT_END
 95
       16
302
GRIDFORMAT
  1
GRIDFORMAT_BEGIN
 90
        0
 91
        1
 62
     0
 92
       -2
340
14
 93
        0
 40
0.045
309
GRIDFORMAT_END
 95
       32
302
GRIDFORMAT
  1
GRIDFORMAT_BEGIN
 90
        0
 91
        1
 62
     0
 92
       -2
340
14
 93
        0
 40
0.045
309
GRIDFORMAT_END
309
TABLEFORMAT_END
  1
CELLSTYLE_BEGIN
 90
        3
 91
        2
300
_DATA
309
CELLSTYLE_END
  0
XRECORD
  5
3FA
102
{ACAD_REACTORS
330
3F9
102
}
330
3F9
100
AcDbXrecord
280
     1
102
RTVSPost2010Prop28
280
     1
102
RTVSPost2010PropOp28
 70
     1
102
RTVSPost2010Prop29
280
     1
102
RTVSPost2010PropOp29
 70
     1
102
RTVSPost2010Prop30
280
     0
102
RTVSPost2010PropOp30
 70
     1
102
RTVSPost2010Prop31
280
     0
102
RTVSPost2010PropOp31
 70
     1
102
RTVSPost2010Prop32
280
     0
102
RTVSPost2010PropOp32
 70
     1
102
RTVSPost2010Prop33
280
     0
102
RTVSPost2010PropOp33
 70
     1
102
RTVSPost2010Prop34
280
     0
102
RTVSPost2010PropOp34
 70
     1
102
RTVSPost2010Prop35
280
     0
102
RTVSPost2010PropOp35
 70
     1
102
RTVSPost2010Prop36
280
     0
102
RTVSPost2010PropOp36
 70
     1
102
RTVSPost2010Prop37
 90
       50
102
RTVSPost2010PropOp37
 70
     1
102
RTVSPost2010Prop38
140
0.0
102
RTVSPost2010PropOp38
 70
     1
102
RTVSPost2010Prop39
140
1.0
102
RTVSPost2010PropOp39
 70
     1
102
RTVSPost2010Prop40
 90
        0
102
RTVSPost2010PropOp40
 70
     1
102
RTVSPost2010Prop41ColorIndex
 90
       18
102
RTVSPost2010Prop41ColorRGB
 90
        0
102
RTVSPost2010PropOp41
 70
     1
102
RTVSPost2010Prop42
 90
       50
102
RTVSPost2010PropOp42
 70
     1
102
RTVSPost2010Prop43
 90
        3
102
RTVSPost2010PropOp43
 70
     1
102
RTVSPost2010Prop44ColorIndex
 90
        5
102
RTVSPost2010Prop44ColorRGB
 90
      255
102
RTVSPost2010PropOp44
 70
     1
102
RTVSPost2010Prop45
280
     0
102
RTVSPost2010PropOp45
 70
     1
102
RTVSPost2010Prop46
 90
       50
102
RTVSPost2010PropOp46
 70
     1
102
RTVSPost2010Prop47
 90
       50
102
RTVSPost2010PropOp47
 70
     1
102
RTVSPost2010Prop48
 90
       50
102
RTVSPost2010PropOp48
 70
     1
102
RTVSPost2010Prop49
280
     0
102
RTVSPost2010PropOp49
 70
     1
102
RTVSPost2010Prop50
 90
       50
102
RTVSPost2010PropOp50
 70
     1
102
RTVSPost2010Prop51ColorIndex
 90
      256
102
RTVSPost2010Prop51ColorRGB
 90
-16777216
102
RTVSPost2010PropOp51
 70
     0
102
RTVSPost2010Prop52
140
1.0
102
RTVSPost2010PropOp52
 70
     0
102
RTVSPost2010Prop53
 90
        2
102
RTVSPost2010PropOp53
 70
     1
102
RTVSPost2010Prop54
  1
strokes_ogs.tif
102
RTVSPost2010PropOp54
 70
     1
102
RTVSPost2010Prop55
280
     0
102
RTVSPost2010PropOp55
 70
     1
102
RTVSPost2010Prop56
140
1.0
102
RTVSPost2010PropOp56
 70
     1
102
RTVSPost2010Prop57
140
1.0
102
RTVSPost2010PropOp57
 70
     1
  0
XRECORD
  5
400
102
{ACAD_REACTORS
330
3FF
102
}
330
3FF
100
AcDbXrecord
280
     1
102
RTVSPost2010Prop28
280
     0
102
RTVSPost2010PropOp28
 70
     1
102
RTVSPost2010Prop29
280
     1
102
RTVSPost2010PropOp29
 70
     1
102
RTVSPost2010Prop30
280
     1
102
RTVSPost2010PropOp30
 70
     1
102
RTVSPost2010Prop31
280
     0
102
RTVSPost2010PropOp31
 70
     1
102
RTVSPost2010Prop32
280
     0
102
RTVSPost2010PropOp32
 70
     1
102
RTVSPost2010Prop33
280
     0
102
RTVSPost2010PropOp33
 70
     1
102
RTVSPost2010Prop34
280
     0
102
RTVSPost2010PropOp34
 70
     1
102
RTVSPost2010Prop35
280
     0
102
RTVSPost2010PropOp35
 70
     1
102
RTVSPost2010Prop36
280
     0
102
RTVSPost2010PropOp36
 70
     1
102
RTVSPost2010Prop37
 90
       50
102
RTVSPost2010PropOp37
 70
     1
102
RTVSPost2010Prop38
140
0.0
102
RTVSPost2010PropOp38
 70
     1
102
RTVSPost2010Prop39
140
1.0
102
RTVSPost2010PropOp39
 70
     1
102
RTVSPost2010Prop40
 90
        0
102
RTVSPost2010PropOp40
 70
     1
102
RTVSPost2010Prop41ColorIndex
 90
       18
102
RTVSPost2010Prop41ColorRGB
 90
        0
102
RTVSPost2010PropOp41
 70
     1
102
RTVSPost2010Prop42
 90
       50
102
RTVSPost2010PropOp42
 70
     1
102
RTVSPost2010Prop43
 90
        3
102
RTVSPost2010PropOp43
 70
     1
102
RTVSPost2010Prop44ColorIndex
 90
        5
102
RTVSPost2010Prop44ColorRGB
 90
      255
102
RTVSPost2010PropOp44
 70
     1
102
RTVSPost2010Prop45
280
     0
102
RTVSPost2010PropOp45
 70
     1
102
RTVSPost2010Prop46
 90
       50
102
RTVSPost2010PropOp46
 70
     1
102
RTVSPost2010Prop47
 90
       50
102
RTVSPost2010PropOp47
 70
     1
102
RTVSPost2010Prop48
 90
       50
102
RTVSPost2010PropOp48
 70
     1
102
RTVSPost2010Prop49
280
     0
102
RTVSPost2010PropOp49
 70
     1
102
RTVSPost2010Prop50
 90
       50
102
RTVSPost2010PropOp50
 70
     1
102
RTVSPost2010Prop51ColorIndex
 90
      256
102
RTVSPost2010Prop51ColorRGB
 90
-16777216
102
RTVSPost2010PropOp51
 70
     0
102
RTVSPost2010Prop52
140
1.0
102
RTVSPost2010PropOp52
 70
     0
102
RTVSPost2010Prop53
 90
        2
102
RTVSPost2010PropOp53
 70
     1
102
RTVSPost2010Prop54
  1
strokes_ogs.tif
102
RTVSPost2010PropOp54
 70
     1
102
RTVSPost2010Prop55
280
     0
102
RTVSPost2010PropOp55
 70
     1
102
RTVSPost2010Prop56
140
1.0
102
RTVSPost2010PropOp56
 70
     1
102
RTVSPost2010Prop57
140
1.0
102
RTVSPost2010PropOp57
 70
     1
  0
XRECORD
  5
408
102
{ACAD_REACTORS
330
407
102
}
330
407
100
AcDbXrecord
280
     1
102
RTVSPost2010Prop28
280
     0
102
RTVSPost2010PropOp28
 70
     1
102
RTVSPost2010Prop29
280
     1
102
RTVSPost2010PropOp29
 70
     1
102
RTVSPost2010Prop30
280
     1
102
RTVSPost2010PropOp30
 70
     1
102
RTVSPost2010Prop31
280
     0
102
RTVSPost2010PropOp31
 70
     1
102
RTVSPost2010Prop32
280
     0
102
RTVSPost2010PropOp32
 70
     1
102
RTVSPost2010Prop33
280
     0
102
RTVSPost2010PropOp33
 70
     1
102
RTVSPost2010Prop34
280
     0
102
RTVSPost2010PropOp34
 70
     1
102
RTVSPost2010Prop35
280
     0
102
RTVSPost2010PropOp35
 70
     1
102
RTVSPost2010Prop36
280
     0
102
RTVSPost2010PropOp36
 70
     1
102
RTVSPost2010Prop37
 90
       50
102
RTVSPost2010PropOp37
 70
     1
102
RTVSPost2010Prop38
140
0.0
102
RTVSPost2010PropOp38
 70
     1
102
RTVSPost2010Prop39
140
1.0
102
RTVSPost2010PropOp39
 70
     1
102
RTVSPost2010Prop40
 90
        0
102
RTVSPost2010PropOp40
 70
     1
102
RTVSPost2010Prop41ColorIndex
 90
       18
102
RTVSPost2010Prop41ColorRGB
 90
        0
102
RTVSPost2010PropOp41
 70
     1
102
RTVSPost2010Prop42
 90
       50
102
RTVSPost2010PropOp42
 70
     1
102
RTVSPost2010Prop43
 90
        3
102
RTVSPost2010PropOp43
 70
     1
102
RTVSPost2010Prop44ColorIndex
 90
        5
102
RTVSPost2010Prop44ColorRGB
 90
      255
102
RTVSPost2010PropOp44
 70
     1
102
RTVSPost2010Prop45
280
     0
102
RTVSPost2010PropOp45
 70
     1
102
RTVSPost2010Prop46
 90
       50
102
RTVSPost2010PropOp46
 70
     1
102
RTVSPost2010Prop47
 90
       50
102
RTVSPost2010PropOp47
 70
     1
102
RTVSPost2010Prop48
 90
       50
102
RTVSPost2010PropOp48
 70
     1
102
RTVSPost2010Prop49
280
     0
102
RTVSPost2010PropOp49
 70
     1
102
RTVSPost2010Prop50
 90
       50
102
RTVSPost2010PropOp50
 70
     1
102
RTVSPost2010Prop51ColorIndex
 90
      256
102
RTVSPost2010Prop51ColorRGB
 90
-16777216
102
RTVSPost2010PropOp51
 70
     0
102
RTVSPost2010Prop52
140
1.0
102
RTVSPost2010PropOp52
 70
     0
102
RTVSPost2010Prop53
 90
        2
102
RTVSPost2010PropOp53
 70
     1
102
RTVSPost2010Prop54
  1
strokes_ogs.tif
102
RTVSPost2010PropOp54
 70
     1
102
RTVSPost2010Prop55
280
     0
102
RTVSPost2010PropOp55
 70
     1
102
RTVSPost2010Prop56
140
1.0
102
RTVSPost2010PropOp56
 70
     1
102
RTVSPost2010Prop57
140
1.0
102
RTVSPost2010PropOp57
 70
     1
  0
XRECORD
  5
410
102
{ACAD_REACTORS
330
40F
102
}
330
40F
100
AcDbXrecord
280
     1
102
RTVSPost2010Prop28
280
     0
102
RTVSPost2010PropOp28
 70
     1
102
RTVSPost2010Prop29
280
     1
102
RTVSPost2010PropOp29
 70
     1
102
RTVSPost2010Prop30
280
     1
102
RTVSPost2010PropOp30
 70
     1
102
RTVSPost2010Prop31
280
     0
102
RTVSPost2010PropOp31
 70
     1
102
RTVSPost2010Prop32
280
     0
102
RTVSPost2010PropOp32
 70
     1
102
RTVSPost2010Prop33
280
     0
102
RTVSPost2010PropOp33
 70
     1
102
RTVSPost2010Prop34
280
     0
102
RTVSPost2010PropOp34
 70
     1
102
RTVSPost2010Prop35
280
     0
102
RTVSPost2010PropOp35
 70
     1
102
RTVSPost2010Prop36
280
     0
102
RTVSPost2010PropOp36
 70
     1
102
RTVSPost2010Prop37
 90
       50
102
RTVSPost2010PropOp37
 70
     1
102
RTVSPost2010Prop38
140
0.0
102
RTVSPost2010PropOp38
 70
     1
102
RTVSPost2010Prop39
140
1.0
102
RTVSPost2010PropOp39
 70
     1
102
RTVSPost2010Prop40
 90
        0
102
RTVSPost2010PropOp40
 70
     1
102
RTVSPost2010Prop41ColorIndex
 90
       18
102
RTVSPost2010Prop41ColorRGB
 90
        0
102
RTVSPost2010PropOp41
 70
     1
102
RTVSPost2010Prop42
 90
       50
102
RTVSPost2010PropOp42
 70
     1
102
RTVSPost2010Prop43
 90
        3
102
RTVSPost2010PropOp43
 70
     1
102
RTVSPost2010Prop44ColorIndex
 90
        5
102
RTVSPost2010Prop44ColorRGB
 90
      255
102
RTVSPost2010PropOp44
 70
     1
102
RTVSPost2010Prop45
280
     0
102
RTVSPost2010PropOp45
 70
     1
102
RTVSPost2010Prop46
 90
       50
102
RTVSPost2010PropOp46
 70
     1
102
RTVSPost2010Prop47
 90
       50
102
RTVSPost2010PropOp47
 70
     1
102
RTVSPost2010Prop48
 90
       50
102
RTVSPost2010PropOp48
 70
     1
102
RTVSPost2010Prop49
280
     0
102
RTVSPost2010PropOp49
 70
     1
102
RTVSPost2010Prop50
 90
       50
102
RTVSPost2010PropOp50
 70
     1
102
RTVSPost2010Prop51ColorIndex
 90
      256
102
RTVSPost2010Prop51ColorRGB
 90
-16777216
102
RTVSPost2010PropOp51
 70
     0
102
RTVSPost2010Prop52
140
1.0
102
RTVSPost2010PropOp52
 70
     0
102
RTVSPost2010Prop53
 90
        2
102
RTVSPost2010PropOp53
 70
     1
102
RTVSPost2010Prop54
  1
strokes_ogs.tif
102
RTVSPost2010PropOp54
 70
     1
102
RTVSPost2010Prop55
280
     0
102
RTVSPost2010PropOp55
 70
     1
102
RTVSPost2010Prop56
140
1.0
102
RTVSPost2010PropOp56
 70
     1
102
RTVSPost2010Prop57
140
1.0
102
RTVSPost2010PropOp57
 70
     1
  0
XRECORD
  5
404
102
{ACAD_REACTORS
330
403
102
}
330
403
100
AcDbXrecord
280
     1
102
RTVSPost2010Prop28
280
     0
102
RTVSPost2010PropOp28
 70
     1
102
RTVSPost2010Prop29
280
     1
102
RTVSPost2010PropOp29
 70
     1
102
RTVSPost2010Prop30
280
     1
102
RTVSPost2010PropOp30
 70
     1
102
RTVSPost2010Prop31
280
     0
102
RTVSPost2010PropOp31
 70
     1
102
RTVSPost2010Prop32
280
     0
102
RTVSPost2010PropOp32
 70
     1
102
RTVSPost2010Prop33
280
     0
102
RTVSPost2010PropOp33
 70
     1
102
RTVSPost2010Prop34
280
     0
102
RTVSPost2010PropOp34
 70
     1
102
RTVSPost2010Prop35
280
     0
102
RTVSPost2010PropOp35
 70
     1
102
RTVSPost2010Prop36
280
     0
102
RTVSPost2010PropOp36
 70
     1
102
RTVSPost2010Prop37
 90
       50
102
RTVSPost2010PropOp37
 70
     1
102
RTVSPost2010Prop38
140
0.0
102
RTVSPost2010PropOp38
 70
     1
102
RTVSPost2010Prop39
140
1.0
102
RTVSPost2010PropOp39
 70
     1
102
RTVSPost2010Prop40
 90
        0
102
RTVSPost2010PropOp40
 70
     1
102
RTVSPost2010Prop41ColorIndex
 90
       18
102
RTVSPost2010Prop41ColorRGB
 90
        0
102
RTVSPost2010PropOp41
 70
     1
102
RTVSPost2010Prop42
 90
       50
102
RTVSPost2010PropOp42
 70
     1
102
RTVSPost2010Prop43
 90
        3
102
RTVSPost2010PropOp43
 70
     1
102
RTVSPost2010Prop44ColorIndex
 90
        5
102
RTVSPost2010Prop44ColorRGB
 90
      255
102
RTVSPost2010PropOp44
 70
     1
102
RTVSPost2010Prop45
280
     0
102
RTVSPost2010PropOp45
 70
     1
102
RTVSPost2010Prop46
 90
       50
102
RTVSPost2010PropOp46
 70
     1
102
RTVSPost2010Prop47
 90
       50
102
RTVSPost2010PropOp47
 70
     1
102
RTVSPost2010Prop48
 90
       50
102
RTVSPost2010PropOp48
 70
     1
102
RTVSPost2010Prop49
280
     0
102
RTVSPost2010PropOp49
 70
     1
102
RTVSPost2010Prop50
 90
       50
102
RTVSPost2010PropOp50
 70
     1
102
RTVSPost2010Prop51ColorIndex
 90
      256
102
RTVSPost2010Prop51ColorRGB
 90
-16777216
102
RTVSPost2010PropOp51
 70
     0
102
RTVSPost2010Prop52
140
1.0
102
RTVSPost2010PropOp52
 70
     0
102
RTVSPost2010Prop53
 90
        2
102
RTVSPost2010PropOp53
 70
     1
102
RTVSPost2010Prop54
  1
strokes_ogs.tif
102
RTVSPost2010PropOp54
 70
     1
102
RTVSPost2010Prop55
280
     0
102
RTVSPost2010PropOp55
 70
     1
102
RTVSPost2010Prop56
140
1.0
102
RTVSPost2010PropOp56
 70
     1
102
RTVSPost2010Prop57
140
1.0
102
RTVSPost2010PropOp57
 70
     1
  0
XRECORD
  5
406
102
{ACAD_REACTORS
330
405
102
}
330
405
100
AcDbXrecord
280
     1
102
RTVSPost2010Prop28
280
     0
102
RTVSPost2010PropOp28
 70
     1
102
RTVSPost2010Prop29
280
     1
102
RTVSPost2010PropOp29
 70
     1
102
RTVSPost2010Prop30
280
     1
102
RTVSPost2010PropOp30
 70
     1
102
RTVSPost2010Prop31
280
     0
102
RTVSPost2010PropOp31
 70
     1
102
RTVSPost2010Prop32
280
     0
102
RTVSPost2010PropOp32
 70
     1
102
RTVSPost2010Prop33
280
     0
102
RTVSPost2010PropOp33
 70
     1
102
RTVSPost2010Prop34
280
     0
102
RTVSPost2010PropOp34
 70
     1
102
RTVSPost2010Prop35
280
     0
102
RTVSPost2010PropOp35
 70
     1
102
RTVSPost2010Prop36
280
     0
102
RTVSPost2010PropOp36
 70
     1
102
RTVSPost2010Prop37
 90
       50
102
RTVSPost2010PropOp37
 70
     1
102
RTVSPost2010Prop38
140
0.0
102
RTVSPost2010PropOp38
 70
     1
102
RTVSPost2010Prop39
140
1.0
102
RTVSPost2010PropOp39
 70
     1
102
RTVSPost2010Prop40
 90
        0
102
RTVSPost2010PropOp40
 70
     1
102
RTVSPost2010Prop41ColorIndex
 90
       18
102
RTVSPost2010Prop41ColorRGB
 90
        0
102
RTVSPost2010PropOp41
 70
     1
102
RTVSPost2010Prop42
 90
       50
102
RTVSPost2010PropOp42
 70
     1
102
RTVSPost2010Prop43
 90
        3
102
RTVSPost2010PropOp43
 70
     1
102
RTVSPost2010Prop44ColorIndex
 90
        5
102
RTVSPost2010Prop44ColorRGB
 90
      255
102
RTVSPost2010PropOp44
 70
     1
102
RTVSPost2010Prop45
280
     0
102
RTVSPost2010PropOp45
 70
     1
102
RTVSPost2010Prop46
 90
       50
102
RTVSPost2010PropOp46
 70
     1
102
RTVSPost2010Prop47
 90
       50
102
RTVSPost2010PropOp47
 70
     1
102
RTVSPost2010Prop48
 90
       50
102
RTVSPost2010PropOp48
 70
     1
102
RTVSPost2010Prop49
280
     0
102
RTVSPost2010PropOp49
 70
     1
102
RTVSPost2010Prop50
 90
       50
102
RTVSPost2010PropOp50
 70
     1
102
RTVSPost2010Prop51ColorIndex
 90
      256
102
RTVSPost2010Prop51ColorRGB
 90
-16777216
102
RTVSPost2010PropOp51
 70
     0
102
RTVSPost2010Prop52
140
1.0
102
RTVSPost2010PropOp52
 70
     0
102
RTVSPost2010Prop53
 90
        2
102
RTVSPost2010PropOp53
 70
     1
102
RTVSPost2010Prop54
  1
strokes_ogs.tif
102
RTVSPost2010PropOp54
 70
     1
102
RTVSPost2010Prop55
280
     0
102
RTVSPost2010PropOp55
 70
     1
102
RTVSPost2010Prop56
140
1.0
102
RTVSPost2010PropOp56
 70
     1
102
RTVSPost2010Prop57
140
1.0
102
RTVSPost2010PropOp57
 70
     1
  0
XRECORD
  5
416
102
{ACAD_REACTORS
330
415
102
}
330
415
100
AcDbXrecord
280
     1
102
RTVSPost2010Prop28
280
     0
102
RTVSPost2010PropOp28
 70
     0
102
RTVSPost2010Prop29
280
     1
102
RTVSPost2010PropOp29
 70
     0
102
RTVSPost2010Prop30
280
     1
102
RTVSPost2010PropOp30
 70
     0
102
RTVSPost2010Prop31
280
     0
102
RTVSPost2010PropOp31
 70
     0
102
RTVSPost2010Prop32
280
     0
102
RTVSPost2010PropOp32
 70
     0
102
RTVSPost2010Prop33
280
     0
102
RTVSPost2010PropOp33
 70
     0
102
RTVSPost2010Prop34
280
     0
102
RTVSPost2010PropOp34
 70
     0
102
RTVSPost2010Prop35
280
     0
102
RTVSPost2010PropOp35
 70
     0
102
RTVSPost2010Prop36
280
     0
102
RTVSPost2010PropOp36
 70
     0
102
RTVSPost2010Prop37
 90
       50
102
RTVSPost2010PropOp37
 70
     0
102
RTVSPost2010Prop38
140
0.0
102
RTVSPost2010PropOp38
 70
     0
102
RTVSPost2010Prop39
140
1.0
102
RTVSPost2010PropOp39
 70
     0
102
RTVSPost2010Prop40
 90
        0
102
RTVSPost2010PropOp40
 70
     0
102
RTVSPost2010Prop41ColorIndex
 90
       18
102
RTVSPost2010Prop41ColorRGB
 90
        0
102
RTVSPost2010PropOp41
 70
     0
102
RTVSPost2010Prop42
 90
       50
102
RTVSPost2010PropOp42
 70
     0
102
RTVSPost2010Prop43
 90
        3
102
RTVSPost2010PropOp43
 70
     0
102
RTVSPost2010Prop44ColorIndex
 90
        5
102
RTVSPost2010Prop44ColorRGB
 90
      255
102
RTVSPost2010PropOp44
 70
     0
102
RTVSPost2010Prop45
280
     0
102
RTVSPost2010PropOp45
 70
     0
102
RTVSPost2010Prop46
 90
       50
102
RTVSPost2010PropOp46
 70
     0
102
RTVSPost2010Prop47
 90
       50
102
RTVSPost2010PropOp47
 70
     0
102
RTVSPost2010Prop48
 90
       50
102
RTVSPost2010PropOp48
 70
     0
102
RTVSPost2010Prop49
280
     0
102
RTVSPost2010PropOp49
 70
     0
102
RTVSPost2010Prop50
 90
       50
102
RTVSPost2010PropOp50
 70
     0
102
RTVSPost2010Prop51ColorIndex
 90
      256
102
RTVSPost2010Prop51ColorRGB
 90
-16777216
102
RTVSPost2010PropOp51
 70
     0
102
RTVSPost2010Prop52
140
1.0
102
RTVSPost2010PropOp52
 70
     0
102
RTVSPost2010Prop53
 90
        2
102
RTVSPost2010PropOp53
 70
     0
102
RTVSPost2010Prop54
  1
strokes_ogs.tif
102
RTVSPost2010PropOp54
 70
     0
102
RTVSPost2010Prop55
280
     0
102
RTVSPost2010PropOp55
 70
     0
102
RTVSPost2010Prop56
140
1.0
102
RTVSPost2010PropOp56
 70
     0
102
RTVSPost2010Prop57
140
1.0
102
RTVSPost2010PropOp57
 70
     0
  0
XRECORD
  5
40E
102
{ACAD_REACTORS
330
40D
102
}
330
40D
100
AcDbXrecord
280
     1
102
RTVSPost2010Prop28
280
     0
102
RTVSPost2010PropOp28
 70
     1
102
RTVSPost2010Prop29
280
     1
102
RTVSPost2010PropOp29
 70
     1
102
RTVSPost2010Prop30
280
     1
102
RTVSPost2010PropOp30
 70
     1
102
RTVSPost2010Prop31
280
     0
102
RTVSPost2010PropOp31
 70
     1
102
RTVSPost2010Prop32
280
     0
102
RTVSPost2010PropOp32
 70
     1
102
RTVSPost2010Prop33
280
     0
102
RTVSPost2010PropOp33
 70
     1
102
RTVSPost2010Prop34
280
     0
102
RTVSPost2010PropOp34
 70
     1
102
RTVSPost2010Prop35
280
     0
102
RTVSPost2010PropOp35
 70
     1
102
RTVSPost2010Prop36
280
     0
102
RTVSPost2010PropOp36
 70
     1
102
RTVSPost2010Prop37
 90
       50
102
RTVSPost2010PropOp37
 70
     1
102
RTVSPost2010Prop38
140
0.0
102
RTVSPost2010PropOp38
 70
     1
102
RTVSPost2010Prop39
140
1.0
102
RTVSPost2010PropOp39
 70
     1
102
RTVSPost2010Prop40
 90
        0
102
RTVSPost2010PropOp40
 70
     1
102
RTVSPost2010Prop41ColorIndex
 90
       18
102
RTVSPost2010Prop41ColorRGB
 90
        0
102
RTVSPost2010PropOp41
 70
     1
102
RTVSPost2010Prop42
 90
       50
102
RTVSPost2010PropOp42
 70
     1
102
RTVSPost2010Prop43
 90
        3
102
RTVSPost2010PropOp43
 70
     1
102
RTVSPost2010Prop44ColorIndex
 90
        5
102
RTVSPost2010Prop44ColorRGB
 90
      255
102
RTVSPost2010PropOp44
 70
     1
102
RTVSPost2010Prop45
280
     0
102
RTVSPost2010PropOp45
 70
     1
102
RTVSPost2010Prop46
 90
       50
102
RTVSPost2010PropOp46
 70
     1
102
RTVSPost2010Prop47
 90
       50
102
RTVSPost2010PropOp47
 70
     1
102
RTVSPost2010Prop48
 90
       50
102
RTVSPost2010PropOp48
 70
     1
102
RTVSPost2010Prop49
280
     0
102
RTVSPost2010PropOp49
 70
     1
102
RTVSPost2010Prop50
 90
       50
102
RTVSPost2010PropOp50
 70
     1
102
RTVSPost2010Prop51ColorIndex
 90
      256
102
RTVSPost2010Prop51ColorRGB
 90
-16777216
102
RTVSPost2010PropOp51
 70
     0
102
RTVSPost2010Prop52
140
1.0
102
RTVSPost2010PropOp52
 70
     0
102
RTVSPost2010Prop53
 90
        2
102
RTVSPost2010PropOp53
 70
     1
102
RTVSPost2010Prop54
  1
strokes_ogs.tif
102
RTVSPost2010PropOp54
 70
     1
102
RTVSPost2010Prop55
280
     0
102
RTVSPost2010PropOp55
 70
     1
102
RTVSPost2010Prop56
140
1.0
102
RTVSPost2010PropOp56
 70
     1
102
RTVSPost2010Prop57
140
1.0
102
RTVSPost2010PropOp57
 70
     1
  0
XRECORD
  5
3F2
102
{ACAD_REACTORS
330
3F1
102
}
330
3F1
100
AcDbXrecord
280
     1
102
RTVSPost2010Prop28
280
     0
102
RTVSPost2010PropOp28
 70
     1
102
RTVSPost2010Prop29
280
     1
102
RTVSPost2010PropOp29
 70
     1
102
RTVSPost2010Prop30
280
     1
102
RTVSPost2010PropOp30
 70
     1
102
RTVSPost2010Prop31
280
     0
102
RTVSPost2010PropOp31
 70
     1
102
RTVSPost2010Prop32
280
     0
102
RTVSPost2010PropOp32
 70
     1
102
RTVSPost2010Prop33
280
     0
102
RTVSPost2010PropOp33
 70
     1
102
RTVSPost2010Prop34
280
     0
102
RTVSPost2010PropOp34
 70
     1
102
RTVSPost2010Prop35
280
     0
102
RTVSPost2010PropOp35
 70
     1
102
RTVSPost2010Prop36
280
     0
102
RTVSPost2010PropOp36
 70
     1
102
RTVSPost2010Prop37
 90
       50
102
RTVSPost2010PropOp37
 70
     1
102
RTVSPost2010Prop38
140
0.0
102
RTVSPost2010PropOp38
 70
     1
102
RTVSPost2010Prop39
140
1.0
102
RTVSPost2010PropOp39
 70
     1
102
RTVSPost2010Prop40
 90
        0
102
RTVSPost2010PropOp40
 70
     1
102
RTVSPost2010Prop41ColorIndex
 90
       18
102
RTVSPost2010Prop41ColorRGB
 90
        0
102
RTVSPost2010PropOp41
 70
     1
102
RTVSPost2010Prop42
 90
       50
102
RTVSPost2010PropOp42
 70
     1
102
RTVSPost2010Prop43
 90
        3
102
RTVSPost2010PropOp43
 70
     1
102
RTVSPost2010Prop44ColorIndex
 90
        5
102
RTVSPost2010Prop44ColorRGB
 90
      255
102
RTVSPost2010PropOp44
 70
     1
102
RTVSPost2010Prop45
280
     0
102
RTVSPost2010PropOp45
 70
     1
102
RTVSPost2010Prop46
 90
       50
102
RTVSPost2010PropOp46
 70
     1
102
RTVSPost2010Prop47
 90
       50
102
RTVSPost2010PropOp47
 70
     1
102
RTVSPost2010Prop48
 90
       50
102
RTVSPost2010PropOp48
 70
     1
102
RTVSPost2010Prop49
280
     0
102
RTVSPost2010PropOp49
 70
     1
102
RTVSPost2010Prop50
 90
       50
102
RTVSPost2010PropOp50
 70
     1
102
RTVSPost2010Prop51ColorIndex
 90
      256
102
RTVSPost2010Prop51ColorRGB
 90
-16777216
102
RTVSPost2010PropOp51
 70
     0
102
RTVSPost2010Prop52
140
1.0
102
RTVSPost2010PropOp52
 70
     0
102
RTVSPost2010Prop53
 90
        2
102
RTVSPost2010PropOp53
 70
     1
102
RTVSPost2010Prop54
  1
strokes_ogs.tif
102
RTVSPost2010PropOp54
 70
     1
102
RTVSPost2010Prop55
280
     0
102
RTVSPost2010PropOp55
 70
     1
102
RTVSPost2010Prop56
140
1.0
102
RTVSPost2010PropOp56
 70
     1
102
RTVSPost2010Prop57
140
1.0
102
RTVSPost2010PropOp57
 70
     1
  0
XRECORD
  5
3F4
102
{ACAD_REACTORS
330
3F3
102
}
330
3F3
100
AcDbXrecord
280
     1
102
RTVSPost2010Prop28
280
     0
102
RTVSPost2010PropOp28
 70
     1
102
RTVSPost2010Prop29
280
     1
102
RTVSPost2010PropOp29
 70
     1
102
RTVSPost2010Prop30
280
     1
102
RTVSPost2010PropOp30
 70
     1
102
RTVSPost2010Prop31
280
     0
102
RTVSPost2010PropOp31
 70
     1
102
RTVSPost2010Prop32
280
     0
102
RTVSPost2010PropOp32
 70
     1
102
RTVSPost2010Prop33
280
     0
102
RTVSPost2010PropOp33
 70
     1
102
RTVSPost2010Prop34
280
     0
102
RTVSPost2010PropOp34
 70
     1
102
RTVSPost2010Prop35
280
     0
102
RTVSPost2010PropOp35
 70
     1
102
RTVSPost2010Prop36
280
     0
102
RTVSPost2010PropOp36
 70
     1
102
RTVSPost2010Prop37
 90
       50
102
RTVSPost2010PropOp37
 70
     1
102
RTVSPost2010Prop38
140
0.0
102
RTVSPost2010PropOp38
 70
     1
102
RTVSPost2010Prop39
140
1.0
102
RTVSPost2010PropOp39
 70
     1
102
RTVSPost2010Prop40
 90
        0
102
RTVSPost2010PropOp40
 70
     1
102
RTVSPost2010Prop41ColorIndex
 90
       18
102
RTVSPost2010Prop41ColorRGB
 90
        0
102
RTVSPost2010PropOp41
 70
     1
102
RTVSPost2010Prop42
 90
       50
102
RTVSPost2010PropOp42
 70
     1
102
RTVSPost2010Prop43
 90
        3
102
RTVSPost2010PropOp43
 70
     1
102
RTVSPost2010Prop44ColorIndex
 90
        5
102
RTVSPost2010Prop44ColorRGB
 90
      255
102
RTVSPost2010PropOp44
 70
     1
102
RTVSPost2010Prop45
280
     0
102
RTVSPost2010PropOp45
 70
     1
102
RTVSPost2010Prop46
 90
       50
102
RTVSPost2010PropOp46
 70
     1
102
RTVSPost2010Prop47
 90
       50
102
RTVSPost2010PropOp47
 70
     1
102
RTVSPost2010Prop48
 90
       50
102
RTVSPost2010PropOp48
 70
     1
102
RTVSPost2010Prop49
280
     0
102
RTVSPost2010PropOp49
 70
     1
102
RTVSPost2010Prop50
 90
       50
102
RTVSPost2010PropOp50
 70
     1
102
RTVSPost2010Prop51ColorIndex
 90
      256
102
RTVSPost2010Prop51ColorRGB
 90
-16777216
102
RTVSPost2010PropOp51
 70
     0
102
RTVSPost2010Prop52
140
1.0
102
RTVSPost2010PropOp52
 70
     0
102
RTVSPost2010Prop53
 90
        2
102
RTVSPost2010PropOp53
 70
     1
102
RTVSPost2010Prop54
  1
strokes_ogs.tif
102
RTVSPost2010PropOp54
 70
     1
102
RTVSPost2010Prop55
280
     0
102
RTVSPost2010PropOp55
 70
     1
102
RTVSPost2010Prop56
140
1.0
102
RTVSPost2010PropOp56
 70
     1
102
RTVSPost2010Prop57
140
1.0
102
RTVSPost2010PropOp57
 70
     1
  0
XRECORD
  5
3F6
102
{ACAD_REACTORS
330
3F5
102
}
330
3F5
100
AcDbXrecord
280
     1
102
RTVSPost2010Prop28
280
     0
102
RTVSPost2010PropOp28
 70
     1
102
RTVSPost2010Prop29
280
     1
102
RTVSPost2010PropOp29
 70
     1
102
RTVSPost2010Prop30
280
     1
102
RTVSPost2010PropOp30
 70
     1
102
RTVSPost2010Prop31
280
     0
102
RTVSPost2010PropOp31
 70
     1
102
RTVSPost2010Prop32
280
     0
102
RTVSPost2010PropOp32
 70
     1
102
RTVSPost2010Prop33
280
     0
102
RTVSPost2010PropOp33
 70
     1
102
RTVSPost2010Prop34
280
     0
102
RTVSPost2010PropOp34
 70
     1
102
RTVSPost2010Prop35
280
     0
102
RTVSPost2010PropOp35
 70
     1
102
RTVSPost2010Prop36
280
     0
102
RTVSPost2010PropOp36
 70
     1
102
RTVSPost2010Prop37
 90
       50
102
RTVSPost2010PropOp37
 70
     1
102
RTVSPost2010Prop38
140
0.0
102
RTVSPost2010PropOp38
 70
     1
102
RTVSPost2010Prop39
140
1.0
102
RTVSPost2010PropOp39
 70
     1
102
RTVSPost2010Prop40
 90
        0
102
RTVSPost2010PropOp40
 70
     1
102
RTVSPost2010Prop41ColorIndex
 90
       18
102
RTVSPost2010Prop41ColorRGB
 90
        0
102
RTVSPost2010PropOp41
 70
     1
102
RTVSPost2010Prop42
 90
       50
102
RTVSPost2010PropOp42
 70
     1
102
RTVSPost2010Prop43
 90
        3
102
RTVSPost2010PropOp43
 70
     1
102
RTVSPost2010Prop44ColorIndex
 90
        5
102
RTVSPost2010Prop44ColorRGB
 90
      255
102
RTVSPost2010PropOp44
 70
     1
102
RTVSPost2010Prop45
280
     0
102
RTVSPost2010PropOp45
 70
     1
102
RTVSPost2010Prop46
 90
       50
102
RTVSPost2010PropOp46
 70
     1
102
RTVSPost2010Prop47
 90
       50
102
RTVSPost2010PropOp47
 70
     1
102
RTVSPost2010Prop48
 90
       50
102
RTVSPost2010PropOp48
 70
     1
102
RTVSPost2010Prop49
280
     0
102
RTVSPost2010PropOp49
 70
     1
102
RTVSPost2010Prop50
 90
       50
102
RTVSPost2010PropOp50
 70
     1
102
RTVSPost2010Prop51ColorIndex
 90
      256
102
RTVSPost2010Prop51ColorRGB
 90
-16777216
102
RTVSPost2010PropOp51
 70
     0
102
RTVSPost2010Prop52
140
1.0
102
RTVSPost2010PropOp52
 70
     0
102
RTVSPost2010Prop53
 90
        2
102
RTVSPost2010PropOp53
 70
     1
102
RTVSPost2010Prop54
  1
strokes_ogs.tif
102
RTVSPost2010PropOp54
 70
     1
102
RTVSPost2010Prop55
280
     0
102
RTVSPost2010PropOp55
 70
     1
102
RTVSPost2010Prop56
140
1.0
102
RTVSPost2010PropOp56
 70
     1
102
RTVSPost2010Prop57
140
1.0
102
RTVSPost2010PropOp57
 70
     1
  0
XRECORD
  5
3F8
102
{ACAD_REACTORS
330
3F7
102
}
330
3F7
100
AcDbXrecord
280
     1
102
RTVSPost2010Prop28
280
     0
102
RTVSPost2010PropOp28
 70
     1
102
RTVSPost2010Prop29
280
     1
102
RTVSPost2010PropOp29
 70
     1
102
RTVSPost2010Prop30
280
     1
102
RTVSPost2010PropOp30
 70
     1
102
RTVSPost2010Prop31
280
     0
102
RTVSPost2010PropOp31
 70
     1
102
RTVSPost2010Prop32
280
     0
102
RTVSPost2010PropOp32
 70
     1
102
RTVSPost2010Prop33
280
     0
102
RTVSPost2010PropOp33
 70
     1
102
RTVSPost2010Prop34
280
     0
102
RTVSPost2010PropOp34
 70
     1
102
RTVSPost2010Prop35
280
     0
102
RTVSPost2010PropOp35
 70
     1
102
RTVSPost2010Prop36
280
     0
102
RTVSPost2010PropOp36
 70
     1
102
RTVSPost2010Prop37
 90
       50
102
RTVSPost2010PropOp37
 70
     1
102
RTVSPost2010Prop38
140
0.0
102
RTVSPost2010PropOp38
 70
     1
102
RTVSPost2010Prop39
140
1.0
102
RTVSPost2010PropOp39
 70
     1
102
RTVSPost2010Prop40
 90
        0
102
RTVSPost2010PropOp40
 70
     1
102
RTVSPost2010Prop41ColorIndex
 90
       18
102
RTVSPost2010Prop41ColorRGB
 90
        0
102
RTVSPost2010PropOp41
 70
     1
102
RTVSPost2010Prop42
 90
       50
102
RTVSPost2010PropOp42
 70
     1
102
RTVSPost2010Prop43
 90
        3
102
RTVSPost2010PropOp43
 70
     1
102
RTVSPost2010Prop44ColorIndex
 90
        5
102
RTVSPost2010Prop44ColorRGB
 90
      255
102
RTVSPost2010PropOp44
 70
     1
102
RTVSPost2010Prop45
280
     0
102
RTVSPost2010PropOp45
 70
     1
102
RTVSPost2010Prop46
 90
       50
102
RTVSPost2010PropOp46
 70
     1
102
RTVSPost2010Prop47
 90
       50
102
RTVSPost2010PropOp47
 70
     1
102
RTVSPost2010Prop48
 90
       50
102
RTVSPost2010PropOp48
 70
     1
102
RTVSPost2010Prop49
280
     0
102
RTVSPost2010PropOp49
 70
     1
102
RTVSPost2010Prop50
 90
       50
102
RTVSPost2010PropOp50
 70
     1
102
RTVSPost2010Prop51ColorIndex
 90
      256
102
RTVSPost2010Prop51ColorRGB
 90
-16777216
102
RTVSPost2010PropOp51
 70
     0
102
RTVSPost2010Prop52
140
1.0
102
RTVSPost2010PropOp52
 70
     0
102
RTVSPost2010Prop53
 90
        2
102
RTVSPost2010PropOp53
 70
     1
102
RTVSPost2010Prop54
  1
strokes_ogs.tif
102
RTVSPost2010PropOp54
 70
     1
102
RTVSPost2010Prop55
280
     0
102
RTVSPost2010PropOp55
 70
     1
102
RTVSPost2010Prop56
140
1.0
102
RTVSPost2010PropOp56
 70
     1
102
RTVSPost2010Prop57
140
1.0
102
RTVSPost2010PropOp57
 70
     1
  0
XRECORD
  5
3FE
102
{ACAD_REACTORS
330
3FD
102
}
330
3FD
100
AcDbXrecord
280
     1
102
RTVSPost2010Prop28
280
     0
102
RTVSPost2010PropOp28
 70
     1
102
RTVSPost2010Prop29
280
     1
102
RTVSPost2010PropOp29
 70
     1
102
RTVSPost2010Prop30
280
     1
102
RTVSPost2010PropOp30
 70
     1
102
RTVSPost2010Prop31
280
     0
102
RTVSPost2010PropOp31
 70
     1
102
RTVSPost2010Prop32
280
     0
102
RTVSPost2010PropOp32
 70
     1
102
RTVSPost2010Prop33
280
     0
102
RTVSPost2010PropOp33
 70
     1
102
RTVSPost2010Prop34
280
     0
102
RTVSPost2010PropOp34
 70
     1
102
RTVSPost2010Prop35
280
     0
102
RTVSPost2010PropOp35
 70
     1
102
RTVSPost2010Prop36
280
     0
102
RTVSPost2010PropOp36
 70
     1
102
RTVSPost2010Prop37
 90
       50
102
RTVSPost2010PropOp37
 70
     1
102
RTVSPost2010Prop38
140
0.0
102
RTVSPost2010PropOp38
 70
     1
102
RTVSPost2010Prop39
140
1.0
102
RTVSPost2010PropOp39
 70
     1
102
RTVSPost2010Prop40
 90
        0
102
RTVSPost2010PropOp40
 70
     1
102
RTVSPost2010Prop41ColorIndex
 90
       18
102
RTVSPost2010Prop41ColorRGB
 90
        0
102
RTVSPost2010PropOp41
 70
     1
102
RTVSPost2010Prop42
 90
       50
102
RTVSPost2010PropOp42
 70
     1
102
RTVSPost2010Prop43
 90
        3
102
RTVSPost2010PropOp43
 70
     1
102
RTVSPost2010Prop44ColorIndex
 90
        5
102
RTVSPost2010Prop44ColorRGB
 90
      255
102
RTVSPost2010PropOp44
 70
     1
102
RTVSPost2010Prop45
280
     0
102
RTVSPost2010PropOp45
 70
     1
102
RTVSPost2010Prop46
 90
       50
102
RTVSPost2010PropOp46
 70
     1
102
RTVSPost2010Prop47
 90
       50
102
RTVSPost2010PropOp47
 70
     1
102
RTVSPost2010Prop48
 90
       50
102
RTVSPost2010PropOp48
 70
     1
102
RTVSPost2010Prop49
280
     0
102
RTVSPost2010PropOp49
 70
     1
102
RTVSPost2010Prop50
 90
       50
102
RTVSPost2010PropOp50
 70
     1
102
RTVSPost2010Prop51ColorIndex
 90
      256
102
RTVSPost2010Prop51ColorRGB
 90
-16777216
102
RTVSPost2010PropOp51
 70
     0
102
RTVSPost2010Prop52
140
1.0
102
RTVSPost2010PropOp52
 70
     0
102
RTVSPost2010Prop53
 90
        2
102
RTVSPost2010PropOp53
 70
     1
102
RTVSPost2010Prop54
  1
strokes_ogs.tif
102
RTVSPost2010PropOp54
 70
     1
102
RTVSPost2010Prop55
280
     0
102
RTVSPost2010PropOp55
 70
     1
102
RTVSPost2010Prop56
140
1.0
102
RTVSPost2010PropOp56
 70
     1
102
RTVSPost2010Prop57
140
1.0
102
RTVSPost2010PropOp57
 70
     1
  0
XRECORD
  5
412
102
{ACAD_REACTORS
330
411
102
}
330
411
100
AcDbXrecord
280
     1
102
RTVSPost2010Prop28
280
     0
102
RTVSPost2010PropOp28
 70
     0
102
RTVSPost2010Prop29
280
     1
102
RTVSPost2010PropOp29
 70
     0
102
RTVSPost2010Prop30
280
     1
102
RTVSPost2010PropOp30
 70
     0
102
RTVSPost2010Prop31
280
     0
102
RTVSPost2010PropOp31
 70
     0
102
RTVSPost2010Prop32
280
     0
102
RTVSPost2010PropOp32
 70
     0
102
RTVSPost2010Prop33
280
     0
102
RTVSPost2010PropOp33
 70
     0
102
RTVSPost2010Prop34
280
     0
102
RTVSPost2010PropOp34
 70
     0
102
RTVSPost2010Prop35
280
     0
102
RTVSPost2010PropOp35
 70
     0
102
RTVSPost2010Prop36
280
     0
102
RTVSPost2010PropOp36
 70
     0
102
RTVSPost2010Prop37
 90
       50
102
RTVSPost2010PropOp37
 70
     0
102
RTVSPost2010Prop38
140
0.0
102
RTVSPost2010PropOp38
 70
     0
102
RTVSPost2010Prop39
140
1.0
102
RTVSPost2010PropOp39
 70
     0
102
RTVSPost2010Prop40
 90
        0
102
RTVSPost2010PropOp40
 70
     0
102
RTVSPost2010Prop41ColorIndex
 90
       18
102
RTVSPost2010Prop41ColorRGB
 90
        0
102
RTVSPost2010PropOp41
 70
     0
102
RTVSPost2010Prop42
 90
       50
102
RTVSPost2010PropOp42
 70
     0
102
RTVSPost2010Prop43
 90
        3
102
RTVSPost2010PropOp43
 70
     0
102
RTVSPost2010Prop44ColorIndex
 90
        5
102
RTVSPost2010Prop44ColorRGB
 90
      255
102
RTVSPost2010PropOp44
 70
     0
102
RTVSPost2010Prop45
280
     0
102
RTVSPost2010PropOp45
 70
     0
102
RTVSPost2010Prop46
 90
       50
102
RTVSPost2010PropOp46
 70
     0
102
RTVSPost2010Prop47
 90
       50
102
RTVSPost2010PropOp47
 70
     0
102
RTVSPost2010Prop48
 90
       50
102
RTVSPost2010PropOp48
 70
     0
102
RTVSPost2010Prop49
280
     0
102
RTVSPost2010PropOp49
 70
     0
102
RTVSPost2010Prop50
 90
       50
102
RTVSPost2010PropOp50
 70
     0
102
RTVSPost2010Prop51ColorIndex
 90
      256
102
RTVSPost2010Prop51ColorRGB
 90
-16777216
102
RTVSPost2010PropOp51
 70
     0
102
RTVSPost2010Prop52
140
1.0
102
RTVSPost2010PropOp52
 70
     0
102
RTVSPost2010Prop53
 90
        2
102
RTVSPost2010PropOp53
 70
     0
102
RTVSPost2010Prop54
  1
strokes_ogs.tif
102
RTVSPost2010PropOp54
 70
     0
102
RTVSPost2010Prop55
280
     0
102
RTVSPost2010PropOp55
 70
     0
102
RTVSPost2010Prop56
140
1.0
102
RTVSPost2010PropOp56
 70
     0
102
RTVSPost2010Prop57
140
1.0
102
RTVSPost2010PropOp57
 70
     0
  0
XRECORD
  5
40C
102
{ACAD_REACTORS
330
40B
102
}
330
40B
100
AcDbXrecord
280
     1
102
RTVSPost2010Prop28
280
     0
102
RTVSPost2010PropOp28
 70
     1
102
RTVSPost2010Prop29
280
     1
102
RTVSPost2010PropOp29
 70
     1
102
RTVSPost2010Prop30
280
     1
102
RTVSPost2010PropOp30
 70
     1
102
RTVSPost2010Prop31
280
     0
102
RTVSPost2010PropOp31
 70
     1
102
RTVSPost2010Prop32
280
     0
102
RTVSPost2010PropOp32
 70
     1
102
RTVSPost2010Prop33
280
     0
102
RTVSPost2010PropOp33
 70
     1
102
RTVSPost2010Prop34
280
     0
102
RTVSPost2010PropOp34
 70
     1
102
RTVSPost2010Prop35
280
     0
102
RTVSPost2010PropOp35
 70
     1
102
RTVSPost2010Prop36
280
     0
102
RTVSPost2010PropOp36
 70
     1
102
RTVSPost2010Prop37
 90
       50
102
RTVSPost2010PropOp37
 70
     1
102
RTVSPost2010Prop38
140
0.0
102
RTVSPost2010PropOp38
 70
     1
102
RTVSPost2010Prop39
140
1.0
102
RTVSPost2010PropOp39
 70
     1
102
RTVSPost2010Prop40
 90
        0
102
RTVSPost2010PropOp40
 70
     1
102
RTVSPost2010Prop41ColorIndex
 90
       18
102
RTVSPost2010Prop41ColorRGB
 90
        0
102
RTVSPost2010PropOp41
 70
     1
102
RTVSPost2010Prop42
 90
       50
102
RTVSPost2010PropOp42
 70
     1
102
RTVSPost2010Prop43
 90
        3
102
RTVSPost2010PropOp43
 70
     1
102
RTVSPost2010Prop44ColorIndex
 90
        5
102
RTVSPost2010Prop44ColorRGB
 90
      255
102
RTVSPost2010PropOp44
 70
     1
102
RTVSPost2010Prop45
280
     0
102
RTVSPost2010PropOp45
 70
     1
102
RTVSPost2010Prop46
 90
       50
102
RTVSPost2010PropOp46
 70
     1
102
RTVSPost2010Prop47
 90
       50
102
RTVSPost2010PropOp47
 70
     1
102
RTVSPost2010Prop48
 90
       50
102
RTVSPost2010PropOp48
 70
     1
102
RTVSPost2010Prop49
280
     0
102
RTVSPost2010PropOp49
 70
     1
102
RTVSPost2010Prop50
 90
       50
102
RTVSPost2010PropOp50
 70
     1
102
RTVSPost2010Prop51ColorIndex
 90
      256
102
RTVSPost2010Prop51ColorRGB
 90
-16777216
102
RTVSPost2010PropOp51
 70
     0
102
RTVSPost2010Prop52
140
1.0
102
RTVSPost2010PropOp52
 70
     0
102
RTVSPost2010Prop53
 90
        2
102
RTVSPost2010PropOp53
 70
     1
102
RTVSPost2010Prop54
  1
strokes_ogs.tif
102
RTVSPost2010PropOp54
 70
     1
102
RTVSPost2010Prop55
280
     0
102
RTVSPost2010PropOp55
 70
     1
102
RTVSPost2010Prop56
140
1.0
102
RTVSPost2010PropOp56
 70
     1
102
RTVSPost2010Prop57
140
1.0
102
RTVSPost2010PropOp57
 70
     1
  0
XRECORD
  5
414
102
{ACAD_REACTORS
330
413
102
}
330
413
100
AcDbXrecord
280
     1
102
RTVSPost2010Prop28
280
     0
102
RTVSPost2010PropOp28
 70
     0
102
RTVSPost2010Prop29
280
     1
102
RTVSPost2010PropOp29
 70
     0
102
RTVSPost2010Prop30
280
     1
102
RTVSPost2010PropOp30
 70
     0
102
RTVSPost2010Prop31
280
     0
102
RTVSPost2010PropOp31
 70
     0
102
RTVSPost2010Prop32
280
     0
102
RTVSPost2010PropOp32
 70
     0
102
RTVSPost2010Prop33
280
     0
102
RTVSPost2010PropOp33
 70
     0
102
RTVSPost2010Prop34
280
     0
102
RTVSPost2010PropOp34
 70
     0
102
RTVSPost2010Prop35
280
     0
102
RTVSPost2010PropOp35
 70
     0
102
RTVSPost2010Prop36
280
     0
102
RTVSPost2010PropOp36
 70
     0
102
RTVSPost2010Prop37
 90
       50
102
RTVSPost2010PropOp37
 70
     0
102
RTVSPost2010Prop38
140
0.0
102
RTVSPost2010PropOp38
 70
     0
102
RTVSPost2010Prop39
140
1.0
102
RTVSPost2010PropOp39
 70
     0
102
RTVSPost2010Prop40
 90
        0
102
RTVSPost2010PropOp40
 70
     0
102
RTVSPost2010Prop41ColorIndex
 90
       18
102
RTVSPost2010Prop41ColorRGB
 90
        0
102
RTVSPost2010PropOp41
 70
     0
102
RTVSPost2010Prop42
 90
       50
102
RTVSPost2010PropOp42
 70
     0
102
RTVSPost2010Prop43
 90
        3
102
RTVSPost2010PropOp43
 70
     0
102
RTVSPost2010Prop44ColorIndex
 90
        5
102
RTVSPost2010Prop44ColorRGB
 90
      255
102
RTVSPost2010PropOp44
 70
     0
102
RTVSPost2010Prop45
280
     0
102
RTVSPost2010PropOp45
 70
     0
102
RTVSPost2010Prop46
 90
       50
102
RTVSPost2010PropOp46
 70
     0
102
RTVSPost2010Prop47
 90
       50
102
RTVSPost2010PropOp47
 70
     0
102
RTVSPost2010Prop48
 90
       50
102
RTVSPost2010PropOp48
 70
     0
102
RTVSPost2010Prop49
280
     0
102
RTVSPost2010PropOp49
 70
     0
102
RTVSPost2010Prop50
 90
       50
102
RTVSPost2010PropOp50
 70
     0
102
RTVSPost2010Prop51ColorIndex
 90
      256
102
RTVSPost2010Prop51ColorRGB
 90
-16777216
102
RTVSPost2010PropOp51
 70
     0
102
RTVSPost2010Prop52
140
1.0
102
RTVSPost2010PropOp52
 70
     0
102
RTVSPost2010Prop53
 90
        2
102
RTVSPost2010PropOp53
 70
     0
102
RTVSPost2010Prop54
  1
strokes_ogs.tif
102
RTVSPost2010PropOp54
 70
     0
102
RTVSPost2010Prop55
280
     0
102
RTVSPost2010PropOp55
 70
     0
102
RTVSPost2010Prop56
140
1.0
102
RTVSPost2010PropOp56
 70
     0
102
RTVSPost2010Prop57
140
1.0
102
RTVSPost2010PropOp57
 70
     0
  0
XRECORD
  5
402
102
{ACAD_REACTORS
330
401
102
}
330
401
100
AcDbXrecord
280
     1
102
RTVSPost2010Prop28
280
     0
102
RTVSPost2010PropOp28
 70
     1
102
RTVSPost2010Prop29
280
     1
102
RTVSPost2010PropOp29
 70
     1
102
RTVSPost2010Prop30
280
     1
102
RTVSPost2010PropOp30
 70
     1
102
RTVSPost2010Prop31
280
     0
102
RTVSPost2010PropOp31
 70
     1
102
RTVSPost2010Prop32
280
     0
102
RTVSPost2010PropOp32
 70
     1
102
RTVSPost2010Prop33
280
     0
102
RTVSPost2010PropOp33
 70
     1
102
RTVSPost2010Prop34
280
     0
102
RTVSPost2010PropOp34
 70
     1
102
RTVSPost2010Prop35
280
     0
102
RTVSPost2010PropOp35
 70
     1
102
RTVSPost2010Prop36
280
     0
102
RTVSPost2010PropOp36
 70
     1
102
RTVSPost2010Prop37
 90
       50
102
RTVSPost2010PropOp37
 70
     1
102
RTVSPost2010Prop38
140
0.0
102
RTVSPost2010PropOp38
 70
     1
102
RTVSPost2010Prop39
140
1.0
102
RTVSPost2010PropOp39
 70
     1
102
RTVSPost2010Prop40
 90
        0
102
RTVSPost2010PropOp40
 70
     1
102
RTVSPost2010Prop41ColorIndex
 90
       18
102
RTVSPost2010Prop41ColorRGB
 90
        0
102
RTVSPost2010PropOp41
 70
     1
102
RTVSPost2010Prop42
 90
       50
102
RTVSPost2010PropOp42
 70
     1
102
RTVSPost2010Prop43
 90
        3
102
RTVSPost2010PropOp43
 70
     1
102
RTVSPost2010Prop44ColorIndex
 90
        5
102
RTVSPost2010Prop44ColorRGB
 90
      255
102
RTVSPost2010PropOp44
 70
     1
102
RTVSPost2010Prop45
280
     0
102
RTVSPost2010PropOp45
 70
     1
102
RTVSPost2010Prop46
 90
       50
102
RTVSPost2010PropOp46
 70
     1
102
RTVSPost2010Prop47
 90
       50
102
RTVSPost2010PropOp47
 70
     1
102
RTVSPost2010Prop48
 90
       50
102
RTVSPost2010PropOp48
 70
     1
102
RTVSPost2010Prop49
280
     0
102
RTVSPost2010PropOp49
 70
     1
102
RTVSPost2010Prop50
 90
       50
102
RTVSPost2010PropOp50
 70
     1
102
RTVSPost2010Prop51ColorIndex
 90
      256
102
RTVSPost2010Prop51ColorRGB
 90
-16777216
102
RTVSPost2010PropOp51
 70
     0
102
RTVSPost2010Prop52
140
1.0
102
RTVSPost2010PropOp52
 70
     0
102
RTVSPost2010Prop53
 90
        2
102
RTVSPost2010PropOp53
 70
     1
102
RTVSPost2010Prop54
  1
strokes_ogs.tif
102
RTVSPost2010PropOp54
 70
     1
102
RTVSPost2010Prop55
280
     0
102
RTVSPost2010PropOp55
 70
     1
102
RTVSPost2010Prop56
140
1.0
102
RTVSPost2010PropOp56
 70
     1
102
RTVSPost2010Prop57
140
1.0
102
RTVSPost2010PropOp57
 70
     1
  0
XRECORD
  5
420
102
{ACAD_REACTORS
330
41F
102
}
330
41F
100
AcDbXrecord
280
     1
102
RTVSPost2010Prop28
280
     0
102
RTVSPost2010PropOp28
 70
     1
102
RTVSPost2010Prop29
280
     1
102
RTVSPost2010PropOp29
 70
     1
102
RTVSPost2010Prop30
280
     1
102
RTVSPost2010PropOp30
 70
     1
102
RTVSPost2010Prop31
280
     0
102
RTVSPost2010PropOp31
 70
     1
102
RTVSPost2010Prop32
280
     0
102
RTVSPost2010PropOp32
 70
     1
102
RTVSPost2010Prop33
280
     0
102
RTVSPost2010PropOp33
 70
     1
102
RTVSPost2010Prop34
280
     0
102
RTVSPost2010PropOp34
 70
     1
102
RTVSPost2010Prop35
280
     0
102
RTVSPost2010PropOp35
 70
     1
102
RTVSPost2010Prop36
280
     0
102
RTVSPost2010PropOp36
 70
     1
102
RTVSPost2010Prop37
 90
       50
102
RTVSPost2010PropOp37
 70
     1
102
RTVSPost2010Prop38
140
0.0
102
RTVSPost2010PropOp38
 70
     1
102
RTVSPost2010Prop39
140
1.0
102
RTVSPost2010PropOp39
 70
     1
102
RTVSPost2010Prop40
 90
        0
102
RTVSPost2010PropOp40
 70
     1
102
RTVSPost2010Prop41ColorIndex
 90
       18
102
RTVSPost2010Prop41ColorRGB
 90
        0
102
RTVSPost2010PropOp41
 70
     1
102
RTVSPost2010Prop42
 90
       50
102
RTVSPost2010PropOp42
 70
     1
102
RTVSPost2010Prop43
 90
        3
102
RTVSPost2010PropOp43
 70
     1
102
RTVSPost2010Prop44ColorIndex
 90
        5
102
RTVSPost2010Prop44ColorRGB
 90
      255
102
RTVSPost2010PropOp44
 70
     1
102
RTVSPost2010Prop45
280
     0
102
RTVSPost2010PropOp45
 70
     1
102
RTVSPost2010Prop46
 90
       50
102
RTVSPost2010PropOp46
 70
     1
102
RTVSPost2010Prop47
 90
       50
102
RTVSPost2010PropOp47
 70
     1
102
RTVSPost2010Prop48
 90
       50
102
RTVSPost2010PropOp48
 70
     1
102
RTVSPost2010Prop49
280
     0
102
RTVSPost2010PropOp49
 70
     1
102
RTVSPost2010Prop50
 90
       50
102
RTVSPost2010PropOp50
 70
     1
102
RTVSPost2010Prop51ColorIndex
 90
      256
102
RTVSPost2010Prop51ColorRGB
 90
-16777216
102
RTVSPost2010PropOp51
 70
     0
102
RTVSPost2010Prop52
140
1.0
102
RTVSPost2010PropOp52
 70
     0
102
RTVSPost2010Prop53
 90
        2
102
RTVSPost2010PropOp53
 70
     1
102
RTVSPost2010Prop54
  1
strokes_ogs.tif
102
RTVSPost2010PropOp54
 70
     1
102
RTVSPost2010Prop55
280
     0
102
RTVSPost2010PropOp55
 70
     1
102
RTVSPost2010Prop56
140
1.0
102
RTVSPost2010PropOp56
 70
     1
102
RTVSPost2010Prop57
140
1.0
102
RTVSPost2010PropOp57
 70
     1
  0
XRECORD
  5
41E
102
{ACAD_REACTORS
330
41D
102
}
330
41D
100
AcDbXrecord
280
     1
102
RTVSPost2010Prop28
280
     0
102
RTVSPost2010PropOp28
 70
     1
102
RTVSPost2010Prop29
280
     1
102
RTVSPost2010PropOp29
 70
     1
102
RTVSPost2010Prop30
280
     1
102
RTVSPost2010PropOp30
 70
     1
102
RTVSPost2010Prop31
280
     0
102
RTVSPost2010PropOp31
 70
     1
102
RTVSPost2010Prop32
280
     0
102
RTVSPost2010PropOp32
 70
     1
102
RTVSPost2010Prop33
280
     0
102
RTVSPost2010PropOp33
 70
     1
102
RTVSPost2010Prop34
280
     0
102
RTVSPost2010PropOp34
 70
     1
102
RTVSPost2010Prop35
280
     0
102
RTVSPost2010PropOp35
 70
     1
102
RTVSPost2010Prop36
280
     0
102
RTVSPost2010PropOp36
 70
     1
102
RTVSPost2010Prop37
 90
       50
102
RTVSPost2010PropOp37
 70
     1
102
RTVSPost2010Prop38
140
0.0
102
RTVSPost2010PropOp38
 70
     1
102
RTVSPost2010Prop39
140
1.0
102
RTVSPost2010PropOp39
 70
     1
102
RTVSPost2010Prop40
 90
        0
102
RTVSPost2010PropOp40
 70
     1
102
RTVSPost2010Prop41ColorIndex
 90
       18
102
RTVSPost2010Prop41ColorRGB
 90
        0
102
RTVSPost2010PropOp41
 70
     1
102
RTVSPost2010Prop42
 90
       50
102
RTVSPost2010PropOp42
 70
     1
102
RTVSPost2010Prop43
 90
        3
102
RTVSPost2010PropOp43
 70
     1
102
RTVSPost2010Prop44ColorIndex
 90
        5
102
RTVSPost2010Prop44ColorRGB
 90
      255
102
RTVSPost2010PropOp44
 70
     1
102
RTVSPost2010Prop45
280
     0
102
RTVSPost2010PropOp45
 70
     1
102
RTVSPost2010Prop46
 90
       50
102
RTVSPost2010PropOp46
 70
     1
102
RTVSPost2010Prop47
 90
       50
102
RTVSPost2010PropOp47
 70
     1
102
RTVSPost2010Prop48
 90
       50
102
RTVSPost2010PropOp48
 70
     1
102
RTVSPost2010Prop49
280
     0
102
RTVSPost2010PropOp49
 70
     1
102
RTVSPost2010Prop50
 90
       50
102
RTVSPost2010PropOp50
 70
     1
102
RTVSPost2010Prop51ColorIndex
 90
      256
102
RTVSPost2010Prop51ColorRGB
 90
-16777216
102
RTVSPost2010PropOp51
 70
     0
102
RTVSPost2010Prop52
140
1.0
102
RTVSPost2010PropOp52
 70
     0
102
RTVSPost2010Prop53
 90
        2
102
RTVSPost2010PropOp53
 70
     1
102
RTVSPost2010Prop54
  1
strokes_ogs.tif
102
RTVSPost2010PropOp54
 70
     1
102
RTVSPost2010Prop55
280
     0
102
RTVSPost2010PropOp55
 70
     1
102
RTVSPost2010Prop56
140
1.0
102
RTVSPost2010PropOp56
 70
     1
102
RTVSPost2010Prop57
140
1.0
102
RTVSPost2010PropOp57
 70
     1
  0
XRECORD
  5
418
102
{ACAD_REACTORS
330
417
102
}
330
417
100
AcDbXrecord
280
     1
102
RTVSPost2010Prop28
280
     0
102
RTVSPost2010PropOp28
 70
     1
102
RTVSPost2010Prop29
280
     1
102
RTVSPost2010PropOp29
 70
     1
102
RTVSPost2010Prop30
280
     1
102
RTVSPost2010PropOp30
 70
     1
102
RTVSPost2010Prop31
280
     0
102
RTVSPost2010PropOp31
 70
     1
102
RTVSPost2010Prop32
280
     0
102
RTVSPost2010PropOp32
 70
     1
102
RTVSPost2010Prop33
280
     0
102
RTVSPost2010PropOp33
 70
     1
102
RTVSPost2010Prop34
280
     0
102
RTVSPost2010PropOp34
 70
     1
102
RTVSPost2010Prop35
280
     0
102
RTVSPost2010PropOp35
 70
     1
102
RTVSPost2010Prop36
280
     0
102
RTVSPost2010PropOp36
 70
     1
102
RTVSPost2010Prop37
 90
       50
102
RTVSPost2010PropOp37
 70
     1
102
RTVSPost2010Prop38
140
0.0
102
RTVSPost2010PropOp38
 70
     1
102
RTVSPost2010Prop39
140
1.0
102
RTVSPost2010PropOp39
 70
     1
102
RTVSPost2010Prop40
 90
        0
102
RTVSPost2010PropOp40
 70
     1
102
RTVSPost2010Prop41ColorIndex
 90
       18
102
RTVSPost2010Prop41ColorRGB
 90
        0
102
RTVSPost2010PropOp41
 70
     1
102
RTVSPost2010Prop42
 90
       50
102
RTVSPost2010PropOp42
 70
     1
102
RTVSPost2010Prop43
 90
        3
102
RTVSPost2010PropOp43
 70
     1
102
RTVSPost2010Prop44ColorIndex
 90
        5
102
RTVSPost2010Prop44ColorRGB
 90
      255
102
RTVSPost2010PropOp44
 70
     1
102
RTVSPost2010Prop45
280
     0
102
RTVSPost2010PropOp45
 70
     1
102
RTVSPost2010Prop46
 90
       50
102
RTVSPost2010PropOp46
 70
     1
102
RTVSPost2010Prop47
 90
       50
102
RTVSPost2010PropOp47
 70
     1
102
RTVSPost2010Prop48
 90
       50
102
RTVSPost2010PropOp48
 70
     1
102
RTVSPost2010Prop49
280
     0
102
RTVSPost2010PropOp49
 70
     1
102
RTVSPost2010Prop50
 90
       50
102
RTVSPost2010PropOp50
 70
     1
102
RTVSPost2010Prop51ColorIndex
 90
      256
102
RTVSPost2010Prop51ColorRGB
 90
-16777216
102
RTVSPost2010PropOp51
 70
     0
102
RTVSPost2010Prop52
140
1.0
102
RTVSPost2010PropOp52
 70
     0
102
RTVSPost2010Prop53
 90
        2
102
RTVSPost2010PropOp53
 70
     1
102
RTVSPost2010Prop54
  1
strokes_ogs.tif
102
RTVSPost2010PropOp54
 70
     1
102
RTVSPost2010Prop55
280
     0
102
RTVSPost2010PropOp55
 70
     1
102
RTVSPost2010Prop56
140
1.0
102
RTVSPost2010PropOp56
 70
     1
102
RTVSPost2010Prop57
140
1.0
102
RTVSPost2010PropOp57
 70
     1
  0
XRECORD
  5
41A
102
{ACAD_REACTORS
330
419
102
}
330
419
100
AcDbXrecord
280
     1
102
RTVSPost2010Prop28
280
     0
102
RTVSPost2010PropOp28
 70
     1
102
RTVSPost2010Prop29
280
     1
102
RTVSPost2010PropOp29
 70
     1
102
RTVSPost2010Prop30
280
     1
102
RTVSPost2010PropOp30
 70
     1
102
RTVSPost2010Prop31
280
     0
102
RTVSPost2010PropOp31
 70
     1
102
RTVSPost2010Prop32
280
     0
102
RTVSPost2010PropOp32
 70
     1
102
RTVSPost2010Prop33
280
     0
102
RTVSPost2010PropOp33
 70
     1
102
RTVSPost2010Prop34
280
     0
102
RTVSPost2010PropOp34
 70
     1
102
RTVSPost2010Prop35
280
     0
102
RTVSPost2010PropOp35
 70
     1
102
RTVSPost2010Prop36
280
     0
102
RTVSPost2010PropOp36
 70
     1
102
RTVSPost2010Prop37
 90
       50
102
RTVSPost2010PropOp37
 70
     1
102
RTVSPost2010Prop38
140
0.0
102
RTVSPost2010PropOp38
 70
     1
102
RTVSPost2010Prop39
140
1.0
102
RTVSPost2010PropOp39
 70
     1
102
RTVSPost2010Prop40
 90
        0
102
RTVSPost2010PropOp40
 70
     1
102
RTVSPost2010Prop41ColorIndex
 90
       18
102
RTVSPost2010Prop41ColorRGB
 90
        0
102
RTVSPost2010PropOp41
 70
     1
102
RTVSPost2010Prop42
 90
       50
102
RTVSPost2010PropOp42
 70
     1
102
RTVSPost2010Prop43
 90
        3
102
RTVSPost2010PropOp43
 70
     1
102
RTVSPost2010Prop44ColorIndex
 90
        5
102
RTVSPost2010Prop44ColorRGB
 90
      255
102
RTVSPost2010PropOp44
 70
     1
102
RTVSPost2010Prop45
280
     0
102
RTVSPost2010PropOp45
 70
     1
102
RTVSPost2010Prop46
 90
       50
102
RTVSPost2010PropOp46
 70
     1
102
RTVSPost2010Prop47
 90
       50
102
RTVSPost2010PropOp47
 70
     1
102
RTVSPost2010Prop48
 90
       50
102
RTVSPost2010PropOp48
 70
     1
102
RTVSPost2010Prop49
280
     0
102
RTVSPost2010PropOp49
 70
     1
102
RTVSPost2010Prop50
 90
       50
102
RTVSPost2010PropOp50
 70
     1
102
RTVSPost2010Prop51ColorIndex
 90
      256
102
RTVSPost2010Prop51ColorRGB
 90
-16777216
102
RTVSPost2010PropOp51
 70
     0
102
RTVSPost2010Prop52
140
1.0
102
RTVSPost2010PropOp52
 70
     0
102
RTVSPost2010Prop53
 90
        2
102
RTVSPost2010PropOp53
 70
     1
102
RTVSPost2010Prop54
  1
strokes_ogs.tif
102
RTVSPost2010PropOp54
 70
     1
102
RTVSPost2010Prop55
280
     0
102
RTVSPost2010PropOp55
 70
     1
102
RTVSPost2010Prop56
140
1.0
102
RTVSPost2010PropOp56
 70
     1
102
RTVSPost2010Prop57
140
1.0
102
RTVSPost2010PropOp57
 70
     1
  0
XRECORD
  5
40A
102
{ACAD_REACTORS
330
409
102
}
330
409
100
AcDbXrecord
280
     1
102
RTVSPost2010Prop28
280
     0
102
RTVSPost2010PropOp28
 70
     1
102
RTVSPost2010Prop29
280
     1
102
RTVSPost2010PropOp29
 70
     1
102
RTVSPost2010Prop30
280
     1
102
RTVSPost2010PropOp30
 70
     1
102
RTVSPost2010Prop31
280
     0
102
RTVSPost2010PropOp31
 70
     1
102
RTVSPost2010Prop32
280
     0
102
RTVSPost2010PropOp32
 70
     1
102
RTVSPost2010Prop33
280
     0
102
RTVSPost2010PropOp33
 70
     1
102
RTVSPost2010Prop34
280
     0
102
RTVSPost2010PropOp34
 70
     1
102
RTVSPost2010Prop35
280
     0
102
RTVSPost2010PropOp35
 70
     1
102
RTVSPost2010Prop36
280
     0
102
RTVSPost2010PropOp36
 70
     1
102
RTVSPost2010Prop37
 90
       50
102
RTVSPost2010PropOp37
 70
     1
102
RTVSPost2010Prop38
140
0.0
102
RTVSPost2010PropOp38
 70
     1
102
RTVSPost2010Prop39
140
1.0
102
RTVSPost2010PropOp39
 70
     1
102
RTVSPost2010Prop40
 90
        0
102
RTVSPost2010PropOp40
 70
     1
102
RTVSPost2010Prop41ColorIndex
 90
       18
102
RTVSPost2010Prop41ColorRGB
 90
        0
102
RTVSPost2010PropOp41
 70
     1
102
RTVSPost2010Prop42
 90
       50
102
RTVSPost2010PropOp42
 70
     1
102
RTVSPost2010Prop43
 90
        3
102
RTVSPost2010PropOp43
 70
     1
102
RTVSPost2010Prop44ColorIndex
 90
        5
102
RTVSPost2010Prop44ColorRGB
 90
      255
102
RTVSPost2010PropOp44
 70
     1
102
RTVSPost2010Prop45
280
     0
102
RTVSPost2010PropOp45
 70
     1
102
RTVSPost2010Prop46
 90
       50
102
RTVSPost2010PropOp46
 70
     1
102
RTVSPost2010Prop47
 90
       50
102
RTVSPost2010PropOp47
 70
     1
102
RTVSPost2010Prop48
 90
       50
102
RTVSPost2010PropOp48
 70
     1
102
RTVSPost2010Prop49
280
     0
102
RTVSPost2010PropOp49
 70
     1
102
RTVSPost2010Prop50
 90
       50
102
RTVSPost2010PropOp50
 70
     1
102
RTVSPost2010Prop51ColorIndex
 90
      256
102
RTVSPost2010Prop51ColorRGB
 90
-16777216
102
RTVSPost2010PropOp51
 70
     0
102
RTVSPost2010Prop52
140
1.0
102
RTVSPost2010PropOp52
 70
     0
102
RTVSPost2010Prop53
 90
        2
102
RTVSPost2010PropOp53
 70
     1
102
RTVSPost2010Prop54
  1
strokes_ogs.tif
102
RTVSPost2010PropOp54
 70
     1
102
RTVSPost2010Prop55
280
     0
102
RTVSPost2010PropOp55
 70
     1
102
RTVSPost2010Prop56
140
1.0
102
RTVSPost2010PropOp56
 70
     1
102
RTVSPost2010Prop57
140
1.0
102
RTVSPost2010PropOp57
 70
     1
  0
XRECORD
  5
3FC
102
{ACAD_REACTORS
330
3FB
102
}
330
3FB
100
AcDbXrecord
280
     1
102
RTVSPost2010Prop28
280
     0
102
RTVSPost2010PropOp28
 70
     1
102
RTVSPost2010Prop29
280
     1
102
RTVSPost2010PropOp29
 70
     1
102
RTVSPost2010Prop30
280
     1
102
RTVSPost2010PropOp30
 70
     1
102
RTVSPost2010Prop31
280
     0
102
RTVSPost2010PropOp31
 70
     1
102
RTVSPost2010Prop32
280
     0
102
RTVSPost2010PropOp32
 70
     1
102
RTVSPost2010Prop33
280
     0
102
RTVSPost2010PropOp33
 70
     1
102
RTVSPost2010Prop34
280
     0
102
RTVSPost2010PropOp34
 70
     1
102
RTVSPost2010Prop35
280
     0
102
RTVSPost2010PropOp35
 70
     1
102
RTVSPost2010Prop36
280
     0
102
RTVSPost2010PropOp36
 70
     1
102
RTVSPost2010Prop37
 90
       50
102
RTVSPost2010PropOp37
 70
     1
102
RTVSPost2010Prop38
140
0.0
102
RTVSPost2010PropOp38
 70
     1
102
RTVSPost2010Prop39
140
1.0
102
RTVSPost2010PropOp39
 70
     1
102
RTVSPost2010Prop40
 90
        0
102
RTVSPost2010PropOp40
 70
     1
102
RTVSPost2010Prop41ColorIndex
 90
       18
102
RTVSPost2010Prop41ColorRGB
 90
        0
102
RTVSPost2010PropOp41
 70
     1
102
RTVSPost2010Prop42
 90
       50
102
RTVSPost2010PropOp42
 70
     1
102
RTVSPost2010Prop43
 90
        3
102
RTVSPost2010PropOp43
 70
     1
102
RTVSPost2010Prop44ColorIndex
 90
        5
102
RTVSPost2010Prop44ColorRGB
 90
      255
102
RTVSPost2010PropOp44
 70
     1
102
RTVSPost2010Prop45
280
     0
102
RTVSPost2010PropOp45
 70
     1
102
RTVSPost2010Prop46
 90
       50
102
RTVSPost2010PropOp46
 70
     1
102
RTVSPost2010Prop47
 90
       50
102
RTVSPost2010PropOp47
 70
     1
102
RTVSPost2010Prop48
 90
       50
102
RTVSPost2010PropOp48
 70
     1
102
RTVSPost2010Prop49
280
     0
102
RTVSPost2010PropOp49
 70
     1
102
RTVSPost2010Prop50
 90
       50
102
RTVSPost2010PropOp50
 70
     1
102
RTVSPost2010Prop51ColorIndex
 90
      256
102
RTVSPost2010Prop51ColorRGB
 90
-16777216
102
RTVSPost2010PropOp51
 70
     0
102
RTVSPost2010Prop52
140
1.0
102
RTVSPost2010PropOp52
 70
     0
102
RTVSPost2010Prop53
 90
        2
102
RTVSPost2010PropOp53
 70
     1
102
RTVSPost2010Prop54
  1
strokes_ogs.tif
102
RTVSPost2010PropOp54
 70
     1
102
RTVSPost2010Prop55
280
     0
102
RTVSPost2010PropOp55
 70
     1
102
RTVSPost2010Prop56
140
1.0
102
RTVSPost2010PropOp56
 70
     1
102
RTVSPost2010Prop57
140
1.0
102
RTVSPost2010PropOp57
 70
     1
  0
XRECORD
  5
41C
102
{ACAD_REACTORS
330
41B
102
}
330
41B
100
AcDbXrecord
280
     1
102
RTVSPost2010Prop28
280
     0
102
RTVSPost2010PropOp28
 70
     1
102
RTVSPost2010Prop29
280
     1
102
RTVSPost2010PropOp29
 70
     1
102
RTVSPost2010Prop30
280
     1
102
RTVSPost2010PropOp30
 70
     1
102
RTVSPost2010Prop31
280
     0
102
RTVSPost2010PropOp31
 70
     1
102
RTVSPost2010Prop32
280
     0
102
RTVSPost2010PropOp32
 70
     1
102
RTVSPost2010Prop33
280
     0
102
RTVSPost2010PropOp33
 70
     1
102
RTVSPost2010Prop34
280
     0
102
RTVSPost2010PropOp34
 70
     1
102
RTVSPost2010Prop35
280
     0
102
RTVSPost2010PropOp35
 70
     1
102
RTVSPost2010Prop36
280
     0
102
RTVSPost2010PropOp36
 70
     1
102
RTVSPost2010Prop37
 90
       50
102
RTVSPost2010PropOp37
 70
     1
102
RTVSPost2010Prop38
140
0.0
102
RTVSPost2010PropOp38
 70
     1
102
RTVSPost2010Prop39
140
1.0
102
RTVSPost2010PropOp39
 70
     1
102
RTVSPost2010Prop40
 90
        0
102
RTVSPost2010PropOp40
 70
     1
102
RTVSPost2010Prop41ColorIndex
 90
       18
102
RTVSPost2010Prop41ColorRGB
 90
        0
102
RTVSPost2010PropOp41
 70
     1
102
RTVSPost2010Prop42
 90
       50
102
RTVSPost2010PropOp42
 70
     1
102
RTVSPost2010Prop43
 90
        3
102
RTVSPost2010PropOp43
 70
     1
102
RTVSPost2010Prop44ColorIndex
 90
        5
102
RTVSPost2010Prop44ColorRGB
 90
      255
102
RTVSPost2010PropOp44
 70
     1
102
RTVSPost2010Prop45
280
     0
102
RTVSPost2010PropOp45
 70
     1
102
RTVSPost2010Prop46
 90
       50
102
RTVSPost2010PropOp46
 70
     1
102
RTVSPost2010Prop47
 90
       50
102
RTVSPost2010PropOp47
 70
     1
102
RTVSPost2010Prop48
 90
       50
102
RTVSPost2010PropOp48
 70
     1
102
RTVSPost2010Prop49
280
     0
102
RTVSPost2010PropOp49
 70
     1
102
RTVSPost2010Prop50
 90
       50
102
RTVSPost2010PropOp50
 70
     1
102
RTVSPost2010Prop51ColorIndex
 90
      256
102
RTVSPost2010Prop51ColorRGB
 90
-16777216
102
RTVSPost2010PropOp51
 70
     0
102
RTVSPost2010Prop52
140
1.0
102
RTVSPost2010PropOp52
 70
     0
102
RTVSPost2010Prop53
 90
        2
102
RTVSPost2010PropOp53
 70
     1
102
RTVSPost2010Prop54
  1
strokes_ogs.tif
102
RTVSPost2010PropOp54
 70
     1
102
RTVSPost2010Prop55
280
     0
102
RTVSPost2010PropOp55
 70
     1
102
RTVSPost2010Prop56
140
1.0
102
RTVSPost2010PropOp56
 70
     1
102
RTVSPost2010Prop57
140
1.0
102
RTVSPost2010PropOp57
 70
     1
  0
ENDSEC
  0
EOF
