  0
SECTION
  2
HEADER
  9
$ACADVER
  1
AC1024
  9
$ACADMAINTVER
 70
     6
  9
$DWGCODEPAGE
  3
ANSI_932
  9
$INSBASE
 10
0.0
 20
0.0
 30
0.0
  9
$EXTMIN
 10
-6300.0
 20
-4455.0
 30
0.0
  9
$EXTMAX
 10
6300.0
 20
4455.0
 30
0.0
  9
$LIMMIN
 10
-6300.0
 20
-4455.0
  9
$LIMMAX
 10
6300.0
 20
4455.0
  9
$ORTHOMODE
 70
     0
  9
$REGENMODE
 70
     1
  9
$FILLMODE
 70
     1
  9
$QTEXTMODE
 70
     0
  9
$MIRRTEXT
 70
     1
  9
$LTSCALE
 40
30.0
  9
$ATTMODE
 70
     1
  9
$TEXTSIZE
 40
2.5
  9
$TRACEWID
 40
1.0
  9
$TEXTSTYLE
  7
Standard
  9
$CLAYER
  8
0
  9
$CELTYPE
  6
ByLayer
  9
$CECOLOR
 62
   256
  9
$CELTSCALE
 40
1.0
  9
$DISPSILH
 70
     0
  9
$DIMSCALE
 40
1.0
  9
$DIMASZ
 40
2.5
  9
$DIMEXO
 40
0.625
  9
$DIMDLI
 40
3.75
  9
$DIMRND
 40
0.0
  9
$DIMDLE
 40
0.0
  9
$DIMEXE
 40
1.25
  9
$DIMTP
 40
0.0
  9
$DIMTM
 40
0.0
  9
$DIMTXT
 40
2.5
  9
$DIMCEN
 40
2.5
  9
$DIMTSZ
 40
0.0
  9
$DIMTOL
 70
     0
  9
$DIMLIM
 70
     0
  9
$DIMTIH
 70
     0
  9
$DIMTOH
 70
     0
  9
$DIMSE1
 70
     0
  9
$DIMSE2
 70
     0
  9
$DIMTAD
 70
     1
  9
$DIMZIN
 70
     8
  9
$DIMBLK
  1

  9
$DIMASO
 70
     1
  9
$DIMSHO
 70
     1
  9
$DIMPOST
  1

  9
$DIMAPOST
  1

  9
$DIMALT
 70
     0
  9
$DIMALTD
 70
     3
  9
$DIMALTF
 40
0.03937007874016
  9
$DIMLFAC
 40
1.0
  9
$DIMTOFL
 70
     1
  9
$DIMTVP
 40
0.0
  9
$DIMTIX
 70
     0
  9
$DIMSOXD
 70
     0
  9
$DIMSAH
 70
     0
  9
$DIMBLK1
  1

  9
$DIMBLK2
  1

  9
$DIMSTYLE
  2
ISO-25
  9
$DIMCLRD
 70
     0
  9
$DIMCLRE
 70
     0
  9
$DIMCLRT
 70
     0
  9
$DIMTFAC
 40
1.0
  9
$DIMGAP
 40
0.625
  9
$DIMJUST
 70
     0
  9
$DIMSD1
 70
     0
  9
$DIMSD2
 70
     0
  9
$DIMTOLJ
 70
     0
  9
$DIMTZIN
 70
     8
  9
$DIMALTZ
 70
     0
  9
$DIMALTTZ
 70
     0
  9
$DIMUPT
 70
     0
  9
$DIMDEC
 70
     2
  9
$DIMTDEC
 70
     2
  9
$DIMALTU
 70
     2
  9
$DIMALTTD
 70
     3
  9
$DIMTXSTY
  7
Standard
  9
$DIMAUNIT
 70
     0
  9
$DIMADEC
 70
     0
  9
$DIMALTRND
 40
0.0
  9
$DIMAZIN
 70
     0
  9
$DIMDSEP
 70
    44
  9
$DIMATFIT
 70
     3
  9
$DIMFRAC
 70
     0
  9
$DIMLDRBLK
  1

  9
$DIMLUNIT
 70
     2
  9
$DIMLWD
 70
    -2
  9
$DIMLWE
 70
    -2
  9
$DIMTMOVE
 70
     0
  9
$DIMFXL
 40
1.0
  9
$DIMFXLON
 70
     0
  9
$DIMJOGANG
 40
0.7853981633974483
  9
$DIMTFILL
 70
     0
  9
$DIMTFILLCLR
 70
     0
  9
$DIMARCSYM
 70
     0
  9
$DIMLTYPE
  6

  9
$DIMLTEX1
  6

  9
$DIMLTEX2
  6

  9
$DIMTXTDIRECTION
 70
     0
  9
$LUNITS
 70
     2
  9
$LUPREC
 70
     4
  9
$SKETCHINC
 40
1.0
  9
$FILLETRAD
 40
10.0
  9
$AUNITS
 70
     0
  9
$AUPREC
 70
     0
  9
$MENU
  1
.
  9
$ELEVATION
 40
0.0
  9
$PELEVATION
 40
0.0
  9
$THICKNESS
 40
0.0
  9
$LIMCHECK
 70
     0
  9
$CHAMFERA
 40
0.0
  9
$CHAMFERB
 40
0.0
  9
$CHAMFERC
 40
0.0
  9
$CHAMFERD
 40
0.0
  9
$SKPOLY
 70
     0
  9
$TDCREATE
 40
2458500.717901099
  9
$TDUCREATE
 40
2458500.342901099
  9
$TDUPDATE
 40
2458500.717901308
  9
$TDUUPDATE
 40
2458500.342901308
  9
$TDINDWG
 40
0.0000000116
  9
$TDUSRTIMER
 40
0.0000000116
  9
$USRTIMER
 70
     1
  9
$ANGBASE
 50
0.0
  9
$ANGDIR
 70
     0
  9
$PDMODE
 70
     0
  9
$PDSIZE
 40
0.0
  9
$PLINEWID
 40
0.0
  9
$SPLFRAME
 70
     0
  9
$SPLINETYPE
 70
     6
  9
$SPLINESEGS
 70
     8
  9
$HANDSEED
  5
454
  9
$SURFTAB1
 70
     6
  9
$SURFTAB2
 70
     6
  9
$SURFTYPE
 70
     6
  9
$SURFU
 70
     6
  9
$SURFV
 70
     6
  9
$UCSBASE
  2

  9
$UCSNAME
  2

  9
$UCSORG
 10
0.0
 20
0.0
 30
0.0
  9
$UCSXDIR
 10
1.0
 20
0.0
 30
0.0
  9
$UCSYDIR
 10
0.0
 20
1.0
 30
0.0
  9
$UCSORTHOREF
  2

  9
$UCSORTHOVIEW
 70
     0
  9
$UCSORGTOP
 10
0.0
 20
0.0
 30
0.0
  9
$UCSORGBOTTOM
 10
0.0
 20
0.0
 30
0.0
  9
$UCSORGLEFT
 10
0.0
 20
0.0
 30
0.0
  9
$UCSORGRIGHT
 10
0.0
 20
0.0
 30
0.0
  9
$UCSORGFRONT
 10
0.0
 20
0.0
 30
0.0
  9
$UCSORGBACK
 10
0.0
 20
0.0
 30
0.0
  9
$PUCSBASE
  2

  9
$PUCSNAME
  2

  9
$PUCSORG
 10
0.0
 20
0.0
 30
0.0
  9
$PUCSXDIR
 10
1.0
 20
0.0
 30
0.0
  9
$PUCSYDIR
 10
0.0
 20
1.0
 30
0.0
  9
$PUCSORTHOREF
  2

  9
$PUCSORTHOVIEW
 70
     0
  9
$PUCSORGTOP
 10
0.0
 20
0.0
 30
0.0
  9
$PUCSORGBOTTOM
 10
0.0
 20
0.0
 30
0.0
  9
$PUCSORGLEFT
 10
0.0
 20
0.0
 30
0.0
  9
$PUCSORGRIGHT
 10
0.0
 20
0.0
 30
0.0
  9
$PUCSORGFRONT
 10
0.0
 20
0.0
 30
0.0
  9
$PUCSORGBACK
 10
0.0
 20
0.0
 30
0.0
  9
$USERI1
 70
     0
  9
$USERI2
 70
     0
  9
$USERI3
 70
     0
  9
$USERI4
 70
     0
  9
$USERI5
 70
     0
  9
$USERR1
 40
0.0
  9
$USERR2
 40
0.0
  9
$USERR3
 40
0.0
  9
$USERR4
 40
0.0
  9
$USERR5
 40
0.0
  9
$WORLDVIEW
 70
     1
  9
$SHADEDGE
 70
     3
  9
$SHADEDIF
 70
    70
  9
$TILEMODE
 70
     1
  9
$MAXACTVP
 70
    64
  9
$PINSBASE
 10
0.0
 20
0.0
 30
0.0
  9
$PLIMCHECK
 70
     0
  9
$PEXTMIN
 10
1.000000000000000E+20
 20
1.000000000000000E+20
 30
1.000000000000000E+20
  9
$PEXTMAX
 10
-1.000000000000000E+20
 20
-1.000000000000000E+20
 30
-1.000000000000000E+20
  9
$PLIMMIN
 10
0.0
 20
0.0
  9
$PLIMMAX
 10
420.0
 20
297.0
  9
$UNITMODE
 70
     0
  9
$VISRETAIN
 70
     1
  9
$PLINEGEN
 70
     0
  9
$PSLTSCALE
 70
     1
  9
$TREEDEPTH
 70
  3020
  9
$CMLSTYLE
  2
Standard
  9
$CMLJUST
 70
     0
  9
$CMLSCALE
 40
20.0
  9
$PROXYGRAPHICS
 70
     1
  9
$MEASUREMENT
 70
     1
  9
$CELWEIGHT
370
    -1
  9
$ENDCAPS
280
     0
  9
$JOINSTYLE
280
     0
  9
$LWDISPLAY
290
     0
  9
$INSUNITS
 70
     4
  9
$HYPERLINKBASE
  1

  9
$STYLESHEET
  1

  9
$XEDIT
290
     1
  9
$CEPSNTYPE
380
     0
  9
$PSTYLEMODE
290
     1
  9
$FINGERPRINTGUID
  2
{C3B585B3-E65E-46C1-B2CF-CA432B21B15A}
  9
$VERSIONGUID
  2
{FAEB1C32-E019-11D5-929B-00C0DF256EC4}
  9
$EXTNAMES
290
     1
  9
$PSVPSCALE
 40
0.0
  9
$OLESTARTUP
290
     0
  9
$SORTENTS
280
   127
  9
$INDEXCTL
280
     0
  9
$HIDETEXT
280
     1
  9
$XCLIPFRAME
280
     2
  9
$HALOGAP
280
     0
  9
$OBSCOLOR
 70
   257
  9
$OBSLTYPE
280
     0
  9
$INTERSECTIONDISPLAY
280
     0
  9
$INTERSECTIONCOLOR
 70
   257
  9
$DIMASSOC
280
     2
  9
$PROJECTNAME
  1

  9
$CAMERADISPLAY
290
     0
  9
$LENSLENGTH
 40
50.0
  9
$CAMERAHEIGHT
 40
0.0
  9
$STEPSPERSEC
 40
2.0
  9
$STEPSIZE
 40
6.0
  9
$3DDWFPREC
 40
2.0
  9
$PSOLWIDTH
 40
5.0
  9
$PSOLHEIGHT
 40
80.0
  9
$LOFTANG1
 40
1.570796326794897
  9
$LOFTANG2
 40
1.570796326794897
  9
$LOFTMAG1
 40
0.0
  9
$LOFTMAG2
 40
0.0
  9
$LOFTPARAM
 70
     7
  9
$LOFTNORMALS
280
     1
  9
$LATITUDE
 40
37.795
  9
$LONGITUDE
 40
-122.394
  9
$NORTHDIRECTION
 40
0.0
  9
$TIMEZONE
 70
 -8000
  9
$LIGHTGLYPHDISPLAY
280
     1
  9
$TILEMODELIGHTSYNCH
280
     1
  9
$CMATERIAL
347
44
  9
$SOLIDHIST
280
     0
  9
$SHOWHIST
280
     1
  9
$DWFFRAME
280
     2
  9
$DGNFRAME
280
     2
  9
$REALWORLDSCALE
290
     1
  9
$INTERFERECOLOR
 62
   256
  9
$CSHADOW
280
     0
  9
$SHADOWPLANELOCATION
 40
0.0
  0
ENDSEC
  0
SECTION
  2
CLASSES
  0
CLASS
  1
ACDBDICTIONARYWDFLT
  2
AcDbDictionaryWithDefault
  3
ObjectDBX Classes
 90
        0
 91
        4
280
     0
281
     0
  0
CLASS
  1
VISUALSTYLE
  2
AcDbVisualStyle
  3
ObjectDBX Classes
 90
     4095
 91
        4
280
     0
281
     0
  0
CLASS
  1
MATERIAL
  2
AcDbMaterial
  3
ObjectDBX Classes
 90
     1153
 91
        4
280
     0
281
     0
  0
CLASS
  1
SCALE
  2
AcDbScale
  3
ObjectDBX Classes
 90
     1153
 91
        4
280
     0
281
     0
  0
CLASS
  1
TABLESTYLE
  2
AcDbTableStyle
  3
ObjectDBX Classes
 90
     4095
 91
        4
280
     0
281
     0
  0
CLASS
  1
MLEADERSTYLE
  2
AcDbMLeaderStyle
  3
ACDB_MLEADERSTYLE_CLASS
 90
     4095
 91
        4
280
     0
281
     0
  0
CLASS
  1
SUN
  2
AcDbSun
  3
SCENEOE
 90
     1153
 91
        4
280
     0
281
     0
  0
CLASS
  1
DICTIONARYVAR
  2
AcDbDictionaryVar
  3
ObjectDBX Classes
 90
        0
 91
        4
280
     0
281
     0
  0
CLASS
  1
CELLSTYLEMAP
  2
AcDbCellStyleMap
  3
ObjectDBX Classes
 90
     1152
 91
        4
280
     0
281
     0
  0
ENDSEC
  0
SECTION
  2
TABLES
  0
TABLE
  2
VPORT
  5
8
330
0
100
AcDbSymbolTable
 70
     1
  0
VPORT
  5
29
330
8
100
AcDbSymbolTableRecord
100
AcDbViewportTableRecord
  2
*Active
 70
     0
 10
0.0
 20
0.0
 11
1.0
 21
1.0
 12
0.0
 22
0.0
 13
0.0
 23
0.0
 14
10.0
 24
10.0
 15
10.0
 25
10.0
 16
0.0
 26
0.0
 36
1.0
 17
0.0
 27
0.0
 37
0.0
 40
9801.0
 41
1.414141414141414
 42
50.0
 43
0.0
 44
0.0
 50
0.0
 51
0.0
 71
     0
 72
 10000
 73
     1
 74
     3
 75
     0
 76
     0
 77
     0
 78
     0
281
     0
 65
     1
110
0.0
120
0.0
130
0.0
111
1.0
121
0.0
131
0.0
112
0.0
122
1.0
132
0.0
 79
     0
146
0.0
348
2F
 60
     3
 61
     5
292
     1
282
     1
141
0.0
142
0.0
 63
   250
361
6D
  0
ENDTAB
  0
TABLE
  2
LTYPE
  5
5
330
0
100
AcDbSymbolTable
 70
     3
  0
LTYPE
  5
14
330
5
100
AcDbSymbolTableRecord
100
AcDbLinetypeTableRecord
  2
ByBlock
 70
     0
  3

 72
    65
 73
     0
 40
0.0
  0
LTYPE
  5
15
330
5
100
AcDbSymbolTableRecord
100
AcDbLinetypeTableRecord
  2
ByLayer
 70
     0
  3

 72
    65
 73
     0
 40
0.0
  0
LTYPE
  5
16
330
5
100
AcDbSymbolTableRecord
100
AcDbLinetypeTableRecord
  2
Continuous
 70
     0
  3
Solid line
 72
    65
 73
     0
 40
0.0
  0
LTYPE
  5
70
330
5
100
AcDbSymbolTableRecord
100
AcDbLinetypeTableRecord
  2
JWW_DASHED1
 70
     0
  3
-  --  --  --  --  --  --  --  -
 72
    65
 73
     2
 40
1.693333333333333
 49
0.8466666666666667
 74
     0
 49
-0.8466666666666667
 74
     0
  0
LTYPE
  5
71
330
5
100
AcDbSymbolTableRecord
100
AcDbLinetypeTableRecord
  2
JWW_HOJO
 70
     0
  3
  -   -   -   -   -   -   -   - 
 72
    65
 73
     2
 40
1.693333333333333
 49
-1.27
 74
     0
 49
0.4233333333333333
 74
     0
  0
ENDTAB
  0
TABLE
  2
LAYER
  5
2
330
0
100
AcDbSymbolTable
 70
     8
  0
LAYER
  5
10
330
2
100
AcDbSymbolTableRecord
100
AcDbLayerTableRecord
  2
0
 70
     0
 62
     7
  6
Continuous
370
    -3
390
F
347
46
  0
LAYER
  5
72
330
2
100
AcDbSymbolTableRecord
100
AcDbLayerTableRecord
  2
F-1
 70
     0
 62
     7
  6
Continuous
370
    -3
390
F
347
46
  0
LAYER
  5
73
330
2
100
AcDbSymbolTableRecord
100
AcDbLayerTableRecord
  2
F-0
 70
     0
 62
     7
  6
Continuous
370
    -3
390
F
347
46
  0
LAYER
  5
74
330
2
100
AcDbSymbolTableRecord
100
AcDbLayerTableRecord
  2
0-0
 70
     0
 62
     7
  6
Continuous
370
    -3
390
F
347
46
  0
LAYER
  5
75
330
2
100
AcDbSymbolTableRecord
100
AcDbLayerTableRecord
  2
0-A
 70
     0
 62
     7
  6
Continuous
370
    -3
390
F
347
46
  0
LAYER
  5
76
330
2
100
AcDbSymbolTableRecord
100
AcDbLayerTableRecord
  2
0-B
 70
     0
 62
     7
  6
Continuous
370
    -3
390
F
347
46
  0
LAYER
  5
77
330
2
100
AcDbSymbolTableRecord
100
AcDbLayerTableRecord
  2
0-4
 70
     0
 62
     7
  6
Continuous
370
    -3
390
F
347
46
  0
LAYER
  5
78
330
2
100
AcDbSymbolTableRecord
100
AcDbLayerTableRecord
  2
F-A
 70
     0
 62
     7
  6
Continuous
370
    -3
390
F
347
46
  0
ENDTAB
  0
TABLE
  2
STYLE
  5
3
330
0
100
AcDbSymbolTable
 70
     3
  0
STYLE
  5
11
330
3
100
AcDbSymbolTableRecord
100
AcDbTextStyleTableRecord
  2
Standard
 70
     0
 40
0.0
 41
1.0
 50
0.0
 71
     0
 42
2.5
  3
txt
  4

  0
STYLE
  5
6E
330
3
100
AcDbSymbolTableRecord
100
AcDbTextStyleTableRecord
  2
ＭＳ ゴシック
 70
     0
 40
1.0
 41
1.0
 50
0.0
 71
     0
 42
2.5
  3

  4

1001
ACAD
1000
MS Gothic
1071
    32817
  0
STYLE
  5
6F
330
3
100
AcDbSymbolTableRecord
100
AcDbTextStyleTableRecord
  2
HG明朝B
 70
     0
 40
1.0
 41
1.0
 50
0.0
 71
     0
 42
2.5
  3

  4

1001
ACAD
1000
HGMinchoB
1071
    32785
  0
ENDTAB
  0
TABLE
  2
VIEW
  5
6
330
0
100
AcDbSymbolTable
 70
     0
  0
ENDTAB
  0
TABLE
  2
UCS
  5
7
330
0
100
AcDbSymbolTable
 70
     0
  0
ENDTAB
  0
TABLE
  2
APPID
  5
9
330
0
100
AcDbSymbolTable
 70
     1
  0
APPID
  5
12
330
9
100
AcDbSymbolTableRecord
100
AcDbRegAppTableRecord
  2
ACAD
 70
     0
  0
ENDTAB
  0
TABLE
  2
DIMSTYLE
  5
A
330
0
100
AcDbSymbolTable
 70
     1
100
AcDbDimStyleTable
  0
DIMSTYLE
105
27
330
A
100
AcDbSymbolTableRecord
100
AcDbDimStyleTableRecord
  2
ISO-25
 70
     0
 41
2.5
 42
0.625
 43
3.75
 44
1.25
 73
     0
 74
     0
 77
     1
 78
     8
140
2.5
141
2.5
143
0.03937007874016
147
0.625
171
     3
172
     1
178
     0
271
     2
272
     2
274
     3
278
    44
283
     0
284
     8
340
11
  0
ENDTAB
  0
TABLE
  2
BLOCK_RECORD
  5
1
330
0
100
AcDbSymbolTable
 70
     1
  0
BLOCK_RECORD
  5
1F
330
1
100
AcDbSymbolTableRecord
100
AcDbBlockTableRecord
  2
*Model_Space
340
22
 70
     0
280
     1
281
     0
  0
BLOCK_RECORD
  5
1B
330
1
100
AcDbSymbolTableRecord
100
AcDbBlockTableRecord
  2
*Paper_Space
340
1E
 70
     0
280
     1
281
     0
  0
BLOCK_RECORD
  5
23
330
1
100
AcDbSymbolTableRecord
100
AcDbBlockTableRecord
  2
*Paper_Space0
340
26
 70
     0
280
     1
281
     0
  0
ENDTAB
  0
ENDSEC
  0
SECTION
  2
BLOCKS
  0
BLOCK
  5
20
330
1F
100
AcDbEntity
  8
0
100
AcDbBlockBegin
  2
*Model_Space
 70
     0
 10
0.0
 20
0.0
 30
0.0
  3
*Model_Space
  1

  0
ENDBLK
  5
21
330
1F
100
AcDbEntity
  8
0
100
AcDbBlockEnd
  0
BLOCK
  5
1C
330
1B
100
AcDbEntity
 67
     1
  8
0
100
AcDbBlockBegin
  2
*Paper_Space
 70
     0
 10
0.0
 20
0.0
 30
0.0
  3
*Paper_Space
  1

  0
ENDBLK
  5
1D
330
1B
100
AcDbEntity
 67
     1
  8
0
100
AcDbBlockEnd
  0
BLOCK
  5
24
330
23
100
AcDbEntity
  8
0
100
AcDbBlockBegin
  2
*Paper_Space0
 70
     0
 10
0.0
 20
0.0
 30
0.0
  3
*Paper_Space0
  1

  0
ENDBLK
  5
25
330
23
100
AcDbEntity
  8
0
100
AcDbBlockEnd
  0
ENDSEC
  0
SECTION
  2
ENTITIES
  0
LINE
  5
79
330
1F
100
AcDbEntity
  8
F-1
  6
JWW_DASHED1
 62
     7
370
     9
100
AcDbLine
 10
-155.0007588154554
 20
-2852.499957600156
 30
0.0
 11
-2405.000758815456
 21
-2852.499957600156
 31
0.0
  0
LINE
  5
7A
330
1F
100
AcDbEntity
  8
F-0
  6
JWW_HOJO
 62
   120
370
     5
100
AcDbLine
 10
-5989.99959584829
 20
3947.500379407728
 30
0.0
 11
5690.337474926098
 21
3947.500379407728
 31
0.0
  0
LINE
  5
7B
330
1F
100
AcDbEntity
  8
F-0
  6
JWW_HOJO
 62
   120
370
     5
100
AcDbLine
 10
-6300.0
 20
4424.999604096284
 30
0.0
 11
5999.999010240709
 21
4424.999604096284
 31
0.0
  0
LINE
  5
7C
330
1F
100
AcDbEntity
  8
F-0
  6
JWW_HOJO
 62
   120
370
     5
100
AcDbLine
 10
-6300.0
 20
-4455.0
 30
0.0
 11
-6300.0
 21
4424.999604096284
 31
0.0
  0
LINE
  5
7D
330
1F
100
AcDbEntity
  8
F-0
  6
JWW_HOJO
 62
   120
370
     5
100
AcDbLine
 10
5999.999010240709
 20
4424.999604096284
 30
0.0
 11
5999.999010240709
 21
-4455.0
 31
0.0
  0
LINE
  5
7E
330
1F
100
AcDbEntity
  8
F-0
  6
JWW_HOJO
 62
   120
370
     5
100
AcDbLine
 10
5999.999010240709
 20
-4455.0
 30
0.0
 11
-6300.0
 21
-4455.0
 31
0.0
  0
LINE
  5
7F
330
1F
100
AcDbEntity
  8
F-1
  6
Continuous
 62
   200
370
    20
100
AcDbLine
 10
-5999.999752560178
 20
4174.999769056166
 30
0.0
 11
5699.998762800888
 21
4174.999769056166
 31
0.0
  0
LINE
  5
80
330
1F
100
AcDbEntity
  8
F-1
  6
Continuous
 62
   200
370
    20
100
AcDbLine
 10
5699.998762800888
 20
4174.999769056166
 30
0.0
 11
5699.998762800888
 21
-4205.000164959882
 31
0.0
  0
LINE
  5
81
330
1F
100
AcDbEntity
  8
F-1
  6
Continuous
 62
   200
370
    20
100
AcDbLine
 10
-5999.99998453501
 20
4174.999769056166
 30
0.0
 11
-5999.99998453501
 21
-4205.000164959882
 31
0.0
  0
LINE
  5
82
330
1F
100
AcDbEntity
  8
F-1
  6
Continuous
 62
   200
370
    20
100
AcDbLine
 10
-5989.999990205507
 20
4174.999769056166
 30
0.0
 11
-5989.999990205507
 21
-4205.000164959882
 31
0.0
  0
LINE
  5
83
330
1F
100
AcDbEntity
  8
F-1
  6
Continuous
 62
   200
370
    20
100
AcDbLine
 10
-5999.999752560178
 20
4164.999983504013
 30
0.0
 11
5699.998762800888
 21
4164.999983504013
 31
0.0
  0
LINE
  5
84
330
1F
100
AcDbEntity
  8
F-1
  6
Continuous
 62
   200
370
    20
100
AcDbLine
 10
-5999.999752560178
 20
4169.999505120355
 30
0.0
 11
5699.998762800888
 21
4169.999505120355
 31
0.0
  0
LINE
  5
85
330
1F
100
AcDbEntity
  8
F-1
  6
Continuous
 62
   200
370
    20
100
AcDbLine
 10
-5994.999975771518
 20
4174.999769056166
 30
0.0
 11
-5994.999975771518
 21
-4205.000164959882
 31
0.0
  0
LINE
  5
86
330
1F
100
AcDbEntity
  8
F-1
  6
Continuous
 62
   200
370
    20
100
AcDbLine
 10
5694.998498865077
 20
4174.999769056166
 30
0.0
 11
5694.998498865077
 21
-4205.000164959882
 31
0.0
  0
LINE
  5
87
330
1F
100
AcDbEntity
  8
F-1
  6
Continuous
 62
   200
370
    20
100
AcDbLine
 10
5689.998977248734
 20
4174.999769056166
 30
0.0
 11
5689.998977248734
 21
-4205.000164959882
 31
0.0
  0
LINE
  5
88
330
1F
100
AcDbEntity
  8
F-1
  6
Continuous
 62
   200
370
    20
100
AcDbLine
 10
-150.0008660393789
 20
4174.999769056166
 30
0.0
 11
-150.0008660393789
 21
-3795.000049487965
 31
0.0
  0
LINE
  5
89
330
1F
100
AcDbEntity
  8
F-1
  6
Continuous
 62
   200
370
    20
100
AcDbLine
 10
-145.0009732633023
 20
4175.04801982158
 30
0.0
 11
-145.0009732633023
 21
-3795.000049487965
 31
0.0
  0
LINE
  5
8A
330
1F
100
AcDbEntity
  8
F-1
  6
Continuous
 62
   200
370
    20
100
AcDbLine
 10
-155.0007588154554
 20
4175.04801982158
 30
0.0
 11
-155.0007588154554
 21
-3795.000049487965
 31
0.0
  0
LINE
  5
8B
330
1F
100
AcDbEntity
  8
F-1
  6
Continuous
 62
   200
370
    20
100
AcDbLine
 10
5699.998762800888
 20
3710.000461887669
 30
0.0
 11
-5999.999752560178
 21
3710.000461887669
 31
0.0
  0
LINE
  5
8C
330
1F
100
AcDbEntity
  8
F-1
  6
Continuous
 62
     7
370
     9
100
AcDbLine
 10
-2405.000758815456
 20
4175.04801982158
 30
0.0
 11
-2405.000758815456
 21
-3795.000049487965
 31
0.0
  0
LINE
  5
8D
330
1F
100
AcDbEntity
  8
F-1
  6
Continuous
 62
     7
370
     9
100
AcDbLine
 10
904.9995216163429
 20
4175.04801982158
 30
0.0
 11
904.9995216163429
 21
-3795.000049487965
 31
0.0
  0
LINE
  5
8E
330
1F
100
AcDbEntity
  8
F-1
  6
Continuous
 62
     7
370
     9
100
AcDbLine
 10
-4940.000028867979
 20
4174.999769056166
 30
0.0
 11
-4940.000028867979
 21
-3790.000017526987
 31
0.0
  0
LINE
  5
8F
330
1F
100
AcDbEntity
  8
F-1
  6
Continuous
 62
     7
370
     9
100
AcDbLine
 10
3439.999719568202
 20
4174.999769056166
 30
0.0
 11
3439.999719568202
 21
-3790.000017526987
 31
0.0
  0
LINE
  5
90
330
1F
100
AcDbEntity
  8
F-1
  6
Continuous
 62
     7
370
     9
100
AcDbLine
 10
-2405.000758815456
 20
3947.500379407728
 30
0.0
 11
-1505.000758815456
 21
3947.500379407728
 31
0.0
  0
LINE
  5
91
330
1F
100
AcDbEntity
  8
F-1
  6
Continuous
 62
     7
370
     9
100
AcDbLine
 10
-635.0007588154554
 20
4175.048019821578
 30
0.0
 11
-635.0007588154554
 21
-3795.000049487966
 31
0.0
  0
LINE
  5
92
330
1F
100
AcDbEntity
  8
F-1
  6
Continuous
 62
     7
370
     9
100
AcDbLine
 10
-1505.000758815456
 20
4175.048019821578
 30
0.0
 11
-1505.000758815456
 21
-3795.000049487966
 31
0.0
  0
LINE
  5
93
330
1F
100
AcDbEntity
  8
0-0
  6
JWW_HOJO
 62
     7
370
     9
100
AcDbLine
 10
-1475.000758815456
 20
4175.048019821578
 30
0.0
 11
-1475.000758815456
 21
-3795.000049487966
 31
0.0
  0
LINE
  5
94
330
1F
100
AcDbEntity
  8
F-1
  6
Continuous
 62
     7
370
     9
100
AcDbLine
 10
3439.999719568202
 20
3947.452128642314
 30
0.0
 11
4339.999719568202
 21
3947.452128642314
 31
0.0
  0
LINE
  5
95
330
1F
100
AcDbEntity
  8
F-1
  6
Continuous
 62
     7
370
     9
100
AcDbLine
 10
4339.999719568202
 20
4174.999769056164
 30
0.0
 11
4339.999719568202
 21
-3795.04830025338
 31
0.0
  0
LINE
  5
96
330
1F
100
AcDbEntity
  8
F-1
  6
Continuous
 62
     7
370
     9
100
AcDbLine
 10
5209.999719568203
 20
4174.999769056164
 30
0.0
 11
5209.999719568203
 21
-3795.04830025338
 31
0.0
  0
LINE
  5
97
330
1F
100
AcDbEntity
  8
0-0
  6
JWW_HOJO
 62
     7
370
     9
100
AcDbLine
 10
4369.999719568202
 20
4174.999769056164
 30
0.0
 11
4369.999719568202
 21
-3795.04830025338
 31
0.0
  0
LINE
  5
98
330
1F
100
AcDbEntity
  8
F-0
  6
JWW_HOJO
 62
     7
370
     9
100
AcDbLine
 10
-3672.500393841717
 20
3710.000461887669
 30
0.0
 11
-3672.500393841717
 21
-3790.000017526987
 31
0.0
  0
LINE
  5
99
330
1F
100
AcDbEntity
  8
F-0
  6
JWW_HOJO
 62
     7
370
     9
100
AcDbLine
 10
-5839.999982473011
 20
4164.999983504013
 30
0.0
 11
-5839.999982473011
 21
-3785.470894478463
 31
0.0
  0
LINE
  5
9A
330
1F
100
AcDbEntity
  8
F-1
  6
Continuous
 62
   200
370
    20
100
AcDbLine
 10
5699.998762800888
 20
3720.000247440669
 30
0.0
 11
-5999.999752560178
 21
3720.000247440669
 31
0.0
  0
LINE
  5
9B
330
1F
100
AcDbEntity
  8
F-0
  6
JWW_HOJO
 62
     7
370
     9
100
AcDbLine
 10
2172.499156642605
 20
3710.000461887669
 30
0.0
 11
2172.499156642605
 21
-3790.000017526987
 31
0.0
  0
LINE
  5
9C
330
1F
100
AcDbEntity
  8
F-1
  6
Continuous
 62
     7
370
     9
100
AcDbLine
 10
5699.998762800888
 20
2460.000381985226
 30
0.0
 11
904.9995216163429
 21
2460.000381985226
 31
0.0
  0
LINE
  5
9D
330
1F
100
AcDbEntity
  8
F-1
  6
Continuous
 62
     7
370
     9
100
AcDbLine
 10
-145.0009732633023
 20
2460.000381985226
 30
0.0
 11
-4940.000028867979
 21
2460.000381985226
 31
0.0
  0
LINE
  5
9E
330
1F
100
AcDbEntity
  8
F-1
  6
Continuous
 62
     7
370
     9
100
AcDbLine
 10
5699.998762800888
 20
1210.000302082783
 30
0.0
 11
904.9995216163429
 21
1210.000302082783
 31
0.0
  0
LINE
  5
9F
330
1F
100
AcDbEntity
  8
F-1
  6
Continuous
 62
     7
370
     9
100
AcDbLine
 10
-145.0009732633023
 20
1210.000302082783
 30
0.0
 11
-4940.000028867979
 21
1210.000302082783
 31
0.0
  0
LINE
  5
A0
330
1F
100
AcDbEntity
  8
F-1
  6
Continuous
 62
     7
370
     9
100
AcDbLine
 10
5699.998762800888
 20
-39.99977781965981
 30
0.0
 11
904.9995216163429
 21
-39.99977781965981
 31
0.0
  0
LINE
  5
A1
330
1F
100
AcDbEntity
  8
F-1
  6
Continuous
 62
     7
370
     9
100
AcDbLine
 10
-145.0009732633023
 20
-39.99977781965981
 30
0.0
 11
-4940.000028867979
 21
-39.99977781965981
 31
0.0
  0
LINE
  5
A2
330
1F
100
AcDbEntity
  8
F-1
  6
Continuous
 62
     7
370
     9
100
AcDbLine
 10
5699.998762800888
 20
-1289.999857722102
 30
0.0
 11
904.9995216163429
 21
-1289.999857722102
 31
0.0
  0
LINE
  5
A3
330
1F
100
AcDbEntity
  8
F-1
  6
Continuous
 62
     7
370
     9
100
AcDbLine
 10
-145.0009732633023
 20
-1289.999857722102
 30
0.0
 11
-4940.000028867979
 21
-1289.999857722102
 31
0.0
  0
LINE
  5
A4
330
1F
100
AcDbEntity
  8
F-1
  6
Continuous
 62
     7
370
     9
100
AcDbLine
 10
5699.998762800888
 20
-2539.999937624545
 30
0.0
 11
904.9995216163429
 21
-2539.999937624545
 31
0.0
  0
LINE
  5
A5
330
1F
100
AcDbEntity
  8
F-1
  6
Continuous
 62
     7
370
     9
100
AcDbLine
 10
-145.0009732633023
 20
-2539.999937624545
 30
0.0
 11
-4940.000028867979
 21
-2539.999937624545
 31
0.0
  0
LINE
  5
A6
330
1F
100
AcDbEntity
  8
F-1
  6
JWW_DASHED1
 62
     7
370
     9
100
AcDbLine
 10
-155.0007588154554
 20
-3633.750007539182
 30
0.0
 11
-2405.000758815456
 21
-3633.750007539182
 31
0.0
  0
LINE
  5
A7
330
1F
100
AcDbEntity
  8
F-1
  6
JWW_DASHED1
 62
     7
370
     9
100
AcDbLine
 10
-155.0007588154554
 20
-3164.999977575766
 30
0.0
 11
-2405.000758815456
 21
-3164.999977575766
 31
0.0
  0
LINE
  5
A8
330
1F
100
AcDbEntity
  8
F-1
  6
JWW_DASHED1
 62
     7
370
     9
100
AcDbLine
 10
-155.0007588154554
 20
-3321.24998756357
 30
0.0
 11
-2405.000758815456
 21
-3321.24998756357
 31
0.0
  0
LINE
  5
A9
330
1F
100
AcDbEntity
  8
F-1
  6
JWW_DASHED1
 62
     7
370
     9
100
AcDbLine
 10
-155.0007588154554
 20
-3477.499997551376
 30
0.0
 11
-2405.000758815456
 21
-3477.499997551376
 31
0.0
  0
LINE
  5
AA
330
1F
100
AcDbEntity
  8
F-1
  6
JWW_DASHED1
 62
     7
370
     9
100
AcDbLine
 10
5689.999719568202
 20
2616.250391973032
 30
0.0
 11
3439.999719568202
 21
2616.250391973032
 31
0.0
  0
LINE
  5
AB
330
1F
100
AcDbEntity
  8
F-1
  6
JWW_DASHED1
 62
     7
370
     9
100
AcDbLine
 10
5689.999719568202
 20
3397.500441912059
 30
0.0
 11
3439.999719568202
 21
3397.500441912059
 31
0.0
  0
LINE
  5
AC
330
1F
100
AcDbEntity
  8
F-1
  6
JWW_DASHED1
 62
     7
370
     9
100
AcDbLine
 10
5689.999719568202
 20
3241.250431924253
 30
0.0
 11
3439.999719568202
 21
3241.250431924253
 31
0.0
  0
LINE
  5
AD
330
1F
100
AcDbEntity
  8
F-1
  6
JWW_DASHED1
 62
     7
370
     9
100
AcDbLine
 10
5689.999719568202
 20
3085.000421936448
 30
0.0
 11
3439.999719568202
 21
3085.000421936448
 31
0.0
  0
LINE
  5
AE
330
1F
100
AcDbEntity
  8
F-1
  6
JWW_DASHED1
 62
     7
370
     9
100
AcDbLine
 10
5689.999719568202
 20
2928.750411948643
 30
0.0
 11
3439.999719568202
 21
2928.750411948643
 31
0.0
  0
LINE
  5
AF
330
1F
100
AcDbEntity
  8
F-1
  6
JWW_DASHED1
 62
     7
370
     9
100
AcDbLine
 10
5689.999719568202
 20
2772.500401960837
 30
0.0
 11
3439.999719568202
 21
2772.500401960837
 31
0.0
  0
LINE
  5
B0
330
1F
100
AcDbEntity
  8
F-1
  6
JWW_DASHED1
 62
     7
370
     9
100
AcDbLine
 10
5689.999719568202
 20
2303.750371997421
 30
0.0
 11
3439.999719568202
 21
2303.750371997421
 31
0.0
  0
LINE
  5
B1
330
1F
100
AcDbEntity
  8
F-1
  6
JWW_DASHED1
 62
     7
370
     9
100
AcDbLine
 10
5689.999719568202
 20
1366.250312070589
 30
0.0
 11
3439.999719568202
 21
1366.250312070589
 31
0.0
  0
LINE
  5
B2
330
1F
100
AcDbEntity
  8
F-1
  6
JWW_DASHED1
 62
     7
370
     9
100
AcDbLine
 10
5689.999719568202
 20
2147.500362009616
 30
0.0
 11
3439.999719568202
 21
2147.500362009616
 31
0.0
  0
LINE
  5
B3
330
1F
100
AcDbEntity
  8
F-1
  6
JWW_DASHED1
 62
     7
370
     9
100
AcDbLine
 10
5689.999719568202
 20
1991.25035202181
 30
0.0
 11
3439.999719568202
 21
1991.25035202181
 31
0.0
  0
LINE
  5
B4
330
1F
100
AcDbEntity
  8
F-1
  6
JWW_DASHED1
 62
     7
370
     9
100
AcDbLine
 10
5689.999719568202
 20
1835.000342034005
 30
0.0
 11
3439.999719568202
 21
1835.000342034005
 31
0.0
  0
LINE
  5
B5
330
1F
100
AcDbEntity
  8
F-1
  6
JWW_DASHED1
 62
     7
370
     9
100
AcDbLine
 10
5689.999719568202
 20
1678.7503320462
 30
0.0
 11
3439.999719568202
 21
1678.7503320462
 31
0.0
  0
LINE
  5
B6
330
1F
100
AcDbEntity
  8
F-1
  6
JWW_DASHED1
 62
     7
370
     9
100
AcDbLine
 10
5689.999719568202
 20
1522.500322058395
 30
0.0
 11
3439.999719568202
 21
1522.500322058395
 31
0.0
  0
LINE
  5
B7
330
1F
100
AcDbEntity
  8
F-1
  6
JWW_DASHED1
 62
     7
370
     9
100
AcDbLine
 10
5689.999719568202
 20
116.2502321681467
 30
0.0
 11
3439.999719568202
 21
116.2502321681467
 31
0.0
  0
LINE
  5
B8
330
1F
100
AcDbEntity
  8
F-1
  6
JWW_DASHED1
 62
     7
370
     9
100
AcDbLine
 10
5689.999719568202
 20
897.5002821071723
 30
0.0
 11
3439.999719568202
 21
897.5002821071723
 31
0.0
  0
LINE
  5
B9
330
1F
100
AcDbEntity
  8
F-1
  6
JWW_DASHED1
 62
     7
370
     9
100
AcDbLine
 10
5689.999719568202
 20
741.2502721193675
 30
0.0
 11
3439.999719568202
 21
741.2502721193675
 31
0.0
  0
LINE
  5
BA
330
1F
100
AcDbEntity
  8
F-1
  6
JWW_DASHED1
 62
     7
370
     9
100
AcDbLine
 10
5689.999719568202
 20
585.0002621315627
 30
0.0
 11
3439.999719568202
 21
585.0002621315627
 31
0.0
  0
LINE
  5
BB
330
1F
100
AcDbEntity
  8
F-1
  6
JWW_DASHED1
 62
     7
370
     9
100
AcDbLine
 10
5689.999719568202
 20
428.7502521437571
 30
0.0
 11
3439.999719568202
 21
428.7502521437571
 31
0.0
  0
LINE
  5
BC
330
1F
100
AcDbEntity
  8
F-1
  6
JWW_DASHED1
 62
     7
370
     9
100
AcDbLine
 10
5689.999719568202
 20
272.5002421559515
 30
0.0
 11
3439.999719568202
 21
272.5002421559515
 31
0.0
  0
LINE
  5
BD
330
1F
100
AcDbEntity
  8
F-1
  6
JWW_DASHED1
 62
     7
370
     9
100
AcDbLine
 10
5689.999719568202
 20
-1133.749847734297
 30
0.0
 11
3439.999719568202
 21
-1133.749847734297
 31
0.0
  0
LINE
  5
BE
330
1F
100
AcDbEntity
  8
F-1
  6
JWW_DASHED1
 62
     7
370
     9
100
AcDbLine
 10
5689.999719568202
 20
-352.4997977952702
 30
0.0
 11
3439.999719568202
 21
-352.4997977952702
 31
0.0
  0
LINE
  5
BF
330
1F
100
AcDbEntity
  8
F-1
  6
JWW_DASHED1
 62
     7
370
     9
100
AcDbLine
 10
5689.999719568202
 20
-508.7498077830759
 30
0.0
 11
3439.999719568202
 21
-508.7498077830759
 31
0.0
  0
LINE
  5
C0
330
1F
100
AcDbEntity
  8
F-1
  6
JWW_DASHED1
 62
     7
370
     9
100
AcDbLine
 10
5689.999719568202
 20
-664.9998177708807
 30
0.0
 11
3439.999719568202
 21
-664.9998177708807
 31
0.0
  0
LINE
  5
C1
330
1F
100
AcDbEntity
  8
F-1
  6
JWW_DASHED1
 62
     7
370
     9
100
AcDbLine
 10
5689.999719568202
 20
-821.2498277586855
 30
0.0
 11
3439.999719568202
 21
-821.2498277586855
 31
0.0
  0
LINE
  5
C2
330
1F
100
AcDbEntity
  8
F-1
  6
JWW_DASHED1
 62
     7
370
     9
100
AcDbLine
 10
5689.999719568202
 20
-977.499837746491
 30
0.0
 11
3439.999719568202
 21
-977.499837746491
 31
0.0
  0
LINE
  5
C3
330
1F
100
AcDbEntity
  8
F-1
  6
JWW_DASHED1
 62
     7
370
     9
100
AcDbLine
 10
5689.999719568202
 20
-1446.249867709908
 30
0.0
 11
3439.999719568202
 21
-1446.249867709908
 31
0.0
  0
LINE
  5
C4
330
1F
100
AcDbEntity
  8
F-1
  6
JWW_DASHED1
 62
     7
370
     9
100
AcDbLine
 10
5689.999719568202
 20
-2383.749927636738
 30
0.0
 11
3439.999719568202
 21
-2383.749927636738
 31
0.0
  0
LINE
  5
C5
330
1F
100
AcDbEntity
  8
F-1
  6
JWW_DASHED1
 62
     7
370
     9
100
AcDbLine
 10
5689.999719568202
 20
-1602.499877697713
 30
0.0
 11
3439.999719568202
 21
-1602.499877697713
 31
0.0
  0
LINE
  5
C6
330
1F
100
AcDbEntity
  8
F-1
  6
JWW_DASHED1
 62
     7
370
     9
100
AcDbLine
 10
5689.999719568202
 20
-1758.749887685517
 30
0.0
 11
3439.999719568202
 21
-1758.749887685517
 31
0.0
  0
LINE
  5
C7
330
1F
100
AcDbEntity
  8
F-1
  6
JWW_DASHED1
 62
     7
370
     9
100
AcDbLine
 10
5689.999719568202
 20
-1914.999897673323
 30
0.0
 11
3439.999719568202
 21
-1914.999897673323
 31
0.0
  0
LINE
  5
C8
330
1F
100
AcDbEntity
  8
F-1
  6
JWW_DASHED1
 62
     7
370
     9
100
AcDbLine
 10
5689.999719568202
 20
-2071.249907661129
 30
0.0
 11
3439.999719568202
 21
-2071.249907661129
 31
0.0
  0
LINE
  5
C9
330
1F
100
AcDbEntity
  8
F-1
  6
JWW_DASHED1
 62
     7
370
     9
100
AcDbLine
 10
5689.999719568202
 20
-2227.499917648934
 30
0.0
 11
3439.999719568202
 21
-2227.499917648934
 31
0.0
  0
LINE
  5
CA
330
1F
100
AcDbEntity
  8
F-1
  6
JWW_DASHED1
 62
     7
370
     9
100
AcDbLine
 10
5689.999719568202
 20
-3633.750007539182
 30
0.0
 11
3439.999719568202
 21
-3633.750007539182
 31
0.0
  0
LINE
  5
CB
330
1F
100
AcDbEntity
  8
F-1
  6
JWW_DASHED1
 62
     7
370
     9
100
AcDbLine
 10
5689.999719568202
 20
-2852.499957600156
 30
0.0
 11
3439.999719568202
 21
-2852.499957600156
 31
0.0
  0
LINE
  5
CC
330
1F
100
AcDbEntity
  8
F-1
  6
JWW_DASHED1
 62
     7
370
     9
100
AcDbLine
 10
5689.999719568202
 20
-3008.749967587961
 30
0.0
 11
3439.999719568202
 21
-3008.749967587961
 31
0.0
  0
LINE
  5
CD
330
1F
100
AcDbEntity
  8
F-1
  6
JWW_DASHED1
 62
     7
370
     9
100
AcDbLine
 10
5689.999719568202
 20
-3164.999977575766
 30
0.0
 11
3439.999719568202
 21
-3164.999977575766
 31
0.0
  0
LINE
  5
CE
330
1F
100
AcDbEntity
  8
F-1
  6
JWW_DASHED1
 62
     7
370
     9
100
AcDbLine
 10
5689.999719568202
 20
-3321.24998756357
 30
0.0
 11
3439.999719568202
 21
-3321.24998756357
 31
0.0
  0
LINE
  5
CF
330
1F
100
AcDbEntity
  8
F-1
  6
JWW_DASHED1
 62
     7
370
     9
100
AcDbLine
 10
5689.999719568202
 20
-3477.499997551376
 30
0.0
 11
3439.999719568202
 21
-3477.499997551376
 31
0.0
  0
LINE
  5
D0
330
1F
100
AcDbEntity
  8
0-A
  6
Continuous
 62
     7
370
     9
100
AcDbLine
 10
-3520.750746980262
 20
3043.480618628094
 30
0.0
 11
-3467.364765295
 21
3043.480618628094
 31
0.0
  0
LINE
  5
D1
330
1F
100
AcDbEntity
  8
0-A
  6
Continuous
 62
     7
370
     9
100
AcDbLine
 10
-3468.789222753196
 20
3073.480618628094
 30
0.0
 11
-3415.403241067935
 21
3073.480618628094
 31
0.0
  0
LWPOLYLINE
  5
D2
330
1F
100
AcDbEntity
  8
0-B
  6
Continuous
 62
     7
370
     9
100
AcDbPolyline
 90
        4
 70
     1
 43
6.0
 10
-4719.499465942383
 20
2834.363496397006
 42
0.4142135623731
 10
-4722.499465942383
 20
2837.363496397006
 42
0.4142135623731
 10
-4725.499465942383
 20
2834.363496397006
 42
0.4142135623731
 10
-4722.499465942383
 20
2831.363496397006
 42
0.4142135623731
  0
LINE
  5
D3
330
1F
100
AcDbEntity
  8
0-B
  6
Continuous
 62
   120
370
     5
100
AcDbLine
 10
-4722.499465942383
 20
2834.363496397006
 30
0.0
 11
-4647.499465942383
 21
2834.363496397006
 31
0.0
  0
LINE
  5
D4
330
1F
100
AcDbEntity
  8
0-4
  6
Continuous
 62
    92
370
    13
100
AcDbLine
 10
-2772.499465942383
 20
2834.363496397006
 30
0.0
 11
-3553.457575955902
 21
2834.363496397006
 31
0.0
  0
LINE
  5
D5
330
1F
100
AcDbEntity
  8
0-4
  6
Continuous
 62
    92
370
    13
100
AcDbLine
 10
-3588.098592107281
 20
2834.363496397006
 30
0.0
 11
-4572.499465942383
 21
2834.363496397006
 31
0.0
  0
LINE
  5
D6
330
1F
100
AcDbEntity
  8
0-A
  6
Continuous
 62
     7
370
     9
100
AcDbLine
 10
-3416.317968808586
 20
3224.363496397006
 30
0.0
 11
-3520.750746980262
 21
3043.480618628094
 31
0.0
  0
LINE
  5
D7
330
1F
100
AcDbEntity
  8
0-A
  6
Continuous
 62
     7
370
     9
100
AcDbLine
 10
-3381.67695265721
 20
3224.363496397006
 30
0.0
 11
-3468.789222753196
 21
3073.480618628094
 31
0.0
  0
LINE
  5
D8
330
1F
100
AcDbEntity
  8
0-A
  6
Continuous
 62
     7
370
     9
100
AcDbLine
 10
-3467.364765295
 20
3043.480618628094
 30
0.0
 11
-3631.399862296503
 21
2759.363496397006
 31
0.0
  0
LINE
  5
D9
330
1F
100
AcDbEntity
  8
0-A
  6
Continuous
 62
     7
370
     9
100
AcDbLine
 10
-3415.403241067935
 20
3073.480618628094
 30
0.0
 11
-3596.758846145124
 21
2759.363496397006
 31
0.0
  0
LINE
  5
DA
330
1F
100
AcDbEntity
  8
0-A
  6
Continuous
 62
     7
370
     9
100
AcDbLine
 10
-3520.751674879597
 20
1793.480538725653
 30
0.0
 11
-3467.365693194336
 21
1793.480538725653
 31
0.0
  0
LINE
  5
DB
330
1F
100
AcDbEntity
  8
0-A
  6
Continuous
 62
     7
370
     9
100
AcDbLine
 10
-3468.790150652531
 20
1823.480538725653
 30
0.0
 11
-3415.404168967269
 21
1823.480538725653
 31
0.0
  0
LWPOLYLINE
  5
DC
330
1F
100
AcDbEntity
  8
0-B
  6
Continuous
 62
     7
370
     9
100
AcDbPolyline
 90
        4
 70
     1
 43
6.0
 10
-4719.500393841718
 20
1584.363416494564
 42
0.4142135623731
 10
-4722.500393841718
 20
1587.363416494564
 42
0.4142135623731
 10
-4725.500393841717
 20
1584.363416494564
 42
0.4142135623731
 10
-4722.500393841718
 20
1581.363416494564
 42
0.4142135623731
  0
LINE
  5
DD
330
1F
100
AcDbEntity
  8
0-B
  6
Continuous
 62
   120
370
     5
100
AcDbLine
 10
-4722.500393841718
 20
1584.363416494564
 30
0.0
 11
-4647.500393841718
 21
1584.363416494564
 31
0.0
  0
LINE
  5
DE
330
1F
100
AcDbEntity
  8
0-4
  6
Continuous
 62
    92
370
    13
100
AcDbLine
 10
-2772.500393841717
 20
1584.363416494564
 30
0.0
 11
-3553.458503855238
 21
1584.363416494564
 31
0.0
  0
LINE
  5
DF
330
1F
100
AcDbEntity
  8
0-4
  6
Continuous
 62
    92
370
    13
100
AcDbLine
 10
-3588.099520006615
 20
1584.363416494564
 30
0.0
 11
-4572.500393841718
 21
1584.363416494564
 31
0.0
  0
LINE
  5
E0
330
1F
100
AcDbEntity
  8
0-A
  6
Continuous
 62
     7
370
     9
100
AcDbLine
 10
-3416.318896707922
 20
1974.363416494564
 30
0.0
 11
-3520.751674879597
 21
1793.480538725653
 31
0.0
  0
LINE
  5
E1
330
1F
100
AcDbEntity
  8
0-A
  6
Continuous
 62
     7
370
     9
100
AcDbLine
 10
-3381.677880556545
 20
1974.363416494564
 30
0.0
 11
-3468.790150652531
 21
1823.480538725653
 31
0.0
  0
LINE
  5
E2
330
1F
100
AcDbEntity
  8
0-A
  6
Continuous
 62
     7
370
     9
100
AcDbLine
 10
-3467.365693194336
 20
1793.480538725653
 30
0.0
 11
-3631.400790195837
 21
1509.363416494564
 31
0.0
  0
LINE
  5
E3
330
1F
100
AcDbEntity
  8
0-A
  6
Continuous
 62
     7
370
     9
100
AcDbLine
 10
-3415.404168967269
 20
1823.480538725653
 30
0.0
 11
-3596.75977404446
 21
1509.363416494564
 31
0.0
  0
LINE
  5
E4
330
1F
100
AcDbEntity
  8
0-A
  6
Continuous
 62
     7
370
     9
100
AcDbLine
 10
-3520.751674879597
 20
543.48045882321
 30
0.0
 11
-3467.365693194336
 21
543.48045882321
 31
0.0
  0
LINE
  5
E5
330
1F
100
AcDbEntity
  8
0-A
  6
Continuous
 62
     7
370
     9
100
AcDbLine
 10
-3468.790150652531
 20
573.48045882321
 30
0.0
 11
-3415.404168967269
 21
573.48045882321
 31
0.0
  0
LWPOLYLINE
  5
E6
330
1F
100
AcDbEntity
  8
0-B
  6
Continuous
 62
     7
370
     9
100
AcDbPolyline
 90
        4
 70
     1
 43
6.0
 10
-4719.500393841718
 20
334.3633365921215
 42
0.4142135623731
 10
-4722.500393841718
 20
337.3633365921215
 42
0.4142135623731
 10
-4725.500393841717
 20
334.3633365921215
 42
0.4142135623731
 10
-4722.500393841718
 20
331.3633365921215
 42
0.4142135623731
  0
LINE
  5
E7
330
1F
100
AcDbEntity
  8
0-B
  6
Continuous
 62
   120
370
     5
100
AcDbLine
 10
-4722.500393841718
 20
334.3633365921215
 30
0.0
 11
-4647.500393841718
 21
334.3633365921215
 31
0.0
  0
LINE
  5
E8
330
1F
100
AcDbEntity
  8
0-4
  6
Continuous
 62
    92
370
    13
100
AcDbLine
 10
-2772.500393841717
 20
334.3633365921215
 30
0.0
 11
-3553.458503855238
 21
334.3633365921215
 31
0.0
  0
LINE
  5
E9
330
1F
100
AcDbEntity
  8
0-4
  6
Continuous
 62
    92
370
    13
100
AcDbLine
 10
-3588.099520006615
 20
334.3633365921215
 30
0.0
 11
-4572.500393841718
 21
334.3633365921215
 31
0.0
  0
LINE
  5
EA
330
1F
100
AcDbEntity
  8
0-A
  6
Continuous
 62
     7
370
     9
100
AcDbLine
 10
-3416.318896707922
 20
724.3633365921215
 30
0.0
 11
-3520.751674879597
 21
543.48045882321
 31
0.0
  0
LINE
  5
EB
330
1F
100
AcDbEntity
  8
0-A
  6
Continuous
 62
     7
370
     9
100
AcDbLine
 10
-3381.677880556545
 20
724.3633365921215
 30
0.0
 11
-3468.790150652531
 21
573.48045882321
 31
0.0
  0
LINE
  5
EC
330
1F
100
AcDbEntity
  8
0-A
  6
Continuous
 62
     7
370
     9
100
AcDbLine
 10
-3467.365693194336
 20
543.48045882321
 30
0.0
 11
-3631.400790195837
 21
259.3633365921215
 31
0.0
  0
LINE
  5
ED
330
1F
100
AcDbEntity
  8
0-A
  6
Continuous
 62
     7
370
     9
100
AcDbLine
 10
-3415.404168967269
 20
573.48045882321
 30
0.0
 11
-3596.75977404446
 21
259.3633365921215
 31
0.0
  0
LINE
  5
EE
330
1F
100
AcDbEntity
  8
0-A
  6
Continuous
 62
     7
370
     9
100
AcDbLine
 10
-3520.751674879597
 20
-708.2440073494915
 30
0.0
 11
-3467.365693194336
 21
-708.2440073494915
 31
0.0
  0
LINE
  5
EF
330
1F
100
AcDbEntity
  8
0-A
  6
Continuous
 62
     7
370
     9
100
AcDbLine
 10
-3468.790150652531
 20
-678.2440073494915
 30
0.0
 11
-3415.404168967269
 21
-678.2440073494915
 31
0.0
  0
LWPOLYLINE
  5
F0
330
1F
100
AcDbEntity
  8
0-B
  6
Continuous
 62
     7
370
     9
100
AcDbPolyline
 90
        4
 70
     1
 43
6.0
 10
-4719.500393841718
 20
-917.36112958058
 42
0.4142135623731
 10
-4722.500393841718
 20
-914.3611295805799
 42
0.4142135623731
 10
-4725.500393841717
 20
-917.36112958058
 42
0.4142135623731
 10
-4722.500393841718
 20
-920.36112958058
 42
0.4142135623731
  0
LINE
  5
F1
330
1F
100
AcDbEntity
  8
0-B
  6
Continuous
 62
   120
370
     5
100
AcDbLine
 10
-4722.500393841718
 20
-917.36112958058
 30
0.0
 11
-4647.500393841718
 21
-917.36112958058
 31
0.0
  0
LINE
  5
F2
330
1F
100
AcDbEntity
  8
0-4
  6
Continuous
 62
    92
370
    13
100
AcDbLine
 10
-2772.500393841717
 20
-917.36112958058
 30
0.0
 11
-3553.458503855238
 21
-917.36112958058
 31
0.0
  0
LINE
  5
F3
330
1F
100
AcDbEntity
  8
0-4
  6
Continuous
 62
    92
370
    13
100
AcDbLine
 10
-3588.099520006615
 20
-917.36112958058
 30
0.0
 11
-4572.500393841718
 21
-917.36112958058
 31
0.0
  0
LINE
  5
F4
330
1F
100
AcDbEntity
  8
0-A
  6
Continuous
 62
     7
370
     9
100
AcDbLine
 10
-3416.318896707922
 20
-527.3611295805796
 30
0.0
 11
-3520.751674879597
 21
-708.2440073494915
 31
0.0
  0
LINE
  5
F5
330
1F
100
AcDbEntity
  8
0-A
  6
Continuous
 62
     7
370
     9
100
AcDbLine
 10
-3381.677880556545
 20
-527.3611295805796
 30
0.0
 11
-3468.790150652531
 21
-678.2440073494915
 31
0.0
  0
LINE
  5
F6
330
1F
100
AcDbEntity
  8
0-A
  6
Continuous
 62
     7
370
     9
100
AcDbLine
 10
-3467.365693194336
 20
-708.2440073494915
 30
0.0
 11
-3631.400790195837
 21
-992.36112958058
 31
0.0
  0
LINE
  5
F7
330
1F
100
AcDbEntity
  8
0-A
  6
Continuous
 62
     7
370
     9
100
AcDbLine
 10
-3415.404168967269
 20
-678.2440073494915
 30
0.0
 11
-3596.75977404446
 21
-992.36112958058
 31
0.0
  0
LINE
  5
F8
330
1F
100
AcDbEntity
  8
0-A
  6
Continuous
 62
     7
370
     9
100
AcDbLine
 10
-3520.751674879597
 20
-1956.519700981676
 30
0.0
 11
-3467.365693194336
 21
-1956.519700981676
 31
0.0
  0
LINE
  5
F9
330
1F
100
AcDbEntity
  8
0-A
  6
Continuous
 62
     7
370
     9
100
AcDbLine
 10
-3468.790150652531
 20
-1926.519700981676
 30
0.0
 11
-3415.404168967269
 21
-1926.519700981676
 31
0.0
  0
LWPOLYLINE
  5
FA
330
1F
100
AcDbEntity
  8
0-B
  6
Continuous
 62
     7
370
     9
100
AcDbPolyline
 90
        4
 70
     1
 43
6.0
 10
-4719.500393841718
 20
-2165.636823212765
 42
0.4142135623731
 10
-4722.500393841718
 20
-2162.636823212765
 42
0.4142135623731
 10
-4725.500393841717
 20
-2165.636823212765
 42
0.4142135623731
 10
-4722.500393841718
 20
-2168.636823212765
 42
0.4142135623731
  0
LINE
  5
FB
330
1F
100
AcDbEntity
  8
0-B
  6
Continuous
 62
   120
370
     5
100
AcDbLine
 10
-4722.500393841718
 20
-2165.636823212765
 30
0.0
 11
-4647.500393841718
 21
-2165.636823212765
 31
0.0
  0
LINE
  5
FC
330
1F
100
AcDbEntity
  8
0-4
  6
Continuous
 62
    92
370
    13
100
AcDbLine
 10
-2772.500393841717
 20
-2165.636823212765
 30
0.0
 11
-3553.458503855238
 21
-2165.636823212765
 31
0.0
  0
LINE
  5
FD
330
1F
100
AcDbEntity
  8
0-4
  6
Continuous
 62
    92
370
    13
100
AcDbLine
 10
-3588.099520006615
 20
-2165.636823212765
 30
0.0
 11
-4572.500393841718
 21
-2165.636823212765
 31
0.0
  0
LINE
  5
FE
330
1F
100
AcDbEntity
  8
0-A
  6
Continuous
 62
     7
370
     9
100
AcDbLine
 10
-3416.318896707922
 20
-1775.636823212765
 30
0.0
 11
-3520.751674879597
 21
-1956.519700981676
 31
0.0
  0
LINE
  5
FF
330
1F
100
AcDbEntity
  8
0-A
  6
Continuous
 62
     7
370
     9
100
AcDbLine
 10
-3381.677880556545
 20
-1775.636823212765
 30
0.0
 11
-3468.790150652531
 21
-1926.519700981676
 31
0.0
  0
LINE
  5
100
330
1F
100
AcDbEntity
  8
0-A
  6
Continuous
 62
     7
370
     9
100
AcDbLine
 10
-3467.365693194336
 20
-1956.519700981676
 30
0.0
 11
-3631.400790195837
 21
-2240.636823212765
 31
0.0
  0
LINE
  5
101
330
1F
100
AcDbEntity
  8
0-A
  6
Continuous
 62
     7
370
     9
100
AcDbLine
 10
-3415.404168967269
 20
-1926.519700981676
 30
0.0
 11
-3596.75977404446
 21
-2240.636823212765
 31
0.0
  0
LINE
  5
102
330
1F
100
AcDbEntity
  8
0-A
  6
Continuous
 62
     7
370
     9
100
AcDbLine
 10
-3520.751674879597
 20
-3206.519780884119
 30
0.0
 11
-3467.365693194336
 21
-3206.519780884119
 31
0.0
  0
LINE
  5
103
330
1F
100
AcDbEntity
  8
0-A
  6
Continuous
 62
     7
370
     9
100
AcDbLine
 10
-3468.790150652531
 20
-3176.519780884119
 30
0.0
 11
-3415.404168967269
 21
-3176.519780884119
 31
0.0
  0
LWPOLYLINE
  5
104
330
1F
100
AcDbEntity
  8
0-B
  6
Continuous
 62
     7
370
     9
100
AcDbPolyline
 90
        4
 70
     1
 43
6.0
 10
-4719.500393841718
 20
-3415.636903115208
 42
0.4142135623731
 10
-4722.500393841718
 20
-3412.636903115208
 42
0.4142135623731
 10
-4725.500393841717
 20
-3415.636903115208
 42
0.4142135623731
 10
-4722.500393841718
 20
-3418.636903115207
 42
0.4142135623731
  0
LINE
  5
105
330
1F
100
AcDbEntity
  8
0-B
  6
Continuous
 62
   120
370
     5
100
AcDbLine
 10
-4722.500393841718
 20
-3415.636903115208
 30
0.0
 11
-4647.500393841718
 21
-3415.636903115208
 31
0.0
  0
LINE
  5
106
330
1F
100
AcDbEntity
  8
0-4
  6
Continuous
 62
    92
370
    13
100
AcDbLine
 10
-2772.500393841717
 20
-3415.636903115208
 30
0.0
 11
-3553.458503855238
 21
-3415.636903115208
 31
0.0
  0
LINE
  5
107
330
1F
100
AcDbEntity
  8
0-4
  6
Continuous
 62
    92
370
    13
100
AcDbLine
 10
-3588.099520006615
 20
-3415.636903115208
 30
0.0
 11
-4572.500393841718
 21
-3415.636903115208
 31
0.0
  0
LINE
  5
108
330
1F
100
AcDbEntity
  8
0-A
  6
Continuous
 62
     7
370
     9
100
AcDbLine
 10
-3416.318896707922
 20
-3025.636903115208
 30
0.0
 11
-3520.751674879597
 21
-3206.519780884119
 31
0.0
  0
LINE
  5
109
330
1F
100
AcDbEntity
  8
0-A
  6
Continuous
 62
     7
370
     9
100
AcDbLine
 10
-3381.677880556545
 20
-3025.636903115208
 30
0.0
 11
-3468.790150652531
 21
-3176.519780884119
 31
0.0
  0
LINE
  5
10A
330
1F
100
AcDbEntity
  8
0-A
  6
Continuous
 62
     7
370
     9
100
AcDbLine
 10
-3467.365693194336
 20
-3206.519780884119
 30
0.0
 11
-3631.400790195837
 21
-3490.636903115208
 31
0.0
  0
LINE
  5
10B
330
1F
100
AcDbEntity
  8
0-A
  6
Continuous
 62
     7
370
     9
100
AcDbLine
 10
-3415.404168967269
 20
-3176.519780884119
 30
0.0
 11
-3596.75977404446
 21
-3490.636903115208
 31
0.0
  0
LINE
  5
10C
330
1F
100
AcDbEntity
  8
0-A
  6
Continuous
 62
     7
370
     9
100
AcDbLine
 10
2324.249731403395
 20
3043.480618628094
 30
0.0
 11
2377.635713088657
 21
3043.480618628094
 31
0.0
  0
LINE
  5
10D
330
1F
100
AcDbEntity
  8
0-A
  6
Continuous
 62
     7
370
     9
100
AcDbLine
 10
2376.211255630462
 20
3073.480618628094
 30
0.0
 11
2429.597237315723
 21
3073.480618628094
 31
0.0
  0
LWPOLYLINE
  5
10E
330
1F
100
AcDbEntity
  8
0-B
  6
Continuous
 62
     7
370
     9
100
AcDbPolyline
 90
        4
 70
     1
 43
6.0
 10
1125.501012441275
 20
2834.363496397006
 42
0.4142135623731
 10
1122.501012441275
 20
2837.363496397006
 42
0.4142135623731
 10
1119.501012441275
 20
2834.363496397006
 42
0.4142135623731
 10
1122.501012441275
 20
2831.363496397006
 42
0.4142135623731
  0
LINE
  5
10F
330
1F
100
AcDbEntity
  8
0-B
  6
Continuous
 62
   120
370
     5
100
AcDbLine
 10
1122.501012441275
 20
2834.363496397006
 30
0.0
 11
1197.501012441275
 21
2834.363496397006
 31
0.0
  0
LINE
  5
110
330
1F
100
AcDbEntity
  8
0-4
  6
Continuous
 62
    92
370
    13
100
AcDbLine
 10
3072.501012441275
 20
2834.363496397006
 30
0.0
 11
2291.542902427756
 21
2834.363496397006
 31
0.0
  0
LINE
  5
111
330
1F
100
AcDbEntity
  8
0-4
  6
Continuous
 62
    92
370
    13
100
AcDbLine
 10
2256.901886276378
 20
2834.363496397006
 30
0.0
 11
1272.501012441275
 21
2834.363496397006
 31
0.0
  0
LINE
  5
112
330
1F
100
AcDbEntity
  8
0-A
  6
Continuous
 62
     7
370
     9
100
AcDbLine
 10
2428.682509575071
 20
3224.363496397006
 30
0.0
 11
2324.249731403395
 21
3043.480618628094
 31
0.0
  0
LINE
  5
113
330
1F
100
AcDbEntity
  8
0-A
  6
Continuous
 62
     7
370
     9
100
AcDbLine
 10
2463.323525726449
 20
3224.363496397006
 30
0.0
 11
2376.211255630462
 21
3073.480618628094
 31
0.0
  0
LINE
  5
114
330
1F
100
AcDbEntity
  8
0-A
  6
Continuous
 62
     7
370
     9
100
AcDbLine
 10
2377.635713088657
 20
3043.480618628094
 30
0.0
 11
2213.600616087156
 21
2759.363496397006
 31
0.0
  0
LINE
  5
115
330
1F
100
AcDbEntity
  8
0-A
  6
Continuous
 62
     7
370
     9
100
AcDbLine
 10
2429.597237315723
 20
3073.480618628094
 30
0.0
 11
2248.241632238533
 21
2759.363496397006
 31
0.0
  0
LINE
  5
116
330
1F
100
AcDbEntity
  8
0-A
  6
Continuous
 62
     7
370
     9
100
AcDbLine
 10
2324.248803504061
 20
1793.480538725653
 30
0.0
 11
2377.634785189322
 21
1793.480538725653
 31
0.0
  0
LINE
  5
117
330
1F
100
AcDbEntity
  8
0-A
  6
Continuous
 62
     7
370
     9
100
AcDbLine
 10
2376.210327731126
 20
1823.480538725653
 30
0.0
 11
2429.596309416388
 21
1823.480538725653
 31
0.0
  0
LWPOLYLINE
  5
118
330
1F
100
AcDbEntity
  8
0-B
  6
Continuous
 62
     7
370
     9
100
AcDbPolyline
 90
        4
 70
     1
 43
6.0
 10
1125.50008454194
 20
1584.363416494564
 42
0.4142135623731
 10
1122.50008454194
 20
1587.363416494564
 42
0.4142135623731
 10
1119.50008454194
 20
1584.363416494564
 42
0.4142135623731
 10
1122.50008454194
 20
1581.363416494564
 42
0.4142135623731
  0
LINE
  5
119
330
1F
100
AcDbEntity
  8
0-B
  6
Continuous
 62
   120
370
     5
100
AcDbLine
 10
1122.50008454194
 20
1584.363416494564
 30
0.0
 11
1197.50008454194
 21
1584.363416494564
 31
0.0
  0
LINE
  5
11A
330
1F
100
AcDbEntity
  8
0-4
  6
Continuous
 62
    92
370
    13
100
AcDbLine
 10
3072.50008454194
 20
1584.363416494564
 30
0.0
 11
2291.54197452842
 21
1584.363416494564
 31
0.0
  0
LINE
  5
11B
330
1F
100
AcDbEntity
  8
0-4
  6
Continuous
 62
    92
370
    13
100
AcDbLine
 10
2256.900958377043
 20
1584.363416494564
 30
0.0
 11
1272.50008454194
 21
1584.363416494564
 31
0.0
  0
LINE
  5
11C
330
1F
100
AcDbEntity
  8
0-A
  6
Continuous
 62
     7
370
     9
100
AcDbLine
 10
2428.681581675736
 20
1974.363416494564
 30
0.0
 11
2324.248803504061
 21
1793.480538725653
 31
0.0
  0
LINE
  5
11D
330
1F
100
AcDbEntity
  8
0-A
  6
Continuous
 62
     7
370
     9
100
AcDbLine
 10
2463.322597827113
 20
1974.363416494564
 30
0.0
 11
2376.210327731126
 21
1823.480538725653
 31
0.0
  0
LINE
  5
11E
330
1F
100
AcDbEntity
  8
0-A
  6
Continuous
 62
     7
370
     9
100
AcDbLine
 10
2377.634785189322
 20
1793.480538725653
 30
0.0
 11
2213.599688187821
 21
1509.363416494564
 31
0.0
  0
LINE
  5
11F
330
1F
100
AcDbEntity
  8
0-A
  6
Continuous
 62
     7
370
     9
100
AcDbLine
 10
2429.596309416388
 20
1823.480538725653
 30
0.0
 11
2248.240704339198
 21
1509.363416494564
 31
0.0
  0
LINE
  5
120
330
1F
100
AcDbEntity
  8
0-A
  6
Continuous
 62
     7
370
     9
100
AcDbLine
 10
2324.248803504061
 20
543.48045882321
 30
0.0
 11
2377.634785189322
 21
543.48045882321
 31
0.0
  0
LINE
  5
121
330
1F
100
AcDbEntity
  8
0-A
  6
Continuous
 62
     7
370
     9
100
AcDbLine
 10
2376.210327731126
 20
573.48045882321
 30
0.0
 11
2429.596309416388
 21
573.48045882321
 31
0.0
  0
LWPOLYLINE
  5
122
330
1F
100
AcDbEntity
  8
0-B
  6
Continuous
 62
     7
370
     9
100
AcDbPolyline
 90
        4
 70
     1
 43
6.0
 10
1125.50008454194
 20
334.3633365921215
 42
0.4142135623731
 10
1122.50008454194
 20
337.3633365921215
 42
0.4142135623731
 10
1119.50008454194
 20
334.3633365921215
 42
0.4142135623731
 10
1122.50008454194
 20
331.3633365921215
 42
0.4142135623731
  0
LINE
  5
123
330
1F
100
AcDbEntity
  8
0-B
  6
Continuous
 62
   120
370
     5
100
AcDbLine
 10
1122.50008454194
 20
334.3633365921215
 30
0.0
 11
1197.50008454194
 21
334.3633365921215
 31
0.0
  0
LINE
  5
124
330
1F
100
AcDbEntity
  8
0-4
  6
Continuous
 62
    92
370
    13
100
AcDbLine
 10
3072.50008454194
 20
334.3633365921215
 30
0.0
 11
2291.54197452842
 21
334.3633365921215
 31
0.0
  0
LINE
  5
125
330
1F
100
AcDbEntity
  8
0-4
  6
Continuous
 62
    92
370
    13
100
AcDbLine
 10
2256.900958377043
 20
334.3633365921215
 30
0.0
 11
1272.50008454194
 21
334.3633365921215
 31
0.0
  0
LINE
  5
126
330
1F
100
AcDbEntity
  8
0-A
  6
Continuous
 62
     7
370
     9
100
AcDbLine
 10
2428.681581675736
 20
724.3633365921215
 30
0.0
 11
2324.248803504061
 21
543.48045882321
 31
0.0
  0
LINE
  5
127
330
1F
100
AcDbEntity
  8
0-A
  6
Continuous
 62
     7
370
     9
100
AcDbLine
 10
2463.322597827113
 20
724.3633365921215
 30
0.0
 11
2376.210327731126
 21
573.48045882321
 31
0.0
  0
LINE
  5
128
330
1F
100
AcDbEntity
  8
0-A
  6
Continuous
 62
     7
370
     9
100
AcDbLine
 10
2377.634785189322
 20
543.48045882321
 30
0.0
 11
2213.599688187821
 21
259.3633365921215
 31
0.0
  0
LINE
  5
129
330
1F
100
AcDbEntity
  8
0-A
  6
Continuous
 62
     7
370
     9
100
AcDbLine
 10
2429.596309416388
 20
573.48045882321
 30
0.0
 11
2248.240704339198
 21
259.3633365921215
 31
0.0
  0
LINE
  5
12A
330
1F
100
AcDbEntity
  8
0-A
  6
Continuous
 62
     7
370
     9
100
AcDbLine
 10
2324.248803504061
 20
-708.2440073494915
 30
0.0
 11
2377.634785189322
 21
-708.2440073494915
 31
0.0
  0
LINE
  5
12B
330
1F
100
AcDbEntity
  8
0-A
  6
Continuous
 62
     7
370
     9
100
AcDbLine
 10
2376.210327731126
 20
-678.2440073494915
 30
0.0
 11
2429.596309416388
 21
-678.2440073494915
 31
0.0
  0
LWPOLYLINE
  5
12C
330
1F
100
AcDbEntity
  8
0-B
  6
Continuous
 62
     7
370
     9
100
AcDbPolyline
 90
        4
 70
     1
 43
6.0
 10
1125.50008454194
 20
-917.36112958058
 42
0.4142135623731
 10
1122.50008454194
 20
-914.3611295805799
 42
0.4142135623731
 10
1119.50008454194
 20
-917.36112958058
 42
0.4142135623731
 10
1122.50008454194
 20
-920.36112958058
 42
0.4142135623731
  0
LINE
  5
12D
330
1F
100
AcDbEntity
  8
0-B
  6
Continuous
 62
   120
370
     5
100
AcDbLine
 10
1122.50008454194
 20
-917.36112958058
 30
0.0
 11
1197.50008454194
 21
-917.36112958058
 31
0.0
  0
LINE
  5
12E
330
1F
100
AcDbEntity
  8
0-4
  6
Continuous
 62
    92
370
    13
100
AcDbLine
 10
3072.50008454194
 20
-917.36112958058
 30
0.0
 11
2291.54197452842
 21
-917.36112958058
 31
0.0
  0
LINE
  5
12F
330
1F
100
AcDbEntity
  8
0-4
  6
Continuous
 62
    92
370
    13
100
AcDbLine
 10
2256.900958377043
 20
-917.36112958058
 30
0.0
 11
1272.50008454194
 21
-917.36112958058
 31
0.0
  0
LINE
  5
130
330
1F
100
AcDbEntity
  8
0-A
  6
Continuous
 62
     7
370
     9
100
AcDbLine
 10
2428.681581675736
 20
-527.3611295805796
 30
0.0
 11
2324.248803504061
 21
-708.2440073494915
 31
0.0
  0
LINE
  5
131
330
1F
100
AcDbEntity
  8
0-A
  6
Continuous
 62
     7
370
     9
100
AcDbLine
 10
2463.322597827113
 20
-527.3611295805796
 30
0.0
 11
2376.210327731126
 21
-678.2440073494915
 31
0.0
  0
LINE
  5
132
330
1F
100
AcDbEntity
  8
0-A
  6
Continuous
 62
     7
370
     9
100
AcDbLine
 10
2377.634785189322
 20
-708.2440073494915
 30
0.0
 11
2213.599688187821
 21
-992.36112958058
 31
0.0
  0
LINE
  5
133
330
1F
100
AcDbEntity
  8
0-A
  6
Continuous
 62
     7
370
     9
100
AcDbLine
 10
2429.596309416388
 20
-678.2440073494915
 30
0.0
 11
2248.240704339198
 21
-992.36112958058
 31
0.0
  0
LINE
  5
134
330
1F
100
AcDbEntity
  8
0-A
  6
Continuous
 62
     7
370
     9
100
AcDbLine
 10
2324.248803504061
 20
-1956.519700981676
 30
0.0
 11
2377.634785189322
 21
-1956.519700981676
 31
0.0
  0
LINE
  5
135
330
1F
100
AcDbEntity
  8
0-A
  6
Continuous
 62
     7
370
     9
100
AcDbLine
 10
2376.210327731126
 20
-1926.519700981676
 30
0.0
 11
2429.596309416388
 21
-1926.519700981676
 31
0.0
  0
LWPOLYLINE
  5
136
330
1F
100
AcDbEntity
  8
0-B
  6
Continuous
 62
     7
370
     9
100
AcDbPolyline
 90
        4
 70
     1
 43
6.0
 10
1125.50008454194
 20
-2165.636823212765
 42
0.4142135623731
 10
1122.50008454194
 20
-2162.636823212765
 42
0.4142135623731
 10
1119.50008454194
 20
-2165.636823212765
 42
0.4142135623731
 10
1122.50008454194
 20
-2168.636823212765
 42
0.4142135623731
  0
LINE
  5
137
330
1F
100
AcDbEntity
  8
0-B
  6
Continuous
 62
   120
370
     5
100
AcDbLine
 10
1122.50008454194
 20
-2165.636823212765
 30
0.0
 11
1197.50008454194
 21
-2165.636823212765
 31
0.0
  0
LINE
  5
138
330
1F
100
AcDbEntity
  8
0-4
  6
Continuous
 62
    92
370
    13
100
AcDbLine
 10
3072.50008454194
 20
-2165.636823212765
 30
0.0
 11
2291.54197452842
 21
-2165.636823212765
 31
0.0
  0
LINE
  5
139
330
1F
100
AcDbEntity
  8
0-4
  6
Continuous
 62
    92
370
    13
100
AcDbLine
 10
2256.900958377043
 20
-2165.636823212765
 30
0.0
 11
1272.50008454194
 21
-2165.636823212765
 31
0.0
  0
LINE
  5
13A
330
1F
100
AcDbEntity
  8
0-A
  6
Continuous
 62
     7
370
     9
100
AcDbLine
 10
2428.681581675736
 20
-1775.636823212765
 30
0.0
 11
2324.248803504061
 21
-1956.519700981676
 31
0.0
  0
LINE
  5
13B
330
1F
100
AcDbEntity
  8
0-A
  6
Continuous
 62
     7
370
     9
100
AcDbLine
 10
2463.322597827113
 20
-1775.636823212765
 30
0.0
 11
2376.210327731126
 21
-1926.519700981676
 31
0.0
  0
LINE
  5
13C
330
1F
100
AcDbEntity
  8
0-A
  6
Continuous
 62
     7
370
     9
100
AcDbLine
 10
2377.634785189322
 20
-1956.519700981676
 30
0.0
 11
2213.599688187821
 21
-2240.636823212765
 31
0.0
  0
LINE
  5
13D
330
1F
100
AcDbEntity
  8
0-A
  6
Continuous
 62
     7
370
     9
100
AcDbLine
 10
2429.596309416388
 20
-1926.519700981676
 30
0.0
 11
2248.240704339198
 21
-2240.636823212765
 31
0.0
  0
LINE
  5
13E
330
1F
100
AcDbEntity
  8
0-A
  6
Continuous
 62
     7
370
     9
100
AcDbLine
 10
2324.248803504061
 20
-3206.519780884119
 30
0.0
 11
2377.634785189322
 21
-3206.519780884119
 31
0.0
  0
LINE
  5
13F
330
1F
100
AcDbEntity
  8
0-A
  6
Continuous
 62
     7
370
     9
100
AcDbLine
 10
2376.210327731126
 20
-3176.519780884119
 30
0.0
 11
2429.596309416388
 21
-3176.519780884119
 31
0.0
  0
LINE
  5
140
330
1F
100
AcDbEntity
  8
0-4
  6
Continuous
 62
    92
370
    13
100
AcDbLine
 10
1542.50008454194
 20
-3408.136903115208
 30
0.0
 11
1542.50008454194
 21
-3415.636903115208
 31
0.0
  0
LINE
  5
141
330
1F
100
AcDbEntity
  8
0-4
  6
Continuous
 62
    92
370
    13
100
AcDbLine
 10
1542.50008454194
 20
-3408.136903115208
 30
0.0
 11
1280.00008454194
 21
-3408.136903115208
 31
0.0
  0
LWPOLYLINE
  5
142
330
1F
100
AcDbEntity
  8
0-B
  6
Continuous
 62
     7
370
     9
100
AcDbPolyline
 90
        4
 70
     1
 43
6.0
 10
1125.50008454194
 20
-3415.636903115208
 42
0.4142135623731
 10
1122.50008454194
 20
-3412.636903115208
 42
0.4142135623731
 10
1119.50008454194
 20
-3415.636903115208
 42
0.4142135623731
 10
1122.50008454194
 20
-3418.636903115207
 42
0.4142135623731
  0
LINE
  5
143
330
1F
100
AcDbEntity
  8
0-B
  6
Continuous
 62
   120
370
     5
100
AcDbLine
 10
1122.50008454194
 20
-3415.636903115208
 30
0.0
 11
1197.50008454194
 21
-3415.636903115208
 31
0.0
  0
LINE
  5
144
330
1F
100
AcDbEntity
  8
0-4
  6
Continuous
 62
    92
370
    13
100
AcDbLine
 10
3072.50008454194
 20
-3415.636903115208
 30
0.0
 11
2291.54197452842
 21
-3415.636903115208
 31
0.0
  0
LINE
  5
145
330
1F
100
AcDbEntity
  8
0-4
  6
Continuous
 62
    92
370
    13
100
AcDbLine
 10
2256.900958377043
 20
-3415.636903115208
 30
0.0
 11
1272.50008454194
 21
-3415.636903115208
 31
0.0
  0
LINE
  5
146
330
1F
100
AcDbEntity
  8
0-A
  6
Continuous
 62
     7
370
     9
100
AcDbLine
 10
2428.681581675736
 20
-3025.636903115208
 30
0.0
 11
2324.248803504061
 21
-3206.519780884119
 31
0.0
  0
LINE
  5
147
330
1F
100
AcDbEntity
  8
0-A
  6
Continuous
 62
     7
370
     9
100
AcDbLine
 10
2463.322597827113
 20
-3025.636903115208
 30
0.0
 11
2376.210327731126
 21
-3176.519780884119
 31
0.0
  0
LINE
  5
148
330
1F
100
AcDbEntity
  8
0-A
  6
Continuous
 62
     7
370
     9
100
AcDbLine
 10
2377.634785189322
 20
-3206.519780884119
 30
0.0
 11
2213.599688187821
 21
-3490.636903115208
 31
0.0
  0
LINE
  5
149
330
1F
100
AcDbEntity
  8
0-A
  6
Continuous
 62
     7
370
     9
100
AcDbLine
 10
2429.596309416388
 20
-3176.519780884119
 30
0.0
 11
2248.240704339198
 21
-3490.636903115208
 31
0.0
  0
LINE
  5
14A
330
1F
100
AcDbEntity
  8
F-1
  6
JWW_DASHED1
 62
     7
370
     9
100
AcDbLine
 10
-155.0007588154554
 20
2616.250391973032
 30
0.0
 11
-2405.000758815456
 21
2616.250391973032
 31
0.0
  0
LINE
  5
14B
330
1F
100
AcDbEntity
  8
F-1
  6
JWW_DASHED1
 62
     7
370
     9
100
AcDbLine
 10
-155.0007588154554
 20
3397.500441912059
 30
0.0
 11
-2405.000758815456
 21
3397.500441912059
 31
0.0
  0
LINE
  5
14C
330
1F
100
AcDbEntity
  8
F-1
  6
JWW_DASHED1
 62
     7
370
     9
100
AcDbLine
 10
-155.0007588154554
 20
3241.250431924253
 30
0.0
 11
-2405.000758815456
 21
3241.250431924253
 31
0.0
  0
LINE
  5
14D
330
1F
100
AcDbEntity
  8
F-1
  6
JWW_DASHED1
 62
     7
370
     9
100
AcDbLine
 10
-155.0007588154554
 20
3085.000421936448
 30
0.0
 11
-2405.000758815456
 21
3085.000421936448
 31
0.0
  0
LINE
  5
14E
330
1F
100
AcDbEntity
  8
F-1
  6
JWW_DASHED1
 62
     7
370
     9
100
AcDbLine
 10
-155.0007588154554
 20
2928.750411948643
 30
0.0
 11
-2405.000758815456
 21
2928.750411948643
 31
0.0
  0
LINE
  5
14F
330
1F
100
AcDbEntity
  8
F-1
  6
JWW_DASHED1
 62
     7
370
     9
100
AcDbLine
 10
-155.0007588154554
 20
2772.500401960837
 30
0.0
 11
-2405.000758815456
 21
2772.500401960837
 31
0.0
  0
LINE
  5
150
330
1F
100
AcDbEntity
  8
F-1
  6
JWW_DASHED1
 62
     7
370
     9
100
AcDbLine
 10
-155.0007588154554
 20
1366.250312070589
 30
0.0
 11
-2405.000758815456
 21
1366.250312070589
 31
0.0
  0
LINE
  5
151
330
1F
100
AcDbEntity
  8
F-1
  6
JWW_DASHED1
 62
     7
370
     9
100
AcDbLine
 10
-155.0007588154554
 20
2147.500362009616
 30
0.0
 11
-2405.000758815456
 21
2147.500362009616
 31
0.0
  0
LINE
  5
152
330
1F
100
AcDbEntity
  8
F-1
  6
JWW_DASHED1
 62
     7
370
     9
100
AcDbLine
 10
-155.0007588154554
 20
1991.25035202181
 30
0.0
 11
-2405.000758815456
 21
1991.25035202181
 31
0.0
  0
LINE
  5
153
330
1F
100
AcDbEntity
  8
F-1
  6
JWW_DASHED1
 62
     7
370
     9
100
AcDbLine
 10
-155.0007588154554
 20
1835.000342034005
 30
0.0
 11
-2405.000758815456
 21
1835.000342034005
 31
0.0
  0
LINE
  5
154
330
1F
100
AcDbEntity
  8
F-1
  6
JWW_DASHED1
 62
     7
370
     9
100
AcDbLine
 10
-155.0007588154554
 20
1678.7503320462
 30
0.0
 11
-2405.000758815456
 21
1678.7503320462
 31
0.0
  0
LINE
  5
155
330
1F
100
AcDbEntity
  8
F-1
  6
JWW_DASHED1
 62
     7
370
     9
100
AcDbLine
 10
-155.0007588154554
 20
1522.500322058395
 30
0.0
 11
-2405.000758815456
 21
1522.500322058395
 31
0.0
  0
LINE
  5
156
330
1F
100
AcDbEntity
  8
F-1
  6
JWW_DASHED1
 62
     7
370
     9
100
AcDbLine
 10
-155.0007588154554
 20
116.2502321681467
 30
0.0
 11
-2405.000758815456
 21
116.2502321681467
 31
0.0
  0
LINE
  5
157
330
1F
100
AcDbEntity
  8
F-1
  6
JWW_DASHED1
 62
     7
370
     9
100
AcDbLine
 10
-155.0007588154554
 20
897.5002821071723
 30
0.0
 11
-2405.000758815456
 21
897.5002821071723
 31
0.0
  0
LINE
  5
158
330
1F
100
AcDbEntity
  8
F-1
  6
JWW_DASHED1
 62
     7
370
     9
100
AcDbLine
 10
-155.0007588154554
 20
741.2502721193675
 30
0.0
 11
-2405.000758815456
 21
741.2502721193675
 31
0.0
  0
LINE
  5
159
330
1F
100
AcDbEntity
  8
F-1
  6
JWW_DASHED1
 62
     7
370
     9
100
AcDbLine
 10
-155.0007588154554
 20
585.0002621315627
 30
0.0
 11
-2405.000758815456
 21
585.0002621315627
 31
0.0
  0
LINE
  5
15A
330
1F
100
AcDbEntity
  8
F-1
  6
JWW_DASHED1
 62
     7
370
     9
100
AcDbLine
 10
-155.0007588154554
 20
428.7502521437571
 30
0.0
 11
-2405.000758815456
 21
428.7502521437571
 31
0.0
  0
LINE
  5
15B
330
1F
100
AcDbEntity
  8
F-1
  6
JWW_DASHED1
 62
     7
370
     9
100
AcDbLine
 10
-155.0007588154554
 20
272.5002421559515
 30
0.0
 11
-2405.000758815456
 21
272.5002421559515
 31
0.0
  0
LINE
  5
15C
330
1F
100
AcDbEntity
  8
F-1
  6
JWW_DASHED1
 62
     7
370
     9
100
AcDbLine
 10
-155.0007588154554
 20
-1133.749847734297
 30
0.0
 11
-2405.000758815456
 21
-1133.749847734297
 31
0.0
  0
LINE
  5
15D
330
1F
100
AcDbEntity
  8
F-1
  6
JWW_DASHED1
 62
     7
370
     9
100
AcDbLine
 10
-155.0007588154554
 20
-352.4997977952702
 30
0.0
 11
-2405.000758815456
 21
-352.4997977952702
 31
0.0
  0
LINE
  5
15E
330
1F
100
AcDbEntity
  8
F-1
  6
JWW_DASHED1
 62
     7
370
     9
100
AcDbLine
 10
-155.0007588154554
 20
-508.7498077830759
 30
0.0
 11
-2405.000758815456
 21
-508.7498077830759
 31
0.0
  0
LINE
  5
15F
330
1F
100
AcDbEntity
  8
F-1
  6
JWW_DASHED1
 62
     7
370
     9
100
AcDbLine
 10
-155.0007588154554
 20
-664.9998177708807
 30
0.0
 11
-2405.000758815456
 21
-664.9998177708807
 31
0.0
  0
LINE
  5
160
330
1F
100
AcDbEntity
  8
F-1
  6
JWW_DASHED1
 62
     7
370
     9
100
AcDbLine
 10
-155.0007588154554
 20
-821.2498277586855
 30
0.0
 11
-2405.000758815456
 21
-821.2498277586855
 31
0.0
  0
LINE
  5
161
330
1F
100
AcDbEntity
  8
F-1
  6
JWW_DASHED1
 62
     7
370
     9
100
AcDbLine
 10
-155.0007588154554
 20
-977.499837746491
 30
0.0
 11
-2405.000758815456
 21
-977.499837746491
 31
0.0
  0
LINE
  5
162
330
1F
100
AcDbEntity
  8
F-1
  6
JWW_DASHED1
 62
     7
370
     9
100
AcDbLine
 10
-155.0007588154554
 20
-2383.749927636738
 30
0.0
 11
-2405.000758815456
 21
-2383.749927636738
 31
0.0
  0
LINE
  5
163
330
1F
100
AcDbEntity
  8
F-1
  6
JWW_DASHED1
 62
     7
370
     9
100
AcDbLine
 10
-155.0007588154554
 20
-1602.499877697713
 30
0.0
 11
-2405.000758815456
 21
-1602.499877697713
 31
0.0
  0
LINE
  5
164
330
1F
100
AcDbEntity
  8
F-1
  6
JWW_DASHED1
 62
     7
370
     9
100
AcDbLine
 10
-155.0007588154554
 20
-1758.749887685517
 30
0.0
 11
-2405.000758815456
 21
-1758.749887685517
 31
0.0
  0
LINE
  5
165
330
1F
100
AcDbEntity
  8
F-1
  6
JWW_DASHED1
 62
     7
370
     9
100
AcDbLine
 10
-155.0007588154554
 20
-1914.999897673323
 30
0.0
 11
-2405.000758815456
 21
-1914.999897673323
 31
0.0
  0
LINE
  5
166
330
1F
100
AcDbEntity
  8
F-1
  6
JWW_DASHED1
 62
     7
370
     9
100
AcDbLine
 10
-155.0007588154554
 20
-2071.249907661129
 30
0.0
 11
-2405.000758815456
 21
-2071.249907661129
 31
0.0
  0
LINE
  5
167
330
1F
100
AcDbEntity
  8
F-1
  6
JWW_DASHED1
 62
     7
370
     9
100
AcDbLine
 10
-155.0007588154554
 20
-2227.499917648934
 30
0.0
 11
-2405.000758815456
 21
-2227.499917648934
 31
0.0
  0
LINE
  5
168
330
1F
100
AcDbEntity
  8
F-1
  6
JWW_DASHED1
 62
     7
370
     9
100
AcDbLine
 10
-155.0007588154554
 20
-3008.749967587961
 30
0.0
 11
-2405.000758815456
 21
-3008.749967587961
 31
0.0
  0
LINE
  5
169
330
1F
100
AcDbEntity
  8
F-1
  6
JWW_DASHED1
 62
     7
370
     9
100
AcDbLine
 10
-155.0007588154554
 20
3553.750451899864
 30
0.0
 11
-1505.000758815456
 21
3553.750451899864
 31
0.0
  0
LINE
  5
16A
330
1F
100
AcDbEntity
  8
F-1
  6
JWW_DASHED1
 62
     7
370
     9
100
AcDbLine
 10
-155.0007588154554
 20
2303.750371997421
 30
0.0
 11
-1505.000758815456
 21
2303.750371997421
 31
0.0
  0
LINE
  5
16B
330
1F
100
AcDbEntity
  8
F-1
  6
JWW_DASHED1
 62
     7
370
     9
100
AcDbLine
 10
-155.0007588154554
 20
-2696.24994761235
 30
0.0
 11
-2405.000758815456
 21
-2696.24994761235
 31
0.0
  0
LINE
  5
16C
330
1F
100
AcDbEntity
  8
F-1
  6
JWW_DASHED1
 62
     7
370
     9
100
AcDbLine
 10
-155.0007588154554
 20
-1446.249867709908
 30
0.0
 11
-2405.000758815456
 21
-1446.249867709908
 31
0.0
  0
LINE
  5
16D
330
1F
100
AcDbEntity
  8
F-1
  6
JWW_DASHED1
 62
     7
370
     9
100
AcDbLine
 10
-155.0007588154554
 20
-196.2497878074646
 30
0.0
 11
-2405.000758815456
 21
-196.2497878074646
 31
0.0
  0
LINE
  5
16E
330
1F
100
AcDbEntity
  8
F-1
  6
JWW_DASHED1
 62
     7
370
     9
100
AcDbLine
 10
-155.0007588154554
 20
1053.750292094978
 30
0.0
 11
-2405.000758815456
 21
1053.750292094978
 31
0.0
  0
LINE
  5
16F
330
1F
100
AcDbEntity
  8
F-1
  6
JWW_DASHED1
 62
     7
370
     9
100
AcDbLine
 10
5689.999719568202
 20
3553.750451899864
 30
0.0
 11
3439.999719568202
 21
3553.750451899864
 31
0.0
  0
LINE
  5
170
330
1F
100
AcDbEntity
  8
F-1
  6
JWW_DASHED1
 62
     7
370
     9
100
AcDbLine
 10
5689.999719568202
 20
-196.2497878074646
 30
0.0
 11
3439.999719568202
 21
-196.2497878074646
 31
0.0
  0
LINE
  5
171
330
1F
100
AcDbEntity
  8
F-1
  6
JWW_DASHED1
 62
     7
370
     9
100
AcDbLine
 10
5689.999719568202
 20
-2696.24994761235
 30
0.0
 11
3439.999719568202
 21
-2696.24994761235
 31
0.0
  0
LINE
  5
172
330
1F
100
AcDbEntity
  8
F-1
  6
JWW_DASHED1
 62
     7
370
     9
100
AcDbLine
 10
5689.999719568202
 20
1053.750292094978
 30
0.0
 11
3439.999719568202
 21
1053.750292094978
 31
0.0
  0
LINE
  5
173
330
1F
100
AcDbEntity
  8
0-4
  6
Continuous
 62
    92
370
    13
100
AcDbLine
 10
-2772.499465942383
 20
2834.363496397006
 30
0.0
 11
-2772.499465942383
 21
3134.363496397006
 31
0.0
  0
LINE
  5
174
330
1F
100
AcDbEntity
  8
0-4
  6
Continuous
 62
    92
370
    13
100
AcDbLine
 10
-2779.999465942383
 20
2841.863496397006
 30
0.0
 11
-2779.999465942383
 21
3126.863496397006
 31
0.0
  0
LWPOLYLINE
  5
175
330
1F
100
AcDbEntity
  8
0-B
  6
Continuous
 62
     7
370
     9
100
AcDbPolyline
 90
        4
 70
     1
 43
6.0
 10
-2769.499465942383
 20
3284.363496397007
 42
0.4142135623731
 10
-2772.499465942383
 20
3287.363496397007
 42
0.4142135623731
 10
-2775.499465942383
 20
3284.363496397007
 42
0.4142135623731
 10
-2772.499465942383
 20
3281.363496397007
 42
0.4142135623731
  0
LINE
  5
176
330
1F
100
AcDbEntity
  8
0-B
  6
Continuous
 62
   120
370
     5
100
AcDbLine
 10
-2772.499465942383
 20
3284.363496397007
 30
0.0
 11
-2772.499465942383
 21
3209.363496397006
 31
0.0
  0
LINE
  5
177
330
1F
100
AcDbEntity
  8
0-4
  6
Continuous
 62
    92
370
    13
100
AcDbLine
 10
-4519.466457353393
 20
3134.363496397006
 30
0.0
 11
-4572.499465942383
 21
3081.330487808015
 31
0.0
  0
LINE
  5
178
330
1F
100
AcDbEntity
  8
0-4
  6
Continuous
 62
    92
370
    13
100
AcDbLine
 10
-4516.359855635593
 20
3126.863496397006
 30
0.0
 11
-4564.999465942383
 21
3078.223886090217
 31
0.0
  0
LINE
  5
179
330
1F
100
AcDbEntity
  8
0-4
  6
Continuous
 62
    92
370
    13
100
AcDbLine
 10
-4572.499465942383
 20
3081.330487808015
 30
0.0
 11
-4572.499465942383
 21
2834.363496397006
 31
0.0
  0
LINE
  5
17A
330
1F
100
AcDbEntity
  8
0-4
  6
Continuous
 62
    92
370
    13
100
AcDbLine
 10
-4564.999465942383
 20
3078.223886090217
 30
0.0
 11
-4564.999465942383
 21
2841.863496397006
 31
0.0
  0
LINE
  5
17B
330
1F
100
AcDbEntity
  8
0-0
  6
JWW_HOJO
 62
     7
370
     9
100
AcDbLine
 10
-4581.598491709356
 20
3284.363496397007
 30
0.0
 11
-4722.499465942383
 21
3143.462522163979
 31
0.0
  0
LINE
  5
17C
330
1F
100
AcDbEntity
  8
0-0
  6
JWW_HOJO
 62
     7
370
     9
100
AcDbLine
 10
-4722.499465942383
 20
3143.462522163979
 30
0.0
 11
-4722.499465942383
 21
2834.363496397006
 31
0.0
  0
LINE
  5
17D
330
1F
100
AcDbEntity
  8
0-0
  6
JWW_HOJO
 62
     7
370
     9
100
AcDbLine
 10
-4550.532474531375
 20
3209.363496397006
 30
0.0
 11
-4647.499465942383
 21
3112.396504985997
 31
0.0
  0
LINE
  5
17E
330
1F
100
AcDbEntity
  8
0-0
  6
JWW_HOJO
 62
     7
370
     9
100
AcDbLine
 10
-4647.499465942383
 20
3112.396504985997
 30
0.0
 11
-4647.499465942383
 21
2834.363496397006
 31
0.0
  0
LWPOLYLINE
  5
17F
330
1F
100
AcDbEntity
  8
0-B
  6
Continuous
 62
     7
370
     9
100
AcDbPolyline
 90
        4
 70
     1
 43
6.0
 10
-4569.499465942383
 20
3284.363496397007
 42
0.4142135623731
 10
-4572.499465942383
 20
3287.363496397007
 42
0.4142135623731
 10
-4575.499465942383
 20
3284.363496397007
 42
0.4142135623731
 10
-4572.499465942383
 20
3281.363496397007
 42
0.4142135623731
  0
LINE
  5
180
330
1F
100
AcDbEntity
  8
0-B
  6
Continuous
 62
   120
370
     5
100
AcDbLine
 10
-4572.499465942383
 20
3284.363496397007
 30
0.0
 11
-4572.499465942383
 21
3209.363496397006
 31
0.0
  0
LINE
  5
181
330
1F
100
AcDbEntity
  8
0-B
  6
Continuous
 62
   120
370
     5
100
AcDbLine
 10
-4722.499465942383
 20
3134.363496397006
 30
0.0
 11
-4722.499465942383
 21
2834.363496397006
 31
0.0
  0
LWPOLYLINE
  5
182
330
1F
100
AcDbEntity
  8
0-B
  6
Continuous
 62
     7
370
     9
100
AcDbPolyline
 90
        4
 70
     1
 43
6.0
 10
-4719.499465942383
 20
3134.363496397006
 42
0.4142135623731
 10
-4722.499465942383
 20
3137.363496397006
 42
0.4142135623731
 10
-4725.499465942383
 20
3134.363496397006
 42
0.4142135623731
 10
-4722.499465942383
 20
3131.363496397006
 42
0.4142135623731
  0
LINE
  5
183
330
1F
100
AcDbEntity
  8
0-B
  6
Continuous
 62
   120
370
     5
100
AcDbLine
 10
-4722.499465942383
 20
3134.363496397006
 30
0.0
 11
-4647.499465942383
 21
3134.363496397006
 31
0.0
  0
LINE
  5
184
330
1F
100
AcDbEntity
  8
0-B
  6
Continuous
 62
   120
370
     5
100
AcDbLine
 10
-4625.532474531375
 20
3240.429513574988
 30
0.0
 11
-4678.565483120366
 21
3187.396504985997
 31
0.0
  0
LWPOLYLINE
  5
185
330
1F
100
AcDbEntity
  8
0-B
  6
Continuous
 62
     7
370
     9
100
AcDbPolyline
 90
        4
 70
     1
 43
6.0
 10
-4622.532474531375
 20
3240.429513574988
 42
0.4142135623731
 10
-4625.532474531375
 20
3243.429513574988
 42
0.4142135623731
 10
-4628.532474531374
 20
3240.429513574988
 42
0.4142135623731
 10
-4625.532474531375
 20
3237.429513574988
 42
0.4142135623731
  0
LWPOLYLINE
  5
186
330
1F
100
AcDbEntity
  8
0-B
  6
Continuous
 62
     7
370
     9
100
AcDbPolyline
 90
        4
 70
     1
 43
6.0
 10
-4675.565483120366
 20
3187.396504985997
 42
0.4142135623731
 10
-4678.565483120366
 20
3190.396504985997
 42
0.4142135623731
 10
-4681.565483120366
 20
3187.396504985997
 42
0.4142135623731
 10
-4678.565483120366
 20
3184.396504985998
 42
0.4142135623731
  0
LINE
  5
187
330
1F
100
AcDbEntity
  8
0-B
  6
Continuous
 62
   120
370
     5
100
AcDbLine
 10
-4625.532474531375
 20
3240.429513574988
 30
0.0
 11
-4572.499465942383
 21
3187.396504985997
 31
0.0
  0
LINE
  5
188
330
1F
100
AcDbEntity
  8
0-B
  6
Continuous
 62
   120
370
     5
100
AcDbLine
 10
-4678.565483120366
 20
3187.396504985997
 30
0.0
 11
-4625.532474531375
 21
3134.363496397007
 31
0.0
  0
LINE
  5
189
330
1F
100
AcDbEntity
  8
0-0
  6
JWW_HOJO
 62
     7
370
     9
100
AcDbLine
 10
-2772.499465942383
 20
3284.363496397007
 30
0.0
 11
-4581.598491709356
 21
3284.363496397007
 31
0.0
  0
LINE
  5
18A
330
1F
100
AcDbEntity
  8
0-0
  6
JWW_HOJO
 62
     7
370
     9
100
AcDbLine
 10
-2772.499465942383
 20
3209.363496397006
 30
0.0
 11
-4550.532474531375
 21
3209.363496397006
 31
0.0
  0
LINE
  5
18B
330
1F
100
AcDbEntity
  8
0-B
  6
Continuous
 62
   120
370
     5
100
AcDbLine
 10
-4572.499465942383
 20
3284.363496397007
 30
0.0
 11
-2772.499465942383
 21
3284.363496397007
 31
0.0
  0
LINE
  5
18C
330
1F
100
AcDbEntity
  8
0-4
  6
Continuous
 62
    92
370
    13
100
AcDbLine
 10
-2772.500393841717
 20
1584.363416494564
 30
0.0
 11
-2772.500393841717
 21
1884.363416494564
 31
0.0
  0
LINE
  5
18D
330
1F
100
AcDbEntity
  8
0-4
  6
Continuous
 62
    92
370
    13
100
AcDbLine
 10
-2780.000393841717
 20
1591.863416494564
 30
0.0
 11
-2780.000393841717
 21
1876.863416494564
 31
0.0
  0
LWPOLYLINE
  5
18E
330
1F
100
AcDbEntity
  8
0-B
  6
Continuous
 62
     7
370
     9
100
AcDbPolyline
 90
        4
 70
     1
 43
6.0
 10
-2769.500393841717
 20
2034.363416494564
 42
0.4142135623731
 10
-2772.500393841717
 20
2037.363416494564
 42
0.4142135623731
 10
-2775.500393841717
 20
2034.363416494564
 42
0.4142135623731
 10
-2772.500393841717
 20
2031.363416494564
 42
0.4142135623731
  0
LINE
  5
18F
330
1F
100
AcDbEntity
  8
0-B
  6
Continuous
 62
   120
370
     5
100
AcDbLine
 10
-2772.500393841717
 20
2034.363416494564
 30
0.0
 11
-2772.500393841717
 21
1959.363416494564
 31
0.0
  0
LINE
  5
190
330
1F
100
AcDbEntity
  8
0-4
  6
Continuous
 62
    92
370
    13
100
AcDbLine
 10
-4519.467385252728
 20
1884.363416494564
 30
0.0
 11
-4572.500393841718
 21
1831.330407905573
 31
0.0
  0
LINE
  5
191
330
1F
100
AcDbEntity
  8
0-4
  6
Continuous
 62
    92
370
    13
100
AcDbLine
 10
-4516.360783534929
 20
1876.863416494564
 30
0.0
 11
-4565.000393841718
 21
1828.223806187775
 31
0.0
  0
LINE
  5
192
330
1F
100
AcDbEntity
  8
0-4
  6
Continuous
 62
    92
370
    13
100
AcDbLine
 10
-4572.500393841718
 20
1831.330407905573
 30
0.0
 11
-4572.500393841718
 21
1584.363416494564
 31
0.0
  0
LINE
  5
193
330
1F
100
AcDbEntity
  8
0-4
  6
Continuous
 62
    92
370
    13
100
AcDbLine
 10
-4565.000393841718
 20
1828.223806187775
 30
0.0
 11
-4565.000393841718
 21
1591.863416494564
 31
0.0
  0
LINE
  5
194
330
1F
100
AcDbEntity
  8
0-0
  6
JWW_HOJO
 62
     7
370
     9
100
AcDbLine
 10
-4581.599419608691
 20
2034.363416494564
 30
0.0
 11
-4722.500393841718
 21
1893.462442261538
 31
0.0
  0
LINE
  5
195
330
1F
100
AcDbEntity
  8
0-0
  6
JWW_HOJO
 62
     7
370
     9
100
AcDbLine
 10
-4722.500393841718
 20
1893.462442261538
 30
0.0
 11
-4722.500393841718
 21
1584.363416494564
 31
0.0
  0
LINE
  5
196
330
1F
100
AcDbEntity
  8
0-0
  6
JWW_HOJO
 62
     7
370
     9
100
AcDbLine
 10
-4550.53340243071
 20
1959.363416494564
 30
0.0
 11
-4647.500393841718
 21
1862.396425083556
 31
0.0
  0
LINE
  5
197
330
1F
100
AcDbEntity
  8
0-0
  6
JWW_HOJO
 62
     7
370
     9
100
AcDbLine
 10
-4647.500393841718
 20
1862.396425083556
 30
0.0
 11
-4647.500393841718
 21
1584.363416494564
 31
0.0
  0
LWPOLYLINE
  5
198
330
1F
100
AcDbEntity
  8
0-B
  6
Continuous
 62
     7
370
     9
100
AcDbPolyline
 90
        4
 70
     1
 43
6.0
 10
-4569.500393841718
 20
2034.363416494564
 42
0.4142135623731
 10
-4572.500393841718
 20
2037.363416494564
 42
0.4142135623731
 10
-4575.500393841717
 20
2034.363416494564
 42
0.4142135623731
 10
-4572.500393841718
 20
2031.363416494564
 42
0.4142135623731
  0
LINE
  5
199
330
1F
100
AcDbEntity
  8
0-B
  6
Continuous
 62
   120
370
     5
100
AcDbLine
 10
-4572.500393841718
 20
2034.363416494564
 30
0.0
 11
-4572.500393841718
 21
1959.363416494564
 31
0.0
  0
LINE
  5
19A
330
1F
100
AcDbEntity
  8
0-B
  6
Continuous
 62
   120
370
     5
100
AcDbLine
 10
-4722.500393841718
 20
1884.363416494564
 30
0.0
 11
-4722.500393841718
 21
1584.363416494564
 31
0.0
  0
LWPOLYLINE
  5
19B
330
1F
100
AcDbEntity
  8
0-B
  6
Continuous
 62
     7
370
     9
100
AcDbPolyline
 90
        4
 70
     1
 43
6.0
 10
-4719.500393841718
 20
1884.363416494564
 42
0.4142135623731
 10
-4722.500393841718
 20
1887.363416494564
 42
0.4142135623731
 10
-4725.500393841717
 20
1884.363416494564
 42
0.4142135623731
 10
-4722.500393841718
 20
1881.363416494564
 42
0.4142135623731
  0
LINE
  5
19C
330
1F
100
AcDbEntity
  8
0-B
  6
Continuous
 62
   120
370
     5
100
AcDbLine
 10
-4722.500393841718
 20
1884.363416494564
 30
0.0
 11
-4647.500393841718
 21
1884.363416494564
 31
0.0
  0
LINE
  5
19D
330
1F
100
AcDbEntity
  8
0-B
  6
Continuous
 62
   120
370
     5
100
AcDbLine
 10
-4625.53340243071
 20
1990.429433672546
 30
0.0
 11
-4678.5664110197
 21
1937.396425083556
 31
0.0
  0
LWPOLYLINE
  5
19E
330
1F
100
AcDbEntity
  8
0-B
  6
Continuous
 62
     7
370
     9
100
AcDbPolyline
 90
        4
 70
     1
 43
6.0
 10
-4622.53340243071
 20
1990.429433672546
 42
0.4142135623731
 10
-4625.53340243071
 20
1993.429433672546
 42
0.4142135623731
 10
-4628.53340243071
 20
1990.429433672546
 42
0.4142135623731
 10
-4625.53340243071
 20
1987.429433672546
 42
0.4142135623731
  0
LWPOLYLINE
  5
19F
330
1F
100
AcDbEntity
  8
0-B
  6
Continuous
 62
     7
370
     9
100
AcDbPolyline
 90
        4
 70
     1
 43
6.0
 10
-4675.5664110197
 20
1937.396425083556
 42
0.4142135623731
 10
-4678.5664110197
 20
1940.396425083555
 42
0.4142135623731
 10
-4681.5664110197
 20
1937.396425083556
 42
0.4142135623731
 10
-4678.5664110197
 20
1934.396425083556
 42
0.4142135623731
  0
LINE
  5
1A0
330
1F
100
AcDbEntity
  8
0-B
  6
Continuous
 62
   120
370
     5
100
AcDbLine
 10
-4625.53340243071
 20
1990.429433672546
 30
0.0
 11
-4572.500393841719
 21
1937.396425083556
 31
0.0
  0
LINE
  5
1A1
330
1F
100
AcDbEntity
  8
0-B
  6
Continuous
 62
   120
370
     5
100
AcDbLine
 10
-4678.5664110197
 20
1937.396425083556
 30
0.0
 11
-4625.53340243071
 21
1884.363416494565
 31
0.0
  0
LINE
  5
1A2
330
1F
100
AcDbEntity
  8
0-0
  6
JWW_HOJO
 62
     7
370
     9
100
AcDbLine
 10
-2772.500393841717
 20
2034.363416494564
 30
0.0
 11
-4581.599419608691
 21
2034.363416494564
 31
0.0
  0
LINE
  5
1A3
330
1F
100
AcDbEntity
  8
0-0
  6
JWW_HOJO
 62
     7
370
     9
100
AcDbLine
 10
-2772.500393841717
 20
1959.363416494564
 30
0.0
 11
-4550.53340243071
 21
1959.363416494564
 31
0.0
  0
LINE
  5
1A4
330
1F
100
AcDbEntity
  8
0-B
  6
Continuous
 62
   120
370
     5
100
AcDbLine
 10
-4572.500393841718
 20
2034.363416494564
 30
0.0
 11
-2772.500393841717
 21
2034.363416494564
 31
0.0
  0
LINE
  5
1A5
330
1F
100
AcDbEntity
  8
0-4
  6
Continuous
 62
    92
370
    13
100
AcDbLine
 10
-2772.500393841717
 20
334.3633365921215
 30
0.0
 11
-2772.500393841717
 21
634.3633365921215
 31
0.0
  0
LINE
  5
1A6
330
1F
100
AcDbEntity
  8
0-4
  6
Continuous
 62
    92
370
    13
100
AcDbLine
 10
-2780.000393841717
 20
341.8633365921215
 30
0.0
 11
-2780.000393841717
 21
626.8633365921215
 31
0.0
  0
LWPOLYLINE
  5
1A7
330
1F
100
AcDbEntity
  8
0-B
  6
Continuous
 62
     7
370
     9
100
AcDbPolyline
 90
        4
 70
     1
 43
6.0
 10
-2769.500393841717
 20
784.3633365921215
 42
0.4142135623731
 10
-2772.500393841717
 20
787.3633365921215
 42
0.4142135623731
 10
-2775.500393841717
 20
784.3633365921215
 42
0.4142135623731
 10
-2772.500393841717
 20
781.3633365921215
 42
0.4142135623731
  0
LINE
  5
1A8
330
1F
100
AcDbEntity
  8
0-B
  6
Continuous
 62
   120
370
     5
100
AcDbLine
 10
-2772.500393841717
 20
784.3633365921215
 30
0.0
 11
-2772.500393841717
 21
709.3633365921215
 31
0.0
  0
LINE
  5
1A9
330
1F
100
AcDbEntity
  8
0-4
  6
Continuous
 62
    92
370
    13
100
AcDbLine
 10
-4519.467385252728
 20
634.3633365921215
 30
0.0
 11
-4572.500393841718
 21
581.330328003131
 31
0.0
  0
LINE
  5
1AA
330
1F
100
AcDbEntity
  8
0-4
  6
Continuous
 62
    92
370
    13
100
AcDbLine
 10
-4516.360783534929
 20
626.8633365921215
 30
0.0
 11
-4565.000393841718
 21
578.2237262853325
 31
0.0
  0
LINE
  5
1AB
330
1F
100
AcDbEntity
  8
0-4
  6
Continuous
 62
    92
370
    13
100
AcDbLine
 10
-4572.500393841718
 20
581.330328003131
 30
0.0
 11
-4572.500393841718
 21
334.3633365921215
 31
0.0
  0
LINE
  5
1AC
330
1F
100
AcDbEntity
  8
0-4
  6
Continuous
 62
    92
370
    13
100
AcDbLine
 10
-4565.000393841718
 20
578.2237262853325
 30
0.0
 11
-4565.000393841718
 21
341.8633365921215
 31
0.0
  0
LINE
  5
1AD
330
1F
100
AcDbEntity
  8
0-0
  6
JWW_HOJO
 62
     7
370
     9
100
AcDbLine
 10
-4581.599419608691
 20
784.3633365921215
 30
0.0
 11
-4722.500393841718
 21
643.4623623590951
 31
0.0
  0
LINE
  5
1AE
330
1F
100
AcDbEntity
  8
0-0
  6
JWW_HOJO
 62
     7
370
     9
100
AcDbLine
 10
-4722.500393841718
 20
643.4623623590951
 30
0.0
 11
-4722.500393841718
 21
334.3633365921215
 31
0.0
  0
LINE
  5
1AF
330
1F
100
AcDbEntity
  8
0-0
  6
JWW_HOJO
 62
     7
370
     9
100
AcDbLine
 10
-4550.53340243071
 20
709.3633365921215
 30
0.0
 11
-4647.500393841718
 21
612.396345181113
 31
0.0
  0
LINE
  5
1B0
330
1F
100
AcDbEntity
  8
0-0
  6
JWW_HOJO
 62
     7
370
     9
100
AcDbLine
 10
-4647.500393841718
 20
612.396345181113
 30
0.0
 11
-4647.500393841718
 21
334.3633365921215
 31
0.0
  0
LWPOLYLINE
  5
1B1
330
1F
100
AcDbEntity
  8
0-B
  6
Continuous
 62
     7
370
     9
100
AcDbPolyline
 90
        4
 70
     1
 43
6.0
 10
-4569.500393841718
 20
784.3633365921215
 42
0.4142135623731
 10
-4572.500393841718
 20
787.3633365921215
 42
0.4142135623731
 10
-4575.500393841717
 20
784.3633365921215
 42
0.4142135623731
 10
-4572.500393841718
 20
781.3633365921215
 42
0.4142135623731
  0
LINE
  5
1B2
330
1F
100
AcDbEntity
  8
0-B
  6
Continuous
 62
   120
370
     5
100
AcDbLine
 10
-4572.500393841718
 20
784.3633365921215
 30
0.0
 11
-4572.500393841718
 21
709.3633365921215
 31
0.0
  0
LINE
  5
1B3
330
1F
100
AcDbEntity
  8
0-B
  6
Continuous
 62
   120
370
     5
100
AcDbLine
 10
-4722.500393841718
 20
634.3633365921215
 30
0.0
 11
-4722.500393841718
 21
334.3633365921215
 31
0.0
  0
LWPOLYLINE
  5
1B4
330
1F
100
AcDbEntity
  8
0-B
  6
Continuous
 62
     7
370
     9
100
AcDbPolyline
 90
        4
 70
     1
 43
6.0
 10
-4719.500393841718
 20
634.3633365921215
 42
0.4142135623731
 10
-4722.500393841718
 20
637.3633365921215
 42
0.4142135623731
 10
-4725.500393841717
 20
634.3633365921215
 42
0.4142135623731
 10
-4722.500393841718
 20
631.3633365921215
 42
0.4142135623731
  0
LINE
  5
1B5
330
1F
100
AcDbEntity
  8
0-B
  6
Continuous
 62
   120
370
     5
100
AcDbLine
 10
-4722.500393841718
 20
634.3633365921215
 30
0.0
 11
-4647.500393841718
 21
634.3633365921215
 31
0.0
  0
LINE
  5
1B6
330
1F
100
AcDbEntity
  8
0-B
  6
Continuous
 62
   120
370
     5
100
AcDbLine
 10
-4625.53340243071
 20
740.4293537701037
 30
0.0
 11
-4678.5664110197
 21
687.396345181113
 31
0.0
  0
LWPOLYLINE
  5
1B7
330
1F
100
AcDbEntity
  8
0-B
  6
Continuous
 62
     7
370
     9
100
AcDbPolyline
 90
        4
 70
     1
 43
6.0
 10
-4622.53340243071
 20
740.4293537701037
 42
0.4142135623731
 10
-4625.53340243071
 20
743.4293537701037
 42
0.4142135623731
 10
-4628.53340243071
 20
740.4293537701037
 42
0.4142135623731
 10
-4625.53340243071
 20
737.4293537701036
 42
0.4142135623731
  0
LWPOLYLINE
  5
1B8
330
1F
100
AcDbEntity
  8
0-B
  6
Continuous
 62
     7
370
     9
100
AcDbPolyline
 90
        4
 70
     1
 43
6.0
 10
-4675.5664110197
 20
687.396345181113
 42
0.4142135623731
 10
-4678.5664110197
 20
690.396345181113
 42
0.4142135623731
 10
-4681.5664110197
 20
687.396345181113
 42
0.4142135623731
 10
-4678.5664110197
 20
684.396345181113
 42
0.4142135623731
  0
LINE
  5
1B9
330
1F
100
AcDbEntity
  8
0-B
  6
Continuous
 62
   120
370
     5
100
AcDbLine
 10
-4625.53340243071
 20
740.4293537701037
 30
0.0
 11
-4572.500393841719
 21
687.396345181113
 31
0.0
  0
LINE
  5
1BA
330
1F
100
AcDbEntity
  8
0-B
  6
Continuous
 62
   120
370
     5
100
AcDbLine
 10
-4678.5664110197
 20
687.396345181113
 30
0.0
 11
-4625.53340243071
 21
634.3633365921223
 31
0.0
  0
LINE
  5
1BB
330
1F
100
AcDbEntity
  8
0-0
  6
JWW_HOJO
 62
     7
370
     9
100
AcDbLine
 10
-2772.500393841717
 20
784.3633365921215
 30
0.0
 11
-4581.599419608691
 21
784.3633365921215
 31
0.0
  0
LINE
  5
1BC
330
1F
100
AcDbEntity
  8
0-0
  6
JWW_HOJO
 62
     7
370
     9
100
AcDbLine
 10
-2772.500393841717
 20
709.3633365921215
 30
0.0
 11
-4550.53340243071
 21
709.3633365921215
 31
0.0
  0
LINE
  5
1BD
330
1F
100
AcDbEntity
  8
0-B
  6
Continuous
 62
   120
370
     5
100
AcDbLine
 10
-4572.500393841718
 20
784.3633365921215
 30
0.0
 11
-2772.500393841717
 21
784.3633365921215
 31
0.0
  0
LINE
  5
1BE
330
1F
100
AcDbEntity
  8
0-4
  6
Continuous
 62
    92
370
    13
100
AcDbLine
 10
-2772.500393841717
 20
-917.36112958058
 30
0.0
 11
-2772.500393841717
 21
-617.36112958058
 31
0.0
  0
LINE
  5
1BF
330
1F
100
AcDbEntity
  8
0-4
  6
Continuous
 62
    92
370
    13
100
AcDbLine
 10
-2780.000393841717
 20
-909.86112958058
 30
0.0
 11
-2780.000393841717
 21
-624.86112958058
 31
0.0
  0
LWPOLYLINE
  5
1C0
330
1F
100
AcDbEntity
  8
0-B
  6
Continuous
 62
     7
370
     9
100
AcDbPolyline
 90
        4
 70
     1
 43
6.0
 10
-2769.500393841717
 20
-467.3611295805796
 42
0.4142135623731
 10
-2772.500393841717
 20
-464.3611295805796
 42
0.4142135623731
 10
-2775.500393841717
 20
-467.3611295805796
 42
0.4142135623731
 10
-2772.500393841717
 20
-470.3611295805796
 42
0.4142135623731
  0
LINE
  5
1C1
330
1F
100
AcDbEntity
  8
0-B
  6
Continuous
 62
   120
370
     5
100
AcDbLine
 10
-2772.500393841717
 20
-467.3611295805796
 30
0.0
 11
-2772.500393841717
 21
-542.3611295805796
 31
0.0
  0
LINE
  5
1C2
330
1F
100
AcDbEntity
  8
0-4
  6
Continuous
 62
    92
370
    13
100
AcDbLine
 10
-4519.467385252728
 20
-617.36112958058
 30
0.0
 11
-4572.500393841718
 21
-670.3941381695706
 31
0.0
  0
LINE
  5
1C3
330
1F
100
AcDbEntity
  8
0-4
  6
Continuous
 62
    92
370
    13
100
AcDbLine
 10
-4516.360783534929
 20
-624.86112958058
 30
0.0
 11
-4565.000393841718
 21
-673.5007398873689
 31
0.0
  0
LINE
  5
1C4
330
1F
100
AcDbEntity
  8
0-4
  6
Continuous
 62
    92
370
    13
100
AcDbLine
 10
-4572.500393841718
 20
-670.3941381695706
 30
0.0
 11
-4572.500393841718
 21
-917.36112958058
 31
0.0
  0
LINE
  5
1C5
330
1F
100
AcDbEntity
  8
0-4
  6
Continuous
 62
    92
370
    13
100
AcDbLine
 10
-4565.000393841718
 20
-673.5007398873689
 30
0.0
 11
-4565.000393841718
 21
-909.86112958058
 31
0.0
  0
LINE
  5
1C6
330
1F
100
AcDbEntity
  8
0-0
  6
JWW_HOJO
 62
     7
370
     9
100
AcDbLine
 10
-4581.599419608691
 20
-467.3611295805796
 30
0.0
 11
-4722.500393841718
 21
-608.2621038136068
 31
0.0
  0
LINE
  5
1C7
330
1F
100
AcDbEntity
  8
0-0
  6
JWW_HOJO
 62
     7
370
     9
100
AcDbLine
 10
-4722.500393841718
 20
-608.2621038136068
 30
0.0
 11
-4722.500393841718
 21
-917.36112958058
 31
0.0
  0
LINE
  5
1C8
330
1F
100
AcDbEntity
  8
0-0
  6
JWW_HOJO
 62
     7
370
     9
100
AcDbLine
 10
-4550.53340243071
 20
-542.3611295805796
 30
0.0
 11
-4647.500393841718
 21
-639.3281209915885
 31
0.0
  0
LINE
  5
1C9
330
1F
100
AcDbEntity
  8
0-0
  6
JWW_HOJO
 62
     7
370
     9
100
AcDbLine
 10
-4647.500393841718
 20
-639.3281209915885
 30
0.0
 11
-4647.500393841718
 21
-917.36112958058
 31
0.0
  0
LWPOLYLINE
  5
1CA
330
1F
100
AcDbEntity
  8
0-B
  6
Continuous
 62
     7
370
     9
100
AcDbPolyline
 90
        4
 70
     1
 43
6.0
 10
-4569.500393841718
 20
-467.3611295805796
 42
0.4142135623731
 10
-4572.500393841718
 20
-464.3611295805796
 42
0.4142135623731
 10
-4575.500393841717
 20
-467.3611295805796
 42
0.4142135623731
 10
-4572.500393841718
 20
-470.3611295805796
 42
0.4142135623731
  0
LINE
  5
1CB
330
1F
100
AcDbEntity
  8
0-B
  6
Continuous
 62
   120
370
     5
100
AcDbLine
 10
-4572.500393841718
 20
-467.3611295805796
 30
0.0
 11
-4572.500393841718
 21
-542.3611295805796
 31
0.0
  0
LINE
  5
1CC
330
1F
100
AcDbEntity
  8
0-B
  6
Continuous
 62
   120
370
     5
100
AcDbLine
 10
-4722.500393841718
 20
-617.36112958058
 30
0.0
 11
-4722.500393841718
 21
-917.36112958058
 31
0.0
  0
LWPOLYLINE
  5
1CD
330
1F
100
AcDbEntity
  8
0-B
  6
Continuous
 62
     7
370
     9
100
AcDbPolyline
 90
        4
 70
     1
 43
6.0
 10
-4719.500393841718
 20
-617.36112958058
 42
0.4142135623731
 10
-4722.500393841718
 20
-614.3611295805799
 42
0.4142135623731
 10
-4725.500393841717
 20
-617.36112958058
 42
0.4142135623731
 10
-4722.500393841718
 20
-620.36112958058
 42
0.4142135623731
  0
LINE
  5
1CE
330
1F
100
AcDbEntity
  8
0-B
  6
Continuous
 62
   120
370
     5
100
AcDbLine
 10
-4722.500393841718
 20
-617.36112958058
 30
0.0
 11
-4647.500393841718
 21
-617.36112958058
 31
0.0
  0
LINE
  5
1CF
330
1F
100
AcDbEntity
  8
0-B
  6
Continuous
 62
   120
370
     5
100
AcDbLine
 10
-4625.53340243071
 20
-511.2951124025983
 30
0.0
 11
-4678.5664110197
 21
-564.3281209915881
 31
0.0
  0
LWPOLYLINE
  5
1D0
330
1F
100
AcDbEntity
  8
0-B
  6
Continuous
 62
     7
370
     9
100
AcDbPolyline
 90
        4
 70
     1
 43
6.0
 10
-4622.53340243071
 20
-511.2951124025983
 42
0.4142135623731
 10
-4625.53340243071
 20
-508.2951124025982
 42
0.4142135623731
 10
-4628.53340243071
 20
-511.2951124025983
 42
0.4142135623731
 10
-4625.53340243071
 20
-514.2951124025983
 42
0.4142135623731
  0
LWPOLYLINE
  5
1D1
330
1F
100
AcDbEntity
  8
0-B
  6
Continuous
 62
     7
370
     9
100
AcDbPolyline
 90
        4
 70
     1
 43
6.0
 10
-4675.5664110197
 20
-564.3281209915881
 42
0.4142135623731
 10
-4678.5664110197
 20
-561.3281209915881
 42
0.4142135623731
 10
-4681.5664110197
 20
-564.3281209915881
 42
0.4142135623731
 10
-4678.5664110197
 20
-567.3281209915881
 42
0.4142135623731
  0
LINE
  5
1D2
330
1F
100
AcDbEntity
  8
0-B
  6
Continuous
 62
   120
370
     5
100
AcDbLine
 10
-4625.53340243071
 20
-511.2951124025983
 30
0.0
 11
-4572.500393841719
 21
-564.3281209915881
 31
0.0
  0
LINE
  5
1D3
330
1F
100
AcDbEntity
  8
0-B
  6
Continuous
 62
   120
370
     5
100
AcDbLine
 10
-4678.5664110197
 20
-564.3281209915881
 30
0.0
 11
-4625.53340243071
 21
-617.3611295805791
 31
0.0
  0
LINE
  5
1D4
330
1F
100
AcDbEntity
  8
0-0
  6
JWW_HOJO
 62
     7
370
     9
100
AcDbLine
 10
-2772.500393841717
 20
-467.3611295805796
 30
0.0
 11
-4581.599419608691
 21
-467.3611295805796
 31
0.0
  0
LINE
  5
1D5
330
1F
100
AcDbEntity
  8
0-0
  6
JWW_HOJO
 62
     7
370
     9
100
AcDbLine
 10
-2772.500393841717
 20
-542.3611295805796
 30
0.0
 11
-4550.53340243071
 21
-542.3611295805796
 31
0.0
  0
LINE
  5
1D6
330
1F
100
AcDbEntity
  8
0-B
  6
Continuous
 62
   120
370
     5
100
AcDbLine
 10
-4572.500393841718
 20
-467.3611295805796
 30
0.0
 11
-2772.500393841717
 21
-467.3611295805796
 31
0.0
  0
LINE
  5
1D7
330
1F
100
AcDbEntity
  8
0-4
  6
Continuous
 62
    92
370
    13
100
AcDbLine
 10
-2772.500393841717
 20
-2165.636823212765
 30
0.0
 11
-2772.500393841717
 21
-1865.636823212765
 31
0.0
  0
LINE
  5
1D8
330
1F
100
AcDbEntity
  8
0-4
  6
Continuous
 62
    92
370
    13
100
AcDbLine
 10
-2780.000393841717
 20
-2158.136823212765
 30
0.0
 11
-2780.000393841717
 21
-1873.136823212765
 31
0.0
  0
LWPOLYLINE
  5
1D9
330
1F
100
AcDbEntity
  8
0-B
  6
Continuous
 62
     7
370
     9
100
AcDbPolyline
 90
        4
 70
     1
 43
6.0
 10
-2769.500393841717
 20
-1715.636823212765
 42
0.4142135623731
 10
-2772.500393841717
 20
-1712.636823212765
 42
0.4142135623731
 10
-2775.500393841717
 20
-1715.636823212765
 42
0.4142135623731
 10
-2772.500393841717
 20
-1718.636823212765
 42
0.4142135623731
  0
LINE
  5
1DA
330
1F
100
AcDbEntity
  8
0-B
  6
Continuous
 62
   120
370
     5
100
AcDbLine
 10
-2772.500393841717
 20
-1715.636823212765
 30
0.0
 11
-2772.500393841717
 21
-1790.636823212765
 31
0.0
  0
LINE
  5
1DB
330
1F
100
AcDbEntity
  8
0-4
  6
Continuous
 62
    92
370
    13
100
AcDbLine
 10
-4519.467385252728
 20
-1865.636823212765
 30
0.0
 11
-4572.500393841718
 21
-1918.669831801755
 31
0.0
  0
LINE
  5
1DC
330
1F
100
AcDbEntity
  8
0-4
  6
Continuous
 62
    92
370
    13
100
AcDbLine
 10
-4516.360783534929
 20
-1873.136823212765
 30
0.0
 11
-4565.000393841718
 21
-1921.776433519554
 31
0.0
  0
LINE
  5
1DD
330
1F
100
AcDbEntity
  8
0-4
  6
Continuous
 62
    92
370
    13
100
AcDbLine
 10
-4572.500393841718
 20
-1918.669831801755
 30
0.0
 11
-4572.500393841718
 21
-2165.636823212765
 31
0.0
  0
LINE
  5
1DE
330
1F
100
AcDbEntity
  8
0-4
  6
Continuous
 62
    92
370
    13
100
AcDbLine
 10
-4565.000393841718
 20
-1921.776433519554
 30
0.0
 11
-4565.000393841718
 21
-2158.136823212765
 31
0.0
  0
LINE
  5
1DF
330
1F
100
AcDbEntity
  8
0-0
  6
JWW_HOJO
 62
     7
370
     9
100
AcDbLine
 10
-4581.599419608691
 20
-1715.636823212765
 30
0.0
 11
-4722.500393841718
 21
-1856.537797445791
 31
0.0
  0
LINE
  5
1E0
330
1F
100
AcDbEntity
  8
0-0
  6
JWW_HOJO
 62
     7
370
     9
100
AcDbLine
 10
-4722.500393841718
 20
-1856.537797445791
 30
0.0
 11
-4722.500393841718
 21
-2165.636823212765
 31
0.0
  0
LINE
  5
1E1
330
1F
100
AcDbEntity
  8
0-0
  6
JWW_HOJO
 62
     7
370
     9
100
AcDbLine
 10
-4550.53340243071
 20
-1790.636823212765
 30
0.0
 11
-4647.500393841718
 21
-1887.603814623773
 31
0.0
  0
LINE
  5
1E2
330
1F
100
AcDbEntity
  8
0-0
  6
JWW_HOJO
 62
     7
370
     9
100
AcDbLine
 10
-4647.500393841718
 20
-1887.603814623773
 30
0.0
 11
-4647.500393841718
 21
-2165.636823212765
 31
0.0
  0
LWPOLYLINE
  5
1E3
330
1F
100
AcDbEntity
  8
0-B
  6
Continuous
 62
     7
370
     9
100
AcDbPolyline
 90
        4
 70
     1
 43
6.0
 10
-4569.500393841718
 20
-1715.636823212765
 42
0.4142135623731
 10
-4572.500393841718
 20
-1712.636823212765
 42
0.4142135623731
 10
-4575.500393841717
 20
-1715.636823212765
 42
0.4142135623731
 10
-4572.500393841718
 20
-1718.636823212765
 42
0.4142135623731
  0
LINE
  5
1E4
330
1F
100
AcDbEntity
  8
0-B
  6
Continuous
 62
   120
370
     5
100
AcDbLine
 10
-4572.500393841718
 20
-1715.636823212765
 30
0.0
 11
-4572.500393841718
 21
-1790.636823212765
 31
0.0
  0
LINE
  5
1E5
330
1F
100
AcDbEntity
  8
0-B
  6
Continuous
 62
   120
370
     5
100
AcDbLine
 10
-4722.500393841718
 20
-1865.636823212765
 30
0.0
 11
-4722.500393841718
 21
-2165.636823212765
 31
0.0
  0
LWPOLYLINE
  5
1E6
330
1F
100
AcDbEntity
  8
0-B
  6
Continuous
 62
     7
370
     9
100
AcDbPolyline
 90
        4
 70
     1
 43
6.0
 10
-4719.500393841718
 20
-1865.636823212765
 42
0.4142135623731
 10
-4722.500393841718
 20
-1862.636823212765
 42
0.4142135623731
 10
-4725.500393841717
 20
-1865.636823212765
 42
0.4142135623731
 10
-4722.500393841718
 20
-1868.636823212765
 42
0.4142135623731
  0
LINE
  5
1E7
330
1F
100
AcDbEntity
  8
0-B
  6
Continuous
 62
   120
370
     5
100
AcDbLine
 10
-4722.500393841718
 20
-1865.636823212765
 30
0.0
 11
-4647.500393841718
 21
-1865.636823212765
 31
0.0
  0
LINE
  5
1E8
330
1F
100
AcDbEntity
  8
0-B
  6
Continuous
 62
   120
370
     5
100
AcDbLine
 10
-4625.53340243071
 20
-1759.570806034783
 30
0.0
 11
-4678.5664110197
 21
-1812.603814623773
 31
0.0
  0
LWPOLYLINE
  5
1E9
330
1F
100
AcDbEntity
  8
0-B
  6
Continuous
 62
     7
370
     9
100
AcDbPolyline
 90
        4
 70
     1
 43
6.0
 10
-4622.53340243071
 20
-1759.570806034783
 42
0.4142135623731
 10
-4625.53340243071
 20
-1756.570806034783
 42
0.4142135623731
 10
-4628.53340243071
 20
-1759.570806034783
 42
0.4142135623731
 10
-4625.53340243071
 20
-1762.570806034783
 42
0.4142135623731
  0
LWPOLYLINE
  5
1EA
330
1F
100
AcDbEntity
  8
0-B
  6
Continuous
 62
     7
370
     9
100
AcDbPolyline
 90
        4
 70
     1
 43
6.0
 10
-4675.5664110197
 20
-1812.603814623773
 42
0.4142135623731
 10
-4678.5664110197
 20
-1809.603814623773
 42
0.4142135623731
 10
-4681.5664110197
 20
-1812.603814623773
 42
0.4142135623731
 10
-4678.5664110197
 20
-1815.603814623773
 42
0.4142135623731
  0
LINE
  5
1EB
330
1F
100
AcDbEntity
  8
0-B
  6
Continuous
 62
   120
370
     5
100
AcDbLine
 10
-4625.53340243071
 20
-1759.570806034783
 30
0.0
 11
-4572.500393841719
 21
-1812.603814623773
 31
0.0
  0
LINE
  5
1EC
330
1F
100
AcDbEntity
  8
0-B
  6
Continuous
 62
   120
370
     5
100
AcDbLine
 10
-4678.5664110197
 20
-1812.603814623773
 30
0.0
 11
-4625.53340243071
 21
-1865.636823212764
 31
0.0
  0
LINE
  5
1ED
330
1F
100
AcDbEntity
  8
0-0
  6
JWW_HOJO
 62
     7
370
     9
100
AcDbLine
 10
-2772.500393841717
 20
-1715.636823212765
 30
0.0
 11
-4581.599419608691
 21
-1715.636823212765
 31
0.0
  0
LINE
  5
1EE
330
1F
100
AcDbEntity
  8
0-0
  6
JWW_HOJO
 62
     7
370
     9
100
AcDbLine
 10
-2772.500393841717
 20
-1790.636823212765
 30
0.0
 11
-4550.53340243071
 21
-1790.636823212765
 31
0.0
  0
LINE
  5
1EF
330
1F
100
AcDbEntity
  8
0-B
  6
Continuous
 62
   120
370
     5
100
AcDbLine
 10
-4572.500393841718
 20
-1715.636823212765
 30
0.0
 11
-2772.500393841717
 21
-1715.636823212765
 31
0.0
  0
LINE
  5
1F0
330
1F
100
AcDbEntity
  8
0-4
  6
Continuous
 62
    92
370
    13
100
AcDbLine
 10
-2772.500393841717
 20
-3415.636903115208
 30
0.0
 11
-2772.500393841717
 21
-3115.636903115208
 31
0.0
  0
LINE
  5
1F1
330
1F
100
AcDbEntity
  8
0-4
  6
Continuous
 62
    92
370
    13
100
AcDbLine
 10
-2780.000393841717
 20
-3408.136903115208
 30
0.0
 11
-2780.000393841717
 21
-3123.136903115208
 31
0.0
  0
LWPOLYLINE
  5
1F2
330
1F
100
AcDbEntity
  8
0-B
  6
Continuous
 62
     7
370
     9
100
AcDbPolyline
 90
        4
 70
     1
 43
6.0
 10
-2769.500393841717
 20
-2965.636903115208
 42
0.4142135623731
 10
-2772.500393841717
 20
-2962.636903115208
 42
0.4142135623731
 10
-2775.500393841717
 20
-2965.636903115208
 42
0.4142135623731
 10
-2772.500393841717
 20
-2968.636903115207
 42
0.4142135623731
  0
LINE
  5
1F3
330
1F
100
AcDbEntity
  8
0-B
  6
Continuous
 62
   120
370
     5
100
AcDbLine
 10
-2772.500393841717
 20
-2965.636903115208
 30
0.0
 11
-2772.500393841717
 21
-3040.636903115208
 31
0.0
  0
LINE
  5
1F4
330
1F
100
AcDbEntity
  8
0-4
  6
Continuous
 62
    92
370
    13
100
AcDbLine
 10
-4519.467385252728
 20
-3115.636903115208
 30
0.0
 11
-4572.500393841718
 21
-3168.669911704198
 31
0.0
  0
LINE
  5
1F5
330
1F
100
AcDbEntity
  8
0-4
  6
Continuous
 62
    92
370
    13
100
AcDbLine
 10
-4516.360783534929
 20
-3123.136903115208
 30
0.0
 11
-4565.000393841718
 21
-3171.776513421996
 31
0.0
  0
LINE
  5
1F6
330
1F
100
AcDbEntity
  8
0-4
  6
Continuous
 62
    92
370
    13
100
AcDbLine
 10
-4572.500393841718
 20
-3168.669911704198
 30
0.0
 11
-4572.500393841718
 21
-3415.636903115208
 31
0.0
  0
LINE
  5
1F7
330
1F
100
AcDbEntity
  8
0-4
  6
Continuous
 62
    92
370
    13
100
AcDbLine
 10
-4565.000393841718
 20
-3171.776513421996
 30
0.0
 11
-4565.000393841718
 21
-3408.136903115208
 31
0.0
  0
LINE
  5
1F8
330
1F
100
AcDbEntity
  8
0-0
  6
JWW_HOJO
 62
     7
370
     9
100
AcDbLine
 10
-4581.599419608691
 20
-2965.636903115208
 30
0.0
 11
-4722.500393841718
 21
-3106.537877348234
 31
0.0
  0
LINE
  5
1F9
330
1F
100
AcDbEntity
  8
0-0
  6
JWW_HOJO
 62
     7
370
     9
100
AcDbLine
 10
-4722.500393841718
 20
-3106.537877348234
 30
0.0
 11
-4722.500393841718
 21
-3415.636903115208
 31
0.0
  0
LINE
  5
1FA
330
1F
100
AcDbEntity
  8
0-0
  6
JWW_HOJO
 62
     7
370
     9
100
AcDbLine
 10
-4550.53340243071
 20
-3040.636903115208
 30
0.0
 11
-4647.500393841718
 21
-3137.603894526216
 31
0.0
  0
LINE
  5
1FB
330
1F
100
AcDbEntity
  8
0-0
  6
JWW_HOJO
 62
     7
370
     9
100
AcDbLine
 10
-4647.500393841718
 20
-3137.603894526216
 30
0.0
 11
-4647.500393841718
 21
-3415.636903115208
 31
0.0
  0
LWPOLYLINE
  5
1FC
330
1F
100
AcDbEntity
  8
0-B
  6
Continuous
 62
     7
370
     9
100
AcDbPolyline
 90
        4
 70
     1
 43
6.0
 10
-4569.500393841718
 20
-2965.636903115208
 42
0.4142135623731
 10
-4572.500393841718
 20
-2962.636903115208
 42
0.4142135623731
 10
-4575.500393841717
 20
-2965.636903115208
 42
0.4142135623731
 10
-4572.500393841718
 20
-2968.636903115207
 42
0.4142135623731
  0
LINE
  5
1FD
330
1F
100
AcDbEntity
  8
0-B
  6
Continuous
 62
   120
370
     5
100
AcDbLine
 10
-4572.500393841718
 20
-2965.636903115208
 30
0.0
 11
-4572.500393841718
 21
-3040.636903115208
 31
0.0
  0
LINE
  5
1FE
330
1F
100
AcDbEntity
  8
0-B
  6
Continuous
 62
   120
370
     5
100
AcDbLine
 10
-4722.500393841718
 20
-3115.636903115208
 30
0.0
 11
-4722.500393841718
 21
-3415.636903115208
 31
0.0
  0
LWPOLYLINE
  5
1FF
330
1F
100
AcDbEntity
  8
0-B
  6
Continuous
 62
     7
370
     9
100
AcDbPolyline
 90
        4
 70
     1
 43
6.0
 10
-4719.500393841718
 20
-3115.636903115208
 42
0.4142135623731
 10
-4722.500393841718
 20
-3112.636903115208
 42
0.4142135623731
 10
-4725.500393841717
 20
-3115.636903115208
 42
0.4142135623731
 10
-4722.500393841718
 20
-3118.636903115207
 42
0.4142135623731
  0
LINE
  5
200
330
1F
100
AcDbEntity
  8
0-B
  6
Continuous
 62
   120
370
     5
100
AcDbLine
 10
-4722.500393841718
 20
-3115.636903115208
 30
0.0
 11
-4647.500393841718
 21
-3115.636903115208
 31
0.0
  0
LINE
  5
201
330
1F
100
AcDbEntity
  8
0-B
  6
Continuous
 62
   120
370
     5
100
AcDbLine
 10
-4625.53340243071
 20
-3009.570885937225
 30
0.0
 11
-4678.5664110197
 21
-3062.603894526216
 31
0.0
  0
LWPOLYLINE
  5
202
330
1F
100
AcDbEntity
  8
0-B
  6
Continuous
 62
     7
370
     9
100
AcDbPolyline
 90
        4
 70
     1
 43
6.0
 10
-4622.53340243071
 20
-3009.570885937225
 42
0.4142135623731
 10
-4625.53340243071
 20
-3006.570885937225
 42
0.4142135623731
 10
-4628.53340243071
 20
-3009.570885937225
 42
0.4142135623731
 10
-4625.53340243071
 20
-3012.570885937225
 42
0.4142135623731
  0
LWPOLYLINE
  5
203
330
1F
100
AcDbEntity
  8
0-B
  6
Continuous
 62
     7
370
     9
100
AcDbPolyline
 90
        4
 70
     1
 43
6.0
 10
-4675.5664110197
 20
-3062.603894526216
 42
0.4142135623731
 10
-4678.5664110197
 20
-3059.603894526216
 42
0.4142135623731
 10
-4681.5664110197
 20
-3062.603894526216
 42
0.4142135623731
 10
-4678.5664110197
 20
-3065.603894526216
 42
0.4142135623731
  0
LINE
  5
204
330
1F
100
AcDbEntity
  8
0-B
  6
Continuous
 62
   120
370
     5
100
AcDbLine
 10
-4625.53340243071
 20
-3009.570885937225
 30
0.0
 11
-4572.500393841719
 21
-3062.603894526216
 31
0.0
  0
LINE
  5
205
330
1F
100
AcDbEntity
  8
0-B
  6
Continuous
 62
   120
370
     5
100
AcDbLine
 10
-4678.5664110197
 20
-3062.603894526216
 30
0.0
 11
-4625.53340243071
 21
-3115.636903115207
 31
0.0
  0
LINE
  5
206
330
1F
100
AcDbEntity
  8
0-0
  6
JWW_HOJO
 62
     7
370
     9
100
AcDbLine
 10
-2772.500393841717
 20
-2965.636903115208
 30
0.0
 11
-4581.599419608691
 21
-2965.636903115208
 31
0.0
  0
LINE
  5
207
330
1F
100
AcDbEntity
  8
0-0
  6
JWW_HOJO
 62
     7
370
     9
100
AcDbLine
 10
-2772.500393841717
 20
-3040.636903115208
 30
0.0
 11
-4550.53340243071
 21
-3040.636903115208
 31
0.0
  0
LINE
  5
208
330
1F
100
AcDbEntity
  8
0-B
  6
Continuous
 62
   120
370
     5
100
AcDbLine
 10
-4572.500393841718
 20
-2965.636903115208
 30
0.0
 11
-2772.500393841717
 21
-2965.636903115208
 31
0.0
  0
LINE
  5
209
330
1F
100
AcDbEntity
  8
0-4
  6
Continuous
 62
    92
370
    13
100
AcDbLine
 10
3072.501012441275
 20
2834.363496397006
 30
0.0
 11
3072.501012441275
 21
3134.363496397006
 31
0.0
  0
LINE
  5
20A
330
1F
100
AcDbEntity
  8
0-4
  6
Continuous
 62
    92
370
    13
100
AcDbLine
 10
3065.001012441275
 20
2841.863496397006
 30
0.0
 11
3065.001012441275
 21
3126.863496397006
 31
0.0
  0
LWPOLYLINE
  5
20B
330
1F
100
AcDbEntity
  8
0-B
  6
Continuous
 62
     7
370
     9
100
AcDbPolyline
 90
        4
 70
     1
 43
6.0
 10
3075.501012441275
 20
3284.363496397007
 42
0.4142135623731
 10
3072.501012441275
 20
3287.363496397007
 42
0.4142135623731
 10
3069.501012441275
 20
3284.363496397007
 42
0.4142135623731
 10
3072.501012441275
 20
3281.363496397007
 42
0.4142135623731
  0
LINE
  5
20C
330
1F
100
AcDbEntity
  8
0-B
  6
Continuous
 62
   120
370
     5
100
AcDbLine
 10
3072.501012441275
 20
3284.363496397007
 30
0.0
 11
3072.501012441275
 21
3209.363496397006
 31
0.0
  0
LINE
  5
20D
330
1F
100
AcDbEntity
  8
0-4
  6
Continuous
 62
    92
370
    13
100
AcDbLine
 10
1325.534021030266
 20
3134.363496397006
 30
0.0
 11
1272.501012441275
 21
3081.330487808015
 31
0.0
  0
LINE
  5
20E
330
1F
100
AcDbEntity
  8
0-4
  6
Continuous
 62
    92
370
    13
100
AcDbLine
 10
1328.640622748064
 20
3126.863496397006
 30
0.0
 11
1280.001012441275
 21
3078.223886090217
 31
0.0
  0
LINE
  5
20F
330
1F
100
AcDbEntity
  8
0-4
  6
Continuous
 62
    92
370
    13
100
AcDbLine
 10
1272.501012441275
 20
3081.330487808015
 30
0.0
 11
1272.501012441275
 21
2834.363496397006
 31
0.0
  0
LINE
  5
210
330
1F
100
AcDbEntity
  8
0-4
  6
Continuous
 62
    92
370
    13
100
AcDbLine
 10
1280.001012441275
 20
3078.223886090217
 30
0.0
 11
1280.001012441275
 21
2841.863496397006
 31
0.0
  0
LINE
  5
211
330
1F
100
AcDbEntity
  8
0-0
  6
JWW_HOJO
 62
     7
370
     9
100
AcDbLine
 10
1263.401986674301
 20
3284.363496397007
 30
0.0
 11
1122.501012441275
 21
3143.462522163979
 31
0.0
  0
LINE
  5
212
330
1F
100
AcDbEntity
  8
0-0
  6
JWW_HOJO
 62
     7
370
     9
100
AcDbLine
 10
1122.501012441275
 20
3143.462522163979
 30
0.0
 11
1122.501012441275
 21
2834.363496397006
 31
0.0
  0
LINE
  5
213
330
1F
100
AcDbEntity
  8
0-0
  6
JWW_HOJO
 62
     7
370
     9
100
AcDbLine
 10
1294.468003852284
 20
3209.363496397006
 30
0.0
 11
1197.501012441275
 21
3112.396504985997
 31
0.0
  0
LINE
  5
214
330
1F
100
AcDbEntity
  8
0-0
  6
JWW_HOJO
 62
     7
370
     9
100
AcDbLine
 10
1197.501012441275
 20
3112.396504985997
 30
0.0
 11
1197.501012441275
 21
2834.363496397006
 31
0.0
  0
LWPOLYLINE
  5
215
330
1F
100
AcDbEntity
  8
0-B
  6
Continuous
 62
     7
370
     9
100
AcDbPolyline
 90
        4
 70
     1
 43
6.0
 10
1275.501012441275
 20
3284.363496397007
 42
0.4142135623731
 10
1272.501012441275
 20
3287.363496397007
 42
0.4142135623731
 10
1269.501012441275
 20
3284.363496397007
 42
0.4142135623731
 10
1272.501012441275
 20
3281.363496397007
 42
0.4142135623731
  0
LINE
  5
216
330
1F
100
AcDbEntity
  8
0-B
  6
Continuous
 62
   120
370
     5
100
AcDbLine
 10
1272.501012441275
 20
3284.363496397007
 30
0.0
 11
1272.501012441275
 21
3209.363496397006
 31
0.0
  0
LINE
  5
217
330
1F
100
AcDbEntity
  8
0-B
  6
Continuous
 62
   120
370
     5
100
AcDbLine
 10
1122.501012441275
 20
3134.363496397006
 30
0.0
 11
1122.501012441275
 21
2834.363496397006
 31
0.0
  0
LWPOLYLINE
  5
218
330
1F
100
AcDbEntity
  8
0-B
  6
Continuous
 62
     7
370
     9
100
AcDbPolyline
 90
        4
 70
     1
 43
6.0
 10
1125.501012441275
 20
3134.363496397006
 42
0.4142135623731
 10
1122.501012441275
 20
3137.363496397006
 42
0.4142135623731
 10
1119.501012441275
 20
3134.363496397006
 42
0.4142135623731
 10
1122.501012441275
 20
3131.363496397006
 42
0.4142135623731
  0
LINE
  5
219
330
1F
100
AcDbEntity
  8
0-B
  6
Continuous
 62
   120
370
     5
100
AcDbLine
 10
1122.501012441275
 20
3134.363496397006
 30
0.0
 11
1197.501012441275
 21
3134.363496397006
 31
0.0
  0
LINE
  5
21A
330
1F
100
AcDbEntity
  8
0-B
  6
Continuous
 62
   120
370
     5
100
AcDbLine
 10
1219.468003852284
 20
3240.429513574988
 30
0.0
 11
1166.434995263293
 21
3187.396504985997
 31
0.0
  0
LWPOLYLINE
  5
21B
330
1F
100
AcDbEntity
  8
0-B
  6
Continuous
 62
     7
370
     9
100
AcDbPolyline
 90
        4
 70
     1
 43
6.0
 10
1222.468003852284
 20
3240.429513574988
 42
0.4142135623731
 10
1219.468003852284
 20
3243.429513574988
 42
0.4142135623731
 10
1216.468003852284
 20
3240.429513574988
 42
0.4142135623731
 10
1219.468003852284
 20
3237.429513574988
 42
0.4142135623731
  0
LWPOLYLINE
  5
21C
330
1F
100
AcDbEntity
  8
0-B
  6
Continuous
 62
     7
370
     9
100
AcDbPolyline
 90
        4
 70
     1
 43
6.0
 10
1169.434995263293
 20
3187.396504985997
 42
0.4142135623731
 10
1166.434995263293
 20
3190.396504985997
 42
0.4142135623731
 10
1163.434995263293
 20
3187.396504985997
 42
0.4142135623731
 10
1166.434995263293
 20
3184.396504985998
 42
0.4142135623731
  0
LINE
  5
21D
330
1F
100
AcDbEntity
  8
0-B
  6
Continuous
 62
   120
370
     5
100
AcDbLine
 10
1219.468003852284
 20
3240.429513574988
 30
0.0
 11
1272.501012441274
 21
3187.396504985997
 31
0.0
  0
LINE
  5
21E
330
1F
100
AcDbEntity
  8
0-B
  6
Continuous
 62
   120
370
     5
100
AcDbLine
 10
1166.434995263293
 20
3187.396504985997
 30
0.0
 11
1219.468003852284
 21
3134.363496397007
 31
0.0
  0
LINE
  5
21F
330
1F
100
AcDbEntity
  8
0-0
  6
JWW_HOJO
 62
     7
370
     9
100
AcDbLine
 10
3072.501012441275
 20
3284.363496397007
 30
0.0
 11
1263.401986674301
 21
3284.363496397007
 31
0.0
  0
LINE
  5
220
330
1F
100
AcDbEntity
  8
0-0
  6
JWW_HOJO
 62
     7
370
     9
100
AcDbLine
 10
3072.501012441275
 20
3209.363496397006
 30
0.0
 11
1294.468003852284
 21
3209.363496397006
 31
0.0
  0
LINE
  5
221
330
1F
100
AcDbEntity
  8
0-B
  6
Continuous
 62
   120
370
     5
100
AcDbLine
 10
1272.501012441275
 20
3284.363496397007
 30
0.0
 11
3072.501012441275
 21
3284.363496397007
 31
0.0
  0
LINE
  5
222
330
1F
100
AcDbEntity
  8
0-4
  6
Continuous
 62
    92
370
    13
100
AcDbLine
 10
3072.50008454194
 20
1584.363416494564
 30
0.0
 11
3072.50008454194
 21
1884.363416494564
 31
0.0
  0
LINE
  5
223
330
1F
100
AcDbEntity
  8
0-4
  6
Continuous
 62
    92
370
    13
100
AcDbLine
 10
3065.00008454194
 20
1591.863416494564
 30
0.0
 11
3065.00008454194
 21
1876.863416494564
 31
0.0
  0
LWPOLYLINE
  5
224
330
1F
100
AcDbEntity
  8
0-B
  6
Continuous
 62
     7
370
     9
100
AcDbPolyline
 90
        4
 70
     1
 43
6.0
 10
3075.50008454194
 20
2034.363416494564
 42
0.4142135623731
 10
3072.50008454194
 20
2037.363416494564
 42
0.4142135623731
 10
3069.50008454194
 20
2034.363416494564
 42
0.4142135623731
 10
3072.50008454194
 20
2031.363416494564
 42
0.4142135623731
  0
LINE
  5
225
330
1F
100
AcDbEntity
  8
0-B
  6
Continuous
 62
   120
370
     5
100
AcDbLine
 10
3072.50008454194
 20
2034.363416494564
 30
0.0
 11
3072.50008454194
 21
1959.363416494564
 31
0.0
  0
LINE
  5
226
330
1F
100
AcDbEntity
  8
0-4
  6
Continuous
 62
    92
370
    13
100
AcDbLine
 10
1325.53309313093
 20
1884.363416494564
 30
0.0
 11
1272.50008454194
 21
1831.330407905573
 31
0.0
  0
LINE
  5
227
330
1F
100
AcDbEntity
  8
0-4
  6
Continuous
 62
    92
370
    13
100
AcDbLine
 10
1328.639694848729
 20
1876.863416494564
 30
0.0
 11
1280.00008454194
 21
1828.223806187775
 31
0.0
  0
LINE
  5
228
330
1F
100
AcDbEntity
  8
0-4
  6
Continuous
 62
    92
370
    13
100
AcDbLine
 10
1272.50008454194
 20
1831.330407905573
 30
0.0
 11
1272.50008454194
 21
1584.363416494564
 31
0.0
  0
LINE
  5
229
330
1F
100
AcDbEntity
  8
0-4
  6
Continuous
 62
    92
370
    13
100
AcDbLine
 10
1280.00008454194
 20
1828.223806187775
 30
0.0
 11
1280.00008454194
 21
1591.863416494564
 31
0.0
  0
LINE
  5
22A
330
1F
100
AcDbEntity
  8
0-0
  6
JWW_HOJO
 62
     7
370
     9
100
AcDbLine
 10
1263.401058774966
 20
2034.363416494564
 30
0.0
 11
1122.50008454194
 21
1893.462442261538
 31
0.0
  0
LINE
  5
22B
330
1F
100
AcDbEntity
  8
0-0
  6
JWW_HOJO
 62
     7
370
     9
100
AcDbLine
 10
1122.50008454194
 20
1893.462442261538
 30
0.0
 11
1122.50008454194
 21
1584.363416494564
 31
0.0
  0
LINE
  5
22C
330
1F
100
AcDbEntity
  8
0-0
  6
JWW_HOJO
 62
     7
370
     9
100
AcDbLine
 10
1294.467075952948
 20
1959.363416494564
 30
0.0
 11
1197.50008454194
 21
1862.396425083556
 31
0.0
  0
LINE
  5
22D
330
1F
100
AcDbEntity
  8
0-0
  6
JWW_HOJO
 62
     7
370
     9
100
AcDbLine
 10
1197.50008454194
 20
1862.396425083556
 30
0.0
 11
1197.50008454194
 21
1584.363416494564
 31
0.0
  0
LWPOLYLINE
  5
22E
330
1F
100
AcDbEntity
  8
0-B
  6
Continuous
 62
     7
370
     9
100
AcDbPolyline
 90
        4
 70
     1
 43
6.0
 10
1275.50008454194
 20
2034.363416494564
 42
0.4142135623731
 10
1272.50008454194
 20
2037.363416494564
 42
0.4142135623731
 10
1269.50008454194
 20
2034.363416494564
 42
0.4142135623731
 10
1272.50008454194
 20
2031.363416494564
 42
0.4142135623731
  0
LINE
  5
22F
330
1F
100
AcDbEntity
  8
0-B
  6
Continuous
 62
   120
370
     5
100
AcDbLine
 10
1272.50008454194
 20
2034.363416494564
 30
0.0
 11
1272.50008454194
 21
1959.363416494564
 31
0.0
  0
LINE
  5
230
330
1F
100
AcDbEntity
  8
0-B
  6
Continuous
 62
   120
370
     5
100
AcDbLine
 10
1122.50008454194
 20
1884.363416494564
 30
0.0
 11
1122.50008454194
 21
1584.363416494564
 31
0.0
  0
LWPOLYLINE
  5
231
330
1F
100
AcDbEntity
  8
0-B
  6
Continuous
 62
     7
370
     9
100
AcDbPolyline
 90
        4
 70
     1
 43
6.0
 10
1125.50008454194
 20
1884.363416494564
 42
0.4142135623731
 10
1122.50008454194
 20
1887.363416494564
 42
0.4142135623731
 10
1119.50008454194
 20
1884.363416494564
 42
0.4142135623731
 10
1122.50008454194
 20
1881.363416494564
 42
0.4142135623731
  0
LINE
  5
232
330
1F
100
AcDbEntity
  8
0-B
  6
Continuous
 62
   120
370
     5
100
AcDbLine
 10
1122.50008454194
 20
1884.363416494564
 30
0.0
 11
1197.50008454194
 21
1884.363416494564
 31
0.0
  0
LINE
  5
233
330
1F
100
AcDbEntity
  8
0-B
  6
Continuous
 62
   120
370
     5
100
AcDbLine
 10
1219.467075952948
 20
1990.429433672546
 30
0.0
 11
1166.434067363958
 21
1937.396425083556
 31
0.0
  0
LWPOLYLINE
  5
234
330
1F
100
AcDbEntity
  8
0-B
  6
Continuous
 62
     7
370
     9
100
AcDbPolyline
 90
        4
 70
     1
 43
6.0
 10
1222.467075952948
 20
1990.429433672546
 42
0.4142135623731
 10
1219.467075952948
 20
1993.429433672546
 42
0.4142135623731
 10
1216.467075952948
 20
1990.429433672546
 42
0.4142135623731
 10
1219.467075952948
 20
1987.429433672546
 42
0.4142135623731
  0
LWPOLYLINE
  5
235
330
1F
100
AcDbEntity
  8
0-B
  6
Continuous
 62
     7
370
     9
100
AcDbPolyline
 90
        4
 70
     1
 43
6.0
 10
1169.434067363958
 20
1937.396425083556
 42
0.4142135623731
 10
1166.434067363958
 20
1940.396425083555
 42
0.4142135623731
 10
1163.434067363958
 20
1937.396425083556
 42
0.4142135623731
 10
1166.434067363958
 20
1934.396425083556
 42
0.4142135623731
  0
LINE
  5
236
330
1F
100
AcDbEntity
  8
0-B
  6
Continuous
 62
   120
370
     5
100
AcDbLine
 10
1219.467075952948
 20
1990.429433672546
 30
0.0
 11
1272.500084541939
 21
1937.396425083556
 31
0.0
  0
LINE
  5
237
330
1F
100
AcDbEntity
  8
0-B
  6
Continuous
 62
   120
370
     5
100
AcDbLine
 10
1166.434067363958
 20
1937.396425083556
 30
0.0
 11
1219.467075952948
 21
1884.363416494565
 31
0.0
  0
LINE
  5
238
330
1F
100
AcDbEntity
  8
0-0
  6
JWW_HOJO
 62
     7
370
     9
100
AcDbLine
 10
3072.50008454194
 20
2034.363416494564
 30
0.0
 11
1263.401058774966
 21
2034.363416494564
 31
0.0
  0
LINE
  5
239
330
1F
100
AcDbEntity
  8
0-0
  6
JWW_HOJO
 62
     7
370
     9
100
AcDbLine
 10
3072.50008454194
 20
1959.363416494564
 30
0.0
 11
1294.467075952948
 21
1959.363416494564
 31
0.0
  0
LINE
  5
23A
330
1F
100
AcDbEntity
  8
0-B
  6
Continuous
 62
   120
370
     5
100
AcDbLine
 10
1272.50008454194
 20
2034.363416494564
 30
0.0
 11
3072.50008454194
 21
2034.363416494564
 31
0.0
  0
LINE
  5
23B
330
1F
100
AcDbEntity
  8
0-4
  6
Continuous
 62
    92
370
    13
100
AcDbLine
 10
3072.50008454194
 20
334.3633365921215
 30
0.0
 11
3072.50008454194
 21
634.3633365921215
 31
0.0
  0
LINE
  5
23C
330
1F
100
AcDbEntity
  8
0-4
  6
Continuous
 62
    92
370
    13
100
AcDbLine
 10
3065.00008454194
 20
341.8633365921215
 30
0.0
 11
3065.00008454194
 21
626.8633365921215
 31
0.0
  0
LWPOLYLINE
  5
23D
330
1F
100
AcDbEntity
  8
0-B
  6
Continuous
 62
     7
370
     9
100
AcDbPolyline
 90
        4
 70
     1
 43
6.0
 10
3075.50008454194
 20
784.3633365921215
 42
0.4142135623731
 10
3072.50008454194
 20
787.3633365921215
 42
0.4142135623731
 10
3069.50008454194
 20
784.3633365921215
 42
0.4142135623731
 10
3072.50008454194
 20
781.3633365921215
 42
0.4142135623731
  0
LINE
  5
23E
330
1F
100
AcDbEntity
  8
0-B
  6
Continuous
 62
   120
370
     5
100
AcDbLine
 10
3072.50008454194
 20
784.3633365921215
 30
0.0
 11
3072.50008454194
 21
709.3633365921215
 31
0.0
  0
LINE
  5
23F
330
1F
100
AcDbEntity
  8
0-4
  6
Continuous
 62
    92
370
    13
100
AcDbLine
 10
1325.53309313093
 20
634.3633365921215
 30
0.0
 11
1272.50008454194
 21
581.330328003131
 31
0.0
  0
LINE
  5
240
330
1F
100
AcDbEntity
  8
0-4
  6
Continuous
 62
    92
370
    13
100
AcDbLine
 10
1328.639694848729
 20
626.8633365921215
 30
0.0
 11
1280.00008454194
 21
578.2237262853325
 31
0.0
  0
LINE
  5
241
330
1F
100
AcDbEntity
  8
0-4
  6
Continuous
 62
    92
370
    13
100
AcDbLine
 10
1272.50008454194
 20
581.330328003131
 30
0.0
 11
1272.50008454194
 21
334.3633365921215
 31
0.0
  0
LINE
  5
242
330
1F
100
AcDbEntity
  8
0-4
  6
Continuous
 62
    92
370
    13
100
AcDbLine
 10
1280.00008454194
 20
578.2237262853325
 30
0.0
 11
1280.00008454194
 21
341.8633365921215
 31
0.0
  0
LINE
  5
243
330
1F
100
AcDbEntity
  8
0-0
  6
JWW_HOJO
 62
     7
370
     9
100
AcDbLine
 10
1263.401058774966
 20
784.3633365921215
 30
0.0
 11
1122.50008454194
 21
643.4623623590951
 31
0.0
  0
LINE
  5
244
330
1F
100
AcDbEntity
  8
0-0
  6
JWW_HOJO
 62
     7
370
     9
100
AcDbLine
 10
1122.50008454194
 20
643.4623623590951
 30
0.0
 11
1122.50008454194
 21
334.3633365921215
 31
0.0
  0
LINE
  5
245
330
1F
100
AcDbEntity
  8
0-0
  6
JWW_HOJO
 62
     7
370
     9
100
AcDbLine
 10
1294.467075952948
 20
709.3633365921215
 30
0.0
 11
1197.50008454194
 21
612.396345181113
 31
0.0
  0
LINE
  5
246
330
1F
100
AcDbEntity
  8
0-0
  6
JWW_HOJO
 62
     7
370
     9
100
AcDbLine
 10
1197.50008454194
 20
612.396345181113
 30
0.0
 11
1197.50008454194
 21
334.3633365921215
 31
0.0
  0
LWPOLYLINE
  5
247
330
1F
100
AcDbEntity
  8
0-B
  6
Continuous
 62
     7
370
     9
100
AcDbPolyline
 90
        4
 70
     1
 43
6.0
 10
1275.50008454194
 20
784.3633365921215
 42
0.4142135623731
 10
1272.50008454194
 20
787.3633365921215
 42
0.4142135623731
 10
1269.50008454194
 20
784.3633365921215
 42
0.4142135623731
 10
1272.50008454194
 20
781.3633365921215
 42
0.4142135623731
  0
LINE
  5
248
330
1F
100
AcDbEntity
  8
0-B
  6
Continuous
 62
   120
370
     5
100
AcDbLine
 10
1272.50008454194
 20
784.3633365921215
 30
0.0
 11
1272.50008454194
 21
709.3633365921215
 31
0.0
  0
LINE
  5
249
330
1F
100
AcDbEntity
  8
0-B
  6
Continuous
 62
   120
370
     5
100
AcDbLine
 10
1122.50008454194
 20
634.3633365921215
 30
0.0
 11
1122.50008454194
 21
334.3633365921215
 31
0.0
  0
LWPOLYLINE
  5
24A
330
1F
100
AcDbEntity
  8
0-B
  6
Continuous
 62
     7
370
     9
100
AcDbPolyline
 90
        4
 70
     1
 43
6.0
 10
1125.50008454194
 20
634.3633365921215
 42
0.4142135623731
 10
1122.50008454194
 20
637.3633365921215
 42
0.4142135623731
 10
1119.50008454194
 20
634.3633365921215
 42
0.4142135623731
 10
1122.50008454194
 20
631.3633365921215
 42
0.4142135623731
  0
LINE
  5
24B
330
1F
100
AcDbEntity
  8
0-B
  6
Continuous
 62
   120
370
     5
100
AcDbLine
 10
1122.50008454194
 20
634.3633365921215
 30
0.0
 11
1197.50008454194
 21
634.3633365921215
 31
0.0
  0
LINE
  5
24C
330
1F
100
AcDbEntity
  8
0-B
  6
Continuous
 62
   120
370
     5
100
AcDbLine
 10
1219.467075952948
 20
740.4293537701037
 30
0.0
 11
1166.434067363958
 21
687.396345181113
 31
0.0
  0
LWPOLYLINE
  5
24D
330
1F
100
AcDbEntity
  8
0-B
  6
Continuous
 62
     7
370
     9
100
AcDbPolyline
 90
        4
 70
     1
 43
6.0
 10
1222.467075952948
 20
740.4293537701037
 42
0.4142135623731
 10
1219.467075952948
 20
743.4293537701037
 42
0.4142135623731
 10
1216.467075952948
 20
740.4293537701037
 42
0.4142135623731
 10
1219.467075952948
 20
737.4293537701036
 42
0.4142135623731
  0
LWPOLYLINE
  5
24E
330
1F
100
AcDbEntity
  8
0-B
  6
Continuous
 62
     7
370
     9
100
AcDbPolyline
 90
        4
 70
     1
 43
6.0
 10
1169.434067363958
 20
687.396345181113
 42
0.4142135623731
 10
1166.434067363958
 20
690.396345181113
 42
0.4142135623731
 10
1163.434067363958
 20
687.396345181113
 42
0.4142135623731
 10
1166.434067363958
 20
684.396345181113
 42
0.4142135623731
  0
LINE
  5
24F
330
1F
100
AcDbEntity
  8
0-B
  6
Continuous
 62
   120
370
     5
100
AcDbLine
 10
1219.467075952948
 20
740.4293537701037
 30
0.0
 11
1272.500084541939
 21
687.396345181113
 31
0.0
  0
LINE
  5
250
330
1F
100
AcDbEntity
  8
0-B
  6
Continuous
 62
   120
370
     5
100
AcDbLine
 10
1166.434067363958
 20
687.396345181113
 30
0.0
 11
1219.467075952948
 21
634.3633365921223
 31
0.0
  0
LINE
  5
251
330
1F
100
AcDbEntity
  8
0-0
  6
JWW_HOJO
 62
     7
370
     9
100
AcDbLine
 10
3072.50008454194
 20
784.3633365921215
 30
0.0
 11
1263.401058774966
 21
784.3633365921215
 31
0.0
  0
LINE
  5
252
330
1F
100
AcDbEntity
  8
0-0
  6
JWW_HOJO
 62
     7
370
     9
100
AcDbLine
 10
3072.50008454194
 20
709.3633365921215
 30
0.0
 11
1294.467075952948
 21
709.3633365921215
 31
0.0
  0
LINE
  5
253
330
1F
100
AcDbEntity
  8
0-B
  6
Continuous
 62
   120
370
     5
100
AcDbLine
 10
1272.50008454194
 20
784.3633365921215
 30
0.0
 11
3072.50008454194
 21
784.3633365921215
 31
0.0
  0
LINE
  5
254
330
1F
100
AcDbEntity
  8
0-4
  6
Continuous
 62
    92
370
    13
100
AcDbLine
 10
3072.50008454194
 20
-917.36112958058
 30
0.0
 11
3072.50008454194
 21
-617.36112958058
 31
0.0
  0
LINE
  5
255
330
1F
100
AcDbEntity
  8
0-4
  6
Continuous
 62
    92
370
    13
100
AcDbLine
 10
3065.00008454194
 20
-909.86112958058
 30
0.0
 11
3065.00008454194
 21
-624.86112958058
 31
0.0
  0
LWPOLYLINE
  5
256
330
1F
100
AcDbEntity
  8
0-B
  6
Continuous
 62
     7
370
     9
100
AcDbPolyline
 90
        4
 70
     1
 43
6.0
 10
3075.50008454194
 20
-467.3611295805796
 42
0.4142135623731
 10
3072.50008454194
 20
-464.3611295805796
 42
0.4142135623731
 10
3069.50008454194
 20
-467.3611295805796
 42
0.4142135623731
 10
3072.50008454194
 20
-470.3611295805796
 42
0.4142135623731
  0
LINE
  5
257
330
1F
100
AcDbEntity
  8
0-B
  6
Continuous
 62
   120
370
     5
100
AcDbLine
 10
3072.50008454194
 20
-467.3611295805796
 30
0.0
 11
3072.50008454194
 21
-542.3611295805796
 31
0.0
  0
LINE
  5
258
330
1F
100
AcDbEntity
  8
0-4
  6
Continuous
 62
    92
370
    13
100
AcDbLine
 10
1325.53309313093
 20
-617.36112958058
 30
0.0
 11
1272.50008454194
 21
-670.3941381695706
 31
0.0
  0
LINE
  5
259
330
1F
100
AcDbEntity
  8
0-4
  6
Continuous
 62
    92
370
    13
100
AcDbLine
 10
1328.639694848729
 20
-624.86112958058
 30
0.0
 11
1280.00008454194
 21
-673.5007398873689
 31
0.0
  0
LINE
  5
25A
330
1F
100
AcDbEntity
  8
0-4
  6
Continuous
 62
    92
370
    13
100
AcDbLine
 10
1272.50008454194
 20
-670.3941381695706
 30
0.0
 11
1272.50008454194
 21
-917.36112958058
 31
0.0
  0
LINE
  5
25B
330
1F
100
AcDbEntity
  8
0-4
  6
Continuous
 62
    92
370
    13
100
AcDbLine
 10
1280.00008454194
 20
-673.5007398873689
 30
0.0
 11
1280.00008454194
 21
-909.86112958058
 31
0.0
  0
LINE
  5
25C
330
1F
100
AcDbEntity
  8
0-0
  6
JWW_HOJO
 62
     7
370
     9
100
AcDbLine
 10
1263.401058774966
 20
-467.3611295805796
 30
0.0
 11
1122.50008454194
 21
-608.2621038136068
 31
0.0
  0
LINE
  5
25D
330
1F
100
AcDbEntity
  8
0-0
  6
JWW_HOJO
 62
     7
370
     9
100
AcDbLine
 10
1122.50008454194
 20
-608.2621038136068
 30
0.0
 11
1122.50008454194
 21
-917.36112958058
 31
0.0
  0
LINE
  5
25E
330
1F
100
AcDbEntity
  8
0-0
  6
JWW_HOJO
 62
     7
370
     9
100
AcDbLine
 10
1294.467075952948
 20
-542.3611295805796
 30
0.0
 11
1197.50008454194
 21
-639.3281209915885
 31
0.0
  0
LINE
  5
25F
330
1F
100
AcDbEntity
  8
0-0
  6
JWW_HOJO
 62
     7
370
     9
100
AcDbLine
 10
1197.50008454194
 20
-639.3281209915885
 30
0.0
 11
1197.50008454194
 21
-917.36112958058
 31
0.0
  0
LWPOLYLINE
  5
260
330
1F
100
AcDbEntity
  8
0-B
  6
Continuous
 62
     7
370
     9
100
AcDbPolyline
 90
        4
 70
     1
 43
6.0
 10
1275.50008454194
 20
-467.3611295805796
 42
0.4142135623731
 10
1272.50008454194
 20
-464.3611295805796
 42
0.4142135623731
 10
1269.50008454194
 20
-467.3611295805796
 42
0.4142135623731
 10
1272.50008454194
 20
-470.3611295805796
 42
0.4142135623731
  0
LINE
  5
261
330
1F
100
AcDbEntity
  8
0-B
  6
Continuous
 62
   120
370
     5
100
AcDbLine
 10
1272.50008454194
 20
-467.3611295805796
 30
0.0
 11
1272.50008454194
 21
-542.3611295805796
 31
0.0
  0
LINE
  5
262
330
1F
100
AcDbEntity
  8
0-B
  6
Continuous
 62
   120
370
     5
100
AcDbLine
 10
1122.50008454194
 20
-617.36112958058
 30
0.0
 11
1122.50008454194
 21
-917.36112958058
 31
0.0
  0
LWPOLYLINE
  5
263
330
1F
100
AcDbEntity
  8
0-B
  6
Continuous
 62
     7
370
     9
100
AcDbPolyline
 90
        4
 70
     1
 43
6.0
 10
1125.50008454194
 20
-617.36112958058
 42
0.4142135623731
 10
1122.50008454194
 20
-614.3611295805799
 42
0.4142135623731
 10
1119.50008454194
 20
-617.36112958058
 42
0.4142135623731
 10
1122.50008454194
 20
-620.36112958058
 42
0.4142135623731
  0
LINE
  5
264
330
1F
100
AcDbEntity
  8
0-B
  6
Continuous
 62
   120
370
     5
100
AcDbLine
 10
1122.50008454194
 20
-617.36112958058
 30
0.0
 11
1197.50008454194
 21
-617.36112958058
 31
0.0
  0
LINE
  5
265
330
1F
100
AcDbEntity
  8
0-B
  6
Continuous
 62
   120
370
     5
100
AcDbLine
 10
1219.467075952948
 20
-511.2951124025983
 30
0.0
 11
1166.434067363958
 21
-564.3281209915881
 31
0.0
  0
LWPOLYLINE
  5
266
330
1F
100
AcDbEntity
  8
0-B
  6
Continuous
 62
     7
370
     9
100
AcDbPolyline
 90
        4
 70
     1
 43
6.0
 10
1222.467075952948
 20
-511.2951124025983
 42
0.4142135623731
 10
1219.467075952948
 20
-508.2951124025982
 42
0.4142135623731
 10
1216.467075952948
 20
-511.2951124025983
 42
0.4142135623731
 10
1219.467075952948
 20
-514.2951124025983
 42
0.4142135623731
  0
LWPOLYLINE
  5
267
330
1F
100
AcDbEntity
  8
0-B
  6
Continuous
 62
     7
370
     9
100
AcDbPolyline
 90
        4
 70
     1
 43
6.0
 10
1169.434067363958
 20
-564.3281209915881
 42
0.4142135623731
 10
1166.434067363958
 20
-561.3281209915881
 42
0.4142135623731
 10
1163.434067363958
 20
-564.3281209915881
 42
0.4142135623731
 10
1166.434067363958
 20
-567.3281209915881
 42
0.4142135623731
  0
LINE
  5
268
330
1F
100
AcDbEntity
  8
0-B
  6
Continuous
 62
   120
370
     5
100
AcDbLine
 10
1219.467075952948
 20
-511.2951124025983
 30
0.0
 11
1272.500084541939
 21
-564.3281209915881
 31
0.0
  0
LINE
  5
269
330
1F
100
AcDbEntity
  8
0-B
  6
Continuous
 62
   120
370
     5
100
AcDbLine
 10
1166.434067363958
 20
-564.3281209915881
 30
0.0
 11
1219.467075952948
 21
-617.3611295805791
 31
0.0
  0
LINE
  5
26A
330
1F
100
AcDbEntity
  8
0-0
  6
JWW_HOJO
 62
     7
370
     9
100
AcDbLine
 10
3072.50008454194
 20
-467.3611295805796
 30
0.0
 11
1263.401058774966
 21
-467.3611295805796
 31
0.0
  0
LINE
  5
26B
330
1F
100
AcDbEntity
  8
0-0
  6
JWW_HOJO
 62
     7
370
     9
100
AcDbLine
 10
3072.50008454194
 20
-542.3611295805796
 30
0.0
 11
1294.467075952948
 21
-542.3611295805796
 31
0.0
  0
LINE
  5
26C
330
1F
100
AcDbEntity
  8
0-B
  6
Continuous
 62
   120
370
     5
100
AcDbLine
 10
1272.50008454194
 20
-467.3611295805796
 30
0.0
 11
3072.50008454194
 21
-467.3611295805796
 31
0.0
  0
LINE
  5
26D
330
1F
100
AcDbEntity
  8
0-4
  6
Continuous
 62
    92
370
    13
100
AcDbLine
 10
3072.50008454194
 20
-2165.636823212765
 30
0.0
 11
3072.50008454194
 21
-1865.636823212765
 31
0.0
  0
LINE
  5
26E
330
1F
100
AcDbEntity
  8
0-4
  6
Continuous
 62
    92
370
    13
100
AcDbLine
 10
3065.00008454194
 20
-2158.136823212765
 30
0.0
 11
3065.00008454194
 21
-1873.136823212765
 31
0.0
  0
LWPOLYLINE
  5
26F
330
1F
100
AcDbEntity
  8
0-B
  6
Continuous
 62
     7
370
     9
100
AcDbPolyline
 90
        4
 70
     1
 43
6.0
 10
3075.50008454194
 20
-1715.636823212765
 42
0.4142135623731
 10
3072.50008454194
 20
-1712.636823212765
 42
0.4142135623731
 10
3069.50008454194
 20
-1715.636823212765
 42
0.4142135623731
 10
3072.50008454194
 20
-1718.636823212765
 42
0.4142135623731
  0
LINE
  5
270
330
1F
100
AcDbEntity
  8
0-B
  6
Continuous
 62
   120
370
     5
100
AcDbLine
 10
3072.50008454194
 20
-1715.636823212765
 30
0.0
 11
3072.50008454194
 21
-1790.636823212765
 31
0.0
  0
LINE
  5
271
330
1F
100
AcDbEntity
  8
0-4
  6
Continuous
 62
    92
370
    13
100
AcDbLine
 10
1325.53309313093
 20
-1865.636823212765
 30
0.0
 11
1272.50008454194
 21
-1918.669831801755
 31
0.0
  0
LINE
  5
272
330
1F
100
AcDbEntity
  8
0-4
  6
Continuous
 62
    92
370
    13
100
AcDbLine
 10
1328.639694848729
 20
-1873.136823212765
 30
0.0
 11
1280.00008454194
 21
-1921.776433519554
 31
0.0
  0
LINE
  5
273
330
1F
100
AcDbEntity
  8
0-4
  6
Continuous
 62
    92
370
    13
100
AcDbLine
 10
1272.50008454194
 20
-1918.669831801755
 30
0.0
 11
1272.50008454194
 21
-2165.636823212765
 31
0.0
  0
LINE
  5
274
330
1F
100
AcDbEntity
  8
0-4
  6
Continuous
 62
    92
370
    13
100
AcDbLine
 10
1280.00008454194
 20
-1921.776433519554
 30
0.0
 11
1280.00008454194
 21
-2158.136823212765
 31
0.0
  0
LINE
  5
275
330
1F
100
AcDbEntity
  8
0-0
  6
JWW_HOJO
 62
     7
370
     9
100
AcDbLine
 10
1263.401058774966
 20
-1715.636823212765
 30
0.0
 11
1122.50008454194
 21
-1856.537797445791
 31
0.0
  0
LINE
  5
276
330
1F
100
AcDbEntity
  8
0-0
  6
JWW_HOJO
 62
     7
370
     9
100
AcDbLine
 10
1122.50008454194
 20
-1856.537797445791
 30
0.0
 11
1122.50008454194
 21
-2165.636823212765
 31
0.0
  0
LINE
  5
277
330
1F
100
AcDbEntity
  8
0-0
  6
JWW_HOJO
 62
     7
370
     9
100
AcDbLine
 10
1294.467075952948
 20
-1790.636823212765
 30
0.0
 11
1197.50008454194
 21
-1887.603814623773
 31
0.0
  0
LINE
  5
278
330
1F
100
AcDbEntity
  8
0-0
  6
JWW_HOJO
 62
     7
370
     9
100
AcDbLine
 10
1197.50008454194
 20
-1887.603814623773
 30
0.0
 11
1197.50008454194
 21
-2165.636823212765
 31
0.0
  0
LWPOLYLINE
  5
279
330
1F
100
AcDbEntity
  8
0-B
  6
Continuous
 62
     7
370
     9
100
AcDbPolyline
 90
        4
 70
     1
 43
6.0
 10
1275.50008454194
 20
-1715.636823212765
 42
0.4142135623731
 10
1272.50008454194
 20
-1712.636823212765
 42
0.4142135623731
 10
1269.50008454194
 20
-1715.636823212765
 42
0.4142135623731
 10
1272.50008454194
 20
-1718.636823212765
 42
0.4142135623731
  0
LINE
  5
27A
330
1F
100
AcDbEntity
  8
0-B
  6
Continuous
 62
   120
370
     5
100
AcDbLine
 10
1272.50008454194
 20
-1715.636823212765
 30
0.0
 11
1272.50008454194
 21
-1790.636823212765
 31
0.0
  0
LINE
  5
27B
330
1F
100
AcDbEntity
  8
0-B
  6
Continuous
 62
   120
370
     5
100
AcDbLine
 10
1122.50008454194
 20
-1865.636823212765
 30
0.0
 11
1122.50008454194
 21
-2165.636823212765
 31
0.0
  0
LWPOLYLINE
  5
27C
330
1F
100
AcDbEntity
  8
0-B
  6
Continuous
 62
     7
370
     9
100
AcDbPolyline
 90
        4
 70
     1
 43
6.0
 10
1125.50008454194
 20
-1865.636823212765
 42
0.4142135623731
 10
1122.50008454194
 20
-1862.636823212765
 42
0.4142135623731
 10
1119.50008454194
 20
-1865.636823212765
 42
0.4142135623731
 10
1122.50008454194
 20
-1868.636823212765
 42
0.4142135623731
  0
LINE
  5
27D
330
1F
100
AcDbEntity
  8
0-B
  6
Continuous
 62
   120
370
     5
100
AcDbLine
 10
1122.50008454194
 20
-1865.636823212765
 30
0.0
 11
1197.50008454194
 21
-1865.636823212765
 31
0.0
  0
LINE
  5
27E
330
1F
100
AcDbEntity
  8
0-B
  6
Continuous
 62
   120
370
     5
100
AcDbLine
 10
1219.467075952948
 20
-1759.570806034783
 30
0.0
 11
1166.434067363958
 21
-1812.603814623773
 31
0.0
  0
LWPOLYLINE
  5
27F
330
1F
100
AcDbEntity
  8
0-B
  6
Continuous
 62
     7
370
     9
100
AcDbPolyline
 90
        4
 70
     1
 43
6.0
 10
1222.467075952948
 20
-1759.570806034783
 42
0.4142135623731
 10
1219.467075952948
 20
-1756.570806034783
 42
0.4142135623731
 10
1216.467075952948
 20
-1759.570806034783
 42
0.4142135623731
 10
1219.467075952948
 20
-1762.570806034783
 42
0.4142135623731
  0
LWPOLYLINE
  5
280
330
1F
100
AcDbEntity
  8
0-B
  6
Continuous
 62
     7
370
     9
100
AcDbPolyline
 90
        4
 70
     1
 43
6.0
 10
1169.434067363958
 20
-1812.603814623773
 42
0.4142135623731
 10
1166.434067363958
 20
-1809.603814623773
 42
0.4142135623731
 10
1163.434067363958
 20
-1812.603814623773
 42
0.4142135623731
 10
1166.434067363958
 20
-1815.603814623773
 42
0.4142135623731
  0
LINE
  5
281
330
1F
100
AcDbEntity
  8
0-B
  6
Continuous
 62
   120
370
     5
100
AcDbLine
 10
1219.467075952948
 20
-1759.570806034783
 30
0.0
 11
1272.500084541939
 21
-1812.603814623773
 31
0.0
  0
LINE
  5
282
330
1F
100
AcDbEntity
  8
0-B
  6
Continuous
 62
   120
370
     5
100
AcDbLine
 10
1166.434067363958
 20
-1812.603814623773
 30
0.0
 11
1219.467075952948
 21
-1865.636823212764
 31
0.0
  0
LINE
  5
283
330
1F
100
AcDbEntity
  8
0-0
  6
JWW_HOJO
 62
     7
370
     9
100
AcDbLine
 10
3072.50008454194
 20
-1715.636823212765
 30
0.0
 11
1263.401058774966
 21
-1715.636823212765
 31
0.0
  0
LINE
  5
284
330
1F
100
AcDbEntity
  8
0-0
  6
JWW_HOJO
 62
     7
370
     9
100
AcDbLine
 10
3072.50008454194
 20
-1790.636823212765
 30
0.0
 11
1294.467075952948
 21
-1790.636823212765
 31
0.0
  0
LINE
  5
285
330
1F
100
AcDbEntity
  8
0-B
  6
Continuous
 62
   120
370
     5
100
AcDbLine
 10
1272.50008454194
 20
-1715.636823212765
 30
0.0
 11
3072.50008454194
 21
-1715.636823212765
 31
0.0
  0
LINE
  5
286
330
1F
100
AcDbEntity
  8
0-4
  6
Continuous
 62
    92
370
    13
100
AcDbLine
 10
3072.50008454194
 20
-3415.636903115208
 30
0.0
 11
3072.50008454194
 21
-3115.636903115208
 31
0.0
  0
LINE
  5
287
330
1F
100
AcDbEntity
  8
0-4
  6
Continuous
 62
    92
370
    13
100
AcDbLine
 10
3065.00008454194
 20
-3408.136903115208
 30
0.0
 11
3065.00008454194
 21
-3123.136903115208
 31
0.0
  0
LWPOLYLINE
  5
288
330
1F
100
AcDbEntity
  8
0-B
  6
Continuous
 62
     7
370
     9
100
AcDbPolyline
 90
        4
 70
     1
 43
6.0
 10
3075.50008454194
 20
-2965.636903115208
 42
0.4142135623731
 10
3072.50008454194
 20
-2962.636903115208
 42
0.4142135623731
 10
3069.50008454194
 20
-2965.636903115208
 42
0.4142135623731
 10
3072.50008454194
 20
-2968.636903115207
 42
0.4142135623731
  0
LINE
  5
289
330
1F
100
AcDbEntity
  8
0-B
  6
Continuous
 62
   120
370
     5
100
AcDbLine
 10
3072.50008454194
 20
-2965.636903115208
 30
0.0
 11
3072.50008454194
 21
-3040.636903115208
 31
0.0
  0
LINE
  5
28A
330
1F
100
AcDbEntity
  8
0-4
  6
Continuous
 62
    92
370
    13
100
AcDbLine
 10
1325.53309313093
 20
-3115.636903115208
 30
0.0
 11
1272.50008454194
 21
-3168.669911704198
 31
0.0
  0
LINE
  5
28B
330
1F
100
AcDbEntity
  8
0-4
  6
Continuous
 62
    92
370
    13
100
AcDbLine
 10
1328.639694848729
 20
-3123.136903115208
 30
0.0
 11
1280.00008454194
 21
-3171.776513421996
 31
0.0
  0
LINE
  5
28C
330
1F
100
AcDbEntity
  8
0-4
  6
Continuous
 62
    92
370
    13
100
AcDbLine
 10
1272.50008454194
 20
-3168.669911704198
 30
0.0
 11
1272.50008454194
 21
-3415.636903115208
 31
0.0
  0
LINE
  5
28D
330
1F
100
AcDbEntity
  8
0-4
  6
Continuous
 62
    92
370
    13
100
AcDbLine
 10
1280.00008454194
 20
-3171.776513421996
 30
0.0
 11
1280.00008454194
 21
-3408.136903115208
 31
0.0
  0
LINE
  5
28E
330
1F
100
AcDbEntity
  8
0-0
  6
JWW_HOJO
 62
     7
370
     9
100
AcDbLine
 10
1263.401058774966
 20
-2965.636903115208
 30
0.0
 11
1122.50008454194
 21
-3106.537877348234
 31
0.0
  0
LINE
  5
28F
330
1F
100
AcDbEntity
  8
0-0
  6
JWW_HOJO
 62
     7
370
     9
100
AcDbLine
 10
1122.50008454194
 20
-3106.537877348234
 30
0.0
 11
1122.50008454194
 21
-3415.636903115208
 31
0.0
  0
LINE
  5
290
330
1F
100
AcDbEntity
  8
0-0
  6
JWW_HOJO
 62
     7
370
     9
100
AcDbLine
 10
1294.467075952948
 20
-3040.636903115208
 30
0.0
 11
1197.50008454194
 21
-3137.603894526216
 31
0.0
  0
LINE
  5
291
330
1F
100
AcDbEntity
  8
0-0
  6
JWW_HOJO
 62
     7
370
     9
100
AcDbLine
 10
1197.50008454194
 20
-3137.603894526216
 30
0.0
 11
1197.50008454194
 21
-3415.636903115208
 31
0.0
  0
LWPOLYLINE
  5
292
330
1F
100
AcDbEntity
  8
0-B
  6
Continuous
 62
     7
370
     9
100
AcDbPolyline
 90
        4
 70
     1
 43
6.0
 10
1275.50008454194
 20
-2965.636903115208
 42
0.4142135623731
 10
1272.50008454194
 20
-2962.636903115208
 42
0.4142135623731
 10
1269.50008454194
 20
-2965.636903115208
 42
0.4142135623731
 10
1272.50008454194
 20
-2968.636903115207
 42
0.4142135623731
  0
LINE
  5
293
330
1F
100
AcDbEntity
  8
0-B
  6
Continuous
 62
   120
370
     5
100
AcDbLine
 10
1272.50008454194
 20
-2965.636903115208
 30
0.0
 11
1272.50008454194
 21
-3040.636903115208
 31
0.0
  0
LINE
  5
294
330
1F
100
AcDbEntity
  8
0-B
  6
Continuous
 62
   120
370
     5
100
AcDbLine
 10
1122.50008454194
 20
-3115.636903115208
 30
0.0
 11
1122.50008454194
 21
-3415.636903115208
 31
0.0
  0
LWPOLYLINE
  5
295
330
1F
100
AcDbEntity
  8
0-B
  6
Continuous
 62
     7
370
     9
100
AcDbPolyline
 90
        4
 70
     1
 43
6.0
 10
1125.50008454194
 20
-3115.636903115208
 42
0.4142135623731
 10
1122.50008454194
 20
-3112.636903115208
 42
0.4142135623731
 10
1119.50008454194
 20
-3115.636903115208
 42
0.4142135623731
 10
1122.50008454194
 20
-3118.636903115207
 42
0.4142135623731
  0
LINE
  5
296
330
1F
100
AcDbEntity
  8
0-B
  6
Continuous
 62
   120
370
     5
100
AcDbLine
 10
1122.50008454194
 20
-3115.636903115208
 30
0.0
 11
1197.50008454194
 21
-3115.636903115208
 31
0.0
  0
LINE
  5
297
330
1F
100
AcDbEntity
  8
0-B
  6
Continuous
 62
   120
370
     5
100
AcDbLine
 10
1219.467075952948
 20
-3009.570885937225
 30
0.0
 11
1166.434067363958
 21
-3062.603894526216
 31
0.0
  0
LWPOLYLINE
  5
298
330
1F
100
AcDbEntity
  8
0-B
  6
Continuous
 62
     7
370
     9
100
AcDbPolyline
 90
        4
 70
     1
 43
6.0
 10
1222.467075952948
 20
-3009.570885937225
 42
0.4142135623731
 10
1219.467075952948
 20
-3006.570885937225
 42
0.4142135623731
 10
1216.467075952948
 20
-3009.570885937225
 42
0.4142135623731
 10
1219.467075952948
 20
-3012.570885937225
 42
0.4142135623731
  0
LWPOLYLINE
  5
299
330
1F
100
AcDbEntity
  8
0-B
  6
Continuous
 62
     7
370
     9
100
AcDbPolyline
 90
        4
 70
     1
 43
6.0
 10
1169.434067363958
 20
-3062.603894526216
 42
0.4142135623731
 10
1166.434067363958
 20
-3059.603894526216
 42
0.4142135623731
 10
1163.434067363958
 20
-3062.603894526216
 42
0.4142135623731
 10
1166.434067363958
 20
-3065.603894526216
 42
0.4142135623731
  0
LINE
  5
29A
330
1F
100
AcDbEntity
  8
0-B
  6
Continuous
 62
   120
370
     5
100
AcDbLine
 10
1219.467075952948
 20
-3009.570885937225
 30
0.0
 11
1272.500084541939
 21
-3062.603894526216
 31
0.0
  0
LINE
  5
29B
330
1F
100
AcDbEntity
  8
0-B
  6
Continuous
 62
   120
370
     5
100
AcDbLine
 10
1166.434067363958
 20
-3062.603894526216
 30
0.0
 11
1219.467075952948
 21
-3115.636903115207
 31
0.0
  0
LINE
  5
29C
330
1F
100
AcDbEntity
  8
0-0
  6
JWW_HOJO
 62
     7
370
     9
100
AcDbLine
 10
3072.50008454194
 20
-2965.636903115208
 30
0.0
 11
1263.401058774966
 21
-2965.636903115208
 31
0.0
  0
LINE
  5
29D
330
1F
100
AcDbEntity
  8
0-0
  6
JWW_HOJO
 62
     7
370
     9
100
AcDbLine
 10
3072.50008454194
 20
-3040.636903115208
 30
0.0
 11
1294.467075952948
 21
-3040.636903115208
 31
0.0
  0
LINE
  5
29E
330
1F
100
AcDbEntity
  8
0-B
  6
Continuous
 62
   120
370
     5
100
AcDbLine
 10
1272.50008454194
 20
-2965.636903115208
 30
0.0
 11
3072.50008454194
 21
-2965.636903115208
 31
0.0
  0
LINE
  5
29F
330
1F
100
AcDbEntity
  8
0-4
  6
Continuous
 62
    92
370
    13
100
AcDbLine
 10
-2779.999465942383
 20
3126.863496397006
 30
0.0
 11
-3437.9691753414
 21
3126.863496397006
 31
0.0
  0
LINE
  5
2A0
330
1F
100
AcDbEntity
  8
0-4
  6
Continuous
 62
    92
370
    13
100
AcDbLine
 10
-3472.609620054576
 20
3126.863496397006
 30
0.0
 11
-4516.359855635593
 21
3126.863496397006
 31
0.0
  0
LINE
  5
2A1
330
1F
100
AcDbEntity
  8
0-4
  6
Continuous
 62
    92
370
    13
100
AcDbLine
 10
-2772.499465942383
 20
3134.363496397006
 30
0.0
 11
-3433.638476884275
 21
3134.363496397006
 31
0.0
  0
LINE
  5
2A2
330
1F
100
AcDbEntity
  8
0-4
  6
Continuous
 62
    92
370
    13
100
AcDbLine
 10
-3468.279493035653
 20
3134.363496397006
 30
0.0
 11
-4519.466457353393
 21
3134.363496397006
 31
0.0
  0
LINE
  5
2A3
330
1F
100
AcDbEntity
  8
0-4
  6
Continuous
 62
    92
370
    13
100
AcDbLine
 10
-2780.000393841717
 20
1876.863416494564
 30
0.0
 11
-3437.970103240736
 21
1876.863416494564
 31
0.0
  0
LINE
  5
2A4
330
1F
100
AcDbEntity
  8
0-4
  6
Continuous
 62
    92
370
    13
100
AcDbLine
 10
-3472.61054795391
 20
1876.863416494564
 30
0.0
 11
-4516.360783534929
 21
1876.863416494564
 31
0.0
  0
LINE
  5
2A5
330
1F
100
AcDbEntity
  8
0-4
  6
Continuous
 62
    92
370
    13
100
AcDbLine
 10
-2772.500393841717
 20
1884.363416494564
 30
0.0
 11
-3433.639404783612
 21
1884.363416494564
 31
0.0
  0
LINE
  5
2A6
330
1F
100
AcDbEntity
  8
0-4
  6
Continuous
 62
    92
370
    13
100
AcDbLine
 10
-3468.280420934989
 20
1884.363416494564
 30
0.0
 11
-4519.467385252728
 21
1884.363416494564
 31
0.0
  0
LINE
  5
2A7
330
1F
100
AcDbEntity
  8
0-4
  6
Continuous
 62
    92
370
    13
100
AcDbLine
 10
-2780.000393841717
 20
626.8633365921215
 30
0.0
 11
-3437.970103240736
 21
626.8633365921215
 31
0.0
  0
LINE
  5
2A8
330
1F
100
AcDbEntity
  8
0-4
  6
Continuous
 62
    92
370
    13
100
AcDbLine
 10
-3472.61054795391
 20
626.8633365921215
 30
0.0
 11
-4516.360783534929
 21
626.8633365921215
 31
0.0
  0
LINE
  5
2A9
330
1F
100
AcDbEntity
  8
0-4
  6
Continuous
 62
    92
370
    13
100
AcDbLine
 10
-2772.500393841717
 20
634.3633365921215
 30
0.0
 11
-3433.639404783612
 21
634.3633365921215
 31
0.0
  0
LINE
  5
2AA
330
1F
100
AcDbEntity
  8
0-4
  6
Continuous
 62
    92
370
    13
100
AcDbLine
 10
-3468.280420934989
 20
634.3633365921215
 30
0.0
 11
-4519.467385252728
 21
634.3633365921215
 31
0.0
  0
LINE
  5
2AB
330
1F
100
AcDbEntity
  8
0-4
  6
Continuous
 62
    92
370
    13
100
AcDbLine
 10
-2780.000393841717
 20
-624.86112958058
 30
0.0
 11
-3437.970103240736
 21
-624.86112958058
 31
0.0
  0
LINE
  5
2AC
330
1F
100
AcDbEntity
  8
0-4
  6
Continuous
 62
    92
370
    13
100
AcDbLine
 10
-3472.61054795391
 20
-624.86112958058
 30
0.0
 11
-4516.360783534929
 21
-624.86112958058
 31
0.0
  0
LINE
  5
2AD
330
1F
100
AcDbEntity
  8
0-4
  6
Continuous
 62
    92
370
    13
100
AcDbLine
 10
-2772.500393841717
 20
-617.36112958058
 30
0.0
 11
-3433.639404783612
 21
-617.36112958058
 31
0.0
  0
LINE
  5
2AE
330
1F
100
AcDbEntity
  8
0-4
  6
Continuous
 62
    92
370
    13
100
AcDbLine
 10
-3468.280420934989
 20
-617.36112958058
 30
0.0
 11
-4519.467385252728
 21
-617.36112958058
 31
0.0
  0
LINE
  5
2AF
330
1F
100
AcDbEntity
  8
0-4
  6
Continuous
 62
    92
370
    13
100
AcDbLine
 10
-2780.000393841717
 20
-1873.136823212765
 30
0.0
 11
-3437.970103240736
 21
-1873.136823212765
 31
0.0
  0
LINE
  5
2B0
330
1F
100
AcDbEntity
  8
0-4
  6
Continuous
 62
    92
370
    13
100
AcDbLine
 10
-3472.61054795391
 20
-1873.136823212765
 30
0.0
 11
-4516.360783534929
 21
-1873.136823212765
 31
0.0
  0
LINE
  5
2B1
330
1F
100
AcDbEntity
  8
0-4
  6
Continuous
 62
    92
370
    13
100
AcDbLine
 10
-2772.500393841717
 20
-1865.636823212765
 30
0.0
 11
-3433.639404783612
 21
-1865.636823212765
 31
0.0
  0
LINE
  5
2B2
330
1F
100
AcDbEntity
  8
0-4
  6
Continuous
 62
    92
370
    13
100
AcDbLine
 10
-3468.280420934989
 20
-1865.636823212765
 30
0.0
 11
-4519.467385252728
 21
-1865.636823212765
 31
0.0
  0
LINE
  5
2B3
330
1F
100
AcDbEntity
  8
0-4
  6
Continuous
 62
    92
370
    13
100
AcDbLine
 10
-2780.000393841717
 20
-3123.136903115208
 30
0.0
 11
-3437.970103240736
 21
-3123.136903115208
 31
0.0
  0
LINE
  5
2B4
330
1F
100
AcDbEntity
  8
0-4
  6
Continuous
 62
    92
370
    13
100
AcDbLine
 10
-3472.61054795391
 20
-3123.136903115208
 30
0.0
 11
-4516.360783534929
 21
-3123.136903115208
 31
0.0
  0
LINE
  5
2B5
330
1F
100
AcDbEntity
  8
0-4
  6
Continuous
 62
    92
370
    13
100
AcDbLine
 10
-2772.500393841717
 20
-3115.636903115208
 30
0.0
 11
-3433.639404783612
 21
-3115.636903115208
 31
0.0
  0
LINE
  5
2B6
330
1F
100
AcDbEntity
  8
0-4
  6
Continuous
 62
    92
370
    13
100
AcDbLine
 10
-3468.280420934989
 20
-3115.636903115208
 30
0.0
 11
-4519.467385252728
 21
-3115.636903115208
 31
0.0
  0
LINE
  5
2B7
330
1F
100
AcDbEntity
  8
0-4
  6
Continuous
 62
    92
370
    13
100
AcDbLine
 10
3065.001012441275
 20
3126.863496397006
 30
0.0
 11
2407.031303042258
 21
3126.863496397006
 31
0.0
  0
LINE
  5
2B8
330
1F
100
AcDbEntity
  8
0-4
  6
Continuous
 62
    92
370
    13
100
AcDbLine
 10
2372.390858329083
 20
3126.863496397006
 30
0.0
 11
1328.640622748064
 21
3126.863496397006
 31
0.0
  0
LINE
  5
2B9
330
1F
100
AcDbEntity
  8
0-4
  6
Continuous
 62
    92
370
    13
100
AcDbLine
 10
3072.501012441275
 20
3134.363496397006
 30
0.0
 11
2411.362001499383
 21
3134.363496397006
 31
0.0
  0
LINE
  5
2BA
330
1F
100
AcDbEntity
  8
0-4
  6
Continuous
 62
    92
370
    13
100
AcDbLine
 10
2376.720985348005
 20
3134.363496397006
 30
0.0
 11
1325.534021030266
 21
3134.363496397006
 31
0.0
  0
LINE
  5
2BB
330
1F
100
AcDbEntity
  8
0-4
  6
Continuous
 62
    92
370
    13
100
AcDbLine
 10
3065.00008454194
 20
1876.863416494564
 30
0.0
 11
2407.030375142922
 21
1876.863416494564
 31
0.0
  0
LINE
  5
2BC
330
1F
100
AcDbEntity
  8
0-4
  6
Continuous
 62
    92
370
    13
100
AcDbLine
 10
2372.389930429747
 20
1876.863416494564
 30
0.0
 11
1328.639694848729
 21
1876.863416494564
 31
0.0
  0
LINE
  5
2BD
330
1F
100
AcDbEntity
  8
0-4
  6
Continuous
 62
    92
370
    13
100
AcDbLine
 10
3072.50008454194
 20
1884.363416494564
 30
0.0
 11
2411.361073600046
 21
1884.363416494564
 31
0.0
  0
LINE
  5
2BE
330
1F
100
AcDbEntity
  8
0-4
  6
Continuous
 62
    92
370
    13
100
AcDbLine
 10
2376.720057448669
 20
1884.363416494564
 30
0.0
 11
1325.53309313093
 21
1884.363416494564
 31
0.0
  0
LINE
  5
2BF
330
1F
100
AcDbEntity
  8
0-4
  6
Continuous
 62
    92
370
    13
100
AcDbLine
 10
3065.00008454194
 20
626.8633365921215
 30
0.0
 11
2407.030375142922
 21
626.8633365921215
 31
0.0
  0
LINE
  5
2C0
330
1F
100
AcDbEntity
  8
0-4
  6
Continuous
 62
    92
370
    13
100
AcDbLine
 10
2372.389930429747
 20
626.8633365921215
 30
0.0
 11
1328.639694848729
 21
626.8633365921215
 31
0.0
  0
LINE
  5
2C1
330
1F
100
AcDbEntity
  8
0-4
  6
Continuous
 62
    92
370
    13
100
AcDbLine
 10
3072.50008454194
 20
634.3633365921215
 30
0.0
 11
2411.361073600046
 21
634.3633365921215
 31
0.0
  0
LINE
  5
2C2
330
1F
100
AcDbEntity
  8
0-4
  6
Continuous
 62
    92
370
    13
100
AcDbLine
 10
2376.720057448669
 20
634.3633365921215
 30
0.0
 11
1325.53309313093
 21
634.3633365921215
 31
0.0
  0
LINE
  5
2C3
330
1F
100
AcDbEntity
  8
0-4
  6
Continuous
 62
    92
370
    13
100
AcDbLine
 10
3065.00008454194
 20
-624.86112958058
 30
0.0
 11
2407.030375142922
 21
-624.86112958058
 31
0.0
  0
LINE
  5
2C4
330
1F
100
AcDbEntity
  8
0-4
  6
Continuous
 62
    92
370
    13
100
AcDbLine
 10
2372.389930429747
 20
-624.86112958058
 30
0.0
 11
1328.639694848729
 21
-624.86112958058
 31
0.0
  0
LINE
  5
2C5
330
1F
100
AcDbEntity
  8
0-4
  6
Continuous
 62
    92
370
    13
100
AcDbLine
 10
3072.50008454194
 20
-617.36112958058
 30
0.0
 11
2411.361073600046
 21
-617.36112958058
 31
0.0
  0
LINE
  5
2C6
330
1F
100
AcDbEntity
  8
0-4
  6
Continuous
 62
    92
370
    13
100
AcDbLine
 10
2376.720057448669
 20
-617.36112958058
 30
0.0
 11
1325.53309313093
 21
-617.36112958058
 31
0.0
  0
LINE
  5
2C7
330
1F
100
AcDbEntity
  8
0-4
  6
Continuous
 62
    92
370
    13
100
AcDbLine
 10
3065.00008454194
 20
-1873.136823212765
 30
0.0
 11
2407.030375142922
 21
-1873.136823212765
 31
0.0
  0
LINE
  5
2C8
330
1F
100
AcDbEntity
  8
0-4
  6
Continuous
 62
    92
370
    13
100
AcDbLine
 10
2372.389930429747
 20
-1873.136823212765
 30
0.0
 11
1328.639694848729
 21
-1873.136823212765
 31
0.0
  0
LINE
  5
2C9
330
1F
100
AcDbEntity
  8
0-4
  6
Continuous
 62
    92
370
    13
100
AcDbLine
 10
3072.50008454194
 20
-1865.636823212765
 30
0.0
 11
2411.361073600046
 21
-1865.636823212765
 31
0.0
  0
LINE
  5
2CA
330
1F
100
AcDbEntity
  8
0-4
  6
Continuous
 62
    92
370
    13
100
AcDbLine
 10
2376.720057448669
 20
-1865.636823212765
 30
0.0
 11
1325.53309313093
 21
-1865.636823212765
 31
0.0
  0
LINE
  5
2CB
330
1F
100
AcDbEntity
  8
0-4
  6
Continuous
 62
    92
370
    13
100
AcDbLine
 10
3065.00008454194
 20
-3123.136903115208
 30
0.0
 11
2407.030375142922
 21
-3123.136903115208
 31
0.0
  0
LINE
  5
2CC
330
1F
100
AcDbEntity
  8
0-4
  6
Continuous
 62
    92
370
    13
100
AcDbLine
 10
2372.389930429747
 20
-3123.136903115208
 30
0.0
 11
1328.639694848729
 21
-3123.136903115208
 31
0.0
  0
LINE
  5
2CD
330
1F
100
AcDbEntity
  8
0-4
  6
Continuous
 62
    92
370
    13
100
AcDbLine
 10
3072.50008454194
 20
-3115.636903115208
 30
0.0
 11
2411.361073600046
 21
-3115.636903115208
 31
0.0
  0
LINE
  5
2CE
330
1F
100
AcDbEntity
  8
0-4
  6
Continuous
 62
    92
370
    13
100
AcDbLine
 10
2376.720057448669
 20
-3115.636903115208
 30
0.0
 11
1325.53309313093
 21
-3115.636903115208
 31
0.0
  0
LINE
  5
2CF
330
1F
100
AcDbEntity
  8
F-0
  6
JWW_HOJO
 62
     7
370
     9
100
AcDbLine
 10
849.9995876002961
 20
-3795.000003092998
 30
0.0
 11
849.9995876002961
 21
-4195.000008247994
 31
0.0
  0
LINE
  5
2D0
330
1F
100
AcDbEntity
  8
F-0
  6
JWW_HOJO
 62
     7
370
     9
100
AcDbLine
 10
349.9999175200594
 20
-3795.000003092998
 30
0.0
 11
349.9999175200594
 21
-4195.000008247994
 31
0.0
  0
LINE
  5
2D1
330
1F
100
AcDbEntity
  8
F-1
  6
Continuous
 62
   200
370
    20
100
AcDbLine
 10
5699.998762800888
 20
-4205.000002577498
 30
0.0
 11
-5999.999752560178
 21
-4205.000002577498
 31
0.0
  0
LINE
  5
2D2
330
1F
100
AcDbEntity
  8
F-1
  6
Continuous
 62
   200
370
    20
100
AcDbLine
 10
5699.998762800888
 20
-4199.999993814004
 30
0.0
 11
-5999.999752560178
 21
-4199.999993814004
 31
0.0
  0
LINE
  5
2D3
330
1F
100
AcDbEntity
  8
F-1
  6
Continuous
 62
   200
370
    20
100
AcDbLine
 10
5699.998762800888
 20
-4195.000008247994
 30
0.0
 11
-5999.999752560178
 21
-4195.000008247994
 31
0.0
  0
LINE
  5
2D4
330
1F
100
AcDbEntity
  8
F-1
  6
Continuous
 62
   200
370
    20
100
AcDbLine
 10
4189.999224688556
 20
-3795.000003092998
 30
0.0
 11
4189.999224688556
 21
-4195.000008247994
 31
0.0
  0
LINE
  5
2D5
330
1F
100
AcDbEntity
  8
F-1
  6
Continuous
 62
   200
370
    20
100
AcDbLine
 10
2689.998729808911
 20
-3795.000003092998
 30
0.0
 11
2689.998729808911
 21
-4195.000008247994
 31
0.0
  0
LINE
  5
2D6
330
1F
100
AcDbEntity
  8
F-1
  6
Continuous
 62
   200
370
    20
100
AcDbLine
 10
-150.0001237199109
 20
-3795.000003092998
 30
0.0
 11
-150.0001237199109
 21
-4195.000008247994
 31
0.0
  0
LINE
  5
2D7
330
1F
100
AcDbEntity
  8
F-1
  6
Continuous
 62
   200
370
    20
100
AcDbLine
 10
-150.0001237199109
 20
-3994.999936078046
 30
0.0
 11
5689.998977248734
 21
-3995.005364289155
 31
0.0
  0
LINE
  5
2D8
330
1F
100
AcDbEntity
  8
F-0
  6
JWW_HOJO
 62
     7
370
     9
100
AcDbLine
 10
-5989.999990205507
 20
-3994.99993607839
 30
0.0
 11
-150.0001237199109
 21
-3994.99993607839
 31
0.0
  0
LINE
  5
2D9
330
1F
100
AcDbEntity
  8
F-0
  6
JWW_HOJO
 62
     7
370
     9
100
AcDbLine
 10
-5989.999990205507
 20
-3904.99993607839
 30
0.0
 11
-150.0001237199109
 21
-3904.99993607839
 31
0.0
  0
LINE
  5
2DA
330
1F
100
AcDbEntity
  8
F-0
  6
JWW_HOJO
 62
     7
370
     9
100
AcDbLine
 10
-5989.999990205507
 20
-4084.99993607839
 30
0.0
 11
-150.0001237199109
 21
-4084.99993607839
 31
0.0
  0
LINE
  5
2DB
330
1F
100
AcDbEntity
  8
F-0
  6
JWW_HOJO
 62
     7
370
     9
100
AcDbLine
 10
-150.0002584955388
 20
-4139.999739777983
 30
0.0
 11
5689.998842473105
 21
-4140.005167989091
 31
0.0
  0
LINE
  5
2DC
330
1F
100
AcDbEntity
  8
F-0
  6
JWW_HOJO
 62
     7
370
     9
100
AcDbLine
 10
-150.0001748415872
 20
-4049.999739778022
 30
0.0
 11
5689.998926127057
 21
-4050.005167989131
 31
0.0
  0
LINE
  5
2DD
330
1F
100
AcDbEntity
  8
F-0
  6
JWW_HOJO
 62
     7
370
     9
100
AcDbLine
 10
-150.0000725978671
 20
-3939.99973721807
 30
0.0
 11
5689.999028370777
 21
-3940.005165429179
 31
0.0
  0
LINE
  5
2DE
330
1F
100
AcDbEntity
  8
F-0
  6
JWW_HOJO
 62
     7
370
     9
100
AcDbLine
 10
-149.9999889439155
 20
-3849.999737218109
 30
0.0
 11
5689.999112024728
 21
-3850.005165429218
 31
0.0
  0
LINE
  5
2DF
330
1F
100
AcDbEntity
  8
F-0
  6
JWW_HOJO
 62
     7
370
     9
100
AcDbLine
 10
2779.998729808911
 20
-3795.000003092998
 30
0.0
 11
2779.998729808911
 21
-4195.000008247994
 31
0.0
  0
LINE
  5
2E0
330
1F
100
AcDbEntity
  8
F-0
  6
JWW_HOJO
 62
     7
370
     9
100
AcDbLine
 10
-60.0001237199109
 20
-3795.000003092998
 30
0.0
 11
-60.0001237199109
 21
-4195.000008247994
 31
0.0
  0
LINE
  5
2E1
330
1F
100
AcDbEntity
  8
F-0
  6
JWW_HOJO
 62
     7
370
     9
100
AcDbLine
 10
4279.999224688556
 20
-3795.000003092998
 30
0.0
 11
4279.999224688556
 21
-4195.000008247994
 31
0.0
  0
LINE
  5
2E2
330
1F
100
AcDbEntity
  8
F-1
  6
Continuous
 62
   200
370
    20
100
AcDbLine
 10
5699.998762800888
 20
-3795.000003092998
 30
0.0
 11
-5999.999752560178
 21
-3795.000003092998
 31
0.0
  0
LINE
  5
2E3
330
1F
100
AcDbEntity
  8
F-1
  6
Continuous
 62
   200
370
    20
100
AcDbLine
 10
5699.998762800888
 20
-3790.000017526987
 30
0.0
 11
-5999.999752560178
 21
-3790.000017526987
 31
0.0
  0
LINE
  5
2E4
330
1F
100
AcDbEntity
  8
F-0
  6
JWW_HOJO
 62
     7
370
     9
100
AcDbLine
 10
-5247.547376752838
 20
-3795.000003092999
 30
0.0
 11
-5247.547376752838
 21
-4205.000164959882
 31
0.0
  0
LINE
  5
2E5
330
1F
100
AcDbEntity
  8
F-0
  6
JWW_HOJO
 62
     7
370
     9
100
AcDbLine
 10
-210.0001237199109
 20
-3795.000003092998
 30
0.0
 11
-210.0001237199109
 21
-4195.000008247994
 31
0.0
  0
TEXT
  5
2E6
330
1F
100
AcDbEntity
  8
0-A
  6
Continuous
 62
     7
370
     9
100
AcDbText
 10
-552.5007588154554
 20
3599.565456893767
 30
0.0
 40
68.58
  1
2(偶数)
  7
ＭＳ ゴシック
100
AcDbText
  0
TEXT
  5
2E7
330
1F
100
AcDbEntity
  8
0-A
  6
Continuous
 62
     7
370
     9
100
AcDbText
 10
3574.999719568202
 20
3599.565456893767
 30
0.0
 40
68.58
  1
3,900×205×20
  7
ＭＳ ゴシック
100
AcDbText
  0
TEXT
  5
2E8
330
1F
100
AcDbEntity
  8
0-A
  6
Continuous
 62
     7
370
     9
100
AcDbText
 10
5292.499719568203
 20
3599.565456893767
 30
0.0
 40
68.58
  1
2(偶数)
  7
ＭＳ ゴシック
100
AcDbText
  0
TEXT
  5
2E9
330
1F
100
AcDbEntity
  8
0-A
  6
Continuous
 62
     7
370
     9
100
AcDbText
 10
-4895.000028867979
 20
3561.920461887669
 30
0.0
 40
91.44
  1
175幅
 41
1.075
  7
ＭＳ ゴシック
100
AcDbText
  0
TEXT
  5
2EA
330
1F
100
AcDbEntity
  8
0-A
  6
Continuous
 62
     7
370
     9
100
AcDbText
 10
949.9995216163429
 20
3561.920461887669
 30
0.0
 40
91.44
  1
205幅
 41
1.075
  7
ＭＳ ゴシック
100
AcDbText
  0
TEXT
  5
2EB
330
1F
100
AcDbEntity
  8
0-A
  6
Continuous
 62
     7
370
     9
100
AcDbText
 10
-2270.000758815456
 20
3521.440451899864
 30
0.0
 40
68.58
  1
3,900×175×20
  7
ＭＳ ゴシック
100
AcDbText
  0
TEXT
  5
2EC
330
1F
100
AcDbEntity
  8
0-A
  6
Continuous
 62
     7
370
     9
100
AcDbText
 10
-417.5007588154554
 20
3443.315446905961
 30
0.0
 40
68.58
  1
1
  7
ＭＳ ゴシック
100
AcDbText
  0
TEXT
  5
2ED
330
1F
100
AcDbEntity
  8
0-A
  6
Continuous
 62
     7
370
     9
100
AcDbText
 10
-552.5007588154554
 20
2349.565376991324
 30
0.0
 40
68.58
  1
2(偶数)
  7
ＭＳ ゴシック
100
AcDbText
  0
TEXT
  5
2EE
330
1F
100
AcDbEntity
  8
0-A
  6
Continuous
 62
     7
370
     9
100
AcDbText
 10
3574.999719568202
 20
2349.565376991323
 30
0.0
 40
68.58
  1
3,900×210×20
  7
ＭＳ ゴシック
100
AcDbText
  0
TEXT
  5
2EF
330
1F
100
AcDbEntity
  8
0-A
  6
Continuous
 62
     7
370
     9
100
AcDbText
 10
5292.499719568203
 20
2349.565376991324
 30
0.0
 40
68.58
  1
2(偶数)
  7
ＭＳ ゴシック
100
AcDbText
  0
TEXT
  5
2F0
330
1F
100
AcDbEntity
  8
0-A
  6
Continuous
 62
     7
370
     9
100
AcDbText
 10
-4895.000028867979
 20
2311.920381985226
 30
0.0
 40
91.44
  1
180幅
 41
1.075
  7
ＭＳ ゴシック
100
AcDbText
  0
TEXT
  5
2F1
330
1F
100
AcDbEntity
  8
0-A
  6
Continuous
 62
     7
370
     9
100
AcDbText
 10
949.9995216163429
 20
2311.920381985226
 30
0.0
 40
91.44
  1
210幅
 41
1.075
  7
ＭＳ ゴシック
100
AcDbText
  0
TEXT
  5
2F2
330
1F
100
AcDbEntity
  8
0-A
  6
Continuous
 62
     7
370
     9
100
AcDbText
 10
-2270.000758815456
 20
2271.440371997421
 30
0.0
 40
68.58
  1
3,900×180×20
  7
ＭＳ ゴシック
100
AcDbText
  0
TEXT
  5
2F3
330
1F
100
AcDbEntity
  8
0-A
  6
Continuous
 62
     7
370
     9
100
AcDbText
 10
-417.5007588154554
 20
2193.315367003518
 30
0.0
 40
68.58
  1
1
  7
ＭＳ ゴシック
100
AcDbText
  0
TEXT
  5
2F4
330
1F
100
AcDbEntity
  8
0-A
  6
Continuous
 62
     7
370
     9
100
AcDbText
 10
-2270.000758815456
 20
1099.565297088881
 30
0.0
 40
68.58
  1
3,900×185×20
  7
ＭＳ ゴシック
100
AcDbText
  0
TEXT
  5
2F5
330
1F
100
AcDbEntity
  8
0-A
  6
Continuous
 62
     7
370
     9
100
AcDbText
 10
-552.5007588154554
 20
1099.565297088881
 30
0.0
 40
68.58
  1
2(偶数)
  7
ＭＳ ゴシック
100
AcDbText
  0
TEXT
  5
2F6
330
1F
100
AcDbEntity
  8
0-A
  6
Continuous
 62
     7
370
     9
100
AcDbText
 10
3574.999719568202
 20
1099.565297088881
 30
0.0
 40
68.58
  1
3,900×215×20
  7
ＭＳ ゴシック
100
AcDbText
  0
TEXT
  5
2F7
330
1F
100
AcDbEntity
  8
0-A
  6
Continuous
 62
     7
370
     9
100
AcDbText
 10
5292.499719568203
 20
1099.565297088881
 30
0.0
 40
68.58
  1
2(偶数)
  7
ＭＳ ゴシック
100
AcDbText
  0
TEXT
  5
2F8
330
1F
100
AcDbEntity
  8
0-A
  6
Continuous
 62
     7
370
     9
100
AcDbText
 10
-4895.000028867979
 20
1061.920302082784
 30
0.0
 40
91.44
  1
185幅
 41
1.075
  7
ＭＳ ゴシック
100
AcDbText
  0
TEXT
  5
2F9
330
1F
100
AcDbEntity
  8
0-A
  6
Continuous
 62
     7
370
     9
100
AcDbText
 10
949.9995216163429
 20
1061.920302082784
 30
0.0
 40
91.44
  1
215幅
 41
1.075
  7
ＭＳ ゴシック
100
AcDbText
  0
TEXT
  5
2FA
330
1F
100
AcDbEntity
  8
0-A
  6
Continuous
 62
     7
370
     9
100
AcDbText
 10
-5659.999626778267
 20
216.9192865330242
 30
0.0
 40
91.44
  1
窓枠・
 41
1.083333333333333
  7
ＭＳ ゴシック
100
AcDbText
  0
TEXT
  5
2FB
330
1F
100
AcDbEntity
  8
0-A
  6
Continuous
 62
     7
370
     9
100
AcDbText
 10
184.9999237060555
 20
216.9192865330242
 30
0.0
 40
91.44
  1
窓枠・
 41
1.083333333333333
  7
ＭＳ ゴシック
100
AcDbText
  0
TEXT
  5
2FC
330
1F
100
AcDbEntity
  8
0-A
  6
Continuous
 62
     7
370
     9
100
AcDbText
 10
-5659.999626778267
 20
-83.0805897169757
 30
0.0
 40
91.44
  1
Ａ型・
 41
1.083333333333333
  7
ＭＳ ゴシック
100
AcDbText
  0
TEXT
  5
2FD
330
1F
100
AcDbEntity
  8
0-A
  6
Continuous
 62
     7
370
     9
100
AcDbText
 10
184.9999237060555
 20
-83.0805897169757
 30
0.0
 40
91.44
  1
Ａ型・
 41
1.083333333333333
  7
ＭＳ ゴシック
100
AcDbText
  0
TEXT
  5
2FE
330
1F
100
AcDbEntity
  8
0-A
  6
Continuous
 62
     7
370
     9
100
AcDbText
 10
-2270.000758815456
 20
-150.4347828135622
 30
0.0
 40
68.58
  1
3,900×190×20
  7
ＭＳ ゴシック
100
AcDbText
  0
TEXT
  5
2FF
330
1F
100
AcDbEntity
  8
0-A
  6
Continuous
 62
     7
370
     9
100
AcDbText
 10
-552.5007588154554
 20
-150.4347828135614
 30
0.0
 40
68.58
  1
2(偶数)
  7
ＭＳ ゴシック
100
AcDbText
  0
TEXT
  5
300
330
1F
100
AcDbEntity
  8
0-A
  6
Continuous
 62
     7
370
     9
100
AcDbText
 10
3574.999719568202
 20
-150.4347828135622
 30
0.0
 40
68.58
  1
3,900×220×20
  7
ＭＳ ゴシック
100
AcDbText
  0
TEXT
  5
301
330
1F
100
AcDbEntity
  8
0-A
  6
Continuous
 62
     7
370
     9
100
AcDbText
 10
5292.499719568203
 20
-150.4347828135614
 30
0.0
 40
68.58
  1
2(偶数)
  7
ＭＳ ゴシック
100
AcDbText
  0
TEXT
  5
302
330
1F
100
AcDbEntity
  8
0-A
  6
Continuous
 62
     7
370
     9
100
AcDbText
 10
-4895.000028867979
 20
-188.0797778196598
 30
0.0
 40
91.44
  1
190幅
 41
1.075
  7
ＭＳ ゴシック
100
AcDbText
  0
TEXT
  5
303
330
1F
100
AcDbEntity
  8
0-A
  6
Continuous
 62
     7
370
     9
100
AcDbText
 10
949.9995216163429
 20
-188.0797778196598
 30
0.0
 40
91.44
  1
220幅
 41
1.075
  7
ＭＳ ゴシック
100
AcDbText
  0
TEXT
  5
304
330
1F
100
AcDbEntity
  8
0-A
  6
Continuous
 62
     7
370
     9
100
AcDbText
 10
-2270.000758815456
 20
-1400.434862716005
 30
0.0
 40
68.58
  1
3,900×195×20
  7
ＭＳ ゴシック
100
AcDbText
  0
TEXT
  5
305
330
1F
100
AcDbEntity
  8
0-A
  6
Continuous
 62
     7
370
     9
100
AcDbText
 10
-552.5007588154554
 20
-1400.434862716004
 30
0.0
 40
68.58
  1
2(偶数)
  7
ＭＳ ゴシック
100
AcDbText
  0
TEXT
  5
306
330
1F
100
AcDbEntity
  8
0-A
  6
Continuous
 62
     7
370
     9
100
AcDbText
 10
3574.999719568202
 20
-1400.434862716005
 30
0.0
 40
68.58
  1
3,900×225×20
  7
ＭＳ ゴシック
100
AcDbText
  0
TEXT
  5
307
330
1F
100
AcDbEntity
  8
0-A
  6
Continuous
 62
     7
370
     9
100
AcDbText
 10
5292.499719568203
 20
-1400.434862716004
 30
0.0
 40
68.58
  1
2(偶数)
  7
ＭＳ ゴシック
100
AcDbText
  0
TEXT
  5
308
330
1F
100
AcDbEntity
  8
0-A
  6
Continuous
 62
     7
370
     9
100
AcDbText
 10
-4895.000028867979
 20
-1438.079857722102
 30
0.0
 40
91.44
  1
195幅
 41
1.075
  7
ＭＳ ゴシック
100
AcDbText
  0
TEXT
  5
309
330
1F
100
AcDbEntity
  8
0-A
  6
Continuous
 62
     7
370
     9
100
AcDbText
 10
949.9995216163429
 20
-1438.079857722102
 30
0.0
 40
91.44
  1
225幅
 41
1.075
  7
ＭＳ ゴシック
100
AcDbText
  0
TEXT
  5
30A
330
1F
100
AcDbEntity
  8
0-A
  6
Continuous
 62
     7
370
     9
100
AcDbText
 10
-2270.000758815456
 20
-2650.434942618447
 30
0.0
 40
68.58
  1
3,900×200×20
  7
ＭＳ ゴシック
100
AcDbText
  0
TEXT
  5
30B
330
1F
100
AcDbEntity
  8
0-A
  6
Continuous
 62
     7
370
     9
100
AcDbText
 10
-552.5007588154554
 20
-2650.434942618446
 30
0.0
 40
68.58
  1
2(偶数)
  7
ＭＳ ゴシック
100
AcDbText
  0
TEXT
  5
30C
330
1F
100
AcDbEntity
  8
0-A
  6
Continuous
 62
     7
370
     9
100
AcDbText
 10
3574.999719568202
 20
-2650.434942618447
 30
0.0
 40
68.58
  1
3,900×230×20
  7
ＭＳ ゴシック
100
AcDbText
  0
TEXT
  5
30D
330
1F
100
AcDbEntity
  8
0-A
  6
Continuous
 62
     7
370
     9
100
AcDbText
 10
5292.499719568203
 20
-2650.434942618446
 30
0.0
 40
68.58
  1
2(偶数)
  7
ＭＳ ゴシック
100
AcDbText
  0
TEXT
  5
30E
330
1F
100
AcDbEntity
  8
0-A
  6
Continuous
 62
     7
370
     9
100
AcDbText
 10
-4895.000028867979
 20
-2688.079937624545
 30
0.0
 40
91.44
  1
200幅
 41
1.075
  7
ＭＳ ゴシック
100
AcDbText
  0
TEXT
  5
30F
330
1F
100
AcDbEntity
  8
0-A
  6
Continuous
 62
     7
370
     9
100
AcDbText
 10
949.9995216163429
 20
-2688.079937624545
 30
0.0
 40
91.44
  1
230幅
 41
1.075
  7
ＭＳ ゴシック
100
AcDbText
  0
TEXT
  5
310
330
1F
100
AcDbEntity
  8
0-B
  6
Continuous
 62
     7
370
   211
100
AcDbText
 10
-3747.499465942383
 20
3312.053496397007
 30
0.0
 40
68.58
  1
175
 41
1.111111111111111
  7
ＭＳ ゴシック
100
AcDbText
  0
TEXT
  5
311
330
1F
100
AcDbEntity
  8
0-B
  6
Continuous
 62
     7
370
   211
100
AcDbText
 10
2097.501012441275
 20
3312.053496397007
 30
0.0
 40
68.58
  1
205
 41
1.111111111111111
  7
ＭＳ ゴシック
100
AcDbText
  0
TEXT
  5
312
330
1F
100
AcDbEntity
  8
0-B
  6
Continuous
 62
     7
370
   211
100
AcDbText
 10
-4687.538668173621
 20
3217.58289347485
 30
0.0
 40
68.58
  1
5
 50
45.0
 41
1.000000000000001
  7
ＭＳ ゴシック
100
AcDbText
  0
TEXT
  5
313
330
1F
100
AcDbEntity
  8
0-B
  6
Continuous
 62
     7
370
   211
100
AcDbText
 10
1157.461810210035
 20
3217.582893474852
 30
0.0
 40
68.58
  1
5
 50
44.99999999999923
 41
0.9999999999999981
  7
ＭＳ ゴシック
100
AcDbText
  0
TEXT
  5
314
330
1F
100
AcDbEntity
  8
0-B
  6
Continuous
 62
     7
370
   211
100
AcDbText
 10
-4750.189465942382
 20
2935.613496397006
 30
0.0
 40
68.58
  1
20
 50
90.0
 41
1.083333333333333
  7
ＭＳ ゴシック
100
AcDbText
  0
TEXT
  5
315
330
1F
100
AcDbEntity
  8
0-B
  6
Continuous
 62
     7
370
   211
100
AcDbText
 10
1094.811012441275
 20
2935.613496397006
 30
0.0
 40
68.58
  1
20
 50
90.0
 41
1.083333333333333
  7
ＭＳ ゴシック
100
AcDbText
  0
TEXT
  5
316
330
1F
100
AcDbEntity
  8
0-B
  6
Continuous
 62
     7
370
   211
100
AcDbText
 10
-3747.500393841717
 20
2062.053416494564
 30
0.0
 40
68.58
  1
180
 41
1.111111111111111
  7
ＭＳ ゴシック
100
AcDbText
  0
TEXT
  5
317
330
1F
100
AcDbEntity
  8
0-B
  6
Continuous
 62
     7
370
   211
100
AcDbText
 10
2097.50008454194
 20
2062.053416494564
 30
0.0
 40
68.58
  1
210
 41
1.111111111111111
  7
ＭＳ ゴシック
100
AcDbText
  0
TEXT
  5
318
330
1F
100
AcDbEntity
  8
0-B
  6
Continuous
 62
     7
370
   211
100
AcDbText
 10
-4687.539596072957
 20
1967.582813572409
 30
0.0
 40
68.58
  1
5
 50
45.00000000000154
 41
1.000000000000001
  7
ＭＳ ゴシック
100
AcDbText
  0
TEXT
  5
319
330
1F
100
AcDbEntity
  8
0-B
  6
Continuous
 62
     7
370
   211
100
AcDbText
 10
1157.4608823107
 20
1967.58281357241
 30
0.0
 40
68.58
  1
5
 50
45.0
 41
0.9999999999999981
  7
ＭＳ ゴシック
100
AcDbText
  0
TEXT
  5
31A
330
1F
100
AcDbEntity
  8
0-B
  6
Continuous
 62
     7
370
   211
100
AcDbText
 10
-4750.190393841717
 20
1685.613416494564
 30
0.0
 40
68.58
  1
20
 50
90.0
 41
1.083333333333333
  7
ＭＳ ゴシック
100
AcDbText
  0
TEXT
  5
31B
330
1F
100
AcDbEntity
  8
0-B
  6
Continuous
 62
     7
370
   211
100
AcDbText
 10
1094.81008454194
 20
1685.613416494564
 30
0.0
 40
68.58
  1
20
 50
90.0
 41
1.083333333333333
  7
ＭＳ ゴシック
100
AcDbText
  0
TEXT
  5
31C
330
1F
100
AcDbEntity
  8
0-B
  6
Continuous
 62
     7
370
   211
100
AcDbText
 10
-3747.500393841717
 20
812.0533365921216
 30
0.0
 40
68.58
  1
185
 41
1.111111111111111
  7
ＭＳ ゴシック
100
AcDbText
  0
TEXT
  5
31D
330
1F
100
AcDbEntity
  8
0-B
  6
Continuous
 62
     7
370
   211
100
AcDbText
 10
2097.50008454194
 20
812.0533365921216
 30
0.0
 40
68.58
  1
215
 41
1.111111111111111
  7
ＭＳ ゴシック
100
AcDbText
  0
TEXT
  5
31E
330
1F
100
AcDbEntity
  8
0-B
  6
Continuous
 62
     7
370
   211
100
AcDbText
 10
-4687.539596072957
 20
717.5827336699675
 30
0.0
 40
68.58
  1
5
 50
45.00000000000154
 41
1.000000000000005
  7
ＭＳ ゴシック
100
AcDbText
  0
TEXT
  5
31F
330
1F
100
AcDbEntity
  8
0-B
  6
Continuous
 62
     7
370
   211
100
AcDbText
 10
1157.4608823107
 20
717.5827336699679
 30
0.0
 40
68.58
  1
5
 50
45.0
 41
1.000000000000001
  7
ＭＳ ゴシック
100
AcDbText
  0
TEXT
  5
320
330
1F
100
AcDbEntity
  8
0-B
  6
Continuous
 62
     7
370
   211
100
AcDbText
 10
-4750.190393841717
 20
435.6133365921215
 30
0.0
 40
68.58
  1
20
 50
90.0
 41
1.083333333333333
  7
ＭＳ ゴシック
100
AcDbText
  0
TEXT
  5
321
330
1F
100
AcDbEntity
  8
0-B
  6
Continuous
 62
     7
370
   211
100
AcDbText
 10
1094.81008454194
 20
435.6133365921215
 30
0.0
 40
68.58
  1
20
 50
90.0
 41
1.083333333333333
  7
ＭＳ ゴシック
100
AcDbText
  0
TEXT
  5
322
330
1F
100
AcDbEntity
  8
0-B
  6
Continuous
 62
     7
370
   211
100
AcDbText
 10
-3747.500393841717
 20
-439.6711295805796
 30
0.0
 40
68.58
  1
190
 41
1.111111111111111
  7
ＭＳ ゴシック
100
AcDbText
  0
TEXT
  5
323
330
1F
100
AcDbEntity
  8
0-B
  6
Continuous
 62
     7
370
   211
100
AcDbText
 10
2097.50008454194
 20
-439.6711295805796
 30
0.0
 40
68.58
  1
220
 41
1.111111111111111
  7
ＭＳ ゴシック
100
AcDbText
  0
TEXT
  5
324
330
1F
100
AcDbEntity
  8
0-B
  6
Continuous
 62
     7
370
   211
100
AcDbText
 10
-4687.539596072957
 20
-534.1417325027345
 30
0.0
 40
68.58
  1
5
 50
45.00000000000154
 41
1.000000000000005
  7
ＭＳ ゴシック
100
AcDbText
  0
TEXT
  5
325
330
1F
100
AcDbEntity
  8
0-B
  6
Continuous
 62
     7
370
   211
100
AcDbText
 10
1157.4608823107
 20
-534.1417325027342
 30
0.0
 40
68.58
  1
5
 50
45.0
 41
1.000000000000001
  7
ＭＳ ゴシック
100
AcDbText
  0
TEXT
  5
326
330
1F
100
AcDbEntity
  8
0-B
  6
Continuous
 62
     7
370
   211
100
AcDbText
 10
-4750.190393841717
 20
-801.11112958058
 30
0.0
 40
68.58
  1
20
 50
90.0
 41
1.083333333333333
  7
ＭＳ ゴシック
100
AcDbText
  0
TEXT
  5
327
330
1F
100
AcDbEntity
  8
0-B
  6
Continuous
 62
     7
370
   211
100
AcDbText
 10
1094.81008454194
 20
-801.11112958058
 30
0.0
 40
68.58
  1
20
 50
90.0
 41
1.083333333333333
  7
ＭＳ ゴシック
100
AcDbText
  0
TEXT
  5
328
330
1F
100
AcDbEntity
  8
0-B
  6
Continuous
 62
     7
370
   211
100
AcDbText
 10
-3747.500393841717
 20
-1687.946823212765
 30
0.0
 40
68.58
  1
195
 41
1.111111111111111
  7
ＭＳ ゴシック
100
AcDbText
  0
TEXT
  5
329
330
1F
100
AcDbEntity
  8
0-B
  6
Continuous
 62
     7
370
   211
100
AcDbText
 10
2097.50008454194
 20
-1687.946823212765
 30
0.0
 40
68.58
  1
225
 41
1.111111111111111
  7
ＭＳ ゴシック
100
AcDbText
  0
TEXT
  5
32A
330
1F
100
AcDbEntity
  8
0-B
  6
Continuous
 62
     7
370
   211
100
AcDbText
 10
-4687.539596072957
 20
-1782.417426134919
 30
0.0
 40
68.58
  1
5
 50
45.00000000000077
 41
0.9999999999999981
  7
ＭＳ ゴシック
100
AcDbText
  0
TEXT
  5
32B
330
1F
100
AcDbEntity
  8
0-B
  6
Continuous
 62
     7
370
   211
100
AcDbText
 10
1157.460882310701
 20
-1782.417426134919
 30
0.0
 40
68.58
  1
5
 50
44.99999999999923
 41
1.000000000000001
  7
ＭＳ ゴシック
100
AcDbText
  0
TEXT
  5
32C
330
1F
100
AcDbEntity
  8
0-B
  6
Continuous
 62
     7
370
   211
100
AcDbText
 10
-4750.190393841717
 20
-2064.386823212765
 30
0.0
 40
68.58
  1
20
 50
90.0
 41
1.083333333333333
  7
ＭＳ ゴシック
100
AcDbText
  0
TEXT
  5
32D
330
1F
100
AcDbEntity
  8
0-B
  6
Continuous
 62
     7
370
   211
100
AcDbText
 10
1094.81008454194
 20
-2064.386823212765
 30
0.0
 40
68.58
  1
20
 50
90.0
 41
1.083333333333333
  7
ＭＳ ゴシック
100
AcDbText
  0
TEXT
  5
32E
330
1F
100
AcDbEntity
  8
0-B
  6
Continuous
 62
     7
370
   211
100
AcDbText
 10
-3747.500393841717
 20
-2937.946903115208
 30
0.0
 40
68.58
  1
200
 41
1.111111111111111
  7
ＭＳ ゴシック
100
AcDbText
  0
TEXT
  5
32F
330
1F
100
AcDbEntity
  8
0-B
  6
Continuous
 62
     7
370
   211
100
AcDbText
 10
2097.50008454194
 20
-2937.946903115208
 30
0.0
 40
68.58
  1
230
 41
1.111111111111111
  7
ＭＳ ゴシック
100
AcDbText
  0
TEXT
  5
330
330
1F
100
AcDbEntity
  8
0-B
  6
Continuous
 62
     7
370
   211
100
AcDbText
 10
-4687.539596072957
 20
-3032.417506037362
 30
0.0
 40
68.58
  1
5
 50
45.00000000000115
 41
1.000000000000001
  7
ＭＳ ゴシック
100
AcDbText
  0
TEXT
  5
331
330
1F
100
AcDbEntity
  8
0-B
  6
Continuous
 62
     7
370
   211
100
AcDbText
 10
1157.4608823107
 20
-3032.417506037361
 30
0.0
 40
68.58
  1
5
 50
44.99999999999962
 41
0.9999999999999981
  7
ＭＳ ゴシック
100
AcDbText
  0
TEXT
  5
332
330
1F
100
AcDbEntity
  8
0-B
  6
Continuous
 62
     7
370
   211
100
AcDbText
 10
-4750.190393841717
 20
-3314.386903115208
 30
0.0
 40
68.58
  1
20
 50
90.0
 41
1.083333333333333
  7
ＭＳ ゴシック
100
AcDbText
  0
TEXT
  5
333
330
1F
100
AcDbEntity
  8
0-B
  6
Continuous
 62
     7
370
   211
100
AcDbText
 10
1094.81008454194
 20
-3314.386903115208
 30
0.0
 40
68.58
  1
20
 50
90.0
 41
1.083333333333333
  7
ＭＳ ゴシック
100
AcDbText
  0
TEXT
  5
334
330
1F
100
AcDbEntity
  8
F-1
  6
Continuous
 62
     7
370
     0
100
AcDbText
 10
-2082.500758815456
 20
4013.170181455869
 30
0.0
 40
91.44
  1
寸法
 41
1.0625
  7
ＭＳ ゴシック
100
AcDbText
  0
TEXT
  5
335
330
1F
100
AcDbEntity
  8
F-1
  6
Continuous
 62
     7
370
     0
100
AcDbText
 10
-522.5007588154554
 20
4013.170181455869
 30
0.0
 40
91.44
  1
発注
 41
1.0625
  7
ＭＳ ゴシック
100
AcDbText
  0
TEXT
  5
336
330
1F
100
AcDbEntity
  8
F-1
  6
Continuous
 62
     7
370
     0
100
AcDbText
 10
3762.499719568202
 20
4013.121930690455
 30
0.0
 40
91.44
  1
寸法
 41
1.0625
  7
ＭＳ ゴシック
100
AcDbText
  0
TEXT
  5
337
330
1F
100
AcDbEntity
  8
F-1
  6
Continuous
 62
     7
370
     0
100
AcDbText
 10
5322.499719568203
 20
4013.121930690455
 30
0.0
 40
91.44
  1
発注
 41
1.0625
  7
ＭＳ ゴシック
100
AcDbText
  0
TEXT
  5
338
330
1F
100
AcDbEntity
  8
F-1
  6
Continuous
 62
     7
370
     0
100
AcDbText
 10
-1197.500758815456
 20
3904.420379407728
 30
0.0
 40
91.44
  1
品番
 41
1.0625
  7
ＭＳ ゴシック
100
AcDbText
  0
TEXT
  5
339
330
1F
100
AcDbEntity
  8
F-1
  6
Continuous
 62
     7
370
     0
100
AcDbText
 10
4647.499719568202
 20
3904.372128642314
 30
0.0
 40
91.44
  1
品番
 41
1.0625
  7
ＭＳ ゴシック
100
AcDbText
  0
TEXT
  5
33A
330
1F
100
AcDbEntity
  8
F-1
  6
Continuous
 62
     7
370
     0
100
AcDbText
 10
-2360.000758815456
 20
3795.670577359584
 30
0.0
 40
91.44
  1
長さ×幅×厚さ(㎜)
 41
0.75
  7
ＭＳ ゴシック
100
AcDbText
  0
TEXT
  5
33B
330
1F
100
AcDbEntity
  8
F-1
  6
Continuous
 62
     7
370
     0
100
AcDbText
 10
-522.5007588154554
 20
3795.670577359584
 30
0.0
 40
91.44
  1
単位
 41
1.0625
  7
ＭＳ ゴシック
100
AcDbText
  0
TEXT
  5
33C
330
1F
100
AcDbEntity
  8
F-1
  6
Continuous
 62
     7
370
     0
100
AcDbText
 10
3484.999719568202
 20
3795.670577359584
 30
0.0
 40
91.44
  1
長さ×幅×厚さ(㎜)
 41
0.75
  7
ＭＳ ゴシック
100
AcDbText
  0
TEXT
  5
33D
330
1F
100
AcDbEntity
  8
F-1
  6
Continuous
 62
     7
370
     0
100
AcDbText
 10
5322.499719568203
 20
3795.62232659417
 30
0.0
 40
91.44
  1
単位
 41
1.0625
  7
ＭＳ ゴシック
100
AcDbText
  0
TEXT
  5
33E
330
1F
100
AcDbEntity
  8
F-A
  6
Continuous
 62
     7
370
     0
100
AcDbText
 10
-5659.999812358134
 20
3904.420379407728
 30
0.0
 40
91.44
  1
部材名
 41
1.083333333333333
  7
ＭＳ ゴシック
100
AcDbText
  0
TEXT
  5
33F
330
1F
100
AcDbEntity
  8
F-A
  6
Continuous
 62
     7
370
     0
100
AcDbText
 10
179.9993814004438
 20
3904.420379407728
 30
0.0
 40
91.44
  1
部材名
 41
1.083333333333333
  7
ＭＳ ゴシック
100
AcDbText
  0
TEXT
  5
340
330
1F
100
AcDbEntity
  8
F-A
  6
Continuous
 62
     7
370
     0
100
AcDbText
 10
-3935.000579421584
 20
3904.420181455871
 30
0.0
 40
91.44
  1
断面形状
 41
1.09375
  7
ＭＳ ゴシック
100
AcDbText
  0
TEXT
  5
341
330
1F
100
AcDbEntity
  8
F-A
  6
Continuous
 62
     7
370
     0
100
AcDbText
 10
1909.999991752006
 20
3904.420181455871
 30
0.0
 40
91.44
  1
断面形状
 41
1.09375
  7
ＭＳ ゴシック
100
AcDbText
  0
TEXT
  5
342
330
1F
100
AcDbEntity
  8
F-A
  6
Continuous
 62
     7
370
     0
100
AcDbText
 10
-60.0001237199109
 20
-3871.539820871936
 30
0.0
 40
45.72
  1
図面名
  7
ＭＳ ゴシック
100
AcDbText
  0
TEXT
  5
343
330
1F
100
AcDbEntity
  8
F-A
  6
Continuous
 62
     7
370
     0
100
AcDbText
 10
2779.998729808911
 20
-3871.542460617774
 30
0.0
 40
45.72
  1
ＳＣＡＬＥ
  7
ＭＳ ゴシック
100
AcDbText
  0
TEXT
  5
344
330
1F
100
AcDbEntity
  8
F-A
  6
Continuous
 62
     7
370
     0
100
AcDbText
 10
4279.999224688556
 20
-3871.543854850754
 30
0.0
 40
45.72
  1
ＤＡＴＥ
  7
ＭＳ ゴシック
100
AcDbText
  0
TEXT
  5
345
330
1F
100
AcDbEntity
  8
F-A
  6
Continuous
 62
     7
370
     0
100
AcDbText
 10
1180.417701903719
 20
-3927.310161599839
 30
0.0
 40
68.58
  1
洋風造作材
 41
1.133333333333333
  7
ＭＳ ゴシック
100
AcDbText
  0
TEXT
  5
346
330
1F
100
AcDbEntity
  8
F-A
  6
Continuous
 62
     7
370
     0
100
AcDbText
 10
3409.998977248734
 20
-3927.313115907308
 30
0.0
 40
68.58
  1
1/2
 41
1.111111111111111
  7
ＭＳ ゴシック
100
AcDbText
  0
TEXT
  5
347
330
1F
100
AcDbEntity
  8
F-A
  6
Continuous
 62
     7
370
     0
100
AcDbText
 10
349.9999175200594
 20
-3928.097291872502
 30
0.0
 40
66.06
  1
ＳＯＦＴＡＲＴ
 41
0.8333333333333334
  7
HG明朝B
100
AcDbText
  0
TEXT
  5
348
330
1F
100
AcDbEntity
  8
F-A
  6
Continuous
 62
     7
370
     0
100
AcDbText
 10
-5239.999990205507
 20
-4027.30993607839
 30
0.0
 40
68.58
  1
ソフトアート　洋風造作材　窓枠Ａ型 175幅－230幅
 41
1.159574468085106
  7
ＭＳ ゴシック
100
AcDbText
  0
TEXT
  5
349
330
1F
100
AcDbEntity
  8
F-A
  6
Continuous
 62
     7
370
     0
100
AcDbText
 10
2779.998729808911
 20
-4071.54246317786
 30
0.0
 40
45.72
  1
ＦＩＬＥ
  7
ＭＳ ゴシック
100
AcDbText
  0
TEXT
  5
34A
330
1F
100
AcDbEntity
  8
F-A
  6
Continuous
 62
     7
370
     0
100
AcDbText
 10
4279.999224688556
 20
-4071.543857410839
 30
0.0
 40
45.72
  1
ＮＯ．
  7
ＭＳ ゴシック
100
AcDbText
  0
TEXT
  5
34B
330
1F
100
AcDbEntity
  8
F-A
  6
Continuous
 62
     7
370
     0
100
AcDbText
 10
1234.998729808911
 20
-4080.540669266148
 30
0.0
 40
45.72
  1
株式
  7
ＭＳ ゴシック
100
AcDbText
  0
TEXT
  5
34C
330
1F
100
AcDbEntity
  8
F-A
  6
Continuous
 62
     7
370
     0
100
AcDbText
 10
1444.998729808911
 20
-4138.082379523928
 30
0.0
 40
91.44
  1
ウッドワン・・・
 41
1.109375
  7
ＭＳ ゴシック
100
AcDbText
  0
TEXT
  5
34D
330
1F
100
AcDbEntity
  8
F-A
  6
Continuous
 62
     7
370
     0
100
AcDbText
 10
1234.998729808911
 20
-4152.540669266186
 30
0.0
 40
45.72
  1
会社
  7
ＭＳ ゴシック
100
AcDbText
  0
TEXT
  5
34E
330
1F
100
AcDbEntity
  8
F-A
  6
Continuous
 62
     7
370
     0
100
AcDbText
 10
5608.403311109712
 20
-4291.441256638534
 30
0.0
 40
68.58
  1
）
  7
ＭＳ ゴシック
100
AcDbText
  0
TEXT
  5
34F
330
1F
100
AcDbEntity
  8
F-A
  6
Continuous
 62
     7
370
     0
100
AcDbText
 10
5190.195950842071
 20
-4292.835281487472
 30
0.0
 40
68.58
  1
,
  7
ＭＳ ゴシック
100
AcDbText
  0
TEXT
  5
350
330
1F
100
AcDbEntity
  8
F-A
  6
Continuous
 62
     7
370
     0
100
AcDbText
 10
4923.937261915373
 20
-4294.229304905898
 30
0.0
 40
68.58
  1
$y
 41
1.083333333333333
  7
ＭＳ ゴシック
100
AcDbText
  0
TEXT
  5
351
330
1F
100
AcDbEntity
  8
F-A
  6
Continuous
 62
     7
370
     0
100
AcDbText
 10
5078.673982954195
 20
-4294.229304905898
 30
0.0
 40
68.58
  1
$m
 41
1.083333333333333
  7
ＭＳ ゴシック
100
AcDbText
  0
TEXT
  5
352
330
1F
100
AcDbEntity
  8
F-A
  6
Continuous
 62
     7
370
     0
100
AcDbText
 10
5233.410715437103
 20
-4294.229304905898
 30
0.0
 40
68.58
  1
$d
 41
1.083333333333333
  7
ＭＳ ゴシック
100
AcDbText
  0
TEXT
  5
353
330
1F
100
AcDbEntity
  8
F-A
  6
Continuous
 62
     7
370
     0
100
AcDbText
 10
5388.147447920011
 20
-4294.229304905898
 30
0.0
 40
68.58
  1
印刷
 41
1.083333333333333
  7
ＭＳ ゴシック
100
AcDbText
  0
TEXT
  5
354
330
1F
100
AcDbEntity
  8
F-A
  6
Continuous
 62
     7
370
     0
100
AcDbText
 10
4784.033374252999
 20
-4295.623331185348
 30
0.0
 40
68.58
  1
（
  7
ＭＳ ゴシック
100
AcDbText
  0
TEXT
  5
355
330
1F
100
AcDbEntity
  8
F-A
  6
Continuous
 62
     7
370
     0
100
AcDbText
 10
5031.277143812345
 20
-4295.623331185348
 30
0.0
 40
68.58
  1
,
  7
ＭＳ ゴシック
100
AcDbText
  0
TEXT
  5
356
330
1F
100
AcDbEntity
  8
F-A
  6
Continuous
 62
     7
370
     9
100
AcDbText
 10
3199.998977248734
 20
-4127.313118467413
 30
0.0
 40
68.58
  1
FYZDE03_A03
 41
1.151515151515152
  7
ＭＳ ゴシック
100
AcDbText
  0
TEXT
  5
357
330
1F
100
AcDbEntity
  8
0-A
  6
Continuous
 62
     7
370
     9
100
AcDbText
 10
-1474.999830916122
 20
3602.690214447847
 30
0.0
 40
68.58
  1
ＤＥＦ175Ａ-□
  7
ＭＳ ゴシック
100
AcDbText
  0
TEXT
  5
358
330
1F
100
AcDbEntity
  8
0-A
  6
Continuous
 62
     7
370
     9
100
AcDbText
 10
4369.999719568202
 20
3599.565456893767
 30
0.0
 40
68.58
  1
ＤＥＦ205Ａ-□
  7
ＭＳ ゴシック
100
AcDbText
  0
TEXT
  5
359
330
1F
100
AcDbEntity
  8
0-A
  6
Continuous
 62
     7
370
     9
100
AcDbText
 10
-1474.999830916122
 20
3452.6897195682
 30
0.0
 40
68.58
  1
ＤＥＦ175Ａ1-□
  7
ＭＳ ゴシック
100
AcDbText
  0
TEXT
  5
35A
330
1F
100
AcDbEntity
  8
0-A
  6
Continuous
 62
     7
370
     9
100
AcDbText
 10
-1475.000758815456
 20
2349.565376991323
 30
0.0
 40
68.58
  1
ＤＥＦ180Ａ-□
  7
ＭＳ ゴシック
100
AcDbText
  0
TEXT
  5
35B
330
1F
100
AcDbEntity
  8
0-A
  6
Continuous
 62
     7
370
     9
100
AcDbText
 10
4369.999719568202
 20
2349.565376991323
 30
0.0
 40
68.58
  1
ＤＥＦ210Ａ-□
  7
ＭＳ ゴシック
100
AcDbText
  0
TEXT
  5
35C
330
1F
100
AcDbEntity
  8
0-A
  6
Continuous
 62
     7
370
     9
100
AcDbText
 10
-1475.000758815456
 20
2193.315367003518
 30
0.0
 40
68.58
  1
ＤＥＦ180Ａ1-□
  7
ＭＳ ゴシック
100
AcDbText
  0
TEXT
  5
35D
330
1F
100
AcDbEntity
  8
0-A
  6
Continuous
 62
     7
370
     9
100
AcDbText
 10
-1475.000758815456
 20
1099.565297088881
 30
0.0
 40
68.58
  1
ＤＥＦ185Ａ-□
  7
ＭＳ ゴシック
100
AcDbText
  0
TEXT
  5
35E
330
1F
100
AcDbEntity
  8
0-A
  6
Continuous
 62
     7
370
     9
100
AcDbText
 10
4369.999719568202
 20
1099.565297088881
 30
0.0
 40
68.58
  1
ＤＥＦ215Ａ-□
  7
ＭＳ ゴシック
100
AcDbText
  0
TEXT
  5
35F
330
1F
100
AcDbEntity
  8
0-A
  6
Continuous
 62
     7
370
     9
100
AcDbText
 10
-1475.000758815456
 20
-150.4347828135622
 30
0.0
 40
68.58
  1
ＤＥＦ190Ａ-□
  7
ＭＳ ゴシック
100
AcDbText
  0
TEXT
  5
360
330
1F
100
AcDbEntity
  8
0-A
  6
Continuous
 62
     7
370
     9
100
AcDbText
 10
4369.999719568202
 20
-150.4347828135622
 30
0.0
 40
68.58
  1
ＤＥＦ220Ａ-□
  7
ＭＳ ゴシック
100
AcDbText
  0
TEXT
  5
361
330
1F
100
AcDbEntity
  8
0-A
  6
Continuous
 62
     7
370
     9
100
AcDbText
 10
-1475.000758815456
 20
-1400.434862716005
 30
0.0
 40
68.58
  1
ＤＥＦ195Ａ-□
  7
ＭＳ ゴシック
100
AcDbText
  0
TEXT
  5
362
330
1F
100
AcDbEntity
  8
0-A
  6
Continuous
 62
     7
370
     9
100
AcDbText
 10
4369.999719568202
 20
-1400.434862716005
 30
0.0
 40
68.58
  1
ＤＥＦ225Ａ-□
  7
ＭＳ ゴシック
100
AcDbText
  0
TEXT
  5
363
330
1F
100
AcDbEntity
  8
0-A
  6
Continuous
 62
     7
370
     9
100
AcDbText
 10
-1475.000758815456
 20
-2650.434942618447
 30
0.0
 40
68.58
  1
ＤＥＦ200Ａ-□
  7
ＭＳ ゴシック
100
AcDbText
  0
TEXT
  5
364
330
1F
100
AcDbEntity
  8
0-A
  6
Continuous
 62
     7
370
     9
100
AcDbText
 10
4369.999719568202
 20
-2650.434942618447
 30
0.0
 40
68.58
  1
ＤＥＦ230Ａ-□
  7
ＭＳ ゴシック
100
AcDbText
  0
LINE
  5
365
330
1F
100
AcDbEntity
  8
0-4
  6
Continuous
 62
    92
370
    13
100
AcDbLine
 10
-2922.499465942383
 20
2834.363496397006
 30
0.0
 11
-2922.499465942383
 21
2841.863496397006
 31
0.0
  0
LINE
  5
366
330
1F
100
AcDbEntity
  8
0-4
  6
Continuous
 62
    92
370
    13
100
AcDbLine
 10
-2922.499465942383
 20
2841.863496397006
 30
0.0
 11
-2779.999465942383
 21
2841.863496397006
 31
0.0
  0
LINE
  5
367
330
1F
100
AcDbEntity
  8
0-4
  6
Continuous
 62
    92
370
    13
100
AcDbLine
 10
-4272.499465942383
 20
2841.863496397006
 30
0.0
 11
-4272.499465942383
 21
2834.363496397006
 31
0.0
  0
LINE
  5
368
330
1F
100
AcDbEntity
  8
0-4
  6
Continuous
 62
    92
370
    13
100
AcDbLine
 10
-4272.499465942383
 20
2841.863496397006
 30
0.0
 11
-4564.999465942383
 21
2841.863496397006
 31
0.0
  0
LINE
  5
369
330
1F
100
AcDbEntity
  8
0-4
  6
Continuous
 62
    92
370
    13
100
AcDbLine
 10
-4272.500393841718
 20
1591.863416494564
 30
0.0
 11
-4272.500393841718
 21
1584.363416494564
 31
0.0
  0
LINE
  5
36A
330
1F
100
AcDbEntity
  8
0-4
  6
Continuous
 62
    92
370
    13
100
AcDbLine
 10
-4272.500393841718
 20
1591.863416494564
 30
0.0
 11
-4565.000393841718
 21
1591.863416494564
 31
0.0
  0
LINE
  5
36B
330
1F
100
AcDbEntity
  8
0-4
  6
Continuous
 62
    92
370
    13
100
AcDbLine
 10
-2922.500393841717
 20
1591.863416494564
 30
0.0
 11
-2780.000393841717
 21
1591.863416494564
 31
0.0
  0
LINE
  5
36C
330
1F
100
AcDbEntity
  8
0-4
  6
Continuous
 62
    92
370
    13
100
AcDbLine
 10
-2922.500393841717
 20
1584.363416494564
 30
0.0
 11
-2922.500393841717
 21
1591.863416494564
 31
0.0
  0
LINE
  5
36D
330
1F
100
AcDbEntity
  8
0-4
  6
Continuous
 62
    92
370
    13
100
AcDbLine
 10
-4272.500393841718
 20
341.8633365921215
 30
0.0
 11
-4565.000393841718
 21
341.8633365921215
 31
0.0
  0
LINE
  5
36E
330
1F
100
AcDbEntity
  8
0-4
  6
Continuous
 62
    92
370
    13
100
AcDbLine
 10
-4272.500393841718
 20
341.8633365921215
 30
0.0
 11
-4272.500393841718
 21
334.3633365921215
 31
0.0
  0
LINE
  5
36F
330
1F
100
AcDbEntity
  8
0-4
  6
Continuous
 62
    92
370
    13
100
AcDbLine
 10
-2922.500393841717
 20
334.3633365921215
 30
0.0
 11
-2922.500393841717
 21
341.8633365921215
 31
0.0
  0
LINE
  5
370
330
1F
100
AcDbEntity
  8
0-4
  6
Continuous
 62
    92
370
    13
100
AcDbLine
 10
-2922.500393841717
 20
341.8633365921215
 30
0.0
 11
-2780.000393841717
 21
341.8633365921215
 31
0.0
  0
LINE
  5
371
330
1F
100
AcDbEntity
  8
0-4
  6
Continuous
 62
    92
370
    13
100
AcDbLine
 10
-2922.500393841717
 20
-917.36112958058
 30
0.0
 11
-2922.500393841717
 21
-909.86112958058
 31
0.0
  0
LINE
  5
372
330
1F
100
AcDbEntity
  8
0-4
  6
Continuous
 62
    92
370
    13
100
AcDbLine
 10
-2922.500393841717
 20
-909.86112958058
 30
0.0
 11
-2780.000393841717
 21
-909.86112958058
 31
0.0
  0
LINE
  5
373
330
1F
100
AcDbEntity
  8
0-4
  6
Continuous
 62
    92
370
    13
100
AcDbLine
 10
-4272.500393841718
 20
-909.86112958058
 30
0.0
 11
-4565.000393841718
 21
-909.86112958058
 31
0.0
  0
LINE
  5
374
330
1F
100
AcDbEntity
  8
0-4
  6
Continuous
 62
    92
370
    13
100
AcDbLine
 10
-4272.500393841718
 20
-909.86112958058
 30
0.0
 11
-4272.500393841718
 21
-917.36112958058
 31
0.0
  0
LINE
  5
375
330
1F
100
AcDbEntity
  8
0-4
  6
Continuous
 62
    92
370
    13
100
AcDbLine
 10
-2922.500393841717
 20
-2165.636823212765
 30
0.0
 11
-2922.500393841717
 21
-2158.136823212765
 31
0.0
  0
LINE
  5
376
330
1F
100
AcDbEntity
  8
0-4
  6
Continuous
 62
    92
370
    13
100
AcDbLine
 10
-2922.500393841717
 20
-2158.136823212765
 30
0.0
 11
-2780.000393841717
 21
-2158.136823212765
 31
0.0
  0
LINE
  5
377
330
1F
100
AcDbEntity
  8
0-4
  6
Continuous
 62
    92
370
    13
100
AcDbLine
 10
-4272.500393841718
 20
-2158.136823212765
 30
0.0
 11
-4565.000393841718
 21
-2158.136823212765
 31
0.0
  0
LINE
  5
378
330
1F
100
AcDbEntity
  8
0-4
  6
Continuous
 62
    92
370
    13
100
AcDbLine
 10
-4272.500393841718
 20
-2158.136823212765
 30
0.0
 11
-4272.500393841718
 21
-2165.636823212765
 31
0.0
  0
LINE
  5
379
330
1F
100
AcDbEntity
  8
0-4
  6
Continuous
 62
    92
370
    13
100
AcDbLine
 10
-4272.500393841718
 20
-3408.136903115208
 30
0.0
 11
-4272.500393841718
 21
-3415.636903115208
 31
0.0
  0
LINE
  5
37A
330
1F
100
AcDbEntity
  8
0-4
  6
Continuous
 62
    92
370
    13
100
AcDbLine
 10
-4272.500393841718
 20
-3408.136903115208
 30
0.0
 11
-4565.000393841718
 21
-3408.136903115208
 31
0.0
  0
LINE
  5
37B
330
1F
100
AcDbEntity
  8
0-4
  6
Continuous
 62
    92
370
    13
100
AcDbLine
 10
-2922.500393841717
 20
-3408.136903115208
 30
0.0
 11
-2780.000393841717
 21
-3408.136903115208
 31
0.0
  0
LINE
  5
37C
330
1F
100
AcDbEntity
  8
0-4
  6
Continuous
 62
    92
370
    13
100
AcDbLine
 10
-2922.500393841717
 20
-3415.636903115208
 30
0.0
 11
-2922.500393841717
 21
-3408.136903115208
 31
0.0
  0
LINE
  5
37D
330
1F
100
AcDbEntity
  8
0-4
  6
Continuous
 62
    92
370
    13
100
AcDbLine
 10
2922.501012441275
 20
2834.363496397006
 30
0.0
 11
2922.501012441275
 21
2841.863496397006
 31
0.0
  0
LINE
  5
37E
330
1F
100
AcDbEntity
  8
0-4
  6
Continuous
 62
    92
370
    13
100
AcDbLine
 10
2922.501012441275
 20
2841.863496397006
 30
0.0
 11
3065.001012441275
 21
2841.863496397006
 31
0.0
  0
LINE
  5
37F
330
1F
100
AcDbEntity
  8
0-4
  6
Continuous
 62
    92
370
    13
100
AcDbLine
 10
1572.501012441275
 20
2841.863496397006
 30
0.0
 11
1280.001012441275
 21
2841.863496397006
 31
0.0
  0
LINE
  5
380
330
1F
100
AcDbEntity
  8
0-4
  6
Continuous
 62
    92
370
    13
100
AcDbLine
 10
1572.501012441275
 20
2841.863496397006
 30
0.0
 11
1572.501012441275
 21
2834.363496397006
 31
0.0
  0
LINE
  5
381
330
1F
100
AcDbEntity
  8
0-4
  6
Continuous
 62
    92
370
    13
100
AcDbLine
 10
1572.50008454194
 20
1591.863416494564
 30
0.0
 11
1572.50008454194
 21
1584.363416494564
 31
0.0
  0
LINE
  5
382
330
1F
100
AcDbEntity
  8
0-4
  6
Continuous
 62
    92
370
    13
100
AcDbLine
 10
1572.50008454194
 20
1591.863416494564
 30
0.0
 11
1280.00008454194
 21
1591.863416494564
 31
0.0
  0
LINE
  5
383
330
1F
100
AcDbEntity
  8
0-4
  6
Continuous
 62
    92
370
    13
100
AcDbLine
 10
2922.50008454194
 20
1584.363416494564
 30
0.0
 11
2922.50008454194
 21
1591.863416494564
 31
0.0
  0
LINE
  5
384
330
1F
100
AcDbEntity
  8
0-4
  6
Continuous
 62
    92
370
    13
100
AcDbLine
 10
2922.50008454194
 20
1591.863416494564
 30
0.0
 11
3065.00008454194
 21
1591.863416494564
 31
0.0
  0
LINE
  5
385
330
1F
100
AcDbEntity
  8
0-4
  6
Continuous
 62
    92
370
    13
100
AcDbLine
 10
2922.50008454194
 20
334.3633365921215
 30
0.0
 11
2922.50008454194
 21
341.8633365921215
 31
0.0
  0
LINE
  5
386
330
1F
100
AcDbEntity
  8
0-4
  6
Continuous
 62
    92
370
    13
100
AcDbLine
 10
2922.50008454194
 20
341.8633365921215
 30
0.0
 11
3065.00008454194
 21
341.8633365921215
 31
0.0
  0
LINE
  5
387
330
1F
100
AcDbEntity
  8
0-4
  6
Continuous
 62
    92
370
    13
100
AcDbLine
 10
1572.50008454194
 20
341.8633365921215
 30
0.0
 11
1280.00008454194
 21
341.8633365921215
 31
0.0
  0
LINE
  5
388
330
1F
100
AcDbEntity
  8
0-4
  6
Continuous
 62
    92
370
    13
100
AcDbLine
 10
1572.50008454194
 20
341.8633365921215
 30
0.0
 11
1572.50008454194
 21
334.3633365921215
 31
0.0
  0
LINE
  5
389
330
1F
100
AcDbEntity
  8
0-4
  6
Continuous
 62
    92
370
    13
100
AcDbLine
 10
1572.50008454194
 20
-909.86112958058
 30
0.0
 11
1280.00008454194
 21
-909.86112958058
 31
0.0
  0
LINE
  5
38A
330
1F
100
AcDbEntity
  8
0-4
  6
Continuous
 62
    92
370
    13
100
AcDbLine
 10
1572.50008454194
 20
-909.86112958058
 30
0.0
 11
1572.50008454194
 21
-917.36112958058
 31
0.0
  0
LINE
  5
38B
330
1F
100
AcDbEntity
  8
0-4
  6
Continuous
 62
    92
370
    13
100
AcDbLine
 10
2922.50008454194
 20
-917.36112958058
 30
0.0
 11
2922.50008454194
 21
-909.86112958058
 31
0.0
  0
LINE
  5
38C
330
1F
100
AcDbEntity
  8
0-4
  6
Continuous
 62
    92
370
    13
100
AcDbLine
 10
2922.50008454194
 20
-909.86112958058
 30
0.0
 11
3065.00008454194
 21
-909.86112958058
 31
0.0
  0
LINE
  5
38D
330
1F
100
AcDbEntity
  8
0-4
  6
Continuous
 62
    92
370
    13
100
AcDbLine
 10
2922.50008454194
 20
-2165.636823212765
 30
0.0
 11
2922.50008454194
 21
-2158.136823212765
 31
0.0
  0
LINE
  5
38E
330
1F
100
AcDbEntity
  8
0-4
  6
Continuous
 62
    92
370
    13
100
AcDbLine
 10
2922.50008454194
 20
-2158.136823212765
 30
0.0
 11
3065.00008454194
 21
-2158.136823212765
 31
0.0
  0
LINE
  5
38F
330
1F
100
AcDbEntity
  8
0-4
  6
Continuous
 62
    92
370
    13
100
AcDbLine
 10
1572.50008454194
 20
-2158.136823212765
 30
0.0
 11
1280.00008454194
 21
-2158.136823212765
 31
0.0
  0
LINE
  5
390
330
1F
100
AcDbEntity
  8
0-4
  6
Continuous
 62
    92
370
    13
100
AcDbLine
 10
1572.50008454194
 20
-2158.136823212765
 30
0.0
 11
1572.50008454194
 21
-2165.636823212765
 31
0.0
  0
LINE
  5
391
330
1F
100
AcDbEntity
  8
0-4
  6
Continuous
 62
    92
370
    13
100
AcDbLine
 10
2922.50008454194
 20
-3408.136903115208
 30
0.0
 11
3065.00008454194
 21
-3408.136903115208
 31
0.0
  0
LINE
  5
392
330
1F
100
AcDbEntity
  8
0-4
  6
Continuous
 62
    92
370
    13
100
AcDbLine
 10
2922.50008454194
 20
-3415.636903115208
 30
0.0
 11
2922.50008454194
 21
-3408.136903115208
 31
0.0
  0
TEXT
  5
393
330
1F
100
AcDbEntity
  8
F-A
  6
Continuous
 62
     7
370
     0
100
AcDbText
 10
4778.749126529666
 20
-3919.814510139966
 30
0.0
 40
68.58
  1
2018.01.15
 41
1.15
  7
ＭＳ ゴシック
100
AcDbText
  0
LINE
  5
394
330
1F
100
AcDbEntity
  8
0-B
  6
Continuous
 62
   120
370
     5
100
AcDbLine
 10
-4572.499465942383
 20
2684.363496397006
 30
0.0
 11
-4272.499465942383
 21
2684.363496397006
 31
0.0
  0
LWPOLYLINE
  5
395
330
1F
100
AcDbEntity
  8
0-B
  6
Continuous
 62
     7
370
     9
100
AcDbPolyline
 90
        4
 70
     1
 43
6.0
 10
-4569.499465942383
 20
2684.363496397006
 42
0.4142135623731
 10
-4572.499465942383
 20
2687.363496397006
 42
0.4142135623731
 10
-4575.499465942383
 20
2684.363496397006
 42
0.4142135623731
 10
-4572.499465942383
 20
2681.363496397006
 42
0.4142135623731
  0
LWPOLYLINE
  5
396
330
1F
100
AcDbEntity
  8
0-B
  6
Continuous
 62
     7
370
     9
100
AcDbPolyline
 90
        4
 70
     1
 43
6.0
 10
-4269.499465942383
 20
2684.363496397006
 42
0.4142135623731
 10
-4272.499465942383
 20
2687.363496397006
 42
0.4142135623731
 10
-4275.499465942383
 20
2684.363496397006
 42
0.4142135623731
 10
-4272.499465942383
 20
2681.363496397006
 42
0.4142135623731
  0
LINE
  5
397
330
1F
100
AcDbEntity
  8
0-B
  6
Continuous
 62
   120
370
     5
100
AcDbLine
 10
-4572.499465942383
 20
2684.363496397006
 30
0.0
 11
-4572.499465942383
 21
2759.363496397006
 31
0.0
  0
LINE
  5
398
330
1F
100
AcDbEntity
  8
0-B
  6
Continuous
 62
   120
370
     5
100
AcDbLine
 10
-4272.499465942383
 20
2684.363496397006
 30
0.0
 11
-4272.499465942383
 21
2759.363496397006
 31
0.0
  0
TEXT
  5
399
330
1F
100
AcDbEntity
  8
0-B
  6
Continuous
 62
     7
370
   211
100
AcDbText
 10
-4467.499465942383
 20
2712.053496397006
 30
0.0
 40
68.58
  1
20
  7
ＭＳ ゴシック
100
AcDbText
  0
LINE
  5
39A
330
1F
100
AcDbEntity
  8
0-B
  6
Continuous
 62
   120
370
     5
100
AcDbLine
 10
-2922.499465942383
 20
2684.363496397006
 30
0.0
 11
-2772.499465942383
 21
2684.363496397006
 31
0.0
  0
LWPOLYLINE
  5
39B
330
1F
100
AcDbEntity
  8
0-B
  6
Continuous
 62
     7
370
     9
100
AcDbPolyline
 90
        4
 70
     1
 43
6.0
 10
-2919.499465942383
 20
2684.363496397006
 42
0.4142135623731
 10
-2922.499465942383
 20
2687.363496397006
 42
0.4142135623731
 10
-2925.499465942383
 20
2684.363496397006
 42
0.4142135623731
 10
-2922.499465942383
 20
2681.363496397006
 42
0.4142135623731
  0
LWPOLYLINE
  5
39C
330
1F
100
AcDbEntity
  8
0-B
  6
Continuous
 62
     7
370
     9
100
AcDbPolyline
 90
        4
 70
     1
 43
6.0
 10
-2769.499465942383
 20
2684.363496397006
 42
0.4142135623731
 10
-2772.499465942383
 20
2687.363496397006
 42
0.4142135623731
 10
-2775.499465942383
 20
2684.363496397006
 42
0.4142135623731
 10
-2772.499465942383
 20
2681.363496397006
 42
0.4142135623731
  0
LINE
  5
39D
330
1F
100
AcDbEntity
  8
0-B
  6
Continuous
 62
   120
370
     5
100
AcDbLine
 10
-2922.499465942383
 20
2684.363496397006
 30
0.0
 11
-2922.499465942383
 21
2759.363496397006
 31
0.0
  0
LINE
  5
39E
330
1F
100
AcDbEntity
  8
0-B
  6
Continuous
 62
   120
370
     5
100
AcDbLine
 10
-2772.499465942383
 20
2684.363496397006
 30
0.0
 11
-2772.499465942383
 21
2759.363496397006
 31
0.0
  0
TEXT
  5
39F
330
1F
100
AcDbEntity
  8
0-B
  6
Continuous
 62
     7
370
   211
100
AcDbText
 10
-2892.499465942383
 20
2712.053496397006
 30
0.0
 40
68.58
  1
10
  7
ＭＳ ゴシック
100
AcDbText
  0
LINE
  5
3A0
330
1F
100
AcDbEntity
  8
0-B
  6
Continuous
 62
   120
370
     5
100
AcDbLine
 10
-4572.500393841718
 20
1434.363416494564
 30
0.0
 11
-4272.500393841718
 21
1434.363416494564
 31
0.0
  0
LWPOLYLINE
  5
3A1
330
1F
100
AcDbEntity
  8
0-B
  6
Continuous
 62
     7
370
     9
100
AcDbPolyline
 90
        4
 70
     1
 43
6.0
 10
-4569.500393841718
 20
1434.363416494564
 42
0.4142135623731
 10
-4572.500393841718
 20
1437.363416494564
 42
0.4142135623731
 10
-4575.500393841717
 20
1434.363416494564
 42
0.4142135623731
 10
-4572.500393841718
 20
1431.363416494564
 42
0.4142135623731
  0
LWPOLYLINE
  5
3A2
330
1F
100
AcDbEntity
  8
0-B
  6
Continuous
 62
     7
370
     9
100
AcDbPolyline
 90
        4
 70
     1
 43
6.0
 10
-4269.500393841718
 20
1434.363416494564
 42
0.4142135623731
 10
-4272.500393841718
 20
1437.363416494564
 42
0.4142135623731
 10
-4275.500393841717
 20
1434.363416494564
 42
0.4142135623731
 10
-4272.500393841718
 20
1431.363416494564
 42
0.4142135623731
  0
LINE
  5
3A3
330
1F
100
AcDbEntity
  8
0-B
  6
Continuous
 62
   120
370
     5
100
AcDbLine
 10
-4572.500393841718
 20
1434.363416494564
 30
0.0
 11
-4572.500393841718
 21
1509.363416494564
 31
0.0
  0
LINE
  5
3A4
330
1F
100
AcDbEntity
  8
0-B
  6
Continuous
 62
   120
370
     5
100
AcDbLine
 10
-4272.500393841718
 20
1434.363416494564
 30
0.0
 11
-4272.500393841718
 21
1509.363416494564
 31
0.0
  0
TEXT
  5
3A5
330
1F
100
AcDbEntity
  8
0-B
  6
Continuous
 62
     7
370
   211
100
AcDbText
 10
-4467.500393841718
 20
1462.053416494564
 30
0.0
 40
68.58
  1
20
  7
ＭＳ ゴシック
100
AcDbText
  0
LINE
  5
3A6
330
1F
100
AcDbEntity
  8
0-B
  6
Continuous
 62
   120
370
     5
100
AcDbLine
 10
-2922.500393841717
 20
1434.363416494564
 30
0.0
 11
-2772.500393841717
 21
1434.363416494564
 31
0.0
  0
LWPOLYLINE
  5
3A7
330
1F
100
AcDbEntity
  8
0-B
  6
Continuous
 62
     7
370
     9
100
AcDbPolyline
 90
        4
 70
     1
 43
6.0
 10
-2919.500393841717
 20
1434.363416494564
 42
0.4142135623731
 10
-2922.500393841717
 20
1437.363416494564
 42
0.4142135623731
 10
-2925.500393841717
 20
1434.363416494564
 42
0.4142135623731
 10
-2922.500393841717
 20
1431.363416494564
 42
0.4142135623731
  0
LWPOLYLINE
  5
3A8
330
1F
100
AcDbEntity
  8
0-B
  6
Continuous
 62
     7
370
     9
100
AcDbPolyline
 90
        4
 70
     1
 43
6.0
 10
-2769.500393841717
 20
1434.363416494564
 42
0.4142135623731
 10
-2772.500393841717
 20
1437.363416494564
 42
0.4142135623731
 10
-2775.500393841717
 20
1434.363416494564
 42
0.4142135623731
 10
-2772.500393841717
 20
1431.363416494564
 42
0.4142135623731
  0
LINE
  5
3A9
330
1F
100
AcDbEntity
  8
0-B
  6
Continuous
 62
   120
370
     5
100
AcDbLine
 10
-2922.500393841717
 20
1434.363416494564
 30
0.0
 11
-2922.500393841717
 21
1509.363416494564
 31
0.0
  0
LINE
  5
3AA
330
1F
100
AcDbEntity
  8
0-B
  6
Continuous
 62
   120
370
     5
100
AcDbLine
 10
-2772.500393841717
 20
1434.363416494564
 30
0.0
 11
-2772.500393841717
 21
1509.363416494564
 31
0.0
  0
TEXT
  5
3AB
330
1F
100
AcDbEntity
  8
0-B
  6
Continuous
 62
     7
370
   211
100
AcDbText
 10
-2892.500393841717
 20
1462.053416494564
 30
0.0
 40
68.58
  1
10
  7
ＭＳ ゴシック
100
AcDbText
  0
LINE
  5
3AC
330
1F
100
AcDbEntity
  8
0-B
  6
Continuous
 62
   120
370
     5
100
AcDbLine
 10
-4572.500393841718
 20
184.3633365921215
 30
0.0
 11
-4272.500393841718
 21
184.3633365921215
 31
0.0
  0
LWPOLYLINE
  5
3AD
330
1F
100
AcDbEntity
  8
0-B
  6
Continuous
 62
     7
370
     9
100
AcDbPolyline
 90
        4
 70
     1
 43
6.0
 10
-4569.500393841718
 20
184.3633365921215
 42
0.4142135623731
 10
-4572.500393841718
 20
187.3633365921215
 42
0.4142135623731
 10
-4575.500393841717
 20
184.3633365921215
 42
0.4142135623731
 10
-4572.500393841718
 20
181.3633365921215
 42
0.4142135623731
  0
LWPOLYLINE
  5
3AE
330
1F
100
AcDbEntity
  8
0-B
  6
Continuous
 62
     7
370
     9
100
AcDbPolyline
 90
        4
 70
     1
 43
6.0
 10
-4269.500393841718
 20
184.3633365921215
 42
0.4142135623731
 10
-4272.500393841718
 20
187.3633365921215
 42
0.4142135623731
 10
-4275.500393841717
 20
184.3633365921215
 42
0.4142135623731
 10
-4272.500393841718
 20
181.3633365921215
 42
0.4142135623731
  0
LINE
  5
3AF
330
1F
100
AcDbEntity
  8
0-B
  6
Continuous
 62
   120
370
     5
100
AcDbLine
 10
-4572.500393841718
 20
184.3633365921215
 30
0.0
 11
-4572.500393841718
 21
259.3633365921215
 31
0.0
  0
LINE
  5
3B0
330
1F
100
AcDbEntity
  8
0-B
  6
Continuous
 62
   120
370
     5
100
AcDbLine
 10
-4272.500393841718
 20
184.3633365921215
 30
0.0
 11
-4272.500393841718
 21
259.3633365921215
 31
0.0
  0
TEXT
  5
3B1
330
1F
100
AcDbEntity
  8
0-B
  6
Continuous
 62
     7
370
   211
100
AcDbText
 10
-4467.500393841718
 20
212.0533365921215
 30
0.0
 40
68.58
  1
20
  7
ＭＳ ゴシック
100
AcDbText
  0
LINE
  5
3B2
330
1F
100
AcDbEntity
  8
0-B
  6
Continuous
 62
   120
370
     5
100
AcDbLine
 10
-2922.500393841717
 20
184.3633365921215
 30
0.0
 11
-2772.500393841717
 21
184.3633365921215
 31
0.0
  0
LWPOLYLINE
  5
3B3
330
1F
100
AcDbEntity
  8
0-B
  6
Continuous
 62
     7
370
     9
100
AcDbPolyline
 90
        4
 70
     1
 43
6.0
 10
-2919.500393841717
 20
184.3633365921215
 42
0.4142135623731
 10
-2922.500393841717
 20
187.3633365921215
 42
0.4142135623731
 10
-2925.500393841717
 20
184.3633365921215
 42
0.4142135623731
 10
-2922.500393841717
 20
181.3633365921215
 42
0.4142135623731
  0
LWPOLYLINE
  5
3B4
330
1F
100
AcDbEntity
  8
0-B
  6
Continuous
 62
     7
370
     9
100
AcDbPolyline
 90
        4
 70
     1
 43
6.0
 10
-2769.500393841717
 20
184.3633365921215
 42
0.4142135623731
 10
-2772.500393841717
 20
187.3633365921215
 42
0.4142135623731
 10
-2775.500393841717
 20
184.3633365921215
 42
0.4142135623731
 10
-2772.500393841717
 20
181.3633365921215
 42
0.4142135623731
  0
LINE
  5
3B5
330
1F
100
AcDbEntity
  8
0-B
  6
Continuous
 62
   120
370
     5
100
AcDbLine
 10
-2922.500393841717
 20
184.3633365921215
 30
0.0
 11
-2922.500393841717
 21
259.3633365921215
 31
0.0
  0
LINE
  5
3B6
330
1F
100
AcDbEntity
  8
0-B
  6
Continuous
 62
   120
370
     5
100
AcDbLine
 10
-2772.500393841717
 20
184.3633365921215
 30
0.0
 11
-2772.500393841717
 21
259.3633365921215
 31
0.0
  0
TEXT
  5
3B7
330
1F
100
AcDbEntity
  8
0-B
  6
Continuous
 62
     7
370
   211
100
AcDbText
 10
-2892.500393841717
 20
212.0533365921215
 30
0.0
 40
68.58
  1
10
  7
ＭＳ ゴシック
100
AcDbText
  0
LINE
  5
3B8
330
1F
100
AcDbEntity
  8
0-B
  6
Continuous
 62
   120
370
     5
100
AcDbLine
 10
-4572.500393841718
 20
-2315.636823212765
 30
0.0
 11
-4272.500393841718
 21
-2315.636823212765
 31
0.0
  0
LWPOLYLINE
  5
3B9
330
1F
100
AcDbEntity
  8
0-B
  6
Continuous
 62
     7
370
     9
100
AcDbPolyline
 90
        4
 70
     1
 43
6.0
 10
-4569.500393841718
 20
-2315.636823212765
 42
0.4142135623731
 10
-4572.500393841718
 20
-2312.636823212765
 42
0.4142135623731
 10
-4575.500393841717
 20
-2315.636823212765
 42
0.4142135623731
 10
-4572.500393841718
 20
-2318.636823212765
 42
0.4142135623731
  0
LWPOLYLINE
  5
3BA
330
1F
100
AcDbEntity
  8
0-B
  6
Continuous
 62
     7
370
     9
100
AcDbPolyline
 90
        4
 70
     1
 43
6.0
 10
-4269.500393841718
 20
-2315.636823212765
 42
0.4142135623731
 10
-4272.500393841718
 20
-2312.636823212765
 42
0.4142135623731
 10
-4275.500393841717
 20
-2315.636823212765
 42
0.4142135623731
 10
-4272.500393841718
 20
-2318.636823212765
 42
0.4142135623731
  0
LINE
  5
3BB
330
1F
100
AcDbEntity
  8
0-B
  6
Continuous
 62
   120
370
     5
100
AcDbLine
 10
-4572.500393841718
 20
-2315.636823212765
 30
0.0
 11
-4572.500393841718
 21
-2240.636823212765
 31
0.0
  0
LINE
  5
3BC
330
1F
100
AcDbEntity
  8
0-B
  6
Continuous
 62
   120
370
     5
100
AcDbLine
 10
-4272.500393841718
 20
-2315.636823212765
 30
0.0
 11
-4272.500393841718
 21
-2240.636823212765
 31
0.0
  0
TEXT
  5
3BD
330
1F
100
AcDbEntity
  8
0-B
  6
Continuous
 62
     7
370
   211
100
AcDbText
 10
-4467.500393841718
 20
-2287.946823212765
 30
0.0
 40
68.58
  1
20
  7
ＭＳ ゴシック
100
AcDbText
  0
LINE
  5
3BE
330
1F
100
AcDbEntity
  8
0-B
  6
Continuous
 62
   120
370
     5
100
AcDbLine
 10
-2922.500393841717
 20
-2315.636823212765
 30
0.0
 11
-2772.500393841717
 21
-2315.636823212765
 31
0.0
  0
LWPOLYLINE
  5
3BF
330
1F
100
AcDbEntity
  8
0-B
  6
Continuous
 62
     7
370
     9
100
AcDbPolyline
 90
        4
 70
     1
 43
6.0
 10
-2919.500393841717
 20
-2315.636823212765
 42
0.4142135623731
 10
-2922.500393841717
 20
-2312.636823212765
 42
0.4142135623731
 10
-2925.500393841717
 20
-2315.636823212765
 42
0.4142135623731
 10
-2922.500393841717
 20
-2318.636823212765
 42
0.4142135623731
  0
LWPOLYLINE
  5
3C0
330
1F
100
AcDbEntity
  8
0-B
  6
Continuous
 62
     7
370
     9
100
AcDbPolyline
 90
        4
 70
     1
 43
6.0
 10
-2769.500393841717
 20
-2315.636823212765
 42
0.4142135623731
 10
-2772.500393841717
 20
-2312.636823212765
 42
0.4142135623731
 10
-2775.500393841717
 20
-2315.636823212765
 42
0.4142135623731
 10
-2772.500393841717
 20
-2318.636823212765
 42
0.4142135623731
  0
LINE
  5
3C1
330
1F
100
AcDbEntity
  8
0-B
  6
Continuous
 62
   120
370
     5
100
AcDbLine
 10
-2922.500393841717
 20
-2315.636823212765
 30
0.0
 11
-2922.500393841717
 21
-2240.636823212765
 31
0.0
  0
LINE
  5
3C2
330
1F
100
AcDbEntity
  8
0-B
  6
Continuous
 62
   120
370
     5
100
AcDbLine
 10
-2772.500393841717
 20
-2315.636823212765
 30
0.0
 11
-2772.500393841717
 21
-2240.636823212765
 31
0.0
  0
TEXT
  5
3C3
330
1F
100
AcDbEntity
  8
0-B
  6
Continuous
 62
     7
370
   211
100
AcDbText
 10
-2892.500393841717
 20
-2287.946823212765
 30
0.0
 40
68.58
  1
10
  7
ＭＳ ゴシック
100
AcDbText
  0
LINE
  5
3C4
330
1F
100
AcDbEntity
  8
0-B
  6
Continuous
 62
   120
370
     5
100
AcDbLine
 10
-4572.500393841718
 20
-3565.636903115208
 30
0.0
 11
-4272.500393841718
 21
-3565.636903115208
 31
0.0
  0
LWPOLYLINE
  5
3C5
330
1F
100
AcDbEntity
  8
0-B
  6
Continuous
 62
     7
370
     9
100
AcDbPolyline
 90
        4
 70
     1
 43
6.0
 10
-4569.500393841718
 20
-3565.636903115208
 42
0.4142135623731
 10
-4572.500393841718
 20
-3562.636903115208
 42
0.4142135623731
 10
-4575.500393841717
 20
-3565.636903115208
 42
0.4142135623731
 10
-4572.500393841718
 20
-3568.636903115207
 42
0.4142135623731
  0
LWPOLYLINE
  5
3C6
330
1F
100
AcDbEntity
  8
0-B
  6
Continuous
 62
     7
370
     9
100
AcDbPolyline
 90
        4
 70
     1
 43
6.0
 10
-4269.500393841718
 20
-3565.636903115208
 42
0.4142135623731
 10
-4272.500393841718
 20
-3562.636903115208
 42
0.4142135623731
 10
-4275.500393841717
 20
-3565.636903115208
 42
0.4142135623731
 10
-4272.500393841718
 20
-3568.636903115207
 42
0.4142135623731
  0
LINE
  5
3C7
330
1F
100
AcDbEntity
  8
0-B
  6
Continuous
 62
   120
370
     5
100
AcDbLine
 10
-4572.500393841718
 20
-3565.636903115208
 30
0.0
 11
-4572.500393841718
 21
-3490.636903115208
 31
0.0
  0
LINE
  5
3C8
330
1F
100
AcDbEntity
  8
0-B
  6
Continuous
 62
   120
370
     5
100
AcDbLine
 10
-4272.500393841718
 20
-3565.636903115208
 30
0.0
 11
-4272.500393841718
 21
-3490.636903115208
 31
0.0
  0
TEXT
  5
3C9
330
1F
100
AcDbEntity
  8
0-B
  6
Continuous
 62
     7
370
   211
100
AcDbText
 10
-4467.500393841718
 20
-3537.946903115208
 30
0.0
 40
68.58
  1
20
  7
ＭＳ ゴシック
100
AcDbText
  0
LINE
  5
3CA
330
1F
100
AcDbEntity
  8
0-B
  6
Continuous
 62
   120
370
     5
100
AcDbLine
 10
-2922.500393841717
 20
-3565.636903115208
 30
0.0
 11
-2772.500393841717
 21
-3565.636903115208
 31
0.0
  0
LWPOLYLINE
  5
3CB
330
1F
100
AcDbEntity
  8
0-B
  6
Continuous
 62
     7
370
     9
100
AcDbPolyline
 90
        4
 70
     1
 43
6.0
 10
-2919.500393841717
 20
-3565.636903115208
 42
0.4142135623731
 10
-2922.500393841717
 20
-3562.636903115208
 42
0.4142135623731
 10
-2925.500393841717
 20
-3565.636903115208
 42
0.4142135623731
 10
-2922.500393841717
 20
-3568.636903115207
 42
0.4142135623731
  0
LWPOLYLINE
  5
3CC
330
1F
100
AcDbEntity
  8
0-B
  6
Continuous
 62
     7
370
     9
100
AcDbPolyline
 90
        4
 70
     1
 43
6.0
 10
-2769.500393841717
 20
-3565.636903115208
 42
0.4142135623731
 10
-2772.500393841717
 20
-3562.636903115208
 42
0.4142135623731
 10
-2775.500393841717
 20
-3565.636903115208
 42
0.4142135623731
 10
-2772.500393841717
 20
-3568.636903115207
 42
0.4142135623731
  0
LINE
  5
3CD
330
1F
100
AcDbEntity
  8
0-B
  6
Continuous
 62
   120
370
     5
100
AcDbLine
 10
-2922.500393841717
 20
-3565.636903115208
 30
0.0
 11
-2922.500393841717
 21
-3490.636903115208
 31
0.0
  0
LINE
  5
3CE
330
1F
100
AcDbEntity
  8
0-B
  6
Continuous
 62
   120
370
     5
100
AcDbLine
 10
-2772.500393841717
 20
-3565.636903115208
 30
0.0
 11
-2772.500393841717
 21
-3490.636903115208
 31
0.0
  0
TEXT
  5
3CF
330
1F
100
AcDbEntity
  8
0-B
  6
Continuous
 62
     7
370
   211
100
AcDbText
 10
-2892.500393841717
 20
-3537.946903115208
 30
0.0
 40
68.58
  1
10
  7
ＭＳ ゴシック
100
AcDbText
  0
LINE
  5
3D0
330
1F
100
AcDbEntity
  8
0-B
  6
Continuous
 62
   120
370
     5
100
AcDbLine
 10
1272.50008454194
 20
-3565.636903115208
 30
0.0
 11
1572.50008454194
 21
-3565.636903115208
 31
0.0
  0
LWPOLYLINE
  5
3D1
330
1F
100
AcDbEntity
  8
0-B
  6
Continuous
 62
     7
370
     9
100
AcDbPolyline
 90
        4
 70
     1
 43
6.0
 10
1275.50008454194
 20
-3565.636903115208
 42
0.4142135623731
 10
1272.50008454194
 20
-3562.636903115208
 42
0.4142135623731
 10
1269.50008454194
 20
-3565.636903115208
 42
0.4142135623731
 10
1272.50008454194
 20
-3568.636903115207
 42
0.4142135623731
  0
LWPOLYLINE
  5
3D2
330
1F
100
AcDbEntity
  8
0-B
  6
Continuous
 62
     7
370
     9
100
AcDbPolyline
 90
        4
 70
     1
 43
6.0
 10
1575.50008454194
 20
-3565.636903115208
 42
0.4142135623731
 10
1572.50008454194
 20
-3562.636903115208
 42
0.4142135623731
 10
1569.50008454194
 20
-3565.636903115208
 42
0.4142135623731
 10
1572.50008454194
 20
-3568.636903115207
 42
0.4142135623731
  0
LINE
  5
3D3
330
1F
100
AcDbEntity
  8
0-B
  6
Continuous
 62
   120
370
     5
100
AcDbLine
 10
1272.50008454194
 20
-3565.636903115208
 30
0.0
 11
1272.50008454194
 21
-3490.636903115208
 31
0.0
  0
LINE
  5
3D4
330
1F
100
AcDbEntity
  8
0-B
  6
Continuous
 62
   120
370
     5
100
AcDbLine
 10
1572.50008454194
 20
-3565.636903115208
 30
0.0
 11
1572.50008454194
 21
-3490.636903115208
 31
0.0
  0
TEXT
  5
3D5
330
1F
100
AcDbEntity
  8
0-B
  6
Continuous
 62
     7
370
   211
100
AcDbText
 10
1377.50008454194
 20
-3537.946903115208
 30
0.0
 40
68.58
  1
20
  7
ＭＳ ゴシック
100
AcDbText
  0
LINE
  5
3D6
330
1F
100
AcDbEntity
  8
0-B
  6
Continuous
 62
   120
370
     5
100
AcDbLine
 10
2922.50008454194
 20
-3565.636903115208
 30
0.0
 11
3072.50008454194
 21
-3565.636903115208
 31
0.0
  0
LWPOLYLINE
  5
3D7
330
1F
100
AcDbEntity
  8
0-B
  6
Continuous
 62
     7
370
     9
100
AcDbPolyline
 90
        4
 70
     1
 43
6.0
 10
2925.50008454194
 20
-3565.636903115208
 42
0.4142135623731
 10
2922.50008454194
 20
-3562.636903115208
 42
0.4142135623731
 10
2919.50008454194
 20
-3565.636903115208
 42
0.4142135623731
 10
2922.50008454194
 20
-3568.636903115207
 42
0.4142135623731
  0
LWPOLYLINE
  5
3D8
330
1F
100
AcDbEntity
  8
0-B
  6
Continuous
 62
     7
370
     9
100
AcDbPolyline
 90
        4
 70
     1
 43
6.0
 10
3075.50008454194
 20
-3565.636903115208
 42
0.4142135623731
 10
3072.50008454194
 20
-3562.636903115208
 42
0.4142135623731
 10
3069.50008454194
 20
-3565.636903115208
 42
0.4142135623731
 10
3072.50008454194
 20
-3568.636903115207
 42
0.4142135623731
  0
LINE
  5
3D9
330
1F
100
AcDbEntity
  8
0-B
  6
Continuous
 62
   120
370
     5
100
AcDbLine
 10
2922.50008454194
 20
-3565.636903115208
 30
0.0
 11
2922.50008454194
 21
-3490.636903115208
 31
0.0
  0
LINE
  5
3DA
330
1F
100
AcDbEntity
  8
0-B
  6
Continuous
 62
   120
370
     5
100
AcDbLine
 10
3072.50008454194
 20
-3565.636903115208
 30
0.0
 11
3072.50008454194
 21
-3490.636903115208
 31
0.0
  0
TEXT
  5
3DB
330
1F
100
AcDbEntity
  8
0-B
  6
Continuous
 62
     7
370
   211
100
AcDbText
 10
2952.50008454194
 20
-3537.946903115208
 30
0.0
 40
68.58
  1
10
  7
ＭＳ ゴシック
100
AcDbText
  0
LINE
  5
3DC
330
1F
100
AcDbEntity
  8
0-B
  6
Continuous
 62
   120
370
     5
100
AcDbLine
 10
1272.50008454194
 20
-2315.636823212765
 30
0.0
 11
1572.50008454194
 21
-2315.636823212765
 31
0.0
  0
LWPOLYLINE
  5
3DD
330
1F
100
AcDbEntity
  8
0-B
  6
Continuous
 62
     7
370
     9
100
AcDbPolyline
 90
        4
 70
     1
 43
6.0
 10
1275.50008454194
 20
-2315.636823212765
 42
0.4142135623731
 10
1272.50008454194
 20
-2312.636823212765
 42
0.4142135623731
 10
1269.50008454194
 20
-2315.636823212765
 42
0.4142135623731
 10
1272.50008454194
 20
-2318.636823212765
 42
0.4142135623731
  0
LWPOLYLINE
  5
3DE
330
1F
100
AcDbEntity
  8
0-B
  6
Continuous
 62
     7
370
     9
100
AcDbPolyline
 90
        4
 70
     1
 43
6.0
 10
1575.50008454194
 20
-2315.636823212765
 42
0.4142135623731
 10
1572.50008454194
 20
-2312.636823212765
 42
0.4142135623731
 10
1569.50008454194
 20
-2315.636823212765
 42
0.4142135623731
 10
1572.50008454194
 20
-2318.636823212765
 42
0.4142135623731
  0
LINE
  5
3DF
330
1F
100
AcDbEntity
  8
0-B
  6
Continuous
 62
   120
370
     5
100
AcDbLine
 10
1272.50008454194
 20
-2315.636823212765
 30
0.0
 11
1272.50008454194
 21
-2240.636823212765
 31
0.0
  0
LINE
  5
3E0
330
1F
100
AcDbEntity
  8
0-B
  6
Continuous
 62
   120
370
     5
100
AcDbLine
 10
1572.50008454194
 20
-2315.636823212765
 30
0.0
 11
1572.50008454194
 21
-2240.636823212765
 31
0.0
  0
TEXT
  5
3E1
330
1F
100
AcDbEntity
  8
0-B
  6
Continuous
 62
     7
370
   211
100
AcDbText
 10
1377.50008454194
 20
-2287.946823212765
 30
0.0
 40
68.58
  1
20
  7
ＭＳ ゴシック
100
AcDbText
  0
LINE
  5
3E2
330
1F
100
AcDbEntity
  8
0-B
  6
Continuous
 62
   120
370
     5
100
AcDbLine
 10
2922.50008454194
 20
-2315.636823212765
 30
0.0
 11
3072.50008454194
 21
-2315.636823212765
 31
0.0
  0
LWPOLYLINE
  5
3E3
330
1F
100
AcDbEntity
  8
0-B
  6
Continuous
 62
     7
370
     9
100
AcDbPolyline
 90
        4
 70
     1
 43
6.0
 10
2925.50008454194
 20
-2315.636823212765
 42
0.4142135623731
 10
2922.50008454194
 20
-2312.636823212765
 42
0.4142135623731
 10
2919.50008454194
 20
-2315.636823212765
 42
0.4142135623731
 10
2922.50008454194
 20
-2318.636823212765
 42
0.4142135623731
  0
LWPOLYLINE
  5
3E4
330
1F
100
AcDbEntity
  8
0-B
  6
Continuous
 62
     7
370
     9
100
AcDbPolyline
 90
        4
 70
     1
 43
6.0
 10
3075.50008454194
 20
-2315.636823212765
 42
0.4142135623731
 10
3072.50008454194
 20
-2312.636823212765
 42
0.4142135623731
 10
3069.50008454194
 20
-2315.636823212765
 42
0.4142135623731
 10
3072.50008454194
 20
-2318.636823212765
 42
0.4142135623731
  0
LINE
  5
3E5
330
1F
100
AcDbEntity
  8
0-B
  6
Continuous
 62
   120
370
     5
100
AcDbLine
 10
2922.50008454194
 20
-2315.636823212765
 30
0.0
 11
2922.50008454194
 21
-2240.636823212765
 31
0.0
  0
LINE
  5
3E6
330
1F
100
AcDbEntity
  8
0-B
  6
Continuous
 62
   120
370
     5
100
AcDbLine
 10
3072.50008454194
 20
-2315.636823212765
 30
0.0
 11
3072.50008454194
 21
-2240.636823212765
 31
0.0
  0
TEXT
  5
3E7
330
1F
100
AcDbEntity
  8
0-B
  6
Continuous
 62
     7
370
   211
100
AcDbText
 10
2952.50008454194
 20
-2287.946823212765
 30
0.0
 40
68.58
  1
10
  7
ＭＳ ゴシック
100
AcDbText
  0
LINE
  5
3E8
330
1F
100
AcDbEntity
  8
0-B
  6
Continuous
 62
   120
370
     5
100
AcDbLine
 10
1272.50008454194
 20
-1067.36112958058
 30
0.0
 11
1572.50008454194
 21
-1067.36112958058
 31
0.0
  0
LWPOLYLINE
  5
3E9
330
1F
100
AcDbEntity
  8
0-B
  6
Continuous
 62
     7
370
     9
100
AcDbPolyline
 90
        4
 70
     1
 43
6.0
 10
1275.50008454194
 20
-1067.36112958058
 42
0.4142135623731
 10
1272.50008454194
 20
-1064.36112958058
 42
0.4142135623731
 10
1269.50008454194
 20
-1067.36112958058
 42
0.4142135623731
 10
1272.50008454194
 20
-1070.36112958058
 42
0.4142135623731
  0
LWPOLYLINE
  5
3EA
330
1F
100
AcDbEntity
  8
0-B
  6
Continuous
 62
     7
370
     9
100
AcDbPolyline
 90
        4
 70
     1
 43
6.0
 10
1575.50008454194
 20
-1067.36112958058
 42
0.4142135623731
 10
1572.50008454194
 20
-1064.36112958058
 42
0.4142135623731
 10
1569.50008454194
 20
-1067.36112958058
 42
0.4142135623731
 10
1572.50008454194
 20
-1070.36112958058
 42
0.4142135623731
  0
LINE
  5
3EB
330
1F
100
AcDbEntity
  8
0-B
  6
Continuous
 62
   120
370
     5
100
AcDbLine
 10
1272.50008454194
 20
-1067.36112958058
 30
0.0
 11
1272.50008454194
 21
-992.36112958058
 31
0.0
  0
LINE
  5
3EC
330
1F
100
AcDbEntity
  8
0-B
  6
Continuous
 62
   120
370
     5
100
AcDbLine
 10
1572.50008454194
 20
-1067.36112958058
 30
0.0
 11
1572.50008454194
 21
-992.36112958058
 31
0.0
  0
TEXT
  5
3ED
330
1F
100
AcDbEntity
  8
0-B
  6
Continuous
 62
     7
370
   211
100
AcDbText
 10
1377.50008454194
 20
-1039.67112958058
 30
0.0
 40
68.58
  1
20
  7
ＭＳ ゴシック
100
AcDbText
  0
LINE
  5
3EE
330
1F
100
AcDbEntity
  8
0-B
  6
Continuous
 62
   120
370
     5
100
AcDbLine
 10
2922.50008454194
 20
-1067.36112958058
 30
0.0
 11
3072.50008454194
 21
-1067.36112958058
 31
0.0
  0
LWPOLYLINE
  5
3EF
330
1F
100
AcDbEntity
  8
0-B
  6
Continuous
 62
     7
370
     9
100
AcDbPolyline
 90
        4
 70
     1
 43
6.0
 10
2925.50008454194
 20
-1067.36112958058
 42
0.4142135623731
 10
2922.50008454194
 20
-1064.36112958058
 42
0.4142135623731
 10
2919.50008454194
 20
-1067.36112958058
 42
0.4142135623731
 10
2922.50008454194
 20
-1070.36112958058
 42
0.4142135623731
  0
LWPOLYLINE
  5
3F0
330
1F
100
AcDbEntity
  8
0-B
  6
Continuous
 62
     7
370
     9
100
AcDbPolyline
 90
        4
 70
     1
 43
6.0
 10
3075.50008454194
 20
-1067.36112958058
 42
0.4142135623731
 10
3072.50008454194
 20
-1064.36112958058
 42
0.4142135623731
 10
3069.50008454194
 20
-1067.36112958058
 42
0.4142135623731
 10
3072.50008454194
 20
-1070.36112958058
 42
0.4142135623731
  0
LINE
  5
3F1
330
1F
100
AcDbEntity
  8
0-B
  6
Continuous
 62
   120
370
     5
100
AcDbLine
 10
2922.50008454194
 20
-1067.36112958058
 30
0.0
 11
2922.50008454194
 21
-992.36112958058
 31
0.0
  0
LINE
  5
3F2
330
1F
100
AcDbEntity
  8
0-B
  6
Continuous
 62
   120
370
     5
100
AcDbLine
 10
3072.50008454194
 20
-1067.36112958058
 30
0.0
 11
3072.50008454194
 21
-992.36112958058
 31
0.0
  0
TEXT
  5
3F3
330
1F
100
AcDbEntity
  8
0-B
  6
Continuous
 62
     7
370
   211
100
AcDbText
 10
2952.50008454194
 20
-1039.67112958058
 30
0.0
 40
68.58
  1
10
  7
ＭＳ ゴシック
100
AcDbText
  0
LINE
  5
3F4
330
1F
100
AcDbEntity
  8
0-B
  6
Continuous
 62
   120
370
     5
100
AcDbLine
 10
1272.50008454194
 20
184.3633365921215
 30
0.0
 11
1572.50008454194
 21
184.3633365921215
 31
0.0
  0
LWPOLYLINE
  5
3F5
330
1F
100
AcDbEntity
  8
0-B
  6
Continuous
 62
     7
370
     9
100
AcDbPolyline
 90
        4
 70
     1
 43
6.0
 10
1275.50008454194
 20
184.3633365921215
 42
0.4142135623731
 10
1272.50008454194
 20
187.3633365921215
 42
0.4142135623731
 10
1269.50008454194
 20
184.3633365921215
 42
0.4142135623731
 10
1272.50008454194
 20
181.3633365921215
 42
0.4142135623731
  0
LWPOLYLINE
  5
3F6
330
1F
100
AcDbEntity
  8
0-B
  6
Continuous
 62
     7
370
     9
100
AcDbPolyline
 90
        4
 70
     1
 43
6.0
 10
1575.50008454194
 20
184.3633365921215
 42
0.4142135623731
 10
1572.50008454194
 20
187.3633365921215
 42
0.4142135623731
 10
1569.50008454194
 20
184.3633365921215
 42
0.4142135623731
 10
1572.50008454194
 20
181.3633365921215
 42
0.4142135623731
  0
LINE
  5
3F7
330
1F
100
AcDbEntity
  8
0-B
  6
Continuous
 62
   120
370
     5
100
AcDbLine
 10
1272.50008454194
 20
184.3633365921215
 30
0.0
 11
1272.50008454194
 21
259.3633365921215
 31
0.0
  0
LINE
  5
3F8
330
1F
100
AcDbEntity
  8
0-B
  6
Continuous
 62
   120
370
     5
100
AcDbLine
 10
1572.50008454194
 20
184.3633365921215
 30
0.0
 11
1572.50008454194
 21
259.3633365921215
 31
0.0
  0
TEXT
  5
3F9
330
1F
100
AcDbEntity
  8
0-B
  6
Continuous
 62
     7
370
   211
100
AcDbText
 10
1377.50008454194
 20
212.0533365921215
 30
0.0
 40
68.58
  1
20
  7
ＭＳ ゴシック
100
AcDbText
  0
LINE
  5
3FA
330
1F
100
AcDbEntity
  8
0-B
  6
Continuous
 62
   120
370
     5
100
AcDbLine
 10
2922.50008454194
 20
184.3633365921215
 30
0.0
 11
3072.50008454194
 21
184.3633365921215
 31
0.0
  0
LWPOLYLINE
  5
3FB
330
1F
100
AcDbEntity
  8
0-B
  6
Continuous
 62
     7
370
     9
100
AcDbPolyline
 90
        4
 70
     1
 43
6.0
 10
2925.50008454194
 20
184.3633365921215
 42
0.4142135623731
 10
2922.50008454194
 20
187.3633365921215
 42
0.4142135623731
 10
2919.50008454194
 20
184.3633365921215
 42
0.4142135623731
 10
2922.50008454194
 20
181.3633365921215
 42
0.4142135623731
  0
LWPOLYLINE
  5
3FC
330
1F
100
AcDbEntity
  8
0-B
  6
Continuous
 62
     7
370
     9
100
AcDbPolyline
 90
        4
 70
     1
 43
6.0
 10
3075.50008454194
 20
184.3633365921215
 42
0.4142135623731
 10
3072.50008454194
 20
187.3633365921215
 42
0.4142135623731
 10
3069.50008454194
 20
184.3633365921215
 42
0.4142135623731
 10
3072.50008454194
 20
181.3633365921215
 42
0.4142135623731
  0
LINE
  5
3FD
330
1F
100
AcDbEntity
  8
0-B
  6
Continuous
 62
   120
370
     5
100
AcDbLine
 10
2922.50008454194
 20
184.3633365921215
 30
0.0
 11
2922.50008454194
 21
259.3633365921215
 31
0.0
  0
LINE
  5
3FE
330
1F
100
AcDbEntity
  8
0-B
  6
Continuous
 62
   120
370
     5
100
AcDbLine
 10
3072.50008454194
 20
184.3633365921215
 30
0.0
 11
3072.50008454194
 21
259.3633365921215
 31
0.0
  0
TEXT
  5
3FF
330
1F
100
AcDbEntity
  8
0-B
  6
Continuous
 62
     7
370
   211
100
AcDbText
 10
2952.50008454194
 20
212.0533365921215
 30
0.0
 40
68.58
  1
10
  7
ＭＳ ゴシック
100
AcDbText
  0
LINE
  5
400
330
1F
100
AcDbEntity
  8
0-B
  6
Continuous
 62
   120
370
     5
100
AcDbLine
 10
1272.50008454194
 20
1434.363416494564
 30
0.0
 11
1572.50008454194
 21
1434.363416494564
 31
0.0
  0
LWPOLYLINE
  5
401
330
1F
100
AcDbEntity
  8
0-B
  6
Continuous
 62
     7
370
     9
100
AcDbPolyline
 90
        4
 70
     1
 43
6.0
 10
1275.50008454194
 20
1434.363416494564
 42
0.4142135623731
 10
1272.50008454194
 20
1437.363416494564
 42
0.4142135623731
 10
1269.50008454194
 20
1434.363416494564
 42
0.4142135623731
 10
1272.50008454194
 20
1431.363416494564
 42
0.4142135623731
  0
LWPOLYLINE
  5
402
330
1F
100
AcDbEntity
  8
0-B
  6
Continuous
 62
     7
370
     9
100
AcDbPolyline
 90
        4
 70
     1
 43
6.0
 10
1575.50008454194
 20
1434.363416494564
 42
0.4142135623731
 10
1572.50008454194
 20
1437.363416494564
 42
0.4142135623731
 10
1569.50008454194
 20
1434.363416494564
 42
0.4142135623731
 10
1572.50008454194
 20
1431.363416494564
 42
0.4142135623731
  0
LINE
  5
403
330
1F
100
AcDbEntity
  8
0-B
  6
Continuous
 62
   120
370
     5
100
AcDbLine
 10
1272.50008454194
 20
1434.363416494564
 30
0.0
 11
1272.50008454194
 21
1509.363416494564
 31
0.0
  0
LINE
  5
404
330
1F
100
AcDbEntity
  8
0-B
  6
Continuous
 62
   120
370
     5
100
AcDbLine
 10
1572.50008454194
 20
1434.363416494564
 30
0.0
 11
1572.50008454194
 21
1509.363416494564
 31
0.0
  0
TEXT
  5
405
330
1F
100
AcDbEntity
  8
0-B
  6
Continuous
 62
     7
370
   211
100
AcDbText
 10
1377.50008454194
 20
1462.053416494564
 30
0.0
 40
68.58
  1
20
  7
ＭＳ ゴシック
100
AcDbText
  0
LINE
  5
406
330
1F
100
AcDbEntity
  8
0-B
  6
Continuous
 62
   120
370
     5
100
AcDbLine
 10
2922.50008454194
 20
1434.363416494564
 30
0.0
 11
3072.50008454194
 21
1434.363416494564
 31
0.0
  0
LWPOLYLINE
  5
407
330
1F
100
AcDbEntity
  8
0-B
  6
Continuous
 62
     7
370
     9
100
AcDbPolyline
 90
        4
 70
     1
 43
6.0
 10
2925.50008454194
 20
1434.363416494564
 42
0.4142135623731
 10
2922.50008454194
 20
1437.363416494564
 42
0.4142135623731
 10
2919.50008454194
 20
1434.363416494564
 42
0.4142135623731
 10
2922.50008454194
 20
1431.363416494564
 42
0.4142135623731
  0
LWPOLYLINE
  5
408
330
1F
100
AcDbEntity
  8
0-B
  6
Continuous
 62
     7
370
     9
100
AcDbPolyline
 90
        4
 70
     1
 43
6.0
 10
3075.50008454194
 20
1434.363416494564
 42
0.4142135623731
 10
3072.50008454194
 20
1437.363416494564
 42
0.4142135623731
 10
3069.50008454194
 20
1434.363416494564
 42
0.4142135623731
 10
3072.50008454194
 20
1431.363416494564
 42
0.4142135623731
  0
LINE
  5
409
330
1F
100
AcDbEntity
  8
0-B
  6
Continuous
 62
   120
370
     5
100
AcDbLine
 10
2922.50008454194
 20
1434.363416494564
 30
0.0
 11
2922.50008454194
 21
1509.363416494564
 31
0.0
  0
LINE
  5
40A
330
1F
100
AcDbEntity
  8
0-B
  6
Continuous
 62
   120
370
     5
100
AcDbLine
 10
3072.50008454194
 20
1434.363416494564
 30
0.0
 11
3072.50008454194
 21
1509.363416494564
 31
0.0
  0
TEXT
  5
40B
330
1F
100
AcDbEntity
  8
0-B
  6
Continuous
 62
     7
370
   211
100
AcDbText
 10
2952.50008454194
 20
1462.053416494564
 30
0.0
 40
68.58
  1
10
  7
ＭＳ ゴシック
100
AcDbText
  0
LINE
  5
40C
330
1F
100
AcDbEntity
  8
0-B
  6
Continuous
 62
   120
370
     5
100
AcDbLine
 10
1272.501012441275
 20
2684.363496397006
 30
0.0
 11
1572.501012441275
 21
2684.363496397006
 31
0.0
  0
LWPOLYLINE
  5
40D
330
1F
100
AcDbEntity
  8
0-B
  6
Continuous
 62
     7
370
     9
100
AcDbPolyline
 90
        4
 70
     1
 43
6.0
 10
1275.501012441275
 20
2684.363496397006
 42
0.4142135623731
 10
1272.501012441275
 20
2687.363496397006
 42
0.4142135623731
 10
1269.501012441275
 20
2684.363496397006
 42
0.4142135623731
 10
1272.501012441275
 20
2681.363496397006
 42
0.4142135623731
  0
LWPOLYLINE
  5
40E
330
1F
100
AcDbEntity
  8
0-B
  6
Continuous
 62
     7
370
     9
100
AcDbPolyline
 90
        4
 70
     1
 43
6.0
 10
1575.501012441275
 20
2684.363496397006
 42
0.4142135623731
 10
1572.501012441275
 20
2687.363496397006
 42
0.4142135623731
 10
1569.501012441275
 20
2684.363496397006
 42
0.4142135623731
 10
1572.501012441275
 20
2681.363496397006
 42
0.4142135623731
  0
LINE
  5
40F
330
1F
100
AcDbEntity
  8
0-B
  6
Continuous
 62
   120
370
     5
100
AcDbLine
 10
1272.501012441275
 20
2684.363496397006
 30
0.0
 11
1272.501012441275
 21
2759.363496397006
 31
0.0
  0
LINE
  5
410
330
1F
100
AcDbEntity
  8
0-B
  6
Continuous
 62
   120
370
     5
100
AcDbLine
 10
1572.501012441275
 20
2684.363496397006
 30
0.0
 11
1572.501012441275
 21
2759.363496397006
 31
0.0
  0
TEXT
  5
411
330
1F
100
AcDbEntity
  8
0-B
  6
Continuous
 62
     7
370
   211
100
AcDbText
 10
1377.501012441275
 20
2712.053496397006
 30
0.0
 40
68.58
  1
20
  7
ＭＳ ゴシック
100
AcDbText
  0
LINE
  5
412
330
1F
100
AcDbEntity
  8
0-B
  6
Continuous
 62
   120
370
     5
100
AcDbLine
 10
2922.501012441275
 20
2684.363496397006
 30
0.0
 11
3072.501012441275
 21
2684.363496397006
 31
0.0
  0
LWPOLYLINE
  5
413
330
1F
100
AcDbEntity
  8
0-B
  6
Continuous
 62
     7
370
     9
100
AcDbPolyline
 90
        4
 70
     1
 43
6.0
 10
2925.501012441275
 20
2684.363496397006
 42
0.4142135623731
 10
2922.501012441275
 20
2687.363496397006
 42
0.4142135623731
 10
2919.501012441275
 20
2684.363496397006
 42
0.4142135623731
 10
2922.501012441275
 20
2681.363496397006
 42
0.4142135623731
  0
LWPOLYLINE
  5
414
330
1F
100
AcDbEntity
  8
0-B
  6
Continuous
 62
     7
370
     9
100
AcDbPolyline
 90
        4
 70
     1
 43
6.0
 10
3075.501012441275
 20
2684.363496397006
 42
0.4142135623731
 10
3072.501012441275
 20
2687.363496397006
 42
0.4142135623731
 10
3069.501012441275
 20
2684.363496397006
 42
0.4142135623731
 10
3072.501012441275
 20
2681.363496397006
 42
0.4142135623731
  0
LINE
  5
415
330
1F
100
AcDbEntity
  8
0-B
  6
Continuous
 62
   120
370
     5
100
AcDbLine
 10
2922.501012441275
 20
2684.363496397006
 30
0.0
 11
2922.501012441275
 21
2759.363496397006
 31
0.0
  0
LINE
  5
416
330
1F
100
AcDbEntity
  8
0-B
  6
Continuous
 62
   120
370
     5
100
AcDbLine
 10
3072.501012441275
 20
2684.363496397006
 30
0.0
 11
3072.501012441275
 21
2759.363496397006
 31
0.0
  0
TEXT
  5
417
330
1F
100
AcDbEntity
  8
0-B
  6
Continuous
 62
     7
370
   211
100
AcDbText
 10
2952.501012441275
 20
2712.053496397006
 30
0.0
 40
68.58
  1
10
  7
ＭＳ ゴシック
100
AcDbText
  0
TEXT
  5
418
330
1F
100
AcDbEntity
  8
F-A
  6
Continuous
 62
     7
370
     9
100
AcDbText
 10
4936.24903358083
 20
-4127.314512699985
 30
0.0
 40
68.58
  1
03
 41
1.083333333333333
  7
ＭＳ ゴシック
100
AcDbText
  0
ENDSEC
  0
SECTION
  2
OBJECTS
  0
DICTIONARY
  5
C
330
0
100
AcDbDictionary
281
     1
  3
ACAD_DETAILVIEWSTYLE
350
450
  3
ACAD_GROUP
350
D
  3
ACAD_LAYOUT
350
1A
  3
ACAD_MATERIAL
350
43
  3
ACAD_MLEADERSTYLE
350
6B
  3
ACAD_MLINESTYLE
350
17
  3
ACAD_PLOTSETTINGS
350
19
  3
ACAD_PLOTSTYLENAME
350
E
  3
ACAD_SCALELIST
350
47
  3
ACAD_SECTIONVIEWSTYLE
350
451
  3
ACAD_TABLESTYLE
350
69
  3
ACAD_VISUALSTYLE
350
2A
  3
ACDB_RECOMPOSE_DATA
350
44D
  3
AcDbVariableDictionary
350
419
  0
SUN
  5
6D
330
29
100
AcDbSun
 90
        1
290
     0
 63
     7
421
 16777215
 40
1.0
291
     1
 91
  2455826
 92
 54000000
292
     0
 70
     2
 71
   256
280
     1
  0
DICTIONARY
  5
450
102
{ACAD_REACTORS
330
C
102
}
330
C
100
AcDbDictionary
281
     1
  0
DICTIONARY
  5
D
102
{ACAD_REACTORS
330
C
102
}
330
C
100
AcDbDictionary
281
     1
  0
DICTIONARY
  5
1A
102
{ACAD_REACTORS
330
C
102
}
330
C
100
AcDbDictionary
281
     1
  3
Layout1
350
1E
  3
Layout2
350
26
  3
Model
350
22
  0
DICTIONARY
  5
43
102
{ACAD_REACTORS
330
C
102
}
330
C
100
AcDbDictionary
281
     1
  3
ByBlock
350
45
  3
ByLayer
350
44
  3
Global
350
46
  0
DICTIONARY
  5
6B
102
{ACAD_REACTORS
330
C
102
}
330
C
100
AcDbDictionary
281
     1
  3
Standard
350
6C
  0
DICTIONARY
  5
17
102
{ACAD_REACTORS
330
C
102
}
330
C
100
AcDbDictionary
281
     1
  3
Standard
350
18
  0
DICTIONARY
  5
19
102
{ACAD_REACTORS
330
C
102
}
330
C
100
AcDbDictionary
281
     1
  0
ACDBDICTIONARYWDFLT
  5
E
102
{ACAD_REACTORS
330
C
102
}
330
C
100
AcDbDictionary
281
     1
  3
Normal
350
F
100
AcDbDictionaryWithDefault
340
F
  0
DICTIONARY
  5
47
102
{ACAD_REACTORS
330
C
102
}
330
C
100
AcDbDictionary
281
     1
  3
A0
350
48
  3
A1
350
49
  3
A2
350
4A
  3
A3
350
4B
  3
A4
350
4C
  3
A5
350
4D
  3
A6
350
4E
  3
A7
350
4F
  3
A8
350
50
  3
A9
350
51
  3
B0
350
52
  3
B1
350
53
  3
B2
350
54
  3
B3
350
55
  3
B4
350
56
  3
B5
350
57
  3
B6
350
58
  3
B7
350
59
  3
B8
350
5A
  3
B9
350
5B
  3
C0
350
5C
  3
C1
350
5D
  3
C2
350
5E
  3
C3
350
5F
  3
C4
350
60
  3
C5
350
61
  3
C6
350
62
  3
C7
350
63
  3
C8
350
64
  3
C9
350
65
  3
D0
350
66
  3
D1
350
67
  3
D2
350
68
  0
DICTIONARY
  5
451
102
{ACAD_REACTORS
330
C
102
}
330
C
100
AcDbDictionary
281
     1
  0
DICTIONARY
  5
69
102
{ACAD_REACTORS
330
C
102
}
330
C
100
AcDbDictionary
281
     1
  3
Standard
350
6A
  0
DICTIONARY
  5
2A
102
{ACAD_REACTORS
330
C
102
}
330
C
100
AcDbDictionary
281
     1
  3
2dWireframe
350
2F
  3
Basic
350
32
  3
Brighten
350
36
  3
ColorChange
350
3A
  3
Conceptual
350
34
  3
Dim
350
35
  3
EdgeColorOff
350
3D
  3
Facepattern
350
39
  3
Flat
350
2B
  3
FlatWithEdges
350
2C
  3
Gouraud
350
2D
  3
GouraudWithEdges
350
2E
  3
Hidden
350
31
  3
JitterOff
350
3B
  3
Linepattern
350
38
  3
OverhangOff
350
3C
  3
Realistic
350
33
  3
Shaded
350
42
  3
Shaded with edges
350
41
  3
Shades of Gray
350
3E
  3
Sketchy
350
3F
  3
Thicken
350
37
  3
Wireframe
350
30
  3
X-Ray
350
40
  0
XRECORD
  5
44D
102
{ACAD_REACTORS
330
C
102
}
330
C
100
AcDbXrecord
280
     1
 90
        1
330
6A
  0
DICTIONARY
  5
419
102
{ACAD_REACTORS
330
C
102
}
330
C
100
AcDbDictionary
281
     1
  3
CANNOSCALE
350
41A
  3
CENTEREXE
350
452
  3
CENTERLTYPEFILE
350
453
  3
CMLEADERSTYLE
350
44F
  3
CTABLESTYLE
350
44E
  0
LAYOUT
  5
1E
102
{ACAD_REACTORS
330
1A
102
}
330
1A
100
AcDbPlotSettings
  1

  2
none_device
  4

  6

 40
0.0
 41
0.0
 42
0.0
 43
0.0
 44
0.0
 45
0.0
 46
0.0
 47
0.0
 48
0.0
 49
0.0
140
0.0
141
0.0
142
1.0
143
1.0
 70
   688
 72
     1
 73
     0
 74
     5
  7

 75
    16
 76
     0
 77
     5
 78
   300
147
1.0
148
0.0
149
0.0
100
AcDbLayout
  1
Layout1
 70
     1
 71
     1
 10
0.0
 20
0.0
 11
420.0
 21
297.0
 12
0.0
 22
0.0
 32
0.0
 14
1.000000000000000E+20
 24
1.000000000000000E+20
 34
1.000000000000000E+20
 15
-1.000000000000000E+20
 25
-1.000000000000000E+20
 35
-1.000000000000000E+20
146
0.0
 13
0.0
 23
0.0
 33
0.0
 16
1.0
 26
0.0
 36
0.0
 17
0.0
 27
1.0
 37
0.0
 76
     0
330
1B
  0
LAYOUT
  5
26
102
{ACAD_REACTORS
330
1A
102
}
330
1A
100
AcDbPlotSettings
  1

  2
none_device
  4

  6

 40
0.0
 41
0.0
 42
0.0
 43
0.0
 44
0.0
 45
0.0
 46
0.0
 47
0.0
 48
0.0
 49
0.0
140
0.0
141
0.0
142
1.0
143
1.0
 70
   688
 72
     1
 73
     0
 74
     5
  7

 75
    16
 76
     0
 77
     5
 78
   300
147
1.0
148
0.0
149
0.0
100
AcDbLayout
  1
Layout2
 70
     1
 71
     2
 10
0.0
 20
0.0
 11
0.0
 21
0.0
 12
0.0
 22
0.0
 32
0.0
 14
0.0
 24
0.0
 34
0.0
 15
0.0
 25
0.0
 35
0.0
146
0.0
 13
0.0
 23
0.0
 33
0.0
 16
1.0
 26
0.0
 36
0.0
 17
0.0
 27
1.0
 37
0.0
 76
     0
330
23
  0
LAYOUT
  5
22
102
{ACAD_REACTORS
330
1A
102
}
330
1A
100
AcDbPlotSettings
  1

  2
none_device
  4
Letter_(8.50_x_11.00_Inches)
  6

 40
6.35
 41
6.35
 42
6.35000508
 43
6.35000508
 44
215.9
 45
279.4
 46
0.0
 47
0.0
 48
0.0
 49
0.0
140
0.0
141
0.0
142
1.0
143
1.0
 70
  1712
 72
     1
 73
     0
 74
     0
  7

 75
     0
 76
     0
 77
     5
 78
   300
147
1.0
148
0.0
149
0.0
100
AcDbLayout
  1
Model
 70
     1
 71
     0
 10
-6300.0
 20
-4455.0
 11
6300.0
 21
4455.0
 12
0.0
 22
0.0
 32
0.0
 14
-6300.0
 24
-4455.0
 34
0.0
 15
6300.0
 25
4455.0
 35
0.0
146
0.0
 13
0.0
 23
0.0
 33
0.0
 16
1.0
 26
0.0
 36
0.0
 17
0.0
 27
1.0
 37
0.0
 76
     0
330
1F
331
29
  0
MATERIAL
  5
45
102
{ACAD_REACTORS
330
43
102
}
330
43
100
AcDbMaterial
  1
ByBlock
 72
     1
 94
      127
  0
MATERIAL
  5
44
102
{ACAD_REACTORS
330
43
102
}
330
43
100
AcDbMaterial
  1
ByLayer
 72
     1
 94
      127
  0
MATERIAL
  5
46
102
{ACAD_REACTORS
330
43
102
}
330
43
100
AcDbMaterial
  1
Global
 72
     1
 94
      127
  0
MLEADERSTYLE
  5
6C
102
{ACAD_REACTORS
330
6B
102
}
330
6B
100
AcDbMLeaderStyle
179
     2
170
     2
171
     1
172
     0
 90
        2
 40
0.0
 41
0.0
173
     1
 91
-1056964608
340
14
 92
       -2
290
     1
 42
2.0
291
     1
 43
8.0
  3
Standard
341
0
 44
4.0
300

342
11
174
     1
178
     6
175
     1
176
     0
 93
-1056964608
 45
4.0
292
     0
297
     0
 46
4.0
343
0
 94
-1056964608
 47
1.0
 49
1.0
140
1.0
293
     1
141
0.0
294
     1
177
     0
142
1.0
295
     0
296
     0
143
3.75
271
     0
272
     9
273
     9
  0
MLINESTYLE
  5
18
102
{ACAD_REACTORS
330
17
102
}
330
17
100
AcDbMlineStyle
  2
Standard
 70
     0
  3

 62
   256
 51
90.0
 52
90.0
 71
     2
 49
0.5
 62
   256
  6
BYLAYER
 49
-0.5
 62
   256
  6
BYLAYER
  0
ACDBPLACEHOLDER
  5
F
102
{ACAD_REACTORS
330
E
102
}
330
E
  0
SCALE
  5
48
102
{ACAD_REACTORS
330
47
102
}
330
47
100
AcDbScale
 70
     0
300
1:1
140
1.0
141
1.0
290
     1
  0
SCALE
  5
49
102
{ACAD_REACTORS
330
47
102
}
330
47
100
AcDbScale
 70
     0
300
1:2
140
1.0
141
2.0
290
     0
  0
SCALE
  5
4A
102
{ACAD_REACTORS
330
47
102
}
330
47
100
AcDbScale
 70
     0
300
1:4
140
1.0
141
4.0
290
     0
  0
SCALE
  5
4B
102
{ACAD_REACTORS
330
47
102
}
330
47
100
AcDbScale
 70
     0
300
1:5
140
1.0
141
5.0
290
     0
  0
SCALE
  5
4C
102
{ACAD_REACTORS
330
47
102
}
330
47
100
AcDbScale
 70
     0
300
1:8
140
1.0
141
8.0
290
     0
  0
SCALE
  5
4D
102
{ACAD_REACTORS
330
47
102
}
330
47
100
AcDbScale
 70
     0
300
1:10
140
1.0
141
10.0
290
     0
  0
SCALE
  5
4E
102
{ACAD_REACTORS
330
47
102
}
330
47
100
AcDbScale
 70
     0
300
1:16
140
1.0
141
16.0
290
     0
  0
SCALE
  5
4F
102
{ACAD_REACTORS
330
47
102
}
330
47
100
AcDbScale
 70
     0
300
1:20
140
1.0
141
20.0
290
     0
  0
SCALE
  5
50
102
{ACAD_REACTORS
330
47
102
}
330
47
100
AcDbScale
 70
     0
300
1:30
140
1.0
141
30.0
290
     0
  0
SCALE
  5
51
102
{ACAD_REACTORS
330
47
102
}
330
47
100
AcDbScale
 70
     0
300
1:40
140
1.0
141
40.0
290
     0
  0
SCALE
  5
52
102
{ACAD_REACTORS
330
47
102
}
330
47
100
AcDbScale
 70
     0
300
1:50
140
1.0
141
50.0
290
     0
  0
SCALE
  5
53
102
{ACAD_REACTORS
330
47
102
}
330
47
100
AcDbScale
 70
     0
300
1:100
140
1.0
141
100.0
290
     0
  0
SCALE
  5
54
102
{ACAD_REACTORS
330
47
102
}
330
47
100
AcDbScale
 70
     0
300
2:1
140
2.0
141
1.0
290
     0
  0
SCALE
  5
55
102
{ACAD_REACTORS
330
47
102
}
330
47
100
AcDbScale
 70
     0
300
4:1
140
4.0
141
1.0
290
     0
  0
SCALE
  5
56
102
{ACAD_REACTORS
330
47
102
}
330
47
100
AcDbScale
 70
     0
300
8:1
140
8.0
141
1.0
290
     0
  0
SCALE
  5
57
102
{ACAD_REACTORS
330
47
102
}
330
47
100
AcDbScale
 70
     0
300
10:1
140
10.0
141
1.0
290
     0
  0
SCALE
  5
58
102
{ACAD_REACTORS
330
47
102
}
330
47
100
AcDbScale
 70
     0
300
100:1
140
100.0
141
1.0
290
     0
  0
SCALE
  5
59
102
{ACAD_REACTORS
330
47
102
}
330
47
100
AcDbScale
 70
     0
300
1/128" = 1'-0"
140
0.0078125
141
12.0
290
     0
  0
SCALE
  5
5A
102
{ACAD_REACTORS
330
47
102
}
330
47
100
AcDbScale
 70
     0
300
1/64" = 1'-0"
140
0.015625
141
12.0
290
     0
  0
SCALE
  5
5B
102
{ACAD_REACTORS
330
47
102
}
330
47
100
AcDbScale
 70
     0
300
1/32" = 1'-0"
140
0.03125
141
12.0
290
     0
  0
SCALE
  5
5C
102
{ACAD_REACTORS
330
47
102
}
330
47
100
AcDbScale
 70
     0
300
1/16" = 1'-0"
140
0.0625
141
12.0
290
     0
  0
SCALE
  5
5D
102
{ACAD_REACTORS
330
47
102
}
330
47
100
AcDbScale
 70
     0
300
3/32" = 1'-0"
140
0.09375
141
12.0
290
     0
  0
SCALE
  5
5E
102
{ACAD_REACTORS
330
47
102
}
330
47
100
AcDbScale
 70
     0
300
1/8" = 1'-0"
140
0.125
141
12.0
290
     0
  0
SCALE
  5
5F
102
{ACAD_REACTORS
330
47
102
}
330
47
100
AcDbScale
 70
     0
300
3/16" = 1'-0"
140
0.1875
141
12.0
290
     0
  0
SCALE
  5
60
102
{ACAD_REACTORS
330
47
102
}
330
47
100
AcDbScale
 70
     0
300
1/4" = 1'-0"
140
0.25
141
12.0
290
     0
  0
SCALE
  5
61
102
{ACAD_REACTORS
330
47
102
}
330
47
100
AcDbScale
 70
     0
300
3/8" = 1'-0"
140
0.375
141
12.0
290
     0
  0
SCALE
  5
62
102
{ACAD_REACTORS
330
47
102
}
330
47
100
AcDbScale
 70
     0
300
1/2" = 1'-0"
140
0.5
141
12.0
290
     0
  0
SCALE
  5
63
102
{ACAD_REACTORS
330
47
102
}
330
47
100
AcDbScale
 70
     0
300
3/4" = 1'-0"
140
0.75
141
12.0
290
     0
  0
SCALE
  5
64
102
{ACAD_REACTORS
330
47
102
}
330
47
100
AcDbScale
 70
     0
300
1" = 1'-0"
140
1.0
141
12.0
290
     0
  0
SCALE
  5
65
102
{ACAD_REACTORS
330
47
102
}
330
47
100
AcDbScale
 70
     0
300
1-1/2" = 1'-0"
140
1.5
141
12.0
290
     0
  0
SCALE
  5
66
102
{ACAD_REACTORS
330
47
102
}
330
47
100
AcDbScale
 70
     0
300
3" = 1'-0"
140
3.0
141
12.0
290
     0
  0
SCALE
  5
67
102
{ACAD_REACTORS
330
47
102
}
330
47
100
AcDbScale
 70
     0
300
6" = 1'-0"
140
6.0
141
12.0
290
     0
  0
SCALE
  5
68
102
{ACAD_REACTORS
330
47
102
}
330
47
100
AcDbScale
 70
     0
300
1'-0" = 1'-0"
140
12.0
141
12.0
290
     0
  0
TABLESTYLE
  5
6A
102
{ACAD_REACTORS
330
69
102
}
102
{ACAD_XDICTIONARY
360
44B
102
}
330
69
100
AcDbTableStyle
  3
Standard
 70
     0
 71
     0
 40
0.06
 41
0.06
280
     0
281
     0
  7
Standard
140
4.5
170
     2
 62
     0
 63
   257
283
     0
 90
        4
 91
        0
  1

274
    -2
284
     1
 64
     0
275
    -2
285
     1
 65
     0
276
    -2
286
     1
 66
     0
277
    -2
287
     1
 67
     0
278
    -2
288
     1
 68
     0
279
    -2
289
     1
 69
     0
  7
Standard
140
6.0
170
     5
 62
     0
 63
   257
283
     0
 90
        4
 91
        0
  1

274
    -2
284
     1
 64
     0
275
    -2
285
     1
 65
     0
276
    -2
286
     1
 66
     0
277
    -2
287
     1
 67
     0
278
    -2
288
     1
 68
     0
279
    -2
289
     1
 69
     0
  7
Standard
140
4.5
170
     5
 62
     0
 63
   257
283
     0
 90
        4
 91
        0
  1

274
    -2
284
     1
 64
     0
275
    -2
285
     1
 65
     0
276
    -2
286
     1
 66
     0
277
    -2
287
     1
 67
     0
278
    -2
288
     1
 68
     0
279
    -2
289
     1
 69
     0
  0
VISUALSTYLE
  5
2F
102
{ACAD_REACTORS
330
2A
102
}
102
{ACAD_XDICTIONARY
360
423
102
}
330
2A
100
AcDbVisualStyle
  2
2dWireframe
 70
     4
177
     2
291
     0
 71
     0
176
     1
 72
     2
176
     1
 73
     0
176
     1
 90
        0
176
     1
 40
0.6
176
     1
 41
30.0
176
     1
 62
     5
 63
     7
421
 16777215
176
     1
 74
     1
176
     1
 91
        4
176
     1
 64
     7
176
     1
 65
   257
176
     1
 75
     1
176
     1
175
     1
176
     1
 42
1.0
176
     1
 92
        0
176
     1
 66
   257
176
     1
 43
1.0
176
     1
 76
     1
176
     1
 77
     6
176
     1
 78
     2
176
     1
 67
     7
176
     1
 79
     5
176
     1
170
     0
176
     1
171
     0
176
     1
290
     0
176
     1
 93
        1
176
     1
 44
0.0
176
     1
173
     0
176
     1
  0
VISUALSTYLE
  5
32
102
{ACAD_REACTORS
330
2A
102
}
102
{ACAD_XDICTIONARY
360
429
102
}
330
2A
100
AcDbVisualStyle
  2
Basic
 70
     7
177
     2
291
     1
 71
     1
176
     1
 72
     0
176
     1
 73
     1
176
     1
 90
        0
176
     1
 40
0.6
176
     1
 41
30.0
176
     1
 62
     5
 63
     7
421
 16777215
176
     1
 74
     0
176
     1
 91
        4
176
     1
 64
     7
176
     1
 65
   257
176
     1
 75
     1
176
     1
175
     1
176
     1
 42
1.0
176
     1
 92
        8
176
     1
 66
     7
176
     1
 43
1.0
176
     1
 76
     1
176
     1
 77
     6
176
     1
 78
     2
176
     1
 67
     7
176
     1
 79
     5
176
     1
170
     0
176
     1
171
     0
176
     1
290
     0
176
     1
 93
        1
176
     1
 44
0.0
176
     1
173
     0
176
     1
  0
VISUALSTYLE
  5
36
102
{ACAD_REACTORS
330
2A
102
}
102
{ACAD_XDICTIONARY
360
431
102
}
330
2A
100
AcDbVisualStyle
  2
Brighten
 70
    12
177
     2
291
     1
 71
     2
176
     1
 72
     2
176
     1
 73
     0
176
     1
 90
        0
176
     1
 40
0.6
176
     1
 41
30.0
176
     1
 62
     5
 63
     7
421
 16777215
176
     1
 74
     1
176
     1
 91
        4
176
     1
 64
     7
176
     1
 65
   257
176
     1
 75
     1
176
     1
175
     1
176
     1
 42
1.0
176
     1
 92
        8
176
     1
 66
     7
176
     1
 43
1.0
176
     1
 76
     1
176
     1
 77
     6
176
     1
 78
     2
176
     1
 67
     7
176
     1
 79
     5
176
     1
170
     0
176
     1
171
     0
176
     1
290
     0
176
     1
 93
        1
176
     1
 44
50.0
176
     1
173
     0
176
     1
  0
VISUALSTYLE
  5
3A
102
{ACAD_REACTORS
330
2A
102
}
102
{ACAD_XDICTIONARY
360
439
102
}
330
2A
100
AcDbVisualStyle
  2
ColorChange
 70
    16
177
     2
291
     1
 71
     2
176
     1
 72
     2
176
     1
 73
     3
176
     1
 90
        0
176
     1
 40
0.6
176
     1
 41
30.0
176
     1
 62
     5
 63
     8
421
  8421504
176
     1
 74
     1
176
     1
 91
        4
176
     1
 64
     7
176
     1
 65
   257
176
     1
 75
     1
176
     1
175
     1
176
     1
 42
1.0
176
     1
 92
        8
176
     1
 66
     8
424
  8421504
176
     1
 43
1.0
176
     1
 76
     1
176
     1
 77
     6
176
     1
 78
     2
176
     1
 67
     7
176
     1
 79
     5
176
     1
170
     0
176
     1
171
     0
176
     1
290
     0
176
     1
 93
        1
176
     1
 44
0.0
176
     1
173
     0
176
     1
  0
VISUALSTYLE
  5
34
102
{ACAD_REACTORS
330
2A
102
}
102
{ACAD_XDICTIONARY
360
42D
102
}
330
2A
100
AcDbVisualStyle
  2
Conceptual
 70
     9
177
     2
291
     0
 71
     3
176
     1
 72
     2
176
     1
 73
     0
176
     1
 90
        0
176
     1
 40
0.6
176
     1
 41
30.0
176
     1
 62
     5
 63
     7
421
 16777215
176
     1
 74
     2
176
     1
 91
        2
176
     1
 64
     7
176
     1
 65
   257
176
     1
 75
     1
176
     1
175
     1
176
     1
 42
179.0
176
     1
 92
        8
176
     1
 66
     7
176
     1
 43
1.0
176
     1
 76
     1
176
     1
 77
     6
176
     1
 78
     2
176
     1
 67
     7
176
     1
 79
     3
176
     1
170
     0
176
     1
171
     0
176
     1
290
     0
176
     1
 93
        1
176
     1
 44
0.0
176
     1
173
     0
176
     1
  0
VISUALSTYLE
  5
35
102
{ACAD_REACTORS
330
2A
102
}
102
{ACAD_XDICTIONARY
360
42F
102
}
330
2A
100
AcDbVisualStyle
  2
Dim
 70
    11
177
     2
291
     1
 71
     2
176
     1
 72
     2
176
     1
 73
     0
176
     1
 90
        0
176
     1
 40
0.6
176
     1
 41
30.0
176
     1
 62
     5
 63
     7
421
 16777215
176
     1
 74
     1
176
     1
 91
        4
176
     1
 64
     7
176
     1
 65
   257
176
     1
 75
     1
176
     1
175
     1
176
     1
 42
1.0
176
     1
 92
        8
176
     1
 66
     7
176
     1
 43
1.0
176
     1
 76
     1
176
     1
 77
     6
176
     1
 78
     2
176
     1
 67
     7
176
     1
 79
     5
176
     1
170
     0
176
     1
171
     0
176
     1
290
     0
176
     1
 93
        1
176
     1
 44
-50.0
176
     1
173
     0
176
     1
  0
VISUALSTYLE
  5
3D
102
{ACAD_REACTORS
330
2A
102
}
102
{ACAD_XDICTIONARY
360
43F
102
}
330
2A
100
AcDbVisualStyle
  2
EdgeColorOff
 70
    22
177
     2
291
     1
 71
     2
176
     0
 72
     2
176
     0
 73
     0
176
     0
 90
        0
176
     0
 40
0.6
176
     0
 41
30.0
176
     0
 62
     5
 63
     7
421
 16777215
176
     0
 74
     1
176
     0
 91
        4
176
     0
 64
     7
176
     0
 65
   257
176
     0
 75
     1
176
     0
175
     1
176
     0
 42
1.0
176
     0
 92
        8
176
     2
 66
     7
176
     0
 43
1.0
176
     0
 76
     1
176
     0
 77
     6
176
     0
 78
     2
176
     0
 67
     7
176
     0
 79
     5
176
     0
170
     0
176
     0
171
     0
176
     0
290
     0
176
     0
 93
        1
176
     0
 44
0.0
176
     0
173
     0
176
     0
  0
VISUALSTYLE
  5
39
102
{ACAD_REACTORS
330
2A
102
}
102
{ACAD_XDICTIONARY
360
437
102
}
330
2A
100
AcDbVisualStyle
  2
Facepattern
 70
    15
177
     2
291
     1
 71
     2
176
     1
 72
     2
176
     1
 73
     0
176
     1
 90
        0
176
     1
 40
0.6
176
     1
 41
30.0
176
     1
 62
     5
 63
     7
421
 16777215
176
     1
 74
     1
176
     1
 91
        4
176
     1
 64
     7
176
     1
 65
   257
176
     1
 75
     1
176
     1
175
     1
176
     1
 42
1.0
176
     1
 92
        8
176
     1
 66
     7
176
     1
 43
1.0
176
     1
 76
     1
176
     1
 77
     6
176
     1
 78
     2
176
     1
 67
     7
176
     1
 79
     5
176
     1
170
     0
176
     1
171
     0
176
     1
290
     0
176
     1
 93
        1
176
     1
 44
0.0
176
     1
173
     0
176
     1
  0
VISUALSTYLE
  5
2B
102
{ACAD_REACTORS
330
2A
102
}
102
{ACAD_XDICTIONARY
360
41B
102
}
330
2A
100
AcDbVisualStyle
  2
Flat
 70
     0
177
     2
291
     1
 71
     2
176
     1
 72
     1
176
     1
 73
     1
176
     1
 90
        2
176
     1
 40
0.6
176
     1
 41
30.0
176
     1
 62
     5
 63
     7
421
 16777215
176
     1
 74
     0
176
     1
 91
        0
176
     1
 64
     7
176
     1
 65
   257
176
     1
 75
     1
176
     1
175
     1
176
     1
 42
1.0
176
     1
 92
        8
176
     1
 66
     7
176
     1
 43
1.0
176
     1
 76
     1
176
     1
 77
     6
176
     1
 78
     2
176
     1
 67
     7
176
     1
 79
     5
176
     1
170
     0
176
     1
171
     0
176
     1
290
     0
176
     1
 93
       13
176
     1
 44
0.0
176
     1
173
     0
176
     1
  0
VISUALSTYLE
  5
2C
102
{ACAD_REACTORS
330
2A
102
}
102
{ACAD_XDICTIONARY
360
41D
102
}
330
2A
100
AcDbVisualStyle
  2
FlatWithEdges
 70
     1
177
     2
291
     1
 71
     2
176
     1
 72
     1
176
     1
 73
     1
176
     1
 90
        2
176
     1
 40
0.6
176
     1
 41
30.0
176
     1
 62
     5
 63
     7
421
 16777215
176
     1
 74
     1
176
     1
 91
        0
176
     1
 64
     7
176
     1
 65
   257
176
     1
 75
     1
176
     1
175
     1
176
     1
 42
1.0
176
     1
 92
        0
176
     1
 66
   257
176
     1
 43
1.0
176
     1
 76
     1
176
     1
 77
     6
176
     1
 78
     2
176
     1
 67
     7
176
     1
 79
     5
176
     1
170
     0
176
     1
171
     0
176
     1
290
     0
176
     1
 93
       13
176
     1
 44
0.0
176
     1
173
     0
176
     1
  0
VISUALSTYLE
  5
2D
102
{ACAD_REACTORS
330
2A
102
}
102
{ACAD_XDICTIONARY
360
41F
102
}
330
2A
100
AcDbVisualStyle
  2
Gouraud
 70
     2
177
     2
291
     1
 71
     2
176
     1
 72
     2
176
     1
 73
     1
176
     1
 90
        2
176
     1
 40
0.6
176
     1
 41
30.0
176
     1
 62
     5
 63
     7
421
 16777215
176
     1
 74
     0
176
     1
 91
        0
176
     1
 64
     7
176
     1
 65
   257
176
     1
 75
     1
176
     1
175
     1
176
     1
 42
1.0
176
     1
 92
        0
176
     1
 66
     7
176
     1
 43
1.0
176
     1
 76
     1
176
     1
 77
     6
176
     1
 78
     2
176
     1
 67
     7
176
     1
 79
     5
176
     1
170
     0
176
     1
171
     0
176
     1
290
     0
176
     1
 93
       13
176
     1
 44
0.0
176
     1
173
     0
176
     1
  0
VISUALSTYLE
  5
2E
102
{ACAD_REACTORS
330
2A
102
}
102
{ACAD_XDICTIONARY
360
421
102
}
330
2A
100
AcDbVisualStyle
  2
GouraudWithEdges
 70
     3
177
     2
291
     1
 71
     2
176
     1
 72
     2
176
     1
 73
     1
176
     1
 90
        2
176
     1
 40
0.6
176
     1
 41
30.0
176
     1
 62
     5
 63
     7
421
 16777215
176
     1
 74
     1
176
     1
 91
        0
176
     1
 64
     7
176
     1
 65
   257
176
     1
 75
     1
176
     1
175
     1
176
     1
 42
1.0
176
     1
 92
        0
176
     1
 66
   257
176
     1
 43
1.0
176
     1
 76
     1
176
     1
 77
     6
176
     1
 78
     2
176
     1
 67
     7
176
     1
 79
     5
176
     1
170
     0
176
     1
171
     0
176
     1
290
     0
176
     1
 93
       13
176
     1
 44
0.0
176
     1
173
     0
176
     1
  0
VISUALSTYLE
  5
31
102
{ACAD_REACTORS
330
2A
102
}
102
{ACAD_XDICTIONARY
360
427
102
}
330
2A
100
AcDbVisualStyle
  2
Hidden
 70
     6
177
     2
291
     0
 71
     1
176
     1
 72
     2
176
     1
 73
     2
176
     1
 90
        0
176
     1
 40
0.6
176
     1
 41
30.0
176
     1
 62
     5
 63
     7
421
 16777215
176
     1
 74
     2
176
     1
 91
        2
176
     1
 64
     7
176
     1
 65
   257
176
     1
 75
     2
176
     1
175
     1
176
     1
 42
40.0
176
     1
 92
        0
176
     1
 66
   257
176
     1
 43
1.0
176
     1
 76
     1
176
     1
 77
     6
176
     1
 78
     2
176
     1
 67
     7
176
     1
 79
     3
176
     1
170
     0
176
     1
171
     0
176
     1
290
     0
176
     1
 93
        1
176
     1
 44
0.0
176
     1
173
     0
176
     1
  0
VISUALSTYLE
  5
3B
102
{ACAD_REACTORS
330
2A
102
}
102
{ACAD_XDICTIONARY
360
43B
102
}
330
2A
100
AcDbVisualStyle
  2
JitterOff
 70
    20
177
     2
291
     1
 71
     2
176
     0
 72
     2
176
     0
 73
     0
176
     0
 90
        0
176
     0
 40
0.6
176
     0
 41
30.0
176
     0
 62
     5
 63
     7
421
 16777215
176
     0
 74
     1
176
     0
 91
        4
176
     0
 64
     7
176
     0
 65
   257
176
     0
 75
     1
176
     0
175
     1
176
     0
 42
1.0
176
     0
 92
       10
176
     2
 66
     7
176
     0
 43
1.0
176
     0
 76
     1
176
     0
 77
     6
176
     0
 78
     2
176
     0
 67
     7
176
     0
 79
     5
176
     0
170
     0
176
     0
171
     0
176
     0
290
     0
176
     0
 93
        1
176
     0
 44
0.0
176
     0
173
     0
176
     0
  0
VISUALSTYLE
  5
38
102
{ACAD_REACTORS
330
2A
102
}
102
{ACAD_XDICTIONARY
360
435
102
}
330
2A
100
AcDbVisualStyle
  2
Linepattern
 70
    14
177
     2
291
     1
 71
     2
176
     1
 72
     2
176
     1
 73
     0
176
     1
 90
        0
176
     1
 40
0.6
176
     1
 41
30.0
176
     1
 62
     5
 63
     7
421
 16777215
176
     1
 74
     1
176
     1
 91
        4
176
     1
 64
     7
176
     1
 65
   257
176
     1
 75
     7
176
     1
175
     7
176
     1
 42
1.0
176
     1
 92
        8
176
     1
 66
     7
176
     1
 43
1.0
176
     1
 76
     1
176
     1
 77
     6
176
     1
 78
     2
176
     1
 67
     7
176
     1
 79
     5
176
     1
170
     0
176
     1
171
     0
176
     1
290
     0
176
     1
 93
        1
176
     1
 44
0.0
176
     1
173
     0
176
     1
  0
VISUALSTYLE
  5
3C
102
{ACAD_REACTORS
330
2A
102
}
102
{ACAD_XDICTIONARY
360
43D
102
}
330
2A
100
AcDbVisualStyle
  2
OverhangOff
 70
    21
177
     2
291
     1
 71
     2
176
     0
 72
     2
176
     0
 73
     0
176
     0
 90
        0
176
     0
 40
0.6
176
     0
 41
30.0
176
     0
 62
     5
 63
     7
421
 16777215
176
     0
 74
     1
176
     0
 91
        4
176
     0
 64
     7
176
     0
 65
   257
176
     0
 75
     1
176
     0
175
     1
176
     0
 42
1.0
176
     0
 92
        9
176
     2
 66
     7
176
     0
 43
1.0
176
     0
 76
     1
176
     0
 77
     6
176
     0
 78
     2
176
     0
 67
     7
176
     0
 79
     5
176
     0
170
     0
176
     0
171
     0
176
     0
290
     0
176
     0
 93
        1
176
     0
 44
0.0
176
     0
173
     0
176
     0
  0
VISUALSTYLE
  5
33
102
{ACAD_REACTORS
330
2A
102
}
102
{ACAD_XDICTIONARY
360
42B
102
}
330
2A
100
AcDbVisualStyle
  2
Realistic
 70
     8
177
     2
291
     0
 71
     2
176
     1
 72
     3
176
     1
 73
     0
176
     1
 90
        2
176
     1
 40
0.6
176
     1
 41
30.0
176
     1
 62
     5
 63
     7
421
 16777215
176
     1
 74
     0
176
     1
 91
        0
176
     1
 64
     7
176
     1
 65
   257
176
     1
 75
     1
176
     1
175
     1
176
     1
 42
1.0
176
     1
 92
        8
176
     1
 66
   257
176
     1
 43
1.0
176
     1
 76
     1
176
     1
 77
     6
176
     1
 78
     2
176
     1
 67
     7
176
     1
 79
     3
176
     1
170
     0
176
     1
171
     0
176
     1
290
     0
176
     1
 93
       13
176
     1
 44
0.0
176
     1
173
     0
176
     1
  0
VISUALSTYLE
  5
42
102
{ACAD_REACTORS
330
2A
102
}
102
{ACAD_XDICTIONARY
360
449
102
}
330
2A
100
AcDbVisualStyle
  2
Shaded
 70
    27
177
     2
291
     0
 71
     2
176
     1
 72
     2
176
     1
 73
     1
176
     1
 90
        2
176
     1
 40
0.6
176
     1
 41
30.0
176
     1
 62
     5
 63
     7
421
 16777215
176
     1
 74
     0
176
     1
 91
        4
176
     1
 64
     7
176
     1
 65
   257
176
     1
 75
     1
176
     1
175
     1
176
     1
 42
1.0
176
     1
 92
        8
176
     1
 66
   257
176
     1
 43
1.0
176
     1
 76
     1
176
     1
 77
     6
176
     1
 78
     2
176
     1
 67
     8
425
  7895160
176
     1
 79
     3
176
     1
170
     0
176
     1
171
     0
176
     1
290
     0
176
     1
 93
        5
176
     1
 44
0.0
176
     1
173
     0
176
     1
  0
VISUALSTYLE
  5
41
102
{ACAD_REACTORS
330
2A
102
}
102
{ACAD_XDICTIONARY
360
447
102
}
330
2A
100
AcDbVisualStyle
  2
Shaded with edges
 70
    26
177
     2
291
     0
 71
     2
176
     1
 72
     2
176
     1
 73
     1
176
     1
 90
        2
176
     1
 40
0.6
176
     1
 41
30.0
176
     1
 62
     5
 63
     7
421
 16777215
176
     1
 74
     1
176
     1
 91
       10
176
     1
 64
     7
176
     1
 65
   257
176
     1
 75
     2
176
     1
175
     1
176
     1
 42
1.0
176
     1
 92
        8
176
     1
 66
   257
176
     1
 43
1.0
176
     1
 76
     1
176
     1
 77
     6
176
     1
 78
     2
176
     1
 67
     7
176
     1
 79
     3
176
     1
170
     0
176
     1
171
     0
176
     1
290
     0
176
     1
 93
        5
176
     1
 44
0.0
176
     1
173
     0
176
     1
  0
VISUALSTYLE
  5
3E
102
{ACAD_REACTORS
330
2A
102
}
102
{ACAD_XDICTIONARY
360
441
102
}
330
2A
100
AcDbVisualStyle
  2
Shades of Gray
 70
    23
177
     2
291
     0
 71
     2
176
     1
 72
     2
176
     1
 73
     3
176
     1
 90
        0
176
     1
 40
0.6
176
     1
 41
30.0
176
     1
 62
     5
 63
     7
421
 16777215
176
     1
 74
     2
176
     1
 91
        2
176
     1
 64
     7
176
     1
 65
     7
176
     1
 75
     1
176
     1
175
     1
176
     1
 42
40.0
176
     1
 92
        8
176
     1
 66
     7
176
     1
 43
1.0
176
     1
 76
     1
176
     1
 77
     6
176
     1
 78
     2
176
     1
 67
     7
176
     1
 79
     3
176
     1
170
     0
176
     1
171
     0
176
     1
290
     0
176
     1
 93
        1
176
     1
 44
0.0
176
     1
173
     0
176
     1
  0
VISUALSTYLE
  5
3F
102
{ACAD_REACTORS
330
2A
102
}
102
{ACAD_XDICTIONARY
360
443
102
}
330
2A
100
AcDbVisualStyle
  2
Sketchy
 70
    24
177
     2
291
     0
 71
     1
176
     1
 72
     2
176
     1
 73
     2
176
     1
 90
        0
176
     1
 40
0.6
176
     1
 41
30.0
176
     1
 62
     5
 63
     7
421
 16777215
176
     1
 74
     2
176
     1
 91
        2
176
     1
 64
     7
176
     1
 65
     7
176
     1
 75
     1
176
     1
175
     1
176
     1
 42
40.0
176
     1
 92
       11
176
     1
 66
     7
176
     1
 43
1.0
176
     1
 76
     1
176
     1
 77
     6
176
     1
 78
     2
176
     1
 67
     7
176
     1
 79
     6
176
     1
170
     0
176
     1
171
     0
176
     1
290
     0
176
     1
 93
        1
176
     1
 44
0.0
176
     1
173
     0
176
     1
  0
VISUALSTYLE
  5
37
102
{ACAD_REACTORS
330
2A
102
}
102
{ACAD_XDICTIONARY
360
433
102
}
330
2A
100
AcDbVisualStyle
  2
Thicken
 70
    13
177
     2
291
     1
 71
     2
176
     1
 72
     2
176
     1
 73
     0
176
     1
 90
        0
176
     1
 40
0.6
176
     1
 41
30.0
176
     1
 62
     5
 63
     7
421
 16777215
176
     1
 74
     1
176
     1
 91
        4
176
     1
 64
     7
176
     1
 65
   257
176
     1
 75
     1
176
     1
175
     1
176
     1
 42
1.0
176
     1
 92
       12
176
     1
 66
     7
176
     1
 43
1.0
176
     1
 76
     1
176
     1
 77
     6
176
     1
 78
     2
176
     1
 67
     7
176
     1
 79
     5
176
     1
170
     0
176
     1
171
     0
176
     1
290
     0
176
     1
 93
        1
176
     1
 44
0.0
176
     1
173
     0
176
     1
  0
VISUALSTYLE
  5
30
102
{ACAD_REACTORS
330
2A
102
}
102
{ACAD_XDICTIONARY
360
425
102
}
330
2A
100
AcDbVisualStyle
  2
Wireframe
 70
     5
177
     2
291
     0
 71
     0
176
     1
 72
     2
176
     1
 73
     0
176
     1
 90
        0
176
     1
 40
0.6
176
     1
 41
30.0
176
     1
 62
     5
 63
     7
421
 16777215
176
     1
 74
     1
176
     1
 91
        4
176
     1
 64
     7
176
     1
 65
   257
176
     1
 75
     1
176
     1
175
     1
176
     1
 42
1.0
176
     1
 92
        0
176
     1
 66
   257
176
     1
 43
1.0
176
     1
 76
     1
176
     1
 77
     6
176
     1
 78
     2
176
     1
 67
     7
176
     1
 79
     3
176
     1
170
     0
176
     1
171
     0
176
     1
290
     0
176
     1
 93
        1
176
     1
 44
0.0
176
     1
173
     0
176
     1
  0
VISUALSTYLE
  5
40
102
{ACAD_REACTORS
330
2A
102
}
102
{ACAD_XDICTIONARY
360
445
102
}
330
2A
100
AcDbVisualStyle
  2
X-Ray
 70
    25
177
     2
291
     0
 71
     2
176
     1
 72
     2
176
     1
 73
     1
176
     1
 90
        1
176
     1
 40
0.5
176
     1
 41
30.0
176
     1
 62
     5
 63
     7
421
 16777215
176
     1
 74
     1
176
     1
 91
        0
176
     1
 64
     7
176
     1
 65
   257
176
     1
 75
     1
176
     1
175
     1
176
     1
 42
1.0
176
     1
 92
        8
176
     1
 66
     7
176
     1
 43
1.0
176
     1
 76
     1
176
     1
 77
     6
176
     1
 78
     2
176
     1
 67
     7
176
     1
 79
     3
176
     1
170
     0
176
     1
171
     0
176
     1
290
     0
176
     1
 93
       13
176
     1
 44
0.0
176
     1
173
     0
176
     1
  0
DICTIONARYVAR
  5
41A
102
{ACAD_REACTORS
330
419
102
}
330
419
100
DictionaryVariables
280
     0
  1
1:1
  0
DICTIONARYVAR
  5
452
102
{ACAD_REACTORS
330
419
102
}
330
419
100
DictionaryVariables
280
     0
  1
3.500000
  0
DICTIONARYVAR
  5
453
102
{ACAD_REACTORS
330
419
102
}
330
419
100
DictionaryVariables
280
     0
  1
acadiso.lin
  0
DICTIONARYVAR
  5
44F
102
{ACAD_REACTORS
330
419
102
}
330
419
100
DictionaryVariables
280
     0
  1
Standard
  0
DICTIONARYVAR
  5
44E
102
{ACAD_REACTORS
330
419
102
}
330
419
100
DictionaryVariables
280
     0
  1
Standard
  0
DICTIONARY
  5
44B
330
6A
100
AcDbDictionary
280
     1
281
     1
  3
ACAD_ROUNDTRIP_2008_TABLESTYLE_CELLSTYLEMAP
360
44C
  0
DICTIONARY
  5
423
330
2F
100
AcDbDictionary
280
     1
281
     1
  3
ACAD_XREC_ROUNDTRIP
360
424
  0
DICTIONARY
  5
429
330
32
100
AcDbDictionary
280
     1
281
     1
  3
ACAD_XREC_ROUNDTRIP
360
42A
  0
DICTIONARY
  5
431
330
36
100
AcDbDictionary
280
     1
281
     1
  3
ACAD_XREC_ROUNDTRIP
360
432
  0
DICTIONARY
  5
439
330
3A
100
AcDbDictionary
280
     1
281
     1
  3
ACAD_XREC_ROUNDTRIP
360
43A
  0
DICTIONARY
  5
42D
330
34
100
AcDbDictionary
280
     1
281
     1
  3
ACAD_XREC_ROUNDTRIP
360
42E
  0
DICTIONARY
  5
42F
330
35
100
AcDbDictionary
280
     1
281
     1
  3
ACAD_XREC_ROUNDTRIP
360
430
  0
DICTIONARY
  5
43F
330
3D
100
AcDbDictionary
280
     1
281
     1
  3
ACAD_XREC_ROUNDTRIP
360
440
  0
DICTIONARY
  5
437
330
39
100
AcDbDictionary
280
     1
281
     1
  3
ACAD_XREC_ROUNDTRIP
360
438
  0
DICTIONARY
  5
41B
330
2B
100
AcDbDictionary
280
     1
281
     1
  3
ACAD_XREC_ROUNDTRIP
360
41C
  0
DICTIONARY
  5
41D
330
2C
100
AcDbDictionary
280
     1
281
     1
  3
ACAD_XREC_ROUNDTRIP
360
41E
  0
DICTIONARY
  5
41F
330
2D
100
AcDbDictionary
280
     1
281
     1
  3
ACAD_XREC_ROUNDTRIP
360
420
  0
DICTIONARY
  5
421
330
2E
100
AcDbDictionary
280
     1
281
     1
  3
ACAD_XREC_ROUNDTRIP
360
422
  0
DICTIONARY
  5
427
330
31
100
AcDbDictionary
280
     1
281
     1
  3
ACAD_XREC_ROUNDTRIP
360
428
  0
DICTIONARY
  5
43B
330
3B
100
AcDbDictionary
280
     1
281
     1
  3
ACAD_XREC_ROUNDTRIP
360
43C
  0
DICTIONARY
  5
435
330
38
100
AcDbDictionary
280
     1
281
     1
  3
ACAD_XREC_ROUNDTRIP
360
436
  0
DICTIONARY
  5
43D
330
3C
100
AcDbDictionary
280
     1
281
     1
  3
ACAD_XREC_ROUNDTRIP
360
43E
  0
DICTIONARY
  5
42B
330
33
100
AcDbDictionary
280
     1
281
     1
  3
ACAD_XREC_ROUNDTRIP
360
42C
  0
DICTIONARY
  5
449
330
42
100
AcDbDictionary
280
     1
281
     1
  3
ACAD_XREC_ROUNDTRIP
360
44A
  0
DICTIONARY
  5
447
330
41
100
AcDbDictionary
280
     1
281
     1
  3
ACAD_XREC_ROUNDTRIP
360
448
  0
DICTIONARY
  5
441
330
3E
100
AcDbDictionary
280
     1
281
     1
  3
ACAD_XREC_ROUNDTRIP
360
442
  0
DICTIONARY
  5
443
330
3F
100
AcDbDictionary
280
     1
281
     1
  3
ACAD_XREC_ROUNDTRIP
360
444
  0
DICTIONARY
  5
433
330
37
100
AcDbDictionary
280
     1
281
     1
  3
ACAD_XREC_ROUNDTRIP
360
434
  0
DICTIONARY
  5
425
330
30
100
AcDbDictionary
280
     1
281
     1
  3
ACAD_XREC_ROUNDTRIP
360
426
  0
DICTIONARY
  5
445
330
40
100
AcDbDictionary
280
     1
281
     1
  3
ACAD_XREC_ROUNDTRIP
360
446
  0
CELLSTYLEMAP
  5
44C
102
{ACAD_REACTORS
330
44B
102
}
330
44B
100
AcDbCellStyleMap
 90
        3
300
CELLSTYLE
  1
TABLEFORMAT_BEGIN
 90
        5
170
     1
 91
        0
 92
    32768
 62
   257
 93
        1
300
CONTENTFORMAT
  1
CONTENTFORMAT_BEGIN
 90
        0
 91
        0
 92
        4
 93
        0
300

 40
0.0
140
1.0
 94
        5
 62
     0
340
11
144
6.0
309
CONTENTFORMAT_END
171
     1
301
MARGIN
  1
CELLMARGIN_BEGIN
 40
1.5
 40
1.5
 40
1.5
 40
1.5
 40
1.5
 40
1.5
309
CELLMARGIN_END
 94
        6
 95
        1
302
GRIDFORMAT
  1
GRIDFORMAT_BEGIN
 90
        0
 91
        1
 62
     0
 92
       -2
340
14
 93
        0
 40
0.045
309
GRIDFORMAT_END
 95
        2
302
GRIDFORMAT
  1
GRIDFORMAT_BEGIN
 90
        0
 91
        1
 62
     0
 92
       -2
340
14
 93
        0
 40
0.045
309
GRIDFORMAT_END
 95
        4
302
GRIDFORMAT
  1
GRIDFORMAT_BEGIN
 90
        0
 91
        1
 62
     0
 92
       -2
340
14
 93
        0
 40
0.045
309
GRIDFORMAT_END
 95
        8
302
GRIDFORMAT
  1
GRIDFORMAT_BEGIN
 90
        0
 91
        1
 62
     0
 92
       -2
340
14
 93
        0
 40
0.045
309
GRIDFORMAT_END
 95
       16
302
GRIDFORMAT
  1
GRIDFORMAT_BEGIN
 90
        0
 91
        1
 62
     0
 92
       -2
340
14
 93
        0
 40
0.045
309
GRIDFORMAT_END
 95
       32
302
GRIDFORMAT
  1
GRIDFORMAT_BEGIN
 90
        0
 91
        1
 62
     0
 92
       -2
340
14
 93
        0
 40
0.045
309
GRIDFORMAT_END
309
TABLEFORMAT_END
  1
CELLSTYLE_BEGIN
 90
        1
 91
        1
300
_TITLE
309
CELLSTYLE_END
300
CELLSTYLE
  1
TABLEFORMAT_BEGIN
 90
        5
170
     1
 91
        0
 92
        0
 62
   257
 93
        1
300
CONTENTFORMAT
  1
CONTENTFORMAT_BEGIN
 90
        0
 91
        0
 92
        4
 93
        0
300

 40
0.0
140
1.0
 94
        5
 62
     0
340
11
144
4.5
309
CONTENTFORMAT_END
171
     1
301
MARGIN
  1
CELLMARGIN_BEGIN
 40
1.5
 40
1.5
 40
1.5
 40
1.5
 40
1.5
 40
1.5
309
CELLMARGIN_END
 94
        6
 95
        1
302
GRIDFORMAT
  1
GRIDFORMAT_BEGIN
 90
        0
 91
        1
 62
     0
 92
       -2
340
14
 93
        0
 40
0.045
309
GRIDFORMAT_END
 95
        2
302
GRIDFORMAT
  1
GRIDFORMAT_BEGIN
 90
        0
 91
        1
 62
     0
 92
       -2
340
14
 93
        0
 40
0.045
309
GRIDFORMAT_END
 95
        4
302
GRIDFORMAT
  1
GRIDFORMAT_BEGIN
 90
        0
 91
        1
 62
     0
 92
       -2
340
14
 93
        0
 40
0.045
309
GRIDFORMAT_END
 95
        8
302
GRIDFORMAT
  1
GRIDFORMAT_BEGIN
 90
        0
 91
        1
 62
     0
 92
       -2
340
14
 93
        0
 40
0.045
309
GRIDFORMAT_END
 95
       16
302
GRIDFORMAT
  1
GRIDFORMAT_BEGIN
 90
        0
 91
        1
 62
     0
 92
       -2
340
14
 93
        0
 40
0.045
309
GRIDFORMAT_END
 95
       32
302
GRIDFORMAT
  1
GRIDFORMAT_BEGIN
 90
        0
 91
        1
 62
     0
 92
       -2
340
14
 93
        0
 40
0.045
309
GRIDFORMAT_END
309
TABLEFORMAT_END
  1
CELLSTYLE_BEGIN
 90
        2
 91
        1
300
_HEADER
309
CELLSTYLE_END
300
CELLSTYLE
  1
TABLEFORMAT_BEGIN
 90
        5
170
     1
 91
        0
 92
        0
 62
   257
 93
        1
300
CONTENTFORMAT
  1
CONTENTFORMAT_BEGIN
 90
        0
 91
        0
 92
        4
 93
        0
300

 40
0.0
140
1.0
 94
        2
 62
     0
340
11
144
4.5
309
CONTENTFORMAT_END
171
     1
301
MARGIN
  1
CELLMARGIN_BEGIN
 40
1.5
 40
1.5
 40
1.5
 40
1.5
 40
1.5
 40
1.5
309
CELLMARGIN_END
 94
        6
 95
        1
302
GRIDFORMAT
  1
GRIDFORMAT_BEGIN
 90
        0
 91
        1
 62
     0
 92
       -2
340
14
 93
        0
 40
0.045
309
GRIDFORMAT_END
 95
        2
302
GRIDFORMAT
  1
GRIDFORMAT_BEGIN
 90
        0
 91
        1
 62
     0
 92
       -2
340
14
 93
        0
 40
0.045
309
GRIDFORMAT_END
 95
        4
302
GRIDFORMAT
  1
GRIDFORMAT_BEGIN
 90
        0
 91
        1
 62
     0
 92
       -2
340
14
 93
        0
 40
0.045
309
GRIDFORMAT_END
 95
        8
302
GRIDFORMAT
  1
GRIDFORMAT_BEGIN
 90
        0
 91
        1
 62
     0
 92
       -2
340
14
 93
        0
 40
0.045
309
GRIDFORMAT_END
 95
       16
302
GRIDFORMAT
  1
GRIDFORMAT_BEGIN
 90
        0
 91
        1
 62
     0
 92
       -2
340
14
 93
        0
 40
0.045
309
GRIDFORMAT_END
 95
       32
302
GRIDFORMAT
  1
GRIDFORMAT_BEGIN
 90
        0
 91
        1
 62
     0
 92
       -2
340
14
 93
        0
 40
0.045
309
GRIDFORMAT_END
309
TABLEFORMAT_END
  1
CELLSTYLE_BEGIN
 90
        3
 91
        2
300
_DATA
309
CELLSTYLE_END
  0
XRECORD
  5
424
102
{ACAD_REACTORS
330
423
102
}
330
423
100
AcDbXrecord
280
     1
102
RTVSPost2010Prop28
280
     1
102
RTVSPost2010PropOp28
 70
     1
102
RTVSPost2010Prop29
280
     1
102
RTVSPost2010PropOp29
 70
     1
102
RTVSPost2010Prop30
280
     0
102
RTVSPost2010PropOp30
 70
     1
102
RTVSPost2010Prop31
280
     0
102
RTVSPost2010PropOp31
 70
     1
102
RTVSPost2010Prop32
280
     0
102
RTVSPost2010PropOp32
 70
     1
102
RTVSPost2010Prop33
280
     0
102
RTVSPost2010PropOp33
 70
     1
102
RTVSPost2010Prop34
280
     0
102
RTVSPost2010PropOp34
 70
     1
102
RTVSPost2010Prop35
280
     0
102
RTVSPost2010PropOp35
 70
     1
102
RTVSPost2010Prop36
280
     0
102
RTVSPost2010PropOp36
 70
     1
102
RTVSPost2010Prop37
 90
       50
102
RTVSPost2010PropOp37
 70
     1
102
RTVSPost2010Prop38
140
0.0
102
RTVSPost2010PropOp38
 70
     1
102
RTVSPost2010Prop39
140
1.0
102
RTVSPost2010PropOp39
 70
     1
102
RTVSPost2010Prop40
 90
        0
102
RTVSPost2010PropOp40
 70
     1
102
RTVSPost2010Prop41ColorIndex
 90
       18
102
RTVSPost2010Prop41ColorRGB
 90
        0
102
RTVSPost2010PropOp41
 70
     1
102
RTVSPost2010Prop42
 90
       50
102
RTVSPost2010PropOp42
 70
     1
102
RTVSPost2010Prop43
 90
        3
102
RTVSPost2010PropOp43
 70
     1
102
RTVSPost2010Prop44ColorIndex
 90
        5
102
RTVSPost2010Prop44ColorRGB
 90
      255
102
RTVSPost2010PropOp44
 70
     1
102
RTVSPost2010Prop45
280
     0
102
RTVSPost2010PropOp45
 70
     1
102
RTVSPost2010Prop46
 90
       50
102
RTVSPost2010PropOp46
 70
     1
102
RTVSPost2010Prop47
 90
       50
102
RTVSPost2010PropOp47
 70
     1
102
RTVSPost2010Prop48
 90
       50
102
RTVSPost2010PropOp48
 70
     1
102
RTVSPost2010Prop49
280
     0
102
RTVSPost2010PropOp49
 70
     1
102
RTVSPost2010Prop50
 90
       50
102
RTVSPost2010PropOp50
 70
     1
102
RTVSPost2010Prop51ColorIndex
 90
      256
102
RTVSPost2010Prop51ColorRGB
 90
-16777216
102
RTVSPost2010PropOp51
 70
     0
102
RTVSPost2010Prop52
140
1.0
102
RTVSPost2010PropOp52
 70
     0
102
RTVSPost2010Prop53
 90
        2
102
RTVSPost2010PropOp53
 70
     1
102
RTVSPost2010Prop54
  1
strokes_ogs.tif
102
RTVSPost2010PropOp54
 70
     1
102
RTVSPost2010Prop55
280
     0
102
RTVSPost2010PropOp55
 70
     1
102
RTVSPost2010Prop56
140
1.0
102
RTVSPost2010PropOp56
 70
     1
102
RTVSPost2010Prop57
140
1.0
102
RTVSPost2010PropOp57
 70
     1
  0
XRECORD
  5
42A
102
{ACAD_REACTORS
330
429
102
}
330
429
100
AcDbXrecord
280
     1
102
RTVSPost2010Prop28
280
     0
102
RTVSPost2010PropOp28
 70
     1
102
RTVSPost2010Prop29
280
     1
102
RTVSPost2010PropOp29
 70
     1
102
RTVSPost2010Prop30
280
     1
102
RTVSPost2010PropOp30
 70
     1
102
RTVSPost2010Prop31
280
     0
102
RTVSPost2010PropOp31
 70
     1
102
RTVSPost2010Prop32
280
     0
102
RTVSPost2010PropOp32
 70
     1
102
RTVSPost2010Prop33
280
     0
102
RTVSPost2010PropOp33
 70
     1
102
RTVSPost2010Prop34
280
     0
102
RTVSPost2010PropOp34
 70
     1
102
RTVSPost2010Prop35
280
     0
102
RTVSPost2010PropOp35
 70
     1
102
RTVSPost2010Prop36
280
     0
102
RTVSPost2010PropOp36
 70
     1
102
RTVSPost2010Prop37
 90
       50
102
RTVSPost2010PropOp37
 70
     1
102
RTVSPost2010Prop38
140
0.0
102
RTVSPost2010PropOp38
 70
     1
102
RTVSPost2010Prop39
140
1.0
102
RTVSPost2010PropOp39
 70
     1
102
RTVSPost2010Prop40
 90
        0
102
RTVSPost2010PropOp40
 70
     1
102
RTVSPost2010Prop41ColorIndex
 90
       18
102
RTVSPost2010Prop41ColorRGB
 90
        0
102
RTVSPost2010PropOp41
 70
     1
102
RTVSPost2010Prop42
 90
       50
102
RTVSPost2010PropOp42
 70
     1
102
RTVSPost2010Prop43
 90
        3
102
RTVSPost2010PropOp43
 70
     1
102
RTVSPost2010Prop44ColorIndex
 90
        5
102
RTVSPost2010Prop44ColorRGB
 90
      255
102
RTVSPost2010PropOp44
 70
     1
102
RTVSPost2010Prop45
280
     0
102
RTVSPost2010PropOp45
 70
     1
102
RTVSPost2010Prop46
 90
       50
102
RTVSPost2010PropOp46
 70
     1
102
RTVSPost2010Prop47
 90
       50
102
RTVSPost2010PropOp47
 70
     1
102
RTVSPost2010Prop48
 90
       50
102
RTVSPost2010PropOp48
 70
     1
102
RTVSPost2010Prop49
280
     0
102
RTVSPost2010PropOp49
 70
     1
102
RTVSPost2010Prop50
 90
       50
102
RTVSPost2010PropOp50
 70
     1
102
RTVSPost2010Prop51ColorIndex
 90
      256
102
RTVSPost2010Prop51ColorRGB
 90
-16777216
102
RTVSPost2010PropOp51
 70
     0
102
RTVSPost2010Prop52
140
1.0
102
RTVSPost2010PropOp52
 70
     0
102
RTVSPost2010Prop53
 90
        2
102
RTVSPost2010PropOp53
 70
     1
102
RTVSPost2010Prop54
  1
strokes_ogs.tif
102
RTVSPost2010PropOp54
 70
     1
102
RTVSPost2010Prop55
280
     0
102
RTVSPost2010PropOp55
 70
     1
102
RTVSPost2010Prop56
140
1.0
102
RTVSPost2010PropOp56
 70
     1
102
RTVSPost2010Prop57
140
1.0
102
RTVSPost2010PropOp57
 70
     1
  0
XRECORD
  5
432
102
{ACAD_REACTORS
330
431
102
}
330
431
100
AcDbXrecord
280
     1
102
RTVSPost2010Prop28
280
     0
102
RTVSPost2010PropOp28
 70
     1
102
RTVSPost2010Prop29
280
     1
102
RTVSPost2010PropOp29
 70
     1
102
RTVSPost2010Prop30
280
     1
102
RTVSPost2010PropOp30
 70
     1
102
RTVSPost2010Prop31
280
     0
102
RTVSPost2010PropOp31
 70
     1
102
RTVSPost2010Prop32
280
     0
102
RTVSPost2010PropOp32
 70
     1
102
RTVSPost2010Prop33
280
     0
102
RTVSPost2010PropOp33
 70
     1
102
RTVSPost2010Prop34
280
     0
102
RTVSPost2010PropOp34
 70
     1
102
RTVSPost2010Prop35
280
     0
102
RTVSPost2010PropOp35
 70
     1
102
RTVSPost2010Prop36
280
     0
102
RTVSPost2010PropOp36
 70
     1
102
RTVSPost2010Prop37
 90
       50
102
RTVSPost2010PropOp37
 70
     1
102
RTVSPost2010Prop38
140
0.0
102
RTVSPost2010PropOp38
 70
     1
102
RTVSPost2010Prop39
140
1.0
102
RTVSPost2010PropOp39
 70
     1
102
RTVSPost2010Prop40
 90
        0
102
RTVSPost2010PropOp40
 70
     1
102
RTVSPost2010Prop41ColorIndex
 90
       18
102
RTVSPost2010Prop41ColorRGB
 90
        0
102
RTVSPost2010PropOp41
 70
     1
102
RTVSPost2010Prop42
 90
       50
102
RTVSPost2010PropOp42
 70
     1
102
RTVSPost2010Prop43
 90
        3
102
RTVSPost2010PropOp43
 70
     1
102
RTVSPost2010Prop44ColorIndex
 90
        5
102
RTVSPost2010Prop44ColorRGB
 90
      255
102
RTVSPost2010PropOp44
 70
     1
102
RTVSPost2010Prop45
280
     0
102
RTVSPost2010PropOp45
 70
     1
102
RTVSPost2010Prop46
 90
       50
102
RTVSPost2010PropOp46
 70
     1
102
RTVSPost2010Prop47
 90
       50
102
RTVSPost2010PropOp47
 70
     1
102
RTVSPost2010Prop48
 90
       50
102
RTVSPost2010PropOp48
 70
     1
102
RTVSPost2010Prop49
280
     0
102
RTVSPost2010PropOp49
 70
     1
102
RTVSPost2010Prop50
 90
       50
102
RTVSPost2010PropOp50
 70
     1
102
RTVSPost2010Prop51ColorIndex
 90
      256
102
RTVSPost2010Prop51ColorRGB
 90
-16777216
102
RTVSPost2010PropOp51
 70
     0
102
RTVSPost2010Prop52
140
1.0
102
RTVSPost2010PropOp52
 70
     0
102
RTVSPost2010Prop53
 90
        2
102
RTVSPost2010PropOp53
 70
     1
102
RTVSPost2010Prop54
  1
strokes_ogs.tif
102
RTVSPost2010PropOp54
 70
     1
102
RTVSPost2010Prop55
280
     0
102
RTVSPost2010PropOp55
 70
     1
102
RTVSPost2010Prop56
140
1.0
102
RTVSPost2010PropOp56
 70
     1
102
RTVSPost2010Prop57
140
1.0
102
RTVSPost2010PropOp57
 70
     1
  0
XRECORD
  5
43A
102
{ACAD_REACTORS
330
439
102
}
330
439
100
AcDbXrecord
280
     1
102
RTVSPost2010Prop28
280
     0
102
RTVSPost2010PropOp28
 70
     1
102
RTVSPost2010Prop29
280
     1
102
RTVSPost2010PropOp29
 70
     1
102
RTVSPost2010Prop30
280
     1
102
RTVSPost2010PropOp30
 70
     1
102
RTVSPost2010Prop31
280
     0
102
RTVSPost2010PropOp31
 70
     1
102
RTVSPost2010Prop32
280
     0
102
RTVSPost2010PropOp32
 70
     1
102
RTVSPost2010Prop33
280
     0
102
RTVSPost2010PropOp33
 70
     1
102
RTVSPost2010Prop34
280
     0
102
RTVSPost2010PropOp34
 70
     1
102
RTVSPost2010Prop35
280
     0
102
RTVSPost2010PropOp35
 70
     1
102
RTVSPost2010Prop36
280
     0
102
RTVSPost2010PropOp36
 70
     1
102
RTVSPost2010Prop37
 90
       50
102
RTVSPost2010PropOp37
 70
     1
102
RTVSPost2010Prop38
140
0.0
102
RTVSPost2010PropOp38
 70
     1
102
RTVSPost2010Prop39
140
1.0
102
RTVSPost2010PropOp39
 70
     1
102
RTVSPost2010Prop40
 90
        0
102
RTVSPost2010PropOp40
 70
     1
102
RTVSPost2010Prop41ColorIndex
 90
       18
102
RTVSPost2010Prop41ColorRGB
 90
        0
102
RTVSPost2010PropOp41
 70
     1
102
RTVSPost2010Prop42
 90
       50
102
RTVSPost2010PropOp42
 70
     1
102
RTVSPost2010Prop43
 90
        3
102
RTVSPost2010PropOp43
 70
     1
102
RTVSPost2010Prop44ColorIndex
 90
        5
102
RTVSPost2010Prop44ColorRGB
 90
      255
102
RTVSPost2010PropOp44
 70
     1
102
RTVSPost2010Prop45
280
     0
102
RTVSPost2010PropOp45
 70
     1
102
RTVSPost2010Prop46
 90
       50
102
RTVSPost2010PropOp46
 70
     1
102
RTVSPost2010Prop47
 90
       50
102
RTVSPost2010PropOp47
 70
     1
102
RTVSPost2010Prop48
 90
       50
102
RTVSPost2010PropOp48
 70
     1
102
RTVSPost2010Prop49
280
     0
102
RTVSPost2010PropOp49
 70
     1
102
RTVSPost2010Prop50
 90
       50
102
RTVSPost2010PropOp50
 70
     1
102
RTVSPost2010Prop51ColorIndex
 90
      256
102
RTVSPost2010Prop51ColorRGB
 90
-16777216
102
RTVSPost2010PropOp51
 70
     0
102
RTVSPost2010Prop52
140
1.0
102
RTVSPost2010PropOp52
 70
     0
102
RTVSPost2010Prop53
 90
        2
102
RTVSPost2010PropOp53
 70
     1
102
RTVSPost2010Prop54
  1
strokes_ogs.tif
102
RTVSPost2010PropOp54
 70
     1
102
RTVSPost2010Prop55
280
     0
102
RTVSPost2010PropOp55
 70
     1
102
RTVSPost2010Prop56
140
1.0
102
RTVSPost2010PropOp56
 70
     1
102
RTVSPost2010Prop57
140
1.0
102
RTVSPost2010PropOp57
 70
     1
  0
XRECORD
  5
42E
102
{ACAD_REACTORS
330
42D
102
}
330
42D
100
AcDbXrecord
280
     1
102
RTVSPost2010Prop28
280
     0
102
RTVSPost2010PropOp28
 70
     1
102
RTVSPost2010Prop29
280
     1
102
RTVSPost2010PropOp29
 70
     1
102
RTVSPost2010Prop30
280
     1
102
RTVSPost2010PropOp30
 70
     1
102
RTVSPost2010Prop31
280
     0
102
RTVSPost2010PropOp31
 70
     1
102
RTVSPost2010Prop32
280
     0
102
RTVSPost2010PropOp32
 70
     1
102
RTVSPost2010Prop33
280
     0
102
RTVSPost2010PropOp33
 70
     1
102
RTVSPost2010Prop34
280
     0
102
RTVSPost2010PropOp34
 70
     1
102
RTVSPost2010Prop35
280
     0
102
RTVSPost2010PropOp35
 70
     1
102
RTVSPost2010Prop36
280
     0
102
RTVSPost2010PropOp36
 70
     1
102
RTVSPost2010Prop37
 90
       50
102
RTVSPost2010PropOp37
 70
     1
102
RTVSPost2010Prop38
140
0.0
102
RTVSPost2010PropOp38
 70
     1
102
RTVSPost2010Prop39
140
1.0
102
RTVSPost2010PropOp39
 70
     1
102
RTVSPost2010Prop40
 90
        0
102
RTVSPost2010PropOp40
 70
     1
102
RTVSPost2010Prop41ColorIndex
 90
       18
102
RTVSPost2010Prop41ColorRGB
 90
        0
102
RTVSPost2010PropOp41
 70
     1
102
RTVSPost2010Prop42
 90
       50
102
RTVSPost2010PropOp42
 70
     1
102
RTVSPost2010Prop43
 90
        3
102
RTVSPost2010PropOp43
 70
     1
102
RTVSPost2010Prop44ColorIndex
 90
        5
102
RTVSPost2010Prop44ColorRGB
 90
      255
102
RTVSPost2010PropOp44
 70
     1
102
RTVSPost2010Prop45
280
     0
102
RTVSPost2010PropOp45
 70
     1
102
RTVSPost2010Prop46
 90
       50
102
RTVSPost2010PropOp46
 70
     1
102
RTVSPost2010Prop47
 90
       50
102
RTVSPost2010PropOp47
 70
     1
102
RTVSPost2010Prop48
 90
       50
102
RTVSPost2010PropOp48
 70
     1
102
RTVSPost2010Prop49
280
     0
102
RTVSPost2010PropOp49
 70
     1
102
RTVSPost2010Prop50
 90
       50
102
RTVSPost2010PropOp50
 70
     1
102
RTVSPost2010Prop51ColorIndex
 90
      256
102
RTVSPost2010Prop51ColorRGB
 90
-16777216
102
RTVSPost2010PropOp51
 70
     0
102
RTVSPost2010Prop52
140
1.0
102
RTVSPost2010PropOp52
 70
     0
102
RTVSPost2010Prop53
 90
        2
102
RTVSPost2010PropOp53
 70
     1
102
RTVSPost2010Prop54
  1
strokes_ogs.tif
102
RTVSPost2010PropOp54
 70
     1
102
RTVSPost2010Prop55
280
     0
102
RTVSPost2010PropOp55
 70
     1
102
RTVSPost2010Prop56
140
1.0
102
RTVSPost2010PropOp56
 70
     1
102
RTVSPost2010Prop57
140
1.0
102
RTVSPost2010PropOp57
 70
     1
  0
XRECORD
  5
430
102
{ACAD_REACTORS
330
42F
102
}
330
42F
100
AcDbXrecord
280
     1
102
RTVSPost2010Prop28
280
     0
102
RTVSPost2010PropOp28
 70
     1
102
RTVSPost2010Prop29
280
     1
102
RTVSPost2010PropOp29
 70
     1
102
RTVSPost2010Prop30
280
     1
102
RTVSPost2010PropOp30
 70
     1
102
RTVSPost2010Prop31
280
     0
102
RTVSPost2010PropOp31
 70
     1
102
RTVSPost2010Prop32
280
     0
102
RTVSPost2010PropOp32
 70
     1
102
RTVSPost2010Prop33
280
     0
102
RTVSPost2010PropOp33
 70
     1
102
RTVSPost2010Prop34
280
     0
102
RTVSPost2010PropOp34
 70
     1
102
RTVSPost2010Prop35
280
     0
102
RTVSPost2010PropOp35
 70
     1
102
RTVSPost2010Prop36
280
     0
102
RTVSPost2010PropOp36
 70
     1
102
RTVSPost2010Prop37
 90
       50
102
RTVSPost2010PropOp37
 70
     1
102
RTVSPost2010Prop38
140
0.0
102
RTVSPost2010PropOp38
 70
     1
102
RTVSPost2010Prop39
140
1.0
102
RTVSPost2010PropOp39
 70
     1
102
RTVSPost2010Prop40
 90
        0
102
RTVSPost2010PropOp40
 70
     1
102
RTVSPost2010Prop41ColorIndex
 90
       18
102
RTVSPost2010Prop41ColorRGB
 90
        0
102
RTVSPost2010PropOp41
 70
     1
102
RTVSPost2010Prop42
 90
       50
102
RTVSPost2010PropOp42
 70
     1
102
RTVSPost2010Prop43
 90
        3
102
RTVSPost2010PropOp43
 70
     1
102
RTVSPost2010Prop44ColorIndex
 90
        5
102
RTVSPost2010Prop44ColorRGB
 90
      255
102
RTVSPost2010PropOp44
 70
     1
102
RTVSPost2010Prop45
280
     0
102
RTVSPost2010PropOp45
 70
     1
102
RTVSPost2010Prop46
 90
       50
102
RTVSPost2010PropOp46
 70
     1
102
RTVSPost2010Prop47
 90
       50
102
RTVSPost2010PropOp47
 70
     1
102
RTVSPost2010Prop48
 90
       50
102
RTVSPost2010PropOp48
 70
     1
102
RTVSPost2010Prop49
280
     0
102
RTVSPost2010PropOp49
 70
     1
102
RTVSPost2010Prop50
 90
       50
102
RTVSPost2010PropOp50
 70
     1
102
RTVSPost2010Prop51ColorIndex
 90
      256
102
RTVSPost2010Prop51ColorRGB
 90
-16777216
102
RTVSPost2010PropOp51
 70
     0
102
RTVSPost2010Prop52
140
1.0
102
RTVSPost2010PropOp52
 70
     0
102
RTVSPost2010Prop53
 90
        2
102
RTVSPost2010PropOp53
 70
     1
102
RTVSPost2010Prop54
  1
strokes_ogs.tif
102
RTVSPost2010PropOp54
 70
     1
102
RTVSPost2010Prop55
280
     0
102
RTVSPost2010PropOp55
 70
     1
102
RTVSPost2010Prop56
140
1.0
102
RTVSPost2010PropOp56
 70
     1
102
RTVSPost2010Prop57
140
1.0
102
RTVSPost2010PropOp57
 70
     1
  0
XRECORD
  5
440
102
{ACAD_REACTORS
330
43F
102
}
330
43F
100
AcDbXrecord
280
     1
102
RTVSPost2010Prop28
280
     0
102
RTVSPost2010PropOp28
 70
     0
102
RTVSPost2010Prop29
280
     1
102
RTVSPost2010PropOp29
 70
     0
102
RTVSPost2010Prop30
280
     1
102
RTVSPost2010PropOp30
 70
     0
102
RTVSPost2010Prop31
280
     0
102
RTVSPost2010PropOp31
 70
     0
102
RTVSPost2010Prop32
280
     0
102
RTVSPost2010PropOp32
 70
     0
102
RTVSPost2010Prop33
280
     0
102
RTVSPost2010PropOp33
 70
     0
102
RTVSPost2010Prop34
280
     0
102
RTVSPost2010PropOp34
 70
     0
102
RTVSPost2010Prop35
280
     0
102
RTVSPost2010PropOp35
 70
     0
102
RTVSPost2010Prop36
280
     0
102
RTVSPost2010PropOp36
 70
     0
102
RTVSPost2010Prop37
 90
       50
102
RTVSPost2010PropOp37
 70
     0
102
RTVSPost2010Prop38
140
0.0
102
RTVSPost2010PropOp38
 70
     0
102
RTVSPost2010Prop39
140
1.0
102
RTVSPost2010PropOp39
 70
     0
102
RTVSPost2010Prop40
 90
        0
102
RTVSPost2010PropOp40
 70
     0
102
RTVSPost2010Prop41ColorIndex
 90
       18
102
RTVSPost2010Prop41ColorRGB
 90
        0
102
RTVSPost2010PropOp41
 70
     0
102
RTVSPost2010Prop42
 90
       50
102
RTVSPost2010PropOp42
 70
     0
102
RTVSPost2010Prop43
 90
        3
102
RTVSPost2010PropOp43
 70
     0
102
RTVSPost2010Prop44ColorIndex
 90
        5
102
RTVSPost2010Prop44ColorRGB
 90
      255
102
RTVSPost2010PropOp44
 70
     0
102
RTVSPost2010Prop45
280
     0
102
RTVSPost2010PropOp45
 70
     0
102
RTVSPost2010Prop46
 90
       50
102
RTVSPost2010PropOp46
 70
     0
102
RTVSPost2010Prop47
 90
       50
102
RTVSPost2010PropOp47
 70
     0
102
RTVSPost2010Prop48
 90
       50
102
RTVSPost2010PropOp48
 70
     0
102
RTVSPost2010Prop49
280
     0
102
RTVSPost2010PropOp49
 70
     0
102
RTVSPost2010Prop50
 90
       50
102
RTVSPost2010PropOp50
 70
     0
102
RTVSPost2010Prop51ColorIndex
 90
      256
102
RTVSPost2010Prop51ColorRGB
 90
-16777216
102
RTVSPost2010PropOp51
 70
     0
102
RTVSPost2010Prop52
140
1.0
102
RTVSPost2010PropOp52
 70
     0
102
RTVSPost2010Prop53
 90
        2
102
RTVSPost2010PropOp53
 70
     0
102
RTVSPost2010Prop54
  1
strokes_ogs.tif
102
RTVSPost2010PropOp54
 70
     0
102
RTVSPost2010Prop55
280
     0
102
RTVSPost2010PropOp55
 70
     0
102
RTVSPost2010Prop56
140
1.0
102
RTVSPost2010PropOp56
 70
     0
102
RTVSPost2010Prop57
140
1.0
102
RTVSPost2010PropOp57
 70
     0
  0
XRECORD
  5
438
102
{ACAD_REACTORS
330
437
102
}
330
437
100
AcDbXrecord
280
     1
102
RTVSPost2010Prop28
280
     0
102
RTVSPost2010PropOp28
 70
     1
102
RTVSPost2010Prop29
280
     1
102
RTVSPost2010PropOp29
 70
     1
102
RTVSPost2010Prop30
280
     1
102
RTVSPost2010PropOp30
 70
     1
102
RTVSPost2010Prop31
280
     0
102
RTVSPost2010PropOp31
 70
     1
102
RTVSPost2010Prop32
280
     0
102
RTVSPost2010PropOp32
 70
     1
102
RTVSPost2010Prop33
280
     0
102
RTVSPost2010PropOp33
 70
     1
102
RTVSPost2010Prop34
280
     0
102
RTVSPost2010PropOp34
 70
     1
102
RTVSPost2010Prop35
280
     0
102
RTVSPost2010PropOp35
 70
     1
102
RTVSPost2010Prop36
280
     0
102
RTVSPost2010PropOp36
 70
     1
102
RTVSPost2010Prop37
 90
       50
102
RTVSPost2010PropOp37
 70
     1
102
RTVSPost2010Prop38
140
0.0
102
RTVSPost2010PropOp38
 70
     1
102
RTVSPost2010Prop39
140
1.0
102
RTVSPost2010PropOp39
 70
     1
102
RTVSPost2010Prop40
 90
        0
102
RTVSPost2010PropOp40
 70
     1
102
RTVSPost2010Prop41ColorIndex
 90
       18
102
RTVSPost2010Prop41ColorRGB
 90
        0
102
RTVSPost2010PropOp41
 70
     1
102
RTVSPost2010Prop42
 90
       50
102
RTVSPost2010PropOp42
 70
     1
102
RTVSPost2010Prop43
 90
        3
102
RTVSPost2010PropOp43
 70
     1
102
RTVSPost2010Prop44ColorIndex
 90
        5
102
RTVSPost2010Prop44ColorRGB
 90
      255
102
RTVSPost2010PropOp44
 70
     1
102
RTVSPost2010Prop45
280
     0
102
RTVSPost2010PropOp45
 70
     1
102
RTVSPost2010Prop46
 90
       50
102
RTVSPost2010PropOp46
 70
     1
102
RTVSPost2010Prop47
 90
       50
102
RTVSPost2010PropOp47
 70
     1
102
RTVSPost2010Prop48
 90
       50
102
RTVSPost2010PropOp48
 70
     1
102
RTVSPost2010Prop49
280
     0
102
RTVSPost2010PropOp49
 70
     1
102
RTVSPost2010Prop50
 90
       50
102
RTVSPost2010PropOp50
 70
     1
102
RTVSPost2010Prop51ColorIndex
 90
      256
102
RTVSPost2010Prop51ColorRGB
 90
-16777216
102
RTVSPost2010PropOp51
 70
     0
102
RTVSPost2010Prop52
140
1.0
102
RTVSPost2010PropOp52
 70
     0
102
RTVSPost2010Prop53
 90
        2
102
RTVSPost2010PropOp53
 70
     1
102
RTVSPost2010Prop54
  1
strokes_ogs.tif
102
RTVSPost2010PropOp54
 70
     1
102
RTVSPost2010Prop55
280
     0
102
RTVSPost2010PropOp55
 70
     1
102
RTVSPost2010Prop56
140
1.0
102
RTVSPost2010PropOp56
 70
     1
102
RTVSPost2010Prop57
140
1.0
102
RTVSPost2010PropOp57
 70
     1
  0
XRECORD
  5
41C
102
{ACAD_REACTORS
330
41B
102
}
330
41B
100
AcDbXrecord
280
     1
102
RTVSPost2010Prop28
280
     0
102
RTVSPost2010PropOp28
 70
     1
102
RTVSPost2010Prop29
280
     1
102
RTVSPost2010PropOp29
 70
     1
102
RTVSPost2010Prop30
280
     1
102
RTVSPost2010PropOp30
 70
     1
102
RTVSPost2010Prop31
280
     0
102
RTVSPost2010PropOp31
 70
     1
102
RTVSPost2010Prop32
280
     0
102
RTVSPost2010PropOp32
 70
     1
102
RTVSPost2010Prop33
280
     0
102
RTVSPost2010PropOp33
 70
     1
102
RTVSPost2010Prop34
280
     0
102
RTVSPost2010PropOp34
 70
     1
102
RTVSPost2010Prop35
280
     0
102
RTVSPost2010PropOp35
 70
     1
102
RTVSPost2010Prop36
280
     0
102
RTVSPost2010PropOp36
 70
     1
102
RTVSPost2010Prop37
 90
       50
102
RTVSPost2010PropOp37
 70
     1
102
RTVSPost2010Prop38
140
0.0
102
RTVSPost2010PropOp38
 70
     1
102
RTVSPost2010Prop39
140
1.0
102
RTVSPost2010PropOp39
 70
     1
102
RTVSPost2010Prop40
 90
        0
102
RTVSPost2010PropOp40
 70
     1
102
RTVSPost2010Prop41ColorIndex
 90
       18
102
RTVSPost2010Prop41ColorRGB
 90
        0
102
RTVSPost2010PropOp41
 70
     1
102
RTVSPost2010Prop42
 90
       50
102
RTVSPost2010PropOp42
 70
     1
102
RTVSPost2010Prop43
 90
        3
102
RTVSPost2010PropOp43
 70
     1
102
RTVSPost2010Prop44ColorIndex
 90
        5
102
RTVSPost2010Prop44ColorRGB
 90
      255
102
RTVSPost2010PropOp44
 70
     1
102
RTVSPost2010Prop45
280
     0
102
RTVSPost2010PropOp45
 70
     1
102
RTVSPost2010Prop46
 90
       50
102
RTVSPost2010PropOp46
 70
     1
102
RTVSPost2010Prop47
 90
       50
102
RTVSPost2010PropOp47
 70
     1
102
RTVSPost2010Prop48
 90
       50
102
RTVSPost2010PropOp48
 70
     1
102
RTVSPost2010Prop49
280
     0
102
RTVSPost2010PropOp49
 70
     1
102
RTVSPost2010Prop50
 90
       50
102
RTVSPost2010PropOp50
 70
     1
102
RTVSPost2010Prop51ColorIndex
 90
      256
102
RTVSPost2010Prop51ColorRGB
 90
-16777216
102
RTVSPost2010PropOp51
 70
     0
102
RTVSPost2010Prop52
140
1.0
102
RTVSPost2010PropOp52
 70
     0
102
RTVSPost2010Prop53
 90
        2
102
RTVSPost2010PropOp53
 70
     1
102
RTVSPost2010Prop54
  1
strokes_ogs.tif
102
RTVSPost2010PropOp54
 70
     1
102
RTVSPost2010Prop55
280
     0
102
RTVSPost2010PropOp55
 70
     1
102
RTVSPost2010Prop56
140
1.0
102
RTVSPost2010PropOp56
 70
     1
102
RTVSPost2010Prop57
140
1.0
102
RTVSPost2010PropOp57
 70
     1
  0
XRECORD
  5
41E
102
{ACAD_REACTORS
330
41D
102
}
330
41D
100
AcDbXrecord
280
     1
102
RTVSPost2010Prop28
280
     0
102
RTVSPost2010PropOp28
 70
     1
102
RTVSPost2010Prop29
280
     1
102
RTVSPost2010PropOp29
 70
     1
102
RTVSPost2010Prop30
280
     1
102
RTVSPost2010PropOp30
 70
     1
102
RTVSPost2010Prop31
280
     0
102
RTVSPost2010PropOp31
 70
     1
102
RTVSPost2010Prop32
280
     0
102
RTVSPost2010PropOp32
 70
     1
102
RTVSPost2010Prop33
280
     0
102
RTVSPost2010PropOp33
 70
     1
102
RTVSPost2010Prop34
280
     0
102
RTVSPost2010PropOp34
 70
     1
102
RTVSPost2010Prop35
280
     0
102
RTVSPost2010PropOp35
 70
     1
102
RTVSPost2010Prop36
280
     0
102
RTVSPost2010PropOp36
 70
     1
102
RTVSPost2010Prop37
 90
       50
102
RTVSPost2010PropOp37
 70
     1
102
RTVSPost2010Prop38
140
0.0
102
RTVSPost2010PropOp38
 70
     1
102
RTVSPost2010Prop39
140
1.0
102
RTVSPost2010PropOp39
 70
     1
102
RTVSPost2010Prop40
 90
        0
102
RTVSPost2010PropOp40
 70
     1
102
RTVSPost2010Prop41ColorIndex
 90
       18
102
RTVSPost2010Prop41ColorRGB
 90
        0
102
RTVSPost2010PropOp41
 70
     1
102
RTVSPost2010Prop42
 90
       50
102
RTVSPost2010PropOp42
 70
     1
102
RTVSPost2010Prop43
 90
        3
102
RTVSPost2010PropOp43
 70
     1
102
RTVSPost2010Prop44ColorIndex
 90
        5
102
RTVSPost2010Prop44ColorRGB
 90
      255
102
RTVSPost2010PropOp44
 70
     1
102
RTVSPost2010Prop45
280
     0
102
RTVSPost2010PropOp45
 70
     1
102
RTVSPost2010Prop46
 90
       50
102
RTVSPost2010PropOp46
 70
     1
102
RTVSPost2010Prop47
 90
       50
102
RTVSPost2010PropOp47
 70
     1
102
RTVSPost2010Prop48
 90
       50
102
RTVSPost2010PropOp48
 70
     1
102
RTVSPost2010Prop49
280
     0
102
RTVSPost2010PropOp49
 70
     1
102
RTVSPost2010Prop50
 90
       50
102
RTVSPost2010PropOp50
 70
     1
102
RTVSPost2010Prop51ColorIndex
 90
      256
102
RTVSPost2010Prop51ColorRGB
 90
-16777216
102
RTVSPost2010PropOp51
 70
     0
102
RTVSPost2010Prop52
140
1.0
102
RTVSPost2010PropOp52
 70
     0
102
RTVSPost2010Prop53
 90
        2
102
RTVSPost2010PropOp53
 70
     1
102
RTVSPost2010Prop54
  1
strokes_ogs.tif
102
RTVSPost2010PropOp54
 70
     1
102
RTVSPost2010Prop55
280
     0
102
RTVSPost2010PropOp55
 70
     1
102
RTVSPost2010Prop56
140
1.0
102
RTVSPost2010PropOp56
 70
     1
102
RTVSPost2010Prop57
140
1.0
102
RTVSPost2010PropOp57
 70
     1
  0
XRECORD
  5
420
102
{ACAD_REACTORS
330
41F
102
}
330
41F
100
AcDbXrecord
280
     1
102
RTVSPost2010Prop28
280
     0
102
RTVSPost2010PropOp28
 70
     1
102
RTVSPost2010Prop29
280
     1
102
RTVSPost2010PropOp29
 70
     1
102
RTVSPost2010Prop30
280
     1
102
RTVSPost2010PropOp30
 70
     1
102
RTVSPost2010Prop31
280
     0
102
RTVSPost2010PropOp31
 70
     1
102
RTVSPost2010Prop32
280
     0
102
RTVSPost2010PropOp32
 70
     1
102
RTVSPost2010Prop33
280
     0
102
RTVSPost2010PropOp33
 70
     1
102
RTVSPost2010Prop34
280
     0
102
RTVSPost2010PropOp34
 70
     1
102
RTVSPost2010Prop35
280
     0
102
RTVSPost2010PropOp35
 70
     1
102
RTVSPost2010Prop36
280
     0
102
RTVSPost2010PropOp36
 70
     1
102
RTVSPost2010Prop37
 90
       50
102
RTVSPost2010PropOp37
 70
     1
102
RTVSPost2010Prop38
140
0.0
102
RTVSPost2010PropOp38
 70
     1
102
RTVSPost2010Prop39
140
1.0
102
RTVSPost2010PropOp39
 70
     1
102
RTVSPost2010Prop40
 90
        0
102
RTVSPost2010PropOp40
 70
     1
102
RTVSPost2010Prop41ColorIndex
 90
       18
102
RTVSPost2010Prop41ColorRGB
 90
        0
102
RTVSPost2010PropOp41
 70
     1
102
RTVSPost2010Prop42
 90
       50
102
RTVSPost2010PropOp42
 70
     1
102
RTVSPost2010Prop43
 90
        3
102
RTVSPost2010PropOp43
 70
     1
102
RTVSPost2010Prop44ColorIndex
 90
        5
102
RTVSPost2010Prop44ColorRGB
 90
      255
102
RTVSPost2010PropOp44
 70
     1
102
RTVSPost2010Prop45
280
     0
102
RTVSPost2010PropOp45
 70
     1
102
RTVSPost2010Prop46
 90
       50
102
RTVSPost2010PropOp46
 70
     1
102
RTVSPost2010Prop47
 90
       50
102
RTVSPost2010PropOp47
 70
     1
102
RTVSPost2010Prop48
 90
       50
102
RTVSPost2010PropOp48
 70
     1
102
RTVSPost2010Prop49
280
     0
102
RTVSPost2010PropOp49
 70
     1
102
RTVSPost2010Prop50
 90
       50
102
RTVSPost2010PropOp50
 70
     1
102
RTVSPost2010Prop51ColorIndex
 90
      256
102
RTVSPost2010Prop51ColorRGB
 90
-16777216
102
RTVSPost2010PropOp51
 70
     0
102
RTVSPost2010Prop52
140
1.0
102
RTVSPost2010PropOp52
 70
     0
102
RTVSPost2010Prop53
 90
        2
102
RTVSPost2010PropOp53
 70
     1
102
RTVSPost2010Prop54
  1
strokes_ogs.tif
102
RTVSPost2010PropOp54
 70
     1
102
RTVSPost2010Prop55
280
     0
102
RTVSPost2010PropOp55
 70
     1
102
RTVSPost2010Prop56
140
1.0
102
RTVSPost2010PropOp56
 70
     1
102
RTVSPost2010Prop57
140
1.0
102
RTVSPost2010PropOp57
 70
     1
  0
XRECORD
  5
422
102
{ACAD_REACTORS
330
421
102
}
330
421
100
AcDbXrecord
280
     1
102
RTVSPost2010Prop28
280
     0
102
RTVSPost2010PropOp28
 70
     1
102
RTVSPost2010Prop29
280
     1
102
RTVSPost2010PropOp29
 70
     1
102
RTVSPost2010Prop30
280
     1
102
RTVSPost2010PropOp30
 70
     1
102
RTVSPost2010Prop31
280
     0
102
RTVSPost2010PropOp31
 70
     1
102
RTVSPost2010Prop32
280
     0
102
RTVSPost2010PropOp32
 70
     1
102
RTVSPost2010Prop33
280
     0
102
RTVSPost2010PropOp33
 70
     1
102
RTVSPost2010Prop34
280
     0
102
RTVSPost2010PropOp34
 70
     1
102
RTVSPost2010Prop35
280
     0
102
RTVSPost2010PropOp35
 70
     1
102
RTVSPost2010Prop36
280
     0
102
RTVSPost2010PropOp36
 70
     1
102
RTVSPost2010Prop37
 90
       50
102
RTVSPost2010PropOp37
 70
     1
102
RTVSPost2010Prop38
140
0.0
102
RTVSPost2010PropOp38
 70
     1
102
RTVSPost2010Prop39
140
1.0
102
RTVSPost2010PropOp39
 70
     1
102
RTVSPost2010Prop40
 90
        0
102
RTVSPost2010PropOp40
 70
     1
102
RTVSPost2010Prop41ColorIndex
 90
       18
102
RTVSPost2010Prop41ColorRGB
 90
        0
102
RTVSPost2010PropOp41
 70
     1
102
RTVSPost2010Prop42
 90
       50
102
RTVSPost2010PropOp42
 70
     1
102
RTVSPost2010Prop43
 90
        3
102
RTVSPost2010PropOp43
 70
     1
102
RTVSPost2010Prop44ColorIndex
 90
        5
102
RTVSPost2010Prop44ColorRGB
 90
      255
102
RTVSPost2010PropOp44
 70
     1
102
RTVSPost2010Prop45
280
     0
102
RTVSPost2010PropOp45
 70
     1
102
RTVSPost2010Prop46
 90
       50
102
RTVSPost2010PropOp46
 70
     1
102
RTVSPost2010Prop47
 90
       50
102
RTVSPost2010PropOp47
 70
     1
102
RTVSPost2010Prop48
 90
       50
102
RTVSPost2010PropOp48
 70
     1
102
RTVSPost2010Prop49
280
     0
102
RTVSPost2010PropOp49
 70
     1
102
RTVSPost2010Prop50
 90
       50
102
RTVSPost2010PropOp50
 70
     1
102
RTVSPost2010Prop51ColorIndex
 90
      256
102
RTVSPost2010Prop51ColorRGB
 90
-16777216
102
RTVSPost2010PropOp51
 70
     0
102
RTVSPost2010Prop52
140
1.0
102
RTVSPost2010PropOp52
 70
     0
102
RTVSPost2010Prop53
 90
        2
102
RTVSPost2010PropOp53
 70
     1
102
RTVSPost2010Prop54
  1
strokes_ogs.tif
102
RTVSPost2010PropOp54
 70
     1
102
RTVSPost2010Prop55
280
     0
102
RTVSPost2010PropOp55
 70
     1
102
RTVSPost2010Prop56
140
1.0
102
RTVSPost2010PropOp56
 70
     1
102
RTVSPost2010Prop57
140
1.0
102
RTVSPost2010PropOp57
 70
     1
  0
XRECORD
  5
428
102
{ACAD_REACTORS
330
427
102
}
330
427
100
AcDbXrecord
280
     1
102
RTVSPost2010Prop28
280
     0
102
RTVSPost2010PropOp28
 70
     1
102
RTVSPost2010Prop29
280
     1
102
RTVSPost2010PropOp29
 70
     1
102
RTVSPost2010Prop30
280
     1
102
RTVSPost2010PropOp30
 70
     1
102
RTVSPost2010Prop31
280
     0
102
RTVSPost2010PropOp31
 70
     1
102
RTVSPost2010Prop32
280
     0
102
RTVSPost2010PropOp32
 70
     1
102
RTVSPost2010Prop33
280
     0
102
RTVSPost2010PropOp33
 70
     1
102
RTVSPost2010Prop34
280
     0
102
RTVSPost2010PropOp34
 70
     1
102
RTVSPost2010Prop35
280
     0
102
RTVSPost2010PropOp35
 70
     1
102
RTVSPost2010Prop36
280
     0
102
RTVSPost2010PropOp36
 70
     1
102
RTVSPost2010Prop37
 90
       50
102
RTVSPost2010PropOp37
 70
     1
102
RTVSPost2010Prop38
140
0.0
102
RTVSPost2010PropOp38
 70
     1
102
RTVSPost2010Prop39
140
1.0
102
RTVSPost2010PropOp39
 70
     1
102
RTVSPost2010Prop40
 90
        0
102
RTVSPost2010PropOp40
 70
     1
102
RTVSPost2010Prop41ColorIndex
 90
       18
102
RTVSPost2010Prop41ColorRGB
 90
        0
102
RTVSPost2010PropOp41
 70
     1
102
RTVSPost2010Prop42
 90
       50
102
RTVSPost2010PropOp42
 70
     1
102
RTVSPost2010Prop43
 90
        3
102
RTVSPost2010PropOp43
 70
     1
102
RTVSPost2010Prop44ColorIndex
 90
        5
102
RTVSPost2010Prop44ColorRGB
 90
      255
102
RTVSPost2010PropOp44
 70
     1
102
RTVSPost2010Prop45
280
     0
102
RTVSPost2010PropOp45
 70
     1
102
RTVSPost2010Prop46
 90
       50
102
RTVSPost2010PropOp46
 70
     1
102
RTVSPost2010Prop47
 90
       50
102
RTVSPost2010PropOp47
 70
     1
102
RTVSPost2010Prop48
 90
       50
102
RTVSPost2010PropOp48
 70
     1
102
RTVSPost2010Prop49
280
     0
102
RTVSPost2010PropOp49
 70
     1
102
RTVSPost2010Prop50
 90
       50
102
RTVSPost2010PropOp50
 70
     1
102
RTVSPost2010Prop51ColorIndex
 90
      256
102
RTVSPost2010Prop51ColorRGB
 90
-16777216
102
RTVSPost2010PropOp51
 70
     0
102
RTVSPost2010Prop52
140
1.0
102
RTVSPost2010PropOp52
 70
     0
102
RTVSPost2010Prop53
 90
        2
102
RTVSPost2010PropOp53
 70
     1
102
RTVSPost2010Prop54
  1
strokes_ogs.tif
102
RTVSPost2010PropOp54
 70
     1
102
RTVSPost2010Prop55
280
     0
102
RTVSPost2010PropOp55
 70
     1
102
RTVSPost2010Prop56
140
1.0
102
RTVSPost2010PropOp56
 70
     1
102
RTVSPost2010Prop57
140
1.0
102
RTVSPost2010PropOp57
 70
     1
  0
XRECORD
  5
43C
102
{ACAD_REACTORS
330
43B
102
}
330
43B
100
AcDbXrecord
280
     1
102
RTVSPost2010Prop28
280
     0
102
RTVSPost2010PropOp28
 70
     0
102
RTVSPost2010Prop29
280
     1
102
RTVSPost2010PropOp29
 70
     0
102
RTVSPost2010Prop30
280
     1
102
RTVSPost2010PropOp30
 70
     0
102
RTVSPost2010Prop31
280
     0
102
RTVSPost2010PropOp31
 70
     0
102
RTVSPost2010Prop32
280
     0
102
RTVSPost2010PropOp32
 70
     0
102
RTVSPost2010Prop33
280
     0
102
RTVSPost2010PropOp33
 70
     0
102
RTVSPost2010Prop34
280
     0
102
RTVSPost2010PropOp34
 70
     0
102
RTVSPost2010Prop35
280
     0
102
RTVSPost2010PropOp35
 70
     0
102
RTVSPost2010Prop36
280
     0
102
RTVSPost2010PropOp36
 70
     0
102
RTVSPost2010Prop37
 90
       50
102
RTVSPost2010PropOp37
 70
     0
102
RTVSPost2010Prop38
140
0.0
102
RTVSPost2010PropOp38
 70
     0
102
RTVSPost2010Prop39
140
1.0
102
RTVSPost2010PropOp39
 70
     0
102
RTVSPost2010Prop40
 90
        0
102
RTVSPost2010PropOp40
 70
     0
102
RTVSPost2010Prop41ColorIndex
 90
       18
102
RTVSPost2010Prop41ColorRGB
 90
        0
102
RTVSPost2010PropOp41
 70
     0
102
RTVSPost2010Prop42
 90
       50
102
RTVSPost2010PropOp42
 70
     0
102
RTVSPost2010Prop43
 90
        3
102
RTVSPost2010PropOp43
 70
     0
102
RTVSPost2010Prop44ColorIndex
 90
        5
102
RTVSPost2010Prop44ColorRGB
 90
      255
102
RTVSPost2010PropOp44
 70
     0
102
RTVSPost2010Prop45
280
     0
102
RTVSPost2010PropOp45
 70
     0
102
RTVSPost2010Prop46
 90
       50
102
RTVSPost2010PropOp46
 70
     0
102
RTVSPost2010Prop47
 90
       50
102
RTVSPost2010PropOp47
 70
     0
102
RTVSPost2010Prop48
 90
       50
102
RTVSPost2010PropOp48
 70
     0
102
RTVSPost2010Prop49
280
     0
102
RTVSPost2010PropOp49
 70
     0
102
RTVSPost2010Prop50
 90
       50
102
RTVSPost2010PropOp50
 70
     0
102
RTVSPost2010Prop51ColorIndex
 90
      256
102
RTVSPost2010Prop51ColorRGB
 90
-16777216
102
RTVSPost2010PropOp51
 70
     0
102
RTVSPost2010Prop52
140
1.0
102
RTVSPost2010PropOp52
 70
     0
102
RTVSPost2010Prop53
 90
        2
102
RTVSPost2010PropOp53
 70
     0
102
RTVSPost2010Prop54
  1
strokes_ogs.tif
102
RTVSPost2010PropOp54
 70
     0
102
RTVSPost2010Prop55
280
     0
102
RTVSPost2010PropOp55
 70
     0
102
RTVSPost2010Prop56
140
1.0
102
RTVSPost2010PropOp56
 70
     0
102
RTVSPost2010Prop57
140
1.0
102
RTVSPost2010PropOp57
 70
     0
  0
XRECORD
  5
436
102
{ACAD_REACTORS
330
435
102
}
330
435
100
AcDbXrecord
280
     1
102
RTVSPost2010Prop28
280
     0
102
RTVSPost2010PropOp28
 70
     1
102
RTVSPost2010Prop29
280
     1
102
RTVSPost2010PropOp29
 70
     1
102
RTVSPost2010Prop30
280
     1
102
RTVSPost2010PropOp30
 70
     1
102
RTVSPost2010Prop31
280
     0
102
RTVSPost2010PropOp31
 70
     1
102
RTVSPost2010Prop32
280
     0
102
RTVSPost2010PropOp32
 70
     1
102
RTVSPost2010Prop33
280
     0
102
RTVSPost2010PropOp33
 70
     1
102
RTVSPost2010Prop34
280
     0
102
RTVSPost2010PropOp34
 70
     1
102
RTVSPost2010Prop35
280
     0
102
RTVSPost2010PropOp35
 70
     1
102
RTVSPost2010Prop36
280
     0
102
RTVSPost2010PropOp36
 70
     1
102
RTVSPost2010Prop37
 90
       50
102
RTVSPost2010PropOp37
 70
     1
102
RTVSPost2010Prop38
140
0.0
102
RTVSPost2010PropOp38
 70
     1
102
RTVSPost2010Prop39
140
1.0
102
RTVSPost2010PropOp39
 70
     1
102
RTVSPost2010Prop40
 90
        0
102
RTVSPost2010PropOp40
 70
     1
102
RTVSPost2010Prop41ColorIndex
 90
       18
102
RTVSPost2010Prop41ColorRGB
 90
        0
102
RTVSPost2010PropOp41
 70
     1
102
RTVSPost2010Prop42
 90
       50
102
RTVSPost2010PropOp42
 70
     1
102
RTVSPost2010Prop43
 90
        3
102
RTVSPost2010PropOp43
 70
     1
102
RTVSPost2010Prop44ColorIndex
 90
        5
102
RTVSPost2010Prop44ColorRGB
 90
      255
102
RTVSPost2010PropOp44
 70
     1
102
RTVSPost2010Prop45
280
     0
102
RTVSPost2010PropOp45
 70
     1
102
RTVSPost2010Prop46
 90
       50
102
RTVSPost2010PropOp46
 70
     1
102
RTVSPost2010Prop47
 90
       50
102
RTVSPost2010PropOp47
 70
     1
102
RTVSPost2010Prop48
 90
       50
102
RTVSPost2010PropOp48
 70
     1
102
RTVSPost2010Prop49
280
     0
102
RTVSPost2010PropOp49
 70
     1
102
RTVSPost2010Prop50
 90
       50
102
RTVSPost2010PropOp50
 70
     1
102
RTVSPost2010Prop51ColorIndex
 90
      256
102
RTVSPost2010Prop51ColorRGB
 90
-16777216
102
RTVSPost2010PropOp51
 70
     0
102
RTVSPost2010Prop52
140
1.0
102
RTVSPost2010PropOp52
 70
     0
102
RTVSPost2010Prop53
 90
        2
102
RTVSPost2010PropOp53
 70
     1
102
RTVSPost2010Prop54
  1
strokes_ogs.tif
102
RTVSPost2010PropOp54
 70
     1
102
RTVSPost2010Prop55
280
     0
102
RTVSPost2010PropOp55
 70
     1
102
RTVSPost2010Prop56
140
1.0
102
RTVSPost2010PropOp56
 70
     1
102
RTVSPost2010Prop57
140
1.0
102
RTVSPost2010PropOp57
 70
     1
  0
XRECORD
  5
43E
102
{ACAD_REACTORS
330
43D
102
}
330
43D
100
AcDbXrecord
280
     1
102
RTVSPost2010Prop28
280
     0
102
RTVSPost2010PropOp28
 70
     0
102
RTVSPost2010Prop29
280
     1
102
RTVSPost2010PropOp29
 70
     0
102
RTVSPost2010Prop30
280
     1
102
RTVSPost2010PropOp30
 70
     0
102
RTVSPost2010Prop31
280
     0
102
RTVSPost2010PropOp31
 70
     0
102
RTVSPost2010Prop32
280
     0
102
RTVSPost2010PropOp32
 70
     0
102
RTVSPost2010Prop33
280
     0
102
RTVSPost2010PropOp33
 70
     0
102
RTVSPost2010Prop34
280
     0
102
RTVSPost2010PropOp34
 70
     0
102
RTVSPost2010Prop35
280
     0
102
RTVSPost2010PropOp35
 70
     0
102
RTVSPost2010Prop36
280
     0
102
RTVSPost2010PropOp36
 70
     0
102
RTVSPost2010Prop37
 90
       50
102
RTVSPost2010PropOp37
 70
     0
102
RTVSPost2010Prop38
140
0.0
102
RTVSPost2010PropOp38
 70
     0
102
RTVSPost2010Prop39
140
1.0
102
RTVSPost2010PropOp39
 70
     0
102
RTVSPost2010Prop40
 90
        0
102
RTVSPost2010PropOp40
 70
     0
102
RTVSPost2010Prop41ColorIndex
 90
       18
102
RTVSPost2010Prop41ColorRGB
 90
        0
102
RTVSPost2010PropOp41
 70
     0
102
RTVSPost2010Prop42
 90
       50
102
RTVSPost2010PropOp42
 70
     0
102
RTVSPost2010Prop43
 90
        3
102
RTVSPost2010PropOp43
 70
     0
102
RTVSPost2010Prop44ColorIndex
 90
        5
102
RTVSPost2010Prop44ColorRGB
 90
      255
102
RTVSPost2010PropOp44
 70
     0
102
RTVSPost2010Prop45
280
     0
102
RTVSPost2010PropOp45
 70
     0
102
RTVSPost2010Prop46
 90
       50
102
RTVSPost2010PropOp46
 70
     0
102
RTVSPost2010Prop47
 90
       50
102
RTVSPost2010PropOp47
 70
     0
102
RTVSPost2010Prop48
 90
       50
102
RTVSPost2010PropOp48
 70
     0
102
RTVSPost2010Prop49
280
     0
102
RTVSPost2010PropOp49
 70
     0
102
RTVSPost2010Prop50
 90
       50
102
RTVSPost2010PropOp50
 70
     0
102
RTVSPost2010Prop51ColorIndex
 90
      256
102
RTVSPost2010Prop51ColorRGB
 90
-16777216
102
RTVSPost2010PropOp51
 70
     0
102
RTVSPost2010Prop52
140
1.0
102
RTVSPost2010PropOp52
 70
     0
102
RTVSPost2010Prop53
 90
        2
102
RTVSPost2010PropOp53
 70
     0
102
RTVSPost2010Prop54
  1
strokes_ogs.tif
102
RTVSPost2010PropOp54
 70
     0
102
RTVSPost2010Prop55
280
     0
102
RTVSPost2010PropOp55
 70
     0
102
RTVSPost2010Prop56
140
1.0
102
RTVSPost2010PropOp56
 70
     0
102
RTVSPost2010Prop57
140
1.0
102
RTVSPost2010PropOp57
 70
     0
  0
XRECORD
  5
42C
102
{ACAD_REACTORS
330
42B
102
}
330
42B
100
AcDbXrecord
280
     1
102
RTVSPost2010Prop28
280
     0
102
RTVSPost2010PropOp28
 70
     1
102
RTVSPost2010Prop29
280
     1
102
RTVSPost2010PropOp29
 70
     1
102
RTVSPost2010Prop30
280
     1
102
RTVSPost2010PropOp30
 70
     1
102
RTVSPost2010Prop31
280
     0
102
RTVSPost2010PropOp31
 70
     1
102
RTVSPost2010Prop32
280
     0
102
RTVSPost2010PropOp32
 70
     1
102
RTVSPost2010Prop33
280
     0
102
RTVSPost2010PropOp33
 70
     1
102
RTVSPost2010Prop34
280
     0
102
RTVSPost2010PropOp34
 70
     1
102
RTVSPost2010Prop35
280
     0
102
RTVSPost2010PropOp35
 70
     1
102
RTVSPost2010Prop36
280
     0
102
RTVSPost2010PropOp36
 70
     1
102
RTVSPost2010Prop37
 90
       50
102
RTVSPost2010PropOp37
 70
     1
102
RTVSPost2010Prop38
140
0.0
102
RTVSPost2010PropOp38
 70
     1
102
RTVSPost2010Prop39
140
1.0
102
RTVSPost2010PropOp39
 70
     1
102
RTVSPost2010Prop40
 90
        0
102
RTVSPost2010PropOp40
 70
     1
102
RTVSPost2010Prop41ColorIndex
 90
       18
102
RTVSPost2010Prop41ColorRGB
 90
        0
102
RTVSPost2010PropOp41
 70
     1
102
RTVSPost2010Prop42
 90
       50
102
RTVSPost2010PropOp42
 70
     1
102
RTVSPost2010Prop43
 90
        3
102
RTVSPost2010PropOp43
 70
     1
102
RTVSPost2010Prop44ColorIndex
 90
        5
102
RTVSPost2010Prop44ColorRGB
 90
      255
102
RTVSPost2010PropOp44
 70
     1
102
RTVSPost2010Prop45
280
     0
102
RTVSPost2010PropOp45
 70
     1
102
RTVSPost2010Prop46
 90
       50
102
RTVSPost2010PropOp46
 70
     1
102
RTVSPost2010Prop47
 90
       50
102
RTVSPost2010PropOp47
 70
     1
102
RTVSPost2010Prop48
 90
       50
102
RTVSPost2010PropOp48
 70
     1
102
RTVSPost2010Prop49
280
     0
102
RTVSPost2010PropOp49
 70
     1
102
RTVSPost2010Prop50
 90
       50
102
RTVSPost2010PropOp50
 70
     1
102
RTVSPost2010Prop51ColorIndex
 90
      256
102
RTVSPost2010Prop51ColorRGB
 90
-16777216
102
RTVSPost2010PropOp51
 70
     0
102
RTVSPost2010Prop52
140
1.0
102
RTVSPost2010PropOp52
 70
     0
102
RTVSPost2010Prop53
 90
        2
102
RTVSPost2010PropOp53
 70
     1
102
RTVSPost2010Prop54
  1
strokes_ogs.tif
102
RTVSPost2010PropOp54
 70
     1
102
RTVSPost2010Prop55
280
     0
102
RTVSPost2010PropOp55
 70
     1
102
RTVSPost2010Prop56
140
1.0
102
RTVSPost2010PropOp56
 70
     1
102
RTVSPost2010Prop57
140
1.0
102
RTVSPost2010PropOp57
 70
     1
  0
XRECORD
  5
44A
102
{ACAD_REACTORS
330
449
102
}
330
449
100
AcDbXrecord
280
     1
102
RTVSPost2010Prop28
280
     0
102
RTVSPost2010PropOp28
 70
     1
102
RTVSPost2010Prop29
280
     1
102
RTVSPost2010PropOp29
 70
     1
102
RTVSPost2010Prop30
280
     1
102
RTVSPost2010PropOp30
 70
     1
102
RTVSPost2010Prop31
280
     0
102
RTVSPost2010PropOp31
 70
     1
102
RTVSPost2010Prop32
280
     0
102
RTVSPost2010PropOp32
 70
     1
102
RTVSPost2010Prop33
280
     0
102
RTVSPost2010PropOp33
 70
     1
102
RTVSPost2010Prop34
280
     0
102
RTVSPost2010PropOp34
 70
     1
102
RTVSPost2010Prop35
280
     0
102
RTVSPost2010PropOp35
 70
     1
102
RTVSPost2010Prop36
280
     0
102
RTVSPost2010PropOp36
 70
     1
102
RTVSPost2010Prop37
 90
       50
102
RTVSPost2010PropOp37
 70
     1
102
RTVSPost2010Prop38
140
0.0
102
RTVSPost2010PropOp38
 70
     1
102
RTVSPost2010Prop39
140
1.0
102
RTVSPost2010PropOp39
 70
     1
102
RTVSPost2010Prop40
 90
        0
102
RTVSPost2010PropOp40
 70
     1
102
RTVSPost2010Prop41ColorIndex
 90
       18
102
RTVSPost2010Prop41ColorRGB
 90
        0
102
RTVSPost2010PropOp41
 70
     1
102
RTVSPost2010Prop42
 90
       50
102
RTVSPost2010PropOp42
 70
     1
102
RTVSPost2010Prop43
 90
        3
102
RTVSPost2010PropOp43
 70
     1
102
RTVSPost2010Prop44ColorIndex
 90
        5
102
RTVSPost2010Prop44ColorRGB
 90
      255
102
RTVSPost2010PropOp44
 70
     1
102
RTVSPost2010Prop45
280
     0
102
RTVSPost2010PropOp45
 70
     1
102
RTVSPost2010Prop46
 90
       50
102
RTVSPost2010PropOp46
 70
     1
102
RTVSPost2010Prop47
 90
       50
102
RTVSPost2010PropOp47
 70
     1
102
RTVSPost2010Prop48
 90
       50
102
RTVSPost2010PropOp48
 70
     1
102
RTVSPost2010Prop49
280
     0
102
RTVSPost2010PropOp49
 70
     1
102
RTVSPost2010Prop50
 90
       50
102
RTVSPost2010PropOp50
 70
     1
102
RTVSPost2010Prop51ColorIndex
 90
      256
102
RTVSPost2010Prop51ColorRGB
 90
-16777216
102
RTVSPost2010PropOp51
 70
     0
102
RTVSPost2010Prop52
140
1.0
102
RTVSPost2010PropOp52
 70
     0
102
RTVSPost2010Prop53
 90
        2
102
RTVSPost2010PropOp53
 70
     1
102
RTVSPost2010Prop54
  1
strokes_ogs.tif
102
RTVSPost2010PropOp54
 70
     1
102
RTVSPost2010Prop55
280
     0
102
RTVSPost2010PropOp55
 70
     1
102
RTVSPost2010Prop56
140
1.0
102
RTVSPost2010PropOp56
 70
     1
102
RTVSPost2010Prop57
140
1.0
102
RTVSPost2010PropOp57
 70
     1
  0
XRECORD
  5
448
102
{ACAD_REACTORS
330
447
102
}
330
447
100
AcDbXrecord
280
     1
102
RTVSPost2010Prop28
280
     0
102
RTVSPost2010PropOp28
 70
     1
102
RTVSPost2010Prop29
280
     1
102
RTVSPost2010PropOp29
 70
     1
102
RTVSPost2010Prop30
280
     1
102
RTVSPost2010PropOp30
 70
     1
102
RTVSPost2010Prop31
280
     0
102
RTVSPost2010PropOp31
 70
     1
102
RTVSPost2010Prop32
280
     0
102
RTVSPost2010PropOp32
 70
     1
102
RTVSPost2010Prop33
280
     0
102
RTVSPost2010PropOp33
 70
     1
102
RTVSPost2010Prop34
280
     0
102
RTVSPost2010PropOp34
 70
     1
102
RTVSPost2010Prop35
280
     0
102
RTVSPost2010PropOp35
 70
     1
102
RTVSPost2010Prop36
280
     0
102
RTVSPost2010PropOp36
 70
     1
102
RTVSPost2010Prop37
 90
       50
102
RTVSPost2010PropOp37
 70
     1
102
RTVSPost2010Prop38
140
0.0
102
RTVSPost2010PropOp38
 70
     1
102
RTVSPost2010Prop39
140
1.0
102
RTVSPost2010PropOp39
 70
     1
102
RTVSPost2010Prop40
 90
        0
102
RTVSPost2010PropOp40
 70
     1
102
RTVSPost2010Prop41ColorIndex
 90
       18
102
RTVSPost2010Prop41ColorRGB
 90
        0
102
RTVSPost2010PropOp41
 70
     1
102
RTVSPost2010Prop42
 90
       50
102
RTVSPost2010PropOp42
 70
     1
102
RTVSPost2010Prop43
 90
        3
102
RTVSPost2010PropOp43
 70
     1
102
RTVSPost2010Prop44ColorIndex
 90
        5
102
RTVSPost2010Prop44ColorRGB
 90
      255
102
RTVSPost2010PropOp44
 70
     1
102
RTVSPost2010Prop45
280
     0
102
RTVSPost2010PropOp45
 70
     1
102
RTVSPost2010Prop46
 90
       50
102
RTVSPost2010PropOp46
 70
     1
102
RTVSPost2010Prop47
 90
       50
102
RTVSPost2010PropOp47
 70
     1
102
RTVSPost2010Prop48
 90
       50
102
RTVSPost2010PropOp48
 70
     1
102
RTVSPost2010Prop49
280
     0
102
RTVSPost2010PropOp49
 70
     1
102
RTVSPost2010Prop50
 90
       50
102
RTVSPost2010PropOp50
 70
     1
102
RTVSPost2010Prop51ColorIndex
 90
      256
102
RTVSPost2010Prop51ColorRGB
 90
-16777216
102
RTVSPost2010PropOp51
 70
     0
102
RTVSPost2010Prop52
140
1.0
102
RTVSPost2010PropOp52
 70
     0
102
RTVSPost2010Prop53
 90
        2
102
RTVSPost2010PropOp53
 70
     1
102
RTVSPost2010Prop54
  1
strokes_ogs.tif
102
RTVSPost2010PropOp54
 70
     1
102
RTVSPost2010Prop55
280
     0
102
RTVSPost2010PropOp55
 70
     1
102
RTVSPost2010Prop56
140
1.0
102
RTVSPost2010PropOp56
 70
     1
102
RTVSPost2010Prop57
140
1.0
102
RTVSPost2010PropOp57
 70
     1
  0
XRECORD
  5
442
102
{ACAD_REACTORS
330
441
102
}
330
441
100
AcDbXrecord
280
     1
102
RTVSPost2010Prop28
280
     0
102
RTVSPost2010PropOp28
 70
     1
102
RTVSPost2010Prop29
280
     1
102
RTVSPost2010PropOp29
 70
     1
102
RTVSPost2010Prop30
280
     1
102
RTVSPost2010PropOp30
 70
     1
102
RTVSPost2010Prop31
280
     0
102
RTVSPost2010PropOp31
 70
     1
102
RTVSPost2010Prop32
280
     0
102
RTVSPost2010PropOp32
 70
     1
102
RTVSPost2010Prop33
280
     0
102
RTVSPost2010PropOp33
 70
     1
102
RTVSPost2010Prop34
280
     0
102
RTVSPost2010PropOp34
 70
     1
102
RTVSPost2010Prop35
280
     0
102
RTVSPost2010PropOp35
 70
     1
102
RTVSPost2010Prop36
280
     0
102
RTVSPost2010PropOp36
 70
     1
102
RTVSPost2010Prop37
 90
       50
102
RTVSPost2010PropOp37
 70
     1
102
RTVSPost2010Prop38
140
0.0
102
RTVSPost2010PropOp38
 70
     1
102
RTVSPost2010Prop39
140
1.0
102
RTVSPost2010PropOp39
 70
     1
102
RTVSPost2010Prop40
 90
        0
102
RTVSPost2010PropOp40
 70
     1
102
RTVSPost2010Prop41ColorIndex
 90
       18
102
RTVSPost2010Prop41ColorRGB
 90
        0
102
RTVSPost2010PropOp41
 70
     1
102
RTVSPost2010Prop42
 90
       50
102
RTVSPost2010PropOp42
 70
     1
102
RTVSPost2010Prop43
 90
        3
102
RTVSPost2010PropOp43
 70
     1
102
RTVSPost2010Prop44ColorIndex
 90
        5
102
RTVSPost2010Prop44ColorRGB
 90
      255
102
RTVSPost2010PropOp44
 70
     1
102
RTVSPost2010Prop45
280
     0
102
RTVSPost2010PropOp45
 70
     1
102
RTVSPost2010Prop46
 90
       50
102
RTVSPost2010PropOp46
 70
     1
102
RTVSPost2010Prop47
 90
       50
102
RTVSPost2010PropOp47
 70
     1
102
RTVSPost2010Prop48
 90
       50
102
RTVSPost2010PropOp48
 70
     1
102
RTVSPost2010Prop49
280
     0
102
RTVSPost2010PropOp49
 70
     1
102
RTVSPost2010Prop50
 90
       50
102
RTVSPost2010PropOp50
 70
     1
102
RTVSPost2010Prop51ColorIndex
 90
      256
102
RTVSPost2010Prop51ColorRGB
 90
-16777216
102
RTVSPost2010PropOp51
 70
     0
102
RTVSPost2010Prop52
140
1.0
102
RTVSPost2010PropOp52
 70
     0
102
RTVSPost2010Prop53
 90
        2
102
RTVSPost2010PropOp53
 70
     1
102
RTVSPost2010Prop54
  1
strokes_ogs.tif
102
RTVSPost2010PropOp54
 70
     1
102
RTVSPost2010Prop55
280
     0
102
RTVSPost2010PropOp55
 70
     1
102
RTVSPost2010Prop56
140
1.0
102
RTVSPost2010PropOp56
 70
     1
102
RTVSPost2010Prop57
140
1.0
102
RTVSPost2010PropOp57
 70
     1
  0
XRECORD
  5
444
102
{ACAD_REACTORS
330
443
102
}
330
443
100
AcDbXrecord
280
     1
102
RTVSPost2010Prop28
280
     0
102
RTVSPost2010PropOp28
 70
     1
102
RTVSPost2010Prop29
280
     1
102
RTVSPost2010PropOp29
 70
     1
102
RTVSPost2010Prop30
280
     1
102
RTVSPost2010PropOp30
 70
     1
102
RTVSPost2010Prop31
280
     0
102
RTVSPost2010PropOp31
 70
     1
102
RTVSPost2010Prop32
280
     0
102
RTVSPost2010PropOp32
 70
     1
102
RTVSPost2010Prop33
280
     0
102
RTVSPost2010PropOp33
 70
     1
102
RTVSPost2010Prop34
280
     0
102
RTVSPost2010PropOp34
 70
     1
102
RTVSPost2010Prop35
280
     0
102
RTVSPost2010PropOp35
 70
     1
102
RTVSPost2010Prop36
280
     0
102
RTVSPost2010PropOp36
 70
     1
102
RTVSPost2010Prop37
 90
       50
102
RTVSPost2010PropOp37
 70
     1
102
RTVSPost2010Prop38
140
0.0
102
RTVSPost2010PropOp38
 70
     1
102
RTVSPost2010Prop39
140
1.0
102
RTVSPost2010PropOp39
 70
     1
102
RTVSPost2010Prop40
 90
        0
102
RTVSPost2010PropOp40
 70
     1
102
RTVSPost2010Prop41ColorIndex
 90
       18
102
RTVSPost2010Prop41ColorRGB
 90
        0
102
RTVSPost2010PropOp41
 70
     1
102
RTVSPost2010Prop42
 90
       50
102
RTVSPost2010PropOp42
 70
     1
102
RTVSPost2010Prop43
 90
        3
102
RTVSPost2010PropOp43
 70
     1
102
RTVSPost2010Prop44ColorIndex
 90
        5
102
RTVSPost2010Prop44ColorRGB
 90
      255
102
RTVSPost2010PropOp44
 70
     1
102
RTVSPost2010Prop45
280
     0
102
RTVSPost2010PropOp45
 70
     1
102
RTVSPost2010Prop46
 90
       50
102
RTVSPost2010PropOp46
 70
     1
102
RTVSPost2010Prop47
 90
       50
102
RTVSPost2010PropOp47
 70
     1
102
RTVSPost2010Prop48
 90
       50
102
RTVSPost2010PropOp48
 70
     1
102
RTVSPost2010Prop49
280
     0
102
RTVSPost2010PropOp49
 70
     1
102
RTVSPost2010Prop50
 90
       50
102
RTVSPost2010PropOp50
 70
     1
102
RTVSPost2010Prop51ColorIndex
 90
      256
102
RTVSPost2010Prop51ColorRGB
 90
-16777216
102
RTVSPost2010PropOp51
 70
     0
102
RTVSPost2010Prop52
140
1.0
102
RTVSPost2010PropOp52
 70
     0
102
RTVSPost2010Prop53
 90
        2
102
RTVSPost2010PropOp53
 70
     1
102
RTVSPost2010Prop54
  1
strokes_ogs.tif
102
RTVSPost2010PropOp54
 70
     1
102
RTVSPost2010Prop55
280
     0
102
RTVSPost2010PropOp55
 70
     1
102
RTVSPost2010Prop56
140
1.0
102
RTVSPost2010PropOp56
 70
     1
102
RTVSPost2010Prop57
140
1.0
102
RTVSPost2010PropOp57
 70
     1
  0
XRECORD
  5
434
102
{ACAD_REACTORS
330
433
102
}
330
433
100
AcDbXrecord
280
     1
102
RTVSPost2010Prop28
280
     0
102
RTVSPost2010PropOp28
 70
     1
102
RTVSPost2010Prop29
280
     1
102
RTVSPost2010PropOp29
 70
     1
102
RTVSPost2010Prop30
280
     1
102
RTVSPost2010PropOp30
 70
     1
102
RTVSPost2010Prop31
280
     0
102
RTVSPost2010PropOp31
 70
     1
102
RTVSPost2010Prop32
280
     0
102
RTVSPost2010PropOp32
 70
     1
102
RTVSPost2010Prop33
280
     0
102
RTVSPost2010PropOp33
 70
     1
102
RTVSPost2010Prop34
280
     0
102
RTVSPost2010PropOp34
 70
     1
102
RTVSPost2010Prop35
280
     0
102
RTVSPost2010PropOp35
 70
     1
102
RTVSPost2010Prop36
280
     0
102
RTVSPost2010PropOp36
 70
     1
102
RTVSPost2010Prop37
 90
       50
102
RTVSPost2010PropOp37
 70
     1
102
RTVSPost2010Prop38
140
0.0
102
RTVSPost2010PropOp38
 70
     1
102
RTVSPost2010Prop39
140
1.0
102
RTVSPost2010PropOp39
 70
     1
102
RTVSPost2010Prop40
 90
        0
102
RTVSPost2010PropOp40
 70
     1
102
RTVSPost2010Prop41ColorIndex
 90
       18
102
RTVSPost2010Prop41ColorRGB
 90
        0
102
RTVSPost2010PropOp41
 70
     1
102
RTVSPost2010Prop42
 90
       50
102
RTVSPost2010PropOp42
 70
     1
102
RTVSPost2010Prop43
 90
        3
102
RTVSPost2010PropOp43
 70
     1
102
RTVSPost2010Prop44ColorIndex
 90
        5
102
RTVSPost2010Prop44ColorRGB
 90
      255
102
RTVSPost2010PropOp44
 70
     1
102
RTVSPost2010Prop45
280
     0
102
RTVSPost2010PropOp45
 70
     1
102
RTVSPost2010Prop46
 90
       50
102
RTVSPost2010PropOp46
 70
     1
102
RTVSPost2010Prop47
 90
       50
102
RTVSPost2010PropOp47
 70
     1
102
RTVSPost2010Prop48
 90
       50
102
RTVSPost2010PropOp48
 70
     1
102
RTVSPost2010Prop49
280
     0
102
RTVSPost2010PropOp49
 70
     1
102
RTVSPost2010Prop50
 90
       50
102
RTVSPost2010PropOp50
 70
     1
102
RTVSPost2010Prop51ColorIndex
 90
      256
102
RTVSPost2010Prop51ColorRGB
 90
-16777216
102
RTVSPost2010PropOp51
 70
     0
102
RTVSPost2010Prop52
140
1.0
102
RTVSPost2010PropOp52
 70
     0
102
RTVSPost2010Prop53
 90
        2
102
RTVSPost2010PropOp53
 70
     1
102
RTVSPost2010Prop54
  1
strokes_ogs.tif
102
RTVSPost2010PropOp54
 70
     1
102
RTVSPost2010Prop55
280
     0
102
RTVSPost2010PropOp55
 70
     1
102
RTVSPost2010Prop56
140
1.0
102
RTVSPost2010PropOp56
 70
     1
102
RTVSPost2010Prop57
140
1.0
102
RTVSPost2010PropOp57
 70
     1
  0
XRECORD
  5
426
102
{ACAD_REACTORS
330
425
102
}
330
425
100
AcDbXrecord
280
     1
102
RTVSPost2010Prop28
280
     0
102
RTVSPost2010PropOp28
 70
     1
102
RTVSPost2010Prop29
280
     1
102
RTVSPost2010PropOp29
 70
     1
102
RTVSPost2010Prop30
280
     1
102
RTVSPost2010PropOp30
 70
     1
102
RTVSPost2010Prop31
280
     0
102
RTVSPost2010PropOp31
 70
     1
102
RTVSPost2010Prop32
280
     0
102
RTVSPost2010PropOp32
 70
     1
102
RTVSPost2010Prop33
280
     0
102
RTVSPost2010PropOp33
 70
     1
102
RTVSPost2010Prop34
280
     0
102
RTVSPost2010PropOp34
 70
     1
102
RTVSPost2010Prop35
280
     0
102
RTVSPost2010PropOp35
 70
     1
102
RTVSPost2010Prop36
280
     0
102
RTVSPost2010PropOp36
 70
     1
102
RTVSPost2010Prop37
 90
       50
102
RTVSPost2010PropOp37
 70
     1
102
RTVSPost2010Prop38
140
0.0
102
RTVSPost2010PropOp38
 70
     1
102
RTVSPost2010Prop39
140
1.0
102
RTVSPost2010PropOp39
 70
     1
102
RTVSPost2010Prop40
 90
        0
102
RTVSPost2010PropOp40
 70
     1
102
RTVSPost2010Prop41ColorIndex
 90
       18
102
RTVSPost2010Prop41ColorRGB
 90
        0
102
RTVSPost2010PropOp41
 70
     1
102
RTVSPost2010Prop42
 90
       50
102
RTVSPost2010PropOp42
 70
     1
102
RTVSPost2010Prop43
 90
        3
102
RTVSPost2010PropOp43
 70
     1
102
RTVSPost2010Prop44ColorIndex
 90
        5
102
RTVSPost2010Prop44ColorRGB
 90
      255
102
RTVSPost2010PropOp44
 70
     1
102
RTVSPost2010Prop45
280
     0
102
RTVSPost2010PropOp45
 70
     1
102
RTVSPost2010Prop46
 90
       50
102
RTVSPost2010PropOp46
 70
     1
102
RTVSPost2010Prop47
 90
       50
102
RTVSPost2010PropOp47
 70
     1
102
RTVSPost2010Prop48
 90
       50
102
RTVSPost2010PropOp48
 70
     1
102
RTVSPost2010Prop49
280
     0
102
RTVSPost2010PropOp49
 70
     1
102
RTVSPost2010Prop50
 90
       50
102
RTVSPost2010PropOp50
 70
     1
102
RTVSPost2010Prop51ColorIndex
 90
      256
102
RTVSPost2010Prop51ColorRGB
 90
-16777216
102
RTVSPost2010PropOp51
 70
     0
102
RTVSPost2010Prop52
140
1.0
102
RTVSPost2010PropOp52
 70
     0
102
RTVSPost2010Prop53
 90
        2
102
RTVSPost2010PropOp53
 70
     1
102
RTVSPost2010Prop54
  1
strokes_ogs.tif
102
RTVSPost2010PropOp54
 70
     1
102
RTVSPost2010Prop55
280
     0
102
RTVSPost2010PropOp55
 70
     1
102
RTVSPost2010Prop56
140
1.0
102
RTVSPost2010PropOp56
 70
     1
102
RTVSPost2010Prop57
140
1.0
102
RTVSPost2010PropOp57
 70
     1
  0
XRECORD
  5
446
102
{ACAD_REACTORS
330
445
102
}
330
445
100
AcDbXrecord
280
     1
102
RTVSPost2010Prop28
280
     0
102
RTVSPost2010PropOp28
 70
     1
102
RTVSPost2010Prop29
280
     1
102
RTVSPost2010PropOp29
 70
     1
102
RTVSPost2010Prop30
280
     1
102
RTVSPost2010PropOp30
 70
     1
102
RTVSPost2010Prop31
280
     0
102
RTVSPost2010PropOp31
 70
     1
102
RTVSPost2010Prop32
280
     0
102
RTVSPost2010PropOp32
 70
     1
102
RTVSPost2010Prop33
280
     0
102
RTVSPost2010PropOp33
 70
     1
102
RTVSPost2010Prop34
280
     0
102
RTVSPost2010PropOp34
 70
     1
102
RTVSPost2010Prop35
280
     0
102
RTVSPost2010PropOp35
 70
     1
102
RTVSPost2010Prop36
280
     0
102
RTVSPost2010PropOp36
 70
     1
102
RTVSPost2010Prop37
 90
       50
102
RTVSPost2010PropOp37
 70
     1
102
RTVSPost2010Prop38
140
0.0
102
RTVSPost2010PropOp38
 70
     1
102
RTVSPost2010Prop39
140
1.0
102
RTVSPost2010PropOp39
 70
     1
102
RTVSPost2010Prop40
 90
        0
102
RTVSPost2010PropOp40
 70
     1
102
RTVSPost2010Prop41ColorIndex
 90
       18
102
RTVSPost2010Prop41ColorRGB
 90
        0
102
RTVSPost2010PropOp41
 70
     1
102
RTVSPost2010Prop42
 90
       50
102
RTVSPost2010PropOp42
 70
     1
102
RTVSPost2010Prop43
 90
        3
102
RTVSPost2010PropOp43
 70
     1
102
RTVSPost2010Prop44ColorIndex
 90
        5
102
RTVSPost2010Prop44ColorRGB
 90
      255
102
RTVSPost2010PropOp44
 70
     1
102
RTVSPost2010Prop45
280
     0
102
RTVSPost2010PropOp45
 70
     1
102
RTVSPost2010Prop46
 90
       50
102
RTVSPost2010PropOp46
 70
     1
102
RTVSPost2010Prop47
 90
       50
102
RTVSPost2010PropOp47
 70
     1
102
RTVSPost2010Prop48
 90
       50
102
RTVSPost2010PropOp48
 70
     1
102
RTVSPost2010Prop49
280
     0
102
RTVSPost2010PropOp49
 70
     1
102
RTVSPost2010Prop50
 90
       50
102
RTVSPost2010PropOp50
 70
     1
102
RTVSPost2010Prop51ColorIndex
 90
      256
102
RTVSPost2010Prop51ColorRGB
 90
-16777216
102
RTVSPost2010PropOp51
 70
     0
102
RTVSPost2010Prop52
140
1.0
102
RTVSPost2010PropOp52
 70
     0
102
RTVSPost2010Prop53
 90
        2
102
RTVSPost2010PropOp53
 70
     1
102
RTVSPost2010Prop54
  1
strokes_ogs.tif
102
RTVSPost2010PropOp54
 70
     1
102
RTVSPost2010Prop55
280
     0
102
RTVSPost2010PropOp55
 70
     1
102
RTVSPost2010Prop56
140
1.0
102
RTVSPost2010PropOp56
 70
     1
102
RTVSPost2010Prop57
140
1.0
102
RTVSPost2010PropOp57
 70
     1
  0
ENDSEC
  0
EOF
