  0
SECTION
  2
HEADER
  9
$ACADVER
  1
AC1024
  9
$ACADMAINTVER
 70
     6
  9
$DWGCODEPAGE
  3
ANSI_932
  9
$INSBASE
 10
0.0
 20
0.0
 30
0.0
  9
$EXTMIN
 10
-6300.0
 20
-4455.0
 30
0.0
  9
$EXTMAX
 10
6300.0
 20
4455.0
 30
0.0
  9
$LIMMIN
 10
-6300.0
 20
-4455.0
  9
$LIMMAX
 10
6300.0
 20
4455.0
  9
$ORTHOMODE
 70
     0
  9
$REGENMODE
 70
     1
  9
$FILLMODE
 70
     1
  9
$QTEXTMODE
 70
     0
  9
$MIRRTEXT
 70
     1
  9
$LTSCALE
 40
30.0
  9
$ATTMODE
 70
     1
  9
$TEXTSIZE
 40
2.5
  9
$TRACEWID
 40
1.0
  9
$TEXTSTYLE
  7
Standard
  9
$CLAYER
  8
0
  9
$CELTYPE
  6
ByLayer
  9
$CECOLOR
 62
   256
  9
$CELTSCALE
 40
1.0
  9
$DISPSILH
 70
     0
  9
$DIMSCALE
 40
1.0
  9
$DIMASZ
 40
2.5
  9
$DIMEXO
 40
0.625
  9
$DIMDLI
 40
3.75
  9
$DIMRND
 40
0.0
  9
$DIMDLE
 40
0.0
  9
$DIMEXE
 40
1.25
  9
$DIMTP
 40
0.0
  9
$DIMTM
 40
0.0
  9
$DIMTXT
 40
2.5
  9
$DIMCEN
 40
2.5
  9
$DIMTSZ
 40
0.0
  9
$DIMTOL
 70
     0
  9
$DIMLIM
 70
     0
  9
$DIMTIH
 70
     0
  9
$DIMTOH
 70
     0
  9
$DIMSE1
 70
     0
  9
$DIMSE2
 70
     0
  9
$DIMTAD
 70
     1
  9
$DIMZIN
 70
     8
  9
$DIMBLK
  1

  9
$DIMASO
 70
     1
  9
$DIMSHO
 70
     1
  9
$DIMPOST
  1

  9
$DIMAPOST
  1

  9
$DIMALT
 70
     0
  9
$DIMALTD
 70
     3
  9
$DIMALTF
 40
0.03937007874016
  9
$DIMLFAC
 40
1.0
  9
$DIMTOFL
 70
     1
  9
$DIMTVP
 40
0.0
  9
$DIMTIX
 70
     0
  9
$DIMSOXD
 70
     0
  9
$DIMSAH
 70
     0
  9
$DIMBLK1
  1

  9
$DIMBLK2
  1

  9
$DIMSTYLE
  2
ISO-25
  9
$DIMCLRD
 70
     0
  9
$DIMCLRE
 70
     0
  9
$DIMCLRT
 70
     0
  9
$DIMTFAC
 40
1.0
  9
$DIMGAP
 40
0.625
  9
$DIMJUST
 70
     0
  9
$DIMSD1
 70
     0
  9
$DIMSD2
 70
     0
  9
$DIMTOLJ
 70
     0
  9
$DIMTZIN
 70
     8
  9
$DIMALTZ
 70
     0
  9
$DIMALTTZ
 70
     0
  9
$DIMUPT
 70
     0
  9
$DIMDEC
 70
     2
  9
$DIMTDEC
 70
     2
  9
$DIMALTU
 70
     2
  9
$DIMALTTD
 70
     3
  9
$DIMTXSTY
  7
Standard
  9
$DIMAUNIT
 70
     0
  9
$DIMADEC
 70
     0
  9
$DIMALTRND
 40
0.0
  9
$DIMAZIN
 70
     0
  9
$DIMDSEP
 70
    44
  9
$DIMATFIT
 70
     3
  9
$DIMFRAC
 70
     0
  9
$DIMLDRBLK
  1

  9
$DIMLUNIT
 70
     2
  9
$DIMLWD
 70
    -2
  9
$DIMLWE
 70
    -2
  9
$DIMTMOVE
 70
     0
  9
$DIMFXL
 40
1.0
  9
$DIMFXLON
 70
     0
  9
$DIMJOGANG
 40
0.7853981633974483
  9
$DIMTFILL
 70
     0
  9
$DIMTFILLCLR
 70
     0
  9
$DIMARCSYM
 70
     0
  9
$DIMLTYPE
  6

  9
$DIMLTEX1
  6

  9
$DIMLTEX2
  6

  9
$DIMTXTDIRECTION
 70
     0
  9
$LUNITS
 70
     2
  9
$LUPREC
 70
     4
  9
$SKETCHINC
 40
1.0
  9
$FILLETRAD
 40
10.0
  9
$AUNITS
 70
     0
  9
$AUPREC
 70
     0
  9
$MENU
  1
.
  9
$ELEVATION
 40
0.0
  9
$PELEVATION
 40
0.0
  9
$THICKNESS
 40
0.0
  9
$LIMCHECK
 70
     0
  9
$CHAMFERA
 40
0.0
  9
$CHAMFERB
 40
0.0
  9
$CHAMFERC
 40
0.0
  9
$CHAMFERD
 40
0.0
  9
$SKPOLY
 70
     0
  9
$TDCREATE
 40
2458500.717894479
  9
$TDUCREATE
 40
2458500.342894479
  9
$TDUPDATE
 40
2458500.717894734
  9
$TDUUPDATE
 40
2458500.342894734
  9
$TDINDWG
 40
0.0000000116
  9
$TDUSRTIMER
 40
0.0000000116
  9
$USRTIMER
 70
     1
  9
$ANGBASE
 50
0.0
  9
$ANGDIR
 70
     0
  9
$PDMODE
 70
     0
  9
$PDSIZE
 40
0.0
  9
$PLINEWID
 40
0.0
  9
$SPLFRAME
 70
     0
  9
$SPLINETYPE
 70
     6
  9
$SPLINESEGS
 70
     8
  9
$HANDSEED
  5
461
  9
$SURFTAB1
 70
     6
  9
$SURFTAB2
 70
     6
  9
$SURFTYPE
 70
     6
  9
$SURFU
 70
     6
  9
$SURFV
 70
     6
  9
$UCSBASE
  2

  9
$UCSNAME
  2

  9
$UCSORG
 10
0.0
 20
0.0
 30
0.0
  9
$UCSXDIR
 10
1.0
 20
0.0
 30
0.0
  9
$UCSYDIR
 10
0.0
 20
1.0
 30
0.0
  9
$UCSORTHOREF
  2

  9
$UCSORTHOVIEW
 70
     0
  9
$UCSORGTOP
 10
0.0
 20
0.0
 30
0.0
  9
$UCSORGBOTTOM
 10
0.0
 20
0.0
 30
0.0
  9
$UCSORGLEFT
 10
0.0
 20
0.0
 30
0.0
  9
$UCSORGRIGHT
 10
0.0
 20
0.0
 30
0.0
  9
$UCSORGFRONT
 10
0.0
 20
0.0
 30
0.0
  9
$UCSORGBACK
 10
0.0
 20
0.0
 30
0.0
  9
$PUCSBASE
  2

  9
$PUCSNAME
  2

  9
$PUCSORG
 10
0.0
 20
0.0
 30
0.0
  9
$PUCSXDIR
 10
1.0
 20
0.0
 30
0.0
  9
$PUCSYDIR
 10
0.0
 20
1.0
 30
0.0
  9
$PUCSORTHOREF
  2

  9
$PUCSORTHOVIEW
 70
     0
  9
$PUCSORGTOP
 10
0.0
 20
0.0
 30
0.0
  9
$PUCSORGBOTTOM
 10
0.0
 20
0.0
 30
0.0
  9
$PUCSORGLEFT
 10
0.0
 20
0.0
 30
0.0
  9
$PUCSORGRIGHT
 10
0.0
 20
0.0
 30
0.0
  9
$PUCSORGFRONT
 10
0.0
 20
0.0
 30
0.0
  9
$PUCSORGBACK
 10
0.0
 20
0.0
 30
0.0
  9
$USERI1
 70
     0
  9
$USERI2
 70
     0
  9
$USERI3
 70
     0
  9
$USERI4
 70
     0
  9
$USERI5
 70
     0
  9
$USERR1
 40
0.0
  9
$USERR2
 40
0.0
  9
$USERR3
 40
0.0
  9
$USERR4
 40
0.0
  9
$USERR5
 40
0.0
  9
$WORLDVIEW
 70
     1
  9
$SHADEDGE
 70
     3
  9
$SHADEDIF
 70
    70
  9
$TILEMODE
 70
     1
  9
$MAXACTVP
 70
    64
  9
$PINSBASE
 10
0.0
 20
0.0
 30
0.0
  9
$PLIMCHECK
 70
     0
  9
$PEXTMIN
 10
1.000000000000000E+20
 20
1.000000000000000E+20
 30
1.000000000000000E+20
  9
$PEXTMAX
 10
-1.000000000000000E+20
 20
-1.000000000000000E+20
 30
-1.000000000000000E+20
  9
$PLIMMIN
 10
0.0
 20
0.0
  9
$PLIMMAX
 10
420.0
 20
297.0
  9
$UNITMODE
 70
     0
  9
$VISRETAIN
 70
     1
  9
$PLINEGEN
 70
     0
  9
$PSLTSCALE
 70
     1
  9
$TREEDEPTH
 70
  3020
  9
$CMLSTYLE
  2
Standard
  9
$CMLJUST
 70
     0
  9
$CMLSCALE
 40
20.0
  9
$PROXYGRAPHICS
 70
     1
  9
$MEASUREMENT
 70
     1
  9
$CELWEIGHT
370
    -1
  9
$ENDCAPS
280
     0
  9
$JOINSTYLE
280
     0
  9
$LWDISPLAY
290
     0
  9
$INSUNITS
 70
     4
  9
$HYPERLINKBASE
  1

  9
$STYLESHEET
  1

  9
$XEDIT
290
     1
  9
$CEPSNTYPE
380
     0
  9
$PSTYLEMODE
290
     1
  9
$FINGERPRINTGUID
  2
{22D6CA6C-54C6-4D2B-80B3-A9FE908B2142}
  9
$VERSIONGUID
  2
{FAEB1C32-E019-11D5-929B-00C0DF256EC4}
  9
$EXTNAMES
290
     1
  9
$PSVPSCALE
 40
0.0
  9
$OLESTARTUP
290
     0
  9
$SORTENTS
280
   127
  9
$INDEXCTL
280
     0
  9
$HIDETEXT
280
     1
  9
$XCLIPFRAME
280
     2
  9
$HALOGAP
280
     0
  9
$OBSCOLOR
 70
   257
  9
$OBSLTYPE
280
     0
  9
$INTERSECTIONDISPLAY
280
     0
  9
$INTERSECTIONCOLOR
 70
   257
  9
$DIMASSOC
280
     2
  9
$PROJECTNAME
  1

  9
$CAMERADISPLAY
290
     0
  9
$LENSLENGTH
 40
50.0
  9
$CAMERAHEIGHT
 40
0.0
  9
$STEPSPERSEC
 40
2.0
  9
$STEPSIZE
 40
6.0
  9
$3DDWFPREC
 40
2.0
  9
$PSOLWIDTH
 40
5.0
  9
$PSOLHEIGHT
 40
80.0
  9
$LOFTANG1
 40
1.570796326794897
  9
$LOFTANG2
 40
1.570796326794897
  9
$LOFTMAG1
 40
0.0
  9
$LOFTMAG2
 40
0.0
  9
$LOFTPARAM
 70
     7
  9
$LOFTNORMALS
280
     1
  9
$LATITUDE
 40
37.795
  9
$LONGITUDE
 40
-122.394
  9
$NORTHDIRECTION
 40
0.0
  9
$TIMEZONE
 70
 -8000
  9
$LIGHTGLYPHDISPLAY
280
     1
  9
$TILEMODELIGHTSYNCH
280
     1
  9
$CMATERIAL
347
44
  9
$SOLIDHIST
280
     0
  9
$SHOWHIST
280
     1
  9
$DWFFRAME
280
     2
  9
$DGNFRAME
280
     2
  9
$REALWORLDSCALE
290
     1
  9
$INTERFERECOLOR
 62
   256
  9
$CSHADOW
280
     0
  9
$SHADOWPLANELOCATION
 40
0.0
  0
ENDSEC
  0
SECTION
  2
CLASSES
  0
CLASS
  1
ACDBDICTIONARYWDFLT
  2
AcDbDictionaryWithDefault
  3
ObjectDBX Classes
 90
        0
 91
        4
280
     0
281
     0
  0
CLASS
  1
VISUALSTYLE
  2
AcDbVisualStyle
  3
ObjectDBX Classes
 90
     4095
 91
        4
280
     0
281
     0
  0
CLASS
  1
MATERIAL
  2
AcDbMaterial
  3
ObjectDBX Classes
 90
     1153
 91
        4
280
     0
281
     0
  0
CLASS
  1
SCALE
  2
AcDbScale
  3
ObjectDBX Classes
 90
     1153
 91
        4
280
     0
281
     0
  0
CLASS
  1
TABLESTYLE
  2
AcDbTableStyle
  3
ObjectDBX Classes
 90
     4095
 91
        4
280
     0
281
     0
  0
CLASS
  1
MLEADERSTYLE
  2
AcDbMLeaderStyle
  3
ACDB_MLEADERSTYLE_CLASS
 90
     4095
 91
        4
280
     0
281
     0
  0
CLASS
  1
SUN
  2
AcDbSun
  3
SCENEOE
 90
     1153
 91
        4
280
     0
281
     0
  0
CLASS
  1
DICTIONARYVAR
  2
AcDbDictionaryVar
  3
ObjectDBX Classes
 90
        0
 91
        4
280
     0
281
     0
  0
CLASS
  1
CELLSTYLEMAP
  2
AcDbCellStyleMap
  3
ObjectDBX Classes
 90
     1152
 91
        4
280
     0
281
     0
  0
ENDSEC
  0
SECTION
  2
TABLES
  0
TABLE
  2
VPORT
  5
8
330
0
100
AcDbSymbolTable
 70
     1
  0
VPORT
  5
29
330
8
100
AcDbSymbolTableRecord
100
AcDbViewportTableRecord
  2
*Active
 70
     0
 10
0.0
 20
0.0
 11
1.0
 21
1.0
 12
0.0
 22
0.0
 13
0.0
 23
0.0
 14
10.0
 24
10.0
 15
10.0
 25
10.0
 16
0.0
 26
0.0
 36
1.0
 17
0.0
 27
0.0
 37
0.0
 40
9801.0
 41
1.414141414141414
 42
50.0
 43
0.0
 44
0.0
 50
0.0
 51
0.0
 71
     0
 72
 10000
 73
     1
 74
     3
 75
     0
 76
     0
 77
     0
 78
     0
281
     0
 65
     1
110
0.0
120
0.0
130
0.0
111
1.0
121
0.0
131
0.0
112
0.0
122
1.0
132
0.0
 79
     0
146
0.0
348
2F
 60
     3
 61
     5
292
     1
282
     1
141
0.0
142
0.0
 63
   250
361
6D
  0
ENDTAB
  0
TABLE
  2
LTYPE
  5
5
330
0
100
AcDbSymbolTable
 70
     3
  0
LTYPE
  5
14
330
5
100
AcDbSymbolTableRecord
100
AcDbLinetypeTableRecord
  2
ByBlock
 70
     0
  3

 72
    65
 73
     0
 40
0.0
  0
LTYPE
  5
15
330
5
100
AcDbSymbolTableRecord
100
AcDbLinetypeTableRecord
  2
ByLayer
 70
     0
  3

 72
    65
 73
     0
 40
0.0
  0
LTYPE
  5
16
330
5
100
AcDbSymbolTableRecord
100
AcDbLinetypeTableRecord
  2
Continuous
 70
     0
  3
Solid line
 72
    65
 73
     0
 40
0.0
  0
LTYPE
  5
70
330
5
100
AcDbSymbolTableRecord
100
AcDbLinetypeTableRecord
  2
JWW_HOJO
 70
     0
  3
  -   -   -   -   -   -   -   - 
 72
    65
 73
     2
 40
1.693333333333333
 49
-1.27
 74
     0
 49
0.4233333333333333
 74
     0
  0
LTYPE
  5
71
330
5
100
AcDbSymbolTableRecord
100
AcDbLinetypeTableRecord
  2
JWW_DASHED1
 70
     0
  3
-  --  --  --  --  --  --  --  -
 72
    65
 73
     2
 40
1.693333333333333
 49
0.8466666666666667
 74
     0
 49
-0.8466666666666667
 74
     0
  0
ENDTAB
  0
TABLE
  2
LAYER
  5
2
330
0
100
AcDbSymbolTable
 70
     8
  0
LAYER
  5
10
330
2
100
AcDbSymbolTableRecord
100
AcDbLayerTableRecord
  2
0
 70
     0
 62
     7
  6
Continuous
370
    -3
390
F
347
46
  0
LAYER
  5
72
330
2
100
AcDbSymbolTableRecord
100
AcDbLayerTableRecord
  2
F-1
 70
     0
 62
     7
  6
Continuous
370
    -3
390
F
347
46
  0
LAYER
  5
73
330
2
100
AcDbSymbolTableRecord
100
AcDbLayerTableRecord
  2
F-0
 70
     0
 62
     7
  6
Continuous
370
    -3
390
F
347
46
  0
LAYER
  5
74
330
2
100
AcDbSymbolTableRecord
100
AcDbLayerTableRecord
  2
0-0
 70
     0
 62
     7
  6
Continuous
370
    -3
390
F
347
46
  0
LAYER
  5
75
330
2
100
AcDbSymbolTableRecord
100
AcDbLayerTableRecord
  2
0-B
 70
     0
 62
     7
  6
Continuous
370
    -3
390
F
347
46
  0
LAYER
  5
76
330
2
100
AcDbSymbolTableRecord
100
AcDbLayerTableRecord
  2
0-4
 70
     0
 62
     7
  6
Continuous
370
    -3
390
F
347
46
  0
LAYER
  5
77
330
2
100
AcDbSymbolTableRecord
100
AcDbLayerTableRecord
  2
0-A
 70
     0
 62
     7
  6
Continuous
370
    -3
390
F
347
46
  0
LAYER
  5
78
330
2
100
AcDbSymbolTableRecord
100
AcDbLayerTableRecord
  2
F-A
 70
     0
 62
     7
  6
Continuous
370
    -3
390
F
347
46
  0
ENDTAB
  0
TABLE
  2
STYLE
  5
3
330
0
100
AcDbSymbolTable
 70
     3
  0
STYLE
  5
11
330
3
100
AcDbSymbolTableRecord
100
AcDbTextStyleTableRecord
  2
Standard
 70
     0
 40
0.0
 41
1.0
 50
0.0
 71
     0
 42
2.5
  3
txt
  4

  0
STYLE
  5
6E
330
3
100
AcDbSymbolTableRecord
100
AcDbTextStyleTableRecord
  2
ＭＳ ゴシック
 70
     0
 40
1.0
 41
1.0
 50
0.0
 71
     0
 42
2.5
  3

  4

1001
ACAD
1000
MS Gothic
1071
    32817
  0
STYLE
  5
6F
330
3
100
AcDbSymbolTableRecord
100
AcDbTextStyleTableRecord
  2
HG明朝B
 70
     0
 40
1.0
 41
1.0
 50
0.0
 71
     0
 42
2.5
  3

  4

1001
ACAD
1000
HGMinchoB
1071
    32785
  0
ENDTAB
  0
TABLE
  2
VIEW
  5
6
330
0
100
AcDbSymbolTable
 70
     0
  0
ENDTAB
  0
TABLE
  2
UCS
  5
7
330
0
100
AcDbSymbolTable
 70
     0
  0
ENDTAB
  0
TABLE
  2
APPID
  5
9
330
0
100
AcDbSymbolTable
 70
     1
  0
APPID
  5
12
330
9
100
AcDbSymbolTableRecord
100
AcDbRegAppTableRecord
  2
ACAD
 70
     0
  0
ENDTAB
  0
TABLE
  2
DIMSTYLE
  5
A
330
0
100
AcDbSymbolTable
 70
     1
100
AcDbDimStyleTable
  0
DIMSTYLE
105
27
330
A
100
AcDbSymbolTableRecord
100
AcDbDimStyleTableRecord
  2
ISO-25
 70
     0
 41
2.5
 42
0.625
 43
3.75
 44
1.25
 73
     0
 74
     0
 77
     1
 78
     8
140
2.5
141
2.5
143
0.03937007874016
147
0.625
171
     3
172
     1
178
     0
271
     2
272
     2
274
     3
278
    44
283
     0
284
     8
340
11
  0
ENDTAB
  0
TABLE
  2
BLOCK_RECORD
  5
1
330
0
100
AcDbSymbolTable
 70
     1
  0
BLOCK_RECORD
  5
1F
330
1
100
AcDbSymbolTableRecord
100
AcDbBlockTableRecord
  2
*Model_Space
340
22
 70
     0
280
     1
281
     0
  0
BLOCK_RECORD
  5
1B
330
1
100
AcDbSymbolTableRecord
100
AcDbBlockTableRecord
  2
*Paper_Space
340
1E
 70
     0
280
     1
281
     0
  0
BLOCK_RECORD
  5
23
330
1
100
AcDbSymbolTableRecord
100
AcDbBlockTableRecord
  2
*Paper_Space0
340
26
 70
     0
280
     1
281
     0
  0
ENDTAB
  0
ENDSEC
  0
SECTION
  2
BLOCKS
  0
BLOCK
  5
20
330
1F
100
AcDbEntity
  8
0
100
AcDbBlockBegin
  2
*Model_Space
 70
     0
 10
0.0
 20
0.0
 30
0.0
  3
*Model_Space
  1

  0
ENDBLK
  5
21
330
1F
100
AcDbEntity
  8
0
100
AcDbBlockEnd
  0
BLOCK
  5
1C
330
1B
100
AcDbEntity
 67
     1
  8
0
100
AcDbBlockBegin
  2
*Paper_Space
 70
     0
 10
0.0
 20
0.0
 30
0.0
  3
*Paper_Space
  1

  0
ENDBLK
  5
1D
330
1B
100
AcDbEntity
 67
     1
  8
0
100
AcDbBlockEnd
  0
BLOCK
  5
24
330
23
100
AcDbEntity
  8
0
100
AcDbBlockBegin
  2
*Paper_Space0
 70
     0
 10
0.0
 20
0.0
 30
0.0
  3
*Paper_Space0
  1

  0
ENDBLK
  5
25
330
23
100
AcDbEntity
  8
0
100
AcDbBlockEnd
  0
ENDSEC
  0
SECTION
  2
ENTITIES
  0
LINE
  5
79
330
1F
100
AcDbEntity
  8
F-1
  6
Continuous
 62
     7
370
     9
100
AcDbLine
 10
-485.0002639358101
 20
4190.048217773436
 30
0.0
 11
-485.0002639358101
 21
-3779.999851536108
 31
0.0
  0
LINE
  5
7A
330
1F
100
AcDbEntity
  8
F-0
  6
JWW_HOJO
 62
   120
370
     5
100
AcDbLine
 10
-5839.999100968644
 20
3962.500577359586
 30
0.0
 11
5840.337969805743
 21
3962.500577359586
 31
0.0
  0
LINE
  5
7B
330
1F
100
AcDbEntity
  8
F-0
  6
JWW_HOJO
 62
   120
370
     5
100
AcDbLine
 10
-6149.999505120355
 20
4439.999802048143
 30
0.0
 11
6149.999505120355
 21
4439.999802048143
 31
0.0
  0
LINE
  5
7C
330
1F
100
AcDbEntity
  8
F-0
  6
JWW_HOJO
 62
   120
370
     5
100
AcDbLine
 10
-6149.999505120355
 20
-4439.999802048143
 30
0.0
 11
-6149.999505120355
 21
4439.999802048143
 31
0.0
  0
LINE
  5
7D
330
1F
100
AcDbEntity
  8
F-0
  6
JWW_HOJO
 62
   120
370
     5
100
AcDbLine
 10
6149.999505120355
 20
4439.999802048143
 30
0.0
 11
6149.999505120355
 21
-4439.999802048143
 31
0.0
  0
LINE
  5
7E
330
1F
100
AcDbEntity
  8
F-0
  6
JWW_HOJO
 62
   120
370
     5
100
AcDbLine
 10
6149.999505120355
 20
-4439.999802048143
 30
0.0
 11
-6149.999505120355
 21
-4439.999802048143
 31
0.0
  0
LINE
  5
7F
330
1F
100
AcDbEntity
  8
F-1
  6
Continuous
 62
   200
370
    20
100
AcDbLine
 10
-5849.999257680531
 20
4189.999967008023
 30
0.0
 11
5849.999257680533
 21
4189.999967008023
 31
0.0
  0
LINE
  5
80
330
1F
100
AcDbEntity
  8
F-1
  6
Continuous
 62
   200
370
    20
100
AcDbLine
 10
5849.999257680533
 20
4189.999967008023
 30
0.0
 11
5849.999257680533
 21
-4189.999967008024
 31
0.0
  0
LINE
  5
81
330
1F
100
AcDbEntity
  8
F-1
  6
Continuous
 62
   200
370
    20
100
AcDbLine
 10
-5849.999489655366
 20
4189.999967008023
 30
0.0
 11
-5849.999489655366
 21
-4189.999967008024
 31
0.0
  0
LINE
  5
82
330
1F
100
AcDbEntity
  8
F-1
  6
Continuous
 62
   200
370
    20
100
AcDbLine
 10
-5839.999495325861
 20
4189.999967008023
 30
0.0
 11
-5839.999495325861
 21
-4189.999967008024
 31
0.0
  0
LINE
  5
83
330
1F
100
AcDbEntity
  8
F-1
  6
Continuous
 62
   200
370
    20
100
AcDbLine
 10
-5849.999257680531
 20
4180.00018145587
 30
0.0
 11
5849.999257680533
 21
4180.00018145587
 31
0.0
  0
LINE
  5
84
330
1F
100
AcDbEntity
  8
F-1
  6
Continuous
 62
   200
370
    20
100
AcDbLine
 10
-5849.999257680531
 20
4184.999703072212
 30
0.0
 11
5849.999257680533
 21
4184.999703072212
 31
0.0
  0
LINE
  5
85
330
1F
100
AcDbEntity
  8
F-1
  6
Continuous
 62
   200
370
    20
100
AcDbLine
 10
-5844.999480891873
 20
4189.999967008023
 30
0.0
 11
-5844.999480891873
 21
-4189.999967008024
 31
0.0
  0
LINE
  5
86
330
1F
100
AcDbEntity
  8
F-1
  6
Continuous
 62
   200
370
    20
100
AcDbLine
 10
5844.998993744722
 20
4189.999967008023
 30
0.0
 11
5844.998993744722
 21
-4189.999967008024
 31
0.0
  0
LINE
  5
87
330
1F
100
AcDbEntity
  8
F-1
  6
Continuous
 62
   200
370
    20
100
AcDbLine
 10
5839.99947212838
 20
4189.999967008023
 30
0.0
 11
5839.99947212838
 21
-4189.999967008024
 31
0.0
  0
LINE
  5
88
330
1F
100
AcDbEntity
  8
F-1
  6
Continuous
 62
   200
370
    20
100
AcDbLine
 10
-0.0003711597335609
 20
4189.999967008023
 30
0.0
 11
-0.0003711597335609
 21
-3779.999851536107
 31
0.0
  0
LINE
  5
89
330
1F
100
AcDbEntity
  8
F-1
  6
Continuous
 62
   200
370
    20
100
AcDbLine
 10
4.999521616342975
 20
4190.048217773438
 30
0.0
 11
4.999521616342975
 21
-3779.999851536107
 31
0.0
  0
LINE
  5
8A
330
1F
100
AcDbEntity
  8
F-1
  6
Continuous
 62
   200
370
    20
100
AcDbLine
 10
-5.000263935810096
 20
4190.048217773438
 30
0.0
 11
-5.000263935810096
 21
-3779.999851536107
 31
0.0
  0
LINE
  5
8B
330
1F
100
AcDbEntity
  8
F-1
  6
Continuous
 62
   200
370
    20
100
AcDbLine
 10
5849.999257680533
 20
3725.000659839527
 30
0.0
 11
-5849.999257680531
 21
3725.000659839527
 31
0.0
  0
LINE
  5
8C
330
1F
100
AcDbEntity
  8
F-1
  6
Continuous
 62
     7
370
     9
100
AcDbLine
 10
-2255.000263935811
 20
4190.048217773438
 30
0.0
 11
-2255.000263935811
 21
-3779.999851536107
 31
0.0
  0
LINE
  5
8D
330
1F
100
AcDbEntity
  8
F-1
  6
Continuous
 62
     7
370
     9
100
AcDbLine
 10
1055.000016495988
 20
4190.048217773438
 30
0.0
 11
1055.000016495988
 21
-3779.999851536107
 31
0.0
  0
LINE
  5
8E
330
1F
100
AcDbEntity
  8
F-1
  6
Continuous
 62
     7
370
     9
100
AcDbLine
 10
-4789.999533988334
 20
4189.999967008023
 30
0.0
 11
-4789.999533988334
 21
-3774.99981957513
 31
0.0
  0
LINE
  5
8F
330
1F
100
AcDbEntity
  8
F-1
  6
Continuous
 62
     7
370
     9
100
AcDbLine
 10
3590.000214447847
 20
4189.999967008023
 30
0.0
 11
3590.000214447847
 21
-3774.99981957513
 31
0.0
  0
LINE
  5
90
330
1F
100
AcDbEntity
  8
F-1
  6
Continuous
 62
     7
370
     9
100
AcDbLine
 10
-2255.000263935811
 20
3962.500577359586
 30
0.0
 11
-1355.000263935811
 21
3962.500577359586
 31
0.0
  0
LINE
  5
91
330
1F
100
AcDbEntity
  8
F-1
  6
Continuous
 62
     7
370
     9
100
AcDbLine
 10
-1355.000263935811
 20
4190.048217773436
 30
0.0
 11
-1355.000263935811
 21
-3779.999851536108
 31
0.0
  0
LINE
  5
92
330
1F
100
AcDbEntity
  8
0-0
  6
JWW_HOJO
 62
     7
370
     9
100
AcDbLine
 10
-1325.000263935811
 20
4190.048217773436
 30
0.0
 11
-1325.000263935811
 21
-3779.999851536108
 31
0.0
  0
LINE
  5
93
330
1F
100
AcDbEntity
  8
F-1
  6
Continuous
 62
     7
370
     9
100
AcDbLine
 10
3590.000214447847
 20
3962.452326594172
 30
0.0
 11
4490.000214447847
 21
3962.452326594172
 31
0.0
  0
LINE
  5
94
330
1F
100
AcDbEntity
  8
F-1
  6
Continuous
 62
     7
370
     9
100
AcDbLine
 10
4490.000214447847
 20
4189.999967008021
 30
0.0
 11
4490.000214447847
 21
-3780.048102301522
 31
0.0
  0
LINE
  5
95
330
1F
100
AcDbEntity
  8
F-1
  6
Continuous
 62
     7
370
     9
100
AcDbLine
 10
5360.000214447848
 20
4189.999967008021
 30
0.0
 11
5360.000214447848
 21
-3780.048102301522
 31
0.0
  0
LINE
  5
96
330
1F
100
AcDbEntity
  8
0-0
  6
JWW_HOJO
 62
     7
370
     9
100
AcDbLine
 10
4520.000214447847
 20
4189.999967008021
 30
0.0
 11
4520.000214447847
 21
-3780.048102301522
 31
0.0
  0
LINE
  5
97
330
1F
100
AcDbEntity
  8
F-0
  6
JWW_HOJO
 62
     7
370
     9
100
AcDbLine
 10
-3522.499898962074
 20
3725.000659839527
 30
0.0
 11
-3522.499898962074
 21
-3774.99981957513
 31
0.0
  0
LINE
  5
98
330
1F
100
AcDbEntity
  8
F-1
  6
Continuous
 62
   200
370
    20
100
AcDbLine
 10
5849.999257680533
 20
3735.000445392527
 30
0.0
 11
-5849.999257680533
 21
3735.000445392527
 31
0.0
  0
LINE
  5
99
330
1F
100
AcDbEntity
  8
F-0
  6
JWW_HOJO
 62
     7
370
     9
100
AcDbLine
 10
2322.49965152225
 20
3725.000659839527
 30
0.0
 11
2322.49965152225
 21
-3774.99981957513
 31
0.0
  0
LINE
  5
9A
330
1F
100
AcDbEntity
  8
F-1
  6
Continuous
 62
     7
370
     9
100
AcDbLine
 10
5849.999257680533
 20
2475.000579937084
 30
0.0
 11
1055.000016495988
 21
2475.000579937084
 31
0.0
  0
LINE
  5
9B
330
1F
100
AcDbEntity
  8
F-1
  6
Continuous
 62
     7
370
     9
100
AcDbLine
 10
4.999521616342975
 20
2475.000579937084
 30
0.0
 11
-4789.999533988334
 21
2475.000579937084
 31
0.0
  0
LINE
  5
9C
330
1F
100
AcDbEntity
  8
F-1
  6
Continuous
 62
     7
370
     9
100
AcDbLine
 10
5849.999257680533
 20
1225.000500034641
 30
0.0
 11
1055.000016495988
 21
1225.000500034641
 31
0.0
  0
LINE
  5
9D
330
1F
100
AcDbEntity
  8
F-1
  6
Continuous
 62
     7
370
     9
100
AcDbLine
 10
4.999521616342975
 20
1225.000500034641
 30
0.0
 11
-4789.999533988334
 21
1225.000500034641
 31
0.0
  0
LINE
  5
9E
330
1F
100
AcDbEntity
  8
F-1
  6
Continuous
 62
     7
370
     9
100
AcDbLine
 10
5849.999257680533
 20
-24.99957986780203
 30
0.0
 11
1055.000016495988
 21
-24.99957986780203
 31
0.0
  0
LINE
  5
9F
330
1F
100
AcDbEntity
  8
F-1
  6
Continuous
 62
     7
370
     9
100
AcDbLine
 10
4.999521616342975
 20
-24.99957986780203
 30
0.0
 11
-4789.999533988334
 21
-24.99957986780203
 31
0.0
  0
LINE
  5
A0
330
1F
100
AcDbEntity
  8
F-1
  6
Continuous
 62
     7
370
     9
100
AcDbLine
 10
5849.999257680533
 20
-1274.999659770245
 30
0.0
 11
1055.000016495988
 21
-1274.999659770245
 31
0.0
  0
LINE
  5
A1
330
1F
100
AcDbEntity
  8
F-1
  6
Continuous
 62
     7
370
     9
100
AcDbLine
 10
4.999521616342975
 20
-1274.999659770245
 30
0.0
 11
-4789.999533988334
 21
-1274.999659770245
 31
0.0
  0
LINE
  5
A2
330
1F
100
AcDbEntity
  8
F-1
  6
Continuous
 62
     7
370
     9
100
AcDbLine
 10
5849.999257680533
 20
-2524.999739672687
 30
0.0
 11
1055.000016495988
 21
-2524.999739672687
 31
0.0
  0
LINE
  5
A3
330
1F
100
AcDbEntity
  8
F-1
  6
Continuous
 62
     7
370
     9
100
AcDbLine
 10
4.999521616342975
 20
-2524.999739672687
 30
0.0
 11
-4789.999533988334
 21
-2524.999739672687
 31
0.0
  0
LINE
  5
A4
330
1F
100
AcDbEntity
  8
F-1
  6
JWW_DASHED1
 62
     7
370
     9
100
AcDbLine
 10
-5.000263935810096
 20
2631.250589924889
 30
0.0
 11
-2255.000263935811
 21
2631.250589924889
 31
0.0
  0
LINE
  5
A5
330
1F
100
AcDbEntity
  8
F-1
  6
JWW_DASHED1
 62
     7
370
     9
100
AcDbLine
 10
-5.000263935810096
 20
3412.500639863915
 30
0.0
 11
-2255.000263935811
 21
3412.500639863915
 31
0.0
  0
LINE
  5
A6
330
1F
100
AcDbEntity
  8
F-1
  6
JWW_DASHED1
 62
     7
370
     9
100
AcDbLine
 10
-5.000263935810096
 20
3256.25062987611
 30
0.0
 11
-2255.000263935811
 21
3256.25062987611
 31
0.0
  0
LINE
  5
A7
330
1F
100
AcDbEntity
  8
F-1
  6
JWW_DASHED1
 62
     7
370
     9
100
AcDbLine
 10
-5.000263935810096
 20
3100.000619888306
 30
0.0
 11
-2255.000263935811
 21
3100.000619888306
 31
0.0
  0
LINE
  5
A8
330
1F
100
AcDbEntity
  8
F-1
  6
JWW_DASHED1
 62
     7
370
     9
100
AcDbLine
 10
-5.000263935810096
 20
2943.750609900501
 30
0.0
 11
-2255.000263935811
 21
2943.750609900501
 31
0.0
  0
LINE
  5
A9
330
1F
100
AcDbEntity
  8
F-1
  6
JWW_DASHED1
 62
     7
370
     9
100
AcDbLine
 10
-5.000263935810096
 20
2787.500599912695
 30
0.0
 11
-2255.000263935811
 21
2787.500599912695
 31
0.0
  0
LINE
  5
AA
330
1F
100
AcDbEntity
  8
F-1
  6
JWW_DASHED1
 62
     7
370
     9
100
AcDbLine
 10
-5.000263935810096
 20
1381.250510022447
 30
0.0
 11
-2255.000263935811
 21
1381.250510022447
 31
0.0
  0
LINE
  5
AB
330
1F
100
AcDbEntity
  8
F-1
  6
JWW_DASHED1
 62
     7
370
     9
100
AcDbLine
 10
-5.000263935810096
 20
2162.500559961473
 30
0.0
 11
-2255.000263935811
 21
2162.500559961473
 31
0.0
  0
LINE
  5
AC
330
1F
100
AcDbEntity
  8
F-1
  6
JWW_DASHED1
 62
     7
370
     9
100
AcDbLine
 10
-5.000263935810096
 20
2006.250549973668
 30
0.0
 11
-2255.000263935811
 21
2006.250549973668
 31
0.0
  0
LINE
  5
AD
330
1F
100
AcDbEntity
  8
F-1
  6
JWW_DASHED1
 62
     7
370
     9
100
AcDbLine
 10
-5.000263935810096
 20
1850.000539985863
 30
0.0
 11
-2255.000263935811
 21
1850.000539985863
 31
0.0
  0
LINE
  5
AE
330
1F
100
AcDbEntity
  8
F-1
  6
JWW_DASHED1
 62
     7
370
     9
100
AcDbLine
 10
-5.000263935810096
 20
1693.750529998058
 30
0.0
 11
-2255.000263935811
 21
1693.750529998058
 31
0.0
  0
LINE
  5
AF
330
1F
100
AcDbEntity
  8
F-1
  6
JWW_DASHED1
 62
     7
370
     9
100
AcDbLine
 10
-5.000263935810096
 20
1537.500520010253
 30
0.0
 11
-2255.000263935811
 21
1537.500520010253
 31
0.0
  0
LINE
  5
B0
330
1F
100
AcDbEntity
  8
F-1
  6
JWW_DASHED1
 62
     7
370
     9
100
AcDbLine
 10
-5.000263935810096
 20
131.2504301200045
 30
0.0
 11
-2255.000263935811
 21
131.2504301200045
 31
0.0
  0
LINE
  5
B1
330
1F
100
AcDbEntity
  8
F-1
  6
JWW_DASHED1
 62
     7
370
     9
100
AcDbLine
 10
-5.000263935810096
 20
912.5004800590301
 30
0.0
 11
-2255.000263935811
 21
912.5004800590301
 31
0.0
  0
LINE
  5
B2
330
1F
100
AcDbEntity
  8
F-1
  6
JWW_DASHED1
 62
     7
370
     9
100
AcDbLine
 10
-5.000263935810096
 20
756.2504700712253
 30
0.0
 11
-2255.000263935811
 21
756.2504700712253
 31
0.0
  0
LINE
  5
B3
330
1F
100
AcDbEntity
  8
F-1
  6
JWW_DASHED1
 62
     7
370
     9
100
AcDbLine
 10
-5.000263935810096
 20
600.0004600834205
 30
0.0
 11
-2255.000263935811
 21
600.0004600834205
 31
0.0
  0
LINE
  5
B4
330
1F
100
AcDbEntity
  8
F-1
  6
JWW_DASHED1
 62
     7
370
     9
100
AcDbLine
 10
-5.000263935810096
 20
443.7504500956149
 30
0.0
 11
-2255.000263935811
 21
443.7504500956149
 31
0.0
  0
LINE
  5
B5
330
1F
100
AcDbEntity
  8
F-1
  6
JWW_DASHED1
 62
     7
370
     9
100
AcDbLine
 10
-5.000263935810096
 20
287.5004401078093
 30
0.0
 11
-2255.000263935811
 21
287.5004401078093
 31
0.0
  0
LINE
  5
B6
330
1F
100
AcDbEntity
  8
F-1
  6
JWW_DASHED1
 62
     7
370
     9
100
AcDbLine
 10
-5.000263935810096
 20
-1118.749649782439
 30
0.0
 11
-2255.000263935811
 21
-1118.749649782439
 31
0.0
  0
LINE
  5
B7
330
1F
100
AcDbEntity
  8
F-1
  6
JWW_DASHED1
 62
     7
370
     9
100
AcDbLine
 10
-5.000263935810096
 20
-337.4995998434125
 30
0.0
 11
-2255.000263935811
 21
-337.4995998434125
 31
0.0
  0
LINE
  5
B8
330
1F
100
AcDbEntity
  8
F-1
  6
JWW_DASHED1
 62
     7
370
     9
100
AcDbLine
 10
-5.000263935810096
 20
-493.7496098312181
 30
0.0
 11
-2255.000263935811
 21
-493.7496098312181
 31
0.0
  0
LINE
  5
B9
330
1F
100
AcDbEntity
  8
F-1
  6
JWW_DASHED1
 62
     7
370
     9
100
AcDbLine
 10
-5.000263935810096
 20
-649.9996198190229
 30
0.0
 11
-2255.000263935811
 21
-649.9996198190229
 31
0.0
  0
LINE
  5
BA
330
1F
100
AcDbEntity
  8
F-1
  6
JWW_DASHED1
 62
     7
370
     9
100
AcDbLine
 10
-5.000263935810096
 20
-806.2496298068281
 30
0.0
 11
-2255.000263935811
 21
-806.2496298068281
 31
0.0
  0
LINE
  5
BB
330
1F
100
AcDbEntity
  8
F-1
  6
JWW_DASHED1
 62
     7
370
     9
100
AcDbLine
 10
-5.000263935810096
 20
-962.4996397946334
 30
0.0
 11
-2255.000263935811
 21
-962.4996397946334
 31
0.0
  0
LINE
  5
BC
330
1F
100
AcDbEntity
  8
F-1
  6
JWW_DASHED1
 62
     7
370
     9
100
AcDbLine
 10
-5.000263935810096
 20
-2368.749729684881
 30
0.0
 11
-2255.000263935811
 21
-2368.749729684881
 31
0.0
  0
LINE
  5
BD
330
1F
100
AcDbEntity
  8
F-1
  6
JWW_DASHED1
 62
     7
370
     9
100
AcDbLine
 10
-5.000263935810096
 20
-1587.499679745855
 30
0.0
 11
-2255.000263935811
 21
-1587.499679745855
 31
0.0
  0
LINE
  5
BE
330
1F
100
AcDbEntity
  8
F-1
  6
JWW_DASHED1
 62
     7
370
     9
100
AcDbLine
 10
-5.000263935810096
 20
-1743.74968973366
 30
0.0
 11
-2255.000263935811
 21
-1743.74968973366
 31
0.0
  0
LINE
  5
BF
330
1F
100
AcDbEntity
  8
F-1
  6
JWW_DASHED1
 62
     7
370
     9
100
AcDbLine
 10
-5.000263935810096
 20
-1899.999699721466
 30
0.0
 11
-2255.000263935811
 21
-1899.999699721466
 31
0.0
  0
LINE
  5
C0
330
1F
100
AcDbEntity
  8
F-1
  6
JWW_DASHED1
 62
     7
370
     9
100
AcDbLine
 10
-5.000263935810096
 20
-2056.249709709271
 30
0.0
 11
-2255.000263935811
 21
-2056.249709709271
 31
0.0
  0
LINE
  5
C1
330
1F
100
AcDbEntity
  8
F-1
  6
JWW_DASHED1
 62
     7
370
     9
100
AcDbLine
 10
-5.000263935810096
 20
-2212.499719697076
 30
0.0
 11
-2255.000263935811
 21
-2212.499719697076
 31
0.0
  0
LINE
  5
C2
330
1F
100
AcDbEntity
  8
F-1
  6
JWW_DASHED1
 62
     7
370
     9
100
AcDbLine
 10
-5.000263935810096
 20
-3618.749809587324
 30
0.0
 11
-2255.000263935811
 21
-3618.749809587324
 31
0.0
  0
LINE
  5
C3
330
1F
100
AcDbEntity
  8
F-1
  6
JWW_DASHED1
 62
     7
370
     9
100
AcDbLine
 10
-5.000263935810096
 20
-2837.499759648298
 30
0.0
 11
-2255.000263935811
 21
-2837.499759648298
 31
0.0
  0
LINE
  5
C4
330
1F
100
AcDbEntity
  8
F-1
  6
JWW_DASHED1
 62
     7
370
     9
100
AcDbLine
 10
-5.000263935810096
 20
-2993.749769636103
 30
0.0
 11
-2255.000263935811
 21
-2993.749769636103
 31
0.0
  0
LINE
  5
C5
330
1F
100
AcDbEntity
  8
F-1
  6
JWW_DASHED1
 62
     7
370
     9
100
AcDbLine
 10
-5.000263935810096
 20
-3149.999779623908
 30
0.0
 11
-2255.000263935811
 21
-3149.999779623908
 31
0.0
  0
LINE
  5
C6
330
1F
100
AcDbEntity
  8
F-1
  6
JWW_DASHED1
 62
     7
370
     9
100
AcDbLine
 10
-5.000263935810096
 20
-3306.249789611713
 30
0.0
 11
-2255.000263935811
 21
-3306.249789611713
 31
0.0
  0
LINE
  5
C7
330
1F
100
AcDbEntity
  8
F-1
  6
JWW_DASHED1
 62
     7
370
     9
100
AcDbLine
 10
-5.000263935810096
 20
-3462.499799599519
 30
0.0
 11
-2255.000263935811
 21
-3462.499799599519
 31
0.0
  0
LINE
  5
C8
330
1F
100
AcDbEntity
  8
F-1
  6
JWW_DASHED1
 62
     7
370
     9
100
AcDbLine
 10
5840.000214447848
 20
2631.250589924889
 30
0.0
 11
3590.000214447847
 21
2631.250589924889
 31
0.0
  0
LINE
  5
C9
330
1F
100
AcDbEntity
  8
F-1
  6
JWW_DASHED1
 62
     7
370
     9
100
AcDbLine
 10
5840.000214447848
 20
3412.500639863915
 30
0.0
 11
3590.000214447847
 21
3412.500639863915
 31
0.0
  0
LINE
  5
CA
330
1F
100
AcDbEntity
  8
F-1
  6
JWW_DASHED1
 62
     7
370
     9
100
AcDbLine
 10
5840.000214447848
 20
3256.25062987611
 30
0.0
 11
3590.000214447847
 21
3256.25062987611
 31
0.0
  0
LINE
  5
CB
330
1F
100
AcDbEntity
  8
F-1
  6
JWW_DASHED1
 62
     7
370
     9
100
AcDbLine
 10
5840.000214447848
 20
3100.000619888306
 30
0.0
 11
3590.000214447847
 21
3100.000619888306
 31
0.0
  0
LINE
  5
CC
330
1F
100
AcDbEntity
  8
F-1
  6
JWW_DASHED1
 62
     7
370
     9
100
AcDbLine
 10
5840.000214447848
 20
2943.750609900501
 30
0.0
 11
3590.000214447847
 21
2943.750609900501
 31
0.0
  0
LINE
  5
CD
330
1F
100
AcDbEntity
  8
F-1
  6
JWW_DASHED1
 62
     7
370
     9
100
AcDbLine
 10
5840.000214447848
 20
2787.500599912695
 30
0.0
 11
3590.000214447847
 21
2787.500599912695
 31
0.0
  0
LINE
  5
CE
330
1F
100
AcDbEntity
  8
F-1
  6
JWW_DASHED1
 62
     7
370
     9
100
AcDbLine
 10
5840.000214447848
 20
1381.250510022447
 30
0.0
 11
3590.000214447847
 21
1381.250510022447
 31
0.0
  0
LINE
  5
CF
330
1F
100
AcDbEntity
  8
F-1
  6
JWW_DASHED1
 62
     7
370
     9
100
AcDbLine
 10
5840.000214447848
 20
2162.500559961473
 30
0.0
 11
3590.000214447847
 21
2162.500559961473
 31
0.0
  0
LINE
  5
D0
330
1F
100
AcDbEntity
  8
F-1
  6
JWW_DASHED1
 62
     7
370
     9
100
AcDbLine
 10
5840.000214447848
 20
2006.250549973668
 30
0.0
 11
3590.000214447847
 21
2006.250549973668
 31
0.0
  0
LINE
  5
D1
330
1F
100
AcDbEntity
  8
F-1
  6
JWW_DASHED1
 62
     7
370
     9
100
AcDbLine
 10
5840.000214447848
 20
1850.000539985863
 30
0.0
 11
3590.000214447847
 21
1850.000539985863
 31
0.0
  0
LINE
  5
D2
330
1F
100
AcDbEntity
  8
F-1
  6
JWW_DASHED1
 62
     7
370
     9
100
AcDbLine
 10
5840.000214447848
 20
1693.750529998058
 30
0.0
 11
3590.000214447847
 21
1693.750529998058
 31
0.0
  0
LINE
  5
D3
330
1F
100
AcDbEntity
  8
F-1
  6
JWW_DASHED1
 62
     7
370
     9
100
AcDbLine
 10
5840.000214447848
 20
1537.500520010253
 30
0.0
 11
3590.000214447847
 21
1537.500520010253
 31
0.0
  0
LINE
  5
D4
330
1F
100
AcDbEntity
  8
F-1
  6
JWW_DASHED1
 62
     7
370
     9
100
AcDbLine
 10
5840.000214447848
 20
131.2504301200045
 30
0.0
 11
3590.000214447847
 21
131.2504301200045
 31
0.0
  0
LINE
  5
D5
330
1F
100
AcDbEntity
  8
F-1
  6
JWW_DASHED1
 62
     7
370
     9
100
AcDbLine
 10
5840.000214447848
 20
912.5004800590301
 30
0.0
 11
3590.000214447847
 21
912.5004800590301
 31
0.0
  0
LINE
  5
D6
330
1F
100
AcDbEntity
  8
F-1
  6
JWW_DASHED1
 62
     7
370
     9
100
AcDbLine
 10
5840.000214447848
 20
756.2504700712253
 30
0.0
 11
3590.000214447847
 21
756.2504700712253
 31
0.0
  0
LINE
  5
D7
330
1F
100
AcDbEntity
  8
F-1
  6
JWW_DASHED1
 62
     7
370
     9
100
AcDbLine
 10
5840.000214447848
 20
600.0004600834205
 30
0.0
 11
3590.000214447847
 21
600.0004600834205
 31
0.0
  0
LINE
  5
D8
330
1F
100
AcDbEntity
  8
F-1
  6
JWW_DASHED1
 62
     7
370
     9
100
AcDbLine
 10
5840.000214447848
 20
443.7504500956149
 30
0.0
 11
3590.000214447847
 21
443.7504500956149
 31
0.0
  0
LINE
  5
D9
330
1F
100
AcDbEntity
  8
F-1
  6
JWW_DASHED1
 62
     7
370
     9
100
AcDbLine
 10
5840.000214447848
 20
287.5004401078093
 30
0.0
 11
3590.000214447847
 21
287.5004401078093
 31
0.0
  0
LINE
  5
DA
330
1F
100
AcDbEntity
  8
F-1
  6
JWW_DASHED1
 62
     7
370
     9
100
AcDbLine
 10
5840.000214447848
 20
-1118.749649782439
 30
0.0
 11
3590.000214447847
 21
-1118.749649782439
 31
0.0
  0
LINE
  5
DB
330
1F
100
AcDbEntity
  8
F-1
  6
JWW_DASHED1
 62
     7
370
     9
100
AcDbLine
 10
5840.000214447848
 20
-337.4995998434125
 30
0.0
 11
3590.000214447847
 21
-337.4995998434125
 31
0.0
  0
LINE
  5
DC
330
1F
100
AcDbEntity
  8
F-1
  6
JWW_DASHED1
 62
     7
370
     9
100
AcDbLine
 10
5840.000214447848
 20
-493.7496098312181
 30
0.0
 11
3590.000214447847
 21
-493.7496098312181
 31
0.0
  0
LINE
  5
DD
330
1F
100
AcDbEntity
  8
F-1
  6
JWW_DASHED1
 62
     7
370
     9
100
AcDbLine
 10
5840.000214447848
 20
-649.9996198190229
 30
0.0
 11
3590.000214447847
 21
-649.9996198190229
 31
0.0
  0
LINE
  5
DE
330
1F
100
AcDbEntity
  8
F-1
  6
JWW_DASHED1
 62
     7
370
     9
100
AcDbLine
 10
5840.000214447848
 20
-806.2496298068281
 30
0.0
 11
3590.000214447847
 21
-806.2496298068281
 31
0.0
  0
LINE
  5
DF
330
1F
100
AcDbEntity
  8
F-1
  6
JWW_DASHED1
 62
     7
370
     9
100
AcDbLine
 10
5840.000214447848
 20
-962.4996397946334
 30
0.0
 11
3590.000214447847
 21
-962.4996397946334
 31
0.0
  0
LINE
  5
E0
330
1F
100
AcDbEntity
  8
F-1
  6
JWW_DASHED1
 62
     7
370
     9
100
AcDbLine
 10
5840.000214447848
 20
-2368.749729684881
 30
0.0
 11
3590.000214447847
 21
-2368.749729684881
 31
0.0
  0
LINE
  5
E1
330
1F
100
AcDbEntity
  8
F-1
  6
JWW_DASHED1
 62
     7
370
     9
100
AcDbLine
 10
5840.000214447848
 20
-1587.499679745855
 30
0.0
 11
3590.000214447847
 21
-1587.499679745855
 31
0.0
  0
LINE
  5
E2
330
1F
100
AcDbEntity
  8
F-1
  6
JWW_DASHED1
 62
     7
370
     9
100
AcDbLine
 10
5840.000214447848
 20
-1743.74968973366
 30
0.0
 11
3590.000214447847
 21
-1743.74968973366
 31
0.0
  0
LINE
  5
E3
330
1F
100
AcDbEntity
  8
F-1
  6
JWW_DASHED1
 62
     7
370
     9
100
AcDbLine
 10
5840.000214447848
 20
-1899.999699721466
 30
0.0
 11
3590.000214447847
 21
-1899.999699721466
 31
0.0
  0
LINE
  5
E4
330
1F
100
AcDbEntity
  8
F-1
  6
JWW_DASHED1
 62
     7
370
     9
100
AcDbLine
 10
5840.000214447848
 20
-2056.249709709271
 30
0.0
 11
3590.000214447847
 21
-2056.249709709271
 31
0.0
  0
LINE
  5
E5
330
1F
100
AcDbEntity
  8
F-1
  6
JWW_DASHED1
 62
     7
370
     9
100
AcDbLine
 10
5840.000214447848
 20
-2212.499719697076
 30
0.0
 11
3590.000214447847
 21
-2212.499719697076
 31
0.0
  0
LINE
  5
E6
330
1F
100
AcDbEntity
  8
F-1
  6
JWW_DASHED1
 62
     7
370
     9
100
AcDbLine
 10
5840.000214447848
 20
-3618.749809587324
 30
0.0
 11
3590.000214447847
 21
-3618.749809587324
 31
0.0
  0
LINE
  5
E7
330
1F
100
AcDbEntity
  8
F-1
  6
JWW_DASHED1
 62
     7
370
     9
100
AcDbLine
 10
5840.000214447848
 20
-2837.499759648298
 30
0.0
 11
3590.000214447847
 21
-2837.499759648298
 31
0.0
  0
LINE
  5
E8
330
1F
100
AcDbEntity
  8
F-1
  6
JWW_DASHED1
 62
     7
370
     9
100
AcDbLine
 10
5840.000214447848
 20
-2993.749769636103
 30
0.0
 11
3590.000214447847
 21
-2993.749769636103
 31
0.0
  0
LINE
  5
E9
330
1F
100
AcDbEntity
  8
F-1
  6
JWW_DASHED1
 62
     7
370
     9
100
AcDbLine
 10
5840.000214447848
 20
-3149.999779623908
 30
0.0
 11
3590.000214447847
 21
-3149.999779623908
 31
0.0
  0
LINE
  5
EA
330
1F
100
AcDbEntity
  8
F-1
  6
JWW_DASHED1
 62
     7
370
     9
100
AcDbLine
 10
5840.000214447848
 20
-3306.249789611713
 30
0.0
 11
3590.000214447847
 21
-3306.249789611713
 31
0.0
  0
LINE
  5
EB
330
1F
100
AcDbEntity
  8
F-1
  6
JWW_DASHED1
 62
     7
370
     9
100
AcDbLine
 10
5840.000214447848
 20
-3462.499799599519
 30
0.0
 11
3590.000214447847
 21
-3462.499799599519
 31
0.0
  0
LWPOLYLINE
  5
EC
330
1F
100
AcDbEntity
  8
0-B
  6
Continuous
 62
     7
370
     9
100
AcDbPolyline
 90
        4
 70
     1
 43
6.0
 10
-4531.999898962074
 20
2837.964671621011
 42
0.4142135623731
 10
-4534.999898962074
 20
2840.964671621011
 42
0.4142135623731
 10
-4537.999898962074
 20
2837.964671621011
 42
0.4142135623731
 10
-4534.999898962074
 20
2834.964671621012
 42
0.4142135623731
  0
LINE
  5
ED
330
1F
100
AcDbEntity
  8
0-B
  6
Continuous
 62
   120
370
     5
100
AcDbLine
 10
-4534.999898962074
 20
2837.964671621011
 30
0.0
 11
-4459.999898962074
 21
2837.964671621011
 31
0.0
  0
LINE
  5
EE
330
1F
100
AcDbEntity
  8
0-4
  6
Continuous
 62
    92
370
    13
100
AcDbLine
 10
-2659.999898962074
 20
2837.964671621011
 30
0.0
 11
-4384.999898962074
 21
2837.964671621011
 31
0.0
  0
LWPOLYLINE
  5
EF
330
1F
100
AcDbEntity
  8
0-B
  6
Continuous
 62
     7
370
     9
100
AcDbPolyline
 90
        4
 70
     1
 43
6.0
 10
-4569.500826861408
 20
1581.899752660795
 42
0.4142135623731
 10
-4572.500826861407
 20
1584.899752660795
 42
0.4142135623731
 10
-4575.500826861407
 20
1581.899752660795
 42
0.4142135623731
 10
-4572.500826861407
 20
1578.899752660795
 42
0.4142135623731
  0
LINE
  5
F0
330
1F
100
AcDbEntity
  8
0-B
  6
Continuous
 62
   120
370
     5
100
AcDbLine
 10
-4572.500826861407
 20
1581.899752660795
 30
0.0
 11
-4497.500826861407
 21
1581.899752660795
 31
0.0
  0
LINE
  5
F1
330
1F
100
AcDbEntity
  8
0-A
  6
Continuous
 62
     7
370
     9
100
AcDbLine
 10
-3370.752107899288
 20
558.4806567750678
 30
0.0
 11
-3317.366126214025
 21
558.4806567750678
 31
0.0
  0
LINE
  5
F2
330
1F
100
AcDbEntity
  8
0-A
  6
Continuous
 62
     7
370
     9
100
AcDbLine
 10
-3318.790583672221
 20
588.4806567750678
 30
0.0
 11
-3265.40460198696
 21
588.4806567750678
 31
0.0
  0
LWPOLYLINE
  5
F3
330
1F
100
AcDbEntity
  8
0-B
  6
Continuous
 62
     7
370
     9
100
AcDbPolyline
 90
        4
 70
     1
 43
6.0
 10
-4569.500826861408
 20
349.3635345439793
 42
0.4142135623731
 10
-4572.500826861407
 20
352.3635345439793
 42
0.4142135623731
 10
-4575.500826861407
 20
349.3635345439793
 42
0.4142135623731
 10
-4572.500826861407
 20
346.3635345439793
 42
0.4142135623731
  0
LINE
  5
F4
330
1F
100
AcDbEntity
  8
0-B
  6
Continuous
 62
   120
370
     5
100
AcDbLine
 10
-4572.500826861407
 20
349.3635345439793
 30
0.0
 11
-4497.500826861407
 21
349.3635345439793
 31
0.0
  0
LINE
  5
F5
330
1F
100
AcDbEntity
  8
0-4
  6
Continuous
 62
    92
370
    13
100
AcDbLine
 10
-2622.500826861408
 20
349.3635345439793
 30
0.0
 11
-3403.458936874927
 21
349.3635345439793
 31
0.0
  0
LINE
  5
F6
330
1F
100
AcDbEntity
  8
0-4
  6
Continuous
 62
    92
370
    13
100
AcDbLine
 10
-3438.099953026306
 20
349.3635345439793
 30
0.0
 11
-4422.500826861407
 21
349.3635345439793
 31
0.0
  0
LINE
  5
F7
330
1F
100
AcDbEntity
  8
0-A
  6
Continuous
 62
     7
370
     9
100
AcDbLine
 10
-3266.319329727611
 20
739.3635345439793
 30
0.0
 11
-3370.752107899288
 21
558.4806567750678
 31
0.0
  0
LINE
  5
F8
330
1F
100
AcDbEntity
  8
0-A
  6
Continuous
 62
     7
370
     9
100
AcDbLine
 10
-3231.678313576235
 20
739.3635345439793
 30
0.0
 11
-3318.790583672221
 21
588.4806567750678
 31
0.0
  0
LINE
  5
F9
330
1F
100
AcDbEntity
  8
0-A
  6
Continuous
 62
     7
370
     9
100
AcDbLine
 10
-3317.366126214025
 20
558.4806567750678
 30
0.0
 11
-3481.401223215528
 21
274.3635345439793
 31
0.0
  0
LINE
  5
FA
330
1F
100
AcDbEntity
  8
0-A
  6
Continuous
 62
     7
370
     9
100
AcDbLine
 10
-3265.40460198696
 20
588.4806567750678
 30
0.0
 11
-3446.760207064149
 21
274.3635345439793
 31
0.0
  0
LINE
  5
FB
330
1F
100
AcDbEntity
  8
0-A
  6
Continuous
 62
     7
370
     9
100
AcDbLine
 10
-3370.752107899288
 20
-673.3824975879344
 30
0.0
 11
-3317.366126214025
 21
-673.3824975879344
 31
0.0
  0
LINE
  5
FC
330
1F
100
AcDbEntity
  8
0-A
  6
Continuous
 62
     7
370
     9
100
AcDbLine
 10
-3318.790583672221
 20
-643.3824975879344
 30
0.0
 11
-3265.40460198696
 21
-643.3824975879344
 31
0.0
  0
LWPOLYLINE
  5
FD
330
1F
100
AcDbEntity
  8
0-B
  6
Continuous
 62
     7
370
     9
100
AcDbPolyline
 90
        4
 70
     1
 43
6.0
 10
-4569.500826861408
 20
-882.4996198190229
 42
0.4142135623731
 10
-4572.500826861407
 20
-879.4996198190229
 42
0.4142135623731
 10
-4575.500826861407
 20
-882.4996198190229
 42
0.4142135623731
 10
-4572.500826861407
 20
-885.4996198190229
 42
0.4142135623731
  0
LINE
  5
FE
330
1F
100
AcDbEntity
  8
0-B
  6
Continuous
 62
   120
370
     5
100
AcDbLine
 10
-4572.500826861407
 20
-882.4996198190229
 30
0.0
 11
-4497.500826861407
 21
-882.4996198190229
 31
0.0
  0
LINE
  5
FF
330
1F
100
AcDbEntity
  8
0-4
  6
Continuous
 62
    92
370
    13
100
AcDbLine
 10
-2622.500826861408
 20
-882.4996198190229
 30
0.0
 11
-3403.458936874927
 21
-882.4996198190229
 31
0.0
  0
LINE
  5
100
330
1F
100
AcDbEntity
  8
0-4
  6
Continuous
 62
    92
370
    13
100
AcDbLine
 10
-3438.099953026306
 20
-882.4996198190229
 30
0.0
 11
-4422.500826861407
 21
-882.4996198190229
 31
0.0
  0
LINE
  5
101
330
1F
100
AcDbEntity
  8
0-A
  6
Continuous
 62
     7
370
     9
100
AcDbLine
 10
-3266.319329727611
 20
-492.4996198190229
 30
0.0
 11
-3370.752107899288
 21
-673.3824975879344
 31
0.0
  0
LINE
  5
102
330
1F
100
AcDbEntity
  8
0-A
  6
Continuous
 62
     7
370
     9
100
AcDbLine
 10
-3231.678313576235
 20
-492.4996198190229
 30
0.0
 11
-3318.790583672221
 21
-643.3824975879344
 31
0.0
  0
LINE
  5
103
330
1F
100
AcDbEntity
  8
0-A
  6
Continuous
 62
     7
370
     9
100
AcDbLine
 10
-3317.366126214025
 20
-673.3824975879344
 30
0.0
 11
-3481.401223215528
 21
-957.4996198190229
 31
0.0
  0
LINE
  5
104
330
1F
100
AcDbEntity
  8
0-A
  6
Continuous
 62
     7
370
     9
100
AcDbLine
 10
-3265.40460198696
 20
-643.3824975879344
 30
0.0
 11
-3446.760207064149
 21
-957.4996198190229
 31
0.0
  0
LINE
  5
105
330
1F
100
AcDbEntity
  8
0-A
  6
Continuous
 62
     7
370
     9
100
AcDbLine
 10
-3370.752107899288
 20
-1923.382577490377
 30
0.0
 11
-3317.366126214025
 21
-1923.382577490377
 31
0.0
  0
LINE
  5
106
330
1F
100
AcDbEntity
  8
0-A
  6
Continuous
 62
     7
370
     9
100
AcDbLine
 10
-3318.790583672221
 20
-1893.382577490377
 30
0.0
 11
-3265.40460198696
 21
-1893.382577490377
 31
0.0
  0
LWPOLYLINE
  5
107
330
1F
100
AcDbEntity
  8
0-B
  6
Continuous
 62
     7
370
     9
100
AcDbPolyline
 90
        4
 70
     1
 43
6.0
 10
-4569.500826861408
 20
-2132.499699721466
 42
0.4142135623731
 10
-4572.500826861407
 20
-2129.499699721466
 42
0.4142135623731
 10
-4575.500826861407
 20
-2132.499699721466
 42
0.4142135623731
 10
-4572.500826861407
 20
-2135.499699721466
 42
0.4142135623731
  0
LINE
  5
108
330
1F
100
AcDbEntity
  8
0-B
  6
Continuous
 62
   120
370
     5
100
AcDbLine
 10
-4572.500826861407
 20
-2132.499699721466
 30
0.0
 11
-4497.500826861407
 21
-2132.499699721466
 31
0.0
  0
LINE
  5
109
330
1F
100
AcDbEntity
  8
0-4
  6
Continuous
 62
    92
370
    13
100
AcDbLine
 10
-2622.500826861408
 20
-2132.499699721466
 30
0.0
 11
-3403.458936874927
 21
-2132.499699721466
 31
0.0
  0
LINE
  5
10A
330
1F
100
AcDbEntity
  8
0-A
  6
Continuous
 62
     7
370
     9
100
AcDbLine
 10
-3266.319329727611
 20
-1742.499699721466
 30
0.0
 11
-3370.752107899288
 21
-1923.382577490377
 31
0.0
  0
LINE
  5
10B
330
1F
100
AcDbEntity
  8
0-A
  6
Continuous
 62
     7
370
     9
100
AcDbLine
 10
-3231.678313576235
 20
-1742.499699721466
 30
0.0
 11
-3318.790583672221
 21
-1893.382577490377
 31
0.0
  0
LINE
  5
10C
330
1F
100
AcDbEntity
  8
0-A
  6
Continuous
 62
     7
370
     9
100
AcDbLine
 10
-3317.366126214025
 20
-1923.382577490377
 30
0.0
 11
-3481.401223215528
 21
-2207.499699721466
 31
0.0
  0
LINE
  5
10D
330
1F
100
AcDbEntity
  8
0-A
  6
Continuous
 62
     7
370
     9
100
AcDbLine
 10
-3265.40460198696
 20
-1893.382577490377
 30
0.0
 11
-3446.760207064149
 21
-2207.499699721466
 31
0.0
  0
LINE
  5
10E
330
1F
100
AcDbEntity
  8
0-A
  6
Continuous
 62
     7
370
     9
100
AcDbLine
 10
-3370.752107899288
 20
-3191.519582932262
 30
0.0
 11
-3317.366126214025
 21
-3191.519582932262
 31
0.0
  0
LINE
  5
10F
330
1F
100
AcDbEntity
  8
0-A
  6
Continuous
 62
     7
370
     9
100
AcDbLine
 10
-3318.790583672221
 20
-3161.519582932262
 30
0.0
 11
-3265.40460198696
 21
-3161.519582932262
 31
0.0
  0
LWPOLYLINE
  5
110
330
1F
100
AcDbEntity
  8
0-B
  6
Continuous
 62
     7
370
     9
100
AcDbPolyline
 90
        4
 70
     1
 43
6.0
 10
-4569.500826861408
 20
-3400.636705163351
 42
0.4142135623731
 10
-4572.500826861407
 20
-3397.636705163351
 42
0.4142135623731
 10
-4575.500826861407
 20
-3400.636705163351
 42
0.4142135623731
 10
-4572.500826861407
 20
-3403.63670516335
 42
0.4142135623731
  0
LINE
  5
111
330
1F
100
AcDbEntity
  8
0-B
  6
Continuous
 62
   120
370
     5
100
AcDbLine
 10
-4572.500826861407
 20
-3400.636705163351
 30
0.0
 11
-4497.500826861407
 21
-3400.636705163351
 31
0.0
  0
LINE
  5
112
330
1F
100
AcDbEntity
  8
0-4
  6
Continuous
 62
    92
370
    13
100
AcDbLine
 10
-2622.500826861408
 20
-3400.636705163351
 30
0.0
 11
-3403.458936874927
 21
-3400.636705163351
 31
0.0
  0
LINE
  5
113
330
1F
100
AcDbEntity
  8
0-A
  6
Continuous
 62
     7
370
     9
100
AcDbLine
 10
-3266.319329727611
 20
-3010.636705163351
 30
0.0
 11
-3370.752107899288
 21
-3191.519582932262
 31
0.0
  0
LINE
  5
114
330
1F
100
AcDbEntity
  8
0-A
  6
Continuous
 62
     7
370
     9
100
AcDbLine
 10
-3231.678313576235
 20
-3010.636705163351
 30
0.0
 11
-3318.790583672221
 21
-3161.519582932262
 31
0.0
  0
LINE
  5
115
330
1F
100
AcDbEntity
  8
0-A
  6
Continuous
 62
     7
370
     9
100
AcDbLine
 10
-3317.366126214025
 20
-3191.519582932262
 30
0.0
 11
-3481.401223215528
 21
-3475.636705163351
 31
0.0
  0
LINE
  5
116
330
1F
100
AcDbEntity
  8
0-A
  6
Continuous
 62
     7
370
     9
100
AcDbLine
 10
-3265.40460198696
 20
-3161.519582932262
 30
0.0
 11
-3446.760207064149
 21
-3475.636705163351
 31
0.0
  0
LINE
  5
117
330
1F
100
AcDbEntity
  8
0-A
  6
Continuous
 62
     7
370
     9
100
AcDbLine
 10
2474.249298383706
 20
3076.617742119394
 30
0.0
 11
2527.635280068967
 21
3076.617742119394
 31
0.0
  0
LINE
  5
118
330
1F
100
AcDbEntity
  8
0-A
  6
Continuous
 62
     7
370
     9
100
AcDbLine
 10
2526.210822610772
 20
3106.617742119394
 30
0.0
 11
2579.596804296033
 21
3106.617742119394
 31
0.0
  0
LWPOLYLINE
  5
119
330
1F
100
AcDbEntity
  8
0-B
  6
Continuous
 62
     7
370
     9
100
AcDbPolyline
 90
        4
 70
     1
 43
6.0
 10
1275.500579421585
 20
2867.500619888306
 42
0.4142135623731
 10
1272.500579421585
 20
2870.500619888306
 42
0.4142135623731
 10
1269.500579421585
 20
2867.500619888306
 42
0.4142135623731
 10
1272.500579421585
 20
2864.500619888306
 42
0.4142135623731
  0
LINE
  5
11A
330
1F
100
AcDbEntity
  8
0-B
  6
Continuous
 62
   120
370
     5
100
AcDbLine
 10
1272.500579421585
 20
2867.500619888306
 30
0.0
 11
1347.500579421585
 21
2867.500619888306
 31
0.0
  0
LINE
  5
11B
330
1F
100
AcDbEntity
  8
0-A
  6
Continuous
 62
     7
370
     9
100
AcDbLine
 10
2578.682076555381
 20
3257.500619888306
 30
0.0
 11
2474.249298383706
 21
3076.617742119394
 31
0.0
  0
LINE
  5
11C
330
1F
100
AcDbEntity
  8
0-A
  6
Continuous
 62
     7
370
     9
100
AcDbLine
 10
2613.323092706759
 20
3257.500619888306
 30
0.0
 11
2526.210822610772
 21
3106.617742119394
 31
0.0
  0
LINE
  5
11D
330
1F
100
AcDbEntity
  8
0-A
  6
Continuous
 62
     7
370
     9
100
AcDbLine
 10
2527.635280068967
 20
3076.617742119394
 30
0.0
 11
2363.600183067466
 21
2792.500619888306
 31
0.0
  0
LINE
  5
11E
330
1F
100
AcDbEntity
  8
0-A
  6
Continuous
 62
     7
370
     9
100
AcDbLine
 10
2579.596804296033
 20
3106.617742119394
 30
0.0
 11
2398.241199218844
 21
2792.500619888306
 31
0.0
  0
LINE
  5
11F
330
1F
100
AcDbEntity
  8
0-A
  6
Continuous
 62
     7
370
     9
100
AcDbLine
 10
2579.596804296033
 20
1829.824076368802
 30
0.0
 11
2398.241199218844
 21
1515.706954137713
 31
0.0
  0
LINE
  5
120
330
1F
100
AcDbEntity
  8
0-A
  6
Continuous
 62
     7
370
     9
100
AcDbLine
 10
2527.635280068968
 20
1799.824076368802
 30
0.0
 11
2363.600183067467
 21
1515.706954137713
 31
0.0
  0
LINE
  5
121
330
1F
100
AcDbEntity
  8
0-A
  6
Continuous
 62
     7
370
     9
100
AcDbLine
 10
2613.323092706759
 20
1980.706954137713
 30
0.0
 11
2526.210822610773
 21
1829.824076368802
 31
0.0
  0
LINE
  5
122
330
1F
100
AcDbEntity
  8
0-A
  6
Continuous
 62
     7
370
     9
100
AcDbLine
 10
2578.682076555382
 20
1980.706954137713
 30
0.0
 11
2474.249298383707
 21
1799.824076368802
 31
0.0
  0
LINE
  5
123
330
1F
100
AcDbEntity
  8
0-B
  6
Continuous
 62
   120
370
     5
100
AcDbLine
 10
1272.500579421586
 20
1590.706954137713
 30
0.0
 11
1347.500579421586
 21
1590.706954137713
 31
0.0
  0
LWPOLYLINE
  5
124
330
1F
100
AcDbEntity
  8
0-B
  6
Continuous
 62
     7
370
     9
100
AcDbPolyline
 90
        4
 70
     1
 43
6.0
 10
1275.500579421586
 20
1590.706954137713
 42
0.4142135623731
 10
1272.500579421586
 20
1593.706954137713
 42
0.4142135623731
 10
1269.500579421586
 20
1590.706954137713
 42
0.4142135623731
 10
1272.500579421586
 20
1587.706954137713
 42
0.4142135623731
  0
LINE
  5
125
330
1F
100
AcDbEntity
  8
0-A
  6
Continuous
 62
     7
370
     9
100
AcDbLine
 10
2526.210822610773
 20
1829.824076368802
 30
0.0
 11
2579.596804296033
 21
1829.824076368802
 31
0.0
  0
LINE
  5
126
330
1F
100
AcDbEntity
  8
0-A
  6
Continuous
 62
     7
370
     9
100
AcDbLine
 10
2474.249298383707
 20
1799.824076368802
 30
0.0
 11
2527.635280068968
 21
1799.824076368802
 31
0.0
  0
LINE
  5
127
330
1F
100
AcDbEntity
  8
0-A
  6
Continuous
 62
     7
370
     9
100
AcDbLine
 10
2579.596804296033
 20
588.4806567750678
 30
0.0
 11
2398.241199218844
 21
274.3635345439793
 31
0.0
  0
LINE
  5
128
330
1F
100
AcDbEntity
  8
0-A
  6
Continuous
 62
     7
370
     9
100
AcDbLine
 10
2527.635280068968
 20
558.4806567750678
 30
0.0
 11
2363.600183067467
 21
274.3635345439793
 31
0.0
  0
LINE
  5
129
330
1F
100
AcDbEntity
  8
0-A
  6
Continuous
 62
     7
370
     9
100
AcDbLine
 10
2613.323092706759
 20
739.3635345439793
 30
0.0
 11
2526.210822610773
 21
588.4806567750678
 31
0.0
  0
LINE
  5
12A
330
1F
100
AcDbEntity
  8
0-A
  6
Continuous
 62
     7
370
     9
100
AcDbLine
 10
2578.682076555382
 20
739.3635345439793
 30
0.0
 11
2474.249298383707
 21
558.4806567750678
 31
0.0
  0
LINE
  5
12B
330
1F
100
AcDbEntity
  8
0-B
  6
Continuous
 62
   120
370
     5
100
AcDbLine
 10
1272.500579421586
 20
349.3635345439793
 30
0.0
 11
1347.500579421586
 21
349.3635345439793
 31
0.0
  0
LWPOLYLINE
  5
12C
330
1F
100
AcDbEntity
  8
0-B
  6
Continuous
 62
     7
370
     9
100
AcDbPolyline
 90
        4
 70
     1
 43
6.0
 10
1275.500579421586
 20
349.3635345439793
 42
0.4142135623731
 10
1272.500579421586
 20
352.3635345439793
 42
0.4142135623731
 10
1269.500579421586
 20
349.3635345439793
 42
0.4142135623731
 10
1272.500579421586
 20
346.3635345439793
 42
0.4142135623731
  0
LINE
  5
12D
330
1F
100
AcDbEntity
  8
0-A
  6
Continuous
 62
     7
370
     9
100
AcDbLine
 10
2526.210822610773
 20
588.4806567750678
 30
0.0
 11
2579.596804296033
 21
588.4806567750678
 31
0.0
  0
LINE
  5
12E
330
1F
100
AcDbEntity
  8
0-A
  6
Continuous
 62
     7
370
     9
100
AcDbLine
 10
2474.249298383707
 20
558.4806567750678
 30
0.0
 11
2527.635280068968
 21
558.4806567750678
 31
0.0
  0
LINE
  5
12F
330
1F
100
AcDbEntity
  8
0-A
  6
Continuous
 62
     7
370
     9
100
AcDbLine
 10
2579.596804296033
 20
-643.3824975879344
 30
0.0
 11
2398.241199218844
 21
-957.4996198190229
 31
0.0
  0
LINE
  5
130
330
1F
100
AcDbEntity
  8
0-A
  6
Continuous
 62
     7
370
     9
100
AcDbLine
 10
2527.635280068968
 20
-673.3824975879344
 30
0.0
 11
2363.600183067467
 21
-957.4996198190238
 31
0.0
  0
LINE
  5
131
330
1F
100
AcDbEntity
  8
0-A
  6
Continuous
 62
     7
370
     9
100
AcDbLine
 10
2613.323092706759
 20
-492.4996198190229
 30
0.0
 11
2526.210822610773
 21
-643.3824975879344
 31
0.0
  0
LINE
  5
132
330
1F
100
AcDbEntity
  8
0-A
  6
Continuous
 62
     7
370
     9
100
AcDbLine
 10
2578.682076555382
 20
-492.4996198190229
 30
0.0
 11
2474.249298383707
 21
-673.3824975879344
 31
0.0
  0
LINE
  5
133
330
1F
100
AcDbEntity
  8
0-B
  6
Continuous
 62
   120
370
     5
100
AcDbLine
 10
1272.500579421586
 20
-882.4996198190229
 30
0.0
 11
1347.500579421586
 21
-882.4996198190229
 31
0.0
  0
LWPOLYLINE
  5
134
330
1F
100
AcDbEntity
  8
0-B
  6
Continuous
 62
     7
370
     9
100
AcDbPolyline
 90
        4
 70
     1
 43
6.0
 10
1275.500579421586
 20
-882.4996198190229
 42
0.4142135623731
 10
1272.500579421586
 20
-879.4996198190229
 42
0.4142135623731
 10
1269.500579421586
 20
-882.4996198190229
 42
0.4142135623731
 10
1272.500579421586
 20
-885.4996198190229
 42
0.4142135623731
  0
LINE
  5
135
330
1F
100
AcDbEntity
  8
0-A
  6
Continuous
 62
     7
370
     9
100
AcDbLine
 10
2526.210822610773
 20
-643.3824975879344
 30
0.0
 11
2579.596804296033
 21
-643.3824975879344
 31
0.0
  0
LINE
  5
136
330
1F
100
AcDbEntity
  8
0-A
  6
Continuous
 62
     7
370
     9
100
AcDbLine
 10
2474.249298383707
 20
-673.3824975879344
 30
0.0
 11
2527.635280068968
 21
-673.3824975879344
 31
0.0
  0
LINE
  5
137
330
1F
100
AcDbEntity
  8
0-A
  6
Continuous
 62
     7
370
     9
100
AcDbLine
 10
2579.596804296033
 20
-1893.382577490377
 30
0.0
 11
2398.241199218844
 21
-2207.499699721466
 31
0.0
  0
LINE
  5
138
330
1F
100
AcDbEntity
  8
0-A
  6
Continuous
 62
     7
370
     9
100
AcDbLine
 10
2527.635280068968
 20
-1923.382577490377
 30
0.0
 11
2363.600183067467
 21
-2207.499699721466
 31
0.0
  0
LINE
  5
139
330
1F
100
AcDbEntity
  8
0-A
  6
Continuous
 62
     7
370
     9
100
AcDbLine
 10
2613.323092706759
 20
-1742.499699721466
 30
0.0
 11
2526.210822610773
 21
-1893.382577490377
 31
0.0
  0
LINE
  5
13A
330
1F
100
AcDbEntity
  8
0-A
  6
Continuous
 62
     7
370
     9
100
AcDbLine
 10
2578.682076555382
 20
-1742.499699721466
 30
0.0
 11
2474.249298383707
 21
-1923.382577490377
 31
0.0
  0
LINE
  5
13B
330
1F
100
AcDbEntity
  8
0-B
  6
Continuous
 62
   120
370
     5
100
AcDbLine
 10
1272.500579421586
 20
-2132.499699721466
 30
0.0
 11
1347.500579421586
 21
-2132.499699721466
 31
0.0
  0
LWPOLYLINE
  5
13C
330
1F
100
AcDbEntity
  8
0-B
  6
Continuous
 62
     7
370
     9
100
AcDbPolyline
 90
        4
 70
     1
 43
6.0
 10
1275.500579421586
 20
-2132.499699721466
 42
0.4142135623731
 10
1272.500579421586
 20
-2129.499699721467
 42
0.4142135623731
 10
1269.500579421586
 20
-2132.499699721466
 42
0.4142135623731
 10
1272.500579421586
 20
-2135.499699721466
 42
0.4142135623731
  0
LINE
  5
13D
330
1F
100
AcDbEntity
  8
0-A
  6
Continuous
 62
     7
370
     9
100
AcDbLine
 10
2526.210822610773
 20
-1893.382577490377
 30
0.0
 11
2579.596804296033
 21
-1893.382577490377
 31
0.0
  0
LINE
  5
13E
330
1F
100
AcDbEntity
  8
0-A
  6
Continuous
 62
     7
370
     9
100
AcDbLine
 10
2474.249298383707
 20
-1923.382577490377
 30
0.0
 11
2527.635280068968
 21
-1923.382577490377
 31
0.0
  0
LINE
  5
13F
330
1F
100
AcDbEntity
  8
0-A
  6
Continuous
 62
     7
370
     9
100
AcDbLine
 10
2579.596804296033
 20
-3163.991180503063
 30
0.0
 11
2398.241199218844
 21
-3478.108302734153
 31
0.0
  0
LINE
  5
140
330
1F
100
AcDbEntity
  8
0-A
  6
Continuous
 62
     7
370
     9
100
AcDbLine
 10
2527.635280068968
 20
-3193.991180503063
 30
0.0
 11
2363.600183067467
 21
-3478.108302734153
 31
0.0
  0
LINE
  5
141
330
1F
100
AcDbEntity
  8
0-A
  6
Continuous
 62
     7
370
     9
100
AcDbLine
 10
2613.323092706759
 20
-3013.108302734151
 30
0.0
 11
2526.210822610773
 21
-3163.991180503063
 31
0.0
  0
LINE
  5
142
330
1F
100
AcDbEntity
  8
0-A
  6
Continuous
 62
     7
370
     9
100
AcDbLine
 10
2578.682076555382
 20
-3013.108302734151
 30
0.0
 11
2474.249298383707
 21
-3193.991180503063
 31
0.0
  0
LINE
  5
143
330
1F
100
AcDbEntity
  8
0-B
  6
Continuous
 62
   120
370
     5
100
AcDbLine
 10
1272.500579421586
 20
-3403.108302734153
 30
0.0
 11
1347.500579421586
 21
-3403.108302734153
 31
0.0
  0
LWPOLYLINE
  5
144
330
1F
100
AcDbEntity
  8
0-B
  6
Continuous
 62
     7
370
     9
100
AcDbPolyline
 90
        4
 70
     1
 43
6.0
 10
1275.500579421586
 20
-3403.108302734153
 42
0.4142135623731
 10
1272.500579421586
 20
-3400.108302734153
 42
0.4142135623731
 10
1269.500579421586
 20
-3403.108302734153
 42
0.4142135623731
 10
1272.500579421586
 20
-3406.108302734153
 42
0.4142135623731
  0
LINE
  5
145
330
1F
100
AcDbEntity
  8
0-A
  6
Continuous
 62
     7
370
     9
100
AcDbLine
 10
2526.210822610773
 20
-3163.991180503063
 30
0.0
 11
2579.596804296033
 21
-3163.991180503063
 31
0.0
  0
LINE
  5
146
330
1F
100
AcDbEntity
  8
0-A
  6
Continuous
 62
     7
370
     9
100
AcDbLine
 10
2474.249298383707
 20
-3193.991180503063
 30
0.0
 11
2527.635280068968
 21
-3193.991180503063
 31
0.0
  0
LINE
  5
147
330
1F
100
AcDbEntity
  8
F-1
  6
JWW_DASHED1
 62
     7
370
     9
100
AcDbLine
 10
5840.000214447848
 20
-2681.249749660492
 30
0.0
 11
4490.000214447847
 21
-2681.249749660492
 31
0.0
  0
LINE
  5
148
330
1F
100
AcDbEntity
  8
F-1
  6
JWW_DASHED1
 62
     7
370
     9
100
AcDbLine
 10
5840.000214447848
 20
-181.2495898556068
 30
0.0
 11
4490.000214447847
 21
-181.2495898556068
 31
0.0
  0
LINE
  5
149
330
1F
100
AcDbEntity
  8
F-1
  6
JWW_DASHED1
 62
     7
370
     9
100
AcDbLine
 10
5840.000214447848
 20
1068.750490046836
 30
0.0
 11
4490.000214447847
 21
1068.750490046836
 31
0.0
  0
LINE
  5
14A
330
1F
100
AcDbEntity
  8
F-1
  6
JWW_DASHED1
 62
     7
370
     9
100
AcDbLine
 10
5840.000214447848
 20
3568.750649851722
 30
0.0
 11
4490.000214447847
 21
3568.750649851722
 31
0.0
  0
LINE
  5
14B
330
1F
100
AcDbEntity
  8
F-1
  6
JWW_DASHED1
 62
     7
370
     9
100
AcDbLine
 10
-5.000263935810096
 20
3568.750649851722
 30
0.0
 11
-1355.000263935811
 21
3568.750649851722
 31
0.0
  0
LINE
  5
14C
330
1F
100
AcDbEntity
  8
F-1
  6
JWW_DASHED1
 62
     7
370
     9
100
AcDbLine
 10
-5.000263935810096
 20
2318.750569949279
 30
0.0
 11
-1355.000263935811
 21
2318.750569949279
 31
0.0
  0
LINE
  5
14D
330
1F
100
AcDbEntity
  8
F-1
  6
JWW_DASHED1
 62
     7
370
     9
100
AcDbLine
 10
-5.000263935810096
 20
1068.750490046836
 30
0.0
 11
-1355.000263935811
 21
1068.750490046836
 31
0.0
  0
LINE
  5
14E
330
1F
100
AcDbEntity
  8
F-1
  6
JWW_DASHED1
 62
     7
370
     9
100
AcDbLine
 10
-5.000263935810096
 20
-181.2495898556068
 30
0.0
 11
-1355.000263935811
 21
-181.2495898556068
 31
0.0
  0
LINE
  5
14F
330
1F
100
AcDbEntity
  8
F-1
  6
JWW_DASHED1
 62
     7
370
     9
100
AcDbLine
 10
-5.000263935810096
 20
-1431.24966975805
 30
0.0
 11
-1355.000263935811
 21
-1431.24966975805
 31
0.0
  0
LINE
  5
150
330
1F
100
AcDbEntity
  8
F-1
  6
JWW_DASHED1
 62
     7
370
     9
100
AcDbLine
 10
-5.000263935810096
 20
-2681.249749660492
 30
0.0
 11
-1355.000263935811
 21
-2681.249749660492
 31
0.0
  0
LINE
  5
151
330
1F
100
AcDbEntity
  8
0-4
  6
Continuous
 62
    92
370
    13
100
AcDbLine
 10
-2659.999898962074
 20
2837.964671621011
 30
0.0
 11
-2659.999898962074
 21
3137.964671621011
 31
0.0
  0
LINE
  5
152
330
1F
100
AcDbEntity
  8
0-4
  6
Continuous
 62
    92
370
    13
100
AcDbLine
 10
-2667.499898962074
 20
2845.464671621011
 30
0.0
 11
-2667.499898962074
 21
3130.464671621011
 31
0.0
  0
LWPOLYLINE
  5
153
330
1F
100
AcDbEntity
  8
0-B
  6
Continuous
 62
     7
370
     9
100
AcDbPolyline
 90
        4
 70
     1
 43
6.0
 10
-2656.999898962074
 20
3287.964671621011
 42
0.4142135623731
 10
-2659.999898962074
 20
3290.96467162101
 42
0.4142135623731
 10
-2662.999898962074
 20
3287.964671621011
 42
0.4142135623731
 10
-2659.999898962074
 20
3284.964671621011
 42
0.4142135623731
  0
LINE
  5
154
330
1F
100
AcDbEntity
  8
0-B
  6
Continuous
 62
   120
370
     5
100
AcDbLine
 10
-2659.999898962074
 20
3287.964671621011
 30
0.0
 11
-2659.999898962074
 21
3212.964671621011
 31
0.0
  0
LINE
  5
155
330
1F
100
AcDbEntity
  8
0-4
  6
Continuous
 62
    92
370
    13
100
AcDbLine
 10
-4331.966890373082
 20
3137.964671621011
 30
0.0
 11
-4384.999898962074
 21
3084.931663032021
 31
0.0
  0
LINE
  5
156
330
1F
100
AcDbEntity
  8
0-4
  6
Continuous
 62
    92
370
    13
100
AcDbLine
 10
-4328.860288655284
 20
3130.464671621011
 30
0.0
 11
-4377.499898962074
 21
3081.825061314223
 31
0.0
  0
LINE
  5
157
330
1F
100
AcDbEntity
  8
0-4
  6
Continuous
 62
    92
370
    13
100
AcDbLine
 10
-4384.999898962074
 20
3084.931663032021
 30
0.0
 11
-4384.999898962074
 21
2837.964671621011
 31
0.0
  0
LINE
  5
158
330
1F
100
AcDbEntity
  8
0-4
  6
Continuous
 62
    92
370
    13
100
AcDbLine
 10
-4377.499898962074
 20
3081.825061314223
 30
0.0
 11
-4377.499898962074
 21
2845.464671621011
 31
0.0
  0
LWPOLYLINE
  5
159
330
1F
100
AcDbEntity
  8
0-B
  6
Continuous
 62
     7
370
     9
100
AcDbPolyline
 90
        4
 70
     1
 43
6.0
 10
-4381.999898962074
 20
3287.964671621011
 42
0.4142135623731
 10
-4384.999898962074
 20
3290.96467162101
 42
0.4142135623731
 10
-4387.999898962074
 20
3287.964671621011
 42
0.4142135623731
 10
-4384.999898962074
 20
3284.964671621011
 42
0.4142135623731
  0
LINE
  5
15A
330
1F
100
AcDbEntity
  8
0-B
  6
Continuous
 62
   120
370
     5
100
AcDbLine
 10
-4384.999898962074
 20
3287.964671621011
 30
0.0
 11
-4384.999898962074
 21
3212.964671621011
 31
0.0
  0
LINE
  5
15B
330
1F
100
AcDbEntity
  8
0-B
  6
Continuous
 62
   120
370
     5
100
AcDbLine
 10
-4534.999898962074
 20
3137.964671621011
 30
0.0
 11
-4534.999898962074
 21
2837.964671621011
 31
0.0
  0
LWPOLYLINE
  5
15C
330
1F
100
AcDbEntity
  8
0-B
  6
Continuous
 62
     7
370
     9
100
AcDbPolyline
 90
        4
 70
     1
 43
6.0
 10
-4531.999898962074
 20
3137.964671621011
 42
0.4142135623731
 10
-4534.999898962074
 20
3140.964671621011
 42
0.4142135623731
 10
-4537.999898962074
 20
3137.964671621011
 42
0.4142135623731
 10
-4534.999898962074
 20
3134.964671621012
 42
0.4142135623731
  0
LINE
  5
15D
330
1F
100
AcDbEntity
  8
0-B
  6
Continuous
 62
   120
370
     5
100
AcDbLine
 10
-4534.999898962074
 20
3137.964671621011
 30
0.0
 11
-4459.999898962074
 21
3137.964671621011
 31
0.0
  0
LINE
  5
15E
330
1F
100
AcDbEntity
  8
0-B
  6
Continuous
 62
   120
370
     5
100
AcDbLine
 10
-4438.032907551064
 20
3244.030688798994
 30
0.0
 11
-4491.065916140054
 21
3190.997680210002
 31
0.0
  0
LWPOLYLINE
  5
15F
330
1F
100
AcDbEntity
  8
0-B
  6
Continuous
 62
     7
370
     9
100
AcDbPolyline
 90
        4
 70
     1
 43
6.0
 10
-4435.032907551064
 20
3244.030688798994
 42
0.4142135623731
 10
-4438.032907551064
 20
3247.030688798994
 42
0.4142135623731
 10
-4441.032907551064
 20
3244.030688798994
 42
0.4142135623731
 10
-4438.032907551064
 20
3241.030688798994
 42
0.4142135623731
  0
LWPOLYLINE
  5
160
330
1F
100
AcDbEntity
  8
0-B
  6
Continuous
 62
     7
370
     9
100
AcDbPolyline
 90
        4
 70
     1
 43
6.0
 10
-4488.065916140055
 20
3190.997680210002
 42
0.4142135623731
 10
-4491.065916140054
 20
3193.997680210002
 42
0.4142135623731
 10
-4494.065916140054
 20
3190.997680210002
 42
0.4142135623731
 10
-4491.065916140054
 20
3187.997680210002
 42
0.4142135623731
  0
LINE
  5
161
330
1F
100
AcDbEntity
  8
0-B
  6
Continuous
 62
   120
370
     5
100
AcDbLine
 10
-4438.032907551064
 20
3244.030688798994
 30
0.0
 11
-4384.999898962074
 21
3190.997680210002
 31
0.0
  0
LINE
  5
162
330
1F
100
AcDbEntity
  8
0-B
  6
Continuous
 62
   120
370
     5
100
AcDbLine
 10
-4491.065916140054
 20
3190.997680210002
 30
0.0
 11
-4438.032907551064
 21
3137.964671621012
 31
0.0
  0
LINE
  5
163
330
1F
100
AcDbEntity
  8
0-4
  6
Continuous
 62
    92
370
    13
100
AcDbLine
 10
-2659.999898962074
 20
3137.964671621011
 30
0.0
 11
-4331.966890373082
 21
3137.964671621011
 31
0.0
  0
LINE
  5
164
330
1F
100
AcDbEntity
  8
0-4
  6
Continuous
 62
    92
370
    13
100
AcDbLine
 10
-2667.499898962074
 20
3130.464671621011
 30
0.0
 11
-4328.860288655284
 21
3130.464671621011
 31
0.0
  0
LINE
  5
165
330
1F
100
AcDbEntity
  8
0-B
  6
Continuous
 62
   120
370
     5
100
AcDbLine
 10
-4384.999898962074
 20
3287.964671621011
 30
0.0
 11
-2659.999898962074
 21
3287.964671621011
 31
0.0
  0
LINE
  5
166
330
1F
100
AcDbEntity
  8
0-0
  6
JWW_HOJO
 62
   120
370
     5
100
AcDbLine
 10
-4394.098924729046
 20
3287.964671621011
 30
0.0
 11
-4534.999898962074
 21
3147.063697387985
 31
0.0
  0
LINE
  5
167
330
1F
100
AcDbEntity
  8
0-0
  6
JWW_HOJO
 62
   120
370
     5
100
AcDbLine
 10
-4534.999898962074
 20
3147.063697387985
 30
0.0
 11
-4534.999898962074
 21
2837.964671621011
 31
0.0
  0
LINE
  5
168
330
1F
100
AcDbEntity
  8
0-0
  6
JWW_HOJO
 62
   120
370
     5
100
AcDbLine
 10
-4363.032907551064
 20
3212.964671621011
 30
0.0
 11
-4459.999898962074
 21
3115.997680210002
 31
0.0
  0
LINE
  5
169
330
1F
100
AcDbEntity
  8
0-0
  6
JWW_HOJO
 62
   120
370
     5
100
AcDbLine
 10
-4459.999898962074
 20
3115.997680210002
 30
0.0
 11
-4459.999898962074
 21
2837.964671621011
 31
0.0
  0
LINE
  5
16A
330
1F
100
AcDbEntity
  8
0-0
  6
JWW_HOJO
 62
   120
370
     5
100
AcDbLine
 10
-2659.999898962074
 20
3287.964671621011
 30
0.0
 11
-4394.098924729046
 21
3287.964671621011
 31
0.0
  0
LINE
  5
16B
330
1F
100
AcDbEntity
  8
0-0
  6
JWW_HOJO
 62
   120
370
     5
100
AcDbLine
 10
-2659.999898962074
 20
3212.964671621011
 30
0.0
 11
-4363.032907551064
 21
3212.964671621011
 31
0.0
  0
LINE
  5
16C
330
1F
100
AcDbEntity
  8
0-4
  6
Continuous
 62
    92
370
    13
100
AcDbLine
 10
-2622.500826861408
 20
1581.899752660795
 30
0.0
 11
-2622.500826861408
 21
1881.899752660795
 31
0.0
  0
LINE
  5
16D
330
1F
100
AcDbEntity
  8
0-4
  6
Continuous
 62
    92
370
    13
100
AcDbLine
 10
-2630.000826861408
 20
1589.399752660795
 30
0.0
 11
-2630.000826861408
 21
1874.399752660795
 31
0.0
  0
LWPOLYLINE
  5
16E
330
1F
100
AcDbEntity
  8
0-B
  6
Continuous
 62
     7
370
     9
100
AcDbPolyline
 90
        4
 70
     1
 43
6.0
 10
-2619.500826861408
 20
2031.899752660795
 42
0.4142135623731
 10
-2622.500826861408
 20
2034.899752660795
 42
0.4142135623731
 10
-2625.500826861408
 20
2031.899752660795
 42
0.4142135623731
 10
-2622.500826861408
 20
2028.899752660795
 42
0.4142135623731
  0
LINE
  5
16F
330
1F
100
AcDbEntity
  8
0-B
  6
Continuous
 62
   120
370
     5
100
AcDbLine
 10
-2622.500826861408
 20
2031.899752660795
 30
0.0
 11
-2622.500826861408
 21
1956.899752660795
 31
0.0
  0
LINE
  5
170
330
1F
100
AcDbEntity
  8
0-4
  6
Continuous
 62
    92
370
    13
100
AcDbLine
 10
-4369.467818272418
 20
1881.899752660795
 30
0.0
 11
-4422.500826861407
 21
1828.866744071804
 31
0.0
  0
LINE
  5
171
330
1F
100
AcDbEntity
  8
0-4
  6
Continuous
 62
    92
370
    13
100
AcDbLine
 10
-4366.361216554618
 20
1874.399752660795
 30
0.0
 11
-4415.000826861407
 21
1825.760142354006
 31
0.0
  0
LINE
  5
172
330
1F
100
AcDbEntity
  8
0-4
  6
Continuous
 62
    92
370
    13
100
AcDbLine
 10
-4422.500826861407
 20
1828.866744071804
 30
0.0
 11
-4422.500826861407
 21
1581.899752660795
 31
0.0
  0
LINE
  5
173
330
1F
100
AcDbEntity
  8
0-4
  6
Continuous
 62
    92
370
    13
100
AcDbLine
 10
-4415.000826861407
 20
1825.760142354006
 30
0.0
 11
-4415.000826861407
 21
1589.399752660795
 31
0.0
  0
LWPOLYLINE
  5
174
330
1F
100
AcDbEntity
  8
0-B
  6
Continuous
 62
     7
370
     9
100
AcDbPolyline
 90
        4
 70
     1
 43
6.0
 10
-4419.500826861408
 20
2031.899752660795
 42
0.4142135623731
 10
-4422.500826861407
 20
2034.899752660795
 42
0.4142135623731
 10
-4425.500826861407
 20
2031.899752660795
 42
0.4142135623731
 10
-4422.500826861407
 20
2028.899752660795
 42
0.4142135623731
  0
LINE
  5
175
330
1F
100
AcDbEntity
  8
0-B
  6
Continuous
 62
   120
370
     5
100
AcDbLine
 10
-4422.500826861407
 20
2031.899752660795
 30
0.0
 11
-4422.500826861407
 21
1956.899752660795
 31
0.0
  0
LINE
  5
176
330
1F
100
AcDbEntity
  8
0-B
  6
Continuous
 62
   120
370
     5
100
AcDbLine
 10
-4572.500826861407
 20
1881.899752660795
 30
0.0
 11
-4572.500826861407
 21
1581.899752660795
 31
0.0
  0
LWPOLYLINE
  5
177
330
1F
100
AcDbEntity
  8
0-B
  6
Continuous
 62
     7
370
     9
100
AcDbPolyline
 90
        4
 70
     1
 43
6.0
 10
-4569.500826861408
 20
1881.899752660795
 42
0.4142135623731
 10
-4572.500826861407
 20
1884.899752660795
 42
0.4142135623731
 10
-4575.500826861407
 20
1881.899752660795
 42
0.4142135623731
 10
-4572.500826861407
 20
1878.899752660795
 42
0.4142135623731
  0
LINE
  5
178
330
1F
100
AcDbEntity
  8
0-B
  6
Continuous
 62
   120
370
     5
100
AcDbLine
 10
-4572.500826861407
 20
1881.899752660795
 30
0.0
 11
-4497.500826861407
 21
1881.899752660795
 31
0.0
  0
LINE
  5
179
330
1F
100
AcDbEntity
  8
0-B
  6
Continuous
 62
   120
370
     5
100
AcDbLine
 10
-4475.533835450399
 20
1987.965769838777
 30
0.0
 11
-4528.566844039391
 21
1934.932761249786
 31
0.0
  0
LWPOLYLINE
  5
17A
330
1F
100
AcDbEntity
  8
0-B
  6
Continuous
 62
     7
370
     9
100
AcDbPolyline
 90
        4
 70
     1
 43
6.0
 10
-4472.533835450399
 20
1987.965769838777
 42
0.4142135623731
 10
-4475.533835450399
 20
1990.965769838777
 42
0.4142135623731
 10
-4478.533835450399
 20
1987.965769838777
 42
0.4142135623731
 10
-4475.533835450399
 20
1984.965769838777
 42
0.4142135623731
  0
LWPOLYLINE
  5
17B
330
1F
100
AcDbEntity
  8
0-B
  6
Continuous
 62
     7
370
     9
100
AcDbPolyline
 90
        4
 70
     1
 43
6.0
 10
-4525.566844039391
 20
1934.932761249786
 42
0.4142135623731
 10
-4528.566844039391
 20
1937.932761249786
 42
0.4142135623731
 10
-4531.566844039391
 20
1934.932761249786
 42
0.4142135623731
 10
-4528.566844039391
 20
1931.932761249787
 42
0.4142135623731
  0
LINE
  5
17C
330
1F
100
AcDbEntity
  8
0-B
  6
Continuous
 62
   120
370
     5
100
AcDbLine
 10
-4475.533835450399
 20
1987.965769838777
 30
0.0
 11
-4422.500826861407
 21
1934.932761249786
 31
0.0
  0
LINE
  5
17D
330
1F
100
AcDbEntity
  8
0-B
  6
Continuous
 62
   120
370
     5
100
AcDbLine
 10
-4528.566844039391
 20
1934.932761249786
 30
0.0
 11
-4475.533835450399
 21
1881.899752660796
 31
0.0
  0
LINE
  5
17E
330
1F
100
AcDbEntity
  8
0-4
  6
Continuous
 62
    92
370
    13
100
AcDbLine
 10
-2622.500826861408
 20
1881.899752660795
 30
0.0
 11
-4369.467818272418
 21
1881.899752660795
 31
0.0
  0
LINE
  5
17F
330
1F
100
AcDbEntity
  8
0-4
  6
Continuous
 62
    92
370
    13
100
AcDbLine
 10
-2630.000826861408
 20
1874.399752660795
 30
0.0
 11
-4366.361216554618
 21
1874.399752660795
 31
0.0
  0
LINE
  5
180
330
1F
100
AcDbEntity
  8
0-B
  6
Continuous
 62
   120
370
     5
100
AcDbLine
 10
-4422.500826861407
 20
2031.899752660795
 30
0.0
 11
-2622.500826861408
 21
2031.899752660795
 31
0.0
  0
LINE
  5
181
330
1F
100
AcDbEntity
  8
0-0
  6
JWW_HOJO
 62
   120
370
     5
100
AcDbLine
 10
-4431.59985262838
 20
2031.899752660795
 30
0.0
 11
-4572.500826861407
 21
1890.998778427769
 31
0.0
  0
LINE
  5
182
330
1F
100
AcDbEntity
  8
0-0
  6
JWW_HOJO
 62
   120
370
     5
100
AcDbLine
 10
-4572.500826861407
 20
1890.998778427769
 30
0.0
 11
-4572.500826861407
 21
1581.899752660795
 31
0.0
  0
LINE
  5
183
330
1F
100
AcDbEntity
  8
0-0
  6
JWW_HOJO
 62
   120
370
     5
100
AcDbLine
 10
-4400.533835450399
 20
1956.899752660795
 30
0.0
 11
-4497.500826861407
 21
1859.932761249786
 31
0.0
  0
LINE
  5
184
330
1F
100
AcDbEntity
  8
0-0
  6
JWW_HOJO
 62
   120
370
     5
100
AcDbLine
 10
-4497.500826861407
 20
1859.932761249786
 30
0.0
 11
-4497.500826861407
 21
1581.899752660795
 31
0.0
  0
LINE
  5
185
330
1F
100
AcDbEntity
  8
0-0
  6
JWW_HOJO
 62
   120
370
     5
100
AcDbLine
 10
-2622.500826861408
 20
2031.899752660795
 30
0.0
 11
-4431.59985262838
 21
2031.899752660795
 31
0.0
  0
LINE
  5
186
330
1F
100
AcDbEntity
  8
0-0
  6
JWW_HOJO
 62
   120
370
     5
100
AcDbLine
 10
-2622.500826861408
 20
1956.899752660795
 30
0.0
 11
-4400.533835450399
 21
1956.899752660795
 31
0.0
  0
LINE
  5
187
330
1F
100
AcDbEntity
  8
0-4
  6
Continuous
 62
    92
370
    13
100
AcDbLine
 10
-2622.500826861408
 20
349.3635345439793
 30
0.0
 11
-2622.500826861408
 21
649.3635345439793
 31
0.0
  0
LINE
  5
188
330
1F
100
AcDbEntity
  8
0-4
  6
Continuous
 62
    92
370
    13
100
AcDbLine
 10
-2630.000826861408
 20
356.8635345439793
 30
0.0
 11
-2630.000826861408
 21
641.8635345439793
 31
0.0
  0
LWPOLYLINE
  5
189
330
1F
100
AcDbEntity
  8
0-B
  6
Continuous
 62
     7
370
     9
100
AcDbPolyline
 90
        4
 70
     1
 43
6.0
 10
-2619.500826861408
 20
799.3635345439793
 42
0.4142135623731
 10
-2622.500826861408
 20
802.3635345439793
 42
0.4142135623731
 10
-2625.500826861408
 20
799.3635345439793
 42
0.4142135623731
 10
-2622.500826861408
 20
796.3635345439793
 42
0.4142135623731
  0
LINE
  5
18A
330
1F
100
AcDbEntity
  8
0-B
  6
Continuous
 62
   120
370
     5
100
AcDbLine
 10
-2622.500826861408
 20
799.3635345439793
 30
0.0
 11
-2622.500826861408
 21
724.3635345439793
 31
0.0
  0
LINE
  5
18B
330
1F
100
AcDbEntity
  8
0-4
  6
Continuous
 62
    92
370
    13
100
AcDbLine
 10
-4369.467818272418
 20
649.3635345439793
 30
0.0
 11
-4422.500826861407
 21
596.3305259549878
 31
0.0
  0
LINE
  5
18C
330
1F
100
AcDbEntity
  8
0-4
  6
Continuous
 62
    92
370
    13
100
AcDbLine
 10
-4366.361216554618
 20
641.8635345439793
 30
0.0
 11
-4415.000826861407
 21
593.2239242371895
 31
0.0
  0
LINE
  5
18D
330
1F
100
AcDbEntity
  8
0-4
  6
Continuous
 62
    92
370
    13
100
AcDbLine
 10
-4422.500826861407
 20
596.3305259549878
 30
0.0
 11
-4422.500826861407
 21
349.3635345439793
 31
0.0
  0
LINE
  5
18E
330
1F
100
AcDbEntity
  8
0-4
  6
Continuous
 62
    92
370
    13
100
AcDbLine
 10
-4415.000826861407
 20
593.2239242371895
 30
0.0
 11
-4415.000826861407
 21
356.8635345439793
 31
0.0
  0
LWPOLYLINE
  5
18F
330
1F
100
AcDbEntity
  8
0-B
  6
Continuous
 62
     7
370
     9
100
AcDbPolyline
 90
        4
 70
     1
 43
6.0
 10
-4419.500826861408
 20
799.3635345439793
 42
0.4142135623731
 10
-4422.500826861407
 20
802.3635345439793
 42
0.4142135623731
 10
-4425.500826861407
 20
799.3635345439793
 42
0.4142135623731
 10
-4422.500826861407
 20
796.3635345439793
 42
0.4142135623731
  0
LINE
  5
190
330
1F
100
AcDbEntity
  8
0-B
  6
Continuous
 62
   120
370
     5
100
AcDbLine
 10
-4422.500826861407
 20
799.3635345439793
 30
0.0
 11
-4422.500826861407
 21
724.3635345439793
 31
0.0
  0
LINE
  5
191
330
1F
100
AcDbEntity
  8
0-B
  6
Continuous
 62
   120
370
     5
100
AcDbLine
 10
-4572.500826861407
 20
649.3635345439793
 30
0.0
 11
-4572.500826861407
 21
349.3635345439793
 31
0.0
  0
LWPOLYLINE
  5
192
330
1F
100
AcDbEntity
  8
0-B
  6
Continuous
 62
     7
370
     9
100
AcDbPolyline
 90
        4
 70
     1
 43
6.0
 10
-4569.500826861408
 20
649.3635345439793
 42
0.4142135623731
 10
-4572.500826861407
 20
652.3635345439793
 42
0.4142135623731
 10
-4575.500826861407
 20
649.3635345439793
 42
0.4142135623731
 10
-4572.500826861407
 20
646.3635345439793
 42
0.4142135623731
  0
LINE
  5
193
330
1F
100
AcDbEntity
  8
0-B
  6
Continuous
 62
   120
370
     5
100
AcDbLine
 10
-4572.500826861407
 20
649.3635345439793
 30
0.0
 11
-4497.500826861407
 21
649.3635345439793
 31
0.0
  0
LINE
  5
194
330
1F
100
AcDbEntity
  8
0-B
  6
Continuous
 62
   120
370
     5
100
AcDbLine
 10
-4475.533835450399
 20
755.4295517219606
 30
0.0
 11
-4528.566844039391
 21
702.39654313297
 31
0.0
  0
LWPOLYLINE
  5
195
330
1F
100
AcDbEntity
  8
0-B
  6
Continuous
 62
     7
370
     9
100
AcDbPolyline
 90
        4
 70
     1
 43
6.0
 10
-4472.533835450399
 20
755.4295517219606
 42
0.4142135623731
 10
-4475.533835450399
 20
758.4295517219606
 42
0.4142135623731
 10
-4478.533835450399
 20
755.4295517219606
 42
0.4142135623731
 10
-4475.533835450399
 20
752.4295517219606
 42
0.4142135623731
  0
LWPOLYLINE
  5
196
330
1F
100
AcDbEntity
  8
0-B
  6
Continuous
 62
     7
370
     9
100
AcDbPolyline
 90
        4
 70
     1
 43
6.0
 10
-4525.566844039391
 20
702.39654313297
 42
0.4142135623731
 10
-4528.566844039391
 20
705.39654313297
 42
0.4142135623731
 10
-4531.566844039391
 20
702.39654313297
 42
0.4142135623731
 10
-4528.566844039391
 20
699.3965431329699
 42
0.4142135623731
  0
LINE
  5
197
330
1F
100
AcDbEntity
  8
0-B
  6
Continuous
 62
   120
370
     5
100
AcDbLine
 10
-4475.533835450399
 20
755.4295517219606
 30
0.0
 11
-4422.500826861407
 21
702.39654313297
 31
0.0
  0
LINE
  5
198
330
1F
100
AcDbEntity
  8
0-B
  6
Continuous
 62
   120
370
     5
100
AcDbLine
 10
-4528.566844039391
 20
702.39654313297
 30
0.0
 11
-4475.533835450399
 21
649.3635345439793
 31
0.0
  0
LINE
  5
199
330
1F
100
AcDbEntity
  8
0-B
  6
Continuous
 62
   120
370
     5
100
AcDbLine
 10
-4422.500826861407
 20
799.3635345439793
 30
0.0
 11
-2622.500826861408
 21
799.3635345439793
 31
0.0
  0
LINE
  5
19A
330
1F
100
AcDbEntity
  8
0-0
  6
JWW_HOJO
 62
   120
370
     5
100
AcDbLine
 10
-4431.59985262838
 20
799.3635345439793
 30
0.0
 11
-4572.500826861407
 21
658.4625603109521
 31
0.0
  0
LINE
  5
19B
330
1F
100
AcDbEntity
  8
0-0
  6
JWW_HOJO
 62
   120
370
     5
100
AcDbLine
 10
-4572.500826861407
 20
658.4625603109521
 30
0.0
 11
-4572.500826861407
 21
349.3635345439793
 31
0.0
  0
LINE
  5
19C
330
1F
100
AcDbEntity
  8
0-0
  6
JWW_HOJO
 62
   120
370
     5
100
AcDbLine
 10
-4400.533835450399
 20
724.3635345439793
 30
0.0
 11
-4497.500826861407
 21
627.39654313297
 31
0.0
  0
LINE
  5
19D
330
1F
100
AcDbEntity
  8
0-0
  6
JWW_HOJO
 62
   120
370
     5
100
AcDbLine
 10
-4497.500826861407
 20
627.39654313297
 30
0.0
 11
-4497.500826861407
 21
349.3635345439793
 31
0.0
  0
LINE
  5
19E
330
1F
100
AcDbEntity
  8
0-0
  6
JWW_HOJO
 62
   120
370
     5
100
AcDbLine
 10
-2622.500826861408
 20
799.3635345439793
 30
0.0
 11
-4431.59985262838
 21
799.3635345439793
 31
0.0
  0
LINE
  5
19F
330
1F
100
AcDbEntity
  8
0-0
  6
JWW_HOJO
 62
   120
370
     5
100
AcDbLine
 10
-2622.500826861408
 20
724.3635345439793
 30
0.0
 11
-4400.533835450399
 21
724.3635345439793
 31
0.0
  0
LINE
  5
1A0
330
1F
100
AcDbEntity
  8
0-4
  6
Continuous
 62
    92
370
    13
100
AcDbLine
 10
-2622.500826861408
 20
-882.4996198190229
 30
0.0
 11
-2622.500826861408
 21
-582.4996198190229
 31
0.0
  0
LINE
  5
1A1
330
1F
100
AcDbEntity
  8
0-4
  6
Continuous
 62
    92
370
    13
100
AcDbLine
 10
-2630.000826861408
 20
-874.9996198190229
 30
0.0
 11
-2630.000826861408
 21
-589.9996198190229
 31
0.0
  0
LWPOLYLINE
  5
1A2
330
1F
100
AcDbEntity
  8
0-B
  6
Continuous
 62
     7
370
     9
100
AcDbPolyline
 90
        4
 70
     1
 43
6.0
 10
-2619.500826861408
 20
-432.4996198190229
 42
0.4142135623731
 10
-2622.500826861408
 20
-429.4996198190229
 42
0.4142135623731
 10
-2625.500826861408
 20
-432.4996198190229
 42
0.4142135623731
 10
-2622.500826861408
 20
-435.4996198190229
 42
0.4142135623731
  0
LINE
  5
1A3
330
1F
100
AcDbEntity
  8
0-B
  6
Continuous
 62
   120
370
     5
100
AcDbLine
 10
-2622.500826861408
 20
-432.4996198190229
 30
0.0
 11
-2622.500826861408
 21
-507.4996198190229
 31
0.0
  0
LINE
  5
1A4
330
1F
100
AcDbEntity
  8
0-4
  6
Continuous
 62
    92
370
    13
100
AcDbLine
 10
-4369.467818272418
 20
-582.4996198190229
 30
0.0
 11
-4422.500826861407
 21
-635.5326284080139
 31
0.0
  0
LINE
  5
1A5
330
1F
100
AcDbEntity
  8
0-4
  6
Continuous
 62
    92
370
    13
100
AcDbLine
 10
-4366.361216554618
 20
-589.9996198190229
 30
0.0
 11
-4415.000826861407
 21
-638.6392301258122
 31
0.0
  0
LINE
  5
1A6
330
1F
100
AcDbEntity
  8
0-4
  6
Continuous
 62
    92
370
    13
100
AcDbLine
 10
-4422.500826861407
 20
-635.5326284080139
 30
0.0
 11
-4422.500826861407
 21
-882.4996198190229
 31
0.0
  0
LINE
  5
1A7
330
1F
100
AcDbEntity
  8
0-4
  6
Continuous
 62
    92
370
    13
100
AcDbLine
 10
-4415.000826861407
 20
-638.6392301258122
 30
0.0
 11
-4415.000826861407
 21
-874.9996198190229
 31
0.0
  0
LWPOLYLINE
  5
1A8
330
1F
100
AcDbEntity
  8
0-B
  6
Continuous
 62
     7
370
     9
100
AcDbPolyline
 90
        4
 70
     1
 43
6.0
 10
-4419.500826861408
 20
-432.4996198190229
 42
0.4142135623731
 10
-4422.500826861407
 20
-429.4996198190229
 42
0.4142135623731
 10
-4425.500826861407
 20
-432.4996198190229
 42
0.4142135623731
 10
-4422.500826861407
 20
-435.4996198190229
 42
0.4142135623731
  0
LINE
  5
1A9
330
1F
100
AcDbEntity
  8
0-B
  6
Continuous
 62
   120
370
     5
100
AcDbLine
 10
-4422.500826861407
 20
-432.4996198190229
 30
0.0
 11
-4422.500826861407
 21
-507.4996198190229
 31
0.0
  0
LINE
  5
1AA
330
1F
100
AcDbEntity
  8
0-B
  6
Continuous
 62
   120
370
     5
100
AcDbLine
 10
-4572.500826861407
 20
-582.4996198190229
 30
0.0
 11
-4572.500826861407
 21
-882.4996198190229
 31
0.0
  0
LWPOLYLINE
  5
1AB
330
1F
100
AcDbEntity
  8
0-B
  6
Continuous
 62
     7
370
     9
100
AcDbPolyline
 90
        4
 70
     1
 43
6.0
 10
-4569.500826861408
 20
-582.4996198190229
 42
0.4142135623731
 10
-4572.500826861407
 20
-579.4996198190229
 42
0.4142135623731
 10
-4575.500826861407
 20
-582.4996198190229
 42
0.4142135623731
 10
-4572.500826861407
 20
-585.4996198190229
 42
0.4142135623731
  0
LINE
  5
1AC
330
1F
100
AcDbEntity
  8
0-B
  6
Continuous
 62
   120
370
     5
100
AcDbLine
 10
-4572.500826861407
 20
-582.4996198190229
 30
0.0
 11
-4497.500826861407
 21
-582.4996198190229
 31
0.0
  0
LINE
  5
1AD
330
1F
100
AcDbEntity
  8
0-B
  6
Continuous
 62
   120
370
     5
100
AcDbLine
 10
-4475.533835450399
 20
-476.4336026410416
 30
0.0
 11
-4528.566844039391
 21
-529.4666112300322
 31
0.0
  0
LWPOLYLINE
  5
1AE
330
1F
100
AcDbEntity
  8
0-B
  6
Continuous
 62
     7
370
     9
100
AcDbPolyline
 90
        4
 70
     1
 43
6.0
 10
-4472.533835450399
 20
-476.4336026410416
 42
0.4142135623731
 10
-4475.533835450399
 20
-473.4336026410416
 42
0.4142135623731
 10
-4478.533835450399
 20
-476.4336026410416
 42
0.4142135623731
 10
-4475.533835450399
 20
-479.4336026410416
 42
0.4142135623731
  0
LWPOLYLINE
  5
1AF
330
1F
100
AcDbEntity
  8
0-B
  6
Continuous
 62
     7
370
     9
100
AcDbPolyline
 90
        4
 70
     1
 43
6.0
 10
-4525.566844039391
 20
-529.4666112300322
 42
0.4142135623731
 10
-4528.566844039391
 20
-526.4666112300322
 42
0.4142135623731
 10
-4531.566844039391
 20
-529.4666112300322
 42
0.4142135623731
 10
-4528.566844039391
 20
-532.4666112300323
 42
0.4142135623731
  0
LINE
  5
1B0
330
1F
100
AcDbEntity
  8
0-B
  6
Continuous
 62
   120
370
     5
100
AcDbLine
 10
-4475.533835450399
 20
-476.4336026410416
 30
0.0
 11
-4422.500826861407
 21
-529.4666112300322
 31
0.0
  0
LINE
  5
1B1
330
1F
100
AcDbEntity
  8
0-B
  6
Continuous
 62
   120
370
     5
100
AcDbLine
 10
-4528.566844039391
 20
-529.4666112300322
 30
0.0
 11
-4475.533835450399
 21
-582.4996198190229
 31
0.0
  0
LINE
  5
1B2
330
1F
100
AcDbEntity
  8
0-B
  6
Continuous
 62
   120
370
     5
100
AcDbLine
 10
-4422.500826861407
 20
-432.4996198190229
 30
0.0
 11
-2622.500826861408
 21
-432.4996198190229
 31
0.0
  0
LINE
  5
1B3
330
1F
100
AcDbEntity
  8
0-0
  6
JWW_HOJO
 62
   120
370
     5
100
AcDbLine
 10
-4431.59985262838
 20
-432.4996198190229
 30
0.0
 11
-4572.500826861407
 21
-573.4005940520501
 31
0.0
  0
LINE
  5
1B4
330
1F
100
AcDbEntity
  8
0-0
  6
JWW_HOJO
 62
   120
370
     5
100
AcDbLine
 10
-4572.500826861407
 20
-573.4005940520501
 30
0.0
 11
-4572.500826861407
 21
-882.4996198190229
 31
0.0
  0
LINE
  5
1B5
330
1F
100
AcDbEntity
  8
0-0
  6
JWW_HOJO
 62
   120
370
     5
100
AcDbLine
 10
-4400.533835450399
 20
-507.4996198190229
 30
0.0
 11
-4497.500826861407
 21
-604.4666112300322
 31
0.0
  0
LINE
  5
1B6
330
1F
100
AcDbEntity
  8
0-0
  6
JWW_HOJO
 62
   120
370
     5
100
AcDbLine
 10
-4497.500826861407
 20
-604.4666112300322
 30
0.0
 11
-4497.500826861407
 21
-882.4996198190229
 31
0.0
  0
LINE
  5
1B7
330
1F
100
AcDbEntity
  8
0-0
  6
JWW_HOJO
 62
   120
370
     5
100
AcDbLine
 10
-2622.500826861408
 20
-432.4996198190229
 30
0.0
 11
-4431.59985262838
 21
-432.4996198190229
 31
0.0
  0
LINE
  5
1B8
330
1F
100
AcDbEntity
  8
0-0
  6
JWW_HOJO
 62
   120
370
     5
100
AcDbLine
 10
-2622.500826861408
 20
-507.4996198190229
 30
0.0
 11
-4400.533835450399
 21
-507.4996198190229
 31
0.0
  0
LINE
  5
1B9
330
1F
100
AcDbEntity
  8
0-4
  6
Continuous
 62
    92
370
    13
100
AcDbLine
 10
-2622.500826861408
 20
-2132.499699721466
 30
0.0
 11
-2622.500826861408
 21
-1832.499699721466
 31
0.0
  0
LINE
  5
1BA
330
1F
100
AcDbEntity
  8
0-4
  6
Continuous
 62
    92
370
    13
100
AcDbLine
 10
-2630.000826861408
 20
-2124.999699721466
 30
0.0
 11
-2630.000826861408
 21
-1839.999699721466
 31
0.0
  0
LWPOLYLINE
  5
1BB
330
1F
100
AcDbEntity
  8
0-B
  6
Continuous
 62
     7
370
     9
100
AcDbPolyline
 90
        4
 70
     1
 43
6.0
 10
-2619.500826861408
 20
-1682.499699721466
 42
0.4142135623731
 10
-2622.500826861408
 20
-1679.499699721466
 42
0.4142135623731
 10
-2625.500826861408
 20
-1682.499699721466
 42
0.4142135623731
 10
-2622.500826861408
 20
-1685.499699721466
 42
0.4142135623731
  0
LINE
  5
1BC
330
1F
100
AcDbEntity
  8
0-B
  6
Continuous
 62
   120
370
     5
100
AcDbLine
 10
-2622.500826861408
 20
-1682.499699721466
 30
0.0
 11
-2622.500826861408
 21
-1757.499699721466
 31
0.0
  0
LINE
  5
1BD
330
1F
100
AcDbEntity
  8
0-4
  6
Continuous
 62
    92
370
    13
100
AcDbLine
 10
-4369.467818272418
 20
-1832.499699721466
 30
0.0
 11
-4422.500826861407
 21
-1885.532708310456
 31
0.0
  0
LINE
  5
1BE
330
1F
100
AcDbEntity
  8
0-4
  6
Continuous
 62
    92
370
    13
100
AcDbLine
 10
-4366.361216554618
 20
-1839.999699721466
 30
0.0
 11
-4415.000826861407
 21
-1888.639310028255
 31
0.0
  0
LINE
  5
1BF
330
1F
100
AcDbEntity
  8
0-4
  6
Continuous
 62
    92
370
    13
100
AcDbLine
 10
-4422.500826861407
 20
-1885.532708310456
 30
0.0
 11
-4422.500826861407
 21
-2132.499699721466
 31
0.0
  0
LINE
  5
1C0
330
1F
100
AcDbEntity
  8
0-4
  6
Continuous
 62
    92
370
    13
100
AcDbLine
 10
-4415.000826861407
 20
-1888.639310028255
 30
0.0
 11
-4415.000826861407
 21
-2124.999699721466
 31
0.0
  0
LWPOLYLINE
  5
1C1
330
1F
100
AcDbEntity
  8
0-B
  6
Continuous
 62
     7
370
     9
100
AcDbPolyline
 90
        4
 70
     1
 43
6.0
 10
-4419.500826861408
 20
-1682.499699721466
 42
0.4142135623731
 10
-4422.500826861407
 20
-1679.499699721466
 42
0.4142135623731
 10
-4425.500826861407
 20
-1682.499699721466
 42
0.4142135623731
 10
-4422.500826861407
 20
-1685.499699721466
 42
0.4142135623731
  0
LINE
  5
1C2
330
1F
100
AcDbEntity
  8
0-B
  6
Continuous
 62
   120
370
     5
100
AcDbLine
 10
-4422.500826861407
 20
-1682.499699721466
 30
0.0
 11
-4422.500826861407
 21
-1757.499699721466
 31
0.0
  0
LINE
  5
1C3
330
1F
100
AcDbEntity
  8
0-B
  6
Continuous
 62
   120
370
     5
100
AcDbLine
 10
-4572.500826861407
 20
-1832.499699721466
 30
0.0
 11
-4572.500826861407
 21
-2132.499699721466
 31
0.0
  0
LWPOLYLINE
  5
1C4
330
1F
100
AcDbEntity
  8
0-B
  6
Continuous
 62
     7
370
     9
100
AcDbPolyline
 90
        4
 70
     1
 43
6.0
 10
-4569.500826861408
 20
-1832.499699721466
 42
0.4142135623731
 10
-4572.500826861407
 20
-1829.499699721466
 42
0.4142135623731
 10
-4575.500826861407
 20
-1832.499699721466
 42
0.4142135623731
 10
-4572.500826861407
 20
-1835.499699721466
 42
0.4142135623731
  0
LINE
  5
1C5
330
1F
100
AcDbEntity
  8
0-B
  6
Continuous
 62
   120
370
     5
100
AcDbLine
 10
-4572.500826861407
 20
-1832.499699721466
 30
0.0
 11
-4497.500826861407
 21
-1832.499699721466
 31
0.0
  0
LINE
  5
1C6
330
1F
100
AcDbEntity
  8
0-B
  6
Continuous
 62
   120
370
     5
100
AcDbLine
 10
-4475.533835450399
 20
-1726.433682543484
 30
0.0
 11
-4528.566844039391
 21
-1779.466691132474
 31
0.0
  0
LWPOLYLINE
  5
1C7
330
1F
100
AcDbEntity
  8
0-B
  6
Continuous
 62
     7
370
     9
100
AcDbPolyline
 90
        4
 70
     1
 43
6.0
 10
-4472.533835450399
 20
-1726.433682543484
 42
0.4142135623731
 10
-4475.533835450399
 20
-1723.433682543484
 42
0.4142135623731
 10
-4478.533835450399
 20
-1726.433682543484
 42
0.4142135623731
 10
-4475.533835450399
 20
-1729.433682543484
 42
0.4142135623731
  0
LWPOLYLINE
  5
1C8
330
1F
100
AcDbEntity
  8
0-B
  6
Continuous
 62
     7
370
     9
100
AcDbPolyline
 90
        4
 70
     1
 43
6.0
 10
-4525.566844039391
 20
-1779.466691132474
 42
0.4142135623731
 10
-4528.566844039391
 20
-1776.466691132474
 42
0.4142135623731
 10
-4531.566844039391
 20
-1779.466691132474
 42
0.4142135623731
 10
-4528.566844039391
 20
-1782.466691132474
 42
0.4142135623731
  0
LINE
  5
1C9
330
1F
100
AcDbEntity
  8
0-B
  6
Continuous
 62
   120
370
     5
100
AcDbLine
 10
-4475.533835450399
 20
-1726.433682543484
 30
0.0
 11
-4422.500826861407
 21
-1779.466691132474
 31
0.0
  0
LINE
  5
1CA
330
1F
100
AcDbEntity
  8
0-B
  6
Continuous
 62
   120
370
     5
100
AcDbLine
 10
-4528.566844039391
 20
-1779.466691132474
 30
0.0
 11
-4475.533835450399
 21
-1832.499699721465
 31
0.0
  0
LINE
  5
1CB
330
1F
100
AcDbEntity
  8
0-B
  6
Continuous
 62
   120
370
     5
100
AcDbLine
 10
-4422.500826861407
 20
-1682.499699721466
 30
0.0
 11
-2622.500826861408
 21
-1682.499699721466
 31
0.0
  0
LINE
  5
1CC
330
1F
100
AcDbEntity
  8
0-0
  6
JWW_HOJO
 62
   120
370
     5
100
AcDbLine
 10
-4431.59985262838
 20
-1682.499699721466
 30
0.0
 11
-4572.500826861407
 21
-1823.400673954492
 31
0.0
  0
LINE
  5
1CD
330
1F
100
AcDbEntity
  8
0-0
  6
JWW_HOJO
 62
   120
370
     5
100
AcDbLine
 10
-4572.500826861407
 20
-1823.400673954492
 30
0.0
 11
-4572.500826861407
 21
-2132.499699721466
 31
0.0
  0
LINE
  5
1CE
330
1F
100
AcDbEntity
  8
0-0
  6
JWW_HOJO
 62
   120
370
     5
100
AcDbLine
 10
-4400.533835450399
 20
-1757.499699721466
 30
0.0
 11
-4497.500826861407
 21
-1854.466691132474
 31
0.0
  0
LINE
  5
1CF
330
1F
100
AcDbEntity
  8
0-0
  6
JWW_HOJO
 62
   120
370
     5
100
AcDbLine
 10
-4497.500826861407
 20
-1854.466691132474
 30
0.0
 11
-4497.500826861407
 21
-2132.499699721466
 31
0.0
  0
LINE
  5
1D0
330
1F
100
AcDbEntity
  8
0-0
  6
JWW_HOJO
 62
   120
370
     5
100
AcDbLine
 10
-2622.500826861408
 20
-1682.499699721466
 30
0.0
 11
-4431.59985262838
 21
-1682.499699721466
 31
0.0
  0
LINE
  5
1D1
330
1F
100
AcDbEntity
  8
0-0
  6
JWW_HOJO
 62
   120
370
     5
100
AcDbLine
 10
-2622.500826861408
 20
-1757.499699721466
 30
0.0
 11
-4400.533835450399
 21
-1757.499699721466
 31
0.0
  0
LINE
  5
1D2
330
1F
100
AcDbEntity
  8
0-4
  6
Continuous
 62
    92
370
    13
100
AcDbLine
 10
-2622.500826861408
 20
-3400.636705163351
 30
0.0
 11
-2622.500826861408
 21
-3100.636705163351
 31
0.0
  0
LINE
  5
1D3
330
1F
100
AcDbEntity
  8
0-4
  6
Continuous
 62
    92
370
    13
100
AcDbLine
 10
-2630.000826861408
 20
-3393.136705163351
 30
0.0
 11
-2630.000826861408
 21
-3108.136705163351
 31
0.0
  0
LWPOLYLINE
  5
1D4
330
1F
100
AcDbEntity
  8
0-B
  6
Continuous
 62
     7
370
     9
100
AcDbPolyline
 90
        4
 70
     1
 43
6.0
 10
-2619.500826861408
 20
-2950.636705163351
 42
0.4142135623731
 10
-2622.500826861408
 20
-2947.636705163351
 42
0.4142135623731
 10
-2625.500826861408
 20
-2950.636705163351
 42
0.4142135623731
 10
-2622.500826861408
 20
-2953.636705163351
 42
0.4142135623731
  0
LINE
  5
1D5
330
1F
100
AcDbEntity
  8
0-B
  6
Continuous
 62
   120
370
     5
100
AcDbLine
 10
-2622.500826861408
 20
-2950.636705163351
 30
0.0
 11
-2622.500826861408
 21
-3025.636705163351
 31
0.0
  0
LINE
  5
1D6
330
1F
100
AcDbEntity
  8
0-4
  6
Continuous
 62
    92
370
    13
100
AcDbLine
 10
-4369.467818272418
 20
-3100.636705163351
 30
0.0
 11
-4422.500826861407
 21
-3153.669713752342
 31
0.0
  0
LINE
  5
1D7
330
1F
100
AcDbEntity
  8
0-4
  6
Continuous
 62
    92
370
    13
100
AcDbLine
 10
-4366.361216554618
 20
-3108.136705163351
 30
0.0
 11
-4415.000826861407
 21
-3156.77631547014
 31
0.0
  0
LINE
  5
1D8
330
1F
100
AcDbEntity
  8
0-4
  6
Continuous
 62
    92
370
    13
100
AcDbLine
 10
-4422.500826861407
 20
-3153.669713752342
 30
0.0
 11
-4422.500826861407
 21
-3400.636705163351
 31
0.0
  0
LINE
  5
1D9
330
1F
100
AcDbEntity
  8
0-4
  6
Continuous
 62
    92
370
    13
100
AcDbLine
 10
-4415.000826861407
 20
-3156.77631547014
 30
0.0
 11
-4415.000826861407
 21
-3393.136705163351
 31
0.0
  0
LWPOLYLINE
  5
1DA
330
1F
100
AcDbEntity
  8
0-B
  6
Continuous
 62
     7
370
     9
100
AcDbPolyline
 90
        4
 70
     1
 43
6.0
 10
-4419.500826861408
 20
-2950.636705163351
 42
0.4142135623731
 10
-4422.500826861407
 20
-2947.636705163351
 42
0.4142135623731
 10
-4425.500826861407
 20
-2950.636705163351
 42
0.4142135623731
 10
-4422.500826861407
 20
-2953.636705163351
 42
0.4142135623731
  0
LINE
  5
1DB
330
1F
100
AcDbEntity
  8
0-B
  6
Continuous
 62
   120
370
     5
100
AcDbLine
 10
-4422.500826861407
 20
-2950.636705163351
 30
0.0
 11
-4422.500826861407
 21
-3025.636705163351
 31
0.0
  0
LINE
  5
1DC
330
1F
100
AcDbEntity
  8
0-B
  6
Continuous
 62
   120
370
     5
100
AcDbLine
 10
-4572.500826861407
 20
-3100.636705163351
 30
0.0
 11
-4572.500826861407
 21
-3400.636705163351
 31
0.0
  0
LWPOLYLINE
  5
1DD
330
1F
100
AcDbEntity
  8
0-B
  6
Continuous
 62
     7
370
     9
100
AcDbPolyline
 90
        4
 70
     1
 43
6.0
 10
-4569.500826861408
 20
-3100.636705163351
 42
0.4142135623731
 10
-4572.500826861407
 20
-3097.636705163351
 42
0.4142135623731
 10
-4575.500826861407
 20
-3100.636705163351
 42
0.4142135623731
 10
-4572.500826861407
 20
-3103.63670516335
 42
0.4142135623731
  0
LINE
  5
1DE
330
1F
100
AcDbEntity
  8
0-B
  6
Continuous
 62
   120
370
     5
100
AcDbLine
 10
-4572.500826861407
 20
-3100.636705163351
 30
0.0
 11
-4497.500826861407
 21
-3100.636705163351
 31
0.0
  0
LINE
  5
1DF
330
1F
100
AcDbEntity
  8
0-B
  6
Continuous
 62
   120
370
     5
100
AcDbLine
 10
-4475.533835450399
 20
-2994.57068798537
 30
0.0
 11
-4528.566844039391
 21
-3047.60369657436
 31
0.0
  0
LWPOLYLINE
  5
1E0
330
1F
100
AcDbEntity
  8
0-B
  6
Continuous
 62
     7
370
     9
100
AcDbPolyline
 90
        4
 70
     1
 43
6.0
 10
-4472.533835450399
 20
-2994.57068798537
 42
0.4142135623731
 10
-4475.533835450399
 20
-2991.57068798537
 42
0.4142135623731
 10
-4478.533835450399
 20
-2994.57068798537
 42
0.4142135623731
 10
-4475.533835450399
 20
-2997.57068798537
 42
0.4142135623731
  0
LWPOLYLINE
  5
1E1
330
1F
100
AcDbEntity
  8
0-B
  6
Continuous
 62
     7
370
     9
100
AcDbPolyline
 90
        4
 70
     1
 43
6.0
 10
-4525.566844039391
 20
-3047.60369657436
 42
0.4142135623731
 10
-4528.566844039391
 20
-3044.60369657436
 42
0.4142135623731
 10
-4531.566844039391
 20
-3047.60369657436
 42
0.4142135623731
 10
-4528.566844039391
 20
-3050.603696574359
 42
0.4142135623731
  0
LINE
  5
1E2
330
1F
100
AcDbEntity
  8
0-B
  6
Continuous
 62
   120
370
     5
100
AcDbLine
 10
-4475.533835450399
 20
-2994.57068798537
 30
0.0
 11
-4422.500826861407
 21
-3047.60369657436
 31
0.0
  0
LINE
  5
1E3
330
1F
100
AcDbEntity
  8
0-B
  6
Continuous
 62
   120
370
     5
100
AcDbLine
 10
-4528.566844039391
 20
-3047.60369657436
 30
0.0
 11
-4475.533835450399
 21
-3100.636705163351
 31
0.0
  0
LINE
  5
1E4
330
1F
100
AcDbEntity
  8
0-B
  6
Continuous
 62
   120
370
     5
100
AcDbLine
 10
-4422.500826861407
 20
-2950.636705163351
 30
0.0
 11
-2622.500826861408
 21
-2950.636705163351
 31
0.0
  0
LINE
  5
1E5
330
1F
100
AcDbEntity
  8
0-0
  6
JWW_HOJO
 62
   120
370
     5
100
AcDbLine
 10
-4431.59985262838
 20
-2950.636705163351
 30
0.0
 11
-4572.500826861407
 21
-3091.537679396378
 31
0.0
  0
LINE
  5
1E6
330
1F
100
AcDbEntity
  8
0-0
  6
JWW_HOJO
 62
   120
370
     5
100
AcDbLine
 10
-4572.500826861407
 20
-3091.537679396378
 30
0.0
 11
-4572.500826861407
 21
-3400.636705163351
 31
0.0
  0
LINE
  5
1E7
330
1F
100
AcDbEntity
  8
0-0
  6
JWW_HOJO
 62
   120
370
     5
100
AcDbLine
 10
-4400.533835450399
 20
-3025.636705163351
 30
0.0
 11
-4497.500826861407
 21
-3122.603696574359
 31
0.0
  0
LINE
  5
1E8
330
1F
100
AcDbEntity
  8
0-0
  6
JWW_HOJO
 62
   120
370
     5
100
AcDbLine
 10
-4497.500826861407
 20
-3122.603696574359
 30
0.0
 11
-4497.500826861407
 21
-3400.636705163351
 31
0.0
  0
LINE
  5
1E9
330
1F
100
AcDbEntity
  8
0-0
  6
JWW_HOJO
 62
   120
370
     5
100
AcDbLine
 10
-2622.500826861408
 20
-2950.636705163351
 30
0.0
 11
-4431.59985262838
 21
-2950.636705163351
 31
0.0
  0
LINE
  5
1EA
330
1F
100
AcDbEntity
  8
0-0
  6
JWW_HOJO
 62
   120
370
     5
100
AcDbLine
 10
-2622.500826861408
 20
-3025.636705163351
 30
0.0
 11
-4400.533835450399
 21
-3025.636705163351
 31
0.0
  0
LINE
  5
1EB
330
1F
100
AcDbEntity
  8
0-4
  6
Continuous
 62
    92
370
    13
100
AcDbLine
 10
3222.500579421585
 20
2867.500619888306
 30
0.0
 11
3222.500579421585
 21
3167.500619888306
 31
0.0
  0
LINE
  5
1EC
330
1F
100
AcDbEntity
  8
0-4
  6
Continuous
 62
    92
370
    13
100
AcDbLine
 10
3215.000579421585
 20
2875.000619888306
 30
0.0
 11
3215.000579421585
 21
3160.000619888306
 31
0.0
  0
LWPOLYLINE
  5
1ED
330
1F
100
AcDbEntity
  8
0-B
  6
Continuous
 62
     7
370
     9
100
AcDbPolyline
 90
        4
 70
     1
 43
6.0
 10
3225.500579421585
 20
3317.500619888306
 42
0.4142135623731
 10
3222.500579421585
 20
3320.500619888306
 42
0.4142135623731
 10
3219.500579421585
 20
3317.500619888306
 42
0.4142135623731
 10
3222.500579421585
 20
3314.500619888306
 42
0.4142135623731
  0
LINE
  5
1EE
330
1F
100
AcDbEntity
  8
0-B
  6
Continuous
 62
   120
370
     5
100
AcDbLine
 10
3222.500579421585
 20
3317.500619888306
 30
0.0
 11
3222.500579421585
 21
3242.500619888306
 31
0.0
  0
LINE
  5
1EF
330
1F
100
AcDbEntity
  8
0-4
  6
Continuous
 62
    92
370
    13
100
AcDbLine
 10
1475.533588010576
 20
3167.500619888306
 30
0.0
 11
1422.500579421585
 21
3114.467611299314
 31
0.0
  0
LINE
  5
1F0
330
1F
100
AcDbEntity
  8
0-4
  6
Continuous
 62
    92
370
    13
100
AcDbLine
 10
1478.640189728374
 20
3160.000619888306
 30
0.0
 11
1430.000579421585
 21
3111.361009581516
 31
0.0
  0
LINE
  5
1F1
330
1F
100
AcDbEntity
  8
0-4
  6
Continuous
 62
    92
370
    13
100
AcDbLine
 10
1422.500579421585
 20
3114.467611299314
 30
0.0
 11
1422.500579421585
 21
2867.500619888306
 31
0.0
  0
LINE
  5
1F2
330
1F
100
AcDbEntity
  8
0-4
  6
Continuous
 62
    92
370
    13
100
AcDbLine
 10
1430.000579421585
 20
3111.361009581516
 30
0.0
 11
1430.000579421585
 21
2875.000619888306
 31
0.0
  0
LWPOLYLINE
  5
1F3
330
1F
100
AcDbEntity
  8
0-B
  6
Continuous
 62
     7
370
     9
100
AcDbPolyline
 90
        4
 70
     1
 43
6.0
 10
1425.500579421585
 20
3317.500619888306
 42
0.4142135623731
 10
1422.500579421585
 20
3320.500619888306
 42
0.4142135623731
 10
1419.500579421585
 20
3317.500619888306
 42
0.4142135623731
 10
1422.500579421585
 20
3314.500619888306
 42
0.4142135623731
  0
LINE
  5
1F4
330
1F
100
AcDbEntity
  8
0-B
  6
Continuous
 62
   120
370
     5
100
AcDbLine
 10
1422.500579421585
 20
3317.500619888306
 30
0.0
 11
1422.500579421585
 21
3242.500619888306
 31
0.0
  0
LINE
  5
1F5
330
1F
100
AcDbEntity
  8
0-B
  6
Continuous
 62
   120
370
     5
100
AcDbLine
 10
1272.500579421585
 20
3167.500619888306
 30
0.0
 11
1272.500579421585
 21
2867.500619888306
 31
0.0
  0
LWPOLYLINE
  5
1F6
330
1F
100
AcDbEntity
  8
0-B
  6
Continuous
 62
     7
370
     9
100
AcDbPolyline
 90
        4
 70
     1
 43
6.0
 10
1275.500579421585
 20
3167.500619888306
 42
0.4142135623731
 10
1272.500579421585
 20
3170.500619888306
 42
0.4142135623731
 10
1269.500579421585
 20
3167.500619888306
 42
0.4142135623731
 10
1272.500579421585
 20
3164.500619888306
 42
0.4142135623731
  0
LINE
  5
1F7
330
1F
100
AcDbEntity
  8
0-B
  6
Continuous
 62
   120
370
     5
100
AcDbLine
 10
1272.500579421585
 20
3167.500619888306
 30
0.0
 11
1347.500579421585
 21
3167.500619888306
 31
0.0
  0
LINE
  5
1F8
330
1F
100
AcDbEntity
  8
0-B
  6
Continuous
 62
   120
370
     5
100
AcDbLine
 10
1369.467570832594
 20
3273.566637066287
 30
0.0
 11
1316.434562243603
 21
3220.533628477297
 31
0.0
  0
LWPOLYLINE
  5
1F9
330
1F
100
AcDbEntity
  8
0-B
  6
Continuous
 62
     7
370
     9
100
AcDbPolyline
 90
        4
 70
     1
 43
6.0
 10
1372.467570832594
 20
3273.566637066287
 42
0.4142135623731
 10
1369.467570832594
 20
3276.566637066287
 42
0.4142135623731
 10
1366.467570832594
 20
3273.566637066287
 42
0.4142135623731
 10
1369.467570832594
 20
3270.566637066287
 42
0.4142135623731
  0
LWPOLYLINE
  5
1FA
330
1F
100
AcDbEntity
  8
0-B
  6
Continuous
 62
     7
370
     9
100
AcDbPolyline
 90
        4
 70
     1
 43
6.0
 10
1319.434562243603
 20
3220.533628477297
 42
0.4142135623731
 10
1316.434562243603
 20
3223.533628477297
 42
0.4142135623731
 10
1313.434562243603
 20
3220.533628477297
 42
0.4142135623731
 10
1316.434562243603
 20
3217.533628477297
 42
0.4142135623731
  0
LINE
  5
1FB
330
1F
100
AcDbEntity
  8
0-B
  6
Continuous
 62
   120
370
     5
100
AcDbLine
 10
1369.467570832594
 20
3273.566637066287
 30
0.0
 11
1422.500579421584
 21
3220.533628477297
 31
0.0
  0
LINE
  5
1FC
330
1F
100
AcDbEntity
  8
0-B
  6
Continuous
 62
   120
370
     5
100
AcDbLine
 10
1316.434562243603
 20
3220.533628477297
 30
0.0
 11
1369.467570832594
 21
3167.500619888306
 31
0.0
  0
LINE
  5
1FD
330
1F
100
AcDbEntity
  8
0-B
  6
Continuous
 62
   120
370
     5
100
AcDbLine
 10
1422.500579421585
 20
3317.500619888306
 30
0.0
 11
3222.500579421585
 21
3317.500619888306
 31
0.0
  0
LINE
  5
1FE
330
1F
100
AcDbEntity
  8
0-0
  6
JWW_HOJO
 62
   120
370
     5
100
AcDbLine
 10
1413.401553654612
 20
3317.500619888306
 30
0.0
 11
1272.500579421585
 21
3176.599645655278
 31
0.0
  0
LINE
  5
1FF
330
1F
100
AcDbEntity
  8
0-0
  6
JWW_HOJO
 62
   120
370
     5
100
AcDbLine
 10
1272.500579421585
 20
3176.599645655278
 30
0.0
 11
1272.500579421585
 21
2867.500619888306
 31
0.0
  0
LINE
  5
200
330
1F
100
AcDbEntity
  8
0-0
  6
JWW_HOJO
 62
   120
370
     5
100
AcDbLine
 10
1444.467570832594
 20
3242.500619888306
 30
0.0
 11
1347.500579421585
 21
3145.533628477297
 31
0.0
  0
LINE
  5
201
330
1F
100
AcDbEntity
  8
0-0
  6
JWW_HOJO
 62
   120
370
     5
100
AcDbLine
 10
1347.500579421585
 20
3145.533628477297
 30
0.0
 11
1347.500579421585
 21
2867.500619888306
 31
0.0
  0
LINE
  5
202
330
1F
100
AcDbEntity
  8
0-0
  6
JWW_HOJO
 62
   120
370
     5
100
AcDbLine
 10
3222.500579421585
 20
3317.500619888306
 30
0.0
 11
1413.401553654612
 21
3317.500619888306
 31
0.0
  0
LINE
  5
203
330
1F
100
AcDbEntity
  8
0-0
  6
JWW_HOJO
 62
   120
370
     5
100
AcDbLine
 10
3222.500579421585
 20
3242.500619888306
 30
0.0
 11
1444.467570832594
 21
3242.500619888306
 31
0.0
  0
LINE
  5
204
330
1F
100
AcDbEntity
  8
0-B
  6
Continuous
 62
   120
370
     5
100
AcDbLine
 10
1422.500579421585
 20
2040.706954137713
 30
0.0
 11
3222.500579421585
 21
2040.706954137713
 31
0.0
  0
LINE
  5
205
330
1F
100
AcDbEntity
  8
0-0
  6
JWW_HOJO
 62
     7
370
     9
100
AcDbLine
 10
3222.500579421585
 20
1965.706954137713
 30
0.0
 11
1444.467570832595
 21
1965.706954137713
 31
0.0
  0
LINE
  5
206
330
1F
100
AcDbEntity
  8
0-0
  6
JWW_HOJO
 62
     7
370
     9
100
AcDbLine
 10
3222.500579421585
 20
2040.706954137713
 30
0.0
 11
1413.401553654612
 21
2040.706954137713
 31
0.0
  0
LINE
  5
207
330
1F
100
AcDbEntity
  8
0-B
  6
Continuous
 62
   120
370
     5
100
AcDbLine
 10
1316.434562243604
 20
1943.739962726704
 30
0.0
 11
1369.467570832594
 21
1890.706954137713
 31
0.0
  0
LINE
  5
208
330
1F
100
AcDbEntity
  8
0-B
  6
Continuous
 62
   120
370
     5
100
AcDbLine
 10
1369.467570832594
 20
1996.772971315695
 30
0.0
 11
1422.500579421585
 21
1943.739962726704
 31
0.0
  0
LWPOLYLINE
  5
209
330
1F
100
AcDbEntity
  8
0-B
  6
Continuous
 62
     7
370
     9
100
AcDbPolyline
 90
        4
 70
     1
 43
6.0
 10
1319.434562243604
 20
1943.739962726704
 42
0.4142135623731
 10
1316.434562243604
 20
1946.739962726704
 42
0.4142135623731
 10
1313.434562243604
 20
1943.739962726704
 42
0.4142135623731
 10
1316.434562243604
 20
1940.739962726704
 42
0.4142135623731
  0
LWPOLYLINE
  5
20A
330
1F
100
AcDbEntity
  8
0-B
  6
Continuous
 62
     7
370
     9
100
AcDbPolyline
 90
        4
 70
     1
 43
6.0
 10
1372.467570832595
 20
1996.772971315695
 42
0.4142135623731
 10
1369.467570832594
 20
1999.772971315695
 42
0.4142135623731
 10
1366.467570832594
 20
1996.772971315695
 42
0.4142135623731
 10
1369.467570832594
 20
1993.772971315695
 42
0.4142135623731
  0
LINE
  5
20B
330
1F
100
AcDbEntity
  8
0-B
  6
Continuous
 62
   120
370
     5
100
AcDbLine
 10
1369.467570832594
 20
1996.772971315695
 30
0.0
 11
1316.434562243604
 21
1943.739962726704
 31
0.0
  0
LINE
  5
20C
330
1F
100
AcDbEntity
  8
0-B
  6
Continuous
 62
   120
370
     5
100
AcDbLine
 10
1272.500579421586
 20
1890.706954137713
 30
0.0
 11
1347.500579421586
 21
1890.706954137713
 31
0.0
  0
LWPOLYLINE
  5
20D
330
1F
100
AcDbEntity
  8
0-B
  6
Continuous
 62
     7
370
     9
100
AcDbPolyline
 90
        4
 70
     1
 43
6.0
 10
1275.500579421586
 20
1890.706954137713
 42
0.4142135623731
 10
1272.500579421586
 20
1893.706954137713
 42
0.4142135623731
 10
1269.500579421586
 20
1890.706954137713
 42
0.4142135623731
 10
1272.500579421586
 20
1887.706954137713
 42
0.4142135623731
  0
LINE
  5
20E
330
1F
100
AcDbEntity
  8
0-B
  6
Continuous
 62
   120
370
     5
100
AcDbLine
 10
1272.500579421586
 20
1890.706954137713
 30
0.0
 11
1272.500579421586
 21
1590.706954137713
 31
0.0
  0
LINE
  5
20F
330
1F
100
AcDbEntity
  8
0-B
  6
Continuous
 62
   120
370
     5
100
AcDbLine
 10
1422.500579421585
 20
2040.706954137713
 30
0.0
 11
1422.500579421585
 21
1965.706954137713
 31
0.0
  0
LWPOLYLINE
  5
210
330
1F
100
AcDbEntity
  8
0-B
  6
Continuous
 62
     7
370
     9
100
AcDbPolyline
 90
        4
 70
     1
 43
6.0
 10
1425.500579421585
 20
2040.706954137713
 42
0.4142135623731
 10
1422.500579421585
 20
2043.706954137713
 42
0.4142135623731
 10
1419.500579421585
 20
2040.706954137713
 42
0.4142135623731
 10
1422.500579421585
 20
2037.706954137714
 42
0.4142135623731
  0
LINE
  5
211
330
1F
100
AcDbEntity
  8
0-0
  6
JWW_HOJO
 62
     7
370
     9
100
AcDbLine
 10
1347.500579421586
 20
1868.739962726704
 30
0.0
 11
1347.500579421586
 21
1590.706954137713
 31
0.0
  0
LINE
  5
212
330
1F
100
AcDbEntity
  8
0-0
  6
JWW_HOJO
 62
     7
370
     9
100
AcDbLine
 10
1444.467570832595
 20
1965.706954137713
 30
0.0
 11
1347.500579421586
 21
1868.739962726704
 31
0.0
  0
LINE
  5
213
330
1F
100
AcDbEntity
  8
0-0
  6
JWW_HOJO
 62
     7
370
     9
100
AcDbLine
 10
1272.500579421586
 20
1899.805979904686
 30
0.0
 11
1272.500579421586
 21
1590.706954137713
 31
0.0
  0
LINE
  5
214
330
1F
100
AcDbEntity
  8
0-0
  6
JWW_HOJO
 62
     7
370
     9
100
AcDbLine
 10
1413.401553654612
 20
2040.706954137713
 30
0.0
 11
1272.500579421586
 21
1899.805979904686
 31
0.0
  0
LINE
  5
215
330
1F
100
AcDbEntity
  8
0-4
  6
Continuous
 62
    92
370
    13
100
AcDbLine
 10
1430.000579421585
 20
1834.567343830924
 30
0.0
 11
1430.000579421585
 21
1598.206954137713
 31
0.0
  0
LINE
  5
216
330
1F
100
AcDbEntity
  8
0-4
  6
Continuous
 62
    92
370
    13
100
AcDbLine
 10
1422.500579421585
 20
1837.673945548722
 30
0.0
 11
1422.500579421585
 21
1590.706954137713
 31
0.0
  0
LINE
  5
217
330
1F
100
AcDbEntity
  8
0-4
  6
Continuous
 62
    92
370
    13
100
AcDbLine
 10
1478.640189728375
 20
1883.206954137713
 30
0.0
 11
1430.000579421585
 21
1834.567343830924
 31
0.0
  0
LINE
  5
218
330
1F
100
AcDbEntity
  8
0-4
  6
Continuous
 62
    92
370
    13
100
AcDbLine
 10
1475.533588010577
 20
1890.706954137713
 30
0.0
 11
1422.500579421585
 21
1837.673945548722
 31
0.0
  0
LINE
  5
219
330
1F
100
AcDbEntity
  8
0-B
  6
Continuous
 62
   120
370
     5
100
AcDbLine
 10
3222.500579421585
 20
2040.706954137713
 30
0.0
 11
3222.500579421585
 21
1965.706954137713
 31
0.0
  0
LWPOLYLINE
  5
21A
330
1F
100
AcDbEntity
  8
0-B
  6
Continuous
 62
     7
370
     9
100
AcDbPolyline
 90
        4
 70
     1
 43
6.0
 10
3225.500579421585
 20
2040.706954137713
 42
0.4142135623731
 10
3222.500579421585
 20
2043.706954137713
 42
0.4142135623731
 10
3219.500579421585
 20
2040.706954137713
 42
0.4142135623731
 10
3222.500579421585
 20
2037.706954137714
 42
0.4142135623731
  0
LINE
  5
21B
330
1F
100
AcDbEntity
  8
0-4
  6
Continuous
 62
    92
370
    13
100
AcDbLine
 10
3215.000579421585
 20
1598.206954137713
 30
0.0
 11
3215.000579421585
 21
1883.206954137713
 31
0.0
  0
LINE
  5
21C
330
1F
100
AcDbEntity
  8
0-4
  6
Continuous
 62
    92
370
    13
100
AcDbLine
 10
3222.500579421585
 20
1590.706954137713
 30
0.0
 11
3222.500579421585
 21
1890.706954137713
 31
0.0
  0
LINE
  5
21D
330
1F
100
AcDbEntity
  8
0-B
  6
Continuous
 62
   120
370
     5
100
AcDbLine
 10
1422.500579421585
 20
799.3635345439793
 30
0.0
 11
3222.500579421585
 21
799.3635345439793
 31
0.0
  0
LINE
  5
21E
330
1F
100
AcDbEntity
  8
0-0
  6
JWW_HOJO
 62
     7
370
     9
100
AcDbLine
 10
3222.500579421585
 20
724.3635345439793
 30
0.0
 11
1444.467570832595
 21
724.3635345439793
 31
0.0
  0
LINE
  5
21F
330
1F
100
AcDbEntity
  8
0-0
  6
JWW_HOJO
 62
     7
370
     9
100
AcDbLine
 10
3222.500579421585
 20
799.3635345439793
 30
0.0
 11
1413.401553654612
 21
799.3635345439793
 31
0.0
  0
LINE
  5
220
330
1F
100
AcDbEntity
  8
0-B
  6
Continuous
 62
   120
370
     5
100
AcDbLine
 10
1316.434562243604
 20
702.3965431329708
 30
0.0
 11
1369.467570832594
 21
649.3635345439802
 31
0.0
  0
LINE
  5
221
330
1F
100
AcDbEntity
  8
0-B
  6
Continuous
 62
   120
370
     5
100
AcDbLine
 10
1369.467570832594
 20
755.4295517219614
 30
0.0
 11
1422.500579421585
 21
702.3965431329708
 31
0.0
  0
LWPOLYLINE
  5
222
330
1F
100
AcDbEntity
  8
0-B
  6
Continuous
 62
     7
370
     9
100
AcDbPolyline
 90
        4
 70
     1
 43
6.0
 10
1319.434562243604
 20
702.3965431329708
 42
0.4142135623731
 10
1316.434562243604
 20
705.3965431329708
 42
0.4142135623731
 10
1313.434562243604
 20
702.3965431329708
 42
0.4142135623731
 10
1316.434562243604
 20
699.3965431329708
 42
0.4142135623731
  0
LWPOLYLINE
  5
223
330
1F
100
AcDbEntity
  8
0-B
  6
Continuous
 62
     7
370
     9
100
AcDbPolyline
 90
        4
 70
     1
 43
6.0
 10
1372.467570832595
 20
755.4295517219614
 42
0.4142135623731
 10
1369.467570832594
 20
758.4295517219615
 42
0.4142135623731
 10
1366.467570832594
 20
755.4295517219614
 42
0.4142135623731
 10
1369.467570832594
 20
752.4295517219614
 42
0.4142135623731
  0
LINE
  5
224
330
1F
100
AcDbEntity
  8
0-B
  6
Continuous
 62
   120
370
     5
100
AcDbLine
 10
1369.467570832594
 20
755.4295517219614
 30
0.0
 11
1316.434562243604
 21
702.3965431329708
 31
0.0
  0
LINE
  5
225
330
1F
100
AcDbEntity
  8
0-B
  6
Continuous
 62
   120
370
     5
100
AcDbLine
 10
1272.500579421586
 20
649.3635345439793
 30
0.0
 11
1347.500579421586
 21
649.3635345439793
 31
0.0
  0
LWPOLYLINE
  5
226
330
1F
100
AcDbEntity
  8
0-B
  6
Continuous
 62
     7
370
     9
100
AcDbPolyline
 90
        4
 70
     1
 43
6.0
 10
1275.500579421586
 20
649.3635345439793
 42
0.4142135623731
 10
1272.500579421586
 20
652.3635345439793
 42
0.4142135623731
 10
1269.500579421586
 20
649.3635345439793
 42
0.4142135623731
 10
1272.500579421586
 20
646.3635345439793
 42
0.4142135623731
  0
LINE
  5
227
330
1F
100
AcDbEntity
  8
0-B
  6
Continuous
 62
   120
370
     5
100
AcDbLine
 10
1272.500579421586
 20
649.3635345439793
 30
0.0
 11
1272.500579421586
 21
349.3635345439793
 31
0.0
  0
LINE
  5
228
330
1F
100
AcDbEntity
  8
0-B
  6
Continuous
 62
   120
370
     5
100
AcDbLine
 10
1422.500579421585
 20
799.3635345439793
 30
0.0
 11
1422.500579421585
 21
724.3635345439793
 31
0.0
  0
LWPOLYLINE
  5
229
330
1F
100
AcDbEntity
  8
0-B
  6
Continuous
 62
     7
370
     9
100
AcDbPolyline
 90
        4
 70
     1
 43
6.0
 10
1425.500579421585
 20
799.3635345439793
 42
0.4142135623731
 10
1422.500579421585
 20
802.3635345439793
 42
0.4142135623731
 10
1419.500579421585
 20
799.3635345439793
 42
0.4142135623731
 10
1422.500579421585
 20
796.3635345439793
 42
0.4142135623731
  0
LINE
  5
22A
330
1F
100
AcDbEntity
  8
0-0
  6
JWW_HOJO
 62
     7
370
     9
100
AcDbLine
 10
1347.500579421586
 20
627.3965431329708
 30
0.0
 11
1347.500579421586
 21
349.3635345439793
 31
0.0
  0
LINE
  5
22B
330
1F
100
AcDbEntity
  8
0-0
  6
JWW_HOJO
 62
     7
370
     9
100
AcDbLine
 10
1444.467570832595
 20
724.3635345439793
 30
0.0
 11
1347.500579421586
 21
627.3965431329708
 31
0.0
  0
LINE
  5
22C
330
1F
100
AcDbEntity
  8
0-0
  6
JWW_HOJO
 62
     7
370
     9
100
AcDbLine
 10
1272.500579421586
 20
658.462560310953
 30
0.0
 11
1272.500579421586
 21
349.3635345439793
 31
0.0
  0
LINE
  5
22D
330
1F
100
AcDbEntity
  8
0-0
  6
JWW_HOJO
 62
     7
370
     9
100
AcDbLine
 10
1413.401553654612
 20
799.3635345439793
 30
0.0
 11
1272.500579421586
 21
658.462560310953
 31
0.0
  0
LINE
  5
22E
330
1F
100
AcDbEntity
  8
0-4
  6
Continuous
 62
    92
370
    13
100
AcDbLine
 10
1430.000579421585
 20
593.2239242371904
 30
0.0
 11
1430.000579421585
 21
356.8635345439793
 31
0.0
  0
LINE
  5
22F
330
1F
100
AcDbEntity
  8
0-4
  6
Continuous
 62
    92
370
    13
100
AcDbLine
 10
1422.500579421585
 20
596.3305259549886
 30
0.0
 11
1422.500579421585
 21
349.3635345439793
 31
0.0
  0
LINE
  5
230
330
1F
100
AcDbEntity
  8
0-4
  6
Continuous
 62
    92
370
    13
100
AcDbLine
 10
1478.640189728375
 20
641.8635345439793
 30
0.0
 11
1430.000579421585
 21
593.2239242371904
 31
0.0
  0
LINE
  5
231
330
1F
100
AcDbEntity
  8
0-4
  6
Continuous
 62
    92
370
    13
100
AcDbLine
 10
1475.533588010577
 20
649.3635345439793
 30
0.0
 11
1422.500579421585
 21
596.3305259549886
 31
0.0
  0
LINE
  5
232
330
1F
100
AcDbEntity
  8
0-B
  6
Continuous
 62
   120
370
     5
100
AcDbLine
 10
3222.500579421585
 20
799.3635345439793
 30
0.0
 11
3222.500579421585
 21
724.3635345439793
 31
0.0
  0
LWPOLYLINE
  5
233
330
1F
100
AcDbEntity
  8
0-B
  6
Continuous
 62
     7
370
     9
100
AcDbPolyline
 90
        4
 70
     1
 43
6.0
 10
3225.500579421585
 20
799.3635345439793
 42
0.4142135623731
 10
3222.500579421585
 20
802.3635345439793
 42
0.4142135623731
 10
3219.500579421585
 20
799.3635345439793
 42
0.4142135623731
 10
3222.500579421585
 20
796.3635345439793
 42
0.4142135623731
  0
LINE
  5
234
330
1F
100
AcDbEntity
  8
0-4
  6
Continuous
 62
    92
370
    13
100
AcDbLine
 10
3215.000579421585
 20
356.8635345439793
 30
0.0
 11
3215.000579421585
 21
641.8635345439793
 31
0.0
  0
LINE
  5
235
330
1F
100
AcDbEntity
  8
0-4
  6
Continuous
 62
    92
370
    13
100
AcDbLine
 10
3222.500579421585
 20
349.3635345439793
 30
0.0
 11
3222.500579421585
 21
649.3635345439793
 31
0.0
  0
LINE
  5
236
330
1F
100
AcDbEntity
  8
0-B
  6
Continuous
 62
   120
370
     5
100
AcDbLine
 10
1422.500579421585
 20
-432.4996198190229
 30
0.0
 11
3222.500579421585
 21
-432.4996198190229
 31
0.0
  0
LINE
  5
237
330
1F
100
AcDbEntity
  8
0-0
  6
JWW_HOJO
 62
     7
370
     9
100
AcDbLine
 10
3222.500579421585
 20
-507.4996198190229
 30
0.0
 11
1444.467570832595
 21
-507.4996198190229
 31
0.0
  0
LINE
  5
238
330
1F
100
AcDbEntity
  8
0-0
  6
JWW_HOJO
 62
     7
370
     9
100
AcDbLine
 10
3222.500579421585
 20
-432.4996198190229
 30
0.0
 11
1413.401553654612
 21
-432.4996198190229
 31
0.0
  0
LINE
  5
239
330
1F
100
AcDbEntity
  8
0-B
  6
Continuous
 62
   120
370
     5
100
AcDbLine
 10
1316.434562243604
 20
-529.4666112300322
 30
0.0
 11
1369.467570832594
 21
-582.4996198190229
 31
0.0
  0
LINE
  5
23A
330
1F
100
AcDbEntity
  8
0-B
  6
Continuous
 62
   120
370
     5
100
AcDbLine
 10
1369.467570832594
 20
-476.4336026410416
 30
0.0
 11
1422.500579421585
 21
-529.4666112300322
 31
0.0
  0
LWPOLYLINE
  5
23B
330
1F
100
AcDbEntity
  8
0-B
  6
Continuous
 62
     7
370
     9
100
AcDbPolyline
 90
        4
 70
     1
 43
6.0
 10
1319.434562243604
 20
-529.4666112300322
 42
0.4142135623731
 10
1316.434562243604
 20
-526.4666112300322
 42
0.4142135623731
 10
1313.434562243604
 20
-529.4666112300322
 42
0.4142135623731
 10
1316.434562243604
 20
-532.4666112300323
 42
0.4142135623731
  0
LWPOLYLINE
  5
23C
330
1F
100
AcDbEntity
  8
0-B
  6
Continuous
 62
     7
370
     9
100
AcDbPolyline
 90
        4
 70
     1
 43
6.0
 10
1372.467570832595
 20
-476.4336026410416
 42
0.4142135623731
 10
1369.467570832594
 20
-473.4336026410416
 42
0.4142135623731
 10
1366.467570832594
 20
-476.4336026410416
 42
0.4142135623731
 10
1369.467570832594
 20
-479.4336026410416
 42
0.4142135623731
  0
LINE
  5
23D
330
1F
100
AcDbEntity
  8
0-B
  6
Continuous
 62
   120
370
     5
100
AcDbLine
 10
1369.467570832594
 20
-476.4336026410416
 30
0.0
 11
1316.434562243604
 21
-529.4666112300322
 31
0.0
  0
LINE
  5
23E
330
1F
100
AcDbEntity
  8
0-B
  6
Continuous
 62
   120
370
     5
100
AcDbLine
 10
1272.500579421586
 20
-582.4996198190229
 30
0.0
 11
1347.500579421586
 21
-582.4996198190229
 31
0.0
  0
LWPOLYLINE
  5
23F
330
1F
100
AcDbEntity
  8
0-B
  6
Continuous
 62
     7
370
     9
100
AcDbPolyline
 90
        4
 70
     1
 43
6.0
 10
1275.500579421586
 20
-582.4996198190229
 42
0.4142135623731
 10
1272.500579421586
 20
-579.4996198190229
 42
0.4142135623731
 10
1269.500579421586
 20
-582.4996198190229
 42
0.4142135623731
 10
1272.500579421586
 20
-585.4996198190229
 42
0.4142135623731
  0
LINE
  5
240
330
1F
100
AcDbEntity
  8
0-B
  6
Continuous
 62
   120
370
     5
100
AcDbLine
 10
1272.500579421586
 20
-582.4996198190229
 30
0.0
 11
1272.500579421586
 21
-882.4996198190229
 31
0.0
  0
LINE
  5
241
330
1F
100
AcDbEntity
  8
0-B
  6
Continuous
 62
   120
370
     5
100
AcDbLine
 10
1422.500579421585
 20
-432.4996198190229
 30
0.0
 11
1422.500579421585
 21
-507.4996198190229
 31
0.0
  0
LWPOLYLINE
  5
242
330
1F
100
AcDbEntity
  8
0-B
  6
Continuous
 62
     7
370
     9
100
AcDbPolyline
 90
        4
 70
     1
 43
6.0
 10
1425.500579421585
 20
-432.4996198190229
 42
0.4142135623731
 10
1422.500579421585
 20
-429.4996198190229
 42
0.4142135623731
 10
1419.500579421585
 20
-432.4996198190229
 42
0.4142135623731
 10
1422.500579421585
 20
-435.4996198190229
 42
0.4142135623731
  0
LINE
  5
243
330
1F
100
AcDbEntity
  8
0-0
  6
JWW_HOJO
 62
     7
370
     9
100
AcDbLine
 10
1347.500579421586
 20
-604.4666112300322
 30
0.0
 11
1347.500579421586
 21
-882.4996198190229
 31
0.0
  0
LINE
  5
244
330
1F
100
AcDbEntity
  8
0-0
  6
JWW_HOJO
 62
     7
370
     9
100
AcDbLine
 10
1444.467570832595
 20
-507.4996198190229
 30
0.0
 11
1347.500579421586
 21
-604.4666112300322
 31
0.0
  0
LINE
  5
245
330
1F
100
AcDbEntity
  8
0-0
  6
JWW_HOJO
 62
     7
370
     9
100
AcDbLine
 10
1272.500579421586
 20
-573.4005940520501
 30
0.0
 11
1272.500579421586
 21
-882.4996198190229
 31
0.0
  0
LINE
  5
246
330
1F
100
AcDbEntity
  8
0-0
  6
JWW_HOJO
 62
     7
370
     9
100
AcDbLine
 10
1413.401553654612
 20
-432.4996198190229
 30
0.0
 11
1272.500579421586
 21
-573.4005940520501
 31
0.0
  0
LINE
  5
247
330
1F
100
AcDbEntity
  8
0-4
  6
Continuous
 62
    92
370
    13
100
AcDbLine
 10
1430.000579421585
 20
-638.6392301258122
 30
0.0
 11
1430.000579421585
 21
-874.9996198190229
 31
0.0
  0
LINE
  5
248
330
1F
100
AcDbEntity
  8
0-4
  6
Continuous
 62
    92
370
    13
100
AcDbLine
 10
1422.500579421585
 20
-635.5326284080139
 30
0.0
 11
1422.500579421585
 21
-882.4996198190229
 31
0.0
  0
LINE
  5
249
330
1F
100
AcDbEntity
  8
0-4
  6
Continuous
 62
    92
370
    13
100
AcDbLine
 10
1478.640189728375
 20
-589.9996198190229
 30
0.0
 11
1430.000579421585
 21
-638.6392301258122
 31
0.0
  0
LINE
  5
24A
330
1F
100
AcDbEntity
  8
0-4
  6
Continuous
 62
    92
370
    13
100
AcDbLine
 10
1475.533588010577
 20
-582.4996198190229
 30
0.0
 11
1422.500579421585
 21
-635.5326284080139
 31
0.0
  0
LINE
  5
24B
330
1F
100
AcDbEntity
  8
0-B
  6
Continuous
 62
   120
370
     5
100
AcDbLine
 10
3222.500579421585
 20
-432.4996198190229
 30
0.0
 11
3222.500579421585
 21
-507.4996198190229
 31
0.0
  0
LWPOLYLINE
  5
24C
330
1F
100
AcDbEntity
  8
0-B
  6
Continuous
 62
     7
370
     9
100
AcDbPolyline
 90
        4
 70
     1
 43
6.0
 10
3225.500579421585
 20
-432.4996198190229
 42
0.4142135623731
 10
3222.500579421585
 20
-429.4996198190229
 42
0.4142135623731
 10
3219.500579421585
 20
-432.4996198190229
 42
0.4142135623731
 10
3222.500579421585
 20
-435.4996198190229
 42
0.4142135623731
  0
LINE
  5
24D
330
1F
100
AcDbEntity
  8
0-4
  6
Continuous
 62
    92
370
    13
100
AcDbLine
 10
3215.000579421585
 20
-874.9996198190229
 30
0.0
 11
3215.000579421585
 21
-589.9996198190229
 31
0.0
  0
LINE
  5
24E
330
1F
100
AcDbEntity
  8
0-4
  6
Continuous
 62
    92
370
    13
100
AcDbLine
 10
3222.500579421585
 20
-882.4996198190229
 30
0.0
 11
3222.500579421585
 21
-582.4996198190229
 31
0.0
  0
LINE
  5
24F
330
1F
100
AcDbEntity
  8
0-B
  6
Continuous
 62
   120
370
     5
100
AcDbLine
 10
1422.500579421585
 20
-1682.499699721466
 30
0.0
 11
3222.500579421585
 21
-1682.499699721466
 31
0.0
  0
LINE
  5
250
330
1F
100
AcDbEntity
  8
0-0
  6
JWW_HOJO
 62
     7
370
     9
100
AcDbLine
 10
3222.500579421585
 20
-1757.499699721466
 30
0.0
 11
1444.467570832595
 21
-1757.499699721466
 31
0.0
  0
LINE
  5
251
330
1F
100
AcDbEntity
  8
0-0
  6
JWW_HOJO
 62
     7
370
     9
100
AcDbLine
 10
3222.500579421585
 20
-1682.499699721466
 30
0.0
 11
1413.401553654612
 21
-1682.499699721466
 31
0.0
  0
LINE
  5
252
330
1F
100
AcDbEntity
  8
0-B
  6
Continuous
 62
   120
370
     5
100
AcDbLine
 10
1316.434562243604
 20
-1779.466691132474
 30
0.0
 11
1369.467570832594
 21
-1832.499699721466
 31
0.0
  0
LINE
  5
253
330
1F
100
AcDbEntity
  8
0-B
  6
Continuous
 62
   120
370
     5
100
AcDbLine
 10
1369.467570832594
 20
-1726.433682543484
 30
0.0
 11
1422.500579421585
 21
-1779.466691132474
 31
0.0
  0
LWPOLYLINE
  5
254
330
1F
100
AcDbEntity
  8
0-B
  6
Continuous
 62
     7
370
     9
100
AcDbPolyline
 90
        4
 70
     1
 43
6.0
 10
1319.434562243604
 20
-1779.466691132474
 42
0.4142135623731
 10
1316.434562243604
 20
-1776.466691132474
 42
0.4142135623731
 10
1313.434562243604
 20
-1779.466691132474
 42
0.4142135623731
 10
1316.434562243604
 20
-1782.466691132474
 42
0.4142135623731
  0
LWPOLYLINE
  5
255
330
1F
100
AcDbEntity
  8
0-B
  6
Continuous
 62
     7
370
     9
100
AcDbPolyline
 90
        4
 70
     1
 43
6.0
 10
1372.467570832595
 20
-1726.433682543484
 42
0.4142135623731
 10
1369.467570832594
 20
-1723.433682543484
 42
0.4142135623731
 10
1366.467570832594
 20
-1726.433682543484
 42
0.4142135623731
 10
1369.467570832594
 20
-1729.433682543484
 42
0.4142135623731
  0
LINE
  5
256
330
1F
100
AcDbEntity
  8
0-B
  6
Continuous
 62
   120
370
     5
100
AcDbLine
 10
1369.467570832594
 20
-1726.433682543484
 30
0.0
 11
1316.434562243604
 21
-1779.466691132474
 31
0.0
  0
LINE
  5
257
330
1F
100
AcDbEntity
  8
0-B
  6
Continuous
 62
   120
370
     5
100
AcDbLine
 10
1272.500579421586
 20
-1832.499699721466
 30
0.0
 11
1347.500579421586
 21
-1832.499699721466
 31
0.0
  0
LWPOLYLINE
  5
258
330
1F
100
AcDbEntity
  8
0-B
  6
Continuous
 62
     7
370
     9
100
AcDbPolyline
 90
        4
 70
     1
 43
6.0
 10
1275.500579421586
 20
-1832.499699721466
 42
0.4142135623731
 10
1272.500579421586
 20
-1829.499699721466
 42
0.4142135623731
 10
1269.500579421586
 20
-1832.499699721466
 42
0.4142135623731
 10
1272.500579421586
 20
-1835.499699721466
 42
0.4142135623731
  0
LINE
  5
259
330
1F
100
AcDbEntity
  8
0-B
  6
Continuous
 62
   120
370
     5
100
AcDbLine
 10
1272.500579421586
 20
-1832.499699721466
 30
0.0
 11
1272.500579421586
 21
-2132.499699721466
 31
0.0
  0
LINE
  5
25A
330
1F
100
AcDbEntity
  8
0-B
  6
Continuous
 62
   120
370
     5
100
AcDbLine
 10
1422.500579421585
 20
-1682.499699721466
 30
0.0
 11
1422.500579421585
 21
-1757.499699721466
 31
0.0
  0
LWPOLYLINE
  5
25B
330
1F
100
AcDbEntity
  8
0-B
  6
Continuous
 62
     7
370
     9
100
AcDbPolyline
 90
        4
 70
     1
 43
6.0
 10
1425.500579421585
 20
-1682.499699721466
 42
0.4142135623731
 10
1422.500579421585
 20
-1679.499699721466
 42
0.4142135623731
 10
1419.500579421585
 20
-1682.499699721466
 42
0.4142135623731
 10
1422.500579421585
 20
-1685.499699721466
 42
0.4142135623731
  0
LINE
  5
25C
330
1F
100
AcDbEntity
  8
0-0
  6
JWW_HOJO
 62
     7
370
     9
100
AcDbLine
 10
1347.500579421586
 20
-1854.466691132474
 30
0.0
 11
1347.500579421586
 21
-2132.499699721466
 31
0.0
  0
LINE
  5
25D
330
1F
100
AcDbEntity
  8
0-0
  6
JWW_HOJO
 62
     7
370
     9
100
AcDbLine
 10
1444.467570832595
 20
-1757.499699721466
 30
0.0
 11
1347.500579421586
 21
-1854.466691132474
 31
0.0
  0
LINE
  5
25E
330
1F
100
AcDbEntity
  8
0-0
  6
JWW_HOJO
 62
     7
370
     9
100
AcDbLine
 10
1272.500579421586
 20
-1823.400673954493
 30
0.0
 11
1272.500579421586
 21
-2132.499699721466
 31
0.0
  0
LINE
  5
25F
330
1F
100
AcDbEntity
  8
0-0
  6
JWW_HOJO
 62
     7
370
     9
100
AcDbLine
 10
1413.401553654612
 20
-1682.499699721466
 30
0.0
 11
1272.500579421586
 21
-1823.400673954493
 31
0.0
  0
LINE
  5
260
330
1F
100
AcDbEntity
  8
0-4
  6
Continuous
 62
    92
370
    13
100
AcDbLine
 10
1430.000579421585
 20
-1888.639310028255
 30
0.0
 11
1430.000579421585
 21
-2124.999699721466
 31
0.0
  0
LINE
  5
261
330
1F
100
AcDbEntity
  8
0-4
  6
Continuous
 62
    92
370
    13
100
AcDbLine
 10
1422.500579421585
 20
-1885.532708310457
 30
0.0
 11
1422.500579421585
 21
-2132.499699721466
 31
0.0
  0
LINE
  5
262
330
1F
100
AcDbEntity
  8
0-4
  6
Continuous
 62
    92
370
    13
100
AcDbLine
 10
1478.640189728375
 20
-1839.999699721466
 30
0.0
 11
1430.000579421585
 21
-1888.639310028255
 31
0.0
  0
LINE
  5
263
330
1F
100
AcDbEntity
  8
0-4
  6
Continuous
 62
    92
370
    13
100
AcDbLine
 10
1475.533588010577
 20
-1832.499699721466
 30
0.0
 11
1422.500579421585
 21
-1885.532708310457
 31
0.0
  0
LINE
  5
264
330
1F
100
AcDbEntity
  8
0-B
  6
Continuous
 62
   120
370
     5
100
AcDbLine
 10
3222.500579421585
 20
-1682.499699721466
 30
0.0
 11
3222.500579421585
 21
-1757.499699721466
 31
0.0
  0
LWPOLYLINE
  5
265
330
1F
100
AcDbEntity
  8
0-B
  6
Continuous
 62
     7
370
     9
100
AcDbPolyline
 90
        4
 70
     1
 43
6.0
 10
3225.500579421585
 20
-1682.499699721466
 42
0.4142135623731
 10
3222.500579421585
 20
-1679.499699721466
 42
0.4142135623731
 10
3219.500579421585
 20
-1682.499699721466
 42
0.4142135623731
 10
3222.500579421585
 20
-1685.499699721466
 42
0.4142135623731
  0
LINE
  5
266
330
1F
100
AcDbEntity
  8
0-4
  6
Continuous
 62
    92
370
    13
100
AcDbLine
 10
3215.000579421585
 20
-2124.999699721466
 30
0.0
 11
3215.000579421585
 21
-1839.999699721466
 31
0.0
  0
LINE
  5
267
330
1F
100
AcDbEntity
  8
0-4
  6
Continuous
 62
    92
370
    13
100
AcDbLine
 10
3222.500579421585
 20
-2132.499699721466
 30
0.0
 11
3222.500579421585
 21
-1832.499699721466
 31
0.0
  0
LINE
  5
268
330
1F
100
AcDbEntity
  8
0-B
  6
Continuous
 62
   120
370
     5
100
AcDbLine
 10
1422.500579421585
 20
-2953.108302734151
 30
0.0
 11
3222.500579421585
 21
-2953.108302734151
 31
0.0
  0
LINE
  5
269
330
1F
100
AcDbEntity
  8
0-0
  6
JWW_HOJO
 62
     7
370
     9
100
AcDbLine
 10
3222.500579421585
 20
-3028.108302734151
 30
0.0
 11
1444.467570832595
 21
-3028.108302734151
 31
0.0
  0
LINE
  5
26A
330
1F
100
AcDbEntity
  8
0-0
  6
JWW_HOJO
 62
     7
370
     9
100
AcDbLine
 10
3222.500579421585
 20
-2953.108302734151
 30
0.0
 11
1413.401553654612
 21
-2953.108302734151
 31
0.0
  0
LINE
  5
26B
330
1F
100
AcDbEntity
  8
0-B
  6
Continuous
 62
   120
370
     5
100
AcDbLine
 10
1316.434562243604
 20
-3050.07529414516
 30
0.0
 11
1369.467570832594
 21
-3103.108302734151
 31
0.0
  0
LINE
  5
26C
330
1F
100
AcDbEntity
  8
0-B
  6
Continuous
 62
   120
370
     5
100
AcDbLine
 10
1369.467570832594
 20
-2997.042285556171
 30
0.0
 11
1422.500579421585
 21
-3050.07529414516
 31
0.0
  0
LWPOLYLINE
  5
26D
330
1F
100
AcDbEntity
  8
0-B
  6
Continuous
 62
     7
370
     9
100
AcDbPolyline
 90
        4
 70
     1
 43
6.0
 10
1319.434562243604
 20
-3050.07529414516
 42
0.4142135623731
 10
1316.434562243604
 20
-3047.07529414516
 42
0.4142135623731
 10
1313.434562243604
 20
-3050.07529414516
 42
0.4142135623731
 10
1316.434562243604
 20
-3053.07529414516
 42
0.4142135623731
  0
LWPOLYLINE
  5
26E
330
1F
100
AcDbEntity
  8
0-B
  6
Continuous
 62
     7
370
     9
100
AcDbPolyline
 90
        4
 70
     1
 43
6.0
 10
1372.467570832595
 20
-2997.042285556171
 42
0.4142135623731
 10
1369.467570832594
 20
-2994.042285556171
 42
0.4142135623731
 10
1366.467570832594
 20
-2997.042285556171
 42
0.4142135623731
 10
1369.467570832594
 20
-3000.04228555617
 42
0.4142135623731
  0
LINE
  5
26F
330
1F
100
AcDbEntity
  8
0-B
  6
Continuous
 62
   120
370
     5
100
AcDbLine
 10
1369.467570832594
 20
-2997.042285556171
 30
0.0
 11
1316.434562243604
 21
-3050.07529414516
 31
0.0
  0
LINE
  5
270
330
1F
100
AcDbEntity
  8
0-B
  6
Continuous
 62
   120
370
     5
100
AcDbLine
 10
1272.500579421586
 20
-3103.108302734151
 30
0.0
 11
1347.500579421586
 21
-3103.108302734151
 31
0.0
  0
LWPOLYLINE
  5
271
330
1F
100
AcDbEntity
  8
0-B
  6
Continuous
 62
     7
370
     9
100
AcDbPolyline
 90
        4
 70
     1
 43
6.0
 10
1275.500579421586
 20
-3103.108302734151
 42
0.4142135623731
 10
1272.500579421586
 20
-3100.108302734152
 42
0.4142135623731
 10
1269.500579421586
 20
-3103.108302734151
 42
0.4142135623731
 10
1272.500579421586
 20
-3106.108302734151
 42
0.4142135623731
  0
LINE
  5
272
330
1F
100
AcDbEntity
  8
0-B
  6
Continuous
 62
   120
370
     5
100
AcDbLine
 10
1272.500579421586
 20
-3103.108302734151
 30
0.0
 11
1272.500579421586
 21
-3403.108302734153
 31
0.0
  0
LINE
  5
273
330
1F
100
AcDbEntity
  8
0-B
  6
Continuous
 62
   120
370
     5
100
AcDbLine
 10
1422.500579421585
 20
-2953.108302734151
 30
0.0
 11
1422.500579421585
 21
-3028.108302734151
 31
0.0
  0
LWPOLYLINE
  5
274
330
1F
100
AcDbEntity
  8
0-B
  6
Continuous
 62
     7
370
     9
100
AcDbPolyline
 90
        4
 70
     1
 43
6.0
 10
1425.500579421585
 20
-2953.108302734151
 42
0.4142135623731
 10
1422.500579421585
 20
-2950.108302734152
 42
0.4142135623731
 10
1419.500579421585
 20
-2953.108302734151
 42
0.4142135623731
 10
1422.500579421585
 20
-2956.108302734151
 42
0.4142135623731
  0
LINE
  5
275
330
1F
100
AcDbEntity
  8
0-0
  6
JWW_HOJO
 62
     7
370
     9
100
AcDbLine
 10
1347.500579421586
 20
-3125.07529414516
 30
0.0
 11
1347.500579421586
 21
-3403.108302734153
 31
0.0
  0
LINE
  5
276
330
1F
100
AcDbEntity
  8
0-0
  6
JWW_HOJO
 62
     7
370
     9
100
AcDbLine
 10
1444.467570832595
 20
-3028.108302734151
 30
0.0
 11
1347.500579421586
 21
-3125.07529414516
 31
0.0
  0
LINE
  5
277
330
1F
100
AcDbEntity
  8
0-0
  6
JWW_HOJO
 62
     7
370
     9
100
AcDbLine
 10
1272.500579421586
 20
-3094.009276967179
 30
0.0
 11
1272.500579421586
 21
-3403.108302734153
 31
0.0
  0
LINE
  5
278
330
1F
100
AcDbEntity
  8
0-0
  6
JWW_HOJO
 62
     7
370
     9
100
AcDbLine
 10
1413.401553654612
 20
-2953.108302734151
 30
0.0
 11
1272.500579421586
 21
-3094.009276967179
 31
0.0
  0
LINE
  5
279
330
1F
100
AcDbEntity
  8
0-4
  6
Continuous
 62
    92
370
    13
100
AcDbLine
 10
1430.000579421585
 20
-3159.247913040942
 30
0.0
 11
1430.000579421585
 21
-3395.608302734153
 31
0.0
  0
LINE
  5
27A
330
1F
100
AcDbEntity
  8
0-4
  6
Continuous
 62
    92
370
    13
100
AcDbLine
 10
1422.500579421585
 20
-3156.141311323143
 30
0.0
 11
1422.500579421585
 21
-3403.108302734153
 31
0.0
  0
LINE
  5
27B
330
1F
100
AcDbEntity
  8
0-4
  6
Continuous
 62
    92
370
    13
100
AcDbLine
 10
1478.640189728375
 20
-3110.608302734151
 30
0.0
 11
1430.000579421585
 21
-3159.247913040942
 31
0.0
  0
LINE
  5
27C
330
1F
100
AcDbEntity
  8
0-4
  6
Continuous
 62
    92
370
    13
100
AcDbLine
 10
1475.533588010577
 20
-3103.108302734151
 30
0.0
 11
1422.500579421585
 21
-3156.141311323143
 31
0.0
  0
LINE
  5
27D
330
1F
100
AcDbEntity
  8
0-B
  6
Continuous
 62
   120
370
     5
100
AcDbLine
 10
3222.500579421585
 20
-2953.108302734151
 30
0.0
 11
3222.500579421585
 21
-3028.108302734151
 31
0.0
  0
LWPOLYLINE
  5
27E
330
1F
100
AcDbEntity
  8
0-B
  6
Continuous
 62
     7
370
     9
100
AcDbPolyline
 90
        4
 70
     1
 43
6.0
 10
3225.500579421585
 20
-2953.108302734151
 42
0.4142135623731
 10
3222.500579421585
 20
-2950.108302734152
 42
0.4142135623731
 10
3219.500579421585
 20
-2953.108302734151
 42
0.4142135623731
 10
3222.500579421585
 20
-2956.108302734151
 42
0.4142135623731
  0
LINE
  5
27F
330
1F
100
AcDbEntity
  8
0-4
  6
Continuous
 62
    92
370
    13
100
AcDbLine
 10
3215.000579421585
 20
-3395.608302734153
 30
0.0
 11
3215.000579421585
 21
-3110.608302734151
 31
0.0
  0
LINE
  5
280
330
1F
100
AcDbEntity
  8
0-4
  6
Continuous
 62
    92
370
    13
100
AcDbLine
 10
3222.500579421585
 20
-3403.108302734153
 30
0.0
 11
3222.500579421585
 21
-3103.108302734151
 31
0.0
  0
LINE
  5
281
330
1F
100
AcDbEntity
  8
0-4
  6
Continuous
 62
    92
370
    13
100
AcDbLine
 10
3215.000579421585
 20
3160.000619888306
 30
0.0
 11
2557.03144146077
 21
3160.000619888306
 31
0.0
  0
LINE
  5
282
330
1F
100
AcDbEntity
  8
0-4
  6
Continuous
 62
    92
370
    13
100
AcDbLine
 10
2522.390996747595
 20
3160.000619888306
 30
0.0
 11
1478.640189728374
 21
3160.000619888306
 31
0.0
  0
LINE
  5
283
330
1F
100
AcDbEntity
  8
0-4
  6
Continuous
 62
    92
370
    13
100
AcDbLine
 10
3222.500579421585
 20
3167.500619888306
 30
0.0
 11
2561.362139917894
 21
3167.500619888306
 31
0.0
  0
LINE
  5
284
330
1F
100
AcDbEntity
  8
0-4
  6
Continuous
 62
    92
370
    13
100
AcDbLine
 10
2526.721123766517
 20
3167.500619888306
 30
0.0
 11
1475.533588010576
 21
3167.500619888306
 31
0.0
  0
LINE
  5
285
330
1F
100
AcDbEntity
  8
0-4
  6
Continuous
 62
    92
370
    13
100
AcDbLine
 10
2526.721123766518
 20
1890.706954137713
 30
0.0
 11
1475.533588010577
 21
1890.706954137713
 31
0.0
  0
LINE
  5
286
330
1F
100
AcDbEntity
  8
0-4
  6
Continuous
 62
    92
370
    13
100
AcDbLine
 10
3222.500579421585
 20
1890.706954137713
 30
0.0
 11
2561.362139917895
 21
1890.706954137713
 31
0.0
  0
LINE
  5
287
330
1F
100
AcDbEntity
  8
0-4
  6
Continuous
 62
    92
370
    13
100
AcDbLine
 10
2522.390996747596
 20
1883.206954137713
 30
0.0
 11
1478.640189728375
 21
1883.206954137713
 31
0.0
  0
LINE
  5
288
330
1F
100
AcDbEntity
  8
0-4
  6
Continuous
 62
    92
370
    13
100
AcDbLine
 10
3215.000579421585
 20
1883.206954137713
 30
0.0
 11
2557.031441460771
 21
1883.206954137713
 31
0.0
  0
LINE
  5
289
330
1F
100
AcDbEntity
  8
0-4
  6
Continuous
 62
    92
370
    13
100
AcDbLine
 10
2526.721123766518
 20
649.3635345439793
 30
0.0
 11
1475.533588010577
 21
649.3635345439793
 31
0.0
  0
LINE
  5
28A
330
1F
100
AcDbEntity
  8
0-4
  6
Continuous
 62
    92
370
    13
100
AcDbLine
 10
3222.500579421585
 20
649.3635345439793
 30
0.0
 11
2561.362139917895
 21
649.3635345439793
 31
0.0
  0
LINE
  5
28B
330
1F
100
AcDbEntity
  8
0-4
  6
Continuous
 62
    92
370
    13
100
AcDbLine
 10
2522.390996747596
 20
641.8635345439793
 30
0.0
 11
1478.640189728375
 21
641.8635345439793
 31
0.0
  0
LINE
  5
28C
330
1F
100
AcDbEntity
  8
0-4
  6
Continuous
 62
    92
370
    13
100
AcDbLine
 10
3215.000579421585
 20
641.8635345439793
 30
0.0
 11
2557.031441460771
 21
641.8635345439793
 31
0.0
  0
LINE
  5
28D
330
1F
100
AcDbEntity
  8
0-4
  6
Continuous
 62
    92
370
    13
100
AcDbLine
 10
2526.721123766518
 20
-582.4996198190229
 30
0.0
 11
1475.533588010577
 21
-582.4996198190229
 31
0.0
  0
LINE
  5
28E
330
1F
100
AcDbEntity
  8
0-4
  6
Continuous
 62
    92
370
    13
100
AcDbLine
 10
3222.500579421585
 20
-582.4996198190229
 30
0.0
 11
2561.362139917895
 21
-582.4996198190229
 31
0.0
  0
LINE
  5
28F
330
1F
100
AcDbEntity
  8
0-4
  6
Continuous
 62
    92
370
    13
100
AcDbLine
 10
2522.390996747596
 20
-589.9996198190229
 30
0.0
 11
1478.640189728375
 21
-589.9996198190229
 31
0.0
  0
LINE
  5
290
330
1F
100
AcDbEntity
  8
0-4
  6
Continuous
 62
    92
370
    13
100
AcDbLine
 10
3215.000579421585
 20
-589.9996198190229
 30
0.0
 11
2557.031441460771
 21
-589.9996198190229
 31
0.0
  0
LINE
  5
291
330
1F
100
AcDbEntity
  8
0-4
  6
Continuous
 62
    92
370
    13
100
AcDbLine
 10
2526.721123766518
 20
-1832.499699721466
 30
0.0
 11
1475.533588010577
 21
-1832.499699721466
 31
0.0
  0
LINE
  5
292
330
1F
100
AcDbEntity
  8
0-4
  6
Continuous
 62
    92
370
    13
100
AcDbLine
 10
3222.500579421585
 20
-1832.499699721466
 30
0.0
 11
2561.362139917895
 21
-1832.499699721466
 31
0.0
  0
LINE
  5
293
330
1F
100
AcDbEntity
  8
0-4
  6
Continuous
 62
    92
370
    13
100
AcDbLine
 10
2522.390996747596
 20
-1839.999699721466
 30
0.0
 11
1478.640189728375
 21
-1839.999699721466
 31
0.0
  0
LINE
  5
294
330
1F
100
AcDbEntity
  8
0-4
  6
Continuous
 62
    92
370
    13
100
AcDbLine
 10
3215.000579421585
 20
-1839.999699721466
 30
0.0
 11
2557.031441460771
 21
-1839.999699721466
 31
0.0
  0
LINE
  5
295
330
1F
100
AcDbEntity
  8
0-4
  6
Continuous
 62
    92
370
    13
100
AcDbLine
 10
2526.721123766518
 20
-3103.108302734151
 30
0.0
 11
1475.533588010577
 21
-3103.108302734151
 31
0.0
  0
LINE
  5
296
330
1F
100
AcDbEntity
  8
0-4
  6
Continuous
 62
    92
370
    13
100
AcDbLine
 10
3222.500579421585
 20
-3103.108302734151
 30
0.0
 11
2561.362139917895
 21
-3103.108302734151
 31
0.0
  0
LINE
  5
297
330
1F
100
AcDbEntity
  8
0-4
  6
Continuous
 62
    92
370
    13
100
AcDbLine
 10
2522.390996747596
 20
-3110.608302734151
 30
0.0
 11
1478.640189728375
 21
-3110.608302734151
 31
0.0
  0
LINE
  5
298
330
1F
100
AcDbEntity
  8
0-4
  6
Continuous
 62
    92
370
    13
100
AcDbLine
 10
3215.000579421585
 20
-3110.608302734151
 30
0.0
 11
2557.031441460771
 21
-3110.608302734151
 31
0.0
  0
LINE
  5
299
330
1F
100
AcDbEntity
  8
0-4
  6
Continuous
 62
    92
370
    13
100
AcDbLine
 10
-2630.000826861408
 20
641.8635345439793
 30
0.0
 11
-3287.970536260425
 21
641.8635345439793
 31
0.0
  0
LINE
  5
29A
330
1F
100
AcDbEntity
  8
0-4
  6
Continuous
 62
    92
370
    13
100
AcDbLine
 10
-3322.610980973601
 20
641.8635345439793
 30
0.0
 11
-4366.361216554618
 21
641.8635345439793
 31
0.0
  0
LINE
  5
29B
330
1F
100
AcDbEntity
  8
0-4
  6
Continuous
 62
    92
370
    13
100
AcDbLine
 10
-2622.500826861408
 20
649.3635345439793
 30
0.0
 11
-3283.6398378033
 21
649.3635345439793
 31
0.0
  0
LINE
  5
29C
330
1F
100
AcDbEntity
  8
0-4
  6
Continuous
 62
    92
370
    13
100
AcDbLine
 10
-3318.280853954678
 20
649.3635345439793
 30
0.0
 11
-4369.467818272418
 21
649.3635345439793
 31
0.0
  0
LINE
  5
29D
330
1F
100
AcDbEntity
  8
0-4
  6
Continuous
 62
    92
370
    13
100
AcDbLine
 10
-2630.000826861408
 20
-589.9996198190229
 30
0.0
 11
-3287.970536260425
 21
-589.9996198190229
 31
0.0
  0
LINE
  5
29E
330
1F
100
AcDbEntity
  8
0-4
  6
Continuous
 62
    92
370
    13
100
AcDbLine
 10
-3322.610980973601
 20
-589.9996198190229
 30
0.0
 11
-4366.361216554618
 21
-589.9996198190229
 31
0.0
  0
LINE
  5
29F
330
1F
100
AcDbEntity
  8
0-4
  6
Continuous
 62
    92
370
    13
100
AcDbLine
 10
-2622.500826861408
 20
-582.4996198190229
 30
0.0
 11
-3283.6398378033
 21
-582.4996198190229
 31
0.0
  0
LINE
  5
2A0
330
1F
100
AcDbEntity
  8
0-4
  6
Continuous
 62
    92
370
    13
100
AcDbLine
 10
-3318.280853954678
 20
-582.4996198190229
 30
0.0
 11
-4369.467818272418
 21
-582.4996198190229
 31
0.0
  0
LINE
  5
2A1
330
1F
100
AcDbEntity
  8
0-4
  6
Continuous
 62
    92
370
    13
100
AcDbLine
 10
-2630.000826861408
 20
-1839.999699721466
 30
0.0
 11
-3287.970536260425
 21
-1839.999699721466
 31
0.0
  0
LINE
  5
2A2
330
1F
100
AcDbEntity
  8
0-4
  6
Continuous
 62
    92
370
    13
100
AcDbLine
 10
-3322.610980973601
 20
-1839.999699721466
 30
0.0
 11
-4366.361216554618
 21
-1839.999699721466
 31
0.0
  0
LINE
  5
2A3
330
1F
100
AcDbEntity
  8
0-4
  6
Continuous
 62
    92
370
    13
100
AcDbLine
 10
-2622.500826861408
 20
-1832.499699721466
 30
0.0
 11
-3283.6398378033
 21
-1832.499699721466
 31
0.0
  0
LINE
  5
2A4
330
1F
100
AcDbEntity
  8
0-4
  6
Continuous
 62
    92
370
    13
100
AcDbLine
 10
-3318.280853954678
 20
-1832.499699721466
 30
0.0
 11
-4369.467818272418
 21
-1832.499699721466
 31
0.0
  0
LINE
  5
2A5
330
1F
100
AcDbEntity
  8
0-4
  6
Continuous
 62
    92
370
    13
100
AcDbLine
 10
-2630.000826861408
 20
-3108.136705163351
 30
0.0
 11
-3287.970536260425
 21
-3108.136705163351
 31
0.0
  0
LINE
  5
2A6
330
1F
100
AcDbEntity
  8
0-4
  6
Continuous
 62
    92
370
    13
100
AcDbLine
 10
-3322.610980973601
 20
-3108.136705163351
 30
0.0
 11
-4366.361216554618
 21
-3108.136705163351
 31
0.0
  0
LINE
  5
2A7
330
1F
100
AcDbEntity
  8
0-4
  6
Continuous
 62
    92
370
    13
100
AcDbLine
 10
-2622.500826861408
 20
-3100.636705163351
 30
0.0
 11
-3283.6398378033
 21
-3100.636705163351
 31
0.0
  0
LINE
  5
2A8
330
1F
100
AcDbEntity
  8
0-4
  6
Continuous
 62
    92
370
    13
100
AcDbLine
 10
-3318.280853954678
 20
-3100.636705163351
 30
0.0
 11
-4369.467818272418
 21
-3100.636705163351
 31
0.0
  0
LINE
  5
2A9
330
1F
100
AcDbEntity
  8
0-4
  6
Continuous
 62
    92
370
    13
100
AcDbLine
 10
3222.500579421585
 20
2867.500619888306
 30
0.0
 11
2441.542469408066
 21
2867.500619888306
 31
0.0
  0
LINE
  5
2AA
330
1F
100
AcDbEntity
  8
0-4
  6
Continuous
 62
    92
370
    13
100
AcDbLine
 10
2406.901453256688
 20
2867.500619888306
 30
0.0
 11
1422.500579421585
 21
2867.500619888306
 31
0.0
  0
LINE
  5
2AB
330
1F
100
AcDbEntity
  8
0-4
  6
Continuous
 62
    92
370
    13
100
AcDbLine
 10
2406.901453256688
 20
1590.706954137713
 30
0.0
 11
1422.500579421585
 21
1590.706954137713
 31
0.0
  0
LINE
  5
2AC
330
1F
100
AcDbEntity
  8
0-4
  6
Continuous
 62
    92
370
    13
100
AcDbLine
 10
3222.500579421585
 20
1590.706954137713
 30
0.0
 11
2441.542469408066
 21
1590.706954137713
 31
0.0
  0
LINE
  5
2AD
330
1F
100
AcDbEntity
  8
0-4
  6
Continuous
 62
    92
370
    13
100
AcDbLine
 10
2406.901453256688
 20
349.3635345439793
 30
0.0
 11
1422.500579421585
 21
349.3635345439793
 31
0.0
  0
LINE
  5
2AE
330
1F
100
AcDbEntity
  8
0-4
  6
Continuous
 62
    92
370
    13
100
AcDbLine
 10
3222.500579421585
 20
349.3635345439793
 30
0.0
 11
2441.542469408066
 21
349.3635345439793
 31
0.0
  0
LINE
  5
2AF
330
1F
100
AcDbEntity
  8
0-4
  6
Continuous
 62
    92
370
    13
100
AcDbLine
 10
2406.901453256688
 20
-882.4996198190229
 30
0.0
 11
1422.500579421585
 21
-882.4996198190229
 31
0.0
  0
LINE
  5
2B0
330
1F
100
AcDbEntity
  8
0-4
  6
Continuous
 62
    92
370
    13
100
AcDbLine
 10
3222.500579421585
 20
-882.4996198190229
 30
0.0
 11
2441.542469408066
 21
-882.4996198190229
 31
0.0
  0
LINE
  5
2B1
330
1F
100
AcDbEntity
  8
0-4
  6
Continuous
 62
    92
370
    13
100
AcDbLine
 10
2406.901453256688
 20
-2132.499699721466
 30
0.0
 11
1422.500579421585
 21
-2132.499699721466
 31
0.0
  0
LINE
  5
2B2
330
1F
100
AcDbEntity
  8
0-4
  6
Continuous
 62
    92
370
    13
100
AcDbLine
 10
3222.500579421585
 20
-2132.499699721466
 30
0.0
 11
2441.542469408066
 21
-2132.499699721466
 31
0.0
  0
LINE
  5
2B3
330
1F
100
AcDbEntity
  8
0-4
  6
Continuous
 62
    92
370
    13
100
AcDbLine
 10
2406.901453256688
 20
-3403.108302734153
 30
0.0
 11
1422.500579421585
 21
-3403.108302734153
 31
0.0
  0
LINE
  5
2B4
330
1F
100
AcDbEntity
  8
0-4
  6
Continuous
 62
    92
370
    13
100
AcDbLine
 10
3222.500579421585
 20
-3403.108302734153
 30
0.0
 11
2441.542469408066
 21
-3403.108302734153
 31
0.0
  0
LINE
  5
2B5
330
1F
100
AcDbEntity
  8
F-1
  6
JWW_DASHED1
 62
     7
370
     9
100
AcDbLine
 10
5840.000214447848
 20
2318.750569949279
 30
0.0
 11
4490.000214447847
 21
2318.750569949279
 31
0.0
  0
LINE
  5
2B6
330
1F
100
AcDbEntity
  8
F-1
  6
JWW_DASHED1
 62
     7
370
     9
100
AcDbLine
 10
5840.000214447848
 20
-1431.24966975805
 30
0.0
 11
4490.000214447847
 21
-1431.24966975805
 31
0.0
  0
LINE
  5
2B7
330
1F
100
AcDbEntity
  8
F-0
  6
JWW_HOJO
 62
     7
370
     9
100
AcDbLine
 10
1000.000082479942
 20
-3779.99980514114
 30
0.0
 11
1000.000082479942
 21
-4179.999810296136
 31
0.0
  0
LINE
  5
2B8
330
1F
100
AcDbEntity
  8
F-0
  6
JWW_HOJO
 62
     7
370
     9
100
AcDbLine
 10
500.0004123997047
 20
-3779.99980514114
 30
0.0
 11
500.0004123997047
 21
-4179.999810296136
 31
0.0
  0
LINE
  5
2B9
330
1F
100
AcDbEntity
  8
F-1
  6
Continuous
 62
   200
370
    20
100
AcDbLine
 10
5849.999257680533
 20
-4189.999804625641
 30
0.0
 11
-5849.999257680533
 21
-4189.999804625641
 31
0.0
  0
LINE
  5
2BA
330
1F
100
AcDbEntity
  8
F-1
  6
Continuous
 62
   200
370
    20
100
AcDbLine
 10
5849.999257680533
 20
-4184.999795862147
 30
0.0
 11
-5849.999257680533
 21
-4184.999795862147
 31
0.0
  0
LINE
  5
2BB
330
1F
100
AcDbEntity
  8
F-1
  6
Continuous
 62
   200
370
    20
100
AcDbLine
 10
5849.999257680533
 20
-4179.999810296136
 30
0.0
 11
-5849.999257680533
 21
-4179.999810296136
 31
0.0
  0
LINE
  5
2BC
330
1F
100
AcDbEntity
  8
F-1
  6
Continuous
 62
   200
370
    20
100
AcDbLine
 10
4339.999719568202
 20
-3779.99980514114
 30
0.0
 11
4339.999719568202
 21
-4179.999810296136
 31
0.0
  0
LINE
  5
2BD
330
1F
100
AcDbEntity
  8
F-1
  6
Continuous
 62
   200
370
    20
100
AcDbLine
 10
2839.999224688557
 20
-3779.99980514114
 30
0.0
 11
2839.999224688557
 21
-4179.999810296136
 31
0.0
  0
LINE
  5
2BE
330
1F
100
AcDbEntity
  8
F-1
  6
Continuous
 62
   200
370
    20
100
AcDbLine
 10
0.0003711597344136
 20
-3779.99980514114
 30
0.0
 11
0.0003711597344136
 21
-4179.999810296136
 31
0.0
  0
LINE
  5
2BF
330
1F
100
AcDbEntity
  8
F-1
  6
Continuous
 62
   200
370
    20
100
AcDbLine
 10
0.0003711597344136
 20
-3979.999738126188
 30
0.0
 11
5839.99947212838
 21
-3980.005166337297
 31
0.0
  0
LINE
  5
2C0
330
1F
100
AcDbEntity
  8
F-0
  6
JWW_HOJO
 62
     7
370
     9
100
AcDbLine
 10
-5839.999495325861
 20
-3979.999738126533
 30
0.0
 11
0.0003711597344136
 21
-3979.999738126533
 31
0.0
  0
LINE
  5
2C1
330
1F
100
AcDbEntity
  8
F-0
  6
JWW_HOJO
 62
     7
370
     9
100
AcDbLine
 10
-5839.999495325861
 20
-3889.999738126533
 30
0.0
 11
0.0003711597344136
 21
-3889.999738126533
 31
0.0
  0
LINE
  5
2C2
330
1F
100
AcDbEntity
  8
F-0
  6
JWW_HOJO
 62
     7
370
     9
100
AcDbLine
 10
-5839.999495325861
 20
-4069.999738126533
 30
0.0
 11
0.0003711597344136
 21
-4069.999738126533
 31
0.0
  0
LINE
  5
2C3
330
1F
100
AcDbEntity
  8
F-0
  6
JWW_HOJO
 62
     7
370
     9
100
AcDbLine
 10
0.0002363841065289
 20
-4124.999541826125
 30
0.0
 11
5839.99933735275
 21
-4125.004970037234
 31
0.0
  0
LINE
  5
2C4
330
1F
100
AcDbEntity
  8
F-0
  6
JWW_HOJO
 62
     7
370
     9
100
AcDbLine
 10
0.0003200380581347
 20
-4034.999541826165
 30
0.0
 11
5839.999421006702
 21
-4035.004970037273
 31
0.0
  0
LINE
  5
2C5
330
1F
100
AcDbEntity
  8
F-0
  6
JWW_HOJO
 62
     7
370
     9
100
AcDbLine
 10
0.0004222817781852
 20
-3924.999539266212
 30
0.0
 11
5839.999523250422
 21
-3925.004967477321
 31
0.0
  0
LINE
  5
2C6
330
1F
100
AcDbEntity
  8
F-0
  6
JWW_HOJO
 62
     7
370
     9
100
AcDbLine
 10
0.000505935729791
 20
-3834.999539266251
 30
0.0
 11
5839.999606904374
 21
-3835.00496747736
 31
0.0
  0
LINE
  5
2C7
330
1F
100
AcDbEntity
  8
F-0
  6
JWW_HOJO
 62
     7
370
     9
100
AcDbLine
 10
2929.999224688557
 20
-3779.99980514114
 30
0.0
 11
2929.999224688557
 21
-4179.999810296136
 31
0.0
  0
LINE
  5
2C8
330
1F
100
AcDbEntity
  8
F-0
  6
JWW_HOJO
 62
     7
370
     9
100
AcDbLine
 10
90.00037115973441
 20
-3779.99980514114
 30
0.0
 11
90.00037115973441
 21
-4179.999810296136
 31
0.0
  0
LINE
  5
2C9
330
1F
100
AcDbEntity
  8
F-0
  6
JWW_HOJO
 62
     7
370
     9
100
AcDbLine
 10
4429.999719568202
 20
-3779.99980514114
 30
0.0
 11
4429.999719568202
 21
-4179.999810296136
 31
0.0
  0
LINE
  5
2CA
330
1F
100
AcDbEntity
  8
F-1
  6
Continuous
 62
   200
370
    20
100
AcDbLine
 10
5849.999257680533
 20
-3779.99980514114
 30
0.0
 11
-5849.999257680533
 21
-3779.99980514114
 31
0.0
  0
LINE
  5
2CB
330
1F
100
AcDbEntity
  8
F-1
  6
Continuous
 62
   200
370
    20
100
AcDbLine
 10
5849.999257680533
 20
-3774.99981957513
 30
0.0
 11
-5849.999257680533
 21
-3774.99981957513
 31
0.0
  0
LINE
  5
2CC
330
1F
100
AcDbEntity
  8
F-0
  6
JWW_HOJO
 62
     7
370
     9
100
AcDbLine
 10
-5097.546881873193
 20
-3779.999805141141
 30
0.0
 11
-5097.546881873193
 21
-4189.999967008024
 31
0.0
  0
LINE
  5
2CD
330
1F
100
AcDbEntity
  8
F-0
  6
JWW_HOJO
 62
     7
370
     9
100
AcDbLine
 10
-59.99962884026559
 20
-3779.99980514114
 30
0.0
 11
-59.99962884026559
 21
-4179.999810296136
 31
0.0
  0
TEXT
  5
2CE
330
1F
100
AcDbEntity
  8
0-A
  6
Continuous
 62
     7
370
     9
100
AcDbText
 10
-402.5002639358101
 20
3614.565654845624
 30
0.0
 40
68.58
  1
2(偶数)
  7
ＭＳ ゴシック
100
AcDbText
  0
TEXT
  5
2CF
330
1F
100
AcDbEntity
  8
0-A
  6
Continuous
 62
     7
370
     9
100
AcDbText
 10
5442.500214447848
 20
3614.565654845624
 30
0.0
 40
68.58
  1
2(偶数)
  7
ＭＳ ゴシック
100
AcDbText
  0
TEXT
  5
2D0
330
1F
100
AcDbEntity
  8
0-A
  6
Continuous
 62
     7
370
     9
100
AcDbText
 10
-4744.999533988334
 20
3576.920659839527
 30
0.0
 40
91.44
  1
115幅
 41
1.075
  7
ＭＳ ゴシック
100
AcDbText
  0
TEXT
  5
2D1
330
1F
100
AcDbEntity
  8
0-A
  6
Continuous
 62
     7
370
     9
100
AcDbText
 10
1100.000016495988
 20
3576.920659839527
 30
0.0
 40
91.44
  1
145幅
 41
1.075
  7
ＭＳ ゴシック
100
AcDbText
  0
TEXT
  5
2D2
330
1F
100
AcDbEntity
  8
0-A
  6
Continuous
 62
     7
370
     9
100
AcDbText
 10
-2120.000263935811
 20
3536.440649851722
 30
0.0
 40
68.58
  1
3,900×115×20
  7
ＭＳ ゴシック
100
AcDbText
  0
TEXT
  5
2D3
330
1F
100
AcDbEntity
  8
0-A
  6
Continuous
 62
     7
370
     9
100
AcDbText
 10
3725.000214447847
 20
3536.440649851722
 30
0.0
 40
68.58
  1
3,900×145×20
  7
ＭＳ ゴシック
100
AcDbText
  0
TEXT
  5
2D4
330
1F
100
AcDbEntity
  8
0-A
  6
Continuous
 62
     7
370
     9
100
AcDbText
 10
-267.5002639358101
 20
3458.315644857818
 30
0.0
 40
68.58
  1
1
  7
ＭＳ ゴシック
100
AcDbText
  0
TEXT
  5
2D5
330
1F
100
AcDbEntity
  8
0-A
  6
Continuous
 62
     7
370
     9
100
AcDbText
 10
5577.500214447848
 20
3458.315644857818
 30
0.0
 40
68.58
  1
1
  7
ＭＳ ゴシック
100
AcDbText
  0
TEXT
  5
2D6
330
1F
100
AcDbEntity
  8
0-A
  6
Continuous
 62
     7
370
     9
100
AcDbText
 10
-402.5002639358101
 20
2364.565574943181
 30
0.0
 40
68.58
  1
2(偶数)
  7
ＭＳ ゴシック
100
AcDbText
  0
TEXT
  5
2D7
330
1F
100
AcDbEntity
  8
0-A
  6
Continuous
 62
     7
370
     9
100
AcDbText
 10
5442.500214447848
 20
2364.565574943181
 30
0.0
 40
68.58
  1
2(偶数)
  7
ＭＳ ゴシック
100
AcDbText
  0
TEXT
  5
2D8
330
1F
100
AcDbEntity
  8
0-A
  6
Continuous
 62
     7
370
     9
100
AcDbText
 10
-4744.999533988334
 20
2326.920579937084
 30
0.0
 40
91.44
  1
120幅
 41
1.075
  7
ＭＳ ゴシック
100
AcDbText
  0
TEXT
  5
2D9
330
1F
100
AcDbEntity
  8
0-A
  6
Continuous
 62
     7
370
     9
100
AcDbText
 10
1100.000016495988
 20
2326.920579937084
 30
0.0
 40
91.44
  1
150幅
 41
1.075
  7
ＭＳ ゴシック
100
AcDbText
  0
TEXT
  5
2DA
330
1F
100
AcDbEntity
  8
0-A
  6
Continuous
 62
     7
370
     9
100
AcDbText
 10
-2120.000263935811
 20
2286.440569949279
 30
0.0
 40
68.58
  1
3,900×120×20
  7
ＭＳ ゴシック
100
AcDbText
  0
TEXT
  5
2DB
330
1F
100
AcDbEntity
  8
0-A
  6
Continuous
 62
     7
370
     9
100
AcDbText
 10
3725.000214447847
 20
2286.440569949279
 30
0.0
 40
68.58
  1
3,900×150×20
  7
ＭＳ ゴシック
100
AcDbText
  0
TEXT
  5
2DC
330
1F
100
AcDbEntity
  8
0-A
  6
Continuous
 62
     7
370
     9
100
AcDbText
 10
-267.5002639358101
 20
2208.315564955376
 30
0.0
 40
68.58
  1
1
  7
ＭＳ ゴシック
100
AcDbText
  0
TEXT
  5
2DD
330
1F
100
AcDbEntity
  8
0-A
  6
Continuous
 62
     7
370
     9
100
AcDbText
 10
5577.500214447848
 20
2208.315564955376
 30
0.0
 40
68.58
  1
1
  7
ＭＳ ゴシック
100
AcDbText
  0
TEXT
  5
2DE
330
1F
100
AcDbEntity
  8
0-A
  6
Continuous
 62
     7
370
     9
100
AcDbText
 10
-402.5002639358101
 20
1114.565495040739
 30
0.0
 40
68.58
  1
2(偶数)
  7
ＭＳ ゴシック
100
AcDbText
  0
TEXT
  5
2DF
330
1F
100
AcDbEntity
  8
0-A
  6
Continuous
 62
     7
370
     9
100
AcDbText
 10
5442.500214447848
 20
1114.565495040739
 30
0.0
 40
68.58
  1
2(偶数)
  7
ＭＳ ゴシック
100
AcDbText
  0
TEXT
  5
2E0
330
1F
100
AcDbEntity
  8
0-A
  6
Continuous
 62
     7
370
     9
100
AcDbText
 10
-4744.999533988334
 20
1076.920500034641
 30
0.0
 40
91.44
  1
125幅
 41
1.075
  7
ＭＳ ゴシック
100
AcDbText
  0
TEXT
  5
2E1
330
1F
100
AcDbEntity
  8
0-A
  6
Continuous
 62
     7
370
     9
100
AcDbText
 10
1100.000016495988
 20
1076.920500034641
 30
0.0
 40
91.44
  1
155幅
 41
1.075
  7
ＭＳ ゴシック
100
AcDbText
  0
TEXT
  5
2E2
330
1F
100
AcDbEntity
  8
0-A
  6
Continuous
 62
     7
370
     9
100
AcDbText
 10
-2120.000263935811
 20
1036.440490046836
 30
0.0
 40
68.58
  1
3,900×125×20
  7
ＭＳ ゴシック
100
AcDbText
  0
TEXT
  5
2E3
330
1F
100
AcDbEntity
  8
0-A
  6
Continuous
 62
     7
370
     9
100
AcDbText
 10
3725.000214447847
 20
1036.440490046836
 30
0.0
 40
68.58
  1
3,900×155×20
  7
ＭＳ ゴシック
100
AcDbText
  0
TEXT
  5
2E4
330
1F
100
AcDbEntity
  8
0-A
  6
Continuous
 62
     7
370
     9
100
AcDbText
 10
-267.5002639358101
 20
958.3154850529326
 30
0.0
 40
68.58
  1
1
  7
ＭＳ ゴシック
100
AcDbText
  0
TEXT
  5
2E5
330
1F
100
AcDbEntity
  8
0-A
  6
Continuous
 62
     7
370
     9
100
AcDbText
 10
5577.500214447848
 20
958.3154850529326
 30
0.0
 40
68.58
  1
1
  7
ＭＳ ゴシック
100
AcDbText
  0
TEXT
  5
2E6
330
1F
100
AcDbEntity
  8
0-A
  6
Continuous
 62
     7
370
     9
100
AcDbText
 10
-5509.999131898622
 20
231.919484484882
 30
0.0
 40
91.44
  1
窓枠・
 41
1.083333333333333
  7
ＭＳ ゴシック
100
AcDbText
  0
TEXT
  5
2E7
330
1F
100
AcDbEntity
  8
0-A
  6
Continuous
 62
     7
370
     9
100
AcDbText
 10
335.0004185857009
 20
231.919484484882
 30
0.0
 40
91.44
  1
窓枠・
 41
1.083333333333333
  7
ＭＳ ゴシック
100
AcDbText
  0
TEXT
  5
2E8
330
1F
100
AcDbEntity
  8
0-A
  6
Continuous
 62
     7
370
     9
100
AcDbText
 10
-5509.999131898622
 20
-68.08039176511791
 30
0.0
 40
91.44
  1
Ａ型・
 41
1.083333333333333
  7
ＭＳ ゴシック
100
AcDbText
  0
TEXT
  5
2E9
330
1F
100
AcDbEntity
  8
0-A
  6
Continuous
 62
     7
370
     9
100
AcDbText
 10
335.0004185857009
 20
-68.08039176511791
 30
0.0
 40
91.44
  1
Ａ型・
 41
1.083333333333333
  7
ＭＳ ゴシック
100
AcDbText
  0
TEXT
  5
2EA
330
1F
100
AcDbEntity
  8
0-A
  6
Continuous
 62
     7
370
     9
100
AcDbText
 10
-402.5002639358101
 20
-135.4345848617044
 30
0.0
 40
68.58
  1
2(偶数)
  7
ＭＳ ゴシック
100
AcDbText
  0
TEXT
  5
2EB
330
1F
100
AcDbEntity
  8
0-A
  6
Continuous
 62
     7
370
     9
100
AcDbText
 10
5442.500214447848
 20
-135.4345848617044
 30
0.0
 40
68.58
  1
2(偶数)
  7
ＭＳ ゴシック
100
AcDbText
  0
TEXT
  5
2EC
330
1F
100
AcDbEntity
  8
0-A
  6
Continuous
 62
     7
370
     9
100
AcDbText
 10
-4744.999533988334
 20
-173.079579867802
 30
0.0
 40
91.44
  1
130幅
 41
1.075
  7
ＭＳ ゴシック
100
AcDbText
  0
TEXT
  5
2ED
330
1F
100
AcDbEntity
  8
0-A
  6
Continuous
 62
     7
370
     9
100
AcDbText
 10
1100.000016495988
 20
-173.079579867802
 30
0.0
 40
91.44
  1
160幅
 41
1.075
  7
ＭＳ ゴシック
100
AcDbText
  0
TEXT
  5
2EE
330
1F
100
AcDbEntity
  8
0-A
  6
Continuous
 62
     7
370
     9
100
AcDbText
 10
-2120.000263935811
 20
-213.5595898556068
 30
0.0
 40
68.58
  1
3,900×130×20
  7
ＭＳ ゴシック
100
AcDbText
  0
TEXT
  5
2EF
330
1F
100
AcDbEntity
  8
0-A
  6
Continuous
 62
     7
370
     9
100
AcDbText
 10
3725.000214447847
 20
-213.5595898556068
 30
0.0
 40
68.58
  1
3,900×160×20
  7
ＭＳ ゴシック
100
AcDbText
  0
TEXT
  5
2F0
330
1F
100
AcDbEntity
  8
0-A
  6
Continuous
 62
     7
370
     9
100
AcDbText
 10
-267.5002639358101
 20
-291.6845948495101
 30
0.0
 40
68.58
  1
1
  7
ＭＳ ゴシック
100
AcDbText
  0
TEXT
  5
2F1
330
1F
100
AcDbEntity
  8
0-A
  6
Continuous
 62
     7
370
     9
100
AcDbText
 10
5577.500214447848
 20
-291.6845948495101
 30
0.0
 40
68.58
  1
1
  7
ＭＳ ゴシック
100
AcDbText
  0
TEXT
  5
2F2
330
1F
100
AcDbEntity
  8
0-A
  6
Continuous
 62
     7
370
     9
100
AcDbText
 10
-402.5002639358101
 20
-1385.434664764147
 30
0.0
 40
68.58
  1
2(偶数)
  7
ＭＳ ゴシック
100
AcDbText
  0
TEXT
  5
2F3
330
1F
100
AcDbEntity
  8
0-A
  6
Continuous
 62
     7
370
     9
100
AcDbText
 10
5442.500214447848
 20
-1385.434664764147
 30
0.0
 40
68.58
  1
2(偶数)
  7
ＭＳ ゴシック
100
AcDbText
  0
TEXT
  5
2F4
330
1F
100
AcDbEntity
  8
0-A
  6
Continuous
 62
     7
370
     9
100
AcDbText
 10
-4744.999533988334
 20
-1423.079659770244
 30
0.0
 40
91.44
  1
135幅
 41
1.075
  7
ＭＳ ゴシック
100
AcDbText
  0
TEXT
  5
2F5
330
1F
100
AcDbEntity
  8
0-A
  6
Continuous
 62
     7
370
     9
100
AcDbText
 10
1100.000016495988
 20
-1423.079659770244
 30
0.0
 40
91.44
  1
165幅
 41
1.075
  7
ＭＳ ゴシック
100
AcDbText
  0
TEXT
  5
2F6
330
1F
100
AcDbEntity
  8
0-A
  6
Continuous
 62
     7
370
     9
100
AcDbText
 10
-2120.000263935811
 20
-1463.55966975805
 30
0.0
 40
68.58
  1
3,900×135×20
  7
ＭＳ ゴシック
100
AcDbText
  0
TEXT
  5
2F7
330
1F
100
AcDbEntity
  8
0-A
  6
Continuous
 62
     7
370
     9
100
AcDbText
 10
3725.000214447847
 20
-1463.55966975805
 30
0.0
 40
68.58
  1
3,900×165×20
  7
ＭＳ ゴシック
100
AcDbText
  0
TEXT
  5
2F8
330
1F
100
AcDbEntity
  8
0-A
  6
Continuous
 62
     7
370
     9
100
AcDbText
 10
-267.5002639358101
 20
-1541.684674751953
 30
0.0
 40
68.58
  1
1
  7
ＭＳ ゴシック
100
AcDbText
  0
TEXT
  5
2F9
330
1F
100
AcDbEntity
  8
0-A
  6
Continuous
 62
     7
370
     9
100
AcDbText
 10
5577.500214447848
 20
-1541.684674751952
 30
0.0
 40
68.58
  1
1
  7
ＭＳ ゴシック
100
AcDbText
  0
TEXT
  5
2FA
330
1F
100
AcDbEntity
  8
0-A
  6
Continuous
 62
     7
370
     9
100
AcDbText
 10
-402.5002639358101
 20
-2635.434744666589
 30
0.0
 40
68.58
  1
2(偶数)
  7
ＭＳ ゴシック
100
AcDbText
  0
TEXT
  5
2FB
330
1F
100
AcDbEntity
  8
0-A
  6
Continuous
 62
     7
370
     9
100
AcDbText
 10
5442.500214447848
 20
-2635.434744666589
 30
0.0
 40
68.58
  1
2(偶数)
  7
ＭＳ ゴシック
100
AcDbText
  0
TEXT
  5
2FC
330
1F
100
AcDbEntity
  8
0-A
  6
Continuous
 62
     7
370
     9
100
AcDbText
 10
-4744.999533988334
 20
-2673.079739672687
 30
0.0
 40
91.44
  1
140幅
 41
1.075
  7
ＭＳ ゴシック
100
AcDbText
  0
TEXT
  5
2FD
330
1F
100
AcDbEntity
  8
0-A
  6
Continuous
 62
     7
370
     9
100
AcDbText
 10
1100.000016495988
 20
-2673.079739672687
 30
0.0
 40
91.44
  1
170幅
 41
1.075
  7
ＭＳ ゴシック
100
AcDbText
  0
TEXT
  5
2FE
330
1F
100
AcDbEntity
  8
0-A
  6
Continuous
 62
     7
370
     9
100
AcDbText
 10
-2120.000263935811
 20
-2713.559749660492
 30
0.0
 40
68.58
  1
3,900×140×20
  7
ＭＳ ゴシック
100
AcDbText
  0
TEXT
  5
2FF
330
1F
100
AcDbEntity
  8
0-A
  6
Continuous
 62
     7
370
     9
100
AcDbText
 10
3725.000214447847
 20
-2713.559749660492
 30
0.0
 40
68.58
  1
3,900×170×20
  7
ＭＳ ゴシック
100
AcDbText
  0
TEXT
  5
300
330
1F
100
AcDbEntity
  8
0-A
  6
Continuous
 62
     7
370
     9
100
AcDbText
 10
-267.5002639358101
 20
-2791.684754654395
 30
0.0
 40
68.58
  1
1
  7
ＭＳ ゴシック
100
AcDbText
  0
TEXT
  5
301
330
1F
100
AcDbEntity
  8
0-A
  6
Continuous
 62
     7
370
     9
100
AcDbText
 10
5577.500214447848
 20
-2791.684754654395
 30
0.0
 40
68.58
  1
1
  7
ＭＳ ゴシック
100
AcDbText
  0
TEXT
  5
302
330
1F
100
AcDbEntity
  8
0-B
  6
Continuous
 62
     7
370
   211
100
AcDbText
 10
2247.500579421585
 20
3345.190619888306
 30
0.0
 40
68.58
  1
145
 41
1.111111111111111
  7
ＭＳ ゴシック
100
AcDbText
  0
TEXT
  5
303
330
1F
100
AcDbEntity
  8
0-B
  6
Continuous
 62
     7
370
   211
100
AcDbText
 10
-3597.499898962074
 20
3315.654671621011
 30
0.0
 40
68.58
  1
115
 41
1.111111111111111
  7
ＭＳ ゴシック
100
AcDbText
  0
TEXT
  5
304
330
1F
100
AcDbEntity
  8
0-B
  6
Continuous
 62
     7
370
   211
100
AcDbText
 10
1307.461377190345
 20
3250.720016966151
 30
0.0
 40
68.58
  1
5
 50
44.99999999999846
 41
0.9999999999999981
  7
ＭＳ ゴシック
100
AcDbText
  0
TEXT
  5
305
330
1F
100
AcDbEntity
  8
0-B
  6
Continuous
 62
     7
370
   211
100
AcDbText
 10
-4500.039101193315
 20
3221.184068698856
 30
0.0
 40
68.58
  1
5
 50
44.99999999999693
 41
1.000000000000001
  7
ＭＳ ゴシック
100
AcDbText
  0
TEXT
  5
306
330
1F
100
AcDbEntity
  8
0-B
  6
Continuous
 62
     7
370
   211
100
AcDbText
 10
1244.810579421585
 20
2968.750619888306
 30
0.0
 40
68.58
  1
20
 50
90.0
 41
1.083333333333333
  7
ＭＳ ゴシック
100
AcDbText
  0
TEXT
  5
307
330
1F
100
AcDbEntity
  8
0-B
  6
Continuous
 62
     7
370
   211
100
AcDbText
 10
-4562.689898962073
 20
2939.214671621011
 30
0.0
 40
68.58
  1
20
 50
90.0
 41
1.083333333333333
  7
ＭＳ ゴシック
100
AcDbText
  0
TEXT
  5
308
330
1F
100
AcDbEntity
  8
0-B
  6
Continuous
 62
     7
370
   211
100
AcDbText
 10
2247.500579421585
 20
2068.396954137714
 30
0.0
 40
68.58
  1
150
 41
1.111111111111111
  7
ＭＳ ゴシック
100
AcDbText
  0
TEXT
  5
309
330
1F
100
AcDbEntity
  8
0-B
  6
Continuous
 62
     7
370
   211
100
AcDbText
 10
-3597.500826861408
 20
2059.589752660795
 30
0.0
 40
68.58
  1
120
 41
1.111111111111111
  7
ＭＳ ゴシック
100
AcDbText
  0
TEXT
  5
30A
330
1F
100
AcDbEntity
  8
0-B
  6
Continuous
 62
     7
370
   211
100
AcDbText
 10
1307.461377190347
 20
1973.926351215558
 30
0.0
 40
68.58
  1
5
 50
45.0
 41
0.9999999999999981
  7
ＭＳ ゴシック
100
AcDbText
  0
TEXT
  5
30B
330
1F
100
AcDbEntity
  8
0-B
  6
Continuous
 62
     7
370
   211
100
AcDbText
 10
-4537.540029092648
 20
1965.119149738641
 30
0.0
 40
68.58
  1
5
 50
44.99999999999693
 41
1.000000000000001
  7
ＭＳ ゴシック
100
AcDbText
  0
TEXT
  5
30C
330
1F
100
AcDbEntity
  8
0-B
  6
Continuous
 62
     7
370
   211
100
AcDbText
 10
1244.810579421586
 20
1676.956954137713
 30
0.0
 40
68.58
  1
20
 50
90.0
 41
1.083333333333333
  7
ＭＳ ゴシック
100
AcDbText
  0
TEXT
  5
30D
330
1F
100
AcDbEntity
  8
0-B
  6
Continuous
 62
     7
370
   211
100
AcDbText
 10
-4600.190826861407
 20
1668.149752660795
 30
0.0
 40
68.58
  1
20
 50
90.0
 41
1.083333333333333
  7
ＭＳ ゴシック
100
AcDbText
  0
TEXT
  5
30E
330
1F
100
AcDbEntity
  8
0-B
  6
Continuous
 62
     7
370
   211
100
AcDbText
 10
-3597.500826861408
 20
827.0535345439794
 30
0.0
 40
68.58
  1
125
 41
1.111111111111111
  7
ＭＳ ゴシック
100
AcDbText
  0
TEXT
  5
30F
330
1F
100
AcDbEntity
  8
0-B
  6
Continuous
 62
     7
370
   211
100
AcDbText
 10
2247.500579421585
 20
827.0535345439794
 30
0.0
 40
68.58
  1
155
 41
1.111111111111111
  7
ＭＳ ゴシック
100
AcDbText
  0
TEXT
  5
310
330
1F
100
AcDbEntity
  8
0-B
  6
Continuous
 62
     7
370
   211
100
AcDbText
 10
-4537.540029092648
 20
732.5829316218244
 30
0.0
 40
68.58
  1
5
 50
44.99999999999693
 41
1.000000000000005
  7
ＭＳ ゴシック
100
AcDbText
  0
TEXT
  5
311
330
1F
100
AcDbEntity
  8
0-B
  6
Continuous
 62
     7
370
   211
100
AcDbText
 10
1307.461377190347
 20
732.582931621824
 30
0.0
 40
68.58
  1
5
 50
45.0
 41
1.000000000000001
  7
ＭＳ ゴシック
100
AcDbText
  0
TEXT
  5
312
330
1F
100
AcDbEntity
  8
0-B
  6
Continuous
 62
     7
370
   211
100
AcDbText
 10
-4600.190826861407
 20
450.6135345439793
 30
0.0
 40
68.58
  1
20
 50
90.0
 41
1.083333333333333
  7
ＭＳ ゴシック
100
AcDbText
  0
TEXT
  5
313
330
1F
100
AcDbEntity
  8
0-B
  6
Continuous
 62
     7
370
   211
100
AcDbText
 10
1244.810579421586
 20
450.6135345439793
 30
0.0
 40
68.58
  1
20
 50
90.0
 41
1.083333333333333
  7
ＭＳ ゴシック
100
AcDbText
  0
TEXT
  5
314
330
1F
100
AcDbEntity
  8
0-B
  6
Continuous
 62
     7
370
   211
100
AcDbText
 10
-3597.500826861408
 20
-404.8096198190229
 30
0.0
 40
68.58
  1
130
 41
1.111111111111111
  7
ＭＳ ゴシック
100
AcDbText
  0
TEXT
  5
315
330
1F
100
AcDbEntity
  8
0-B
  6
Continuous
 62
     7
370
   211
100
AcDbText
 10
2247.500579421585
 20
-404.8096198190229
 30
0.0
 40
68.58
  1
160
 41
1.111111111111111
  7
ＭＳ ゴシック
100
AcDbText
  0
TEXT
  5
316
330
1F
100
AcDbEntity
  8
0-B
  6
Continuous
 62
     7
370
   211
100
AcDbText
 10
-4537.540029092648
 20
-499.2802227411786
 30
0.0
 40
68.58
  1
5
 50
45.00000000000154
 41
1.000000000000004
  7
ＭＳ ゴシック
100
AcDbText
  0
TEXT
  5
317
330
1F
100
AcDbEntity
  8
0-B
  6
Continuous
 62
     7
370
   211
100
AcDbText
 10
1307.461377190347
 20
-499.2802227411792
 30
0.0
 40
68.58
  1
5
 50
45.0
 41
1.000000000000001
  7
ＭＳ ゴシック
100
AcDbText
  0
TEXT
  5
318
330
1F
100
AcDbEntity
  8
0-B
  6
Continuous
 62
     7
370
   211
100
AcDbText
 10
-4600.190826861407
 20
-796.2496198190229
 30
0.0
 40
68.58
  1
20
 50
90.0
 41
1.083333333333333
  7
ＭＳ ゴシック
100
AcDbText
  0
TEXT
  5
319
330
1F
100
AcDbEntity
  8
0-B
  6
Continuous
 62
     7
370
   211
100
AcDbText
 10
1244.810579421586
 20
-796.2496198190229
 30
0.0
 40
68.58
  1
20
 50
90.0
 41
1.083333333333333
  7
ＭＳ ゴシック
100
AcDbText
  0
TEXT
  5
31A
330
1F
100
AcDbEntity
  8
0-B
  6
Continuous
 62
     7
370
   211
100
AcDbText
 10
-3597.500826861408
 20
-1654.809699721466
 30
0.0
 40
68.58
  1
135
 41
1.111111111111111
  7
ＭＳ ゴシック
100
AcDbText
  0
TEXT
  5
31B
330
1F
100
AcDbEntity
  8
0-B
  6
Continuous
 62
     7
370
   211
100
AcDbText
 10
2247.500579421585
 20
-1654.809699721465
 30
0.0
 40
68.58
  1
165
 41
1.111111111111111
  7
ＭＳ ゴシック
100
AcDbText
  0
TEXT
  5
31C
330
1F
100
AcDbEntity
  8
0-B
  6
Continuous
 62
     7
370
   211
100
AcDbText
 10
-4537.540029092646
 20
-1749.280302643621
 30
0.0
 40
68.58
  1
5
 50
44.9999999999977
 41
0.9999999999999981
  7
ＭＳ ゴシック
100
AcDbText
  0
TEXT
  5
31D
330
1F
100
AcDbEntity
  8
0-B
  6
Continuous
 62
     7
370
   211
100
AcDbText
 10
1307.461377190346
 20
-1749.280302643619
 30
0.0
 40
68.58
  1
5
 50
45.0
 41
1.000000000000001
  7
ＭＳ ゴシック
100
AcDbText
  0
TEXT
  5
31E
330
1F
100
AcDbEntity
  8
0-B
  6
Continuous
 62
     7
370
   211
100
AcDbText
 10
-4600.190826861407
 20
-2046.249699721466
 30
0.0
 40
68.58
  1
20
 50
90.0
 41
1.083333333333333
  7
ＭＳ ゴシック
100
AcDbText
  0
TEXT
  5
31F
330
1F
100
AcDbEntity
  8
0-B
  6
Continuous
 62
     7
370
   211
100
AcDbText
 10
1244.810579421586
 20
-2046.249699721466
 30
0.0
 40
68.58
  1
20
 50
90.0
 41
1.083333333333333
  7
ＭＳ ゴシック
100
AcDbText
  0
TEXT
  5
320
330
1F
100
AcDbEntity
  8
0-B
  6
Continuous
 62
     7
370
   211
100
AcDbText
 10
-3597.500826861408
 20
-2922.946705163351
 30
0.0
 40
68.58
  1
140
 41
1.111111111111111
  7
ＭＳ ゴシック
100
AcDbText
  0
TEXT
  5
321
330
1F
100
AcDbEntity
  8
0-B
  6
Continuous
 62
     7
370
   211
100
AcDbText
 10
2247.500579421585
 20
-2925.418302734151
 30
0.0
 40
68.58
  1
170
 41
1.111111111111111
  7
ＭＳ ゴシック
100
AcDbText
  0
TEXT
  5
322
330
1F
100
AcDbEntity
  8
0-B
  6
Continuous
 62
     7
370
   211
100
AcDbText
 10
-4537.540029092646
 20
-3017.417308085506
 30
0.0
 40
68.58
  1
5
 50
44.99999999999809
 41
1.000000000000001
  7
ＭＳ ゴシック
100
AcDbText
  0
TEXT
  5
323
330
1F
100
AcDbEntity
  8
0-B
  6
Continuous
 62
     7
370
   211
100
AcDbText
 10
1307.461377190347
 20
-3019.888905656306
 30
0.0
 40
68.58
  1
5
 50
44.99999999999962
 41
0.9999999999999981
  7
ＭＳ ゴシック
100
AcDbText
  0
TEXT
  5
324
330
1F
100
AcDbEntity
  8
0-B
  6
Continuous
 62
     7
370
   211
100
AcDbText
 10
-4600.190826861407
 20
-3299.386705163351
 30
0.0
 40
68.58
  1
20
 50
90.0
 41
1.083333333333333
  7
ＭＳ ゴシック
100
AcDbText
  0
TEXT
  5
325
330
1F
100
AcDbEntity
  8
0-B
  6
Continuous
 62
     7
370
   211
100
AcDbText
 10
1244.810579421586
 20
-3301.858302734151
 30
0.0
 40
68.58
  1
20
 50
90.0
 41
1.083333333333333
  7
ＭＳ ゴシック
100
AcDbText
  0
TEXT
  5
326
330
1F
100
AcDbEntity
  8
F-A
  6
Continuous
 62
     7
370
     0
100
AcDbText
 10
-1932.500263935811
 20
4028.170379407727
 30
0.0
 40
91.44
  1
寸法
 41
1.0625
  7
ＭＳ ゴシック
100
AcDbText
  0
TEXT
  5
327
330
1F
100
AcDbEntity
  8
F-A
  6
Continuous
 62
     7
370
     0
100
AcDbText
 10
-372.5002639358101
 20
4028.170379407727
 30
0.0
 40
91.44
  1
発注
 41
1.0625
  7
ＭＳ ゴシック
100
AcDbText
  0
TEXT
  5
328
330
1F
100
AcDbEntity
  8
F-A
  6
Continuous
 62
     7
370
     0
100
AcDbText
 10
3912.500214447847
 20
4028.122128642312
 30
0.0
 40
91.44
  1
寸法
 41
1.0625
  7
ＭＳ ゴシック
100
AcDbText
  0
TEXT
  5
329
330
1F
100
AcDbEntity
  8
F-A
  6
Continuous
 62
     7
370
     0
100
AcDbText
 10
5472.500214447848
 20
4028.122128642312
 30
0.0
 40
91.44
  1
発注
 41
1.0625
  7
ＭＳ ゴシック
100
AcDbText
  0
TEXT
  5
32A
330
1F
100
AcDbEntity
  8
F-A
  6
Continuous
 62
     7
370
     0
100
AcDbText
 10
-5509.999317478489
 20
3919.420577359586
 30
0.0
 40
91.44
  1
部材名
 41
1.083333333333333
  7
ＭＳ ゴシック
100
AcDbText
  0
TEXT
  5
32B
330
1F
100
AcDbEntity
  8
F-A
  6
Continuous
 62
     7
370
     0
100
AcDbText
 10
-1047.500263935811
 20
3919.420577359586
 30
0.0
 40
91.44
  1
品番
 41
1.0625
  7
ＭＳ ゴシック
100
AcDbText
  0
TEXT
  5
32C
330
1F
100
AcDbEntity
  8
F-A
  6
Continuous
 62
     7
370
     0
100
AcDbText
 10
329.9998762800891
 20
3919.420577359586
 30
0.0
 40
91.44
  1
部材名
 41
1.083333333333333
  7
ＭＳ ゴシック
100
AcDbText
  0
TEXT
  5
32D
330
1F
100
AcDbEntity
  8
F-A
  6
Continuous
 62
     7
370
     0
100
AcDbText
 10
-3785.000084541939
 20
3919.420379407728
 30
0.0
 40
91.44
  1
断面形状
 41
1.09375
  7
ＭＳ ゴシック
100
AcDbText
  0
TEXT
  5
32E
330
1F
100
AcDbEntity
  8
F-A
  6
Continuous
 62
     7
370
     0
100
AcDbText
 10
2060.000486631652
 20
3919.420379407728
 30
0.0
 40
91.44
  1
断面形状
 41
1.09375
  7
ＭＳ ゴシック
100
AcDbText
  0
TEXT
  5
32F
330
1F
100
AcDbEntity
  8
F-A
  6
Continuous
 62
     7
370
     0
100
AcDbText
 10
4797.500214447847
 20
3919.372326594172
 30
0.0
 40
91.44
  1
品番
 41
1.0625
  7
ＭＳ ゴシック
100
AcDbText
  0
TEXT
  5
330
330
1F
100
AcDbEntity
  8
F-A
  6
Continuous
 62
     7
370
     0
100
AcDbText
 10
-2210.000263935811
 20
3810.670775311442
 30
0.0
 40
91.44
  1
長さ×幅×厚さ(㎜)
 41
0.75
  7
ＭＳ ゴシック
100
AcDbText
  0
TEXT
  5
331
330
1F
100
AcDbEntity
  8
F-A
  6
Continuous
 62
     7
370
     0
100
AcDbText
 10
-372.5002639358101
 20
3810.670775311442
 30
0.0
 40
91.44
  1
単位
 41
1.0625
  7
ＭＳ ゴシック
100
AcDbText
  0
TEXT
  5
332
330
1F
100
AcDbEntity
  8
F-A
  6
Continuous
 62
     7
370
     0
100
AcDbText
 10
3635.000214447847
 20
3810.670775311442
 30
0.0
 40
91.44
  1
長さ×幅×厚さ(㎜)
 41
0.75
  7
ＭＳ ゴシック
100
AcDbText
  0
TEXT
  5
333
330
1F
100
AcDbEntity
  8
F-A
  6
Continuous
 62
     7
370
     0
100
AcDbText
 10
5472.500214447848
 20
3810.622524546028
 30
0.0
 40
91.44
  1
単位
 41
1.0625
  7
ＭＳ ゴシック
100
AcDbText
  0
TEXT
  5
334
330
1F
100
AcDbEntity
  8
F-A
  6
Continuous
 62
     7
370
     0
100
AcDbText
 10
90.00037115973441
 20
-3856.539622920078
 30
0.0
 40
45.72
  1
図面名
  7
ＭＳ ゴシック
100
AcDbText
  0
TEXT
  5
335
330
1F
100
AcDbEntity
  8
F-A
  6
Continuous
 62
     7
370
     0
100
AcDbText
 10
2929.999224688557
 20
-3856.542262665916
 30
0.0
 40
45.72
  1
ＳＣＡＬＥ
  7
ＭＳ ゴシック
100
AcDbText
  0
TEXT
  5
336
330
1F
100
AcDbEntity
  8
F-A
  6
Continuous
 62
     7
370
     0
100
AcDbText
 10
4429.999719568202
 20
-3856.543656898896
 30
0.0
 40
45.72
  1
ＤＡＴＥ
  7
ＭＳ ゴシック
100
AcDbText
  0
TEXT
  5
337
330
1F
100
AcDbEntity
  8
F-A
  6
Continuous
 62
     7
370
     0
100
AcDbText
 10
1330.418196783364
 20
-3912.309963647981
 30
0.0
 40
68.58
  1
洋風造作材
 41
1.133333333333333
  7
ＭＳ ゴシック
100
AcDbText
  0
TEXT
  5
338
330
1F
100
AcDbEntity
  8
F-A
  6
Continuous
 62
     7
370
     0
100
AcDbText
 10
3559.999472128379
 20
-3912.31291795545
 30
0.0
 40
68.58
  1
1/2
 41
1.111111111111111
  7
ＭＳ ゴシック
100
AcDbText
  0
TEXT
  5
339
330
1F
100
AcDbEntity
  8
F-A
  6
Continuous
 62
     7
370
     0
100
AcDbText
 10
500.0004123997047
 20
-3913.097093920645
 30
0.0
 40
66.06
  1
ＳＯＦＴＡＲＴ
 41
0.8333333333333334
  7
HG明朝B
100
AcDbText
  0
TEXT
  5
33A
330
1F
100
AcDbEntity
  8
F-A
  6
Continuous
 62
     7
370
     0
100
AcDbText
 10
-5089.999495325861
 20
-4012.309738126533
 30
0.0
 40
68.58
  1
ソフトアート　洋風造作材　窓枠Ａ型 115幅－170幅
 41
1.159574468085106
  7
ＭＳ ゴシック
100
AcDbText
  0
TEXT
  5
33B
330
1F
100
AcDbEntity
  8
F-A
  6
Continuous
 62
     7
370
     0
100
AcDbText
 10
2929.999224688557
 20
-4056.542265226002
 30
0.0
 40
45.72
  1
ＦＩＬＥ
  7
ＭＳ ゴシック
100
AcDbText
  0
TEXT
  5
33C
330
1F
100
AcDbEntity
  8
F-A
  6
Continuous
 62
     7
370
     0
100
AcDbText
 10
4429.999719568202
 20
-4056.543659458982
 30
0.0
 40
45.72
  1
ＮＯ．
  7
ＭＳ ゴシック
100
AcDbText
  0
TEXT
  5
33D
330
1F
100
AcDbEntity
  8
F-A
  6
Continuous
 62
     7
370
     0
100
AcDbText
 10
1384.999224688556
 20
-4065.54047131429
 30
0.0
 40
45.72
  1
株式
  7
ＭＳ ゴシック
100
AcDbText
  0
TEXT
  5
33E
330
1F
100
AcDbEntity
  8
F-A
  6
Continuous
 62
     7
370
     0
100
AcDbText
 10
1594.999224688556
 20
-4123.08218157207
 30
0.0
 40
91.44
  1
ウッドワン・・・
 41
1.109375
  7
ＭＳ ゴシック
100
AcDbText
  0
TEXT
  5
33F
330
1F
100
AcDbEntity
  8
F-A
  6
Continuous
 62
     7
370
     0
100
AcDbText
 10
1384.999224688556
 20
-4137.540471314329
 30
0.0
 40
45.72
  1
会社
  7
ＭＳ ゴシック
100
AcDbText
  0
TEXT
  5
340
330
1F
100
AcDbEntity
  8
F-A
  6
Continuous
 62
     7
370
     0
100
AcDbText
 10
5758.403805989357
 20
-4276.441058686677
 30
0.0
 40
68.58
  1
）
  7
ＭＳ ゴシック
100
AcDbText
  0
TEXT
  5
341
330
1F
100
AcDbEntity
  8
F-A
  6
Continuous
 62
     7
370
     0
100
AcDbText
 10
5340.196445721716
 20
-4277.835083535615
 30
0.0
 40
68.58
  1
,
  7
ＭＳ ゴシック
100
AcDbText
  0
TEXT
  5
342
330
1F
100
AcDbEntity
  8
F-A
  6
Continuous
 62
     7
370
     0
100
AcDbText
 10
5073.937756795019
 20
-4279.229106954041
 30
0.0
 40
68.58
  1
$y
 41
1.083333333333333
  7
ＭＳ ゴシック
100
AcDbText
  0
TEXT
  5
343
330
1F
100
AcDbEntity
  8
F-A
  6
Continuous
 62
     7
370
     0
100
AcDbText
 10
5228.67447783384
 20
-4279.229106954041
 30
0.0
 40
68.58
  1
$m
 41
1.083333333333333
  7
ＭＳ ゴシック
100
AcDbText
  0
TEXT
  5
344
330
1F
100
AcDbEntity
  8
F-A
  6
Continuous
 62
     7
370
     0
100
AcDbText
 10
5383.411210316748
 20
-4279.229106954041
 30
0.0
 40
68.58
  1
$d
 41
1.083333333333333
  7
ＭＳ ゴシック
100
AcDbText
  0
TEXT
  5
345
330
1F
100
AcDbEntity
  8
F-A
  6
Continuous
 62
     7
370
     0
100
AcDbText
 10
5538.147942799657
 20
-4279.229106954041
 30
0.0
 40
68.58
  1
印刷
 41
1.083333333333333
  7
ＭＳ ゴシック
100
AcDbText
  0
TEXT
  5
346
330
1F
100
AcDbEntity
  8
F-A
  6
Continuous
 62
     7
370
     0
100
AcDbText
 10
4934.033869132644
 20
-4280.62313323349
 30
0.0
 40
68.58
  1
（
  7
ＭＳ ゴシック
100
AcDbText
  0
TEXT
  5
347
330
1F
100
AcDbEntity
  8
F-A
  6
Continuous
 62
     7
370
     0
100
AcDbText
 10
5181.27763869199
 20
-4280.62313323349
 30
0.0
 40
68.58
  1
,
  7
ＭＳ ゴシック
100
AcDbText
  0
TEXT
  5
348
330
1F
100
AcDbEntity
  8
F-A
  6
Continuous
 62
     7
370
     9
100
AcDbText
 10
3349.999472128379
 20
-4112.312920515556
 30
0.0
 40
68.58
  1
FYZDE02_A03
 41
1.151515151515152
  7
ＭＳ ゴシック
100
AcDbText
  0
LINE
  5
349
330
1F
100
AcDbEntity
  8
0-4
  6
Continuous
 62
    92
370
    13
100
AcDbLine
 10
-2809.999898962074
 20
2837.964671621011
 30
0.0
 11
-2809.999898962074
 21
2845.464671621011
 31
0.0
  0
LINE
  5
34A
330
1F
100
AcDbEntity
  8
0-4
  6
Continuous
 62
    92
370
    13
100
AcDbLine
 10
-2809.999898962074
 20
2845.464671621011
 30
0.0
 11
-2667.499898962074
 21
2845.464671621011
 31
0.0
  0
LINE
  5
34B
330
1F
100
AcDbEntity
  8
0-4
  6
Continuous
 62
    92
370
    13
100
AcDbLine
 10
-4084.999898962074
 20
2845.464671621011
 30
0.0
 11
-4377.499898962074
 21
2845.464671621011
 31
0.0
  0
LINE
  5
34C
330
1F
100
AcDbEntity
  8
0-4
  6
Continuous
 62
    92
370
    13
100
AcDbLine
 10
-4084.999898962074
 20
2845.464671621011
 30
0.0
 11
-4084.999898962074
 21
2837.964671621011
 31
0.0
  0
LINE
  5
34D
330
1F
100
AcDbEntity
  8
0-4
  6
Continuous
 62
    92
370
    13
100
AcDbLine
 10
-2772.500826861408
 20
1581.899752660795
 30
0.0
 11
-2772.500826861408
 21
1589.399752660795
 31
0.0
  0
LINE
  5
34E
330
1F
100
AcDbEntity
  8
0-4
  6
Continuous
 62
    92
370
    13
100
AcDbLine
 10
-2772.500826861408
 20
1589.399752660795
 30
0.0
 11
-2630.000826861408
 21
1589.399752660795
 31
0.0
  0
LINE
  5
34F
330
1F
100
AcDbEntity
  8
0-4
  6
Continuous
 62
    92
370
    13
100
AcDbLine
 10
-2622.500826861408
 20
1581.899752660795
 30
0.0
 11
-4422.500826861407
 21
1581.899752660795
 31
0.0
  0
LINE
  5
350
330
1F
100
AcDbEntity
  8
0-4
  6
Continuous
 62
    92
370
    13
100
AcDbLine
 10
-4122.500826861407
 20
1589.399752660795
 30
0.0
 11
-4122.500826861407
 21
1581.899752660795
 31
0.0
  0
LINE
  5
351
330
1F
100
AcDbEntity
  8
0-4
  6
Continuous
 62
    92
370
    13
100
AcDbLine
 10
-4415.000826861407
 20
1589.399752660795
 30
0.0
 11
-4122.500826861407
 21
1589.399752660795
 31
0.0
  0
LINE
  5
352
330
1F
100
AcDbEntity
  8
0-4
  6
Continuous
 62
    92
370
    13
100
AcDbLine
 10
-2772.500826861408
 20
349.3635345439793
 30
0.0
 11
-2772.500826861408
 21
356.8635345439793
 31
0.0
  0
LINE
  5
353
330
1F
100
AcDbEntity
  8
0-4
  6
Continuous
 62
    92
370
    13
100
AcDbLine
 10
-2772.500826861408
 20
356.8635345439793
 30
0.0
 11
-2630.000826861408
 21
356.8635345439793
 31
0.0
  0
LINE
  5
354
330
1F
100
AcDbEntity
  8
0-4
  6
Continuous
 62
    92
370
    13
100
AcDbLine
 10
-4122.500826861407
 20
356.8635345439793
 30
0.0
 11
-4415.000826861407
 21
356.8635345439793
 31
0.0
  0
LINE
  5
355
330
1F
100
AcDbEntity
  8
0-4
  6
Continuous
 62
    92
370
    13
100
AcDbLine
 10
-4122.500826861407
 20
356.8635345439793
 30
0.0
 11
-4122.500826861407
 21
349.3635345439793
 31
0.0
  0
LINE
  5
356
330
1F
100
AcDbEntity
  8
0-4
  6
Continuous
 62
    92
370
    13
100
AcDbLine
 10
-2772.500826861408
 20
-882.4996198190229
 30
0.0
 11
-2772.500826861408
 21
-874.9996198190229
 31
0.0
  0
LINE
  5
357
330
1F
100
AcDbEntity
  8
0-4
  6
Continuous
 62
    92
370
    13
100
AcDbLine
 10
-2772.500826861408
 20
-874.9996198190229
 30
0.0
 11
-2630.000826861408
 21
-874.9996198190229
 31
0.0
  0
LINE
  5
358
330
1F
100
AcDbEntity
  8
0-4
  6
Continuous
 62
    92
370
    13
100
AcDbLine
 10
-4122.500826861407
 20
-874.9996198190229
 30
0.0
 11
-4415.000826861407
 21
-874.9996198190229
 31
0.0
  0
LINE
  5
359
330
1F
100
AcDbEntity
  8
0-4
  6
Continuous
 62
    92
370
    13
100
AcDbLine
 10
-4122.500826861407
 20
-874.9996198190229
 30
0.0
 11
-4122.500826861407
 21
-882.4996198190229
 31
0.0
  0
LINE
  5
35A
330
1F
100
AcDbEntity
  8
0-4
  6
Continuous
 62
    92
370
    13
100
AcDbLine
 10
-3438.099953026306
 20
-2132.499699721466
 30
0.0
 11
-4422.500826861407
 21
-2132.499699721466
 31
0.0
  0
LINE
  5
35B
330
1F
100
AcDbEntity
  8
0-4
  6
Continuous
 62
    92
370
    13
100
AcDbLine
 10
-4122.500826861407
 20
-2124.999699721466
 30
0.0
 11
-4122.500826861407
 21
-2132.499699721466
 31
0.0
  0
LINE
  5
35C
330
1F
100
AcDbEntity
  8
0-4
  6
Continuous
 62
    92
370
    13
100
AcDbLine
 10
-4415.000826861407
 20
-2124.999699721466
 30
0.0
 11
-4122.500826861407
 21
-2124.999699721466
 31
0.0
  0
LINE
  5
35D
330
1F
100
AcDbEntity
  8
0-4
  6
Continuous
 62
    92
370
    13
100
AcDbLine
 10
-2772.500826861408
 20
-2132.499699721466
 30
0.0
 11
-2772.500826861408
 21
-2124.999699721466
 31
0.0
  0
LINE
  5
35E
330
1F
100
AcDbEntity
  8
0-4
  6
Continuous
 62
    92
370
    13
100
AcDbLine
 10
-2772.500826861408
 20
-2124.999699721466
 30
0.0
 11
-2630.000826861408
 21
-2124.999699721466
 31
0.0
  0
LINE
  5
35F
330
1F
100
AcDbEntity
  8
0-4
  6
Continuous
 62
    92
370
    13
100
AcDbLine
 10
-4122.500826861407
 20
-3393.136705163351
 30
0.0
 11
-4122.500826861407
 21
-3400.636705163351
 31
0.0
  0
LINE
  5
360
330
1F
100
AcDbEntity
  8
0-4
  6
Continuous
 62
    92
370
    13
100
AcDbLine
 10
-3438.099953026306
 20
-3400.636705163351
 30
0.0
 11
-4422.500826861407
 21
-3400.636705163351
 31
0.0
  0
LINE
  5
361
330
1F
100
AcDbEntity
  8
0-4
  6
Continuous
 62
    92
370
    13
100
AcDbLine
 10
-4122.500826861407
 20
-3393.136705163351
 30
0.0
 11
-4415.000826861407
 21
-3393.136705163351
 31
0.0
  0
LINE
  5
362
330
1F
100
AcDbEntity
  8
0-4
  6
Continuous
 62
    92
370
    13
100
AcDbLine
 10
-2772.500826861408
 20
-3400.636705163351
 30
0.0
 11
-2772.500826861408
 21
-3393.136705163351
 31
0.0
  0
LINE
  5
363
330
1F
100
AcDbEntity
  8
0-4
  6
Continuous
 62
    92
370
    13
100
AcDbLine
 10
-2772.500826861408
 20
-3393.136705163351
 30
0.0
 11
-2630.000826861408
 21
-3393.136705163351
 31
0.0
  0
LINE
  5
364
330
1F
100
AcDbEntity
  8
0-4
  6
Continuous
 62
    92
370
    13
100
AcDbLine
 10
3072.500579421585
 20
2867.500619888306
 30
0.0
 11
3072.500579421585
 21
2875.000619888306
 31
0.0
  0
LINE
  5
365
330
1F
100
AcDbEntity
  8
0-4
  6
Continuous
 62
    92
370
    13
100
AcDbLine
 10
3072.500579421585
 20
2875.000619888306
 30
0.0
 11
3215.000579421585
 21
2875.000619888306
 31
0.0
  0
LINE
  5
366
330
1F
100
AcDbEntity
  8
0-4
  6
Continuous
 62
    92
370
    13
100
AcDbLine
 10
1722.500579421585
 20
2875.000619888306
 30
0.0
 11
1430.000579421585
 21
2875.000619888306
 31
0.0
  0
LINE
  5
367
330
1F
100
AcDbEntity
  8
0-4
  6
Continuous
 62
    92
370
    13
100
AcDbLine
 10
1722.500579421585
 20
2875.000619888306
 30
0.0
 11
1722.500579421585
 21
2867.500619888306
 31
0.0
  0
LINE
  5
368
330
1F
100
AcDbEntity
  8
0-4
  6
Continuous
 62
    92
370
    13
100
AcDbLine
 10
3072.500579421585
 20
1590.706954137713
 30
0.0
 11
3072.500579421585
 21
1598.206954137713
 31
0.0
  0
LINE
  5
369
330
1F
100
AcDbEntity
  8
0-4
  6
Continuous
 62
    92
370
    13
100
AcDbLine
 10
3072.500579421585
 20
1598.206954137713
 30
0.0
 11
3215.000579421585
 21
1598.206954137713
 31
0.0
  0
LINE
  5
36A
330
1F
100
AcDbEntity
  8
0-4
  6
Continuous
 62
    92
370
    13
100
AcDbLine
 10
1722.500579421585
 20
1598.206954137713
 30
0.0
 11
1430.000579421585
 21
1598.206954137713
 31
0.0
  0
LINE
  5
36B
330
1F
100
AcDbEntity
  8
0-4
  6
Continuous
 62
    92
370
    13
100
AcDbLine
 10
1722.500579421585
 20
1598.206954137713
 30
0.0
 11
1722.500579421585
 21
1590.706954137713
 31
0.0
  0
LINE
  5
36C
330
1F
100
AcDbEntity
  8
0-4
  6
Continuous
 62
    92
370
    13
100
AcDbLine
 10
1722.500579421585
 20
356.8635345439793
 30
0.0
 11
1430.000579421585
 21
356.8635345439793
 31
0.0
  0
LINE
  5
36D
330
1F
100
AcDbEntity
  8
0-4
  6
Continuous
 62
    92
370
    13
100
AcDbLine
 10
1722.500579421585
 20
356.8635345439793
 30
0.0
 11
1722.500579421585
 21
349.3635345439793
 31
0.0
  0
LINE
  5
36E
330
1F
100
AcDbEntity
  8
0-4
  6
Continuous
 62
    92
370
    13
100
AcDbLine
 10
3072.500579421585
 20
349.3635345439793
 30
0.0
 11
3072.500579421585
 21
356.8635345439793
 31
0.0
  0
LINE
  5
36F
330
1F
100
AcDbEntity
  8
0-4
  6
Continuous
 62
    92
370
    13
100
AcDbLine
 10
3072.500579421585
 20
356.8635345439793
 30
0.0
 11
3215.000579421585
 21
356.8635345439793
 31
0.0
  0
LINE
  5
370
330
1F
100
AcDbEntity
  8
0-4
  6
Continuous
 62
    92
370
    13
100
AcDbLine
 10
3072.500579421585
 20
-882.4996198190229
 30
0.0
 11
3072.500579421585
 21
-874.9996198190229
 31
0.0
  0
LINE
  5
371
330
1F
100
AcDbEntity
  8
0-4
  6
Continuous
 62
    92
370
    13
100
AcDbLine
 10
3072.500579421585
 20
-874.9996198190229
 30
0.0
 11
3215.000579421585
 21
-874.9996198190229
 31
0.0
  0
LINE
  5
372
330
1F
100
AcDbEntity
  8
0-4
  6
Continuous
 62
    92
370
    13
100
AcDbLine
 10
1722.500579421585
 20
-874.9996198190229
 30
0.0
 11
1722.500579421585
 21
-882.4996198190229
 31
0.0
  0
LINE
  5
373
330
1F
100
AcDbEntity
  8
0-4
  6
Continuous
 62
    92
370
    13
100
AcDbLine
 10
1722.500579421585
 20
-874.9996198190229
 30
0.0
 11
1430.000579421585
 21
-874.9996198190229
 31
0.0
  0
LINE
  5
374
330
1F
100
AcDbEntity
  8
0-4
  6
Continuous
 62
    92
370
    13
100
AcDbLine
 10
3072.500579421585
 20
-2132.499699721466
 30
0.0
 11
3072.500579421585
 21
-2124.999699721466
 31
0.0
  0
LINE
  5
375
330
1F
100
AcDbEntity
  8
0-4
  6
Continuous
 62
    92
370
    13
100
AcDbLine
 10
3072.500579421585
 20
-2124.999699721466
 30
0.0
 11
3215.000579421585
 21
-2124.999699721466
 31
0.0
  0
LINE
  5
376
330
1F
100
AcDbEntity
  8
0-4
  6
Continuous
 62
    92
370
    13
100
AcDbLine
 10
1722.500579421585
 20
-2124.999699721466
 30
0.0
 11
1430.000579421585
 21
-2124.999699721466
 31
0.0
  0
LINE
  5
377
330
1F
100
AcDbEntity
  8
0-4
  6
Continuous
 62
    92
370
    13
100
AcDbLine
 10
1722.500579421585
 20
-2124.999699721466
 30
0.0
 11
1722.500579421585
 21
-2132.499699721466
 31
0.0
  0
LINE
  5
378
330
1F
100
AcDbEntity
  8
0-4
  6
Continuous
 62
    92
370
    13
100
AcDbLine
 10
3072.500579421585
 20
-3403.108302734153
 30
0.0
 11
3072.500579421585
 21
-3395.608302734153
 31
0.0
  0
LINE
  5
379
330
1F
100
AcDbEntity
  8
0-4
  6
Continuous
 62
    92
370
    13
100
AcDbLine
 10
3072.500579421585
 20
-3395.608302734153
 30
0.0
 11
3215.000579421585
 21
-3395.608302734153
 31
0.0
  0
LINE
  5
37A
330
1F
100
AcDbEntity
  8
0-4
  6
Continuous
 62
    92
370
    13
100
AcDbLine
 10
1722.500579421585
 20
-3395.608302734153
 30
0.0
 11
1722.500579421585
 21
-3403.108302734153
 31
0.0
  0
LINE
  5
37B
330
1F
100
AcDbEntity
  8
0-4
  6
Continuous
 62
    92
370
    13
100
AcDbLine
 10
1722.500579421585
 20
-3395.608302734153
 30
0.0
 11
1430.000579421585
 21
-3395.608302734153
 31
0.0
  0
TEXT
  5
37C
330
1F
100
AcDbEntity
  8
0-A
  6
Continuous
 62
     7
370
     9
100
AcDbText
 10
-1325.000263935811
 20
3614.565654845624
 30
0.0
 40
68.58
  1
ＤＥＦ115Ａ-□
  7
ＭＳ ゴシック
100
AcDbText
  0
TEXT
  5
37D
330
1F
100
AcDbEntity
  8
0-A
  6
Continuous
 62
     7
370
     9
100
AcDbText
 10
-1325.000263935811
 20
3458.315644857818
 30
0.0
 40
68.58
  1
ＤＥＦ115Ａ1-□
  7
ＭＳ ゴシック
100
AcDbText
  0
TEXT
  5
37E
330
1F
100
AcDbEntity
  8
0-A
  6
Continuous
 62
     7
370
     9
100
AcDbText
 10
-1325.000263935811
 20
2364.565574943181
 30
0.0
 40
68.58
  1
ＤＥＦ120Ａ-□
  7
ＭＳ ゴシック
100
AcDbText
  0
TEXT
  5
37F
330
1F
100
AcDbEntity
  8
0-A
  6
Continuous
 62
     7
370
     9
100
AcDbText
 10
-1325.000263935811
 20
2208.315564955376
 30
0.0
 40
68.58
  1
ＤＥＦ120Ａ1-□
  7
ＭＳ ゴシック
100
AcDbText
  0
TEXT
  5
380
330
1F
100
AcDbEntity
  8
0-A
  6
Continuous
 62
     7
370
     9
100
AcDbText
 10
-1325.000263935811
 20
1108.315608772844
 30
0.0
 40
68.58
  1
ＤＥＦ125Ａ-□
  7
ＭＳ ゴシック
100
AcDbText
  0
TEXT
  5
381
330
1F
100
AcDbEntity
  8
0-A
  6
Continuous
 62
     7
370
     9
100
AcDbText
 10
-1325.000263935811
 20
958.3154850529326
 30
0.0
 40
68.58
  1
ＤＥＦ125Ａ1-□
  7
ＭＳ ゴシック
100
AcDbText
  0
TEXT
  5
382
330
1F
100
AcDbEntity
  8
0-A
  6
Continuous
 62
     7
370
     9
100
AcDbText
 10
-1325.000263935811
 20
-135.4345848617044
 30
0.0
 40
68.58
  1
ＤＥＦ130Ａ-□
  7
ＭＳ ゴシック
100
AcDbText
  0
TEXT
  5
383
330
1F
100
AcDbEntity
  8
0-A
  6
Continuous
 62
     7
370
     9
100
AcDbText
 10
-1325.000263935811
 20
-291.6845948495101
 30
0.0
 40
68.58
  1
ＤＥＦ130Ａ1-□
  7
ＭＳ ゴシック
100
AcDbText
  0
TEXT
  5
384
330
1F
100
AcDbEntity
  8
0-A
  6
Continuous
 62
     7
370
     9
100
AcDbText
 10
-1325.000263935811
 20
-1385.434664764147
 30
0.0
 40
68.58
  1
ＤＥＦ135Ａ-□
  7
ＭＳ ゴシック
100
AcDbText
  0
TEXT
  5
385
330
1F
100
AcDbEntity
  8
0-A
  6
Continuous
 62
     7
370
     9
100
AcDbText
 10
-1325.000263935811
 20
-1541.684674751953
 30
0.0
 40
68.58
  1
ＤＥＦ135Ａ1-□
  7
ＭＳ ゴシック
100
AcDbText
  0
TEXT
  5
386
330
1F
100
AcDbEntity
  8
0-A
  6
Continuous
 62
     7
370
     9
100
AcDbText
 10
-1325.000263935811
 20
-2635.434744666589
 30
0.0
 40
68.58
  1
ＤＥＦ140Ａ-□
  7
ＭＳ ゴシック
100
AcDbText
  0
TEXT
  5
387
330
1F
100
AcDbEntity
  8
0-A
  6
Continuous
 62
     7
370
     9
100
AcDbText
 10
-1325.000263935811
 20
-2791.684754654395
 30
0.0
 40
68.58
  1
ＤＥＦ140Ａ1-□
  7
ＭＳ ゴシック
100
AcDbText
  0
TEXT
  5
388
330
1F
100
AcDbEntity
  8
0-A
  6
Continuous
 62
     7
370
     9
100
AcDbText
 10
4520.000214447847
 20
3614.565654845624
 30
0.0
 40
68.58
  1
ＤＥＦ145Ａ-□
  7
ＭＳ ゴシック
100
AcDbText
  0
TEXT
  5
389
330
1F
100
AcDbEntity
  8
0-A
  6
Continuous
 62
     7
370
     9
100
AcDbText
 10
4520.000214447847
 20
3458.315644857818
 30
0.0
 40
68.58
  1
ＤＥＦ145Ａ1-□
  7
ＭＳ ゴシック
100
AcDbText
  0
TEXT
  5
38A
330
1F
100
AcDbEntity
  8
0-A
  6
Continuous
 62
     7
370
     9
100
AcDbText
 10
4520.000214447847
 20
2364.565574943181
 30
0.0
 40
68.58
  1
ＤＥＦ150Ａ-□
  7
ＭＳ ゴシック
100
AcDbText
  0
TEXT
  5
38B
330
1F
100
AcDbEntity
  8
0-A
  6
Continuous
 62
     7
370
     9
100
AcDbText
 10
4520.000214447847
 20
2208.315564955376
 30
0.0
 40
68.58
  1
ＤＥＦ150Ａ1-□
  7
ＭＳ ゴシック
100
AcDbText
  0
TEXT
  5
38C
330
1F
100
AcDbEntity
  8
0-A
  6
Continuous
 62
     7
370
     9
100
AcDbText
 10
4520.000214447847
 20
1114.565495040739
 30
0.0
 40
68.58
  1
ＤＥＦ155Ａ-□
  7
ＭＳ ゴシック
100
AcDbText
  0
TEXT
  5
38D
330
1F
100
AcDbEntity
  8
0-A
  6
Continuous
 62
     7
370
     9
100
AcDbText
 10
4520.000214447847
 20
958.3154850529334
 30
0.0
 40
68.58
  1
ＤＥＦ155Ａ1-□
  7
ＭＳ ゴシック
100
AcDbText
  0
TEXT
  5
38E
330
1F
100
AcDbEntity
  8
0-A
  6
Continuous
 62
     7
370
     9
100
AcDbText
 10
4520.000214447847
 20
-135.4345848617044
 30
0.0
 40
68.58
  1
ＤＥＦ160Ａ-□
  7
ＭＳ ゴシック
100
AcDbText
  0
TEXT
  5
38F
330
1F
100
AcDbEntity
  8
0-A
  6
Continuous
 62
     7
370
     9
100
AcDbText
 10
4520.000214447847
 20
-291.6845948495101
 30
0.0
 40
68.58
  1
ＤＥＦ160Ａ1-□
  7
ＭＳ ゴシック
100
AcDbText
  0
TEXT
  5
390
330
1F
100
AcDbEntity
  8
0-A
  6
Continuous
 62
     7
370
     9
100
AcDbText
 10
4520.000214447847
 20
-1385.434664764147
 30
0.0
 40
68.58
  1
ＤＥＦ165Ａ-□
  7
ＭＳ ゴシック
100
AcDbText
  0
TEXT
  5
391
330
1F
100
AcDbEntity
  8
0-A
  6
Continuous
 62
     7
370
     9
100
AcDbText
 10
4520.000214447847
 20
-1541.684674751953
 30
0.0
 40
68.58
  1
ＤＥＦ165Ａ1-□
  7
ＭＳ ゴシック
100
AcDbText
  0
TEXT
  5
392
330
1F
100
AcDbEntity
  8
0-A
  6
Continuous
 62
     7
370
     9
100
AcDbText
 10
4520.000214447847
 20
-2635.434744666589
 30
0.0
 40
68.58
  1
ＤＥＦ170Ａ-□
  7
ＭＳ ゴシック
100
AcDbText
  0
TEXT
  5
393
330
1F
100
AcDbEntity
  8
0-A
  6
Continuous
 62
     7
370
     9
100
AcDbText
 10
4520.000214447847
 20
-2791.684754654395
 30
0.0
 40
68.58
  1
ＤＥＦ170Ａ1-□
  7
ＭＳ ゴシック
100
AcDbText
  0
TEXT
  5
394
330
1F
100
AcDbEntity
  8
F-A
  6
Continuous
 62
     7
370
     0
100
AcDbText
 10
4928.749621409312
 20
-3904.814312188108
 30
0.0
 40
68.58
  1
2019.01.15
 41
1.15
  7
ＭＳ ゴシック
100
AcDbText
  0
LINE
  5
395
330
1F
100
AcDbEntity
  8
0-B
  6
Continuous
 62
   120
370
     5
100
AcDbLine
 10
-4384.999898962074
 20
2687.964671621011
 30
0.0
 11
-4084.999898962074
 21
2687.964671621011
 31
0.0
  0
LWPOLYLINE
  5
396
330
1F
100
AcDbEntity
  8
0-B
  6
Continuous
 62
     7
370
     9
100
AcDbPolyline
 90
        4
 70
     1
 43
6.0
 10
-4381.999898962074
 20
2687.964671621011
 42
0.4142135623731
 10
-4384.999898962074
 20
2690.964671621011
 42
0.4142135623731
 10
-4387.999898962074
 20
2687.964671621011
 42
0.4142135623731
 10
-4384.999898962074
 20
2684.964671621012
 42
0.4142135623731
  0
LWPOLYLINE
  5
397
330
1F
100
AcDbEntity
  8
0-B
  6
Continuous
 62
     7
370
     9
100
AcDbPolyline
 90
        4
 70
     1
 43
6.0
 10
-4081.999898962074
 20
2687.964671621011
 42
0.4142135623731
 10
-4084.999898962074
 20
2690.964671621011
 42
0.4142135623731
 10
-4087.999898962074
 20
2687.964671621011
 42
0.4142135623731
 10
-4084.999898962074
 20
2684.964671621012
 42
0.4142135623731
  0
LINE
  5
398
330
1F
100
AcDbEntity
  8
0-B
  6
Continuous
 62
   120
370
     5
100
AcDbLine
 10
-4384.999898962074
 20
2687.964671621011
 30
0.0
 11
-4384.999898962074
 21
2762.964671621011
 31
0.0
  0
LINE
  5
399
330
1F
100
AcDbEntity
  8
0-B
  6
Continuous
 62
   120
370
     5
100
AcDbLine
 10
-4084.999898962074
 20
2687.964671621011
 30
0.0
 11
-4084.999898962074
 21
2762.964671621011
 31
0.0
  0
TEXT
  5
39A
330
1F
100
AcDbEntity
  8
0-B
  6
Continuous
 62
     7
370
   211
100
AcDbText
 10
-4279.999898962074
 20
2715.654671621011
 30
0.0
 40
68.58
  1
20
  7
ＭＳ ゴシック
100
AcDbText
  0
LINE
  5
39B
330
1F
100
AcDbEntity
  8
0-B
  6
Continuous
 62
   120
370
     5
100
AcDbLine
 10
-4422.500826861407
 20
1431.899752660795
 30
0.0
 11
-4122.500826861407
 21
1431.899752660795
 31
0.0
  0
LWPOLYLINE
  5
39C
330
1F
100
AcDbEntity
  8
0-B
  6
Continuous
 62
     7
370
     9
100
AcDbPolyline
 90
        4
 70
     1
 43
6.0
 10
-4419.500826861408
 20
1431.899752660795
 42
0.4142135623731
 10
-4422.500826861407
 20
1434.899752660795
 42
0.4142135623731
 10
-4425.500826861407
 20
1431.899752660795
 42
0.4142135623731
 10
-4422.500826861407
 20
1428.899752660795
 42
0.4142135623731
  0
LWPOLYLINE
  5
39D
330
1F
100
AcDbEntity
  8
0-B
  6
Continuous
 62
     7
370
     9
100
AcDbPolyline
 90
        4
 70
     1
 43
6.0
 10
-4119.500826861408
 20
1431.899752660795
 42
0.4142135623731
 10
-4122.500826861407
 20
1434.899752660795
 42
0.4142135623731
 10
-4125.500826861407
 20
1431.899752660795
 42
0.4142135623731
 10
-4122.500826861407
 20
1428.899752660795
 42
0.4142135623731
  0
LINE
  5
39E
330
1F
100
AcDbEntity
  8
0-B
  6
Continuous
 62
   120
370
     5
100
AcDbLine
 10
-4422.500826861407
 20
1431.899752660795
 30
0.0
 11
-4422.500826861407
 21
1506.899752660795
 31
0.0
  0
LINE
  5
39F
330
1F
100
AcDbEntity
  8
0-B
  6
Continuous
 62
   120
370
     5
100
AcDbLine
 10
-4122.500826861407
 20
1431.899752660795
 30
0.0
 11
-4122.500826861407
 21
1506.899752660795
 31
0.0
  0
TEXT
  5
3A0
330
1F
100
AcDbEntity
  8
0-B
  6
Continuous
 62
     7
370
   211
100
AcDbText
 10
-4317.500826861407
 20
1459.589752660795
 30
0.0
 40
68.58
  1
20
  7
ＭＳ ゴシック
100
AcDbText
  0
LINE
  5
3A1
330
1F
100
AcDbEntity
  8
0-B
  6
Continuous
 62
   120
370
     5
100
AcDbLine
 10
1422.500579421585
 20
2717.500619888306
 30
0.0
 11
1722.500579421585
 21
2717.500619888306
 31
0.0
  0
LWPOLYLINE
  5
3A2
330
1F
100
AcDbEntity
  8
0-B
  6
Continuous
 62
     7
370
     9
100
AcDbPolyline
 90
        4
 70
     1
 43
6.0
 10
1425.500579421585
 20
2717.500619888306
 42
0.4142135623731
 10
1422.500579421585
 20
2720.500619888306
 42
0.4142135623731
 10
1419.500579421585
 20
2717.500619888306
 42
0.4142135623731
 10
1422.500579421585
 20
2714.500619888306
 42
0.4142135623731
  0
LWPOLYLINE
  5
3A3
330
1F
100
AcDbEntity
  8
0-B
  6
Continuous
 62
     7
370
     9
100
AcDbPolyline
 90
        4
 70
     1
 43
6.0
 10
1725.500579421585
 20
2717.500619888306
 42
0.4142135623731
 10
1722.500579421585
 20
2720.500619888306
 42
0.4142135623731
 10
1719.500579421585
 20
2717.500619888306
 42
0.4142135623731
 10
1722.500579421585
 20
2714.500619888306
 42
0.4142135623731
  0
LINE
  5
3A4
330
1F
100
AcDbEntity
  8
0-B
  6
Continuous
 62
   120
370
     5
100
AcDbLine
 10
1422.500579421585
 20
2717.500619888306
 30
0.0
 11
1422.500579421585
 21
2792.500619888306
 31
0.0
  0
LINE
  5
3A5
330
1F
100
AcDbEntity
  8
0-B
  6
Continuous
 62
   120
370
     5
100
AcDbLine
 10
1722.500579421585
 20
2717.500619888306
 30
0.0
 11
1722.500579421585
 21
2792.500619888306
 31
0.0
  0
TEXT
  5
3A6
330
1F
100
AcDbEntity
  8
0-B
  6
Continuous
 62
     7
370
   211
100
AcDbText
 10
1527.500579421585
 20
2745.190619888306
 30
0.0
 40
68.58
  1
20
  7
ＭＳ ゴシック
100
AcDbText
  0
LINE
  5
3A7
330
1F
100
AcDbEntity
  8
0-B
  6
Continuous
 62
   120
370
     5
100
AcDbLine
 10
1430.000579421585
 20
1448.206954137713
 30
0.0
 11
1730.000579421585
 21
1448.206954137713
 31
0.0
  0
LWPOLYLINE
  5
3A8
330
1F
100
AcDbEntity
  8
0-B
  6
Continuous
 62
     7
370
     9
100
AcDbPolyline
 90
        4
 70
     1
 43
6.0
 10
1433.000579421585
 20
1448.206954137713
 42
0.4142135623731
 10
1430.000579421585
 20
1451.206954137713
 42
0.4142135623731
 10
1427.000579421585
 20
1448.206954137713
 42
0.4142135623731
 10
1430.000579421585
 20
1445.206954137713
 42
0.4142135623731
  0
LWPOLYLINE
  5
3A9
330
1F
100
AcDbEntity
  8
0-B
  6
Continuous
 62
     7
370
     9
100
AcDbPolyline
 90
        4
 70
     1
 43
6.0
 10
1733.000579421585
 20
1448.206954137713
 42
0.4142135623731
 10
1730.000579421585
 20
1451.206954137713
 42
0.4142135623731
 10
1727.000579421585
 20
1448.206954137713
 42
0.4142135623731
 10
1730.000579421585
 20
1445.206954137713
 42
0.4142135623731
  0
LINE
  5
3AA
330
1F
100
AcDbEntity
  8
0-B
  6
Continuous
 62
   120
370
     5
100
AcDbLine
 10
1430.000579421585
 20
1448.206954137713
 30
0.0
 11
1430.000579421585
 21
1523.206954137713
 31
0.0
  0
LINE
  5
3AB
330
1F
100
AcDbEntity
  8
0-B
  6
Continuous
 62
   120
370
     5
100
AcDbLine
 10
1730.000579421585
 20
1448.206954137713
 30
0.0
 11
1730.000579421585
 21
1523.206954137713
 31
0.0
  0
TEXT
  5
3AC
330
1F
100
AcDbEntity
  8
0-B
  6
Continuous
 62
     7
370
   211
100
AcDbText
 10
1535.000579421585
 20
1475.896954137713
 30
0.0
 40
68.58
  1
20
  7
ＭＳ ゴシック
100
AcDbText
  0
LINE
  5
3AD
330
1F
100
AcDbEntity
  8
0-B
  6
Continuous
 62
   120
370
     5
100
AcDbLine
 10
1422.500579421585
 20
199.3635345439793
 30
0.0
 11
1722.500579421585
 21
199.3635345439793
 31
0.0
  0
LWPOLYLINE
  5
3AE
330
1F
100
AcDbEntity
  8
0-B
  6
Continuous
 62
     7
370
     9
100
AcDbPolyline
 90
        4
 70
     1
 43
6.0
 10
1425.500579421585
 20
199.3635345439793
 42
0.4142135623731
 10
1422.500579421585
 20
202.3635345439793
 42
0.4142135623731
 10
1419.500579421585
 20
199.3635345439793
 42
0.4142135623731
 10
1422.500579421585
 20
196.3635345439793
 42
0.4142135623731
  0
LWPOLYLINE
  5
3AF
330
1F
100
AcDbEntity
  8
0-B
  6
Continuous
 62
     7
370
     9
100
AcDbPolyline
 90
        4
 70
     1
 43
6.0
 10
1725.500579421585
 20
199.3635345439793
 42
0.4142135623731
 10
1722.500579421585
 20
202.3635345439793
 42
0.4142135623731
 10
1719.500579421585
 20
199.3635345439793
 42
0.4142135623731
 10
1722.500579421585
 20
196.3635345439793
 42
0.4142135623731
  0
LINE
  5
3B0
330
1F
100
AcDbEntity
  8
0-B
  6
Continuous
 62
   120
370
     5
100
AcDbLine
 10
1422.500579421585
 20
199.3635345439793
 30
0.0
 11
1422.500579421585
 21
274.3635345439793
 31
0.0
  0
LINE
  5
3B1
330
1F
100
AcDbEntity
  8
0-B
  6
Continuous
 62
   120
370
     5
100
AcDbLine
 10
1722.500579421585
 20
199.3635345439793
 30
0.0
 11
1722.500579421585
 21
274.3635345439793
 31
0.0
  0
TEXT
  5
3B2
330
1F
100
AcDbEntity
  8
0-B
  6
Continuous
 62
     7
370
   211
100
AcDbText
 10
1527.500579421585
 20
227.0535345439793
 30
0.0
 40
68.58
  1
20
  7
ＭＳ ゴシック
100
AcDbText
  0
LINE
  5
3B3
330
1F
100
AcDbEntity
  8
0-B
  6
Continuous
 62
   120
370
     5
100
AcDbLine
 10
-4422.500826861407
 20
199.3635345439793
 30
0.0
 11
-4122.500826861407
 21
199.3635345439793
 31
0.0
  0
LWPOLYLINE
  5
3B4
330
1F
100
AcDbEntity
  8
0-B
  6
Continuous
 62
     7
370
     9
100
AcDbPolyline
 90
        4
 70
     1
 43
6.0
 10
-4419.500826861408
 20
199.3635345439793
 42
0.4142135623731
 10
-4422.500826861407
 20
202.3635345439793
 42
0.4142135623731
 10
-4425.500826861407
 20
199.3635345439793
 42
0.4142135623731
 10
-4422.500826861407
 20
196.3635345439793
 42
0.4142135623731
  0
LWPOLYLINE
  5
3B5
330
1F
100
AcDbEntity
  8
0-B
  6
Continuous
 62
     7
370
     9
100
AcDbPolyline
 90
        4
 70
     1
 43
6.0
 10
-4119.500826861408
 20
199.3635345439793
 42
0.4142135623731
 10
-4122.500826861407
 20
202.3635345439793
 42
0.4142135623731
 10
-4125.500826861407
 20
199.3635345439793
 42
0.4142135623731
 10
-4122.500826861407
 20
196.3635345439793
 42
0.4142135623731
  0
LINE
  5
3B6
330
1F
100
AcDbEntity
  8
0-B
  6
Continuous
 62
   120
370
     5
100
AcDbLine
 10
-4422.500826861407
 20
199.3635345439793
 30
0.0
 11
-4422.500826861407
 21
274.3635345439793
 31
0.0
  0
LINE
  5
3B7
330
1F
100
AcDbEntity
  8
0-B
  6
Continuous
 62
   120
370
     5
100
AcDbLine
 10
-4122.500826861407
 20
199.3635345439793
 30
0.0
 11
-4122.500826861407
 21
274.3635345439793
 31
0.0
  0
TEXT
  5
3B8
330
1F
100
AcDbEntity
  8
0-B
  6
Continuous
 62
     7
370
   211
100
AcDbText
 10
-4317.500826861407
 20
227.0535345439793
 30
0.0
 40
68.58
  1
20
  7
ＭＳ ゴシック
100
AcDbText
  0
LINE
  5
3B9
330
1F
100
AcDbEntity
  8
0-B
  6
Continuous
 62
   120
370
     5
100
AcDbLine
 10
1430.000579421585
 20
-1024.999619819023
 30
0.0
 11
1730.000579421585
 21
-1024.999619819023
 31
0.0
  0
LWPOLYLINE
  5
3BA
330
1F
100
AcDbEntity
  8
0-B
  6
Continuous
 62
     7
370
     9
100
AcDbPolyline
 90
        4
 70
     1
 43
6.0
 10
1433.000579421585
 20
-1024.999619819023
 42
0.4142135623731
 10
1430.000579421585
 20
-1021.999619819023
 42
0.4142135623731
 10
1427.000579421585
 20
-1024.999619819023
 42
0.4142135623731
 10
1430.000579421585
 20
-1027.999619819023
 42
0.4142135623731
  0
LWPOLYLINE
  5
3BB
330
1F
100
AcDbEntity
  8
0-B
  6
Continuous
 62
     7
370
     9
100
AcDbPolyline
 90
        4
 70
     1
 43
6.0
 10
1733.000579421585
 20
-1024.999619819023
 42
0.4142135623731
 10
1730.000579421585
 20
-1021.999619819023
 42
0.4142135623731
 10
1727.000579421585
 20
-1024.999619819023
 42
0.4142135623731
 10
1730.000579421585
 20
-1027.999619819023
 42
0.4142135623731
  0
LINE
  5
3BC
330
1F
100
AcDbEntity
  8
0-B
  6
Continuous
 62
   120
370
     5
100
AcDbLine
 10
1430.000579421585
 20
-1024.999619819023
 30
0.0
 11
1430.000579421585
 21
-949.9996198190229
 31
0.0
  0
LINE
  5
3BD
330
1F
100
AcDbEntity
  8
0-B
  6
Continuous
 62
   120
370
     5
100
AcDbLine
 10
1730.000579421585
 20
-1024.999619819023
 30
0.0
 11
1730.000579421585
 21
-949.9996198190229
 31
0.0
  0
TEXT
  5
3BE
330
1F
100
AcDbEntity
  8
0-B
  6
Continuous
 62
     7
370
   211
100
AcDbText
 10
1535.000579421585
 20
-997.3096198190228
 30
0.0
 40
68.58
  1
20
  7
ＭＳ ゴシック
100
AcDbText
  0
LINE
  5
3BF
330
1F
100
AcDbEntity
  8
0-B
  6
Continuous
 62
   120
370
     5
100
AcDbLine
 10
1422.500579421585
 20
-2282.499699721466
 30
0.0
 11
1722.500579421585
 21
-2282.499699721466
 31
0.0
  0
LWPOLYLINE
  5
3C0
330
1F
100
AcDbEntity
  8
0-B
  6
Continuous
 62
     7
370
     9
100
AcDbPolyline
 90
        4
 70
     1
 43
6.0
 10
1425.500579421585
 20
-2282.499699721466
 42
0.4142135623731
 10
1422.500579421585
 20
-2279.499699721467
 42
0.4142135623731
 10
1419.500579421585
 20
-2282.499699721466
 42
0.4142135623731
 10
1422.500579421585
 20
-2285.499699721466
 42
0.4142135623731
  0
LWPOLYLINE
  5
3C1
330
1F
100
AcDbEntity
  8
0-B
  6
Continuous
 62
     7
370
     9
100
AcDbPolyline
 90
        4
 70
     1
 43
6.0
 10
1725.500579421585
 20
-2282.499699721466
 42
0.4142135623731
 10
1722.500579421585
 20
-2279.499699721467
 42
0.4142135623731
 10
1719.500579421585
 20
-2282.499699721466
 42
0.4142135623731
 10
1722.500579421585
 20
-2285.499699721466
 42
0.4142135623731
  0
LINE
  5
3C2
330
1F
100
AcDbEntity
  8
0-B
  6
Continuous
 62
   120
370
     5
100
AcDbLine
 10
1422.500579421585
 20
-2282.499699721466
 30
0.0
 11
1422.500579421585
 21
-2207.499699721466
 31
0.0
  0
LINE
  5
3C3
330
1F
100
AcDbEntity
  8
0-B
  6
Continuous
 62
   120
370
     5
100
AcDbLine
 10
1722.500579421585
 20
-2282.499699721466
 30
0.0
 11
1722.500579421585
 21
-2207.499699721466
 31
0.0
  0
TEXT
  5
3C4
330
1F
100
AcDbEntity
  8
0-B
  6
Continuous
 62
     7
370
   211
100
AcDbText
 10
1527.500579421585
 20
-2254.809699721466
 30
0.0
 40
68.58
  1
20
  7
ＭＳ ゴシック
100
AcDbText
  0
LINE
  5
3C5
330
1F
100
AcDbEntity
  8
0-B
  6
Continuous
 62
   120
370
     5
100
AcDbLine
 10
-4422.500826861407
 20
-1032.499619819023
 30
0.0
 11
-4122.500826861407
 21
-1032.499619819023
 31
0.0
  0
LWPOLYLINE
  5
3C6
330
1F
100
AcDbEntity
  8
0-B
  6
Continuous
 62
     7
370
     9
100
AcDbPolyline
 90
        4
 70
     1
 43
6.0
 10
-4419.500826861408
 20
-1032.499619819023
 42
0.4142135623731
 10
-4422.500826861407
 20
-1029.499619819023
 42
0.4142135623731
 10
-4425.500826861407
 20
-1032.499619819023
 42
0.4142135623731
 10
-4422.500826861407
 20
-1035.499619819023
 42
0.4142135623731
  0
LWPOLYLINE
  5
3C7
330
1F
100
AcDbEntity
  8
0-B
  6
Continuous
 62
     7
370
     9
100
AcDbPolyline
 90
        4
 70
     1
 43
6.0
 10
-4119.500826861408
 20
-1032.499619819023
 42
0.4142135623731
 10
-4122.500826861407
 20
-1029.499619819023
 42
0.4142135623731
 10
-4125.500826861407
 20
-1032.499619819023
 42
0.4142135623731
 10
-4122.500826861407
 20
-1035.499619819023
 42
0.4142135623731
  0
LINE
  5
3C8
330
1F
100
AcDbEntity
  8
0-B
  6
Continuous
 62
   120
370
     5
100
AcDbLine
 10
-4422.500826861407
 20
-1032.499619819023
 30
0.0
 11
-4422.500826861407
 21
-957.4996198190229
 31
0.0
  0
LINE
  5
3C9
330
1F
100
AcDbEntity
  8
0-B
  6
Continuous
 62
   120
370
     5
100
AcDbLine
 10
-4122.500826861407
 20
-1032.499619819023
 30
0.0
 11
-4122.500826861407
 21
-957.4996198190229
 31
0.0
  0
TEXT
  5
3CA
330
1F
100
AcDbEntity
  8
0-B
  6
Continuous
 62
     7
370
   211
100
AcDbText
 10
-4317.500826861407
 20
-1004.809619819023
 30
0.0
 40
68.58
  1
20
  7
ＭＳ ゴシック
100
AcDbText
  0
LINE
  5
3CB
330
1F
100
AcDbEntity
  8
0-B
  6
Continuous
 62
   120
370
     5
100
AcDbLine
 10
-4422.500826861407
 20
-2282.499699721465
 30
0.0
 11
-4122.500826861407
 21
-2282.499699721465
 31
0.0
  0
LWPOLYLINE
  5
3CC
330
1F
100
AcDbEntity
  8
0-B
  6
Continuous
 62
     7
370
     9
100
AcDbPolyline
 90
        4
 70
     1
 43
6.0
 10
-4419.500826861408
 20
-2282.499699721465
 42
0.4142135623731
 10
-4422.500826861407
 20
-2279.499699721466
 42
0.4142135623731
 10
-4425.500826861407
 20
-2282.499699721465
 42
0.4142135623731
 10
-4422.500826861407
 20
-2285.499699721465
 42
0.4142135623731
  0
LWPOLYLINE
  5
3CD
330
1F
100
AcDbEntity
  8
0-B
  6
Continuous
 62
     7
370
     9
100
AcDbPolyline
 90
        4
 70
     1
 43
6.0
 10
-4119.500826861408
 20
-2282.499699721465
 42
0.4142135623731
 10
-4122.500826861407
 20
-2279.499699721466
 42
0.4142135623731
 10
-4125.500826861407
 20
-2282.499699721465
 42
0.4142135623731
 10
-4122.500826861407
 20
-2285.499699721465
 42
0.4142135623731
  0
LINE
  5
3CE
330
1F
100
AcDbEntity
  8
0-B
  6
Continuous
 62
   120
370
     5
100
AcDbLine
 10
-4422.500826861407
 20
-2282.499699721465
 30
0.0
 11
-4422.500826861407
 21
-2207.499699721465
 31
0.0
  0
LINE
  5
3CF
330
1F
100
AcDbEntity
  8
0-B
  6
Continuous
 62
   120
370
     5
100
AcDbLine
 10
-4122.500826861407
 20
-2282.499699721465
 30
0.0
 11
-4122.500826861407
 21
-2207.499699721465
 31
0.0
  0
TEXT
  5
3D0
330
1F
100
AcDbEntity
  8
0-B
  6
Continuous
 62
     7
370
   211
100
AcDbText
 10
-4317.500826861407
 20
-2254.809699721465
 30
0.0
 40
68.58
  1
20
  7
ＭＳ ゴシック
100
AcDbText
  0
LINE
  5
3D1
330
1F
100
AcDbEntity
  8
0-B
  6
Continuous
 62
   120
370
     5
100
AcDbLine
 10
-4422.500826861407
 20
-3550.63670516335
 30
0.0
 11
-4122.500826861407
 21
-3550.63670516335
 31
0.0
  0
LWPOLYLINE
  5
3D2
330
1F
100
AcDbEntity
  8
0-B
  6
Continuous
 62
     7
370
     9
100
AcDbPolyline
 90
        4
 70
     1
 43
6.0
 10
-4419.500826861408
 20
-3550.63670516335
 42
0.4142135623731
 10
-4422.500826861407
 20
-3547.63670516335
 42
0.4142135623731
 10
-4425.500826861407
 20
-3550.63670516335
 42
0.4142135623731
 10
-4422.500826861407
 20
-3553.63670516335
 42
0.4142135623731
  0
LWPOLYLINE
  5
3D3
330
1F
100
AcDbEntity
  8
0-B
  6
Continuous
 62
     7
370
     9
100
AcDbPolyline
 90
        4
 70
     1
 43
6.0
 10
-4119.500826861408
 20
-3550.63670516335
 42
0.4142135623731
 10
-4122.500826861407
 20
-3547.63670516335
 42
0.4142135623731
 10
-4125.500826861407
 20
-3550.63670516335
 42
0.4142135623731
 10
-4122.500826861407
 20
-3553.63670516335
 42
0.4142135623731
  0
LINE
  5
3D4
330
1F
100
AcDbEntity
  8
0-B
  6
Continuous
 62
   120
370
     5
100
AcDbLine
 10
-4422.500826861407
 20
-3550.63670516335
 30
0.0
 11
-4422.500826861407
 21
-3475.63670516335
 31
0.0
  0
LINE
  5
3D5
330
1F
100
AcDbEntity
  8
0-B
  6
Continuous
 62
   120
370
     5
100
AcDbLine
 10
-4122.500826861407
 20
-3550.63670516335
 30
0.0
 11
-4122.500826861407
 21
-3475.63670516335
 31
0.0
  0
TEXT
  5
3D6
330
1F
100
AcDbEntity
  8
0-B
  6
Continuous
 62
     7
370
   211
100
AcDbText
 10
-4317.500826861407
 20
-3522.94670516335
 30
0.0
 40
68.58
  1
20
  7
ＭＳ ゴシック
100
AcDbText
  0
LINE
  5
3D7
330
1F
100
AcDbEntity
  8
0-B
  6
Continuous
 62
   120
370
     5
100
AcDbLine
 10
1422.500579421585
 20
-3553.108302734153
 30
0.0
 11
1722.500579421585
 21
-3553.108302734153
 31
0.0
  0
LWPOLYLINE
  5
3D8
330
1F
100
AcDbEntity
  8
0-B
  6
Continuous
 62
     7
370
     9
100
AcDbPolyline
 90
        4
 70
     1
 43
6.0
 10
1425.500579421585
 20
-3553.108302734153
 42
0.4142135623731
 10
1422.500579421585
 20
-3550.108302734153
 42
0.4142135623731
 10
1419.500579421585
 20
-3553.108302734153
 42
0.4142135623731
 10
1422.500579421585
 20
-3556.108302734153
 42
0.4142135623731
  0
LWPOLYLINE
  5
3D9
330
1F
100
AcDbEntity
  8
0-B
  6
Continuous
 62
     7
370
     9
100
AcDbPolyline
 90
        4
 70
     1
 43
6.0
 10
1725.500579421585
 20
-3553.108302734153
 42
0.4142135623731
 10
1722.500579421585
 20
-3550.108302734153
 42
0.4142135623731
 10
1719.500579421585
 20
-3553.108302734153
 42
0.4142135623731
 10
1722.500579421585
 20
-3556.108302734153
 42
0.4142135623731
  0
LINE
  5
3DA
330
1F
100
AcDbEntity
  8
0-B
  6
Continuous
 62
   120
370
     5
100
AcDbLine
 10
1422.500579421585
 20
-3553.108302734153
 30
0.0
 11
1422.500579421585
 21
-3478.108302734153
 31
0.0
  0
LINE
  5
3DB
330
1F
100
AcDbEntity
  8
0-B
  6
Continuous
 62
   120
370
     5
100
AcDbLine
 10
1722.500579421585
 20
-3553.108302734153
 30
0.0
 11
1722.500579421585
 21
-3478.108302734153
 31
0.0
  0
TEXT
  5
3DC
330
1F
100
AcDbEntity
  8
0-B
  6
Continuous
 62
     7
370
   211
100
AcDbText
 10
1527.500579421585
 20
-3525.418302734153
 30
0.0
 40
68.58
  1
20
  7
ＭＳ ゴシック
100
AcDbText
  0
LINE
  5
3DD
330
1F
100
AcDbEntity
  8
0-B
  6
Continuous
 62
   120
370
     5
100
AcDbLine
 10
-2809.999898962074
 20
2687.964671621011
 30
0.0
 11
-2659.999898962074
 21
2687.964671621011
 31
0.0
  0
LWPOLYLINE
  5
3DE
330
1F
100
AcDbEntity
  8
0-B
  6
Continuous
 62
     7
370
     9
100
AcDbPolyline
 90
        4
 70
     1
 43
6.0
 10
-2806.999898962074
 20
2687.964671621011
 42
0.4142135623731
 10
-2809.999898962074
 20
2690.964671621011
 42
0.4142135623731
 10
-2812.999898962074
 20
2687.964671621011
 42
0.4142135623731
 10
-2809.999898962074
 20
2684.964671621012
 42
0.4142135623731
  0
LWPOLYLINE
  5
3DF
330
1F
100
AcDbEntity
  8
0-B
  6
Continuous
 62
     7
370
     9
100
AcDbPolyline
 90
        4
 70
     1
 43
6.0
 10
-2656.999898962074
 20
2687.964671621011
 42
0.4142135623731
 10
-2659.999898962074
 20
2690.964671621011
 42
0.4142135623731
 10
-2662.999898962074
 20
2687.964671621011
 42
0.4142135623731
 10
-2659.999898962074
 20
2684.964671621012
 42
0.4142135623731
  0
LINE
  5
3E0
330
1F
100
AcDbEntity
  8
0-B
  6
Continuous
 62
   120
370
     5
100
AcDbLine
 10
-2809.999898962074
 20
2687.964671621011
 30
0.0
 11
-2809.999898962074
 21
2762.964671621011
 31
0.0
  0
LINE
  5
3E1
330
1F
100
AcDbEntity
  8
0-B
  6
Continuous
 62
   120
370
     5
100
AcDbLine
 10
-2659.999898962074
 20
2687.964671621011
 30
0.0
 11
-2659.999898962074
 21
2762.964671621011
 31
0.0
  0
TEXT
  5
3E2
330
1F
100
AcDbEntity
  8
0-B
  6
Continuous
 62
     7
370
   211
100
AcDbText
 10
-2779.999898962074
 20
2715.654671621011
 30
0.0
 40
68.58
  1
10
  7
ＭＳ ゴシック
100
AcDbText
  0
LINE
  5
3E3
330
1F
100
AcDbEntity
  8
0-B
  6
Continuous
 62
   120
370
     5
100
AcDbLine
 10
-2772.500826861408
 20
1431.899752660795
 30
0.0
 11
-2622.500826861408
 21
1431.899752660795
 31
0.0
  0
LWPOLYLINE
  5
3E4
330
1F
100
AcDbEntity
  8
0-B
  6
Continuous
 62
     7
370
     9
100
AcDbPolyline
 90
        4
 70
     1
 43
6.0
 10
-2769.500826861408
 20
1431.899752660795
 42
0.4142135623731
 10
-2772.500826861408
 20
1434.899752660795
 42
0.4142135623731
 10
-2775.500826861408
 20
1431.899752660795
 42
0.4142135623731
 10
-2772.500826861408
 20
1428.899752660795
 42
0.4142135623731
  0
LWPOLYLINE
  5
3E5
330
1F
100
AcDbEntity
  8
0-B
  6
Continuous
 62
     7
370
     9
100
AcDbPolyline
 90
        4
 70
     1
 43
6.0
 10
-2619.500826861408
 20
1431.899752660795
 42
0.4142135623731
 10
-2622.500826861408
 20
1434.899752660795
 42
0.4142135623731
 10
-2625.500826861408
 20
1431.899752660795
 42
0.4142135623731
 10
-2622.500826861408
 20
1428.899752660795
 42
0.4142135623731
  0
LINE
  5
3E6
330
1F
100
AcDbEntity
  8
0-B
  6
Continuous
 62
   120
370
     5
100
AcDbLine
 10
-2772.500826861408
 20
1431.899752660795
 30
0.0
 11
-2772.500826861408
 21
1506.899752660795
 31
0.0
  0
LINE
  5
3E7
330
1F
100
AcDbEntity
  8
0-B
  6
Continuous
 62
   120
370
     5
100
AcDbLine
 10
-2622.500826861408
 20
1431.899752660795
 30
0.0
 11
-2622.500826861408
 21
1506.899752660795
 31
0.0
  0
TEXT
  5
3E8
330
1F
100
AcDbEntity
  8
0-B
  6
Continuous
 62
     7
370
   211
100
AcDbText
 10
-2742.500826861408
 20
1459.589752660795
 30
0.0
 40
68.58
  1
10
  7
ＭＳ ゴシック
100
AcDbText
  0
LINE
  5
3E9
330
1F
100
AcDbEntity
  8
0-B
  6
Continuous
 62
   120
370
     5
100
AcDbLine
 10
-2772.500826861408
 20
199.3635345439793
 30
0.0
 11
-2622.500826861408
 21
199.3635345439793
 31
0.0
  0
LWPOLYLINE
  5
3EA
330
1F
100
AcDbEntity
  8
0-B
  6
Continuous
 62
     7
370
     9
100
AcDbPolyline
 90
        4
 70
     1
 43
6.0
 10
-2769.500826861408
 20
199.3635345439793
 42
0.4142135623731
 10
-2772.500826861408
 20
202.3635345439793
 42
0.4142135623731
 10
-2775.500826861408
 20
199.3635345439793
 42
0.4142135623731
 10
-2772.500826861408
 20
196.3635345439793
 42
0.4142135623731
  0
LWPOLYLINE
  5
3EB
330
1F
100
AcDbEntity
  8
0-B
  6
Continuous
 62
     7
370
     9
100
AcDbPolyline
 90
        4
 70
     1
 43
6.0
 10
-2619.500826861408
 20
199.3635345439793
 42
0.4142135623731
 10
-2622.500826861408
 20
202.3635345439793
 42
0.4142135623731
 10
-2625.500826861408
 20
199.3635345439793
 42
0.4142135623731
 10
-2622.500826861408
 20
196.3635345439793
 42
0.4142135623731
  0
LINE
  5
3EC
330
1F
100
AcDbEntity
  8
0-B
  6
Continuous
 62
   120
370
     5
100
AcDbLine
 10
-2772.500826861408
 20
199.3635345439793
 30
0.0
 11
-2772.500826861408
 21
274.3635345439793
 31
0.0
  0
LINE
  5
3ED
330
1F
100
AcDbEntity
  8
0-B
  6
Continuous
 62
   120
370
     5
100
AcDbLine
 10
-2622.500826861408
 20
199.3635345439793
 30
0.0
 11
-2622.500826861408
 21
274.3635345439793
 31
0.0
  0
TEXT
  5
3EE
330
1F
100
AcDbEntity
  8
0-B
  6
Continuous
 62
     7
370
   211
100
AcDbText
 10
-2742.500826861408
 20
227.0535345439793
 30
0.0
 40
68.58
  1
10
  7
ＭＳ ゴシック
100
AcDbText
  0
LINE
  5
3EF
330
1F
100
AcDbEntity
  8
0-B
  6
Continuous
 62
   120
370
     5
100
AcDbLine
 10
-2772.500826861408
 20
-1032.499619819023
 30
0.0
 11
-2622.500826861408
 21
-1032.499619819023
 31
0.0
  0
LWPOLYLINE
  5
3F0
330
1F
100
AcDbEntity
  8
0-B
  6
Continuous
 62
     7
370
     9
100
AcDbPolyline
 90
        4
 70
     1
 43
6.0
 10
-2769.500826861408
 20
-1032.499619819023
 42
0.4142135623731
 10
-2772.500826861408
 20
-1029.499619819023
 42
0.4142135623731
 10
-2775.500826861408
 20
-1032.499619819023
 42
0.4142135623731
 10
-2772.500826861408
 20
-1035.499619819023
 42
0.4142135623731
  0
LWPOLYLINE
  5
3F1
330
1F
100
AcDbEntity
  8
0-B
  6
Continuous
 62
     7
370
     9
100
AcDbPolyline
 90
        4
 70
     1
 43
6.0
 10
-2619.500826861408
 20
-1032.499619819023
 42
0.4142135623731
 10
-2622.500826861408
 20
-1029.499619819023
 42
0.4142135623731
 10
-2625.500826861408
 20
-1032.499619819023
 42
0.4142135623731
 10
-2622.500826861408
 20
-1035.499619819023
 42
0.4142135623731
  0
LINE
  5
3F2
330
1F
100
AcDbEntity
  8
0-B
  6
Continuous
 62
   120
370
     5
100
AcDbLine
 10
-2772.500826861408
 20
-1032.499619819023
 30
0.0
 11
-2772.500826861408
 21
-957.4996198190229
 31
0.0
  0
LINE
  5
3F3
330
1F
100
AcDbEntity
  8
0-B
  6
Continuous
 62
   120
370
     5
100
AcDbLine
 10
-2622.500826861408
 20
-1032.499619819023
 30
0.0
 11
-2622.500826861408
 21
-957.4996198190229
 31
0.0
  0
TEXT
  5
3F4
330
1F
100
AcDbEntity
  8
0-B
  6
Continuous
 62
     7
370
   211
100
AcDbText
 10
-2742.500826861408
 20
-1004.809619819023
 30
0.0
 40
68.58
  1
10
  7
ＭＳ ゴシック
100
AcDbText
  0
LINE
  5
3F5
330
1F
100
AcDbEntity
  8
0-B
  6
Continuous
 62
   120
370
     5
100
AcDbLine
 10
-2772.500826861408
 20
-2282.499699721465
 30
0.0
 11
-2622.500826861408
 21
-2282.499699721465
 31
0.0
  0
LWPOLYLINE
  5
3F6
330
1F
100
AcDbEntity
  8
0-B
  6
Continuous
 62
     7
370
     9
100
AcDbPolyline
 90
        4
 70
     1
 43
6.0
 10
-2769.500826861408
 20
-2282.499699721465
 42
0.4142135623731
 10
-2772.500826861408
 20
-2279.499699721466
 42
0.4142135623731
 10
-2775.500826861408
 20
-2282.499699721465
 42
0.4142135623731
 10
-2772.500826861408
 20
-2285.499699721465
 42
0.4142135623731
  0
LWPOLYLINE
  5
3F7
330
1F
100
AcDbEntity
  8
0-B
  6
Continuous
 62
     7
370
     9
100
AcDbPolyline
 90
        4
 70
     1
 43
6.0
 10
-2619.500826861408
 20
-2282.499699721465
 42
0.4142135623731
 10
-2622.500826861408
 20
-2279.499699721466
 42
0.4142135623731
 10
-2625.500826861408
 20
-2282.499699721465
 42
0.4142135623731
 10
-2622.500826861408
 20
-2285.499699721465
 42
0.4142135623731
  0
LINE
  5
3F8
330
1F
100
AcDbEntity
  8
0-B
  6
Continuous
 62
   120
370
     5
100
AcDbLine
 10
-2772.500826861408
 20
-2282.499699721465
 30
0.0
 11
-2772.500826861408
 21
-2207.499699721465
 31
0.0
  0
LINE
  5
3F9
330
1F
100
AcDbEntity
  8
0-B
  6
Continuous
 62
   120
370
     5
100
AcDbLine
 10
-2622.500826861408
 20
-2282.499699721465
 30
0.0
 11
-2622.500826861408
 21
-2207.499699721465
 31
0.0
  0
TEXT
  5
3FA
330
1F
100
AcDbEntity
  8
0-B
  6
Continuous
 62
     7
370
   211
100
AcDbText
 10
-2742.500826861408
 20
-2254.809699721465
 30
0.0
 40
68.58
  1
10
  7
ＭＳ ゴシック
100
AcDbText
  0
LINE
  5
3FB
330
1F
100
AcDbEntity
  8
0-B
  6
Continuous
 62
   120
370
     5
100
AcDbLine
 10
-2772.500826861408
 20
-3550.63670516335
 30
0.0
 11
-2622.500826861408
 21
-3550.63670516335
 31
0.0
  0
LWPOLYLINE
  5
3FC
330
1F
100
AcDbEntity
  8
0-B
  6
Continuous
 62
     7
370
     9
100
AcDbPolyline
 90
        4
 70
     1
 43
6.0
 10
-2769.500826861408
 20
-3550.63670516335
 42
0.4142135623731
 10
-2772.500826861408
 20
-3547.63670516335
 42
0.4142135623731
 10
-2775.500826861408
 20
-3550.63670516335
 42
0.4142135623731
 10
-2772.500826861408
 20
-3553.63670516335
 42
0.4142135623731
  0
LWPOLYLINE
  5
3FD
330
1F
100
AcDbEntity
  8
0-B
  6
Continuous
 62
     7
370
     9
100
AcDbPolyline
 90
        4
 70
     1
 43
6.0
 10
-2619.500826861408
 20
-3550.63670516335
 42
0.4142135623731
 10
-2622.500826861408
 20
-3547.63670516335
 42
0.4142135623731
 10
-2625.500826861408
 20
-3550.63670516335
 42
0.4142135623731
 10
-2622.500826861408
 20
-3553.63670516335
 42
0.4142135623731
  0
LINE
  5
3FE
330
1F
100
AcDbEntity
  8
0-B
  6
Continuous
 62
   120
370
     5
100
AcDbLine
 10
-2772.500826861408
 20
-3550.63670516335
 30
0.0
 11
-2772.500826861408
 21
-3475.63670516335
 31
0.0
  0
LINE
  5
3FF
330
1F
100
AcDbEntity
  8
0-B
  6
Continuous
 62
   120
370
     5
100
AcDbLine
 10
-2622.500826861408
 20
-3550.63670516335
 30
0.0
 11
-2622.500826861408
 21
-3475.63670516335
 31
0.0
  0
TEXT
  5
400
330
1F
100
AcDbEntity
  8
0-B
  6
Continuous
 62
     7
370
   211
100
AcDbText
 10
-2742.500826861408
 20
-3522.94670516335
 30
0.0
 40
68.58
  1
10
  7
ＭＳ ゴシック
100
AcDbText
  0
LINE
  5
401
330
1F
100
AcDbEntity
  8
0-B
  6
Continuous
 62
   120
370
     5
100
AcDbLine
 10
3072.500579421585
 20
-3553.108302734153
 30
0.0
 11
3222.500579421585
 21
-3553.108302734153
 31
0.0
  0
LWPOLYLINE
  5
402
330
1F
100
AcDbEntity
  8
0-B
  6
Continuous
 62
     7
370
     9
100
AcDbPolyline
 90
        4
 70
     1
 43
6.0
 10
3075.500579421585
 20
-3553.108302734153
 42
0.4142135623731
 10
3072.500579421585
 20
-3550.108302734153
 42
0.4142135623731
 10
3069.500579421585
 20
-3553.108302734153
 42
0.4142135623731
 10
3072.500579421585
 20
-3556.108302734153
 42
0.4142135623731
  0
LWPOLYLINE
  5
403
330
1F
100
AcDbEntity
  8
0-B
  6
Continuous
 62
     7
370
     9
100
AcDbPolyline
 90
        4
 70
     1
 43
6.0
 10
3225.500579421585
 20
-3553.108302734153
 42
0.4142135623731
 10
3222.500579421585
 20
-3550.108302734153
 42
0.4142135623731
 10
3219.500579421585
 20
-3553.108302734153
 42
0.4142135623731
 10
3222.500579421585
 20
-3556.108302734153
 42
0.4142135623731
  0
LINE
  5
404
330
1F
100
AcDbEntity
  8
0-B
  6
Continuous
 62
   120
370
     5
100
AcDbLine
 10
3072.500579421585
 20
-3553.108302734153
 30
0.0
 11
3072.500579421585
 21
-3478.108302734153
 31
0.0
  0
LINE
  5
405
330
1F
100
AcDbEntity
  8
0-B
  6
Continuous
 62
   120
370
     5
100
AcDbLine
 10
3222.500579421585
 20
-3553.108302734153
 30
0.0
 11
3222.500579421585
 21
-3478.108302734153
 31
0.0
  0
TEXT
  5
406
330
1F
100
AcDbEntity
  8
0-B
  6
Continuous
 62
     7
370
   211
100
AcDbText
 10
3102.500579421585
 20
-3525.418302734153
 30
0.0
 40
68.58
  1
10
  7
ＭＳ ゴシック
100
AcDbText
  0
LINE
  5
407
330
1F
100
AcDbEntity
  8
0-B
  6
Continuous
 62
   120
370
     5
100
AcDbLine
 10
3072.500579421585
 20
-2282.499699721466
 30
0.0
 11
3222.500579421585
 21
-2282.499699721466
 31
0.0
  0
LWPOLYLINE
  5
408
330
1F
100
AcDbEntity
  8
0-B
  6
Continuous
 62
     7
370
     9
100
AcDbPolyline
 90
        4
 70
     1
 43
6.0
 10
3075.500579421585
 20
-2282.499699721466
 42
0.4142135623731
 10
3072.500579421585
 20
-2279.499699721467
 42
0.4142135623731
 10
3069.500579421585
 20
-2282.499699721466
 42
0.4142135623731
 10
3072.500579421585
 20
-2285.499699721466
 42
0.4142135623731
  0
LWPOLYLINE
  5
409
330
1F
100
AcDbEntity
  8
0-B
  6
Continuous
 62
     7
370
     9
100
AcDbPolyline
 90
        4
 70
     1
 43
6.0
 10
3225.500579421585
 20
-2282.499699721466
 42
0.4142135623731
 10
3222.500579421585
 20
-2279.499699721467
 42
0.4142135623731
 10
3219.500579421585
 20
-2282.499699721466
 42
0.4142135623731
 10
3222.500579421585
 20
-2285.499699721466
 42
0.4142135623731
  0
LINE
  5
40A
330
1F
100
AcDbEntity
  8
0-B
  6
Continuous
 62
   120
370
     5
100
AcDbLine
 10
3072.500579421585
 20
-2282.499699721466
 30
0.0
 11
3072.500579421585
 21
-2207.499699721466
 31
0.0
  0
LINE
  5
40B
330
1F
100
AcDbEntity
  8
0-B
  6
Continuous
 62
   120
370
     5
100
AcDbLine
 10
3222.500579421585
 20
-2282.499699721466
 30
0.0
 11
3222.500579421585
 21
-2207.499699721466
 31
0.0
  0
TEXT
  5
40C
330
1F
100
AcDbEntity
  8
0-B
  6
Continuous
 62
     7
370
   211
100
AcDbText
 10
3102.500579421585
 20
-2254.809699721466
 30
0.0
 40
68.58
  1
10
  7
ＭＳ ゴシック
100
AcDbText
  0
LINE
  5
40D
330
1F
100
AcDbEntity
  8
0-B
  6
Continuous
 62
   120
370
     5
100
AcDbLine
 10
3072.500579421585
 20
-1032.499619819023
 30
0.0
 11
3222.500579421585
 21
-1032.499619819023
 31
0.0
  0
LWPOLYLINE
  5
40E
330
1F
100
AcDbEntity
  8
0-B
  6
Continuous
 62
     7
370
     9
100
AcDbPolyline
 90
        4
 70
     1
 43
6.0
 10
3075.500579421585
 20
-1032.499619819023
 42
0.4142135623731
 10
3072.500579421585
 20
-1029.499619819023
 42
0.4142135623731
 10
3069.500579421585
 20
-1032.499619819023
 42
0.4142135623731
 10
3072.500579421585
 20
-1035.499619819023
 42
0.4142135623731
  0
LWPOLYLINE
  5
40F
330
1F
100
AcDbEntity
  8
0-B
  6
Continuous
 62
     7
370
     9
100
AcDbPolyline
 90
        4
 70
     1
 43
6.0
 10
3225.500579421585
 20
-1032.499619819023
 42
0.4142135623731
 10
3222.500579421585
 20
-1029.499619819023
 42
0.4142135623731
 10
3219.500579421585
 20
-1032.499619819023
 42
0.4142135623731
 10
3222.500579421585
 20
-1035.499619819023
 42
0.4142135623731
  0
LINE
  5
410
330
1F
100
AcDbEntity
  8
0-B
  6
Continuous
 62
   120
370
     5
100
AcDbLine
 10
3072.500579421585
 20
-1032.499619819023
 30
0.0
 11
3072.500579421585
 21
-957.4996198190229
 31
0.0
  0
LINE
  5
411
330
1F
100
AcDbEntity
  8
0-B
  6
Continuous
 62
   120
370
     5
100
AcDbLine
 10
3222.500579421585
 20
-1032.499619819023
 30
0.0
 11
3222.500579421585
 21
-957.4996198190229
 31
0.0
  0
TEXT
  5
412
330
1F
100
AcDbEntity
  8
0-B
  6
Continuous
 62
     7
370
   211
100
AcDbText
 10
3102.500579421585
 20
-1004.809619819023
 30
0.0
 40
68.58
  1
10
  7
ＭＳ ゴシック
100
AcDbText
  0
LINE
  5
413
330
1F
100
AcDbEntity
  8
0-B
  6
Continuous
 62
   120
370
     5
100
AcDbLine
 10
3072.500579421585
 20
199.3635345439793
 30
0.0
 11
3222.500579421585
 21
199.3635345439793
 31
0.0
  0
LWPOLYLINE
  5
414
330
1F
100
AcDbEntity
  8
0-B
  6
Continuous
 62
     7
370
     9
100
AcDbPolyline
 90
        4
 70
     1
 43
6.0
 10
3075.500579421585
 20
199.3635345439793
 42
0.4142135623731
 10
3072.500579421585
 20
202.3635345439793
 42
0.4142135623731
 10
3069.500579421585
 20
199.3635345439793
 42
0.4142135623731
 10
3072.500579421585
 20
196.3635345439793
 42
0.4142135623731
  0
LWPOLYLINE
  5
415
330
1F
100
AcDbEntity
  8
0-B
  6
Continuous
 62
     7
370
     9
100
AcDbPolyline
 90
        4
 70
     1
 43
6.0
 10
3225.500579421585
 20
199.3635345439793
 42
0.4142135623731
 10
3222.500579421585
 20
202.3635345439793
 42
0.4142135623731
 10
3219.500579421585
 20
199.3635345439793
 42
0.4142135623731
 10
3222.500579421585
 20
196.3635345439793
 42
0.4142135623731
  0
LINE
  5
416
330
1F
100
AcDbEntity
  8
0-B
  6
Continuous
 62
   120
370
     5
100
AcDbLine
 10
3072.500579421585
 20
199.3635345439793
 30
0.0
 11
3072.500579421585
 21
274.3635345439793
 31
0.0
  0
LINE
  5
417
330
1F
100
AcDbEntity
  8
0-B
  6
Continuous
 62
   120
370
     5
100
AcDbLine
 10
3222.500579421585
 20
199.3635345439793
 30
0.0
 11
3222.500579421585
 21
274.3635345439793
 31
0.0
  0
TEXT
  5
418
330
1F
100
AcDbEntity
  8
0-B
  6
Continuous
 62
     7
370
   211
100
AcDbText
 10
3102.500579421585
 20
227.0535345439793
 30
0.0
 40
68.58
  1
10
  7
ＭＳ ゴシック
100
AcDbText
  0
LINE
  5
419
330
1F
100
AcDbEntity
  8
0-B
  6
Continuous
 62
   120
370
     5
100
AcDbLine
 10
3072.500579421585
 20
1440.706954137713
 30
0.0
 11
3222.500579421585
 21
1440.706954137713
 31
0.0
  0
LWPOLYLINE
  5
41A
330
1F
100
AcDbEntity
  8
0-B
  6
Continuous
 62
     7
370
     9
100
AcDbPolyline
 90
        4
 70
     1
 43
6.0
 10
3075.500579421585
 20
1440.706954137713
 42
0.4142135623731
 10
3072.500579421585
 20
1443.706954137713
 42
0.4142135623731
 10
3069.500579421585
 20
1440.706954137713
 42
0.4142135623731
 10
3072.500579421585
 20
1437.706954137713
 42
0.4142135623731
  0
LWPOLYLINE
  5
41B
330
1F
100
AcDbEntity
  8
0-B
  6
Continuous
 62
     7
370
     9
100
AcDbPolyline
 90
        4
 70
     1
 43
6.0
 10
3225.500579421585
 20
1440.706954137713
 42
0.4142135623731
 10
3222.500579421585
 20
1443.706954137713
 42
0.4142135623731
 10
3219.500579421585
 20
1440.706954137713
 42
0.4142135623731
 10
3222.500579421585
 20
1437.706954137713
 42
0.4142135623731
  0
LINE
  5
41C
330
1F
100
AcDbEntity
  8
0-B
  6
Continuous
 62
   120
370
     5
100
AcDbLine
 10
3072.500579421585
 20
1440.706954137713
 30
0.0
 11
3072.500579421585
 21
1515.706954137713
 31
0.0
  0
LINE
  5
41D
330
1F
100
AcDbEntity
  8
0-B
  6
Continuous
 62
   120
370
     5
100
AcDbLine
 10
3222.500579421585
 20
1440.706954137713
 30
0.0
 11
3222.500579421585
 21
1515.706954137713
 31
0.0
  0
TEXT
  5
41E
330
1F
100
AcDbEntity
  8
0-B
  6
Continuous
 62
     7
370
   211
100
AcDbText
 10
3102.500579421585
 20
1468.396954137713
 30
0.0
 40
68.58
  1
10
  7
ＭＳ ゴシック
100
AcDbText
  0
LINE
  5
41F
330
1F
100
AcDbEntity
  8
0-B
  6
Continuous
 62
   120
370
     5
100
AcDbLine
 10
3072.500579421585
 20
2717.500619888306
 30
0.0
 11
3222.500579421585
 21
2717.500619888306
 31
0.0
  0
LWPOLYLINE
  5
420
330
1F
100
AcDbEntity
  8
0-B
  6
Continuous
 62
     7
370
     9
100
AcDbPolyline
 90
        4
 70
     1
 43
6.0
 10
3075.500579421585
 20
2717.500619888306
 42
0.4142135623731
 10
3072.500579421585
 20
2720.500619888306
 42
0.4142135623731
 10
3069.500579421585
 20
2717.500619888306
 42
0.4142135623731
 10
3072.500579421585
 20
2714.500619888306
 42
0.4142135623731
  0
LWPOLYLINE
  5
421
330
1F
100
AcDbEntity
  8
0-B
  6
Continuous
 62
     7
370
     9
100
AcDbPolyline
 90
        4
 70
     1
 43
6.0
 10
3225.500579421585
 20
2717.500619888306
 42
0.4142135623731
 10
3222.500579421585
 20
2720.500619888306
 42
0.4142135623731
 10
3219.500579421585
 20
2717.500619888306
 42
0.4142135623731
 10
3222.500579421585
 20
2714.500619888306
 42
0.4142135623731
  0
LINE
  5
422
330
1F
100
AcDbEntity
  8
0-B
  6
Continuous
 62
   120
370
     5
100
AcDbLine
 10
3072.500579421585
 20
2717.500619888306
 30
0.0
 11
3072.500579421585
 21
2792.500619888306
 31
0.0
  0
LINE
  5
423
330
1F
100
AcDbEntity
  8
0-B
  6
Continuous
 62
   120
370
     5
100
AcDbLine
 10
3222.500579421585
 20
2717.500619888306
 30
0.0
 11
3222.500579421585
 21
2792.500619888306
 31
0.0
  0
TEXT
  5
424
330
1F
100
AcDbEntity
  8
0-B
  6
Continuous
 62
     7
370
   211
100
AcDbText
 10
3102.500579421585
 20
2745.190619888306
 30
0.0
 40
68.58
  1
10
  7
ＭＳ ゴシック
100
AcDbText
  0
TEXT
  5
425
330
1F
100
AcDbEntity
  8
F-A
  6
Continuous
 62
     7
370
     9
100
AcDbText
 10
5086.249528460475
 20
-4112.314314748128
 30
0.0
 40
68.58
  1
02
 41
1.083333333333333
  7
ＭＳ ゴシック
100
AcDbText
  0
ENDSEC
  0
SECTION
  2
OBJECTS
  0
DICTIONARY
  5
C
330
0
100
AcDbDictionary
281
     1
  3
ACAD_DETAILVIEWSTYLE
350
45D
  3
ACAD_GROUP
350
D
  3
ACAD_LAYOUT
350
1A
  3
ACAD_MATERIAL
350
43
  3
ACAD_MLEADERSTYLE
350
6B
  3
ACAD_MLINESTYLE
350
17
  3
ACAD_PLOTSETTINGS
350
19
  3
ACAD_PLOTSTYLENAME
350
E
  3
ACAD_SCALELIST
350
47
  3
ACAD_SECTIONVIEWSTYLE
350
45E
  3
ACAD_TABLESTYLE
350
69
  3
ACAD_VISUALSTYLE
350
2A
  3
ACDB_RECOMPOSE_DATA
350
45A
  3
AcDbVariableDictionary
350
426
  0
SUN
  5
6D
330
29
100
AcDbSun
 90
        1
290
     0
 63
     7
421
 16777215
 40
1.0
291
     1
 91
  2455826
 92
 54000000
292
     0
 70
     2
 71
   256
280
     1
  0
DICTIONARY
  5
45D
102
{ACAD_REACTORS
330
C
102
}
330
C
100
AcDbDictionary
281
     1
  0
DICTIONARY
  5
D
102
{ACAD_REACTORS
330
C
102
}
330
C
100
AcDbDictionary
281
     1
  0
DICTIONARY
  5
1A
102
{ACAD_REACTORS
330
C
102
}
330
C
100
AcDbDictionary
281
     1
  3
Layout1
350
1E
  3
Layout2
350
26
  3
Model
350
22
  0
DICTIONARY
  5
43
102
{ACAD_REACTORS
330
C
102
}
330
C
100
AcDbDictionary
281
     1
  3
ByBlock
350
45
  3
ByLayer
350
44
  3
Global
350
46
  0
DICTIONARY
  5
6B
102
{ACAD_REACTORS
330
C
102
}
330
C
100
AcDbDictionary
281
     1
  3
Standard
350
6C
  0
DICTIONARY
  5
17
102
{ACAD_REACTORS
330
C
102
}
330
C
100
AcDbDictionary
281
     1
  3
Standard
350
18
  0
DICTIONARY
  5
19
102
{ACAD_REACTORS
330
C
102
}
330
C
100
AcDbDictionary
281
     1
  0
ACDBDICTIONARYWDFLT
  5
E
102
{ACAD_REACTORS
330
C
102
}
330
C
100
AcDbDictionary
281
     1
  3
Normal
350
F
100
AcDbDictionaryWithDefault
340
F
  0
DICTIONARY
  5
47
102
{ACAD_REACTORS
330
C
102
}
330
C
100
AcDbDictionary
281
     1
  3
A0
350
48
  3
A1
350
49
  3
A2
350
4A
  3
A3
350
4B
  3
A4
350
4C
  3
A5
350
4D
  3
A6
350
4E
  3
A7
350
4F
  3
A8
350
50
  3
A9
350
51
  3
B0
350
52
  3
B1
350
53
  3
B2
350
54
  3
B3
350
55
  3
B4
350
56
  3
B5
350
57
  3
B6
350
58
  3
B7
350
59
  3
B8
350
5A
  3
B9
350
5B
  3
C0
350
5C
  3
C1
350
5D
  3
C2
350
5E
  3
C3
350
5F
  3
C4
350
60
  3
C5
350
61
  3
C6
350
62
  3
C7
350
63
  3
C8
350
64
  3
C9
350
65
  3
D0
350
66
  3
D1
350
67
  3
D2
350
68
  0
DICTIONARY
  5
45E
102
{ACAD_REACTORS
330
C
102
}
330
C
100
AcDbDictionary
281
     1
  0
DICTIONARY
  5
69
102
{ACAD_REACTORS
330
C
102
}
330
C
100
AcDbDictionary
281
     1
  3
Standard
350
6A
  0
DICTIONARY
  5
2A
102
{ACAD_REACTORS
330
C
102
}
330
C
100
AcDbDictionary
281
     1
  3
2dWireframe
350
2F
  3
Basic
350
32
  3
Brighten
350
36
  3
ColorChange
350
3A
  3
Conceptual
350
34
  3
Dim
350
35
  3
EdgeColorOff
350
3D
  3
Facepattern
350
39
  3
Flat
350
2B
  3
FlatWithEdges
350
2C
  3
Gouraud
350
2D
  3
GouraudWithEdges
350
2E
  3
Hidden
350
31
  3
JitterOff
350
3B
  3
Linepattern
350
38
  3
OverhangOff
350
3C
  3
Realistic
350
33
  3
Shaded
350
42
  3
Shaded with edges
350
41
  3
Shades of Gray
350
3E
  3
Sketchy
350
3F
  3
Thicken
350
37
  3
Wireframe
350
30
  3
X-Ray
350
40
  0
XRECORD
  5
45A
102
{ACAD_REACTORS
330
C
102
}
330
C
100
AcDbXrecord
280
     1
 90
        1
330
6A
  0
DICTIONARY
  5
426
102
{ACAD_REACTORS
330
C
102
}
330
C
100
AcDbDictionary
281
     1
  3
CANNOSCALE
350
427
  3
CENTEREXE
350
45F
  3
CENTERLTYPEFILE
350
460
  3
CMLEADERSTYLE
350
45C
  3
CTABLESTYLE
350
45B
  0
LAYOUT
  5
1E
102
{ACAD_REACTORS
330
1A
102
}
330
1A
100
AcDbPlotSettings
  1

  2
none_device
  4

  6

 40
0.0
 41
0.0
 42
0.0
 43
0.0
 44
0.0
 45
0.0
 46
0.0
 47
0.0
 48
0.0
 49
0.0
140
0.0
141
0.0
142
1.0
143
1.0
 70
   688
 72
     1
 73
     0
 74
     5
  7

 75
    16
 76
     0
 77
     5
 78
   300
147
1.0
148
0.0
149
0.0
100
AcDbLayout
  1
Layout1
 70
     1
 71
     1
 10
0.0
 20
0.0
 11
420.0
 21
297.0
 12
0.0
 22
0.0
 32
0.0
 14
1.000000000000000E+20
 24
1.000000000000000E+20
 34
1.000000000000000E+20
 15
-1.000000000000000E+20
 25
-1.000000000000000E+20
 35
-1.000000000000000E+20
146
0.0
 13
0.0
 23
0.0
 33
0.0
 16
1.0
 26
0.0
 36
0.0
 17
0.0
 27
1.0
 37
0.0
 76
     0
330
1B
  0
LAYOUT
  5
26
102
{ACAD_REACTORS
330
1A
102
}
330
1A
100
AcDbPlotSettings
  1

  2
none_device
  4

  6

 40
0.0
 41
0.0
 42
0.0
 43
0.0
 44
0.0
 45
0.0
 46
0.0
 47
0.0
 48
0.0
 49
0.0
140
0.0
141
0.0
142
1.0
143
1.0
 70
   688
 72
     1
 73
     0
 74
     5
  7

 75
    16
 76
     0
 77
     5
 78
   300
147
1.0
148
0.0
149
0.0
100
AcDbLayout
  1
Layout2
 70
     1
 71
     2
 10
0.0
 20
0.0
 11
0.0
 21
0.0
 12
0.0
 22
0.0
 32
0.0
 14
0.0
 24
0.0
 34
0.0
 15
0.0
 25
0.0
 35
0.0
146
0.0
 13
0.0
 23
0.0
 33
0.0
 16
1.0
 26
0.0
 36
0.0
 17
0.0
 27
1.0
 37
0.0
 76
     0
330
23
  0
LAYOUT
  5
22
102
{ACAD_REACTORS
330
1A
102
}
330
1A
100
AcDbPlotSettings
  1

  2
none_device
  4
Letter_(8.50_x_11.00_Inches)
  6

 40
6.35
 41
6.35
 42
6.35000508
 43
6.35000508
 44
215.9
 45
279.4
 46
0.0
 47
0.0
 48
0.0
 49
0.0
140
0.0
141
0.0
142
1.0
143
1.0
 70
  1712
 72
     1
 73
     0
 74
     0
  7

 75
     0
 76
     0
 77
     5
 78
   300
147
1.0
148
0.0
149
0.0
100
AcDbLayout
  1
Model
 70
     1
 71
     0
 10
-6300.0
 20
-4455.0
 11
6300.0
 21
4455.0
 12
0.0
 22
0.0
 32
0.0
 14
-6300.0
 24
-4455.0
 34
0.0
 15
6300.0
 25
4455.0
 35
0.0
146
0.0
 13
0.0
 23
0.0
 33
0.0
 16
1.0
 26
0.0
 36
0.0
 17
0.0
 27
1.0
 37
0.0
 76
     0
330
1F
331
29
  0
MATERIAL
  5
45
102
{ACAD_REACTORS
330
43
102
}
330
43
100
AcDbMaterial
  1
ByBlock
 72
     1
 94
      127
  0
MATERIAL
  5
44
102
{ACAD_REACTORS
330
43
102
}
330
43
100
AcDbMaterial
  1
ByLayer
 72
     1
 94
      127
  0
MATERIAL
  5
46
102
{ACAD_REACTORS
330
43
102
}
330
43
100
AcDbMaterial
  1
Global
 72
     1
 94
      127
  0
MLEADERSTYLE
  5
6C
102
{ACAD_REACTORS
330
6B
102
}
330
6B
100
AcDbMLeaderStyle
179
     2
170
     2
171
     1
172
     0
 90
        2
 40
0.0
 41
0.0
173
     1
 91
-1056964608
340
14
 92
       -2
290
     1
 42
2.0
291
     1
 43
8.0
  3
Standard
341
0
 44
4.0
300

342
11
174
     1
178
     6
175
     1
176
     0
 93
-1056964608
 45
4.0
292
     0
297
     0
 46
4.0
343
0
 94
-1056964608
 47
1.0
 49
1.0
140
1.0
293
     1
141
0.0
294
     1
177
     0
142
1.0
295
     0
296
     0
143
3.75
271
     0
272
     9
273
     9
  0
MLINESTYLE
  5
18
102
{ACAD_REACTORS
330
17
102
}
330
17
100
AcDbMlineStyle
  2
Standard
 70
     0
  3

 62
   256
 51
90.0
 52
90.0
 71
     2
 49
0.5
 62
   256
  6
BYLAYER
 49
-0.5
 62
   256
  6
BYLAYER
  0
ACDBPLACEHOLDER
  5
F
102
{ACAD_REACTORS
330
E
102
}
330
E
  0
SCALE
  5
48
102
{ACAD_REACTORS
330
47
102
}
330
47
100
AcDbScale
 70
     0
300
1:1
140
1.0
141
1.0
290
     1
  0
SCALE
  5
49
102
{ACAD_REACTORS
330
47
102
}
330
47
100
AcDbScale
 70
     0
300
1:2
140
1.0
141
2.0
290
     0
  0
SCALE
  5
4A
102
{ACAD_REACTORS
330
47
102
}
330
47
100
AcDbScale
 70
     0
300
1:4
140
1.0
141
4.0
290
     0
  0
SCALE
  5
4B
102
{ACAD_REACTORS
330
47
102
}
330
47
100
AcDbScale
 70
     0
300
1:5
140
1.0
141
5.0
290
     0
  0
SCALE
  5
4C
102
{ACAD_REACTORS
330
47
102
}
330
47
100
AcDbScale
 70
     0
300
1:8
140
1.0
141
8.0
290
     0
  0
SCALE
  5
4D
102
{ACAD_REACTORS
330
47
102
}
330
47
100
AcDbScale
 70
     0
300
1:10
140
1.0
141
10.0
290
     0
  0
SCALE
  5
4E
102
{ACAD_REACTORS
330
47
102
}
330
47
100
AcDbScale
 70
     0
300
1:16
140
1.0
141
16.0
290
     0
  0
SCALE
  5
4F
102
{ACAD_REACTORS
330
47
102
}
330
47
100
AcDbScale
 70
     0
300
1:20
140
1.0
141
20.0
290
     0
  0
SCALE
  5
50
102
{ACAD_REACTORS
330
47
102
}
330
47
100
AcDbScale
 70
     0
300
1:30
140
1.0
141
30.0
290
     0
  0
SCALE
  5
51
102
{ACAD_REACTORS
330
47
102
}
330
47
100
AcDbScale
 70
     0
300
1:40
140
1.0
141
40.0
290
     0
  0
SCALE
  5
52
102
{ACAD_REACTORS
330
47
102
}
330
47
100
AcDbScale
 70
     0
300
1:50
140
1.0
141
50.0
290
     0
  0
SCALE
  5
53
102
{ACAD_REACTORS
330
47
102
}
330
47
100
AcDbScale
 70
     0
300
1:100
140
1.0
141
100.0
290
     0
  0
SCALE
  5
54
102
{ACAD_REACTORS
330
47
102
}
330
47
100
AcDbScale
 70
     0
300
2:1
140
2.0
141
1.0
290
     0
  0
SCALE
  5
55
102
{ACAD_REACTORS
330
47
102
}
330
47
100
AcDbScale
 70
     0
300
4:1
140
4.0
141
1.0
290
     0
  0
SCALE
  5
56
102
{ACAD_REACTORS
330
47
102
}
330
47
100
AcDbScale
 70
     0
300
8:1
140
8.0
141
1.0
290
     0
  0
SCALE
  5
57
102
{ACAD_REACTORS
330
47
102
}
330
47
100
AcDbScale
 70
     0
300
10:1
140
10.0
141
1.0
290
     0
  0
SCALE
  5
58
102
{ACAD_REACTORS
330
47
102
}
330
47
100
AcDbScale
 70
     0
300
100:1
140
100.0
141
1.0
290
     0
  0
SCALE
  5
59
102
{ACAD_REACTORS
330
47
102
}
330
47
100
AcDbScale
 70
     0
300
1/128" = 1'-0"
140
0.0078125
141
12.0
290
     0
  0
SCALE
  5
5A
102
{ACAD_REACTORS
330
47
102
}
330
47
100
AcDbScale
 70
     0
300
1/64" = 1'-0"
140
0.015625
141
12.0
290
     0
  0
SCALE
  5
5B
102
{ACAD_REACTORS
330
47
102
}
330
47
100
AcDbScale
 70
     0
300
1/32" = 1'-0"
140
0.03125
141
12.0
290
     0
  0
SCALE
  5
5C
102
{ACAD_REACTORS
330
47
102
}
330
47
100
AcDbScale
 70
     0
300
1/16" = 1'-0"
140
0.0625
141
12.0
290
     0
  0
SCALE
  5
5D
102
{ACAD_REACTORS
330
47
102
}
330
47
100
AcDbScale
 70
     0
300
3/32" = 1'-0"
140
0.09375
141
12.0
290
     0
  0
SCALE
  5
5E
102
{ACAD_REACTORS
330
47
102
}
330
47
100
AcDbScale
 70
     0
300
1/8" = 1'-0"
140
0.125
141
12.0
290
     0
  0
SCALE
  5
5F
102
{ACAD_REACTORS
330
47
102
}
330
47
100
AcDbScale
 70
     0
300
3/16" = 1'-0"
140
0.1875
141
12.0
290
     0
  0
SCALE
  5
60
102
{ACAD_REACTORS
330
47
102
}
330
47
100
AcDbScale
 70
     0
300
1/4" = 1'-0"
140
0.25
141
12.0
290
     0
  0
SCALE
  5
61
102
{ACAD_REACTORS
330
47
102
}
330
47
100
AcDbScale
 70
     0
300
3/8" = 1'-0"
140
0.375
141
12.0
290
     0
  0
SCALE
  5
62
102
{ACAD_REACTORS
330
47
102
}
330
47
100
AcDbScale
 70
     0
300
1/2" = 1'-0"
140
0.5
141
12.0
290
     0
  0
SCALE
  5
63
102
{ACAD_REACTORS
330
47
102
}
330
47
100
AcDbScale
 70
     0
300
3/4" = 1'-0"
140
0.75
141
12.0
290
     0
  0
SCALE
  5
64
102
{ACAD_REACTORS
330
47
102
}
330
47
100
AcDbScale
 70
     0
300
1" = 1'-0"
140
1.0
141
12.0
290
     0
  0
SCALE
  5
65
102
{ACAD_REACTORS
330
47
102
}
330
47
100
AcDbScale
 70
     0
300
1-1/2" = 1'-0"
140
1.5
141
12.0
290
     0
  0
SCALE
  5
66
102
{ACAD_REACTORS
330
47
102
}
330
47
100
AcDbScale
 70
     0
300
3" = 1'-0"
140
3.0
141
12.0
290
     0
  0
SCALE
  5
67
102
{ACAD_REACTORS
330
47
102
}
330
47
100
AcDbScale
 70
     0
300
6" = 1'-0"
140
6.0
141
12.0
290
     0
  0
SCALE
  5
68
102
{ACAD_REACTORS
330
47
102
}
330
47
100
AcDbScale
 70
     0
300
1'-0" = 1'-0"
140
12.0
141
12.0
290
     0
  0
TABLESTYLE
  5
6A
102
{ACAD_REACTORS
330
69
102
}
102
{ACAD_XDICTIONARY
360
458
102
}
330
69
100
AcDbTableStyle
  3
Standard
 70
     0
 71
     0
 40
0.06
 41
0.06
280
     0
281
     0
  7
Standard
140
4.5
170
     2
 62
     0
 63
   257
283
     0
 90
        4
 91
        0
  1

274
    -2
284
     1
 64
     0
275
    -2
285
     1
 65
     0
276
    -2
286
     1
 66
     0
277
    -2
287
     1
 67
     0
278
    -2
288
     1
 68
     0
279
    -2
289
     1
 69
     0
  7
Standard
140
6.0
170
     5
 62
     0
 63
   257
283
     0
 90
        4
 91
        0
  1

274
    -2
284
     1
 64
     0
275
    -2
285
     1
 65
     0
276
    -2
286
     1
 66
     0
277
    -2
287
     1
 67
     0
278
    -2
288
     1
 68
     0
279
    -2
289
     1
 69
     0
  7
Standard
140
4.5
170
     5
 62
     0
 63
   257
283
     0
 90
        4
 91
        0
  1

274
    -2
284
     1
 64
     0
275
    -2
285
     1
 65
     0
276
    -2
286
     1
 66
     0
277
    -2
287
     1
 67
     0
278
    -2
288
     1
 68
     0
279
    -2
289
     1
 69
     0
  0
VISUALSTYLE
  5
2F
102
{ACAD_REACTORS
330
2A
102
}
102
{ACAD_XDICTIONARY
360
430
102
}
330
2A
100
AcDbVisualStyle
  2
2dWireframe
 70
     4
177
     2
291
     0
 71
     0
176
     1
 72
     2
176
     1
 73
     0
176
     1
 90
        0
176
     1
 40
0.6
176
     1
 41
30.0
176
     1
 62
     5
 63
     7
421
 16777215
176
     1
 74
     1
176
     1
 91
        4
176
     1
 64
     7
176
     1
 65
   257
176
     1
 75
     1
176
     1
175
     1
176
     1
 42
1.0
176
     1
 92
        0
176
     1
 66
   257
176
     1
 43
1.0
176
     1
 76
     1
176
     1
 77
     6
176
     1
 78
     2
176
     1
 67
     7
176
     1
 79
     5
176
     1
170
     0
176
     1
171
     0
176
     1
290
     0
176
     1
 93
        1
176
     1
 44
0.0
176
     1
173
     0
176
     1
  0
VISUALSTYLE
  5
32
102
{ACAD_REACTORS
330
2A
102
}
102
{ACAD_XDICTIONARY
360
436
102
}
330
2A
100
AcDbVisualStyle
  2
Basic
 70
     7
177
     2
291
     1
 71
     1
176
     1
 72
     0
176
     1
 73
     1
176
     1
 90
        0
176
     1
 40
0.6
176
     1
 41
30.0
176
     1
 62
     5
 63
     7
421
 16777215
176
     1
 74
     0
176
     1
 91
        4
176
     1
 64
     7
176
     1
 65
   257
176
     1
 75
     1
176
     1
175
     1
176
     1
 42
1.0
176
     1
 92
        8
176
     1
 66
     7
176
     1
 43
1.0
176
     1
 76
     1
176
     1
 77
     6
176
     1
 78
     2
176
     1
 67
     7
176
     1
 79
     5
176
     1
170
     0
176
     1
171
     0
176
     1
290
     0
176
     1
 93
        1
176
     1
 44
0.0
176
     1
173
     0
176
     1
  0
VISUALSTYLE
  5
36
102
{ACAD_REACTORS
330
2A
102
}
102
{ACAD_XDICTIONARY
360
43E
102
}
330
2A
100
AcDbVisualStyle
  2
Brighten
 70
    12
177
     2
291
     1
 71
     2
176
     1
 72
     2
176
     1
 73
     0
176
     1
 90
        0
176
     1
 40
0.6
176
     1
 41
30.0
176
     1
 62
     5
 63
     7
421
 16777215
176
     1
 74
     1
176
     1
 91
        4
176
     1
 64
     7
176
     1
 65
   257
176
     1
 75
     1
176
     1
175
     1
176
     1
 42
1.0
176
     1
 92
        8
176
     1
 66
     7
176
     1
 43
1.0
176
     1
 76
     1
176
     1
 77
     6
176
     1
 78
     2
176
     1
 67
     7
176
     1
 79
     5
176
     1
170
     0
176
     1
171
     0
176
     1
290
     0
176
     1
 93
        1
176
     1
 44
50.0
176
     1
173
     0
176
     1
  0
VISUALSTYLE
  5
3A
102
{ACAD_REACTORS
330
2A
102
}
102
{ACAD_XDICTIONARY
360
446
102
}
330
2A
100
AcDbVisualStyle
  2
ColorChange
 70
    16
177
     2
291
     1
 71
     2
176
     1
 72
     2
176
     1
 73
     3
176
     1
 90
        0
176
     1
 40
0.6
176
     1
 41
30.0
176
     1
 62
     5
 63
     8
421
  8421504
176
     1
 74
     1
176
     1
 91
        4
176
     1
 64
     7
176
     1
 65
   257
176
     1
 75
     1
176
     1
175
     1
176
     1
 42
1.0
176
     1
 92
        8
176
     1
 66
     8
424
  8421504
176
     1
 43
1.0
176
     1
 76
     1
176
     1
 77
     6
176
     1
 78
     2
176
     1
 67
     7
176
     1
 79
     5
176
     1
170
     0
176
     1
171
     0
176
     1
290
     0
176
     1
 93
        1
176
     1
 44
0.0
176
     1
173
     0
176
     1
  0
VISUALSTYLE
  5
34
102
{ACAD_REACTORS
330
2A
102
}
102
{ACAD_XDICTIONARY
360
43A
102
}
330
2A
100
AcDbVisualStyle
  2
Conceptual
 70
     9
177
     2
291
     0
 71
     3
176
     1
 72
     2
176
     1
 73
     0
176
     1
 90
        0
176
     1
 40
0.6
176
     1
 41
30.0
176
     1
 62
     5
 63
     7
421
 16777215
176
     1
 74
     2
176
     1
 91
        2
176
     1
 64
     7
176
     1
 65
   257
176
     1
 75
     1
176
     1
175
     1
176
     1
 42
179.0
176
     1
 92
        8
176
     1
 66
     7
176
     1
 43
1.0
176
     1
 76
     1
176
     1
 77
     6
176
     1
 78
     2
176
     1
 67
     7
176
     1
 79
     3
176
     1
170
     0
176
     1
171
     0
176
     1
290
     0
176
     1
 93
        1
176
     1
 44
0.0
176
     1
173
     0
176
     1
  0
VISUALSTYLE
  5
35
102
{ACAD_REACTORS
330
2A
102
}
102
{ACAD_XDICTIONARY
360
43C
102
}
330
2A
100
AcDbVisualStyle
  2
Dim
 70
    11
177
     2
291
     1
 71
     2
176
     1
 72
     2
176
     1
 73
     0
176
     1
 90
        0
176
     1
 40
0.6
176
     1
 41
30.0
176
     1
 62
     5
 63
     7
421
 16777215
176
     1
 74
     1
176
     1
 91
        4
176
     1
 64
     7
176
     1
 65
   257
176
     1
 75
     1
176
     1
175
     1
176
     1
 42
1.0
176
     1
 92
        8
176
     1
 66
     7
176
     1
 43
1.0
176
     1
 76
     1
176
     1
 77
     6
176
     1
 78
     2
176
     1
 67
     7
176
     1
 79
     5
176
     1
170
     0
176
     1
171
     0
176
     1
290
     0
176
     1
 93
        1
176
     1
 44
-50.0
176
     1
173
     0
176
     1
  0
VISUALSTYLE
  5
3D
102
{ACAD_REACTORS
330
2A
102
}
102
{ACAD_XDICTIONARY
360
44C
102
}
330
2A
100
AcDbVisualStyle
  2
EdgeColorOff
 70
    22
177
     2
291
     1
 71
     2
176
     0
 72
     2
176
     0
 73
     0
176
     0
 90
        0
176
     0
 40
0.6
176
     0
 41
30.0
176
     0
 62
     5
 63
     7
421
 16777215
176
     0
 74
     1
176
     0
 91
        4
176
     0
 64
     7
176
     0
 65
   257
176
     0
 75
     1
176
     0
175
     1
176
     0
 42
1.0
176
     0
 92
        8
176
     2
 66
     7
176
     0
 43
1.0
176
     0
 76
     1
176
     0
 77
     6
176
     0
 78
     2
176
     0
 67
     7
176
     0
 79
     5
176
     0
170
     0
176
     0
171
     0
176
     0
290
     0
176
     0
 93
        1
176
     0
 44
0.0
176
     0
173
     0
176
     0
  0
VISUALSTYLE
  5
39
102
{ACAD_REACTORS
330
2A
102
}
102
{ACAD_XDICTIONARY
360
444
102
}
330
2A
100
AcDbVisualStyle
  2
Facepattern
 70
    15
177
     2
291
     1
 71
     2
176
     1
 72
     2
176
     1
 73
     0
176
     1
 90
        0
176
     1
 40
0.6
176
     1
 41
30.0
176
     1
 62
     5
 63
     7
421
 16777215
176
     1
 74
     1
176
     1
 91
        4
176
     1
 64
     7
176
     1
 65
   257
176
     1
 75
     1
176
     1
175
     1
176
     1
 42
1.0
176
     1
 92
        8
176
     1
 66
     7
176
     1
 43
1.0
176
     1
 76
     1
176
     1
 77
     6
176
     1
 78
     2
176
     1
 67
     7
176
     1
 79
     5
176
     1
170
     0
176
     1
171
     0
176
     1
290
     0
176
     1
 93
        1
176
     1
 44
0.0
176
     1
173
     0
176
     1
  0
VISUALSTYLE
  5
2B
102
{ACAD_REACTORS
330
2A
102
}
102
{ACAD_XDICTIONARY
360
428
102
}
330
2A
100
AcDbVisualStyle
  2
Flat
 70
     0
177
     2
291
     1
 71
     2
176
     1
 72
     1
176
     1
 73
     1
176
     1
 90
        2
176
     1
 40
0.6
176
     1
 41
30.0
176
     1
 62
     5
 63
     7
421
 16777215
176
     1
 74
     0
176
     1
 91
        0
176
     1
 64
     7
176
     1
 65
   257
176
     1
 75
     1
176
     1
175
     1
176
     1
 42
1.0
176
     1
 92
        8
176
     1
 66
     7
176
     1
 43
1.0
176
     1
 76
     1
176
     1
 77
     6
176
     1
 78
     2
176
     1
 67
     7
176
     1
 79
     5
176
     1
170
     0
176
     1
171
     0
176
     1
290
     0
176
     1
 93
       13
176
     1
 44
0.0
176
     1
173
     0
176
     1
  0
VISUALSTYLE
  5
2C
102
{ACAD_REACTORS
330
2A
102
}
102
{ACAD_XDICTIONARY
360
42A
102
}
330
2A
100
AcDbVisualStyle
  2
FlatWithEdges
 70
     1
177
     2
291
     1
 71
     2
176
     1
 72
     1
176
     1
 73
     1
176
     1
 90
        2
176
     1
 40
0.6
176
     1
 41
30.0
176
     1
 62
     5
 63
     7
421
 16777215
176
     1
 74
     1
176
     1
 91
        0
176
     1
 64
     7
176
     1
 65
   257
176
     1
 75
     1
176
     1
175
     1
176
     1
 42
1.0
176
     1
 92
        0
176
     1
 66
   257
176
     1
 43
1.0
176
     1
 76
     1
176
     1
 77
     6
176
     1
 78
     2
176
     1
 67
     7
176
     1
 79
     5
176
     1
170
     0
176
     1
171
     0
176
     1
290
     0
176
     1
 93
       13
176
     1
 44
0.0
176
     1
173
     0
176
     1
  0
VISUALSTYLE
  5
2D
102
{ACAD_REACTORS
330
2A
102
}
102
{ACAD_XDICTIONARY
360
42C
102
}
330
2A
100
AcDbVisualStyle
  2
Gouraud
 70
     2
177
     2
291
     1
 71
     2
176
     1
 72
     2
176
     1
 73
     1
176
     1
 90
        2
176
     1
 40
0.6
176
     1
 41
30.0
176
     1
 62
     5
 63
     7
421
 16777215
176
     1
 74
     0
176
     1
 91
        0
176
     1
 64
     7
176
     1
 65
   257
176
     1
 75
     1
176
     1
175
     1
176
     1
 42
1.0
176
     1
 92
        0
176
     1
 66
     7
176
     1
 43
1.0
176
     1
 76
     1
176
     1
 77
     6
176
     1
 78
     2
176
     1
 67
     7
176
     1
 79
     5
176
     1
170
     0
176
     1
171
     0
176
     1
290
     0
176
     1
 93
       13
176
     1
 44
0.0
176
     1
173
     0
176
     1
  0
VISUALSTYLE
  5
2E
102
{ACAD_REACTORS
330
2A
102
}
102
{ACAD_XDICTIONARY
360
42E
102
}
330
2A
100
AcDbVisualStyle
  2
GouraudWithEdges
 70
     3
177
     2
291
     1
 71
     2
176
     1
 72
     2
176
     1
 73
     1
176
     1
 90
        2
176
     1
 40
0.6
176
     1
 41
30.0
176
     1
 62
     5
 63
     7
421
 16777215
176
     1
 74
     1
176
     1
 91
        0
176
     1
 64
     7
176
     1
 65
   257
176
     1
 75
     1
176
     1
175
     1
176
     1
 42
1.0
176
     1
 92
        0
176
     1
 66
   257
176
     1
 43
1.0
176
     1
 76
     1
176
     1
 77
     6
176
     1
 78
     2
176
     1
 67
     7
176
     1
 79
     5
176
     1
170
     0
176
     1
171
     0
176
     1
290
     0
176
     1
 93
       13
176
     1
 44
0.0
176
     1
173
     0
176
     1
  0
VISUALSTYLE
  5
31
102
{ACAD_REACTORS
330
2A
102
}
102
{ACAD_XDICTIONARY
360
434
102
}
330
2A
100
AcDbVisualStyle
  2
Hidden
 70
     6
177
     2
291
     0
 71
     1
176
     1
 72
     2
176
     1
 73
     2
176
     1
 90
        0
176
     1
 40
0.6
176
     1
 41
30.0
176
     1
 62
     5
 63
     7
421
 16777215
176
     1
 74
     2
176
     1
 91
        2
176
     1
 64
     7
176
     1
 65
   257
176
     1
 75
     2
176
     1
175
     1
176
     1
 42
40.0
176
     1
 92
        0
176
     1
 66
   257
176
     1
 43
1.0
176
     1
 76
     1
176
     1
 77
     6
176
     1
 78
     2
176
     1
 67
     7
176
     1
 79
     3
176
     1
170
     0
176
     1
171
     0
176
     1
290
     0
176
     1
 93
        1
176
     1
 44
0.0
176
     1
173
     0
176
     1
  0
VISUALSTYLE
  5
3B
102
{ACAD_REACTORS
330
2A
102
}
102
{ACAD_XDICTIONARY
360
448
102
}
330
2A
100
AcDbVisualStyle
  2
JitterOff
 70
    20
177
     2
291
     1
 71
     2
176
     0
 72
     2
176
     0
 73
     0
176
     0
 90
        0
176
     0
 40
0.6
176
     0
 41
30.0
176
     0
 62
     5
 63
     7
421
 16777215
176
     0
 74
     1
176
     0
 91
        4
176
     0
 64
     7
176
     0
 65
   257
176
     0
 75
     1
176
     0
175
     1
176
     0
 42
1.0
176
     0
 92
       10
176
     2
 66
     7
176
     0
 43
1.0
176
     0
 76
     1
176
     0
 77
     6
176
     0
 78
     2
176
     0
 67
     7
176
     0
 79
     5
176
     0
170
     0
176
     0
171
     0
176
     0
290
     0
176
     0
 93
        1
176
     0
 44
0.0
176
     0
173
     0
176
     0
  0
VISUALSTYLE
  5
38
102
{ACAD_REACTORS
330
2A
102
}
102
{ACAD_XDICTIONARY
360
442
102
}
330
2A
100
AcDbVisualStyle
  2
Linepattern
 70
    14
177
     2
291
     1
 71
     2
176
     1
 72
     2
176
     1
 73
     0
176
     1
 90
        0
176
     1
 40
0.6
176
     1
 41
30.0
176
     1
 62
     5
 63
     7
421
 16777215
176
     1
 74
     1
176
     1
 91
        4
176
     1
 64
     7
176
     1
 65
   257
176
     1
 75
     7
176
     1
175
     7
176
     1
 42
1.0
176
     1
 92
        8
176
     1
 66
     7
176
     1
 43
1.0
176
     1
 76
     1
176
     1
 77
     6
176
     1
 78
     2
176
     1
 67
     7
176
     1
 79
     5
176
     1
170
     0
176
     1
171
     0
176
     1
290
     0
176
     1
 93
        1
176
     1
 44
0.0
176
     1
173
     0
176
     1
  0
VISUALSTYLE
  5
3C
102
{ACAD_REACTORS
330
2A
102
}
102
{ACAD_XDICTIONARY
360
44A
102
}
330
2A
100
AcDbVisualStyle
  2
OverhangOff
 70
    21
177
     2
291
     1
 71
     2
176
     0
 72
     2
176
     0
 73
     0
176
     0
 90
        0
176
     0
 40
0.6
176
     0
 41
30.0
176
     0
 62
     5
 63
     7
421
 16777215
176
     0
 74
     1
176
     0
 91
        4
176
     0
 64
     7
176
     0
 65
   257
176
     0
 75
     1
176
     0
175
     1
176
     0
 42
1.0
176
     0
 92
        9
176
     2
 66
     7
176
     0
 43
1.0
176
     0
 76
     1
176
     0
 77
     6
176
     0
 78
     2
176
     0
 67
     7
176
     0
 79
     5
176
     0
170
     0
176
     0
171
     0
176
     0
290
     0
176
     0
 93
        1
176
     0
 44
0.0
176
     0
173
     0
176
     0
  0
VISUALSTYLE
  5
33
102
{ACAD_REACTORS
330
2A
102
}
102
{ACAD_XDICTIONARY
360
438
102
}
330
2A
100
AcDbVisualStyle
  2
Realistic
 70
     8
177
     2
291
     0
 71
     2
176
     1
 72
     3
176
     1
 73
     0
176
     1
 90
        2
176
     1
 40
0.6
176
     1
 41
30.0
176
     1
 62
     5
 63
     7
421
 16777215
176
     1
 74
     0
176
     1
 91
        0
176
     1
 64
     7
176
     1
 65
   257
176
     1
 75
     1
176
     1
175
     1
176
     1
 42
1.0
176
     1
 92
        8
176
     1
 66
   257
176
     1
 43
1.0
176
     1
 76
     1
176
     1
 77
     6
176
     1
 78
     2
176
     1
 67
     7
176
     1
 79
     3
176
     1
170
     0
176
     1
171
     0
176
     1
290
     0
176
     1
 93
       13
176
     1
 44
0.0
176
     1
173
     0
176
     1
  0
VISUALSTYLE
  5
42
102
{ACAD_REACTORS
330
2A
102
}
102
{ACAD_XDICTIONARY
360
456
102
}
330
2A
100
AcDbVisualStyle
  2
Shaded
 70
    27
177
     2
291
     0
 71
     2
176
     1
 72
     2
176
     1
 73
     1
176
     1
 90
        2
176
     1
 40
0.6
176
     1
 41
30.0
176
     1
 62
     5
 63
     7
421
 16777215
176
     1
 74
     0
176
     1
 91
        4
176
     1
 64
     7
176
     1
 65
   257
176
     1
 75
     1
176
     1
175
     1
176
     1
 42
1.0
176
     1
 92
        8
176
     1
 66
   257
176
     1
 43
1.0
176
     1
 76
     1
176
     1
 77
     6
176
     1
 78
     2
176
     1
 67
     8
425
  7895160
176
     1
 79
     3
176
     1
170
     0
176
     1
171
     0
176
     1
290
     0
176
     1
 93
        5
176
     1
 44
0.0
176
     1
173
     0
176
     1
  0
VISUALSTYLE
  5
41
102
{ACAD_REACTORS
330
2A
102
}
102
{ACAD_XDICTIONARY
360
454
102
}
330
2A
100
AcDbVisualStyle
  2
Shaded with edges
 70
    26
177
     2
291
     0
 71
     2
176
     1
 72
     2
176
     1
 73
     1
176
     1
 90
        2
176
     1
 40
0.6
176
     1
 41
30.0
176
     1
 62
     5
 63
     7
421
 16777215
176
     1
 74
     1
176
     1
 91
       10
176
     1
 64
     7
176
     1
 65
   257
176
     1
 75
     2
176
     1
175
     1
176
     1
 42
1.0
176
     1
 92
        8
176
     1
 66
   257
176
     1
 43
1.0
176
     1
 76
     1
176
     1
 77
     6
176
     1
 78
     2
176
     1
 67
     7
176
     1
 79
     3
176
     1
170
     0
176
     1
171
     0
176
     1
290
     0
176
     1
 93
        5
176
     1
 44
0.0
176
     1
173
     0
176
     1
  0
VISUALSTYLE
  5
3E
102
{ACAD_REACTORS
330
2A
102
}
102
{ACAD_XDICTIONARY
360
44E
102
}
330
2A
100
AcDbVisualStyle
  2
Shades of Gray
 70
    23
177
     2
291
     0
 71
     2
176
     1
 72
     2
176
     1
 73
     3
176
     1
 90
        0
176
     1
 40
0.6
176
     1
 41
30.0
176
     1
 62
     5
 63
     7
421
 16777215
176
     1
 74
     2
176
     1
 91
        2
176
     1
 64
     7
176
     1
 65
     7
176
     1
 75
     1
176
     1
175
     1
176
     1
 42
40.0
176
     1
 92
        8
176
     1
 66
     7
176
     1
 43
1.0
176
     1
 76
     1
176
     1
 77
     6
176
     1
 78
     2
176
     1
 67
     7
176
     1
 79
     3
176
     1
170
     0
176
     1
171
     0
176
     1
290
     0
176
     1
 93
        1
176
     1
 44
0.0
176
     1
173
     0
176
     1
  0
VISUALSTYLE
  5
3F
102
{ACAD_REACTORS
330
2A
102
}
102
{ACAD_XDICTIONARY
360
450
102
}
330
2A
100
AcDbVisualStyle
  2
Sketchy
 70
    24
177
     2
291
     0
 71
     1
176
     1
 72
     2
176
     1
 73
     2
176
     1
 90
        0
176
     1
 40
0.6
176
     1
 41
30.0
176
     1
 62
     5
 63
     7
421
 16777215
176
     1
 74
     2
176
     1
 91
        2
176
     1
 64
     7
176
     1
 65
     7
176
     1
 75
     1
176
     1
175
     1
176
     1
 42
40.0
176
     1
 92
       11
176
     1
 66
     7
176
     1
 43
1.0
176
     1
 76
     1
176
     1
 77
     6
176
     1
 78
     2
176
     1
 67
     7
176
     1
 79
     6
176
     1
170
     0
176
     1
171
     0
176
     1
290
     0
176
     1
 93
        1
176
     1
 44
0.0
176
     1
173
     0
176
     1
  0
VISUALSTYLE
  5
37
102
{ACAD_REACTORS
330
2A
102
}
102
{ACAD_XDICTIONARY
360
440
102
}
330
2A
100
AcDbVisualStyle
  2
Thicken
 70
    13
177
     2
291
     1
 71
     2
176
     1
 72
     2
176
     1
 73
     0
176
     1
 90
        0
176
     1
 40
0.6
176
     1
 41
30.0
176
     1
 62
     5
 63
     7
421
 16777215
176
     1
 74
     1
176
     1
 91
        4
176
     1
 64
     7
176
     1
 65
   257
176
     1
 75
     1
176
     1
175
     1
176
     1
 42
1.0
176
     1
 92
       12
176
     1
 66
     7
176
     1
 43
1.0
176
     1
 76
     1
176
     1
 77
     6
176
     1
 78
     2
176
     1
 67
     7
176
     1
 79
     5
176
     1
170
     0
176
     1
171
     0
176
     1
290
     0
176
     1
 93
        1
176
     1
 44
0.0
176
     1
173
     0
176
     1
  0
VISUALSTYLE
  5
30
102
{ACAD_REACTORS
330
2A
102
}
102
{ACAD_XDICTIONARY
360
432
102
}
330
2A
100
AcDbVisualStyle
  2
Wireframe
 70
     5
177
     2
291
     0
 71
     0
176
     1
 72
     2
176
     1
 73
     0
176
     1
 90
        0
176
     1
 40
0.6
176
     1
 41
30.0
176
     1
 62
     5
 63
     7
421
 16777215
176
     1
 74
     1
176
     1
 91
        4
176
     1
 64
     7
176
     1
 65
   257
176
     1
 75
     1
176
     1
175
     1
176
     1
 42
1.0
176
     1
 92
        0
176
     1
 66
   257
176
     1
 43
1.0
176
     1
 76
     1
176
     1
 77
     6
176
     1
 78
     2
176
     1
 67
     7
176
     1
 79
     3
176
     1
170
     0
176
     1
171
     0
176
     1
290
     0
176
     1
 93
        1
176
     1
 44
0.0
176
     1
173
     0
176
     1
  0
VISUALSTYLE
  5
40
102
{ACAD_REACTORS
330
2A
102
}
102
{ACAD_XDICTIONARY
360
452
102
}
330
2A
100
AcDbVisualStyle
  2
X-Ray
 70
    25
177
     2
291
     0
 71
     2
176
     1
 72
     2
176
     1
 73
     1
176
     1
 90
        1
176
     1
 40
0.5
176
     1
 41
30.0
176
     1
 62
     5
 63
     7
421
 16777215
176
     1
 74
     1
176
     1
 91
        0
176
     1
 64
     7
176
     1
 65
   257
176
     1
 75
     1
176
     1
175
     1
176
     1
 42
1.0
176
     1
 92
        8
176
     1
 66
     7
176
     1
 43
1.0
176
     1
 76
     1
176
     1
 77
     6
176
     1
 78
     2
176
     1
 67
     7
176
     1
 79
     3
176
     1
170
     0
176
     1
171
     0
176
     1
290
     0
176
     1
 93
       13
176
     1
 44
0.0
176
     1
173
     0
176
     1
  0
DICTIONARYVAR
  5
427
102
{ACAD_REACTORS
330
426
102
}
330
426
100
DictionaryVariables
280
     0
  1
1:1
  0
DICTIONARYVAR
  5
45F
102
{ACAD_REACTORS
330
426
102
}
330
426
100
DictionaryVariables
280
     0
  1
3.500000
  0
DICTIONARYVAR
  5
460
102
{ACAD_REACTORS
330
426
102
}
330
426
100
DictionaryVariables
280
     0
  1
acadiso.lin
  0
DICTIONARYVAR
  5
45C
102
{ACAD_REACTORS
330
426
102
}
330
426
100
DictionaryVariables
280
     0
  1
Standard
  0
DICTIONARYVAR
  5
45B
102
{ACAD_REACTORS
330
426
102
}
330
426
100
DictionaryVariables
280
     0
  1
Standard
  0
DICTIONARY
  5
458
330
6A
100
AcDbDictionary
280
     1
281
     1
  3
ACAD_ROUNDTRIP_2008_TABLESTYLE_CELLSTYLEMAP
360
459
  0
DICTIONARY
  5
430
330
2F
100
AcDbDictionary
280
     1
281
     1
  3
ACAD_XREC_ROUNDTRIP
360
431
  0
DICTIONARY
  5
436
330
32
100
AcDbDictionary
280
     1
281
     1
  3
ACAD_XREC_ROUNDTRIP
360
437
  0
DICTIONARY
  5
43E
330
36
100
AcDbDictionary
280
     1
281
     1
  3
ACAD_XREC_ROUNDTRIP
360
43F
  0
DICTIONARY
  5
446
330
3A
100
AcDbDictionary
280
     1
281
     1
  3
ACAD_XREC_ROUNDTRIP
360
447
  0
DICTIONARY
  5
43A
330
34
100
AcDbDictionary
280
     1
281
     1
  3
ACAD_XREC_ROUNDTRIP
360
43B
  0
DICTIONARY
  5
43C
330
35
100
AcDbDictionary
280
     1
281
     1
  3
ACAD_XREC_ROUNDTRIP
360
43D
  0
DICTIONARY
  5
44C
330
3D
100
AcDbDictionary
280
     1
281
     1
  3
ACAD_XREC_ROUNDTRIP
360
44D
  0
DICTIONARY
  5
444
330
39
100
AcDbDictionary
280
     1
281
     1
  3
ACAD_XREC_ROUNDTRIP
360
445
  0
DICTIONARY
  5
428
330
2B
100
AcDbDictionary
280
     1
281
     1
  3
ACAD_XREC_ROUNDTRIP
360
429
  0
DICTIONARY
  5
42A
330
2C
100
AcDbDictionary
280
     1
281
     1
  3
ACAD_XREC_ROUNDTRIP
360
42B
  0
DICTIONARY
  5
42C
330
2D
100
AcDbDictionary
280
     1
281
     1
  3
ACAD_XREC_ROUNDTRIP
360
42D
  0
DICTIONARY
  5
42E
330
2E
100
AcDbDictionary
280
     1
281
     1
  3
ACAD_XREC_ROUNDTRIP
360
42F
  0
DICTIONARY
  5
434
330
31
100
AcDbDictionary
280
     1
281
     1
  3
ACAD_XREC_ROUNDTRIP
360
435
  0
DICTIONARY
  5
448
330
3B
100
AcDbDictionary
280
     1
281
     1
  3
ACAD_XREC_ROUNDTRIP
360
449
  0
DICTIONARY
  5
442
330
38
100
AcDbDictionary
280
     1
281
     1
  3
ACAD_XREC_ROUNDTRIP
360
443
  0
DICTIONARY
  5
44A
330
3C
100
AcDbDictionary
280
     1
281
     1
  3
ACAD_XREC_ROUNDTRIP
360
44B
  0
DICTIONARY
  5
438
330
33
100
AcDbDictionary
280
     1
281
     1
  3
ACAD_XREC_ROUNDTRIP
360
439
  0
DICTIONARY
  5
456
330
42
100
AcDbDictionary
280
     1
281
     1
  3
ACAD_XREC_ROUNDTRIP
360
457
  0
DICTIONARY
  5
454
330
41
100
AcDbDictionary
280
     1
281
     1
  3
ACAD_XREC_ROUNDTRIP
360
455
  0
DICTIONARY
  5
44E
330
3E
100
AcDbDictionary
280
     1
281
     1
  3
ACAD_XREC_ROUNDTRIP
360
44F
  0
DICTIONARY
  5
450
330
3F
100
AcDbDictionary
280
     1
281
     1
  3
ACAD_XREC_ROUNDTRIP
360
451
  0
DICTIONARY
  5
440
330
37
100
AcDbDictionary
280
     1
281
     1
  3
ACAD_XREC_ROUNDTRIP
360
441
  0
DICTIONARY
  5
432
330
30
100
AcDbDictionary
280
     1
281
     1
  3
ACAD_XREC_ROUNDTRIP
360
433
  0
DICTIONARY
  5
452
330
40
100
AcDbDictionary
280
     1
281
     1
  3
ACAD_XREC_ROUNDTRIP
360
453
  0
CELLSTYLEMAP
  5
459
102
{ACAD_REACTORS
330
458
102
}
330
458
100
AcDbCellStyleMap
 90
        3
300
CELLSTYLE
  1
TABLEFORMAT_BEGIN
 90
        5
170
     1
 91
        0
 92
    32768
 62
   257
 93
        1
300
CONTENTFORMAT
  1
CONTENTFORMAT_BEGIN
 90
        0
 91
        0
 92
        4
 93
        0
300

 40
0.0
140
1.0
 94
        5
 62
     0
340
11
144
6.0
309
CONTENTFORMAT_END
171
     1
301
MARGIN
  1
CELLMARGIN_BEGIN
 40
1.5
 40
1.5
 40
1.5
 40
1.5
 40
1.5
 40
1.5
309
CELLMARGIN_END
 94
        6
 95
        1
302
GRIDFORMAT
  1
GRIDFORMAT_BEGIN
 90
        0
 91
        1
 62
     0
 92
       -2
340
14
 93
        0
 40
0.045
309
GRIDFORMAT_END
 95
        2
302
GRIDFORMAT
  1
GRIDFORMAT_BEGIN
 90
        0
 91
        1
 62
     0
 92
       -2
340
14
 93
        0
 40
0.045
309
GRIDFORMAT_END
 95
        4
302
GRIDFORMAT
  1
GRIDFORMAT_BEGIN
 90
        0
 91
        1
 62
     0
 92
       -2
340
14
 93
        0
 40
0.045
309
GRIDFORMAT_END
 95
        8
302
GRIDFORMAT
  1
GRIDFORMAT_BEGIN
 90
        0
 91
        1
 62
     0
 92
       -2
340
14
 93
        0
 40
0.045
309
GRIDFORMAT_END
 95
       16
302
GRIDFORMAT
  1
GRIDFORMAT_BEGIN
 90
        0
 91
        1
 62
     0
 92
       -2
340
14
 93
        0
 40
0.045
309
GRIDFORMAT_END
 95
       32
302
GRIDFORMAT
  1
GRIDFORMAT_BEGIN
 90
        0
 91
        1
 62
     0
 92
       -2
340
14
 93
        0
 40
0.045
309
GRIDFORMAT_END
309
TABLEFORMAT_END
  1
CELLSTYLE_BEGIN
 90
        1
 91
        1
300
_TITLE
309
CELLSTYLE_END
300
CELLSTYLE
  1
TABLEFORMAT_BEGIN
 90
        5
170
     1
 91
        0
 92
        0
 62
   257
 93
        1
300
CONTENTFORMAT
  1
CONTENTFORMAT_BEGIN
 90
        0
 91
        0
 92
        4
 93
        0
300

 40
0.0
140
1.0
 94
        5
 62
     0
340
11
144
4.5
309
CONTENTFORMAT_END
171
     1
301
MARGIN
  1
CELLMARGIN_BEGIN
 40
1.5
 40
1.5
 40
1.5
 40
1.5
 40
1.5
 40
1.5
309
CELLMARGIN_END
 94
        6
 95
        1
302
GRIDFORMAT
  1
GRIDFORMAT_BEGIN
 90
        0
 91
        1
 62
     0
 92
       -2
340
14
 93
        0
 40
0.045
309
GRIDFORMAT_END
 95
        2
302
GRIDFORMAT
  1
GRIDFORMAT_BEGIN
 90
        0
 91
        1
 62
     0
 92
       -2
340
14
 93
        0
 40
0.045
309
GRIDFORMAT_END
 95
        4
302
GRIDFORMAT
  1
GRIDFORMAT_BEGIN
 90
        0
 91
        1
 62
     0
 92
       -2
340
14
 93
        0
 40
0.045
309
GRIDFORMAT_END
 95
        8
302
GRIDFORMAT
  1
GRIDFORMAT_BEGIN
 90
        0
 91
        1
 62
     0
 92
       -2
340
14
 93
        0
 40
0.045
309
GRIDFORMAT_END
 95
       16
302
GRIDFORMAT
  1
GRIDFORMAT_BEGIN
 90
        0
 91
        1
 62
     0
 92
       -2
340
14
 93
        0
 40
0.045
309
GRIDFORMAT_END
 95
       32
302
GRIDFORMAT
  1
GRIDFORMAT_BEGIN
 90
        0
 91
        1
 62
     0
 92
       -2
340
14
 93
        0
 40
0.045
309
GRIDFORMAT_END
309
TABLEFORMAT_END
  1
CELLSTYLE_BEGIN
 90
        2
 91
        1
300
_HEADER
309
CELLSTYLE_END
300
CELLSTYLE
  1
TABLEFORMAT_BEGIN
 90
        5
170
     1
 91
        0
 92
        0
 62
   257
 93
        1
300
CONTENTFORMAT
  1
CONTENTFORMAT_BEGIN
 90
        0
 91
        0
 92
        4
 93
        0
300

 40
0.0
140
1.0
 94
        2
 62
     0
340
11
144
4.5
309
CONTENTFORMAT_END
171
     1
301
MARGIN
  1
CELLMARGIN_BEGIN
 40
1.5
 40
1.5
 40
1.5
 40
1.5
 40
1.5
 40
1.5
309
CELLMARGIN_END
 94
        6
 95
        1
302
GRIDFORMAT
  1
GRIDFORMAT_BEGIN
 90
        0
 91
        1
 62
     0
 92
       -2
340
14
 93
        0
 40
0.045
309
GRIDFORMAT_END
 95
        2
302
GRIDFORMAT
  1
GRIDFORMAT_BEGIN
 90
        0
 91
        1
 62
     0
 92
       -2
340
14
 93
        0
 40
0.045
309
GRIDFORMAT_END
 95
        4
302
GRIDFORMAT
  1
GRIDFORMAT_BEGIN
 90
        0
 91
        1
 62
     0
 92
       -2
340
14
 93
        0
 40
0.045
309
GRIDFORMAT_END
 95
        8
302
GRIDFORMAT
  1
GRIDFORMAT_BEGIN
 90
        0
 91
        1
 62
     0
 92
       -2
340
14
 93
        0
 40
0.045
309
GRIDFORMAT_END
 95
       16
302
GRIDFORMAT
  1
GRIDFORMAT_BEGIN
 90
        0
 91
        1
 62
     0
 92
       -2
340
14
 93
        0
 40
0.045
309
GRIDFORMAT_END
 95
       32
302
GRIDFORMAT
  1
GRIDFORMAT_BEGIN
 90
        0
 91
        1
 62
     0
 92
       -2
340
14
 93
        0
 40
0.045
309
GRIDFORMAT_END
309
TABLEFORMAT_END
  1
CELLSTYLE_BEGIN
 90
        3
 91
        2
300
_DATA
309
CELLSTYLE_END
  0
XRECORD
  5
431
102
{ACAD_REACTORS
330
430
102
}
330
430
100
AcDbXrecord
280
     1
102
RTVSPost2010Prop28
280
     1
102
RTVSPost2010PropOp28
 70
     1
102
RTVSPost2010Prop29
280
     1
102
RTVSPost2010PropOp29
 70
     1
102
RTVSPost2010Prop30
280
     0
102
RTVSPost2010PropOp30
 70
     1
102
RTVSPost2010Prop31
280
     0
102
RTVSPost2010PropOp31
 70
     1
102
RTVSPost2010Prop32
280
     0
102
RTVSPost2010PropOp32
 70
     1
102
RTVSPost2010Prop33
280
     0
102
RTVSPost2010PropOp33
 70
     1
102
RTVSPost2010Prop34
280
     0
102
RTVSPost2010PropOp34
 70
     1
102
RTVSPost2010Prop35
280
     0
102
RTVSPost2010PropOp35
 70
     1
102
RTVSPost2010Prop36
280
     0
102
RTVSPost2010PropOp36
 70
     1
102
RTVSPost2010Prop37
 90
       50
102
RTVSPost2010PropOp37
 70
     1
102
RTVSPost2010Prop38
140
0.0
102
RTVSPost2010PropOp38
 70
     1
102
RTVSPost2010Prop39
140
1.0
102
RTVSPost2010PropOp39
 70
     1
102
RTVSPost2010Prop40
 90
        0
102
RTVSPost2010PropOp40
 70
     1
102
RTVSPost2010Prop41ColorIndex
 90
       18
102
RTVSPost2010Prop41ColorRGB
 90
        0
102
RTVSPost2010PropOp41
 70
     1
102
RTVSPost2010Prop42
 90
       50
102
RTVSPost2010PropOp42
 70
     1
102
RTVSPost2010Prop43
 90
        3
102
RTVSPost2010PropOp43
 70
     1
102
RTVSPost2010Prop44ColorIndex
 90
        5
102
RTVSPost2010Prop44ColorRGB
 90
      255
102
RTVSPost2010PropOp44
 70
     1
102
RTVSPost2010Prop45
280
     0
102
RTVSPost2010PropOp45
 70
     1
102
RTVSPost2010Prop46
 90
       50
102
RTVSPost2010PropOp46
 70
     1
102
RTVSPost2010Prop47
 90
       50
102
RTVSPost2010PropOp47
 70
     1
102
RTVSPost2010Prop48
 90
       50
102
RTVSPost2010PropOp48
 70
     1
102
RTVSPost2010Prop49
280
     0
102
RTVSPost2010PropOp49
 70
     1
102
RTVSPost2010Prop50
 90
       50
102
RTVSPost2010PropOp50
 70
     1
102
RTVSPost2010Prop51ColorIndex
 90
      256
102
RTVSPost2010Prop51ColorRGB
 90
-16777216
102
RTVSPost2010PropOp51
 70
     0
102
RTVSPost2010Prop52
140
1.0
102
RTVSPost2010PropOp52
 70
     0
102
RTVSPost2010Prop53
 90
        2
102
RTVSPost2010PropOp53
 70
     1
102
RTVSPost2010Prop54
  1
strokes_ogs.tif
102
RTVSPost2010PropOp54
 70
     1
102
RTVSPost2010Prop55
280
     0
102
RTVSPost2010PropOp55
 70
     1
102
RTVSPost2010Prop56
140
1.0
102
RTVSPost2010PropOp56
 70
     1
102
RTVSPost2010Prop57
140
1.0
102
RTVSPost2010PropOp57
 70
     1
  0
XRECORD
  5
437
102
{ACAD_REACTORS
330
436
102
}
330
436
100
AcDbXrecord
280
     1
102
RTVSPost2010Prop28
280
     0
102
RTVSPost2010PropOp28
 70
     1
102
RTVSPost2010Prop29
280
     1
102
RTVSPost2010PropOp29
 70
     1
102
RTVSPost2010Prop30
280
     1
102
RTVSPost2010PropOp30
 70
     1
102
RTVSPost2010Prop31
280
     0
102
RTVSPost2010PropOp31
 70
     1
102
RTVSPost2010Prop32
280
     0
102
RTVSPost2010PropOp32
 70
     1
102
RTVSPost2010Prop33
280
     0
102
RTVSPost2010PropOp33
 70
     1
102
RTVSPost2010Prop34
280
     0
102
RTVSPost2010PropOp34
 70
     1
102
RTVSPost2010Prop35
280
     0
102
RTVSPost2010PropOp35
 70
     1
102
RTVSPost2010Prop36
280
     0
102
RTVSPost2010PropOp36
 70
     1
102
RTVSPost2010Prop37
 90
       50
102
RTVSPost2010PropOp37
 70
     1
102
RTVSPost2010Prop38
140
0.0
102
RTVSPost2010PropOp38
 70
     1
102
RTVSPost2010Prop39
140
1.0
102
RTVSPost2010PropOp39
 70
     1
102
RTVSPost2010Prop40
 90
        0
102
RTVSPost2010PropOp40
 70
     1
102
RTVSPost2010Prop41ColorIndex
 90
       18
102
RTVSPost2010Prop41ColorRGB
 90
        0
102
RTVSPost2010PropOp41
 70
     1
102
RTVSPost2010Prop42
 90
       50
102
RTVSPost2010PropOp42
 70
     1
102
RTVSPost2010Prop43
 90
        3
102
RTVSPost2010PropOp43
 70
     1
102
RTVSPost2010Prop44ColorIndex
 90
        5
102
RTVSPost2010Prop44ColorRGB
 90
      255
102
RTVSPost2010PropOp44
 70
     1
102
RTVSPost2010Prop45
280
     0
102
RTVSPost2010PropOp45
 70
     1
102
RTVSPost2010Prop46
 90
       50
102
RTVSPost2010PropOp46
 70
     1
102
RTVSPost2010Prop47
 90
       50
102
RTVSPost2010PropOp47
 70
     1
102
RTVSPost2010Prop48
 90
       50
102
RTVSPost2010PropOp48
 70
     1
102
RTVSPost2010Prop49
280
     0
102
RTVSPost2010PropOp49
 70
     1
102
RTVSPost2010Prop50
 90
       50
102
RTVSPost2010PropOp50
 70
     1
102
RTVSPost2010Prop51ColorIndex
 90
      256
102
RTVSPost2010Prop51ColorRGB
 90
-16777216
102
RTVSPost2010PropOp51
 70
     0
102
RTVSPost2010Prop52
140
1.0
102
RTVSPost2010PropOp52
 70
     0
102
RTVSPost2010Prop53
 90
        2
102
RTVSPost2010PropOp53
 70
     1
102
RTVSPost2010Prop54
  1
strokes_ogs.tif
102
RTVSPost2010PropOp54
 70
     1
102
RTVSPost2010Prop55
280
     0
102
RTVSPost2010PropOp55
 70
     1
102
RTVSPost2010Prop56
140
1.0
102
RTVSPost2010PropOp56
 70
     1
102
RTVSPost2010Prop57
140
1.0
102
RTVSPost2010PropOp57
 70
     1
  0
XRECORD
  5
43F
102
{ACAD_REACTORS
330
43E
102
}
330
43E
100
AcDbXrecord
280
     1
102
RTVSPost2010Prop28
280
     0
102
RTVSPost2010PropOp28
 70
     1
102
RTVSPost2010Prop29
280
     1
102
RTVSPost2010PropOp29
 70
     1
102
RTVSPost2010Prop30
280
     1
102
RTVSPost2010PropOp30
 70
     1
102
RTVSPost2010Prop31
280
     0
102
RTVSPost2010PropOp31
 70
     1
102
RTVSPost2010Prop32
280
     0
102
RTVSPost2010PropOp32
 70
     1
102
RTVSPost2010Prop33
280
     0
102
RTVSPost2010PropOp33
 70
     1
102
RTVSPost2010Prop34
280
     0
102
RTVSPost2010PropOp34
 70
     1
102
RTVSPost2010Prop35
280
     0
102
RTVSPost2010PropOp35
 70
     1
102
RTVSPost2010Prop36
280
     0
102
RTVSPost2010PropOp36
 70
     1
102
RTVSPost2010Prop37
 90
       50
102
RTVSPost2010PropOp37
 70
     1
102
RTVSPost2010Prop38
140
0.0
102
RTVSPost2010PropOp38
 70
     1
102
RTVSPost2010Prop39
140
1.0
102
RTVSPost2010PropOp39
 70
     1
102
RTVSPost2010Prop40
 90
        0
102
RTVSPost2010PropOp40
 70
     1
102
RTVSPost2010Prop41ColorIndex
 90
       18
102
RTVSPost2010Prop41ColorRGB
 90
        0
102
RTVSPost2010PropOp41
 70
     1
102
RTVSPost2010Prop42
 90
       50
102
RTVSPost2010PropOp42
 70
     1
102
RTVSPost2010Prop43
 90
        3
102
RTVSPost2010PropOp43
 70
     1
102
RTVSPost2010Prop44ColorIndex
 90
        5
102
RTVSPost2010Prop44ColorRGB
 90
      255
102
RTVSPost2010PropOp44
 70
     1
102
RTVSPost2010Prop45
280
     0
102
RTVSPost2010PropOp45
 70
     1
102
RTVSPost2010Prop46
 90
       50
102
RTVSPost2010PropOp46
 70
     1
102
RTVSPost2010Prop47
 90
       50
102
RTVSPost2010PropOp47
 70
     1
102
RTVSPost2010Prop48
 90
       50
102
RTVSPost2010PropOp48
 70
     1
102
RTVSPost2010Prop49
280
     0
102
RTVSPost2010PropOp49
 70
     1
102
RTVSPost2010Prop50
 90
       50
102
RTVSPost2010PropOp50
 70
     1
102
RTVSPost2010Prop51ColorIndex
 90
      256
102
RTVSPost2010Prop51ColorRGB
 90
-16777216
102
RTVSPost2010PropOp51
 70
     0
102
RTVSPost2010Prop52
140
1.0
102
RTVSPost2010PropOp52
 70
     0
102
RTVSPost2010Prop53
 90
        2
102
RTVSPost2010PropOp53
 70
     1
102
RTVSPost2010Prop54
  1
strokes_ogs.tif
102
RTVSPost2010PropOp54
 70
     1
102
RTVSPost2010Prop55
280
     0
102
RTVSPost2010PropOp55
 70
     1
102
RTVSPost2010Prop56
140
1.0
102
RTVSPost2010PropOp56
 70
     1
102
RTVSPost2010Prop57
140
1.0
102
RTVSPost2010PropOp57
 70
     1
  0
XRECORD
  5
447
102
{ACAD_REACTORS
330
446
102
}
330
446
100
AcDbXrecord
280
     1
102
RTVSPost2010Prop28
280
     0
102
RTVSPost2010PropOp28
 70
     1
102
RTVSPost2010Prop29
280
     1
102
RTVSPost2010PropOp29
 70
     1
102
RTVSPost2010Prop30
280
     1
102
RTVSPost2010PropOp30
 70
     1
102
RTVSPost2010Prop31
280
     0
102
RTVSPost2010PropOp31
 70
     1
102
RTVSPost2010Prop32
280
     0
102
RTVSPost2010PropOp32
 70
     1
102
RTVSPost2010Prop33
280
     0
102
RTVSPost2010PropOp33
 70
     1
102
RTVSPost2010Prop34
280
     0
102
RTVSPost2010PropOp34
 70
     1
102
RTVSPost2010Prop35
280
     0
102
RTVSPost2010PropOp35
 70
     1
102
RTVSPost2010Prop36
280
     0
102
RTVSPost2010PropOp36
 70
     1
102
RTVSPost2010Prop37
 90
       50
102
RTVSPost2010PropOp37
 70
     1
102
RTVSPost2010Prop38
140
0.0
102
RTVSPost2010PropOp38
 70
     1
102
RTVSPost2010Prop39
140
1.0
102
RTVSPost2010PropOp39
 70
     1
102
RTVSPost2010Prop40
 90
        0
102
RTVSPost2010PropOp40
 70
     1
102
RTVSPost2010Prop41ColorIndex
 90
       18
102
RTVSPost2010Prop41ColorRGB
 90
        0
102
RTVSPost2010PropOp41
 70
     1
102
RTVSPost2010Prop42
 90
       50
102
RTVSPost2010PropOp42
 70
     1
102
RTVSPost2010Prop43
 90
        3
102
RTVSPost2010PropOp43
 70
     1
102
RTVSPost2010Prop44ColorIndex
 90
        5
102
RTVSPost2010Prop44ColorRGB
 90
      255
102
RTVSPost2010PropOp44
 70
     1
102
RTVSPost2010Prop45
280
     0
102
RTVSPost2010PropOp45
 70
     1
102
RTVSPost2010Prop46
 90
       50
102
RTVSPost2010PropOp46
 70
     1
102
RTVSPost2010Prop47
 90
       50
102
RTVSPost2010PropOp47
 70
     1
102
RTVSPost2010Prop48
 90
       50
102
RTVSPost2010PropOp48
 70
     1
102
RTVSPost2010Prop49
280
     0
102
RTVSPost2010PropOp49
 70
     1
102
RTVSPost2010Prop50
 90
       50
102
RTVSPost2010PropOp50
 70
     1
102
RTVSPost2010Prop51ColorIndex
 90
      256
102
RTVSPost2010Prop51ColorRGB
 90
-16777216
102
RTVSPost2010PropOp51
 70
     0
102
RTVSPost2010Prop52
140
1.0
102
RTVSPost2010PropOp52
 70
     0
102
RTVSPost2010Prop53
 90
        2
102
RTVSPost2010PropOp53
 70
     1
102
RTVSPost2010Prop54
  1
strokes_ogs.tif
102
RTVSPost2010PropOp54
 70
     1
102
RTVSPost2010Prop55
280
     0
102
RTVSPost2010PropOp55
 70
     1
102
RTVSPost2010Prop56
140
1.0
102
RTVSPost2010PropOp56
 70
     1
102
RTVSPost2010Prop57
140
1.0
102
RTVSPost2010PropOp57
 70
     1
  0
XRECORD
  5
43B
102
{ACAD_REACTORS
330
43A
102
}
330
43A
100
AcDbXrecord
280
     1
102
RTVSPost2010Prop28
280
     0
102
RTVSPost2010PropOp28
 70
     1
102
RTVSPost2010Prop29
280
     1
102
RTVSPost2010PropOp29
 70
     1
102
RTVSPost2010Prop30
280
     1
102
RTVSPost2010PropOp30
 70
     1
102
RTVSPost2010Prop31
280
     0
102
RTVSPost2010PropOp31
 70
     1
102
RTVSPost2010Prop32
280
     0
102
RTVSPost2010PropOp32
 70
     1
102
RTVSPost2010Prop33
280
     0
102
RTVSPost2010PropOp33
 70
     1
102
RTVSPost2010Prop34
280
     0
102
RTVSPost2010PropOp34
 70
     1
102
RTVSPost2010Prop35
280
     0
102
RTVSPost2010PropOp35
 70
     1
102
RTVSPost2010Prop36
280
     0
102
RTVSPost2010PropOp36
 70
     1
102
RTVSPost2010Prop37
 90
       50
102
RTVSPost2010PropOp37
 70
     1
102
RTVSPost2010Prop38
140
0.0
102
RTVSPost2010PropOp38
 70
     1
102
RTVSPost2010Prop39
140
1.0
102
RTVSPost2010PropOp39
 70
     1
102
RTVSPost2010Prop40
 90
        0
102
RTVSPost2010PropOp40
 70
     1
102
RTVSPost2010Prop41ColorIndex
 90
       18
102
RTVSPost2010Prop41ColorRGB
 90
        0
102
RTVSPost2010PropOp41
 70
     1
102
RTVSPost2010Prop42
 90
       50
102
RTVSPost2010PropOp42
 70
     1
102
RTVSPost2010Prop43
 90
        3
102
RTVSPost2010PropOp43
 70
     1
102
RTVSPost2010Prop44ColorIndex
 90
        5
102
RTVSPost2010Prop44ColorRGB
 90
      255
102
RTVSPost2010PropOp44
 70
     1
102
RTVSPost2010Prop45
280
     0
102
RTVSPost2010PropOp45
 70
     1
102
RTVSPost2010Prop46
 90
       50
102
RTVSPost2010PropOp46
 70
     1
102
RTVSPost2010Prop47
 90
       50
102
RTVSPost2010PropOp47
 70
     1
102
RTVSPost2010Prop48
 90
       50
102
RTVSPost2010PropOp48
 70
     1
102
RTVSPost2010Prop49
280
     0
102
RTVSPost2010PropOp49
 70
     1
102
RTVSPost2010Prop50
 90
       50
102
RTVSPost2010PropOp50
 70
     1
102
RTVSPost2010Prop51ColorIndex
 90
      256
102
RTVSPost2010Prop51ColorRGB
 90
-16777216
102
RTVSPost2010PropOp51
 70
     0
102
RTVSPost2010Prop52
140
1.0
102
RTVSPost2010PropOp52
 70
     0
102
RTVSPost2010Prop53
 90
        2
102
RTVSPost2010PropOp53
 70
     1
102
RTVSPost2010Prop54
  1
strokes_ogs.tif
102
RTVSPost2010PropOp54
 70
     1
102
RTVSPost2010Prop55
280
     0
102
RTVSPost2010PropOp55
 70
     1
102
RTVSPost2010Prop56
140
1.0
102
RTVSPost2010PropOp56
 70
     1
102
RTVSPost2010Prop57
140
1.0
102
RTVSPost2010PropOp57
 70
     1
  0
XRECORD
  5
43D
102
{ACAD_REACTORS
330
43C
102
}
330
43C
100
AcDbXrecord
280
     1
102
RTVSPost2010Prop28
280
     0
102
RTVSPost2010PropOp28
 70
     1
102
RTVSPost2010Prop29
280
     1
102
RTVSPost2010PropOp29
 70
     1
102
RTVSPost2010Prop30
280
     1
102
RTVSPost2010PropOp30
 70
     1
102
RTVSPost2010Prop31
280
     0
102
RTVSPost2010PropOp31
 70
     1
102
RTVSPost2010Prop32
280
     0
102
RTVSPost2010PropOp32
 70
     1
102
RTVSPost2010Prop33
280
     0
102
RTVSPost2010PropOp33
 70
     1
102
RTVSPost2010Prop34
280
     0
102
RTVSPost2010PropOp34
 70
     1
102
RTVSPost2010Prop35
280
     0
102
RTVSPost2010PropOp35
 70
     1
102
RTVSPost2010Prop36
280
     0
102
RTVSPost2010PropOp36
 70
     1
102
RTVSPost2010Prop37
 90
       50
102
RTVSPost2010PropOp37
 70
     1
102
RTVSPost2010Prop38
140
0.0
102
RTVSPost2010PropOp38
 70
     1
102
RTVSPost2010Prop39
140
1.0
102
RTVSPost2010PropOp39
 70
     1
102
RTVSPost2010Prop40
 90
        0
102
RTVSPost2010PropOp40
 70
     1
102
RTVSPost2010Prop41ColorIndex
 90
       18
102
RTVSPost2010Prop41ColorRGB
 90
        0
102
RTVSPost2010PropOp41
 70
     1
102
RTVSPost2010Prop42
 90
       50
102
RTVSPost2010PropOp42
 70
     1
102
RTVSPost2010Prop43
 90
        3
102
RTVSPost2010PropOp43
 70
     1
102
RTVSPost2010Prop44ColorIndex
 90
        5
102
RTVSPost2010Prop44ColorRGB
 90
      255
102
RTVSPost2010PropOp44
 70
     1
102
RTVSPost2010Prop45
280
     0
102
RTVSPost2010PropOp45
 70
     1
102
RTVSPost2010Prop46
 90
       50
102
RTVSPost2010PropOp46
 70
     1
102
RTVSPost2010Prop47
 90
       50
102
RTVSPost2010PropOp47
 70
     1
102
RTVSPost2010Prop48
 90
       50
102
RTVSPost2010PropOp48
 70
     1
102
RTVSPost2010Prop49
280
     0
102
RTVSPost2010PropOp49
 70
     1
102
RTVSPost2010Prop50
 90
       50
102
RTVSPost2010PropOp50
 70
     1
102
RTVSPost2010Prop51ColorIndex
 90
      256
102
RTVSPost2010Prop51ColorRGB
 90
-16777216
102
RTVSPost2010PropOp51
 70
     0
102
RTVSPost2010Prop52
140
1.0
102
RTVSPost2010PropOp52
 70
     0
102
RTVSPost2010Prop53
 90
        2
102
RTVSPost2010PropOp53
 70
     1
102
RTVSPost2010Prop54
  1
strokes_ogs.tif
102
RTVSPost2010PropOp54
 70
     1
102
RTVSPost2010Prop55
280
     0
102
RTVSPost2010PropOp55
 70
     1
102
RTVSPost2010Prop56
140
1.0
102
RTVSPost2010PropOp56
 70
     1
102
RTVSPost2010Prop57
140
1.0
102
RTVSPost2010PropOp57
 70
     1
  0
XRECORD
  5
44D
102
{ACAD_REACTORS
330
44C
102
}
330
44C
100
AcDbXrecord
280
     1
102
RTVSPost2010Prop28
280
     0
102
RTVSPost2010PropOp28
 70
     0
102
RTVSPost2010Prop29
280
     1
102
RTVSPost2010PropOp29
 70
     0
102
RTVSPost2010Prop30
280
     1
102
RTVSPost2010PropOp30
 70
     0
102
RTVSPost2010Prop31
280
     0
102
RTVSPost2010PropOp31
 70
     0
102
RTVSPost2010Prop32
280
     0
102
RTVSPost2010PropOp32
 70
     0
102
RTVSPost2010Prop33
280
     0
102
RTVSPost2010PropOp33
 70
     0
102
RTVSPost2010Prop34
280
     0
102
RTVSPost2010PropOp34
 70
     0
102
RTVSPost2010Prop35
280
     0
102
RTVSPost2010PropOp35
 70
     0
102
RTVSPost2010Prop36
280
     0
102
RTVSPost2010PropOp36
 70
     0
102
RTVSPost2010Prop37
 90
       50
102
RTVSPost2010PropOp37
 70
     0
102
RTVSPost2010Prop38
140
0.0
102
RTVSPost2010PropOp38
 70
     0
102
RTVSPost2010Prop39
140
1.0
102
RTVSPost2010PropOp39
 70
     0
102
RTVSPost2010Prop40
 90
        0
102
RTVSPost2010PropOp40
 70
     0
102
RTVSPost2010Prop41ColorIndex
 90
       18
102
RTVSPost2010Prop41ColorRGB
 90
        0
102
RTVSPost2010PropOp41
 70
     0
102
RTVSPost2010Prop42
 90
       50
102
RTVSPost2010PropOp42
 70
     0
102
RTVSPost2010Prop43
 90
        3
102
RTVSPost2010PropOp43
 70
     0
102
RTVSPost2010Prop44ColorIndex
 90
        5
102
RTVSPost2010Prop44ColorRGB
 90
      255
102
RTVSPost2010PropOp44
 70
     0
102
RTVSPost2010Prop45
280
     0
102
RTVSPost2010PropOp45
 70
     0
102
RTVSPost2010Prop46
 90
       50
102
RTVSPost2010PropOp46
 70
     0
102
RTVSPost2010Prop47
 90
       50
102
RTVSPost2010PropOp47
 70
     0
102
RTVSPost2010Prop48
 90
       50
102
RTVSPost2010PropOp48
 70
     0
102
RTVSPost2010Prop49
280
     0
102
RTVSPost2010PropOp49
 70
     0
102
RTVSPost2010Prop50
 90
       50
102
RTVSPost2010PropOp50
 70
     0
102
RTVSPost2010Prop51ColorIndex
 90
      256
102
RTVSPost2010Prop51ColorRGB
 90
-16777216
102
RTVSPost2010PropOp51
 70
     0
102
RTVSPost2010Prop52
140
1.0
102
RTVSPost2010PropOp52
 70
     0
102
RTVSPost2010Prop53
 90
        2
102
RTVSPost2010PropOp53
 70
     0
102
RTVSPost2010Prop54
  1
strokes_ogs.tif
102
RTVSPost2010PropOp54
 70
     0
102
RTVSPost2010Prop55
280
     0
102
RTVSPost2010PropOp55
 70
     0
102
RTVSPost2010Prop56
140
1.0
102
RTVSPost2010PropOp56
 70
     0
102
RTVSPost2010Prop57
140
1.0
102
RTVSPost2010PropOp57
 70
     0
  0
XRECORD
  5
445
102
{ACAD_REACTORS
330
444
102
}
330
444
100
AcDbXrecord
280
     1
102
RTVSPost2010Prop28
280
     0
102
RTVSPost2010PropOp28
 70
     1
102
RTVSPost2010Prop29
280
     1
102
RTVSPost2010PropOp29
 70
     1
102
RTVSPost2010Prop30
280
     1
102
RTVSPost2010PropOp30
 70
     1
102
RTVSPost2010Prop31
280
     0
102
RTVSPost2010PropOp31
 70
     1
102
RTVSPost2010Prop32
280
     0
102
RTVSPost2010PropOp32
 70
     1
102
RTVSPost2010Prop33
280
     0
102
RTVSPost2010PropOp33
 70
     1
102
RTVSPost2010Prop34
280
     0
102
RTVSPost2010PropOp34
 70
     1
102
RTVSPost2010Prop35
280
     0
102
RTVSPost2010PropOp35
 70
     1
102
RTVSPost2010Prop36
280
     0
102
RTVSPost2010PropOp36
 70
     1
102
RTVSPost2010Prop37
 90
       50
102
RTVSPost2010PropOp37
 70
     1
102
RTVSPost2010Prop38
140
0.0
102
RTVSPost2010PropOp38
 70
     1
102
RTVSPost2010Prop39
140
1.0
102
RTVSPost2010PropOp39
 70
     1
102
RTVSPost2010Prop40
 90
        0
102
RTVSPost2010PropOp40
 70
     1
102
RTVSPost2010Prop41ColorIndex
 90
       18
102
RTVSPost2010Prop41ColorRGB
 90
        0
102
RTVSPost2010PropOp41
 70
     1
102
RTVSPost2010Prop42
 90
       50
102
RTVSPost2010PropOp42
 70
     1
102
RTVSPost2010Prop43
 90
        3
102
RTVSPost2010PropOp43
 70
     1
102
RTVSPost2010Prop44ColorIndex
 90
        5
102
RTVSPost2010Prop44ColorRGB
 90
      255
102
RTVSPost2010PropOp44
 70
     1
102
RTVSPost2010Prop45
280
     0
102
RTVSPost2010PropOp45
 70
     1
102
RTVSPost2010Prop46
 90
       50
102
RTVSPost2010PropOp46
 70
     1
102
RTVSPost2010Prop47
 90
       50
102
RTVSPost2010PropOp47
 70
     1
102
RTVSPost2010Prop48
 90
       50
102
RTVSPost2010PropOp48
 70
     1
102
RTVSPost2010Prop49
280
     0
102
RTVSPost2010PropOp49
 70
     1
102
RTVSPost2010Prop50
 90
       50
102
RTVSPost2010PropOp50
 70
     1
102
RTVSPost2010Prop51ColorIndex
 90
      256
102
RTVSPost2010Prop51ColorRGB
 90
-16777216
102
RTVSPost2010PropOp51
 70
     0
102
RTVSPost2010Prop52
140
1.0
102
RTVSPost2010PropOp52
 70
     0
102
RTVSPost2010Prop53
 90
        2
102
RTVSPost2010PropOp53
 70
     1
102
RTVSPost2010Prop54
  1
strokes_ogs.tif
102
RTVSPost2010PropOp54
 70
     1
102
RTVSPost2010Prop55
280
     0
102
RTVSPost2010PropOp55
 70
     1
102
RTVSPost2010Prop56
140
1.0
102
RTVSPost2010PropOp56
 70
     1
102
RTVSPost2010Prop57
140
1.0
102
RTVSPost2010PropOp57
 70
     1
  0
XRECORD
  5
429
102
{ACAD_REACTORS
330
428
102
}
330
428
100
AcDbXrecord
280
     1
102
RTVSPost2010Prop28
280
     0
102
RTVSPost2010PropOp28
 70
     1
102
RTVSPost2010Prop29
280
     1
102
RTVSPost2010PropOp29
 70
     1
102
RTVSPost2010Prop30
280
     1
102
RTVSPost2010PropOp30
 70
     1
102
RTVSPost2010Prop31
280
     0
102
RTVSPost2010PropOp31
 70
     1
102
RTVSPost2010Prop32
280
     0
102
RTVSPost2010PropOp32
 70
     1
102
RTVSPost2010Prop33
280
     0
102
RTVSPost2010PropOp33
 70
     1
102
RTVSPost2010Prop34
280
     0
102
RTVSPost2010PropOp34
 70
     1
102
RTVSPost2010Prop35
280
     0
102
RTVSPost2010PropOp35
 70
     1
102
RTVSPost2010Prop36
280
     0
102
RTVSPost2010PropOp36
 70
     1
102
RTVSPost2010Prop37
 90
       50
102
RTVSPost2010PropOp37
 70
     1
102
RTVSPost2010Prop38
140
0.0
102
RTVSPost2010PropOp38
 70
     1
102
RTVSPost2010Prop39
140
1.0
102
RTVSPost2010PropOp39
 70
     1
102
RTVSPost2010Prop40
 90
        0
102
RTVSPost2010PropOp40
 70
     1
102
RTVSPost2010Prop41ColorIndex
 90
       18
102
RTVSPost2010Prop41ColorRGB
 90
        0
102
RTVSPost2010PropOp41
 70
     1
102
RTVSPost2010Prop42
 90
       50
102
RTVSPost2010PropOp42
 70
     1
102
RTVSPost2010Prop43
 90
        3
102
RTVSPost2010PropOp43
 70
     1
102
RTVSPost2010Prop44ColorIndex
 90
        5
102
RTVSPost2010Prop44ColorRGB
 90
      255
102
RTVSPost2010PropOp44
 70
     1
102
RTVSPost2010Prop45
280
     0
102
RTVSPost2010PropOp45
 70
     1
102
RTVSPost2010Prop46
 90
       50
102
RTVSPost2010PropOp46
 70
     1
102
RTVSPost2010Prop47
 90
       50
102
RTVSPost2010PropOp47
 70
     1
102
RTVSPost2010Prop48
 90
       50
102
RTVSPost2010PropOp48
 70
     1
102
RTVSPost2010Prop49
280
     0
102
RTVSPost2010PropOp49
 70
     1
102
RTVSPost2010Prop50
 90
       50
102
RTVSPost2010PropOp50
 70
     1
102
RTVSPost2010Prop51ColorIndex
 90
      256
102
RTVSPost2010Prop51ColorRGB
 90
-16777216
102
RTVSPost2010PropOp51
 70
     0
102
RTVSPost2010Prop52
140
1.0
102
RTVSPost2010PropOp52
 70
     0
102
RTVSPost2010Prop53
 90
        2
102
RTVSPost2010PropOp53
 70
     1
102
RTVSPost2010Prop54
  1
strokes_ogs.tif
102
RTVSPost2010PropOp54
 70
     1
102
RTVSPost2010Prop55
280
     0
102
RTVSPost2010PropOp55
 70
     1
102
RTVSPost2010Prop56
140
1.0
102
RTVSPost2010PropOp56
 70
     1
102
RTVSPost2010Prop57
140
1.0
102
RTVSPost2010PropOp57
 70
     1
  0
XRECORD
  5
42B
102
{ACAD_REACTORS
330
42A
102
}
330
42A
100
AcDbXrecord
280
     1
102
RTVSPost2010Prop28
280
     0
102
RTVSPost2010PropOp28
 70
     1
102
RTVSPost2010Prop29
280
     1
102
RTVSPost2010PropOp29
 70
     1
102
RTVSPost2010Prop30
280
     1
102
RTVSPost2010PropOp30
 70
     1
102
RTVSPost2010Prop31
280
     0
102
RTVSPost2010PropOp31
 70
     1
102
RTVSPost2010Prop32
280
     0
102
RTVSPost2010PropOp32
 70
     1
102
RTVSPost2010Prop33
280
     0
102
RTVSPost2010PropOp33
 70
     1
102
RTVSPost2010Prop34
280
     0
102
RTVSPost2010PropOp34
 70
     1
102
RTVSPost2010Prop35
280
     0
102
RTVSPost2010PropOp35
 70
     1
102
RTVSPost2010Prop36
280
     0
102
RTVSPost2010PropOp36
 70
     1
102
RTVSPost2010Prop37
 90
       50
102
RTVSPost2010PropOp37
 70
     1
102
RTVSPost2010Prop38
140
0.0
102
RTVSPost2010PropOp38
 70
     1
102
RTVSPost2010Prop39
140
1.0
102
RTVSPost2010PropOp39
 70
     1
102
RTVSPost2010Prop40
 90
        0
102
RTVSPost2010PropOp40
 70
     1
102
RTVSPost2010Prop41ColorIndex
 90
       18
102
RTVSPost2010Prop41ColorRGB
 90
        0
102
RTVSPost2010PropOp41
 70
     1
102
RTVSPost2010Prop42
 90
       50
102
RTVSPost2010PropOp42
 70
     1
102
RTVSPost2010Prop43
 90
        3
102
RTVSPost2010PropOp43
 70
     1
102
RTVSPost2010Prop44ColorIndex
 90
        5
102
RTVSPost2010Prop44ColorRGB
 90
      255
102
RTVSPost2010PropOp44
 70
     1
102
RTVSPost2010Prop45
280
     0
102
RTVSPost2010PropOp45
 70
     1
102
RTVSPost2010Prop46
 90
       50
102
RTVSPost2010PropOp46
 70
     1
102
RTVSPost2010Prop47
 90
       50
102
RTVSPost2010PropOp47
 70
     1
102
RTVSPost2010Prop48
 90
       50
102
RTVSPost2010PropOp48
 70
     1
102
RTVSPost2010Prop49
280
     0
102
RTVSPost2010PropOp49
 70
     1
102
RTVSPost2010Prop50
 90
       50
102
RTVSPost2010PropOp50
 70
     1
102
RTVSPost2010Prop51ColorIndex
 90
      256
102
RTVSPost2010Prop51ColorRGB
 90
-16777216
102
RTVSPost2010PropOp51
 70
     0
102
RTVSPost2010Prop52
140
1.0
102
RTVSPost2010PropOp52
 70
     0
102
RTVSPost2010Prop53
 90
        2
102
RTVSPost2010PropOp53
 70
     1
102
RTVSPost2010Prop54
  1
strokes_ogs.tif
102
RTVSPost2010PropOp54
 70
     1
102
RTVSPost2010Prop55
280
     0
102
RTVSPost2010PropOp55
 70
     1
102
RTVSPost2010Prop56
140
1.0
102
RTVSPost2010PropOp56
 70
     1
102
RTVSPost2010Prop57
140
1.0
102
RTVSPost2010PropOp57
 70
     1
  0
XRECORD
  5
42D
102
{ACAD_REACTORS
330
42C
102
}
330
42C
100
AcDbXrecord
280
     1
102
RTVSPost2010Prop28
280
     0
102
RTVSPost2010PropOp28
 70
     1
102
RTVSPost2010Prop29
280
     1
102
RTVSPost2010PropOp29
 70
     1
102
RTVSPost2010Prop30
280
     1
102
RTVSPost2010PropOp30
 70
     1
102
RTVSPost2010Prop31
280
     0
102
RTVSPost2010PropOp31
 70
     1
102
RTVSPost2010Prop32
280
     0
102
RTVSPost2010PropOp32
 70
     1
102
RTVSPost2010Prop33
280
     0
102
RTVSPost2010PropOp33
 70
     1
102
RTVSPost2010Prop34
280
     0
102
RTVSPost2010PropOp34
 70
     1
102
RTVSPost2010Prop35
280
     0
102
RTVSPost2010PropOp35
 70
     1
102
RTVSPost2010Prop36
280
     0
102
RTVSPost2010PropOp36
 70
     1
102
RTVSPost2010Prop37
 90
       50
102
RTVSPost2010PropOp37
 70
     1
102
RTVSPost2010Prop38
140
0.0
102
RTVSPost2010PropOp38
 70
     1
102
RTVSPost2010Prop39
140
1.0
102
RTVSPost2010PropOp39
 70
     1
102
RTVSPost2010Prop40
 90
        0
102
RTVSPost2010PropOp40
 70
     1
102
RTVSPost2010Prop41ColorIndex
 90
       18
102
RTVSPost2010Prop41ColorRGB
 90
        0
102
RTVSPost2010PropOp41
 70
     1
102
RTVSPost2010Prop42
 90
       50
102
RTVSPost2010PropOp42
 70
     1
102
RTVSPost2010Prop43
 90
        3
102
RTVSPost2010PropOp43
 70
     1
102
RTVSPost2010Prop44ColorIndex
 90
        5
102
RTVSPost2010Prop44ColorRGB
 90
      255
102
RTVSPost2010PropOp44
 70
     1
102
RTVSPost2010Prop45
280
     0
102
RTVSPost2010PropOp45
 70
     1
102
RTVSPost2010Prop46
 90
       50
102
RTVSPost2010PropOp46
 70
     1
102
RTVSPost2010Prop47
 90
       50
102
RTVSPost2010PropOp47
 70
     1
102
RTVSPost2010Prop48
 90
       50
102
RTVSPost2010PropOp48
 70
     1
102
RTVSPost2010Prop49
280
     0
102
RTVSPost2010PropOp49
 70
     1
102
RTVSPost2010Prop50
 90
       50
102
RTVSPost2010PropOp50
 70
     1
102
RTVSPost2010Prop51ColorIndex
 90
      256
102
RTVSPost2010Prop51ColorRGB
 90
-16777216
102
RTVSPost2010PropOp51
 70
     0
102
RTVSPost2010Prop52
140
1.0
102
RTVSPost2010PropOp52
 70
     0
102
RTVSPost2010Prop53
 90
        2
102
RTVSPost2010PropOp53
 70
     1
102
RTVSPost2010Prop54
  1
strokes_ogs.tif
102
RTVSPost2010PropOp54
 70
     1
102
RTVSPost2010Prop55
280
     0
102
RTVSPost2010PropOp55
 70
     1
102
RTVSPost2010Prop56
140
1.0
102
RTVSPost2010PropOp56
 70
     1
102
RTVSPost2010Prop57
140
1.0
102
RTVSPost2010PropOp57
 70
     1
  0
XRECORD
  5
42F
102
{ACAD_REACTORS
330
42E
102
}
330
42E
100
AcDbXrecord
280
     1
102
RTVSPost2010Prop28
280
     0
102
RTVSPost2010PropOp28
 70
     1
102
RTVSPost2010Prop29
280
     1
102
RTVSPost2010PropOp29
 70
     1
102
RTVSPost2010Prop30
280
     1
102
RTVSPost2010PropOp30
 70
     1
102
RTVSPost2010Prop31
280
     0
102
RTVSPost2010PropOp31
 70
     1
102
RTVSPost2010Prop32
280
     0
102
RTVSPost2010PropOp32
 70
     1
102
RTVSPost2010Prop33
280
     0
102
RTVSPost2010PropOp33
 70
     1
102
RTVSPost2010Prop34
280
     0
102
RTVSPost2010PropOp34
 70
     1
102
RTVSPost2010Prop35
280
     0
102
RTVSPost2010PropOp35
 70
     1
102
RTVSPost2010Prop36
280
     0
102
RTVSPost2010PropOp36
 70
     1
102
RTVSPost2010Prop37
 90
       50
102
RTVSPost2010PropOp37
 70
     1
102
RTVSPost2010Prop38
140
0.0
102
RTVSPost2010PropOp38
 70
     1
102
RTVSPost2010Prop39
140
1.0
102
RTVSPost2010PropOp39
 70
     1
102
RTVSPost2010Prop40
 90
        0
102
RTVSPost2010PropOp40
 70
     1
102
RTVSPost2010Prop41ColorIndex
 90
       18
102
RTVSPost2010Prop41ColorRGB
 90
        0
102
RTVSPost2010PropOp41
 70
     1
102
RTVSPost2010Prop42
 90
       50
102
RTVSPost2010PropOp42
 70
     1
102
RTVSPost2010Prop43
 90
        3
102
RTVSPost2010PropOp43
 70
     1
102
RTVSPost2010Prop44ColorIndex
 90
        5
102
RTVSPost2010Prop44ColorRGB
 90
      255
102
RTVSPost2010PropOp44
 70
     1
102
RTVSPost2010Prop45
280
     0
102
RTVSPost2010PropOp45
 70
     1
102
RTVSPost2010Prop46
 90
       50
102
RTVSPost2010PropOp46
 70
     1
102
RTVSPost2010Prop47
 90
       50
102
RTVSPost2010PropOp47
 70
     1
102
RTVSPost2010Prop48
 90
       50
102
RTVSPost2010PropOp48
 70
     1
102
RTVSPost2010Prop49
280
     0
102
RTVSPost2010PropOp49
 70
     1
102
RTVSPost2010Prop50
 90
       50
102
RTVSPost2010PropOp50
 70
     1
102
RTVSPost2010Prop51ColorIndex
 90
      256
102
RTVSPost2010Prop51ColorRGB
 90
-16777216
102
RTVSPost2010PropOp51
 70
     0
102
RTVSPost2010Prop52
140
1.0
102
RTVSPost2010PropOp52
 70
     0
102
RTVSPost2010Prop53
 90
        2
102
RTVSPost2010PropOp53
 70
     1
102
RTVSPost2010Prop54
  1
strokes_ogs.tif
102
RTVSPost2010PropOp54
 70
     1
102
RTVSPost2010Prop55
280
     0
102
RTVSPost2010PropOp55
 70
     1
102
RTVSPost2010Prop56
140
1.0
102
RTVSPost2010PropOp56
 70
     1
102
RTVSPost2010Prop57
140
1.0
102
RTVSPost2010PropOp57
 70
     1
  0
XRECORD
  5
435
102
{ACAD_REACTORS
330
434
102
}
330
434
100
AcDbXrecord
280
     1
102
RTVSPost2010Prop28
280
     0
102
RTVSPost2010PropOp28
 70
     1
102
RTVSPost2010Prop29
280
     1
102
RTVSPost2010PropOp29
 70
     1
102
RTVSPost2010Prop30
280
     1
102
RTVSPost2010PropOp30
 70
     1
102
RTVSPost2010Prop31
280
     0
102
RTVSPost2010PropOp31
 70
     1
102
RTVSPost2010Prop32
280
     0
102
RTVSPost2010PropOp32
 70
     1
102
RTVSPost2010Prop33
280
     0
102
RTVSPost2010PropOp33
 70
     1
102
RTVSPost2010Prop34
280
     0
102
RTVSPost2010PropOp34
 70
     1
102
RTVSPost2010Prop35
280
     0
102
RTVSPost2010PropOp35
 70
     1
102
RTVSPost2010Prop36
280
     0
102
RTVSPost2010PropOp36
 70
     1
102
RTVSPost2010Prop37
 90
       50
102
RTVSPost2010PropOp37
 70
     1
102
RTVSPost2010Prop38
140
0.0
102
RTVSPost2010PropOp38
 70
     1
102
RTVSPost2010Prop39
140
1.0
102
RTVSPost2010PropOp39
 70
     1
102
RTVSPost2010Prop40
 90
        0
102
RTVSPost2010PropOp40
 70
     1
102
RTVSPost2010Prop41ColorIndex
 90
       18
102
RTVSPost2010Prop41ColorRGB
 90
        0
102
RTVSPost2010PropOp41
 70
     1
102
RTVSPost2010Prop42
 90
       50
102
RTVSPost2010PropOp42
 70
     1
102
RTVSPost2010Prop43
 90
        3
102
RTVSPost2010PropOp43
 70
     1
102
RTVSPost2010Prop44ColorIndex
 90
        5
102
RTVSPost2010Prop44ColorRGB
 90
      255
102
RTVSPost2010PropOp44
 70
     1
102
RTVSPost2010Prop45
280
     0
102
RTVSPost2010PropOp45
 70
     1
102
RTVSPost2010Prop46
 90
       50
102
RTVSPost2010PropOp46
 70
     1
102
RTVSPost2010Prop47
 90
       50
102
RTVSPost2010PropOp47
 70
     1
102
RTVSPost2010Prop48
 90
       50
102
RTVSPost2010PropOp48
 70
     1
102
RTVSPost2010Prop49
280
     0
102
RTVSPost2010PropOp49
 70
     1
102
RTVSPost2010Prop50
 90
       50
102
RTVSPost2010PropOp50
 70
     1
102
RTVSPost2010Prop51ColorIndex
 90
      256
102
RTVSPost2010Prop51ColorRGB
 90
-16777216
102
RTVSPost2010PropOp51
 70
     0
102
RTVSPost2010Prop52
140
1.0
102
RTVSPost2010PropOp52
 70
     0
102
RTVSPost2010Prop53
 90
        2
102
RTVSPost2010PropOp53
 70
     1
102
RTVSPost2010Prop54
  1
strokes_ogs.tif
102
RTVSPost2010PropOp54
 70
     1
102
RTVSPost2010Prop55
280
     0
102
RTVSPost2010PropOp55
 70
     1
102
RTVSPost2010Prop56
140
1.0
102
RTVSPost2010PropOp56
 70
     1
102
RTVSPost2010Prop57
140
1.0
102
RTVSPost2010PropOp57
 70
     1
  0
XRECORD
  5
449
102
{ACAD_REACTORS
330
448
102
}
330
448
100
AcDbXrecord
280
     1
102
RTVSPost2010Prop28
280
     0
102
RTVSPost2010PropOp28
 70
     0
102
RTVSPost2010Prop29
280
     1
102
RTVSPost2010PropOp29
 70
     0
102
RTVSPost2010Prop30
280
     1
102
RTVSPost2010PropOp30
 70
     0
102
RTVSPost2010Prop31
280
     0
102
RTVSPost2010PropOp31
 70
     0
102
RTVSPost2010Prop32
280
     0
102
RTVSPost2010PropOp32
 70
     0
102
RTVSPost2010Prop33
280
     0
102
RTVSPost2010PropOp33
 70
     0
102
RTVSPost2010Prop34
280
     0
102
RTVSPost2010PropOp34
 70
     0
102
RTVSPost2010Prop35
280
     0
102
RTVSPost2010PropOp35
 70
     0
102
RTVSPost2010Prop36
280
     0
102
RTVSPost2010PropOp36
 70
     0
102
RTVSPost2010Prop37
 90
       50
102
RTVSPost2010PropOp37
 70
     0
102
RTVSPost2010Prop38
140
0.0
102
RTVSPost2010PropOp38
 70
     0
102
RTVSPost2010Prop39
140
1.0
102
RTVSPost2010PropOp39
 70
     0
102
RTVSPost2010Prop40
 90
        0
102
RTVSPost2010PropOp40
 70
     0
102
RTVSPost2010Prop41ColorIndex
 90
       18
102
RTVSPost2010Prop41ColorRGB
 90
        0
102
RTVSPost2010PropOp41
 70
     0
102
RTVSPost2010Prop42
 90
       50
102
RTVSPost2010PropOp42
 70
     0
102
RTVSPost2010Prop43
 90
        3
102
RTVSPost2010PropOp43
 70
     0
102
RTVSPost2010Prop44ColorIndex
 90
        5
102
RTVSPost2010Prop44ColorRGB
 90
      255
102
RTVSPost2010PropOp44
 70
     0
102
RTVSPost2010Prop45
280
     0
102
RTVSPost2010PropOp45
 70
     0
102
RTVSPost2010Prop46
 90
       50
102
RTVSPost2010PropOp46
 70
     0
102
RTVSPost2010Prop47
 90
       50
102
RTVSPost2010PropOp47
 70
     0
102
RTVSPost2010Prop48
 90
       50
102
RTVSPost2010PropOp48
 70
     0
102
RTVSPost2010Prop49
280
     0
102
RTVSPost2010PropOp49
 70
     0
102
RTVSPost2010Prop50
 90
       50
102
RTVSPost2010PropOp50
 70
     0
102
RTVSPost2010Prop51ColorIndex
 90
      256
102
RTVSPost2010Prop51ColorRGB
 90
-16777216
102
RTVSPost2010PropOp51
 70
     0
102
RTVSPost2010Prop52
140
1.0
102
RTVSPost2010PropOp52
 70
     0
102
RTVSPost2010Prop53
 90
        2
102
RTVSPost2010PropOp53
 70
     0
102
RTVSPost2010Prop54
  1
strokes_ogs.tif
102
RTVSPost2010PropOp54
 70
     0
102
RTVSPost2010Prop55
280
     0
102
RTVSPost2010PropOp55
 70
     0
102
RTVSPost2010Prop56
140
1.0
102
RTVSPost2010PropOp56
 70
     0
102
RTVSPost2010Prop57
140
1.0
102
RTVSPost2010PropOp57
 70
     0
  0
XRECORD
  5
443
102
{ACAD_REACTORS
330
442
102
}
330
442
100
AcDbXrecord
280
     1
102
RTVSPost2010Prop28
280
     0
102
RTVSPost2010PropOp28
 70
     1
102
RTVSPost2010Prop29
280
     1
102
RTVSPost2010PropOp29
 70
     1
102
RTVSPost2010Prop30
280
     1
102
RTVSPost2010PropOp30
 70
     1
102
RTVSPost2010Prop31
280
     0
102
RTVSPost2010PropOp31
 70
     1
102
RTVSPost2010Prop32
280
     0
102
RTVSPost2010PropOp32
 70
     1
102
RTVSPost2010Prop33
280
     0
102
RTVSPost2010PropOp33
 70
     1
102
RTVSPost2010Prop34
280
     0
102
RTVSPost2010PropOp34
 70
     1
102
RTVSPost2010Prop35
280
     0
102
RTVSPost2010PropOp35
 70
     1
102
RTVSPost2010Prop36
280
     0
102
RTVSPost2010PropOp36
 70
     1
102
RTVSPost2010Prop37
 90
       50
102
RTVSPost2010PropOp37
 70
     1
102
RTVSPost2010Prop38
140
0.0
102
RTVSPost2010PropOp38
 70
     1
102
RTVSPost2010Prop39
140
1.0
102
RTVSPost2010PropOp39
 70
     1
102
RTVSPost2010Prop40
 90
        0
102
RTVSPost2010PropOp40
 70
     1
102
RTVSPost2010Prop41ColorIndex
 90
       18
102
RTVSPost2010Prop41ColorRGB
 90
        0
102
RTVSPost2010PropOp41
 70
     1
102
RTVSPost2010Prop42
 90
       50
102
RTVSPost2010PropOp42
 70
     1
102
RTVSPost2010Prop43
 90
        3
102
RTVSPost2010PropOp43
 70
     1
102
RTVSPost2010Prop44ColorIndex
 90
        5
102
RTVSPost2010Prop44ColorRGB
 90
      255
102
RTVSPost2010PropOp44
 70
     1
102
RTVSPost2010Prop45
280
     0
102
RTVSPost2010PropOp45
 70
     1
102
RTVSPost2010Prop46
 90
       50
102
RTVSPost2010PropOp46
 70
     1
102
RTVSPost2010Prop47
 90
       50
102
RTVSPost2010PropOp47
 70
     1
102
RTVSPost2010Prop48
 90
       50
102
RTVSPost2010PropOp48
 70
     1
102
RTVSPost2010Prop49
280
     0
102
RTVSPost2010PropOp49
 70
     1
102
RTVSPost2010Prop50
 90
       50
102
RTVSPost2010PropOp50
 70
     1
102
RTVSPost2010Prop51ColorIndex
 90
      256
102
RTVSPost2010Prop51ColorRGB
 90
-16777216
102
RTVSPost2010PropOp51
 70
     0
102
RTVSPost2010Prop52
140
1.0
102
RTVSPost2010PropOp52
 70
     0
102
RTVSPost2010Prop53
 90
        2
102
RTVSPost2010PropOp53
 70
     1
102
RTVSPost2010Prop54
  1
strokes_ogs.tif
102
RTVSPost2010PropOp54
 70
     1
102
RTVSPost2010Prop55
280
     0
102
RTVSPost2010PropOp55
 70
     1
102
RTVSPost2010Prop56
140
1.0
102
RTVSPost2010PropOp56
 70
     1
102
RTVSPost2010Prop57
140
1.0
102
RTVSPost2010PropOp57
 70
     1
  0
XRECORD
  5
44B
102
{ACAD_REACTORS
330
44A
102
}
330
44A
100
AcDbXrecord
280
     1
102
RTVSPost2010Prop28
280
     0
102
RTVSPost2010PropOp28
 70
     0
102
RTVSPost2010Prop29
280
     1
102
RTVSPost2010PropOp29
 70
     0
102
RTVSPost2010Prop30
280
     1
102
RTVSPost2010PropOp30
 70
     0
102
RTVSPost2010Prop31
280
     0
102
RTVSPost2010PropOp31
 70
     0
102
RTVSPost2010Prop32
280
     0
102
RTVSPost2010PropOp32
 70
     0
102
RTVSPost2010Prop33
280
     0
102
RTVSPost2010PropOp33
 70
     0
102
RTVSPost2010Prop34
280
     0
102
RTVSPost2010PropOp34
 70
     0
102
RTVSPost2010Prop35
280
     0
102
RTVSPost2010PropOp35
 70
     0
102
RTVSPost2010Prop36
280
     0
102
RTVSPost2010PropOp36
 70
     0
102
RTVSPost2010Prop37
 90
       50
102
RTVSPost2010PropOp37
 70
     0
102
RTVSPost2010Prop38
140
0.0
102
RTVSPost2010PropOp38
 70
     0
102
RTVSPost2010Prop39
140
1.0
102
RTVSPost2010PropOp39
 70
     0
102
RTVSPost2010Prop40
 90
        0
102
RTVSPost2010PropOp40
 70
     0
102
RTVSPost2010Prop41ColorIndex
 90
       18
102
RTVSPost2010Prop41ColorRGB
 90
        0
102
RTVSPost2010PropOp41
 70
     0
102
RTVSPost2010Prop42
 90
       50
102
RTVSPost2010PropOp42
 70
     0
102
RTVSPost2010Prop43
 90
        3
102
RTVSPost2010PropOp43
 70
     0
102
RTVSPost2010Prop44ColorIndex
 90
        5
102
RTVSPost2010Prop44ColorRGB
 90
      255
102
RTVSPost2010PropOp44
 70
     0
102
RTVSPost2010Prop45
280
     0
102
RTVSPost2010PropOp45
 70
     0
102
RTVSPost2010Prop46
 90
       50
102
RTVSPost2010PropOp46
 70
     0
102
RTVSPost2010Prop47
 90
       50
102
RTVSPost2010PropOp47
 70
     0
102
RTVSPost2010Prop48
 90
       50
102
RTVSPost2010PropOp48
 70
     0
102
RTVSPost2010Prop49
280
     0
102
RTVSPost2010PropOp49
 70
     0
102
RTVSPost2010Prop50
 90
       50
102
RTVSPost2010PropOp50
 70
     0
102
RTVSPost2010Prop51ColorIndex
 90
      256
102
RTVSPost2010Prop51ColorRGB
 90
-16777216
102
RTVSPost2010PropOp51
 70
     0
102
RTVSPost2010Prop52
140
1.0
102
RTVSPost2010PropOp52
 70
     0
102
RTVSPost2010Prop53
 90
        2
102
RTVSPost2010PropOp53
 70
     0
102
RTVSPost2010Prop54
  1
strokes_ogs.tif
102
RTVSPost2010PropOp54
 70
     0
102
RTVSPost2010Prop55
280
     0
102
RTVSPost2010PropOp55
 70
     0
102
RTVSPost2010Prop56
140
1.0
102
RTVSPost2010PropOp56
 70
     0
102
RTVSPost2010Prop57
140
1.0
102
RTVSPost2010PropOp57
 70
     0
  0
XRECORD
  5
439
102
{ACAD_REACTORS
330
438
102
}
330
438
100
AcDbXrecord
280
     1
102
RTVSPost2010Prop28
280
     0
102
RTVSPost2010PropOp28
 70
     1
102
RTVSPost2010Prop29
280
     1
102
RTVSPost2010PropOp29
 70
     1
102
RTVSPost2010Prop30
280
     1
102
RTVSPost2010PropOp30
 70
     1
102
RTVSPost2010Prop31
280
     0
102
RTVSPost2010PropOp31
 70
     1
102
RTVSPost2010Prop32
280
     0
102
RTVSPost2010PropOp32
 70
     1
102
RTVSPost2010Prop33
280
     0
102
RTVSPost2010PropOp33
 70
     1
102
RTVSPost2010Prop34
280
     0
102
RTVSPost2010PropOp34
 70
     1
102
RTVSPost2010Prop35
280
     0
102
RTVSPost2010PropOp35
 70
     1
102
RTVSPost2010Prop36
280
     0
102
RTVSPost2010PropOp36
 70
     1
102
RTVSPost2010Prop37
 90
       50
102
RTVSPost2010PropOp37
 70
     1
102
RTVSPost2010Prop38
140
0.0
102
RTVSPost2010PropOp38
 70
     1
102
RTVSPost2010Prop39
140
1.0
102
RTVSPost2010PropOp39
 70
     1
102
RTVSPost2010Prop40
 90
        0
102
RTVSPost2010PropOp40
 70
     1
102
RTVSPost2010Prop41ColorIndex
 90
       18
102
RTVSPost2010Prop41ColorRGB
 90
        0
102
RTVSPost2010PropOp41
 70
     1
102
RTVSPost2010Prop42
 90
       50
102
RTVSPost2010PropOp42
 70
     1
102
RTVSPost2010Prop43
 90
        3
102
RTVSPost2010PropOp43
 70
     1
102
RTVSPost2010Prop44ColorIndex
 90
        5
102
RTVSPost2010Prop44ColorRGB
 90
      255
102
RTVSPost2010PropOp44
 70
     1
102
RTVSPost2010Prop45
280
     0
102
RTVSPost2010PropOp45
 70
     1
102
RTVSPost2010Prop46
 90
       50
102
RTVSPost2010PropOp46
 70
     1
102
RTVSPost2010Prop47
 90
       50
102
RTVSPost2010PropOp47
 70
     1
102
RTVSPost2010Prop48
 90
       50
102
RTVSPost2010PropOp48
 70
     1
102
RTVSPost2010Prop49
280
     0
102
RTVSPost2010PropOp49
 70
     1
102
RTVSPost2010Prop50
 90
       50
102
RTVSPost2010PropOp50
 70
     1
102
RTVSPost2010Prop51ColorIndex
 90
      256
102
RTVSPost2010Prop51ColorRGB
 90
-16777216
102
RTVSPost2010PropOp51
 70
     0
102
RTVSPost2010Prop52
140
1.0
102
RTVSPost2010PropOp52
 70
     0
102
RTVSPost2010Prop53
 90
        2
102
RTVSPost2010PropOp53
 70
     1
102
RTVSPost2010Prop54
  1
strokes_ogs.tif
102
RTVSPost2010PropOp54
 70
     1
102
RTVSPost2010Prop55
280
     0
102
RTVSPost2010PropOp55
 70
     1
102
RTVSPost2010Prop56
140
1.0
102
RTVSPost2010PropOp56
 70
     1
102
RTVSPost2010Prop57
140
1.0
102
RTVSPost2010PropOp57
 70
     1
  0
XRECORD
  5
457
102
{ACAD_REACTORS
330
456
102
}
330
456
100
AcDbXrecord
280
     1
102
RTVSPost2010Prop28
280
     0
102
RTVSPost2010PropOp28
 70
     1
102
RTVSPost2010Prop29
280
     1
102
RTVSPost2010PropOp29
 70
     1
102
RTVSPost2010Prop30
280
     1
102
RTVSPost2010PropOp30
 70
     1
102
RTVSPost2010Prop31
280
     0
102
RTVSPost2010PropOp31
 70
     1
102
RTVSPost2010Prop32
280
     0
102
RTVSPost2010PropOp32
 70
     1
102
RTVSPost2010Prop33
280
     0
102
RTVSPost2010PropOp33
 70
     1
102
RTVSPost2010Prop34
280
     0
102
RTVSPost2010PropOp34
 70
     1
102
RTVSPost2010Prop35
280
     0
102
RTVSPost2010PropOp35
 70
     1
102
RTVSPost2010Prop36
280
     0
102
RTVSPost2010PropOp36
 70
     1
102
RTVSPost2010Prop37
 90
       50
102
RTVSPost2010PropOp37
 70
     1
102
RTVSPost2010Prop38
140
0.0
102
RTVSPost2010PropOp38
 70
     1
102
RTVSPost2010Prop39
140
1.0
102
RTVSPost2010PropOp39
 70
     1
102
RTVSPost2010Prop40
 90
        0
102
RTVSPost2010PropOp40
 70
     1
102
RTVSPost2010Prop41ColorIndex
 90
       18
102
RTVSPost2010Prop41ColorRGB
 90
        0
102
RTVSPost2010PropOp41
 70
     1
102
RTVSPost2010Prop42
 90
       50
102
RTVSPost2010PropOp42
 70
     1
102
RTVSPost2010Prop43
 90
        3
102
RTVSPost2010PropOp43
 70
     1
102
RTVSPost2010Prop44ColorIndex
 90
        5
102
RTVSPost2010Prop44ColorRGB
 90
      255
102
RTVSPost2010PropOp44
 70
     1
102
RTVSPost2010Prop45
280
     0
102
RTVSPost2010PropOp45
 70
     1
102
RTVSPost2010Prop46
 90
       50
102
RTVSPost2010PropOp46
 70
     1
102
RTVSPost2010Prop47
 90
       50
102
RTVSPost2010PropOp47
 70
     1
102
RTVSPost2010Prop48
 90
       50
102
RTVSPost2010PropOp48
 70
     1
102
RTVSPost2010Prop49
280
     0
102
RTVSPost2010PropOp49
 70
     1
102
RTVSPost2010Prop50
 90
       50
102
RTVSPost2010PropOp50
 70
     1
102
RTVSPost2010Prop51ColorIndex
 90
      256
102
RTVSPost2010Prop51ColorRGB
 90
-16777216
102
RTVSPost2010PropOp51
 70
     0
102
RTVSPost2010Prop52
140
1.0
102
RTVSPost2010PropOp52
 70
     0
102
RTVSPost2010Prop53
 90
        2
102
RTVSPost2010PropOp53
 70
     1
102
RTVSPost2010Prop54
  1
strokes_ogs.tif
102
RTVSPost2010PropOp54
 70
     1
102
RTVSPost2010Prop55
280
     0
102
RTVSPost2010PropOp55
 70
     1
102
RTVSPost2010Prop56
140
1.0
102
RTVSPost2010PropOp56
 70
     1
102
RTVSPost2010Prop57
140
1.0
102
RTVSPost2010PropOp57
 70
     1
  0
XRECORD
  5
455
102
{ACAD_REACTORS
330
454
102
}
330
454
100
AcDbXrecord
280
     1
102
RTVSPost2010Prop28
280
     0
102
RTVSPost2010PropOp28
 70
     1
102
RTVSPost2010Prop29
280
     1
102
RTVSPost2010PropOp29
 70
     1
102
RTVSPost2010Prop30
280
     1
102
RTVSPost2010PropOp30
 70
     1
102
RTVSPost2010Prop31
280
     0
102
RTVSPost2010PropOp31
 70
     1
102
RTVSPost2010Prop32
280
     0
102
RTVSPost2010PropOp32
 70
     1
102
RTVSPost2010Prop33
280
     0
102
RTVSPost2010PropOp33
 70
     1
102
RTVSPost2010Prop34
280
     0
102
RTVSPost2010PropOp34
 70
     1
102
RTVSPost2010Prop35
280
     0
102
RTVSPost2010PropOp35
 70
     1
102
RTVSPost2010Prop36
280
     0
102
RTVSPost2010PropOp36
 70
     1
102
RTVSPost2010Prop37
 90
       50
102
RTVSPost2010PropOp37
 70
     1
102
RTVSPost2010Prop38
140
0.0
102
RTVSPost2010PropOp38
 70
     1
102
RTVSPost2010Prop39
140
1.0
102
RTVSPost2010PropOp39
 70
     1
102
RTVSPost2010Prop40
 90
        0
102
RTVSPost2010PropOp40
 70
     1
102
RTVSPost2010Prop41ColorIndex
 90
       18
102
RTVSPost2010Prop41ColorRGB
 90
        0
102
RTVSPost2010PropOp41
 70
     1
102
RTVSPost2010Prop42
 90
       50
102
RTVSPost2010PropOp42
 70
     1
102
RTVSPost2010Prop43
 90
        3
102
RTVSPost2010PropOp43
 70
     1
102
RTVSPost2010Prop44ColorIndex
 90
        5
102
RTVSPost2010Prop44ColorRGB
 90
      255
102
RTVSPost2010PropOp44
 70
     1
102
RTVSPost2010Prop45
280
     0
102
RTVSPost2010PropOp45
 70
     1
102
RTVSPost2010Prop46
 90
       50
102
RTVSPost2010PropOp46
 70
     1
102
RTVSPost2010Prop47
 90
       50
102
RTVSPost2010PropOp47
 70
     1
102
RTVSPost2010Prop48
 90
       50
102
RTVSPost2010PropOp48
 70
     1
102
RTVSPost2010Prop49
280
     0
102
RTVSPost2010PropOp49
 70
     1
102
RTVSPost2010Prop50
 90
       50
102
RTVSPost2010PropOp50
 70
     1
102
RTVSPost2010Prop51ColorIndex
 90
      256
102
RTVSPost2010Prop51ColorRGB
 90
-16777216
102
RTVSPost2010PropOp51
 70
     0
102
RTVSPost2010Prop52
140
1.0
102
RTVSPost2010PropOp52
 70
     0
102
RTVSPost2010Prop53
 90
        2
102
RTVSPost2010PropOp53
 70
     1
102
RTVSPost2010Prop54
  1
strokes_ogs.tif
102
RTVSPost2010PropOp54
 70
     1
102
RTVSPost2010Prop55
280
     0
102
RTVSPost2010PropOp55
 70
     1
102
RTVSPost2010Prop56
140
1.0
102
RTVSPost2010PropOp56
 70
     1
102
RTVSPost2010Prop57
140
1.0
102
RTVSPost2010PropOp57
 70
     1
  0
XRECORD
  5
44F
102
{ACAD_REACTORS
330
44E
102
}
330
44E
100
AcDbXrecord
280
     1
102
RTVSPost2010Prop28
280
     0
102
RTVSPost2010PropOp28
 70
     1
102
RTVSPost2010Prop29
280
     1
102
RTVSPost2010PropOp29
 70
     1
102
RTVSPost2010Prop30
280
     1
102
RTVSPost2010PropOp30
 70
     1
102
RTVSPost2010Prop31
280
     0
102
RTVSPost2010PropOp31
 70
     1
102
RTVSPost2010Prop32
280
     0
102
RTVSPost2010PropOp32
 70
     1
102
RTVSPost2010Prop33
280
     0
102
RTVSPost2010PropOp33
 70
     1
102
RTVSPost2010Prop34
280
     0
102
RTVSPost2010PropOp34
 70
     1
102
RTVSPost2010Prop35
280
     0
102
RTVSPost2010PropOp35
 70
     1
102
RTVSPost2010Prop36
280
     0
102
RTVSPost2010PropOp36
 70
     1
102
RTVSPost2010Prop37
 90
       50
102
RTVSPost2010PropOp37
 70
     1
102
RTVSPost2010Prop38
140
0.0
102
RTVSPost2010PropOp38
 70
     1
102
RTVSPost2010Prop39
140
1.0
102
RTVSPost2010PropOp39
 70
     1
102
RTVSPost2010Prop40
 90
        0
102
RTVSPost2010PropOp40
 70
     1
102
RTVSPost2010Prop41ColorIndex
 90
       18
102
RTVSPost2010Prop41ColorRGB
 90
        0
102
RTVSPost2010PropOp41
 70
     1
102
RTVSPost2010Prop42
 90
       50
102
RTVSPost2010PropOp42
 70
     1
102
RTVSPost2010Prop43
 90
        3
102
RTVSPost2010PropOp43
 70
     1
102
RTVSPost2010Prop44ColorIndex
 90
        5
102
RTVSPost2010Prop44ColorRGB
 90
      255
102
RTVSPost2010PropOp44
 70
     1
102
RTVSPost2010Prop45
280
     0
102
RTVSPost2010PropOp45
 70
     1
102
RTVSPost2010Prop46
 90
       50
102
RTVSPost2010PropOp46
 70
     1
102
RTVSPost2010Prop47
 90
       50
102
RTVSPost2010PropOp47
 70
     1
102
RTVSPost2010Prop48
 90
       50
102
RTVSPost2010PropOp48
 70
     1
102
RTVSPost2010Prop49
280
     0
102
RTVSPost2010PropOp49
 70
     1
102
RTVSPost2010Prop50
 90
       50
102
RTVSPost2010PropOp50
 70
     1
102
RTVSPost2010Prop51ColorIndex
 90
      256
102
RTVSPost2010Prop51ColorRGB
 90
-16777216
102
RTVSPost2010PropOp51
 70
     0
102
RTVSPost2010Prop52
140
1.0
102
RTVSPost2010PropOp52
 70
     0
102
RTVSPost2010Prop53
 90
        2
102
RTVSPost2010PropOp53
 70
     1
102
RTVSPost2010Prop54
  1
strokes_ogs.tif
102
RTVSPost2010PropOp54
 70
     1
102
RTVSPost2010Prop55
280
     0
102
RTVSPost2010PropOp55
 70
     1
102
RTVSPost2010Prop56
140
1.0
102
RTVSPost2010PropOp56
 70
     1
102
RTVSPost2010Prop57
140
1.0
102
RTVSPost2010PropOp57
 70
     1
  0
XRECORD
  5
451
102
{ACAD_REACTORS
330
450
102
}
330
450
100
AcDbXrecord
280
     1
102
RTVSPost2010Prop28
280
     0
102
RTVSPost2010PropOp28
 70
     1
102
RTVSPost2010Prop29
280
     1
102
RTVSPost2010PropOp29
 70
     1
102
RTVSPost2010Prop30
280
     1
102
RTVSPost2010PropOp30
 70
     1
102
RTVSPost2010Prop31
280
     0
102
RTVSPost2010PropOp31
 70
     1
102
RTVSPost2010Prop32
280
     0
102
RTVSPost2010PropOp32
 70
     1
102
RTVSPost2010Prop33
280
     0
102
RTVSPost2010PropOp33
 70
     1
102
RTVSPost2010Prop34
280
     0
102
RTVSPost2010PropOp34
 70
     1
102
RTVSPost2010Prop35
280
     0
102
RTVSPost2010PropOp35
 70
     1
102
RTVSPost2010Prop36
280
     0
102
RTVSPost2010PropOp36
 70
     1
102
RTVSPost2010Prop37
 90
       50
102
RTVSPost2010PropOp37
 70
     1
102
RTVSPost2010Prop38
140
0.0
102
RTVSPost2010PropOp38
 70
     1
102
RTVSPost2010Prop39
140
1.0
102
RTVSPost2010PropOp39
 70
     1
102
RTVSPost2010Prop40
 90
        0
102
RTVSPost2010PropOp40
 70
     1
102
RTVSPost2010Prop41ColorIndex
 90
       18
102
RTVSPost2010Prop41ColorRGB
 90
        0
102
RTVSPost2010PropOp41
 70
     1
102
RTVSPost2010Prop42
 90
       50
102
RTVSPost2010PropOp42
 70
     1
102
RTVSPost2010Prop43
 90
        3
102
RTVSPost2010PropOp43
 70
     1
102
RTVSPost2010Prop44ColorIndex
 90
        5
102
RTVSPost2010Prop44ColorRGB
 90
      255
102
RTVSPost2010PropOp44
 70
     1
102
RTVSPost2010Prop45
280
     0
102
RTVSPost2010PropOp45
 70
     1
102
RTVSPost2010Prop46
 90
       50
102
RTVSPost2010PropOp46
 70
     1
102
RTVSPost2010Prop47
 90
       50
102
RTVSPost2010PropOp47
 70
     1
102
RTVSPost2010Prop48
 90
       50
102
RTVSPost2010PropOp48
 70
     1
102
RTVSPost2010Prop49
280
     0
102
RTVSPost2010PropOp49
 70
     1
102
RTVSPost2010Prop50
 90
       50
102
RTVSPost2010PropOp50
 70
     1
102
RTVSPost2010Prop51ColorIndex
 90
      256
102
RTVSPost2010Prop51ColorRGB
 90
-16777216
102
RTVSPost2010PropOp51
 70
     0
102
RTVSPost2010Prop52
140
1.0
102
RTVSPost2010PropOp52
 70
     0
102
RTVSPost2010Prop53
 90
        2
102
RTVSPost2010PropOp53
 70
     1
102
RTVSPost2010Prop54
  1
strokes_ogs.tif
102
RTVSPost2010PropOp54
 70
     1
102
RTVSPost2010Prop55
280
     0
102
RTVSPost2010PropOp55
 70
     1
102
RTVSPost2010Prop56
140
1.0
102
RTVSPost2010PropOp56
 70
     1
102
RTVSPost2010Prop57
140
1.0
102
RTVSPost2010PropOp57
 70
     1
  0
XRECORD
  5
441
102
{ACAD_REACTORS
330
440
102
}
330
440
100
AcDbXrecord
280
     1
102
RTVSPost2010Prop28
280
     0
102
RTVSPost2010PropOp28
 70
     1
102
RTVSPost2010Prop29
280
     1
102
RTVSPost2010PropOp29
 70
     1
102
RTVSPost2010Prop30
280
     1
102
RTVSPost2010PropOp30
 70
     1
102
RTVSPost2010Prop31
280
     0
102
RTVSPost2010PropOp31
 70
     1
102
RTVSPost2010Prop32
280
     0
102
RTVSPost2010PropOp32
 70
     1
102
RTVSPost2010Prop33
280
     0
102
RTVSPost2010PropOp33
 70
     1
102
RTVSPost2010Prop34
280
     0
102
RTVSPost2010PropOp34
 70
     1
102
RTVSPost2010Prop35
280
     0
102
RTVSPost2010PropOp35
 70
     1
102
RTVSPost2010Prop36
280
     0
102
RTVSPost2010PropOp36
 70
     1
102
RTVSPost2010Prop37
 90
       50
102
RTVSPost2010PropOp37
 70
     1
102
RTVSPost2010Prop38
140
0.0
102
RTVSPost2010PropOp38
 70
     1
102
RTVSPost2010Prop39
140
1.0
102
RTVSPost2010PropOp39
 70
     1
102
RTVSPost2010Prop40
 90
        0
102
RTVSPost2010PropOp40
 70
     1
102
RTVSPost2010Prop41ColorIndex
 90
       18
102
RTVSPost2010Prop41ColorRGB
 90
        0
102
RTVSPost2010PropOp41
 70
     1
102
RTVSPost2010Prop42
 90
       50
102
RTVSPost2010PropOp42
 70
     1
102
RTVSPost2010Prop43
 90
        3
102
RTVSPost2010PropOp43
 70
     1
102
RTVSPost2010Prop44ColorIndex
 90
        5
102
RTVSPost2010Prop44ColorRGB
 90
      255
102
RTVSPost2010PropOp44
 70
     1
102
RTVSPost2010Prop45
280
     0
102
RTVSPost2010PropOp45
 70
     1
102
RTVSPost2010Prop46
 90
       50
102
RTVSPost2010PropOp46
 70
     1
102
RTVSPost2010Prop47
 90
       50
102
RTVSPost2010PropOp47
 70
     1
102
RTVSPost2010Prop48
 90
       50
102
RTVSPost2010PropOp48
 70
     1
102
RTVSPost2010Prop49
280
     0
102
RTVSPost2010PropOp49
 70
     1
102
RTVSPost2010Prop50
 90
       50
102
RTVSPost2010PropOp50
 70
     1
102
RTVSPost2010Prop51ColorIndex
 90
      256
102
RTVSPost2010Prop51ColorRGB
 90
-16777216
102
RTVSPost2010PropOp51
 70
     0
102
RTVSPost2010Prop52
140
1.0
102
RTVSPost2010PropOp52
 70
     0
102
RTVSPost2010Prop53
 90
        2
102
RTVSPost2010PropOp53
 70
     1
102
RTVSPost2010Prop54
  1
strokes_ogs.tif
102
RTVSPost2010PropOp54
 70
     1
102
RTVSPost2010Prop55
280
     0
102
RTVSPost2010PropOp55
 70
     1
102
RTVSPost2010Prop56
140
1.0
102
RTVSPost2010PropOp56
 70
     1
102
RTVSPost2010Prop57
140
1.0
102
RTVSPost2010PropOp57
 70
     1
  0
XRECORD
  5
433
102
{ACAD_REACTORS
330
432
102
}
330
432
100
AcDbXrecord
280
     1
102
RTVSPost2010Prop28
280
     0
102
RTVSPost2010PropOp28
 70
     1
102
RTVSPost2010Prop29
280
     1
102
RTVSPost2010PropOp29
 70
     1
102
RTVSPost2010Prop30
280
     1
102
RTVSPost2010PropOp30
 70
     1
102
RTVSPost2010Prop31
280
     0
102
RTVSPost2010PropOp31
 70
     1
102
RTVSPost2010Prop32
280
     0
102
RTVSPost2010PropOp32
 70
     1
102
RTVSPost2010Prop33
280
     0
102
RTVSPost2010PropOp33
 70
     1
102
RTVSPost2010Prop34
280
     0
102
RTVSPost2010PropOp34
 70
     1
102
RTVSPost2010Prop35
280
     0
102
RTVSPost2010PropOp35
 70
     1
102
RTVSPost2010Prop36
280
     0
102
RTVSPost2010PropOp36
 70
     1
102
RTVSPost2010Prop37
 90
       50
102
RTVSPost2010PropOp37
 70
     1
102
RTVSPost2010Prop38
140
0.0
102
RTVSPost2010PropOp38
 70
     1
102
RTVSPost2010Prop39
140
1.0
102
RTVSPost2010PropOp39
 70
     1
102
RTVSPost2010Prop40
 90
        0
102
RTVSPost2010PropOp40
 70
     1
102
RTVSPost2010Prop41ColorIndex
 90
       18
102
RTVSPost2010Prop41ColorRGB
 90
        0
102
RTVSPost2010PropOp41
 70
     1
102
RTVSPost2010Prop42
 90
       50
102
RTVSPost2010PropOp42
 70
     1
102
RTVSPost2010Prop43
 90
        3
102
RTVSPost2010PropOp43
 70
     1
102
RTVSPost2010Prop44ColorIndex
 90
        5
102
RTVSPost2010Prop44ColorRGB
 90
      255
102
RTVSPost2010PropOp44
 70
     1
102
RTVSPost2010Prop45
280
     0
102
RTVSPost2010PropOp45
 70
     1
102
RTVSPost2010Prop46
 90
       50
102
RTVSPost2010PropOp46
 70
     1
102
RTVSPost2010Prop47
 90
       50
102
RTVSPost2010PropOp47
 70
     1
102
RTVSPost2010Prop48
 90
       50
102
RTVSPost2010PropOp48
 70
     1
102
RTVSPost2010Prop49
280
     0
102
RTVSPost2010PropOp49
 70
     1
102
RTVSPost2010Prop50
 90
       50
102
RTVSPost2010PropOp50
 70
     1
102
RTVSPost2010Prop51ColorIndex
 90
      256
102
RTVSPost2010Prop51ColorRGB
 90
-16777216
102
RTVSPost2010PropOp51
 70
     0
102
RTVSPost2010Prop52
140
1.0
102
RTVSPost2010PropOp52
 70
     0
102
RTVSPost2010Prop53
 90
        2
102
RTVSPost2010PropOp53
 70
     1
102
RTVSPost2010Prop54
  1
strokes_ogs.tif
102
RTVSPost2010PropOp54
 70
     1
102
RTVSPost2010Prop55
280
     0
102
RTVSPost2010PropOp55
 70
     1
102
RTVSPost2010Prop56
140
1.0
102
RTVSPost2010PropOp56
 70
     1
102
RTVSPost2010Prop57
140
1.0
102
RTVSPost2010PropOp57
 70
     1
  0
XRECORD
  5
453
102
{ACAD_REACTORS
330
452
102
}
330
452
100
AcDbXrecord
280
     1
102
RTVSPost2010Prop28
280
     0
102
RTVSPost2010PropOp28
 70
     1
102
RTVSPost2010Prop29
280
     1
102
RTVSPost2010PropOp29
 70
     1
102
RTVSPost2010Prop30
280
     1
102
RTVSPost2010PropOp30
 70
     1
102
RTVSPost2010Prop31
280
     0
102
RTVSPost2010PropOp31
 70
     1
102
RTVSPost2010Prop32
280
     0
102
RTVSPost2010PropOp32
 70
     1
102
RTVSPost2010Prop33
280
     0
102
RTVSPost2010PropOp33
 70
     1
102
RTVSPost2010Prop34
280
     0
102
RTVSPost2010PropOp34
 70
     1
102
RTVSPost2010Prop35
280
     0
102
RTVSPost2010PropOp35
 70
     1
102
RTVSPost2010Prop36
280
     0
102
RTVSPost2010PropOp36
 70
     1
102
RTVSPost2010Prop37
 90
       50
102
RTVSPost2010PropOp37
 70
     1
102
RTVSPost2010Prop38
140
0.0
102
RTVSPost2010PropOp38
 70
     1
102
RTVSPost2010Prop39
140
1.0
102
RTVSPost2010PropOp39
 70
     1
102
RTVSPost2010Prop40
 90
        0
102
RTVSPost2010PropOp40
 70
     1
102
RTVSPost2010Prop41ColorIndex
 90
       18
102
RTVSPost2010Prop41ColorRGB
 90
        0
102
RTVSPost2010PropOp41
 70
     1
102
RTVSPost2010Prop42
 90
       50
102
RTVSPost2010PropOp42
 70
     1
102
RTVSPost2010Prop43
 90
        3
102
RTVSPost2010PropOp43
 70
     1
102
RTVSPost2010Prop44ColorIndex
 90
        5
102
RTVSPost2010Prop44ColorRGB
 90
      255
102
RTVSPost2010PropOp44
 70
     1
102
RTVSPost2010Prop45
280
     0
102
RTVSPost2010PropOp45
 70
     1
102
RTVSPost2010Prop46
 90
       50
102
RTVSPost2010PropOp46
 70
     1
102
RTVSPost2010Prop47
 90
       50
102
RTVSPost2010PropOp47
 70
     1
102
RTVSPost2010Prop48
 90
       50
102
RTVSPost2010PropOp48
 70
     1
102
RTVSPost2010Prop49
280
     0
102
RTVSPost2010PropOp49
 70
     1
102
RTVSPost2010Prop50
 90
       50
102
RTVSPost2010PropOp50
 70
     1
102
RTVSPost2010Prop51ColorIndex
 90
      256
102
RTVSPost2010Prop51ColorRGB
 90
-16777216
102
RTVSPost2010PropOp51
 70
     0
102
RTVSPost2010Prop52
140
1.0
102
RTVSPost2010PropOp52
 70
     0
102
RTVSPost2010Prop53
 90
        2
102
RTVSPost2010PropOp53
 70
     1
102
RTVSPost2010Prop54
  1
strokes_ogs.tif
102
RTVSPost2010PropOp54
 70
     1
102
RTVSPost2010Prop55
280
     0
102
RTVSPost2010PropOp55
 70
     1
102
RTVSPost2010Prop56
140
1.0
102
RTVSPost2010PropOp56
 70
     1
102
RTVSPost2010Prop57
140
1.0
102
RTVSPost2010PropOp57
 70
     1
  0
ENDSEC
  0
EOF
