  0
SECTION
  2
HEADER
  9
$ACADVER
  1
AC1024
  9
$ACADMAINTVER
 70
     6
  9
$DWGCODEPAGE
  3
ANSI_932
  9
$INSBASE
 10
0.0
 20
0.0
 30
0.0
  9
$EXTMIN
 10
-4455.0
 20
-3150.0
 30
0.0
  9
$EXTMAX
 10
4455.0
 20
3150.0
 30
0.0
  9
$LIMMIN
 10
-4455.0
 20
-3150.0
  9
$LIMMAX
 10
4455.0
 20
3150.0
  9
$ORTHOMODE
 70
     0
  9
$REGENMODE
 70
     1
  9
$FILLMODE
 70
     1
  9
$QTEXTMODE
 70
     0
  9
$MIRRTEXT
 70
     1
  9
$LTSCALE
 40
30.0
  9
$ATTMODE
 70
     1
  9
$TEXTSIZE
 40
2.5
  9
$TRACEWID
 40
1.0
  9
$TEXTSTYLE
  7
Standard
  9
$CLAYER
  8
0
  9
$CELTYPE
  6
ByLayer
  9
$CECOLOR
 62
   256
  9
$CELTSCALE
 40
1.0
  9
$DISPSILH
 70
     0
  9
$DIMSCALE
 40
1.0
  9
$DIMASZ
 40
2.5
  9
$DIMEXO
 40
0.625
  9
$DIMDLI
 40
3.75
  9
$DIMRND
 40
0.0
  9
$DIMDLE
 40
0.0
  9
$DIMEXE
 40
1.25
  9
$DIMTP
 40
0.0
  9
$DIMTM
 40
0.0
  9
$DIMTXT
 40
2.5
  9
$DIMCEN
 40
2.5
  9
$DIMTSZ
 40
0.0
  9
$DIMTOL
 70
     0
  9
$DIMLIM
 70
     0
  9
$DIMTIH
 70
     0
  9
$DIMTOH
 70
     0
  9
$DIMSE1
 70
     0
  9
$DIMSE2
 70
     0
  9
$DIMTAD
 70
     1
  9
$DIMZIN
 70
     8
  9
$DIMBLK
  1

  9
$DIMASO
 70
     1
  9
$DIMSHO
 70
     1
  9
$DIMPOST
  1

  9
$DIMAPOST
  1

  9
$DIMALT
 70
     0
  9
$DIMALTD
 70
     3
  9
$DIMALTF
 40
0.03937007874016
  9
$DIMLFAC
 40
1.0
  9
$DIMTOFL
 70
     1
  9
$DIMTVP
 40
0.0
  9
$DIMTIX
 70
     0
  9
$DIMSOXD
 70
     0
  9
$DIMSAH
 70
     0
  9
$DIMBLK1
  1

  9
$DIMBLK2
  1

  9
$DIMSTYLE
  2
ISO-25
  9
$DIMCLRD
 70
     0
  9
$DIMCLRE
 70
     0
  9
$DIMCLRT
 70
     0
  9
$DIMTFAC
 40
1.0
  9
$DIMGAP
 40
0.625
  9
$DIMJUST
 70
     0
  9
$DIMSD1
 70
     0
  9
$DIMSD2
 70
     0
  9
$DIMTOLJ
 70
     0
  9
$DIMTZIN
 70
     8
  9
$DIMALTZ
 70
     0
  9
$DIMALTTZ
 70
     0
  9
$DIMUPT
 70
     0
  9
$DIMDEC
 70
     2
  9
$DIMTDEC
 70
     2
  9
$DIMALTU
 70
     2
  9
$DIMALTTD
 70
     3
  9
$DIMTXSTY
  7
Standard
  9
$DIMAUNIT
 70
     0
  9
$DIMADEC
 70
     0
  9
$DIMALTRND
 40
0.0
  9
$DIMAZIN
 70
     0
  9
$DIMDSEP
 70
    44
  9
$DIMATFIT
 70
     3
  9
$DIMFRAC
 70
     0
  9
$DIMLDRBLK
  1

  9
$DIMLUNIT
 70
     2
  9
$DIMLWD
 70
    -2
  9
$DIMLWE
 70
    -2
  9
$DIMTMOVE
 70
     0
  9
$DIMFXL
 40
1.0
  9
$DIMFXLON
 70
     0
  9
$DIMJOGANG
 40
0.7853981633974483
  9
$DIMTFILL
 70
     0
  9
$DIMTFILLCLR
 70
     0
  9
$DIMARCSYM
 70
     0
  9
$DIMLTYPE
  6

  9
$DIMLTEX1
  6

  9
$DIMLTEX2
  6

  9
$DIMTXTDIRECTION
 70
     0
  9
$LUNITS
 70
     2
  9
$LUPREC
 70
     4
  9
$SKETCHINC
 40
1.0
  9
$FILLETRAD
 40
10.0
  9
$AUNITS
 70
     0
  9
$AUPREC
 70
     0
  9
$MENU
  1
.
  9
$ELEVATION
 40
0.0
  9
$PELEVATION
 40
0.0
  9
$THICKNESS
 40
0.0
  9
$LIMCHECK
 70
     0
  9
$CHAMFERA
 40
0.0
  9
$CHAMFERB
 40
0.0
  9
$CHAMFERC
 40
0.0
  9
$CHAMFERD
 40
0.0
  9
$SKPOLY
 70
     0
  9
$TDCREATE
 40
2458515.753413472
  9
$TDUCREATE
 40
2458515.378413472
  9
$TDUPDATE
 40
2458515.753414016
  9
$TDUUPDATE
 40
2458515.378414016
  9
$TDINDWG
 40
0.0000000116
  9
$TDUSRTIMER
 40
0.0000000116
  9
$USRTIMER
 70
     1
  9
$ANGBASE
 50
0.0
  9
$ANGDIR
 70
     0
  9
$PDMODE
 70
     0
  9
$PDSIZE
 40
0.0
  9
$PLINEWID
 40
0.0
  9
$SPLFRAME
 70
     0
  9
$SPLINETYPE
 70
     6
  9
$SPLINESEGS
 70
     8
  9
$HANDSEED
  5
270
  9
$SURFTAB1
 70
     6
  9
$SURFTAB2
 70
     6
  9
$SURFTYPE
 70
     6
  9
$SURFU
 70
     6
  9
$SURFV
 70
     6
  9
$UCSBASE
  2

  9
$UCSNAME
  2

  9
$UCSORG
 10
0.0
 20
0.0
 30
0.0
  9
$UCSXDIR
 10
1.0
 20
0.0
 30
0.0
  9
$UCSYDIR
 10
0.0
 20
1.0
 30
0.0
  9
$UCSORTHOREF
  2

  9
$UCSORTHOVIEW
 70
     0
  9
$UCSORGTOP
 10
0.0
 20
0.0
 30
0.0
  9
$UCSORGBOTTOM
 10
0.0
 20
0.0
 30
0.0
  9
$UCSORGLEFT
 10
0.0
 20
0.0
 30
0.0
  9
$UCSORGRIGHT
 10
0.0
 20
0.0
 30
0.0
  9
$UCSORGFRONT
 10
0.0
 20
0.0
 30
0.0
  9
$UCSORGBACK
 10
0.0
 20
0.0
 30
0.0
  9
$PUCSBASE
  2

  9
$PUCSNAME
  2

  9
$PUCSORG
 10
0.0
 20
0.0
 30
0.0
  9
$PUCSXDIR
 10
1.0
 20
0.0
 30
0.0
  9
$PUCSYDIR
 10
0.0
 20
1.0
 30
0.0
  9
$PUCSORTHOREF
  2

  9
$PUCSORTHOVIEW
 70
     0
  9
$PUCSORGTOP
 10
0.0
 20
0.0
 30
0.0
  9
$PUCSORGBOTTOM
 10
0.0
 20
0.0
 30
0.0
  9
$PUCSORGLEFT
 10
0.0
 20
0.0
 30
0.0
  9
$PUCSORGRIGHT
 10
0.0
 20
0.0
 30
0.0
  9
$PUCSORGFRONT
 10
0.0
 20
0.0
 30
0.0
  9
$PUCSORGBACK
 10
0.0
 20
0.0
 30
0.0
  9
$USERI1
 70
     0
  9
$USERI2
 70
     0
  9
$USERI3
 70
     0
  9
$USERI4
 70
     0
  9
$USERI5
 70
     0
  9
$USERR1
 40
0.0
  9
$USERR2
 40
0.0
  9
$USERR3
 40
0.0
  9
$USERR4
 40
0.0
  9
$USERR5
 40
0.0
  9
$WORLDVIEW
 70
     1
  9
$SHADEDGE
 70
     3
  9
$SHADEDIF
 70
    70
  9
$TILEMODE
 70
     1
  9
$MAXACTVP
 70
    64
  9
$PINSBASE
 10
0.0
 20
0.0
 30
0.0
  9
$PLIMCHECK
 70
     0
  9
$PEXTMIN
 10
1.000000000000000E+20
 20
1.000000000000000E+20
 30
1.000000000000000E+20
  9
$PEXTMAX
 10
-1.000000000000000E+20
 20
-1.000000000000000E+20
 30
-1.000000000000000E+20
  9
$PLIMMIN
 10
0.0
 20
0.0
  9
$PLIMMAX
 10
420.0
 20
297.0
  9
$UNITMODE
 70
     0
  9
$VISRETAIN
 70
     1
  9
$PLINEGEN
 70
     0
  9
$PSLTSCALE
 70
     1
  9
$TREEDEPTH
 70
  3020
  9
$CMLSTYLE
  2
Standard
  9
$CMLJUST
 70
     0
  9
$CMLSCALE
 40
20.0
  9
$PROXYGRAPHICS
 70
     1
  9
$MEASUREMENT
 70
     1
  9
$CELWEIGHT
370
    -1
  9
$ENDCAPS
280
     0
  9
$JOINSTYLE
280
     0
  9
$LWDISPLAY
290
     0
  9
$INSUNITS
 70
     4
  9
$HYPERLINKBASE
  1

  9
$STYLESHEET
  1

  9
$XEDIT
290
     1
  9
$CEPSNTYPE
380
     0
  9
$PSTYLEMODE
290
     1
  9
$FINGERPRINTGUID
  2
{CDE4D3FF-CBBE-4AEC-B87E-0F5CA354412E}
  9
$VERSIONGUID
  2
{FAEB1C32-E019-11D5-929B-00C0DF256EC4}
  9
$EXTNAMES
290
     1
  9
$PSVPSCALE
 40
0.0
  9
$OLESTARTUP
290
     0
  9
$SORTENTS
280
   127
  9
$INDEXCTL
280
     0
  9
$HIDETEXT
280
     1
  9
$XCLIPFRAME
280
     2
  9
$HALOGAP
280
     0
  9
$OBSCOLOR
 70
   257
  9
$OBSLTYPE
280
     0
  9
$INTERSECTIONDISPLAY
280
     0
  9
$INTERSECTIONCOLOR
 70
   257
  9
$DIMASSOC
280
     2
  9
$PROJECTNAME
  1

  9
$CAMERADISPLAY
290
     0
  9
$LENSLENGTH
 40
50.0
  9
$CAMERAHEIGHT
 40
0.0
  9
$STEPSPERSEC
 40
2.0
  9
$STEPSIZE
 40
6.0
  9
$3DDWFPREC
 40
2.0
  9
$PSOLWIDTH
 40
5.0
  9
$PSOLHEIGHT
 40
80.0
  9
$LOFTANG1
 40
1.570796326794897
  9
$LOFTANG2
 40
1.570796326794897
  9
$LOFTMAG1
 40
0.0
  9
$LOFTMAG2
 40
0.0
  9
$LOFTPARAM
 70
     7
  9
$LOFTNORMALS
280
     1
  9
$LATITUDE
 40
37.795
  9
$LONGITUDE
 40
-122.394
  9
$NORTHDIRECTION
 40
0.0
  9
$TIMEZONE
 70
 -8000
  9
$LIGHTGLYPHDISPLAY
280
     1
  9
$TILEMODELIGHTSYNCH
280
     1
  9
$CMATERIAL
347
44
  9
$SOLIDHIST
280
     0
  9
$SHOWHIST
280
     1
  9
$DWFFRAME
280
     2
  9
$DGNFRAME
280
     2
  9
$REALWORLDSCALE
290
     1
  9
$INTERFERECOLOR
 62
   256
  9
$CSHADOW
280
     0
  9
$SHADOWPLANELOCATION
 40
0.0
  0
ENDSEC
  0
SECTION
  2
CLASSES
  0
CLASS
  1
ACDBDICTIONARYWDFLT
  2
AcDbDictionaryWithDefault
  3
ObjectDBX Classes
 90
        0
 91
        4
280
     0
281
     0
  0
CLASS
  1
VISUALSTYLE
  2
AcDbVisualStyle
  3
ObjectDBX Classes
 90
     4095
 91
        4
280
     0
281
     0
  0
CLASS
  1
MATERIAL
  2
AcDbMaterial
  3
ObjectDBX Classes
 90
     1153
 91
        4
280
     0
281
     0
  0
CLASS
  1
SCALE
  2
AcDbScale
  3
ObjectDBX Classes
 90
     1153
 91
        4
280
     0
281
     0
  0
CLASS
  1
TABLESTYLE
  2
AcDbTableStyle
  3
ObjectDBX Classes
 90
     4095
 91
        4
280
     0
281
     0
  0
CLASS
  1
MLEADERSTYLE
  2
AcDbMLeaderStyle
  3
ACDB_MLEADERSTYLE_CLASS
 90
     4095
 91
        4
280
     0
281
     0
  0
CLASS
  1
SUN
  2
AcDbSun
  3
SCENEOE
 90
     1153
 91
        4
280
     0
281
     0
  0
CLASS
  1
DICTIONARYVAR
  2
AcDbDictionaryVar
  3
ObjectDBX Classes
 90
        0
 91
        4
280
     0
281
     0
  0
CLASS
  1
CELLSTYLEMAP
  2
AcDbCellStyleMap
  3
ObjectDBX Classes
 90
     1152
 91
        4
280
     0
281
     0
  0
ENDSEC
  0
SECTION
  2
TABLES
  0
TABLE
  2
VPORT
  5
8
330
0
100
AcDbSymbolTable
 70
     1
  0
VPORT
  5
29
330
8
100
AcDbSymbolTableRecord
100
AcDbViewportTableRecord
  2
*Active
 70
     0
 10
0.0
 20
0.0
 11
1.0
 21
1.0
 12
0.0
 22
0.0
 13
0.0
 23
0.0
 14
10.0
 24
10.0
 15
10.0
 25
10.0
 16
0.0
 26
0.0
 36
1.0
 17
0.0
 27
0.0
 37
0.0
 40
6930.000000000001
 41
1.414285714285714
 42
50.0
 43
0.0
 44
0.0
 50
0.0
 51
0.0
 71
     0
 72
 10000
 73
     1
 74
     3
 75
     0
 76
     0
 77
     0
 78
     0
281
     0
 65
     1
110
0.0
120
0.0
130
0.0
111
1.0
121
0.0
131
0.0
112
0.0
122
1.0
132
0.0
 79
     0
146
0.0
348
2F
 60
     3
 61
     5
292
     1
282
     1
141
0.0
142
0.0
 63
   250
361
6D
  0
ENDTAB
  0
TABLE
  2
LTYPE
  5
5
330
0
100
AcDbSymbolTable
 70
     2
  0
LTYPE
  5
14
330
5
100
AcDbSymbolTableRecord
100
AcDbLinetypeTableRecord
  2
ByBlock
 70
     0
  3

 72
    65
 73
     0
 40
0.0
  0
LTYPE
  5
15
330
5
100
AcDbSymbolTableRecord
100
AcDbLinetypeTableRecord
  2
ByLayer
 70
     0
  3

 72
    65
 73
     0
 40
0.0
  0
LTYPE
  5
16
330
5
100
AcDbSymbolTableRecord
100
AcDbLinetypeTableRecord
  2
Continuous
 70
     0
  3
Solid line
 72
    65
 73
     0
 40
0.0
  0
LTYPE
  5
6F
330
5
100
AcDbSymbolTableRecord
100
AcDbLinetypeTableRecord
  2
JWW_CENTER1
 70
     0
  3
-----  --  ----------  --  -----
 72
    65
 73
     4
 40
6.773333333333333
 49
4.233333333333333
 74
     0
 49
-0.8466666666666667
 74
     0
 49
0.8466666666666667
 74
     0
 49
-0.8466666666666667
 74
     0
  0
ENDTAB
  0
TABLE
  2
LAYER
  5
2
330
0
100
AcDbSymbolTable
 70
     3
  0
LAYER
  5
10
330
2
100
AcDbSymbolTableRecord
100
AcDbLayerTableRecord
  2
0
 70
     0
 62
     7
  6
Continuous
370
    -3
390
F
347
46
  0
LAYER
  5
70
330
2
100
AcDbSymbolTableRecord
100
AcDbLayerTableRecord
  2
0-1
 70
     0
 62
     7
  6
Continuous
370
    -3
390
F
347
46
  0
LAYER
  5
71
330
2
100
AcDbSymbolTableRecord
100
AcDbLayerTableRecord
  2
文字
 70
     0
 62
     7
  6
Continuous
370
    -3
390
F
347
46
  0
ENDTAB
  0
TABLE
  2
STYLE
  5
3
330
0
100
AcDbSymbolTable
 70
     2
  0
STYLE
  5
11
330
3
100
AcDbSymbolTableRecord
100
AcDbTextStyleTableRecord
  2
Standard
 70
     0
 40
0.0
 41
1.0
 50
0.0
 71
     0
 42
2.5
  3
txt
  4

  0
STYLE
  5
6E
330
3
100
AcDbSymbolTableRecord
100
AcDbTextStyleTableRecord
  2
ＭＳ ゴシック
 70
     0
 40
1.0
 41
1.0
 50
0.0
 71
     0
 42
2.5
  3

  4

1001
ACAD
1000
MS Gothic
1071
    32817
  0
ENDTAB
  0
TABLE
  2
VIEW
  5
6
330
0
100
AcDbSymbolTable
 70
     0
  0
ENDTAB
  0
TABLE
  2
UCS
  5
7
330
0
100
AcDbSymbolTable
 70
     0
  0
ENDTAB
  0
TABLE
  2
APPID
  5
9
330
0
100
AcDbSymbolTable
 70
     1
  0
APPID
  5
12
330
9
100
AcDbSymbolTableRecord
100
AcDbRegAppTableRecord
  2
ACAD
 70
     0
  0
ENDTAB
  0
TABLE
  2
DIMSTYLE
  5
A
330
0
100
AcDbSymbolTable
 70
     1
100
AcDbDimStyleTable
  0
DIMSTYLE
105
27
330
A
100
AcDbSymbolTableRecord
100
AcDbDimStyleTableRecord
  2
ISO-25
 70
     0
 41
2.5
 42
0.625
 43
3.75
 44
1.25
 73
     0
 74
     0
 77
     1
 78
     8
140
2.5
141
2.5
143
0.03937007874016
147
0.625
171
     3
172
     1
178
     0
271
     2
272
     2
274
     3
278
    44
283
     0
284
     8
340
11
  0
ENDTAB
  0
TABLE
  2
BLOCK_RECORD
  5
1
330
0
100
AcDbSymbolTable
 70
     1
  0
BLOCK_RECORD
  5
1F
330
1
100
AcDbSymbolTableRecord
100
AcDbBlockTableRecord
  2
*Model_Space
340
22
 70
     0
280
     1
281
     0
  0
BLOCK_RECORD
  5
1B
330
1
100
AcDbSymbolTableRecord
100
AcDbBlockTableRecord
  2
*Paper_Space
340
1E
 70
     0
280
     1
281
     0
  0
BLOCK_RECORD
  5
23
330
1
100
AcDbSymbolTableRecord
100
AcDbBlockTableRecord
  2
*Paper_Space0
340
26
 70
     0
280
     1
281
     0
  0
ENDTAB
  0
ENDSEC
  0
SECTION
  2
BLOCKS
  0
BLOCK
  5
20
330
1F
100
AcDbEntity
  8
0
100
AcDbBlockBegin
  2
*Model_Space
 70
     0
 10
0.0
 20
0.0
 30
0.0
  3
*Model_Space
  1

  0
ENDBLK
  5
21
330
1F
100
AcDbEntity
  8
0
100
AcDbBlockEnd
  0
BLOCK
  5
1C
330
1B
100
AcDbEntity
 67
     1
  8
0
100
AcDbBlockBegin
  2
*Paper_Space
 70
     0
 10
0.0
 20
0.0
 30
0.0
  3
*Paper_Space
  1

  0
ENDBLK
  5
1D
330
1B
100
AcDbEntity
 67
     1
  8
0
100
AcDbBlockEnd
  0
BLOCK
  5
24
330
23
100
AcDbEntity
  8
0
100
AcDbBlockBegin
  2
*Paper_Space0
 70
     0
 10
0.0
 20
0.0
 30
0.0
  3
*Paper_Space0
  1

  0
ENDBLK
  5
25
330
23
100
AcDbEntity
  8
0
100
AcDbBlockEnd
  0
ENDSEC
  0
SECTION
  2
ENTITIES
  0
LINE
  5
72
330
1F
100
AcDbEntity
  8
0-1
  6
Continuous
 62
    92
370
    13
100
AcDbLine
 10
-2475.540770064898
 20
1383.911059571383
 30
0.0
 11
-1884.540770064897
 21
1383.911059571383
 31
0.0
  0
LINE
  5
73
330
1F
100
AcDbEntity
  8
0-1
  6
Continuous
 62
    92
370
    13
100
AcDbLine
 10
-2475.540770064898
 20
-1860.58894042862
 30
0.0
 11
-1884.540770064897
 21
-1860.58894042862
 31
0.0
  0
LINE
  5
74
330
1F
100
AcDbEntity
  8
0-1
  6
Continuous
 62
    92
370
    13
100
AcDbLine
 10
-1884.540770064897
 20
1383.911059571383
 30
0.0
 11
-1884.540770064897
 21
-1860.58894042862
 31
0.0
  0
LINE
  5
75
330
1F
100
AcDbEntity
  8
0-1
  6
Continuous
 62
    92
370
    13
100
AcDbLine
 10
-2475.540770064898
 20
1383.911059571383
 30
0.0
 11
-2475.540770064898
 21
-1860.58894042862
 31
0.0
  0
LINE
  5
76
330
1F
100
AcDbEntity
  8
0-1
  6
Continuous
 62
    92
370
    13
100
AcDbLine
 10
-1988.040770344136
 20
-1716.588940428622
 30
0.0
 11
-1988.040770344136
 21
1239.911059571379
 31
0.0
  0
LINE
  5
77
330
1F
100
AcDbEntity
  8
0-1
  6
Continuous
 62
    92
370
    13
100
AcDbLine
 10
-1988.040770344136
 20
1239.911059571379
 30
0.0
 11
-2372.040770344135
 21
1239.911059571379
 31
0.0
  0
LINE
  5
78
330
1F
100
AcDbEntity
  8
0-1
  6
Continuous
 62
    92
370
    13
100
AcDbLine
 10
-1988.040770344136
 20
1239.911059571379
 30
0.0
 11
-1970.040770344136
 21
1257.911059571379
 31
0.0
  0
LINE
  5
79
330
1F
100
AcDbEntity
  8
0-1
  6
Continuous
 62
    92
370
    13
100
AcDbLine
 10
-1970.040770344136
 20
1257.911059571379
 30
0.0
 11
-2390.040770344136
 21
1257.911059571379
 31
0.0
  0
LINE
  5
7A
330
1F
100
AcDbEntity
  8
0-1
  6
Continuous
 62
    92
370
    13
100
AcDbLine
 10
-2010.540770344136
 20
-1694.088940428622
 30
0.0
 11
-2349.540770344135
 21
-1694.088940428622
 31
0.0
  0
LINE
  5
7B
330
1F
100
AcDbEntity
  8
0-1
  6
Continuous
 62
    92
370
    13
100
AcDbLine
 10
-1988.040770344136
 20
-1716.588940428622
 30
0.0
 11
-2372.040770344135
 21
-1716.588940428622
 31
0.0
  0
LINE
  5
7C
330
1F
100
AcDbEntity
  8
0-1
  6
Continuous
 62
    92
370
    13
100
AcDbLine
 10
-1970.040770344136
 20
-1734.588940428624
 30
0.0
 11
-2390.040770344136
 21
-1734.588940428624
 31
0.0
  0
LINE
  5
7D
330
1F
100
AcDbEntity
  8
0-1
  6
Continuous
 62
    92
370
    13
100
AcDbLine
 10
-2010.540770344136
 20
1217.411059571379
 30
0.0
 11
-2349.540770344135
 21
1217.411059571379
 31
0.0
  0
LINE
  5
7E
330
1F
100
AcDbEntity
  8
0-1
  6
Continuous
 62
    92
370
    13
100
AcDbLine
 10
-1970.040770344136
 20
-1860.588940428622
 30
0.0
 11
-1970.040770344136
 21
1383.911059571379
 31
0.0
  0
LINE
  5
7F
330
1F
100
AcDbEntity
  8
0-1
  6
Continuous
 62
    92
370
    13
100
AcDbLine
 10
-2010.540770344136
 20
-1694.088940428622
 30
0.0
 11
-2010.540770344136
 21
1217.411059571379
 31
0.0
  0
LINE
  5
80
330
1F
100
AcDbEntity
  8
0-1
  6
Continuous
 62
    92
370
    13
100
AcDbLine
 10
-2010.540770344136
 20
1217.411059571379
 30
0.0
 11
-1996.095770344135
 21
1231.36105957138
 31
0.0
  0
LINE
  5
81
330
1F
100
AcDbEntity
  8
0-1
  6
Continuous
 62
    92
370
    13
100
AcDbLine
 10
-2010.540770344136
 20
-1694.088940428622
 30
0.0
 11
-1996.095770344135
 21
-1708.533940428623
 31
0.0
  0
LINE
  5
82
330
1F
100
AcDbEntity
  8
0-1
  6
Continuous
 62
    92
370
    13
100
AcDbLine
 10
-1988.040770344135
 20
-1716.588940428624
 30
0.0
 11
-1970.040770344136
 21
-1734.588940428624
 31
0.0
  0
LINE
  5
83
330
1F
100
AcDbEntity
  8
0-1
  6
Continuous
 62
    92
370
    13
100
AcDbLine
 10
-2390.040770344136
 20
-1860.588940428622
 30
0.0
 11
-2390.040770344136
 21
1383.911059571379
 31
0.0
  0
LINE
  5
84
330
1F
100
AcDbEntity
  8
0-1
  6
Continuous
 62
    92
370
    13
100
AcDbLine
 10
-2372.040770344135
 20
-1716.588940428622
 30
0.0
 11
-2372.040770344135
 21
1239.911059571379
 31
0.0
  0
LINE
  5
85
330
1F
100
AcDbEntity
  8
0-1
  6
Continuous
 62
    92
370
    13
100
AcDbLine
 10
-2349.540770344135
 20
-1694.088940428622
 30
0.0
 11
-2349.540770344135
 21
1217.411059571379
 31
0.0
  0
LINE
  5
86
330
1F
100
AcDbEntity
  8
0-1
  6
Continuous
 62
    92
370
    13
100
AcDbLine
 10
-2363.985770344134
 20
1231.36105957138
 30
0.0
 11
-2349.540770344135
 21
1217.411059571379
 31
0.0
  0
LINE
  5
87
330
1F
100
AcDbEntity
  8
0-1
  6
Continuous
 62
    92
370
    13
100
AcDbLine
 10
-2390.040770344136
 20
1257.911059571379
 30
0.0
 11
-2372.040770344135
 21
1239.911059571379
 31
0.0
  0
LINE
  5
88
330
1F
100
AcDbEntity
  8
0-1
  6
Continuous
 62
    92
370
    13
100
AcDbLine
 10
-2363.985770344134
 20
-1708.533940428623
 30
0.0
 11
-2349.540770344135
 21
-1694.088940428622
 31
0.0
  0
LINE
  5
89
330
1F
100
AcDbEntity
  8
0-1
  6
Continuous
 62
    92
370
    13
100
AcDbLine
 10
-2372.040770344135
 20
-1716.588940428624
 30
0.0
 11
-2390.040770344136
 21
-1734.588940428624
 31
0.0
  0
LINE
  5
8A
330
1F
100
AcDbEntity
  8
0-1
  6
JWW_CENTER1
 62
     7
370
     9
100
AcDbLine
 10
-1884.540770344133
 20
1383.911059571381
 30
0.0
 11
-2475.540770344135
 21
-238.3389404286215
 31
0.0
  0
LINE
  5
8B
330
1F
100
AcDbEntity
  8
0-1
  6
JWW_CENTER1
 62
     7
370
     9
100
AcDbLine
 10
-2475.540770344135
 20
-238.3389404286215
 30
0.0
 11
-1884.540770344133
 21
-1860.588940428622
 31
0.0
  0
LWPOLYLINE
  5
8C
330
1F
100
AcDbEntity
  8
0-1
  6
Continuous
 62
     7
370
     9
100
AcDbPolyline
 90
        4
 70
     1
 43
6.0
 10
-2472.540770064898
 20
1613.411059571381
 42
0.4142135623731
 10
-2475.540770064898
 20
1616.411059571381
 42
0.4142135623731
 10
-2478.540770064898
 20
1613.411059571381
 42
0.4142135623731
 10
-2475.540770064898
 20
1610.411059571381
 42
0.4142135623731
  0
LINE
  5
8D
330
1F
100
AcDbEntity
  8
0-1
  6
Continuous
 62
   120
370
     5
100
AcDbLine
 10
-2475.540770064898
 20
1613.411059571381
 30
0.0
 11
-2475.540770064898
 21
1463.411059571381
 31
0.0
  0
LINE
  5
8E
330
1F
100
AcDbEntity
  8
0-1
  6
Continuous
 62
   120
370
     5
100
AcDbLine
 10
-2475.540770064898
 20
1613.411059571381
 30
0.0
 11
-1884.540770064897
 21
1613.411059571381
 31
0.0
  0
LWPOLYLINE
  5
8F
330
1F
100
AcDbEntity
  8
0-1
  6
Continuous
 62
     7
370
     9
100
AcDbPolyline
 90
        4
 70
     1
 43
6.0
 10
-1881.540770064897
 20
1613.411059571381
 42
0.4142135623731
 10
-1884.540770064897
 20
1616.411059571381
 42
0.4142135623731
 10
-1887.540770064897
 20
1613.411059571381
 42
0.4142135623731
 10
-1884.540770064897
 20
1610.411059571381
 42
0.4142135623731
  0
LINE
  5
90
330
1F
100
AcDbEntity
  8
0-1
  6
Continuous
 62
   120
370
     5
100
AcDbLine
 10
-1884.540770064897
 20
1613.411059571381
 30
0.0
 11
-1884.540770064897
 21
1463.411059571381
 31
0.0
  0
TEXT
  5
91
330
1F
100
AcDbEntity
  8
0-1
  6
Continuous
 62
     7
370
   211
100
AcDbText
 10
-2382.540770064898
 20
1641.101059571381
 30
0.0
 40
68.58
  1
ＤＷ＝394
  7
ＭＳ ゴシック
100
AcDbText
  0
TEXT
  5
92
330
1F
100
AcDbEntity
  8
0-1
  6
Continuous
 62
     7
370
   211
100
AcDbText
 10
-2731.230770064899
 20
-485.8389404286197
 30
0.0
 40
68.58
  1
ＤＨ＝2,163
 50
90.0
 41
0.9999999999999998
  7
ＭＳ ゴシック
100
AcDbText
  0
LINE
  5
93
330
1F
100
AcDbEntity
  8
0-1
  6
Continuous
 62
   120
370
     5
100
AcDbLine
 10
-2703.540770064899
 20
-1860.58894042862
 30
0.0
 11
-2703.540770064899
 21
-1856.088959892414
 31
0.0
  0
LWPOLYLINE
  5
94
330
1F
100
AcDbEntity
  8
0-1
  6
Continuous
 62
     7
370
     9
100
AcDbPolyline
 90
        4
 70
     1
 43
6.0
 10
-2700.540770064899
 20
-1860.58894042862
 42
0.4142135623731
 10
-2703.540770064899
 20
-1857.58894042862
 42
0.4142135623731
 10
-2706.540770064899
 20
-1860.58894042862
 42
0.4142135623731
 10
-2703.540770064899
 20
-1863.58894042862
 42
0.4142135623731
  0
LINE
  5
95
330
1F
100
AcDbEntity
  8
0-1
  6
Continuous
 62
   120
370
     5
100
AcDbLine
 10
-2703.540770064899
 20
-1860.58894042862
 30
0.0
 11
-2553.540770064899
 21
-1860.58894042862
 31
0.0
  0
LINE
  5
96
330
1F
100
AcDbEntity
  8
0-1
  6
Continuous
 62
   120
370
     5
100
AcDbLine
 10
-2703.540770064899
 20
1379.411059571385
 30
0.0
 11
-2703.540770064899
 21
1383.911059571383
 31
0.0
  0
LWPOLYLINE
  5
97
330
1F
100
AcDbEntity
  8
0-1
  6
Continuous
 62
     7
370
     9
100
AcDbPolyline
 90
        4
 70
     1
 43
6.0
 10
-2700.540770064899
 20
1383.911059571383
 42
0.4142135623731
 10
-2703.540770064899
 20
1386.911059571383
 42
0.4142135623731
 10
-2706.540770064899
 20
1383.911059571383
 42
0.4142135623731
 10
-2703.540770064899
 20
1380.911059571383
 42
0.4142135623731
  0
LINE
  5
98
330
1F
100
AcDbEntity
  8
0-1
  6
Continuous
 62
   120
370
     5
100
AcDbLine
 10
-2703.540770064899
 20
1383.911059571383
 30
0.0
 11
-2553.540770064899
 21
1383.911059571383
 31
0.0
  0
LINE
  5
99
330
1F
100
AcDbEntity
  8
0-1
  6
Continuous
 62
   120
370
     5
100
AcDbLine
 10
-2703.540770064899
 20
-1856.088959892414
 30
0.0
 11
-2703.540770064899
 21
1379.411059571385
 31
0.0
  0
ARC
  5
9A
330
1F
100
AcDbEntity
  8
0-1
  6
Continuous
 62
    92
370
    13
100
AcDbCircle
 10
-1951.290770064894
 20
-347.0889404286189
 30
0.0
 40
1.5
100
AcDbArc
 50
90.0
 51
180.0
  0
LINE
  5
9B
330
1F
100
AcDbEntity
  8
0-1
  6
Continuous
 62
    92
370
    13
100
AcDbLine
 10
-1939.290770064898
 20
-345.5889404286203
 30
0.0
 11
-1951.290770064894
 21
-345.5889404286203
 31
0.0
  0
ARC
  5
9C
330
1F
100
AcDbEntity
  8
0-1
  6
Continuous
 62
    92
370
    13
100
AcDbCircle
 10
-1939.290770064898
 20
-347.0889404286189
 30
0.0
 40
1.5
100
AcDbArc
 50
0.0000000000000127
 51
90.00000000000001
  0
LINE
  5
9D
330
1F
100
AcDbEntity
  8
0-1
  6
Continuous
 62
    92
370
    13
100
AcDbLine
 10
-1937.790770064898
 20
-545.0889404286179
 30
0.0
 11
-1937.790770064898
 21
-347.0889404286189
 31
0.0
  0
ARC
  5
9E
330
1F
100
AcDbEntity
  8
0-1
  6
Continuous
 62
    92
370
    13
100
AcDbCircle
 10
-1939.290770064898
 20
-545.0889404286179
 30
0.0
 40
1.5
100
AcDbArc
 50
270.0
 51
0.0
  0
LINE
  5
9F
330
1F
100
AcDbEntity
  8
0-1
  6
Continuous
 62
    92
370
    13
100
AcDbLine
 10
-1951.290770064894
 20
-546.588940428619
 30
0.0
 11
-1939.290770064898
 21
-546.588940428619
 31
0.0
  0
LINE
  5
A0
330
1F
100
AcDbEntity
  8
0-1
  6
Continuous
 62
    92
370
    13
100
AcDbLine
 10
-1952.790770064896
 20
-545.0889404286179
 30
0.0
 11
-1952.790770064896
 21
-347.0889404286189
 31
0.0
  0
ARC
  5
A1
330
1F
100
AcDbEntity
  8
0-1
  6
Continuous
 62
    92
370
    13
100
AcDbCircle
 10
-1951.290770064894
 20
-545.0889404286179
 30
0.0
 40
1.5
100
AcDbArc
 50
180.0
 51
270.0
  0
ARC
  5
A2
330
1F
100
AcDbEntity
  8
0-1
  6
Continuous
 62
     7
370
     9
100
AcDbCircle
 10
-1952.790770064896
 20
-350.0889404286179
 30
0.0
 40
1.5
100
AcDbArc
 50
90.0
 51
180.0
  0
ARC
  5
A3
330
1F
100
AcDbEntity
  8
0-1
  6
Continuous
 62
     7
370
     9
100
AcDbCircle
 10
-1937.790770064898
 20
-350.0889404286179
 30
0.0
 40
1.5
100
AcDbArc
 50
0.0000000000000127
 51
90.00000000000001
  0
LINE
  5
A4
330
1F
100
AcDbEntity
  8
0-1
  6
Continuous
 62
     7
370
     9
100
AcDbLine
 10
-1936.290770064896
 20
-377.0889404286189
 30
0.0
 11
-1936.290770064896
 21
-350.0889404286179
 31
0.0
  0
ARC
  5
A5
330
1F
100
AcDbEntity
  8
0-1
  6
Continuous
 62
     7
370
     9
100
AcDbCircle
 10
-1937.790770064898
 20
-377.0889404286189
 30
0.0
 40
1.5
100
AcDbArc
 50
270.0
 51
0.0
  0
LINE
  5
A6
330
1F
100
AcDbEntity
  8
0-1
  6
Continuous
 62
     7
370
     9
100
AcDbLine
 10
-1954.290770064898
 20
-377.0889404286189
 30
0.0
 11
-1954.290770064898
 21
-350.0889404286179
 31
0.0
  0
ARC
  5
A7
330
1F
100
AcDbEntity
  8
0-1
  6
Continuous
 62
     7
370
     9
100
AcDbCircle
 10
-1952.790770064896
 20
-377.0889404286189
 30
0.0
 40
1.5
100
AcDbArc
 50
180.0
 51
270.0
  0
ARC
  5
A8
330
1F
100
AcDbEntity
  8
0-1
  6
Continuous
 62
     7
370
     9
100
AcDbCircle
 10
-1952.790770064896
 20
-515.0889404286179
 30
0.0
 40
1.5
100
AcDbArc
 50
90.0
 51
180.0
  0
ARC
  5
A9
330
1F
100
AcDbEntity
  8
0-1
  6
Continuous
 62
     7
370
     9
100
AcDbCircle
 10
-1937.790770064898
 20
-515.0889404286179
 30
0.0
 40
1.5
100
AcDbArc
 50
0.0000000000000127
 51
90.00000000000001
  0
LINE
  5
AA
330
1F
100
AcDbEntity
  8
0-1
  6
Continuous
 62
     7
370
     9
100
AcDbLine
 10
-1936.290770064896
 20
-542.0889404286188
 30
0.0
 11
-1936.290770064896
 21
-515.0889404286179
 31
0.0
  0
ARC
  5
AB
330
1F
100
AcDbEntity
  8
0-1
  6
Continuous
 62
     7
370
     9
100
AcDbCircle
 10
-1937.790770064898
 20
-542.0889404286188
 30
0.0
 40
1.5
100
AcDbArc
 50
270.0
 51
0.0
  0
LINE
  5
AC
330
1F
100
AcDbEntity
  8
0-1
  6
Continuous
 62
     7
370
     9
100
AcDbLine
 10
-1954.290770064898
 20
-542.0889404286188
 30
0.0
 11
-1954.290770064898
 21
-515.0889404286179
 31
0.0
  0
ARC
  5
AD
330
1F
100
AcDbEntity
  8
0-1
  6
Continuous
 62
     7
370
     9
100
AcDbCircle
 10
-1952.790770064896
 20
-542.0889404286188
 30
0.0
 40
1.5
100
AcDbArc
 50
180.0
 51
270.0
  0
LINE
  5
AE
330
1F
100
AcDbEntity
  8
0-1
  6
Continuous
 62
    92
370
    13
100
AcDbLine
 10
-1143.540770064894
 20
1383.911059571379
 30
0.0
 11
-1734.540770064895
 21
1383.911059571379
 31
0.0
  0
LINE
  5
AF
330
1F
100
AcDbEntity
  8
0-1
  6
Continuous
 62
    92
370
    13
100
AcDbLine
 10
-1143.540770064894
 20
-1860.588940428624
 30
0.0
 11
-1734.540770064895
 21
-1860.588940428624
 31
0.0
  0
LINE
  5
B0
330
1F
100
AcDbEntity
  8
0-1
  6
Continuous
 62
    92
370
    13
100
AcDbLine
 10
-1734.540770064895
 20
1383.911059571379
 30
0.0
 11
-1734.540770064895
 21
-1860.588940428624
 31
0.0
  0
LINE
  5
B1
330
1F
100
AcDbEntity
  8
0-1
  6
Continuous
 62
    92
370
    13
100
AcDbLine
 10
-1143.540770064894
 20
1383.911059571379
 30
0.0
 11
-1143.540770064894
 21
-1860.588940428624
 31
0.0
  0
LINE
  5
B2
330
1F
100
AcDbEntity
  8
0-1
  6
Continuous
 62
    92
370
    13
100
AcDbLine
 10
-1631.040769785657
 20
-1716.588940428625
 30
0.0
 11
-1631.040769785657
 21
1239.911059571375
 31
0.0
  0
LINE
  5
B3
330
1F
100
AcDbEntity
  8
0-1
  6
Continuous
 62
    92
370
    13
100
AcDbLine
 10
-1631.040769785657
 20
1239.911059571375
 30
0.0
 11
-1247.040769785659
 21
1239.911059571375
 31
0.0
  0
LINE
  5
B4
330
1F
100
AcDbEntity
  8
0-1
  6
Continuous
 62
    92
370
    13
100
AcDbLine
 10
-1631.040769785657
 20
1239.911059571375
 30
0.0
 11
-1649.040769785658
 21
1257.911059571376
 31
0.0
  0
LINE
  5
B5
330
1F
100
AcDbEntity
  8
0-1
  6
Continuous
 62
    92
370
    13
100
AcDbLine
 10
-1649.040769785658
 20
1257.911059571376
 30
0.0
 11
-1229.040769785658
 21
1257.911059571376
 31
0.0
  0
LINE
  5
B6
330
1F
100
AcDbEntity
  8
0-1
  6
Continuous
 62
    92
370
    13
100
AcDbLine
 10
-1608.540769785657
 20
-1694.088940428625
 30
0.0
 11
-1269.540769785659
 21
-1694.088940428625
 31
0.0
  0
LINE
  5
B7
330
1F
100
AcDbEntity
  8
0-1
  6
Continuous
 62
    92
370
    13
100
AcDbLine
 10
-1631.040769785657
 20
-1716.588940428625
 30
0.0
 11
-1247.040769785659
 21
-1716.588940428625
 31
0.0
  0
LINE
  5
B8
330
1F
100
AcDbEntity
  8
0-1
  6
Continuous
 62
    92
370
    13
100
AcDbLine
 10
-1649.040769785658
 20
-1734.588940428628
 30
0.0
 11
-1229.040769785658
 21
-1734.588940428628
 31
0.0
  0
LINE
  5
B9
330
1F
100
AcDbEntity
  8
0-1
  6
Continuous
 62
    92
370
    13
100
AcDbLine
 10
-1608.540769785657
 20
1217.411059571375
 30
0.0
 11
-1269.540769785659
 21
1217.411059571375
 31
0.0
  0
LINE
  5
BA
330
1F
100
AcDbEntity
  8
0-1
  6
Continuous
 62
    92
370
    13
100
AcDbLine
 10
-1649.040769785658
 20
-1860.588940428626
 30
0.0
 11
-1649.040769785658
 21
1383.911059571376
 31
0.0
  0
LINE
  5
BB
330
1F
100
AcDbEntity
  8
0-1
  6
Continuous
 62
    92
370
    13
100
AcDbLine
 10
-1608.540769785657
 20
-1694.088940428625
 30
0.0
 11
-1608.540769785657
 21
1217.411059571375
 31
0.0
  0
LINE
  5
BC
330
1F
100
AcDbEntity
  8
0-1
  6
Continuous
 62
    92
370
    13
100
AcDbLine
 10
-1608.540769785657
 20
1217.411059571375
 30
0.0
 11
-1622.985769785657
 21
1231.361059571376
 31
0.0
  0
LINE
  5
BD
330
1F
100
AcDbEntity
  8
0-1
  6
Continuous
 62
    92
370
    13
100
AcDbLine
 10
-1608.540769785657
 20
-1694.088940428625
 30
0.0
 11
-1622.985769785657
 21
-1708.533940428627
 31
0.0
  0
LINE
  5
BE
330
1F
100
AcDbEntity
  8
0-1
  6
Continuous
 62
    92
370
    13
100
AcDbLine
 10
-1631.040769785657
 20
-1716.588940428627
 30
0.0
 11
-1649.040769785658
 21
-1734.588940428628
 31
0.0
  0
LINE
  5
BF
330
1F
100
AcDbEntity
  8
0-1
  6
Continuous
 62
    92
370
    13
100
AcDbLine
 10
-1229.040769785658
 20
-1860.588940428626
 30
0.0
 11
-1229.040769785658
 21
1383.911059571376
 31
0.0
  0
LINE
  5
C0
330
1F
100
AcDbEntity
  8
0-1
  6
Continuous
 62
    92
370
    13
100
AcDbLine
 10
-1247.040769785659
 20
-1716.588940428625
 30
0.0
 11
-1247.040769785659
 21
1239.911059571375
 31
0.0
  0
LINE
  5
C1
330
1F
100
AcDbEntity
  8
0-1
  6
Continuous
 62
    92
370
    13
100
AcDbLine
 10
-1269.540769785659
 20
-1694.088940428625
 30
0.0
 11
-1269.540769785659
 21
1217.411059571375
 31
0.0
  0
LINE
  5
C2
330
1F
100
AcDbEntity
  8
0-1
  6
Continuous
 62
    92
370
    13
100
AcDbLine
 10
-1255.095769785659
 20
1231.361059571376
 30
0.0
 11
-1269.540769785659
 21
1217.411059571375
 31
0.0
  0
LINE
  5
C3
330
1F
100
AcDbEntity
  8
0-1
  6
Continuous
 62
    92
370
    13
100
AcDbLine
 10
-1229.040769785658
 20
1257.911059571376
 30
0.0
 11
-1247.040769785659
 21
1239.911059571375
 31
0.0
  0
LINE
  5
C4
330
1F
100
AcDbEntity
  8
0-1
  6
Continuous
 62
    92
370
    13
100
AcDbLine
 10
-1255.095769785659
 20
-1708.533940428627
 30
0.0
 11
-1269.540769785659
 21
-1694.088940428625
 31
0.0
  0
LINE
  5
C5
330
1F
100
AcDbEntity
  8
0-1
  6
Continuous
 62
    92
370
    13
100
AcDbLine
 10
-1247.040769785659
 20
-1716.588940428627
 30
0.0
 11
-1229.040769785658
 21
-1734.588940428628
 31
0.0
  0
LINE
  5
C6
330
1F
100
AcDbEntity
  8
0-1
  6
JWW_CENTER1
 62
     7
370
     9
100
AcDbLine
 10
-1734.540769785659
 20
1383.911059571377
 30
0.0
 11
-1143.540769785657
 21
-238.3389404286249
 31
0.0
  0
LINE
  5
C7
330
1F
100
AcDbEntity
  8
0-1
  6
JWW_CENTER1
 62
     7
370
     9
100
AcDbLine
 10
-1143.540769785657
 20
-238.3389404286249
 30
0.0
 11
-1734.540769785659
 21
-1860.588940428626
 31
0.0
  0
LWPOLYLINE
  5
C8
330
1F
100
AcDbEntity
  8
0-1
  6
Continuous
 62
     7
370
     9
100
AcDbPolyline
 90
        4
 70
     1
 43
6.0
 10
-1140.540770064894
 20
1613.411059571377
 42
0.4142135623731
 10
-1143.540770064894
 20
1616.411059571377
 42
0.4142135623731
 10
-1146.540770064894
 20
1613.411059571377
 42
0.4142135623731
 10
-1143.540770064894
 20
1610.411059571377
 42
0.4142135623731
  0
LINE
  5
C9
330
1F
100
AcDbEntity
  8
0-1
  6
Continuous
 62
   120
370
     5
100
AcDbLine
 10
-1143.540770064894
 20
1613.411059571377
 30
0.0
 11
-1143.540770064894
 21
1463.411059571377
 31
0.0
  0
LINE
  5
CA
330
1F
100
AcDbEntity
  8
0-1
  6
Continuous
 62
   120
370
     5
100
AcDbLine
 10
-1143.540770064894
 20
1613.411059571377
 30
0.0
 11
-1734.540770064895
 21
1613.411059571377
 31
0.0
  0
LWPOLYLINE
  5
CB
330
1F
100
AcDbEntity
  8
0-1
  6
Continuous
 62
     7
370
     9
100
AcDbPolyline
 90
        4
 70
     1
 43
6.0
 10
-1731.540770064895
 20
1613.411059571377
 42
0.4142135623731
 10
-1734.540770064895
 20
1616.411059571377
 42
0.4142135623731
 10
-1737.540770064895
 20
1613.411059571377
 42
0.4142135623731
 10
-1734.540770064895
 20
1610.411059571377
 42
0.4142135623731
  0
LINE
  5
CC
330
1F
100
AcDbEntity
  8
0-1
  6
Continuous
 62
   120
370
     5
100
AcDbLine
 10
-1734.540770064895
 20
1613.411059571377
 30
0.0
 11
-1734.540770064895
 21
1463.411059571377
 31
0.0
  0
TEXT
  5
CD
330
1F
100
AcDbEntity
  8
0-1
  6
Continuous
 62
     7
370
   211
100
AcDbText
 10
-1641.540770064894
 20
1641.101059571377
 30
0.0
 40
68.58
  1
ＤＷ＝394
  7
ＭＳ ゴシック
100
AcDbText
  0
ARC
  5
CE
330
1F
100
AcDbEntity
  8
0-1
  6
Continuous
 62
    92
370
    13
100
AcDbCircle
 10
-1667.790770064898
 20
-347.0889404286223
 30
0.0
 40
1.5
100
AcDbArc
 50
0.0
 51
90.0
  0
LINE
  5
CF
330
1F
100
AcDbEntity
  8
0-1
  6
Continuous
 62
    92
370
    13
100
AcDbLine
 10
-1679.790770064894
 20
-345.5889404286237
 30
0.0
 11
-1667.790770064898
 21
-345.5889404286237
 31
0.0
  0
ARC
  5
D0
330
1F
100
AcDbEntity
  8
0-1
  6
Continuous
 62
    92
370
    13
100
AcDbCircle
 10
-1679.790770064894
 20
-347.0889404286223
 30
0.0
 40
1.5
100
AcDbArc
 50
89.99999999999999
 51
180.0
  0
LINE
  5
D1
330
1F
100
AcDbEntity
  8
0-1
  6
Continuous
 62
    92
370
    13
100
AcDbLine
 10
-1681.290770064896
 20
-545.0889404286213
 30
0.0
 11
-1681.290770064896
 21
-347.0889404286223
 31
0.0
  0
ARC
  5
D2
330
1F
100
AcDbEntity
  8
0-1
  6
Continuous
 62
    92
370
    13
100
AcDbCircle
 10
-1679.790770064894
 20
-545.0889404286213
 30
0.0
 40
1.5
100
AcDbArc
 50
180.0
 51
270.0
  0
LINE
  5
D3
330
1F
100
AcDbEntity
  8
0-1
  6
Continuous
 62
    92
370
    13
100
AcDbLine
 10
-1667.790770064898
 20
-546.5889404286224
 30
0.0
 11
-1679.790770064894
 21
-546.5889404286224
 31
0.0
  0
LINE
  5
D4
330
1F
100
AcDbEntity
  8
0-1
  6
Continuous
 62
    92
370
    13
100
AcDbLine
 10
-1666.290770064896
 20
-545.0889404286213
 30
0.0
 11
-1666.290770064896
 21
-347.0889404286223
 31
0.0
  0
ARC
  5
D5
330
1F
100
AcDbEntity
  8
0-1
  6
Continuous
 62
    92
370
    13
100
AcDbCircle
 10
-1667.790770064898
 20
-545.0889404286213
 30
0.0
 40
1.5
100
AcDbArc
 50
270.0
 51
0.0
  0
ARC
  5
D6
330
1F
100
AcDbEntity
  8
0-1
  6
Continuous
 62
     7
370
     9
100
AcDbCircle
 10
-1666.290770064896
 20
-350.0889404286213
 30
0.0
 40
1.5
100
AcDbArc
 50
0.0
 51
90.0
  0
ARC
  5
D7
330
1F
100
AcDbEntity
  8
0-1
  6
Continuous
 62
     7
370
     9
100
AcDbCircle
 10
-1681.290770064896
 20
-350.0889404286213
 30
0.0
 40
1.5
100
AcDbArc
 50
89.99999999999999
 51
180.0
  0
LINE
  5
D8
330
1F
100
AcDbEntity
  8
0-1
  6
Continuous
 62
     7
370
     9
100
AcDbLine
 10
-1682.790770064898
 20
-377.0889404286223
 30
0.0
 11
-1682.790770064898
 21
-350.0889404286213
 31
0.0
  0
ARC
  5
D9
330
1F
100
AcDbEntity
  8
0-1
  6
Continuous
 62
     7
370
     9
100
AcDbCircle
 10
-1681.290770064896
 20
-377.0889404286223
 30
0.0
 40
1.5
100
AcDbArc
 50
180.0
 51
270.0
  0
LINE
  5
DA
330
1F
100
AcDbEntity
  8
0-1
  6
Continuous
 62
     7
370
     9
100
AcDbLine
 10
-1664.790770064894
 20
-377.0889404286223
 30
0.0
 11
-1664.790770064894
 21
-350.0889404286213
 31
0.0
  0
ARC
  5
DB
330
1F
100
AcDbEntity
  8
0-1
  6
Continuous
 62
     7
370
     9
100
AcDbCircle
 10
-1666.290770064896
 20
-377.0889404286223
 30
0.0
 40
1.5
100
AcDbArc
 50
270.0
 51
0.0
  0
ARC
  5
DC
330
1F
100
AcDbEntity
  8
0-1
  6
Continuous
 62
     7
370
     9
100
AcDbCircle
 10
-1666.290770064896
 20
-515.0889404286213
 30
0.0
 40
1.5
100
AcDbArc
 50
0.0
 51
90.0
  0
ARC
  5
DD
330
1F
100
AcDbEntity
  8
0-1
  6
Continuous
 62
     7
370
     9
100
AcDbCircle
 10
-1681.290770064896
 20
-515.0889404286213
 30
0.0
 40
1.5
100
AcDbArc
 50
89.99999999999999
 51
180.0
  0
LINE
  5
DE
330
1F
100
AcDbEntity
  8
0-1
  6
Continuous
 62
     7
370
     9
100
AcDbLine
 10
-1682.790770064898
 20
-542.0889404286222
 30
0.0
 11
-1682.790770064898
 21
-515.0889404286213
 31
0.0
  0
ARC
  5
DF
330
1F
100
AcDbEntity
  8
0-1
  6
Continuous
 62
     7
370
     9
100
AcDbCircle
 10
-1681.290770064896
 20
-542.0889404286222
 30
0.0
 40
1.5
100
AcDbArc
 50
180.0
 51
270.0
  0
LINE
  5
E0
330
1F
100
AcDbEntity
  8
0-1
  6
Continuous
 62
     7
370
     9
100
AcDbLine
 10
-1664.790770064894
 20
-542.0889404286222
 30
0.0
 11
-1664.790770064894
 21
-515.0889404286213
 31
0.0
  0
ARC
  5
E1
330
1F
100
AcDbEntity
  8
0-1
  6
Continuous
 62
     7
370
     9
100
AcDbCircle
 10
-1666.290770064896
 20
-542.0889404286222
 30
0.0
 40
1.5
100
AcDbArc
 50
270.0
 51
0.0
  0
LINE
  5
E2
330
1F
100
AcDbEntity
  8
0-1
  6
Continuous
 62
    92
370
    13
100
AcDbLine
 10
-24.54077006489322
 20
-728.0891566733511
 30
0.0
 11
-615.5407700648929
 21
-728.0891566733511
 31
0.0
  0
LINE
  5
E3
330
1F
100
AcDbEntity
  8
0-1
  6
Continuous
 62
    92
370
    13
100
AcDbLine
 10
-24.54077006489322
 20
-728.0891566733511
 30
0.0
 11
-24.54077006489322
 21
-1860.58894042862
 31
0.0
  0
LINE
  5
E4
330
1F
100
AcDbEntity
  8
0-1
  6
Continuous
 62
    92
370
    13
100
AcDbLine
 10
-615.5407700648929
 20
-728.0891566733511
 30
0.0
 11
-615.5407700648929
 21
-1860.58894042862
 31
0.0
  0
LINE
  5
E5
330
1F
100
AcDbEntity
  8
0-1
  6
Continuous
 62
    92
370
    13
100
AcDbLine
 10
-24.54077006489322
 20
-1860.58894042862
 30
0.0
 11
-615.5407700648929
 21
-1860.58894042862
 31
0.0
  0
LINE
  5
E6
330
1F
100
AcDbEntity
  8
0-1
  6
Continuous
 62
    92
370
    13
100
AcDbLine
 10
-128.0407700648946
 20
-1716.588940428622
 30
0.0
 11
-110.0407700648939
 21
-1734.588940428622
 31
0.0
  0
LINE
  5
E7
330
1F
100
AcDbEntity
  8
0-1
  6
Continuous
 62
    92
370
    13
100
AcDbLine
 10
-136.0957700648951
 20
-1708.533940428621
 30
0.0
 11
-150.5407700648946
 21
-1694.08894042862
 31
0.0
  0
LINE
  5
E8
330
1F
100
AcDbEntity
  8
0-1
  6
Continuous
 62
    92
370
    13
100
AcDbLine
 10
-512.0407700648949
 20
-1716.588940428622
 30
0.0
 11
-530.0407700648939
 21
-1734.588940428622
 31
0.0
  0
LINE
  5
E9
330
1F
100
AcDbEntity
  8
0-1
  6
Continuous
 62
    92
370
    13
100
AcDbLine
 10
-489.5407700648932
 20
-1694.08894042862
 30
0.0
 11
-503.9857700648944
 21
-1708.533940428621
 31
0.0
  0
LINE
  5
EA
330
1F
100
AcDbEntity
  8
0-1
  6
Continuous
 62
    92
370
    13
100
AcDbLine
 10
-530.0407700648939
 20
-1734.588940428622
 30
0.0
 11
-110.0407700648939
 21
-1734.588940428622
 31
0.0
  0
LINE
  5
EB
330
1F
100
AcDbEntity
  8
0-1
  6
Continuous
 62
    92
370
    13
100
AcDbLine
 10
-512.0407700648932
 20
-1716.58894042862
 30
0.0
 11
-128.0407700648946
 21
-1716.58894042862
 31
0.0
  0
LINE
  5
EC
330
1F
100
AcDbEntity
  8
0-1
  6
Continuous
 62
    92
370
    13
100
AcDbLine
 10
-489.5407700648932
 20
-1694.08894042862
 30
0.0
 11
-150.5407700648946
 21
-1694.08894042862
 31
0.0
  0
LINE
  5
ED
330
1F
100
AcDbEntity
  8
0-1
  6
Continuous
 62
    92
370
    13
100
AcDbLine
 10
-110.0407700648939
 20
-854.08915667335
 30
0.0
 11
-128.0407700648946
 21
-872.0891566733507
 31
0.0
  0
LINE
  5
EE
330
1F
100
AcDbEntity
  8
0-1
  6
Continuous
 62
    92
370
    13
100
AcDbLine
 10
-136.0957700648951
 20
-880.6391566733497
 30
0.0
 11
-150.5407700648946
 21
-894.5891566733507
 31
0.0
  0
LINE
  5
EF
330
1F
100
AcDbEntity
  8
0-1
  6
Continuous
 62
    92
370
    13
100
AcDbLine
 10
-150.5407700648946
 20
-1694.08894042862
 30
0.0
 11
-150.5407700648946
 21
-894.5891566733507
 31
0.0
  0
LINE
  5
F0
330
1F
100
AcDbEntity
  8
0-1
  6
Continuous
 62
    92
370
    13
100
AcDbLine
 10
-128.0407700648946
 20
-1716.58894042862
 30
0.0
 11
-128.0407700648946
 21
-872.0891566733507
 31
0.0
  0
LINE
  5
F1
330
1F
100
AcDbEntity
  8
0-1
  6
Continuous
 62
    92
370
    13
100
AcDbLine
 10
-110.0407700648939
 20
-1860.588940428621
 30
0.0
 11
-110.0407700648939
 21
-728.0891566733494
 31
0.0
  0
LINE
  5
F2
330
1F
100
AcDbEntity
  8
0-1
  6
Continuous
 62
    92
370
    13
100
AcDbLine
 10
-489.5407700648932
 20
-894.5891566733507
 30
0.0
 11
-503.9857700648944
 21
-880.6391566733497
 31
0.0
  0
LINE
  5
F3
330
1F
100
AcDbEntity
  8
0-1
  6
Continuous
 62
    92
370
    13
100
AcDbLine
 10
-489.5407700648932
 20
-1694.08894042862
 30
0.0
 11
-489.5407700648932
 21
-894.5891566733507
 31
0.0
  0
LINE
  5
F4
330
1F
100
AcDbEntity
  8
0-1
  6
Continuous
 62
    92
370
    13
100
AcDbLine
 10
-530.0407700648939
 20
-1860.588940428621
 30
0.0
 11
-530.0407700648939
 21
-728.0891566733494
 31
0.0
  0
LINE
  5
F5
330
1F
100
AcDbEntity
  8
0-1
  6
Continuous
 62
    92
370
    13
100
AcDbLine
 10
-489.5407700648932
 20
-894.5891566733507
 30
0.0
 11
-150.5407700648946
 21
-894.5891566733507
 31
0.0
  0
LINE
  5
F6
330
1F
100
AcDbEntity
  8
0-1
  6
Continuous
 62
    92
370
    13
100
AcDbLine
 10
-530.0407700648939
 20
-854.08915667335
 30
0.0
 11
-110.0407700648939
 21
-854.08915667335
 31
0.0
  0
LINE
  5
F7
330
1F
100
AcDbEntity
  8
0-1
  6
Continuous
 62
    92
370
    13
100
AcDbLine
 10
-512.0407700648932
 20
-872.0891566733507
 30
0.0
 11
-530.0407700648939
 21
-854.08915667335
 31
0.0
  0
LINE
  5
F8
330
1F
100
AcDbEntity
  8
0-1
  6
Continuous
 62
    92
370
    13
100
AcDbLine
 10
-512.0407700648932
 20
-872.0891566733507
 30
0.0
 11
-128.0407700648946
 21
-872.0891566733507
 31
0.0
  0
LINE
  5
F9
330
1F
100
AcDbEntity
  8
0-1
  6
Continuous
 62
    92
370
    13
100
AcDbLine
 10
-512.0407700648932
 20
-1716.58894042862
 30
0.0
 11
-512.0407700648932
 21
-872.0891566733507
 31
0.0
  0
LINE
  5
FA
330
1F
100
AcDbEntity
  8
0-1
  6
JWW_CENTER1
 62
     7
370
     9
100
AcDbLine
 10
-615.5407700648946
 20
-1294.339048550985
 30
0.0
 11
-24.54077006489322
 21
-1860.588940428621
 31
0.0
  0
LINE
  5
FB
330
1F
100
AcDbEntity
  8
0-1
  6
JWW_CENTER1
 62
     7
370
     9
100
AcDbLine
 10
-24.54077006489322
 20
-728.0891566733494
 30
0.0
 11
-615.5407700648946
 21
-1294.339048550985
 31
0.0
  0
LINE
  5
FC
330
1F
100
AcDbEntity
  8
0-1
  6
Continuous
 62
    92
370
    13
100
AcDbLine
 10
-615.5407700648929
 20
1383.911059571383
 30
0.0
 11
-615.5407700648929
 21
539.4110595713828
 31
0.0
  0
LINE
  5
FD
330
1F
100
AcDbEntity
  8
0-1
  6
Continuous
 62
    92
370
    13
100
AcDbLine
 10
-24.54077006489493
 20
539.4110595713828
 30
0.0
 11
-615.5407700648929
 21
539.4110595713828
 31
0.0
  0
LINE
  5
FE
330
1F
100
AcDbEntity
  8
0-1
  6
Continuous
 62
    92
370
    13
100
AcDbLine
 10
-24.54077006489493
 20
1383.911059571383
 30
0.0
 11
-615.5407700648929
 21
1383.911059571383
 31
0.0
  0
LINE
  5
FF
330
1F
100
AcDbEntity
  8
0-1
  6
Continuous
 62
    92
370
    13
100
AcDbLine
 10
-24.54077006489493
 20
1383.911059571383
 30
0.0
 11
-24.54077006489493
 21
539.4110595713828
 31
0.0
  0
LINE
  5
100
330
1F
100
AcDbEntity
  8
0-1
  6
JWW_CENTER1
 62
     7
370
     9
100
AcDbLine
 10
-24.54077006489493
 20
1383.911059571383
 30
0.0
 11
-615.5407700648963
 21
961.6610595713839
 31
0.0
  0
LINE
  5
101
330
1F
100
AcDbEntity
  8
0-1
  6
JWW_CENTER1
 62
     7
370
     9
100
AcDbLine
 10
-615.5407700648963
 20
961.6610595713839
 30
0.0
 11
-24.54077006489493
 21
539.4110595713785
 31
0.0
  0
LINE
  5
102
330
1F
100
AcDbEntity
  8
0-1
  6
Continuous
 62
    92
370
    13
100
AcDbLine
 10
-110.0407700648956
 20
1257.911059571383
 30
0.0
 11
-128.0407700648963
 21
1239.911059571382
 31
0.0
  0
LINE
  5
103
330
1F
100
AcDbEntity
  8
0-1
  6
Continuous
 62
    92
370
    13
100
AcDbLine
 10
-136.0957700648968
 20
1231.361059571383
 30
0.0
 11
-150.5407700648963
 21
1217.411059571382
 31
0.0
  0
LINE
  5
104
330
1F
100
AcDbEntity
  8
0-1
  6
Continuous
 62
    92
370
    13
100
AcDbLine
 10
-489.5407700648949
 20
1217.411059571382
 30
0.0
 11
-503.9857700648961
 21
1231.361059571383
 31
0.0
  0
LINE
  5
105
330
1F
100
AcDbEntity
  8
0-1
  6
Continuous
 62
    92
370
    13
100
AcDbLine
 10
-489.5407700648949
 20
1217.411059571382
 30
0.0
 11
-150.5407700648963
 21
1217.411059571382
 31
0.0
  0
LINE
  5
106
330
1F
100
AcDbEntity
  8
0-1
  6
Continuous
 62
    92
370
    13
100
AcDbLine
 10
-530.0407700648956
 20
1257.911059571383
 30
0.0
 11
-110.0407700648956
 21
1257.911059571383
 31
0.0
  0
LINE
  5
107
330
1F
100
AcDbEntity
  8
0-1
  6
Continuous
 62
    92
370
    13
100
AcDbLine
 10
-512.0407700648949
 20
1239.911059571382
 30
0.0
 11
-530.0407700648956
 21
1257.911059571383
 31
0.0
  0
LINE
  5
108
330
1F
100
AcDbEntity
  8
0-1
  6
Continuous
 62
    92
370
    13
100
AcDbLine
 10
-512.0407700648949
 20
1239.911059571382
 30
0.0
 11
-128.0407700648963
 21
1239.911059571382
 31
0.0
  0
LINE
  5
109
330
1F
100
AcDbEntity
  8
0-1
  6
Continuous
 62
    92
370
    13
100
AcDbLine
 10
-128.0407700648963
 20
683.4110595713771
 30
0.0
 11
-110.0407700648956
 21
665.4110595713794
 31
0.0
  0
LINE
  5
10A
330
1F
100
AcDbEntity
  8
0-1
  6
Continuous
 62
    92
370
    13
100
AcDbLine
 10
-136.0957700648968
 20
691.4660595713785
 30
0.0
 11
-150.5407700648963
 21
705.9110595713801
 31
0.0
  0
LINE
  5
10B
330
1F
100
AcDbEntity
  8
0-1
  6
Continuous
 62
    92
370
    13
100
AcDbLine
 10
-512.0407700648966
 20
683.4110595713771
 30
0.0
 11
-530.0407700648956
 21
665.4110595713794
 31
0.0
  0
LINE
  5
10C
330
1F
100
AcDbEntity
  8
0-1
  6
Continuous
 62
    92
370
    13
100
AcDbLine
 10
-489.5407700648949
 20
705.9110595713801
 30
0.0
 11
-503.9857700648961
 21
691.4660595713785
 31
0.0
  0
LINE
  5
10D
330
1F
100
AcDbEntity
  8
0-1
  6
Continuous
 62
    92
370
    13
100
AcDbLine
 10
-530.0407700648956
 20
665.4110595713794
 30
0.0
 11
-110.0407700648956
 21
665.4110595713794
 31
0.0
  0
LINE
  5
10E
330
1F
100
AcDbEntity
  8
0-1
  6
Continuous
 62
    92
370
    13
100
AcDbLine
 10
-512.0407700648949
 20
683.4110595713801
 30
0.0
 11
-128.0407700648963
 21
683.4110595713801
 31
0.0
  0
LINE
  5
10F
330
1F
100
AcDbEntity
  8
0-1
  6
Continuous
 62
    92
370
    13
100
AcDbLine
 10
-489.5407700648949
 20
705.9110595713801
 30
0.0
 11
-150.5407700648963
 21
705.9110595713801
 31
0.0
  0
LINE
  5
110
330
1F
100
AcDbEntity
  8
0-1
  6
Continuous
 62
    92
370
    13
100
AcDbLine
 10
-150.5407700648963
 20
705.9110595713801
 30
0.0
 11
-150.5407700648963
 21
1217.411059571382
 31
0.0
  0
LINE
  5
111
330
1F
100
AcDbEntity
  8
0-1
  6
Continuous
 62
    92
370
    13
100
AcDbLine
 10
-128.0407700648963
 20
683.4110595713801
 30
0.0
 11
-128.0407700648963
 21
1239.911059571382
 31
0.0
  0
LINE
  5
112
330
1F
100
AcDbEntity
  8
0-1
  6
Continuous
 62
    92
370
    13
100
AcDbLine
 10
-110.0407700648956
 20
539.4110595713785
 30
0.0
 11
-110.0407700648956
 21
1383.911059571383
 31
0.0
  0
LINE
  5
113
330
1F
100
AcDbEntity
  8
0-1
  6
Continuous
 62
    92
370
    13
100
AcDbLine
 10
-489.5407700648949
 20
705.9110595713801
 30
0.0
 11
-489.5407700648949
 21
1217.411059571382
 31
0.0
  0
LINE
  5
114
330
1F
100
AcDbEntity
  8
0-1
  6
Continuous
 62
    92
370
    13
100
AcDbLine
 10
-530.0407700648956
 20
539.4110595713785
 30
0.0
 11
-530.0407700648956
 21
1383.911059571383
 31
0.0
  0
LINE
  5
115
330
1F
100
AcDbEntity
  8
0-1
  6
Continuous
 62
    92
370
    13
100
AcDbLine
 10
-512.0407700648949
 20
683.4110595713801
 30
0.0
 11
-512.0407700648949
 21
1239.911059571382
 31
0.0
  0
TEXT
  5
116
330
1F
100
AcDbEntity
  8
0-1
  6
Continuous
 62
     7
370
   211
100
AcDbText
 10
-522.5407700648922
 20
-470.8991566733514
 30
0.0
 40
68.58
  1
ＤＷ＝394
 41
0.9999999999999999
  7
ＭＳ ゴシック
100
AcDbText
  0
LINE
  5
117
330
1F
100
AcDbEntity
  8
0-1
  6
Continuous
 62
   120
370
     5
100
AcDbLine
 10
-24.54077006489493
 20
-498.5891566733514
 30
0.0
 11
-24.54077006489493
 21
-648.5891566733515
 31
0.0
  0
LWPOLYLINE
  5
118
330
1F
100
AcDbEntity
  8
0-1
  6
Continuous
 62
     7
370
     9
100
AcDbPolyline
 90
        4
 70
     1
 43
6.0
 10
-21.54077006489493
 20
-498.5891566733514
 42
0.4142135623731
 10
-24.54077006489493
 20
-495.5891566733513
 42
0.4142135623731
 10
-27.54077006489493
 20
-498.5891566733514
 42
0.4142135623731
 10
-24.54077006489493
 20
-501.5891566733515
 42
0.4142135623731
  0
LINE
  5
119
330
1F
100
AcDbEntity
  8
0-1
  6
Continuous
 62
   120
370
     5
100
AcDbLine
 10
-615.5407700648929
 20
-498.5891566733514
 30
0.0
 11
-24.54077006489493
 21
-498.5891566733514
 31
0.0
  0
LINE
  5
11A
330
1F
100
AcDbEntity
  8
0-1
  6
Continuous
 62
   120
370
     5
100
AcDbLine
 10
-615.5407700648929
 20
-498.5891566733514
 30
0.0
 11
-615.5407700648929
 21
-648.5891566733515
 31
0.0
  0
LWPOLYLINE
  5
11B
330
1F
100
AcDbEntity
  8
0-1
  6
Continuous
 62
     7
370
     9
100
AcDbPolyline
 90
        4
 70
     1
 43
6.0
 10
-612.5407700648927
 20
-498.5891566733514
 42
0.4142135623731
 10
-615.5407700648929
 20
-495.5891566733513
 42
0.4142135623731
 10
-618.5407700648929
 20
-498.5891566733514
 42
0.4142135623731
 10
-615.5407700648929
 20
-501.5891566733515
 42
0.4142135623731
  0
LINE
  5
11C
330
1F
100
AcDbEntity
  8
0-1
  6
Continuous
 62
   120
370
     5
100
AcDbLine
 10
-843.5407700648935
 20
-1860.58894042862
 30
0.0
 11
-693.5407700648935
 21
-1860.58894042862
 31
0.0
  0
LINE
  5
11D
330
1F
100
AcDbEntity
  8
0-1
  6
Continuous
 62
   120
370
     5
100
AcDbLine
 10
-843.5407700648935
 20
-1860.58894042862
 30
0.0
 11
-843.5407700648935
 21
-728.0889404286202
 31
0.0
  0
LWPOLYLINE
  5
11E
330
1F
100
AcDbEntity
  8
0-1
  6
Continuous
 62
     7
370
     9
100
AcDbPolyline
 90
        4
 70
     1
 43
6.0
 10
-840.5407700648934
 20
-1860.58894042862
 42
0.4142135623731
 10
-843.5407700648935
 20
-1857.58894042862
 42
0.4142135623731
 10
-846.5407700648935
 20
-1860.58894042862
 42
0.4142135623731
 10
-843.5407700648935
 20
-1863.58894042862
 42
0.4142135623731
  0
TEXT
  5
11F
330
1F
100
AcDbEntity
  8
0-1
  6
Continuous
 62
     7
370
   211
100
AcDbText
 10
-871.2307700648919
 20
-1496.838970121398
 30
0.0
 40
68.58
  1
ＤＨ＝755
 50
90.0
  7
ＭＳ ゴシック
100
AcDbText
  0
LWPOLYLINE
  5
120
330
1F
100
AcDbEntity
  8
0-1
  6
Continuous
 62
     7
370
     9
100
AcDbPolyline
 90
        4
 70
     1
 43
6.0
 10
-840.5407700648934
 20
-728.0889404286202
 42
0.4142135623731
 10
-843.5407700648935
 20
-725.0889404286202
 42
0.4142135623731
 10
-846.5407700648935
 20
-728.0889404286202
 42
0.4142135623731
 10
-843.5407700648935
 20
-731.0889404286203
 42
0.4142135623731
  0
LINE
  5
121
330
1F
100
AcDbEntity
  8
0-1
  6
Continuous
 62
   120
370
     5
100
AcDbLine
 10
-843.5407700648935
 20
-728.0889404286202
 30
0.0
 11
-693.5407700648935
 21
-728.0889404286202
 31
0.0
  0
TEXT
  5
122
330
1F
100
AcDbEntity
  8
0-1
  6
Continuous
 62
     7
370
   211
100
AcDbText
 10
-522.5407700648922
 20
1641.101059571383
 30
0.0
 40
68.58
  1
ＤＷ＝394
 41
0.9999999999999999
  7
ＭＳ ゴシック
100
AcDbText
  0
LINE
  5
123
330
1F
100
AcDbEntity
  8
0-1
  6
Continuous
 62
   120
370
     5
100
AcDbLine
 10
-24.54077006489493
 20
1613.411059571383
 30
0.0
 11
-24.54077006489493
 21
1463.411059571383
 31
0.0
  0
LWPOLYLINE
  5
124
330
1F
100
AcDbEntity
  8
0-1
  6
Continuous
 62
     7
370
     9
100
AcDbPolyline
 90
        4
 70
     1
 43
6.0
 10
-21.54077006489493
 20
1613.411059571383
 42
0.4142135623731
 10
-24.54077006489493
 20
1616.411059571383
 42
0.4142135623731
 10
-27.54077006489493
 20
1613.411059571383
 42
0.4142135623731
 10
-24.54077006489493
 20
1610.411059571382
 42
0.4142135623731
  0
LINE
  5
125
330
1F
100
AcDbEntity
  8
0-1
  6
Continuous
 62
   120
370
     5
100
AcDbLine
 10
-615.5407700648929
 20
1613.411059571383
 30
0.0
 11
-24.54077006489493
 21
1613.411059571383
 31
0.0
  0
LINE
  5
126
330
1F
100
AcDbEntity
  8
0-1
  6
Continuous
 62
   120
370
     5
100
AcDbLine
 10
-615.5407700648929
 20
1613.411059571383
 30
0.0
 11
-615.5407700648929
 21
1463.411059571383
 31
0.0
  0
LWPOLYLINE
  5
127
330
1F
100
AcDbEntity
  8
0-1
  6
Continuous
 62
     7
370
     9
100
AcDbPolyline
 90
        4
 70
     1
 43
6.0
 10
-612.5407700648927
 20
1613.411059571383
 42
0.4142135623731
 10
-615.5407700648929
 20
1616.411059571383
 42
0.4142135623731
 10
-618.5407700648929
 20
1613.411059571383
 42
0.4142135623731
 10
-615.5407700648929
 20
1610.411059571382
 42
0.4142135623731
  0
LINE
  5
128
330
1F
100
AcDbEntity
  8
0-1
  6
Continuous
 62
   120
370
     5
100
AcDbLine
 10
-843.5407700648935
 20
539.4110595713828
 30
0.0
 11
-693.5407700648935
 21
539.4110595713828
 31
0.0
  0
LWPOLYLINE
  5
129
330
1F
100
AcDbEntity
  8
0-1
  6
Continuous
 62
     7
370
     9
100
AcDbPolyline
 90
        4
 70
     1
 43
6.0
 10
-840.5407700648934
 20
539.4110595713828
 42
0.4142135623731
 10
-843.5407700648935
 20
542.4110595713828
 42
0.4142135623731
 10
-846.5407700648935
 20
539.4110595713828
 42
0.4142135623731
 10
-843.5407700648935
 20
536.4110595713827
 42
0.4142135623731
  0
LINE
  5
12A
330
1F
100
AcDbEntity
  8
0-1
  6
Continuous
 62
   120
370
     5
100
AcDbLine
 10
-843.5407700648935
 20
539.4110595713828
 30
0.0
 11
-843.5407700648935
 21
543.9110401075893
 31
0.0
  0
TEXT
  5
12B
330
1F
100
AcDbEntity
  8
0-1
  6
Continuous
 62
     7
370
   211
100
AcDbText
 10
-871.2307700648953
 20
759.1610595713828
 30
0.0
 40
68.58
  1
ＤＨ＝563
 50
90.0
  7
ＭＳ ゴシック
100
AcDbText
  0
LINE
  5
12C
330
1F
100
AcDbEntity
  8
0-1
  6
Continuous
 62
   120
370
     5
100
AcDbLine
 10
-843.5407700648935
 20
539.4110595713828
 30
0.0
 11
-843.5407700648935
 21
1383.911059571383
 31
0.0
  0
LWPOLYLINE
  5
12D
330
1F
100
AcDbEntity
  8
0-1
  6
Continuous
 62
     7
370
     9
100
AcDbPolyline
 90
        4
 70
     1
 43
6.0
 10
-840.5407700648934
 20
539.4110595713828
 42
0.4142135623731
 10
-843.5407700648935
 20
542.4110595713828
 42
0.4142135623731
 10
-846.5407700648935
 20
539.4110595713828
 42
0.4142135623731
 10
-843.5407700648935
 20
536.4110595713827
 42
0.4142135623731
  0
LINE
  5
12E
330
1F
100
AcDbEntity
  8
0-1
  6
Continuous
 62
   120
370
     5
100
AcDbLine
 10
-843.5407700648935
 20
1383.911059571383
 30
0.0
 11
-693.5407700648935
 21
1383.911059571383
 31
0.0
  0
LWPOLYLINE
  5
12F
330
1F
100
AcDbEntity
  8
0-1
  6
Continuous
 62
     7
370
     9
100
AcDbPolyline
 90
        4
 70
     1
 43
6.0
 10
-840.5407700648934
 20
1383.911059571383
 42
0.4142135623731
 10
-843.5407700648935
 20
1386.911059571383
 42
0.4142135623731
 10
-846.5407700648935
 20
1383.911059571383
 42
0.4142135623731
 10
-843.5407700648935
 20
1380.911059571383
 42
0.4142135623731
  0
ARC
  5
130
330
1F
100
AcDbEntity
  8
0-1
  6
Continuous
 62
    92
370
    13
100
AcDbCircle
 10
-91.2907700648939
 20
-764.0891863661294
 30
0.0
 40
1.5
100
AcDbArc
 50
90.0
 51
180.0
  0
LINE
  5
131
330
1F
100
AcDbEntity
  8
0-1
  6
Continuous
 62
    92
370
    13
100
AcDbLine
 10
-79.290770064898
 20
-762.5891863661291
 30
0.0
 11
-91.2907700648939
 21
-762.5891863661291
 31
0.0
  0
ARC
  5
132
330
1F
100
AcDbEntity
  8
0-1
  6
Continuous
 62
    92
370
    13
100
AcDbCircle
 10
-79.290770064898
 20
-764.0891863661294
 30
0.0
 40
1.5
100
AcDbArc
 50
0.0
 51
90.00000000000001
  0
LINE
  5
133
330
1F
100
AcDbEntity
  8
0-1
  6
Continuous
 62
    92
370
    13
100
AcDbLine
 10
-77.79077006489425
 20
-958.3392160589078
 30
0.0
 11
-77.79077006489425
 21
-764.0891863661294
 31
0.0
  0
LINE
  5
134
330
1F
100
AcDbEntity
  8
0-1
  6
Continuous
 62
    92
370
    13
100
AcDbLine
 10
-92.79077006489425
 20
-958.3392160589078
 30
0.0
 11
-92.79077006489425
 21
-764.0891863661294
 31
0.0
  0
ARC
  5
135
330
1F
100
AcDbEntity
  8
0-1
  6
Continuous
 62
     7
370
     9
100
AcDbCircle
 10
-92.79077006489425
 20
-767.0891863661301
 30
0.0
 40
1.5
100
AcDbArc
 50
90.0
 51
180.0
  0
ARC
  5
136
330
1F
100
AcDbEntity
  8
0-1
  6
Continuous
 62
     7
370
     9
100
AcDbCircle
 10
-77.79077006489425
 20
-767.0891863661301
 30
0.0
 40
1.5
100
AcDbArc
 50
0.0
 51
90.00000000000001
  0
LINE
  5
137
330
1F
100
AcDbEntity
  8
0-1
  6
Continuous
 62
     7
370
     9
100
AcDbLine
 10
-76.2907700648939
 20
-794.0891863661294
 30
0.0
 11
-76.2907700648939
 21
-767.0891863661301
 31
0.0
  0
ARC
  5
138
330
1F
100
AcDbEntity
  8
0-1
  6
Continuous
 62
     7
370
     9
100
AcDbCircle
 10
-77.79077006489425
 20
-794.0891863661294
 30
0.0
 40
1.5
100
AcDbArc
 50
270.0
 51
0.0
  0
LINE
  5
139
330
1F
100
AcDbEntity
  8
0-1
  6
Continuous
 62
     7
370
     9
100
AcDbLine
 10
-94.29077006489288
 20
-794.0891863661294
 30
0.0
 11
-94.29077006489288
 21
-767.0891863661301
 31
0.0
  0
ARC
  5
13A
330
1F
100
AcDbEntity
  8
0-1
  6
Continuous
 62
     7
370
     9
100
AcDbCircle
 10
-92.79077006489425
 20
-794.0891863661294
 30
0.0
 40
1.5
100
AcDbArc
 50
180.0
 51
270.0
  0
ARC
  5
13B
330
1F
100
AcDbEntity
  8
0-1
  6
Continuous
 62
     7
370
     9
100
AcDbCircle
 10
-92.79077006489425
 20
-932.0891863661292
 30
0.0
 40
1.5
100
AcDbArc
 50
90.0
 51
180.0
  0
ARC
  5
13C
330
1F
100
AcDbEntity
  8
0-1
  6
Continuous
 62
     7
370
     9
100
AcDbCircle
 10
-77.79077006489425
 20
-932.0891863661292
 30
0.0
 40
1.5
100
AcDbArc
 50
0.0
 51
90.00000000000001
  0
LINE
  5
13D
330
1F
100
AcDbEntity
  8
0-1
  6
Continuous
 62
     7
370
     9
100
AcDbLine
 10
-76.2907700648939
 20
-955.3392160589071
 30
0.0
 11
-76.2907700648939
 21
-932.0891863661292
 31
0.0
  0
LINE
  5
13E
330
1F
100
AcDbEntity
  8
0-1
  6
Continuous
 62
     7
370
     9
100
AcDbLine
 10
-94.29077006489288
 20
-955.3392160589071
 30
0.0
 11
-94.29077006489288
 21
-932.0891863661292
 31
0.0
  0
ARC
  5
13F
330
1F
100
AcDbEntity
  8
0-1
  6
Continuous
 62
    92
370
    13
100
AcDbCircle
 10
-79.290770064898
 20
-958.3392160589078
 30
0.0
 40
1.5
100
AcDbArc
 50
270.0
 51
0.0
  0
LINE
  5
140
330
1F
100
AcDbEntity
  8
0-1
  6
Continuous
 62
    92
370
    13
100
AcDbLine
 10
-91.2907700648939
 20
-959.8392160589082
 30
0.0
 11
-79.290770064898
 21
-959.8392160589082
 31
0.0
  0
ARC
  5
141
330
1F
100
AcDbEntity
  8
0-1
  6
Continuous
 62
    92
370
    13
100
AcDbCircle
 10
-91.2907700648939
 20
-958.3392160589078
 30
0.0
 40
1.5
100
AcDbArc
 50
180.0
 51
270.0
  0
ARC
  5
142
330
1F
100
AcDbEntity
  8
0-1
  6
Continuous
 62
     7
370
     9
100
AcDbCircle
 10
-77.79077006489425
 20
-955.3392160589071
 30
0.0
 40
1.5
100
AcDbArc
 50
270.0
 51
0.0
  0
ARC
  5
143
330
1F
100
AcDbEntity
  8
0-1
  6
Continuous
 62
     7
370
     9
100
AcDbCircle
 10
-92.79077006489425
 20
-955.3392160589071
 30
0.0
 40
1.5
100
AcDbArc
 50
180.0
 51
270.0
  0
ARC
  5
144
330
1F
100
AcDbEntity
  8
0-1
  6
Continuous
 62
     7
370
     9
100
AcDbCircle
 10
-92.79077006489425
 20
578.411059574034
 30
0.0
 40
1.5
100
AcDbArc
 50
180.0
 51
270.0
  0
LINE
  5
145
330
1F
100
AcDbEntity
  8
0-1
  6
Continuous
 62
     7
370
     9
100
AcDbLine
 10
-94.29077006489288
 20
578.411059574034
 30
0.0
 11
-94.29077006489288
 21
605.4110595740342
 31
0.0
  0
ARC
  5
146
330
1F
100
AcDbEntity
  8
0-1
  6
Continuous
 62
     7
370
     9
100
AcDbCircle
 10
-77.79077006489425
 20
578.411059574034
 30
0.0
 40
1.5
100
AcDbArc
 50
270.0
 51
0.0
  0
LINE
  5
147
330
1F
100
AcDbEntity
  8
0-1
  6
Continuous
 62
     7
370
     9
100
AcDbLine
 10
-76.2907700648922
 20
578.411059574034
 30
0.0
 11
-76.2907700648922
 21
605.4110595740342
 31
0.0
  0
ARC
  5
148
330
1F
100
AcDbEntity
  8
0-1
  6
Continuous
 62
     7
370
     9
100
AcDbCircle
 10
-77.79077006489425
 20
605.4110595740342
 30
0.0
 40
1.5
100
AcDbArc
 50
0.0
 51
90.00000000000001
  0
ARC
  5
149
330
1F
100
AcDbEntity
  8
0-1
  6
Continuous
 62
     7
370
     9
100
AcDbCircle
 10
-92.79077006489425
 20
605.4110595740342
 30
0.0
 40
1.5
100
AcDbArc
 50
90.0
 51
180.0
  0
ARC
  5
14A
330
1F
100
AcDbEntity
  8
0-1
  6
Continuous
 62
     7
370
     9
100
AcDbCircle
 10
-92.79077006489425
 20
743.4110595740335
 30
0.0
 40
1.5
100
AcDbArc
 50
180.0
 51
270.0
  0
LINE
  5
14B
330
1F
100
AcDbEntity
  8
0-1
  6
Continuous
 62
     7
370
     9
100
AcDbLine
 10
-94.29077006489288
 20
743.4110595740335
 30
0.0
 11
-94.29077006489288
 21
770.4110595740333
 31
0.0
  0
ARC
  5
14C
330
1F
100
AcDbEntity
  8
0-1
  6
Continuous
 62
     7
370
     9
100
AcDbCircle
 10
-77.79077006489425
 20
743.4110595740335
 30
0.0
 40
1.5
100
AcDbArc
 50
270.0
 51
0.0
  0
LINE
  5
14D
330
1F
100
AcDbEntity
  8
0-1
  6
Continuous
 62
     7
370
     9
100
AcDbLine
 10
-76.2907700648922
 20
743.4110595740335
 30
0.0
 11
-76.2907700648922
 21
770.4110595740333
 31
0.0
  0
ARC
  5
14E
330
1F
100
AcDbEntity
  8
0-1
  6
Continuous
 62
     7
370
     9
100
AcDbCircle
 10
-77.79077006489425
 20
770.4110595740333
 30
0.0
 40
1.5
100
AcDbArc
 50
0.0
 51
90.00000000000001
  0
ARC
  5
14F
330
1F
100
AcDbEntity
  8
0-1
  6
Continuous
 62
     7
370
     9
100
AcDbCircle
 10
-92.79077006489425
 20
770.4110595740333
 30
0.0
 40
1.5
100
AcDbArc
 50
90.0
 51
180.0
  0
ARC
  5
150
330
1F
100
AcDbEntity
  8
0-1
  6
Continuous
 62
    92
370
    13
100
AcDbCircle
 10
-91.2907700648922
 20
575.4110595740333
 30
0.0
 40
1.5
100
AcDbArc
 50
180.0
 51
270.0
  0
LINE
  5
151
330
1F
100
AcDbEntity
  8
0-1
  6
Continuous
 62
    92
370
    13
100
AcDbLine
 10
-92.79077006489425
 20
575.4110595740333
 30
0.0
 11
-92.79077006489425
 21
773.411059574034
 31
0.0
  0
LINE
  5
152
330
1F
100
AcDbEntity
  8
0-1
  6
Continuous
 62
    92
370
    13
100
AcDbLine
 10
-91.2907700648922
 20
573.9110595740339
 30
0.0
 11
-79.2907700648963
 21
573.9110595740339
 31
0.0
  0
ARC
  5
153
330
1F
100
AcDbEntity
  8
0-1
  6
Continuous
 62
    92
370
    13
100
AcDbCircle
 10
-79.2907700648963
 20
575.4110595740333
 30
0.0
 40
1.5
100
AcDbArc
 50
270.0
 51
0.0
  0
LINE
  5
154
330
1F
100
AcDbEntity
  8
0-1
  6
Continuous
 62
    92
370
    13
100
AcDbLine
 10
-77.79077006489425
 20
575.4110595740333
 30
0.0
 11
-77.79077006489425
 21
773.411059574034
 31
0.0
  0
ARC
  5
155
330
1F
100
AcDbEntity
  8
0-1
  6
Continuous
 62
    92
370
    13
100
AcDbCircle
 10
-79.2907700648963
 20
773.411059574034
 30
0.0
 40
1.5
100
AcDbArc
 50
0.0
 51
90.00000000000001
  0
LINE
  5
156
330
1F
100
AcDbEntity
  8
0-1
  6
Continuous
 62
    92
370
    13
100
AcDbLine
 10
-79.2907700648963
 20
774.911059574034
 30
0.0
 11
-91.2907700648922
 21
774.911059574034
 31
0.0
  0
ARC
  5
157
330
1F
100
AcDbEntity
  8
0-1
  6
Continuous
 62
    92
370
    13
100
AcDbCircle
 10
-91.2907700648922
 20
773.411059574034
 30
0.0
 40
1.5
100
AcDbArc
 50
90.0
 51
180.0
  0
LINE
  5
158
330
1F
100
AcDbEntity
  8
0-1
  6
Continuous
 62
    92
370
    13
100
AcDbLine
 10
125.4592299351085
 20
-728.0891566733545
 30
0.0
 11
716.4592299351082
 21
-728.0891566733545
 31
0.0
  0
LINE
  5
159
330
1F
100
AcDbEntity
  8
0-1
  6
Continuous
 62
    92
370
    13
100
AcDbLine
 10
125.4592299351085
 20
-728.0891566733545
 30
0.0
 11
125.4592299351085
 21
-1860.588940428624
 31
0.0
  0
LINE
  5
15A
330
1F
100
AcDbEntity
  8
0-1
  6
Continuous
 62
    92
370
    13
100
AcDbLine
 10
716.4592299351082
 20
-728.0891566733545
 30
0.0
 11
716.4592299351082
 21
-1860.588940428624
 31
0.0
  0
LINE
  5
15B
330
1F
100
AcDbEntity
  8
0-1
  6
Continuous
 62
    92
370
    13
100
AcDbLine
 10
125.4592299351085
 20
-1860.588940428624
 30
0.0
 11
716.4592299351082
 21
-1860.588940428624
 31
0.0
  0
LINE
  5
15C
330
1F
100
AcDbEntity
  8
0-1
  6
Continuous
 62
    92
370
    13
100
AcDbLine
 10
228.9592299351098
 20
-1716.588940428625
 30
0.0
 11
210.9592299351092
 21
-1734.588940428625
 31
0.0
  0
LINE
  5
15D
330
1F
100
AcDbEntity
  8
0-1
  6
Continuous
 62
    92
370
    13
100
AcDbLine
 10
237.0142299351104
 20
-1708.533940428625
 30
0.0
 11
251.4592299351098
 21
-1694.088940428624
 31
0.0
  0
LINE
  5
15E
330
1F
100
AcDbEntity
  8
0-1
  6
Continuous
 62
    92
370
    13
100
AcDbLine
 10
612.9592299351102
 20
-1716.588940428625
 30
0.0
 11
630.9592299351092
 21
-1734.588940428625
 31
0.0
  0
LINE
  5
15F
330
1F
100
AcDbEntity
  8
0-1
  6
Continuous
 62
    92
370
    13
100
AcDbLine
 10
590.4592299351085
 20
-1694.088940428624
 30
0.0
 11
604.9042299351097
 21
-1708.533940428625
 31
0.0
  0
LINE
  5
160
330
1F
100
AcDbEntity
  8
0-1
  6
Continuous
 62
    92
370
    13
100
AcDbLine
 10
630.9592299351092
 20
-1734.588940428625
 30
0.0
 11
210.9592299351092
 21
-1734.588940428625
 31
0.0
  0
LINE
  5
161
330
1F
100
AcDbEntity
  8
0-1
  6
Continuous
 62
    92
370
    13
100
AcDbLine
 10
612.9592299351085
 20
-1716.588940428624
 30
0.0
 11
228.9592299351098
 21
-1716.588940428624
 31
0.0
  0
LINE
  5
162
330
1F
100
AcDbEntity
  8
0-1
  6
Continuous
 62
    92
370
    13
100
AcDbLine
 10
590.4592299351085
 20
-1694.088940428624
 30
0.0
 11
251.4592299351098
 21
-1694.088940428624
 31
0.0
  0
LINE
  5
163
330
1F
100
AcDbEntity
  8
0-1
  6
Continuous
 62
    92
370
    13
100
AcDbLine
 10
210.9592299351092
 20
-854.0891566733534
 30
0.0
 11
228.9592299351098
 21
-872.0891566733541
 31
0.0
  0
LINE
  5
164
330
1F
100
AcDbEntity
  8
0-1
  6
Continuous
 62
    92
370
    13
100
AcDbLine
 10
237.0142299351104
 20
-880.6391566733531
 30
0.0
 11
251.4592299351098
 21
-894.5891566733541
 31
0.0
  0
LINE
  5
165
330
1F
100
AcDbEntity
  8
0-1
  6
Continuous
 62
    92
370
    13
100
AcDbLine
 10
251.4592299351098
 20
-1694.088940428624
 30
0.0
 11
251.4592299351098
 21
-894.5891566733541
 31
0.0
  0
LINE
  5
166
330
1F
100
AcDbEntity
  8
0-1
  6
Continuous
 62
    92
370
    13
100
AcDbLine
 10
228.9592299351098
 20
-1716.588940428624
 30
0.0
 11
228.9592299351098
 21
-872.0891566733541
 31
0.0
  0
LINE
  5
167
330
1F
100
AcDbEntity
  8
0-1
  6
Continuous
 62
    92
370
    13
100
AcDbLine
 10
210.9592299351092
 20
-1860.588940428624
 30
0.0
 11
210.9592299351092
 21
-728.0891566733528
 31
0.0
  0
LINE
  5
168
330
1F
100
AcDbEntity
  8
0-1
  6
Continuous
 62
    92
370
    13
100
AcDbLine
 10
590.4592299351085
 20
-894.5891566733541
 30
0.0
 11
604.9042299351097
 21
-880.6391566733531
 31
0.0
  0
LINE
  5
169
330
1F
100
AcDbEntity
  8
0-1
  6
Continuous
 62
    92
370
    13
100
AcDbLine
 10
590.4592299351085
 20
-1694.088940428624
 30
0.0
 11
590.4592299351085
 21
-894.5891566733541
 31
0.0
  0
LINE
  5
16A
330
1F
100
AcDbEntity
  8
0-1
  6
Continuous
 62
    92
370
    13
100
AcDbLine
 10
630.9592299351092
 20
-1860.588940428624
 30
0.0
 11
630.9592299351092
 21
-728.0891566733528
 31
0.0
  0
LINE
  5
16B
330
1F
100
AcDbEntity
  8
0-1
  6
Continuous
 62
    92
370
    13
100
AcDbLine
 10
590.4592299351085
 20
-894.5891566733541
 30
0.0
 11
251.4592299351098
 21
-894.5891566733541
 31
0.0
  0
LINE
  5
16C
330
1F
100
AcDbEntity
  8
0-1
  6
Continuous
 62
    92
370
    13
100
AcDbLine
 10
630.9592299351092
 20
-854.0891566733534
 30
0.0
 11
210.9592299351092
 21
-854.0891566733534
 31
0.0
  0
LINE
  5
16D
330
1F
100
AcDbEntity
  8
0-1
  6
Continuous
 62
    92
370
    13
100
AcDbLine
 10
612.9592299351085
 20
-872.0891566733541
 30
0.0
 11
630.9592299351092
 21
-854.0891566733534
 31
0.0
  0
LINE
  5
16E
330
1F
100
AcDbEntity
  8
0-1
  6
Continuous
 62
    92
370
    13
100
AcDbLine
 10
612.9592299351085
 20
-872.0891566733541
 30
0.0
 11
228.9592299351098
 21
-872.0891566733541
 31
0.0
  0
LINE
  5
16F
330
1F
100
AcDbEntity
  8
0-1
  6
Continuous
 62
    92
370
    13
100
AcDbLine
 10
612.9592299351085
 20
-1716.588940428624
 30
0.0
 11
612.9592299351085
 21
-872.0891566733541
 31
0.0
  0
LINE
  5
170
330
1F
100
AcDbEntity
  8
0-1
  6
JWW_CENTER1
 62
     7
370
     9
100
AcDbLine
 10
716.4592299351099
 20
-1294.339048550989
 30
0.0
 11
125.4592299351085
 21
-1860.588940428624
 31
0.0
  0
LINE
  5
171
330
1F
100
AcDbEntity
  8
0-1
  6
JWW_CENTER1
 62
     7
370
     9
100
AcDbLine
 10
125.4592299351085
 20
-728.0891566733528
 30
0.0
 11
716.4592299351099
 21
-1294.339048550989
 31
0.0
  0
LINE
  5
172
330
1F
100
AcDbEntity
  8
0-1
  6
Continuous
 62
    92
370
    13
100
AcDbLine
 10
716.4592299351082
 20
539.4110595713794
 30
0.0
 11
716.4592299351082
 21
1383.911059571379
 31
0.0
  0
LINE
  5
173
330
1F
100
AcDbEntity
  8
0-1
  6
Continuous
 62
    92
370
    13
100
AcDbLine
 10
125.4592299351068
 20
1383.911059571379
 30
0.0
 11
716.4592299351082
 21
1383.911059571379
 31
0.0
  0
LINE
  5
174
330
1F
100
AcDbEntity
  8
0-1
  6
Continuous
 62
    92
370
    13
100
AcDbLine
 10
125.4592299351068
 20
539.4110595713794
 30
0.0
 11
716.4592299351082
 21
539.4110595713794
 31
0.0
  0
LINE
  5
175
330
1F
100
AcDbEntity
  8
0-1
  6
Continuous
 62
    92
370
    13
100
AcDbLine
 10
125.4592299351068
 20
1383.911059571379
 30
0.0
 11
125.4592299351068
 21
539.4110595713794
 31
0.0
  0
LINE
  5
176
330
1F
100
AcDbEntity
  8
0-1
  6
JWW_CENTER1
 62
     7
370
     9
100
AcDbLine
 10
125.4592299351068
 20
1383.91105957138
 30
0.0
 11
716.4592299351082
 21
961.6610595713805
 31
0.0
  0
LINE
  5
177
330
1F
100
AcDbEntity
  8
0-1
  6
JWW_CENTER1
 62
     7
370
     9
100
AcDbLine
 10
716.4592299351082
 20
961.6610595713805
 30
0.0
 11
125.4592299351068
 21
539.4110595713751
 31
0.0
  0
LINE
  5
178
330
1F
100
AcDbEntity
  8
0-1
  6
Continuous
 62
    92
370
    13
100
AcDbLine
 10
630.9592299351092
 20
1257.911059571379
 30
0.0
 11
612.9592299351085
 21
1239.911059571379
 31
0.0
  0
LINE
  5
179
330
1F
100
AcDbEntity
  8
0-1
  6
Continuous
 62
    92
370
    13
100
AcDbLine
 10
604.904229935108
 20
1231.36105957138
 30
0.0
 11
590.4592299351085
 21
1217.411059571379
 31
0.0
  0
LINE
  5
17A
330
1F
100
AcDbEntity
  8
0-1
  6
Continuous
 62
    92
370
    13
100
AcDbLine
 10
251.4592299351098
 20
1217.411059571379
 30
0.0
 11
237.0142299351087
 21
1231.36105957138
 31
0.0
  0
LINE
  5
17B
330
1F
100
AcDbEntity
  8
0-1
  6
Continuous
 62
    92
370
    13
100
AcDbLine
 10
251.4592299351098
 20
1217.411059571379
 30
0.0
 11
590.4592299351085
 21
1217.411059571379
 31
0.0
  0
LINE
  5
17C
330
1F
100
AcDbEntity
  8
0-1
  6
Continuous
 62
    92
370
    13
100
AcDbLine
 10
210.9592299351092
 20
1257.911059571379
 30
0.0
 11
630.9592299351092
 21
1257.911059571379
 31
0.0
  0
LINE
  5
17D
330
1F
100
AcDbEntity
  8
0-1
  6
Continuous
 62
    92
370
    13
100
AcDbLine
 10
228.9592299351098
 20
1239.911059571379
 30
0.0
 11
210.9592299351092
 21
1257.911059571379
 31
0.0
  0
LINE
  5
17E
330
1F
100
AcDbEntity
  8
0-1
  6
Continuous
 62
    92
370
    13
100
AcDbLine
 10
228.9592299351098
 20
1239.911059571379
 30
0.0
 11
612.9592299351085
 21
1239.911059571379
 31
0.0
  0
LINE
  5
17F
330
1F
100
AcDbEntity
  8
0-1
  6
Continuous
 62
    92
370
    13
100
AcDbLine
 10
612.9592299351085
 20
683.4110595713737
 30
0.0
 11
630.9592299351092
 21
665.411059571376
 31
0.0
  0
LINE
  5
180
330
1F
100
AcDbEntity
  8
0-1
  6
Continuous
 62
    92
370
    13
100
AcDbLine
 10
604.904229935108
 20
691.4660595713751
 30
0.0
 11
590.4592299351085
 21
705.9110595713767
 31
0.0
  0
LINE
  5
181
330
1F
100
AcDbEntity
  8
0-1
  6
Continuous
 62
    92
370
    13
100
AcDbLine
 10
228.9592299351081
 20
683.4110595713737
 30
0.0
 11
210.9592299351092
 21
665.411059571376
 31
0.0
  0
LINE
  5
182
330
1F
100
AcDbEntity
  8
0-1
  6
Continuous
 62
    92
370
    13
100
AcDbLine
 10
251.4592299351098
 20
705.9110595713767
 30
0.0
 11
237.0142299351087
 21
691.4660595713751
 31
0.0
  0
LINE
  5
183
330
1F
100
AcDbEntity
  8
0-1
  6
Continuous
 62
    92
370
    13
100
AcDbLine
 10
210.9592299351092
 20
665.411059571376
 30
0.0
 11
630.9592299351092
 21
665.411059571376
 31
0.0
  0
LINE
  5
184
330
1F
100
AcDbEntity
  8
0-1
  6
Continuous
 62
    92
370
    13
100
AcDbLine
 10
228.9592299351098
 20
683.4110595713767
 30
0.0
 11
612.9592299351085
 21
683.4110595713767
 31
0.0
  0
LINE
  5
185
330
1F
100
AcDbEntity
  8
0-1
  6
Continuous
 62
    92
370
    13
100
AcDbLine
 10
251.4592299351098
 20
705.9110595713767
 30
0.0
 11
590.4592299351085
 21
705.9110595713767
 31
0.0
  0
LINE
  5
186
330
1F
100
AcDbEntity
  8
0-1
  6
Continuous
 62
    92
370
    13
100
AcDbLine
 10
590.4592299351085
 20
705.9110595713767
 30
0.0
 11
590.4592299351085
 21
1217.411059571379
 31
0.0
  0
LINE
  5
187
330
1F
100
AcDbEntity
  8
0-1
  6
Continuous
 62
    92
370
    13
100
AcDbLine
 10
612.9592299351085
 20
683.4110595713767
 30
0.0
 11
612.9592299351085
 21
1239.911059571379
 31
0.0
  0
LINE
  5
188
330
1F
100
AcDbEntity
  8
0-1
  6
Continuous
 62
    92
370
    13
100
AcDbLine
 10
630.9592299351092
 20
539.4110595713751
 30
0.0
 11
630.9592299351092
 21
1383.91105957138
 31
0.0
  0
LINE
  5
189
330
1F
100
AcDbEntity
  8
0-1
  6
Continuous
 62
    92
370
    13
100
AcDbLine
 10
251.4592299351098
 20
705.9110595713767
 30
0.0
 11
251.4592299351098
 21
1217.411059571379
 31
0.0
  0
LINE
  5
18A
330
1F
100
AcDbEntity
  8
0-1
  6
Continuous
 62
    92
370
    13
100
AcDbLine
 10
210.9592299351092
 20
539.4110595713751
 30
0.0
 11
210.9592299351092
 21
1383.91105957138
 31
0.0
  0
LINE
  5
18B
330
1F
100
AcDbEntity
  8
0-1
  6
Continuous
 62
    92
370
    13
100
AcDbLine
 10
228.9592299351098
 20
683.4110595713767
 30
0.0
 11
228.9592299351098
 21
1239.911059571379
 31
0.0
  0
TEXT
  5
18C
330
1F
100
AcDbEntity
  8
0-1
  6
Continuous
 62
     7
370
   211
100
AcDbText
 10
218.4592299351075
 20
-470.8991566733548
 30
0.0
 40
68.58
  1
ＤＷ＝394
 41
1.0
  7
ＭＳ ゴシック
100
AcDbText
  0
LINE
  5
18D
330
1F
100
AcDbEntity
  8
0-1
  6
Continuous
 62
   120
370
     5
100
AcDbLine
 10
125.4592299351102
 20
-498.5891566733548
 30
0.0
 11
125.4592299351102
 21
-648.5891566733549
 31
0.0
  0
LWPOLYLINE
  5
18E
330
1F
100
AcDbEntity
  8
0-1
  6
Continuous
 62
     7
370
     9
100
AcDbPolyline
 90
        4
 70
     1
 43
6.0
 10
128.4592299351102
 20
-498.5891566733548
 42
0.4142135623731
 10
125.4592299351102
 20
-495.5891566733548
 42
0.4142135623731
 10
122.4592299351102
 20
-498.5891566733548
 42
0.4142135623731
 10
125.4592299351102
 20
-501.5891566733549
 42
0.4142135623731
  0
LINE
  5
18F
330
1F
100
AcDbEntity
  8
0-1
  6
Continuous
 62
   120
370
     5
100
AcDbLine
 10
716.4592299351082
 20
-498.5891566733548
 30
0.0
 11
125.4592299351102
 21
-498.5891566733548
 31
0.0
  0
LINE
  5
190
330
1F
100
AcDbEntity
  8
0-1
  6
Continuous
 62
   120
370
     5
100
AcDbLine
 10
716.4592299351082
 20
-498.5891566733548
 30
0.0
 11
716.4592299351082
 21
-648.5891566733549
 31
0.0
  0
LWPOLYLINE
  5
191
330
1F
100
AcDbEntity
  8
0-1
  6
Continuous
 62
     7
370
     9
100
AcDbPolyline
 90
        4
 70
     1
 43
6.0
 10
719.4592299351083
 20
-498.5891566733548
 42
0.4142135623731
 10
716.4592299351082
 20
-495.5891566733548
 42
0.4142135623731
 10
713.4592299351082
 20
-498.5891566733548
 42
0.4142135623731
 10
716.4592299351082
 20
-501.5891566733549
 42
0.4142135623731
  0
TEXT
  5
192
330
1F
100
AcDbEntity
  8
0-1
  6
Continuous
 62
     7
370
   211
100
AcDbText
 10
218.4592299351075
 20
1641.101059571379
 30
0.0
 40
68.58
  1
ＤＷ＝394
 41
1.0
  7
ＭＳ ゴシック
100
AcDbText
  0
LINE
  5
193
330
1F
100
AcDbEntity
  8
0-1
  6
Continuous
 62
   120
370
     5
100
AcDbLine
 10
716.4592299351082
 20
1613.411059571379
 30
0.0
 11
716.4592299351082
 21
1463.411059571379
 31
0.0
  0
LWPOLYLINE
  5
194
330
1F
100
AcDbEntity
  8
0-1
  6
Continuous
 62
     7
370
     9
100
AcDbPolyline
 90
        4
 70
     1
 43
6.0
 10
719.4592299351083
 20
1613.411059571379
 42
0.4142135623731
 10
716.4592299351082
 20
1616.411059571379
 42
0.4142135623731
 10
713.4592299351082
 20
1613.411059571379
 42
0.4142135623731
 10
716.4592299351082
 20
1610.411059571379
 42
0.4142135623731
  0
LINE
  5
195
330
1F
100
AcDbEntity
  8
0-1
  6
Continuous
 62
   120
370
     5
100
AcDbLine
 10
125.4592299351068
 20
1613.411059571379
 30
0.0
 11
716.4592299351082
 21
1613.411059571379
 31
0.0
  0
LINE
  5
196
330
1F
100
AcDbEntity
  8
0-1
  6
Continuous
 62
   120
370
     5
100
AcDbLine
 10
125.4592299351068
 20
1613.411059571379
 30
0.0
 11
125.4592299351068
 21
1463.411059571379
 31
0.0
  0
LWPOLYLINE
  5
197
330
1F
100
AcDbEntity
  8
0-1
  6
Continuous
 62
     7
370
     9
100
AcDbPolyline
 90
        4
 70
     1
 43
6.0
 10
128.4592299351067
 20
1613.411059571379
 42
0.4142135623731
 10
125.4592299351068
 20
1616.411059571379
 42
0.4142135623731
 10
122.4592299351068
 20
1613.411059571379
 42
0.4142135623731
 10
125.4592299351068
 20
1610.411059571379
 42
0.4142135623731
  0
ARC
  5
198
330
1F
100
AcDbEntity
  8
0-1
  6
Continuous
 62
    92
370
    13
100
AcDbCircle
 10
192.2092299351092
 20
-764.0891863661328
 30
0.0
 40
1.5
100
AcDbArc
 50
0.0
 51
90.0
  0
LINE
  5
199
330
1F
100
AcDbEntity
  8
0-1
  6
Continuous
 62
    92
370
    13
100
AcDbLine
 10
180.2092299351133
 20
-762.5891863661325
 30
0.0
 11
192.2092299351092
 21
-762.5891863661325
 31
0.0
  0
ARC
  5
19A
330
1F
100
AcDbEntity
  8
0-1
  6
Continuous
 62
    92
370
    13
100
AcDbCircle
 10
180.2092299351133
 20
-764.0891863661328
 30
0.0
 40
1.5
100
AcDbArc
 50
89.99999999999999
 51
180.0
  0
LINE
  5
19B
330
1F
100
AcDbEntity
  8
0-1
  6
Continuous
 62
    92
370
    13
100
AcDbLine
 10
178.7092299351095
 20
-958.3392160589112
 30
0.0
 11
178.7092299351095
 21
-764.0891863661328
 31
0.0
  0
LINE
  5
19C
330
1F
100
AcDbEntity
  8
0-1
  6
Continuous
 62
    92
370
    13
100
AcDbLine
 10
193.7092299351095
 20
-958.3392160589112
 30
0.0
 11
193.7092299351095
 21
-764.0891863661328
 31
0.0
  0
ARC
  5
19D
330
1F
100
AcDbEntity
  8
0-1
  6
Continuous
 62
     7
370
     9
100
AcDbCircle
 10
193.7092299351095
 20
-767.0891863661335
 30
0.0
 40
1.5
100
AcDbArc
 50
0.0
 51
90.0
  0
ARC
  5
19E
330
1F
100
AcDbEntity
  8
0-1
  6
Continuous
 62
     7
370
     9
100
AcDbCircle
 10
178.7092299351095
 20
-767.0891863661335
 30
0.0
 40
1.5
100
AcDbArc
 50
89.99999999999999
 51
180.0
  0
LINE
  5
19F
330
1F
100
AcDbEntity
  8
0-1
  6
Continuous
 62
     7
370
     9
100
AcDbLine
 10
177.2092299351092
 20
-794.0891863661328
 30
0.0
 11
177.2092299351092
 21
-767.0891863661335
 31
0.0
  0
ARC
  5
1A0
330
1F
100
AcDbEntity
  8
0-1
  6
Continuous
 62
     7
370
     9
100
AcDbCircle
 10
178.7092299351095
 20
-794.0891863661328
 30
0.0
 40
1.5
100
AcDbArc
 50
180.0
 51
270.0
  0
LINE
  5
1A1
330
1F
100
AcDbEntity
  8
0-1
  6
Continuous
 62
     7
370
     9
100
AcDbLine
 10
195.2092299351081
 20
-794.0891863661328
 30
0.0
 11
195.2092299351081
 21
-767.0891863661335
 31
0.0
  0
ARC
  5
1A2
330
1F
100
AcDbEntity
  8
0-1
  6
Continuous
 62
     7
370
     9
100
AcDbCircle
 10
193.7092299351095
 20
-794.0891863661328
 30
0.0
 40
1.5
100
AcDbArc
 50
270.0
 51
0.0
  0
ARC
  5
1A3
330
1F
100
AcDbEntity
  8
0-1
  6
Continuous
 62
     7
370
     9
100
AcDbCircle
 10
193.7092299351095
 20
-932.0891863661326
 30
0.0
 40
1.5
100
AcDbArc
 50
0.0
 51
90.0
  0
ARC
  5
1A4
330
1F
100
AcDbEntity
  8
0-1
  6
Continuous
 62
     7
370
     9
100
AcDbCircle
 10
178.7092299351095
 20
-932.0891863661326
 30
0.0
 40
1.5
100
AcDbArc
 50
89.99999999999999
 51
180.0
  0
LINE
  5
1A5
330
1F
100
AcDbEntity
  8
0-1
  6
Continuous
 62
     7
370
     9
100
AcDbLine
 10
177.2092299351092
 20
-955.3392160589106
 30
0.0
 11
177.2092299351092
 21
-932.0891863661326
 31
0.0
  0
LINE
  5
1A6
330
1F
100
AcDbEntity
  8
0-1
  6
Continuous
 62
     7
370
     9
100
AcDbLine
 10
195.2092299351081
 20
-955.3392160589106
 30
0.0
 11
195.2092299351081
 21
-932.0891863661326
 31
0.0
  0
ARC
  5
1A7
330
1F
100
AcDbEntity
  8
0-1
  6
Continuous
 62
    92
370
    13
100
AcDbCircle
 10
180.2092299351133
 20
-958.3392160589112
 30
0.0
 40
1.5
100
AcDbArc
 50
180.0
 51
270.0
  0
LINE
  5
1A8
330
1F
100
AcDbEntity
  8
0-1
  6
Continuous
 62
    92
370
    13
100
AcDbLine
 10
192.2092299351092
 20
-959.8392160589116
 30
0.0
 11
180.2092299351133
 21
-959.8392160589116
 31
0.0
  0
ARC
  5
1A9
330
1F
100
AcDbEntity
  8
0-1
  6
Continuous
 62
    92
370
    13
100
AcDbCircle
 10
192.2092299351092
 20
-958.3392160589112
 30
0.0
 40
1.5
100
AcDbArc
 50
270.0
 51
0.0
  0
ARC
  5
1AA
330
1F
100
AcDbEntity
  8
0-1
  6
Continuous
 62
     7
370
     9
100
AcDbCircle
 10
178.7092299351095
 20
-955.3392160589106
 30
0.0
 40
1.5
100
AcDbArc
 50
180.0
 51
270.0
  0
ARC
  5
1AB
330
1F
100
AcDbEntity
  8
0-1
  6
Continuous
 62
     7
370
     9
100
AcDbCircle
 10
193.7092299351095
 20
-955.3392160589106
 30
0.0
 40
1.5
100
AcDbArc
 50
270.0
 51
0.0
  0
ARC
  5
1AC
330
1F
100
AcDbEntity
  8
0-1
  6
Continuous
 62
     7
370
     9
100
AcDbCircle
 10
178.7092299351061
 20
578.4110595740306
 30
0.0
 40
1.5
100
AcDbArc
 50
180.0
 51
270.0
  0
LINE
  5
1AD
330
1F
100
AcDbEntity
  8
0-1
  6
Continuous
 62
     7
370
     9
100
AcDbLine
 10
177.2092299351075
 20
578.4110595740306
 30
0.0
 11
177.2092299351075
 21
605.4110595740308
 31
0.0
  0
ARC
  5
1AE
330
1F
100
AcDbEntity
  8
0-1
  6
Continuous
 62
     7
370
     9
100
AcDbCircle
 10
193.7092299351061
 20
578.4110595740306
 30
0.0
 40
1.5
100
AcDbArc
 50
270.0
 51
0.0
  0
LINE
  5
1AF
330
1F
100
AcDbEntity
  8
0-1
  6
Continuous
 62
     7
370
     9
100
AcDbLine
 10
195.2092299351081
 20
578.4110595740306
 30
0.0
 11
195.2092299351081
 21
605.4110595740308
 31
0.0
  0
ARC
  5
1B0
330
1F
100
AcDbEntity
  8
0-1
  6
Continuous
 62
     7
370
     9
100
AcDbCircle
 10
193.7092299351061
 20
605.4110595740308
 30
0.0
 40
1.5
100
AcDbArc
 50
0.0
 51
90.00000000000001
  0
ARC
  5
1B1
330
1F
100
AcDbEntity
  8
0-1
  6
Continuous
 62
     7
370
     9
100
AcDbCircle
 10
178.7092299351061
 20
605.4110595740308
 30
0.0
 40
1.5
100
AcDbArc
 50
90.0
 51
180.0
  0
ARC
  5
1B2
330
1F
100
AcDbEntity
  8
0-1
  6
Continuous
 62
     7
370
     9
100
AcDbCircle
 10
178.7092299351061
 20
743.4110595740301
 30
0.0
 40
1.5
100
AcDbArc
 50
180.0
 51
270.0
  0
LINE
  5
1B3
330
1F
100
AcDbEntity
  8
0-1
  6
Continuous
 62
     7
370
     9
100
AcDbLine
 10
177.2092299351075
 20
743.4110595740301
 30
0.0
 11
177.2092299351075
 21
770.4110595740299
 31
0.0
  0
ARC
  5
1B4
330
1F
100
AcDbEntity
  8
0-1
  6
Continuous
 62
     7
370
     9
100
AcDbCircle
 10
193.7092299351061
 20
743.4110595740301
 30
0.0
 40
1.5
100
AcDbArc
 50
270.0
 51
0.0
  0
LINE
  5
1B5
330
1F
100
AcDbEntity
  8
0-1
  6
Continuous
 62
     7
370
     9
100
AcDbLine
 10
195.2092299351081
 20
743.4110595740301
 30
0.0
 11
195.2092299351081
 21
770.4110595740299
 31
0.0
  0
ARC
  5
1B6
330
1F
100
AcDbEntity
  8
0-1
  6
Continuous
 62
     7
370
     9
100
AcDbCircle
 10
193.7092299351061
 20
770.4110595740299
 30
0.0
 40
1.5
100
AcDbArc
 50
0.0
 51
90.00000000000001
  0
ARC
  5
1B7
330
1F
100
AcDbEntity
  8
0-1
  6
Continuous
 62
     7
370
     9
100
AcDbCircle
 10
178.7092299351061
 20
770.4110595740299
 30
0.0
 40
1.5
100
AcDbArc
 50
90.0
 51
180.0
  0
ARC
  5
1B8
330
1F
100
AcDbEntity
  8
0-1
  6
Continuous
 62
    92
370
    13
100
AcDbCircle
 10
180.2092299351081
 20
575.4110595740299
 30
0.0
 40
1.5
100
AcDbArc
 50
180.0
 51
270.0
  0
LINE
  5
1B9
330
1F
100
AcDbEntity
  8
0-1
  6
Continuous
 62
    92
370
    13
100
AcDbLine
 10
178.7092299351061
 20
575.4110595740299
 30
0.0
 11
178.7092299351061
 21
773.4110595740306
 31
0.0
  0
LINE
  5
1BA
330
1F
100
AcDbEntity
  8
0-1
  6
Continuous
 62
    92
370
    13
100
AcDbLine
 10
180.2092299351081
 20
573.9110595740304
 30
0.0
 11
192.2092299351075
 21
573.9110595740304
 31
0.0
  0
ARC
  5
1BB
330
1F
100
AcDbEntity
  8
0-1
  6
Continuous
 62
    92
370
    13
100
AcDbCircle
 10
192.2092299351075
 20
575.4110595740299
 30
0.0
 40
1.5
100
AcDbArc
 50
270.0
 51
0.0
  0
LINE
  5
1BC
330
1F
100
AcDbEntity
  8
0-1
  6
Continuous
 62
    92
370
    13
100
AcDbLine
 10
193.7092299351061
 20
575.4110595740299
 30
0.0
 11
193.7092299351061
 21
773.4110595740306
 31
0.0
  0
ARC
  5
1BD
330
1F
100
AcDbEntity
  8
0-1
  6
Continuous
 62
    92
370
    13
100
AcDbCircle
 10
192.2092299351075
 20
773.4110595740306
 30
0.0
 40
1.5
100
AcDbArc
 50
0.0
 51
90.00000000000001
  0
LINE
  5
1BE
330
1F
100
AcDbEntity
  8
0-1
  6
Continuous
 62
    92
370
    13
100
AcDbLine
 10
192.2092299351075
 20
774.9110595740306
 30
0.0
 11
180.2092299351081
 21
774.9110595740306
 31
0.0
  0
ARC
  5
1BF
330
1F
100
AcDbEntity
  8
0-1
  6
Continuous
 62
    92
370
    13
100
AcDbCircle
 10
180.2092299351081
 20
773.4110595740306
 30
0.0
 40
1.5
100
AcDbArc
 50
90.0
 51
180.0
  0
LINE
  5
1C0
330
1F
100
AcDbEntity
  8
0-1
  6
Continuous
 62
    92
370
    13
100
AcDbLine
 10
1016.459229935108
 20
1383.911059571383
 30
0.0
 11
1607.45922993511
 21
1383.911059571383
 31
0.0
  0
LINE
  5
1C1
330
1F
100
AcDbEntity
  8
0-1
  6
Continuous
 62
    92
370
    13
100
AcDbLine
 10
1016.459229935108
 20
-1860.58894042862
 30
0.0
 11
1607.45922993511
 21
-1860.58894042862
 31
0.0
  0
LINE
  5
1C2
330
1F
100
AcDbEntity
  8
0-1
  6
Continuous
 62
    92
370
    13
100
AcDbLine
 10
1607.45922993511
 20
1383.911059571383
 30
0.0
 11
1607.45922993511
 21
-1860.58894042862
 31
0.0
  0
LINE
  5
1C3
330
1F
100
AcDbEntity
  8
0-1
  6
Continuous
 62
    92
370
    13
100
AcDbLine
 10
1016.459229935108
 20
1383.911059571383
 30
0.0
 11
1016.459229935108
 21
-1860.58894042862
 31
0.0
  0
LINE
  5
1C4
330
1F
100
AcDbEntity
  8
0-1
  6
Continuous
 62
    92
370
    13
100
AcDbLine
 10
1503.95922965587
 20
-1716.588940428622
 30
0.0
 11
1503.95922965587
 21
1239.911059571379
 31
0.0
  0
LINE
  5
1C5
330
1F
100
AcDbEntity
  8
0-1
  6
Continuous
 62
    92
370
    13
100
AcDbLine
 10
1503.95922965587
 20
1239.911059571379
 30
0.0
 11
1119.959229655871
 21
1239.911059571379
 31
0.0
  0
LINE
  5
1C6
330
1F
100
AcDbEntity
  8
0-1
  6
Continuous
 62
    92
370
    13
100
AcDbLine
 10
1503.95922965587
 20
1239.911059571379
 30
0.0
 11
1521.959229655871
 21
1257.911059571379
 31
0.0
  0
LINE
  5
1C7
330
1F
100
AcDbEntity
  8
0-1
  6
Continuous
 62
    92
370
    13
100
AcDbLine
 10
1521.959229655871
 20
1257.911059571379
 30
0.0
 11
1101.959229655871
 21
1257.911059571379
 31
0.0
  0
LINE
  5
1C8
330
1F
100
AcDbEntity
  8
0-1
  6
Continuous
 62
    92
370
    13
100
AcDbLine
 10
1481.45922965587
 20
-1694.088940428622
 30
0.0
 11
1142.459229655871
 21
-1694.088940428622
 31
0.0
  0
LINE
  5
1C9
330
1F
100
AcDbEntity
  8
0-1
  6
Continuous
 62
    92
370
    13
100
AcDbLine
 10
1503.95922965587
 20
-1716.588940428622
 30
0.0
 11
1119.959229655871
 21
-1716.588940428622
 31
0.0
  0
LINE
  5
1CA
330
1F
100
AcDbEntity
  8
0-1
  6
Continuous
 62
    92
370
    13
100
AcDbLine
 10
1521.959229655871
 20
-1734.588940428624
 30
0.0
 11
1101.959229655871
 21
-1734.588940428624
 31
0.0
  0
LINE
  5
1CB
330
1F
100
AcDbEntity
  8
0-1
  6
Continuous
 62
    92
370
    13
100
AcDbLine
 10
1481.45922965587
 20
1217.411059571379
 30
0.0
 11
1142.459229655871
 21
1217.411059571379
 31
0.0
  0
LINE
  5
1CC
330
1F
100
AcDbEntity
  8
0-1
  6
Continuous
 62
    92
370
    13
100
AcDbLine
 10
1521.959229655871
 20
-1860.588940428622
 30
0.0
 11
1521.959229655871
 21
1383.911059571379
 31
0.0
  0
LINE
  5
1CD
330
1F
100
AcDbEntity
  8
0-1
  6
Continuous
 62
    92
370
    13
100
AcDbLine
 10
1481.45922965587
 20
-1694.088940428622
 30
0.0
 11
1481.45922965587
 21
1217.411059571379
 31
0.0
  0
LINE
  5
1CE
330
1F
100
AcDbEntity
  8
0-1
  6
Continuous
 62
    92
370
    13
100
AcDbLine
 10
1481.45922965587
 20
1217.411059571379
 30
0.0
 11
1495.904229655871
 21
1231.36105957138
 31
0.0
  0
LINE
  5
1CF
330
1F
100
AcDbEntity
  8
0-1
  6
Continuous
 62
    92
370
    13
100
AcDbLine
 10
1481.45922965587
 20
-1694.088940428622
 30
0.0
 11
1495.904229655871
 21
-1708.533940428623
 31
0.0
  0
LINE
  5
1D0
330
1F
100
AcDbEntity
  8
0-1
  6
Continuous
 62
    92
370
    13
100
AcDbLine
 10
1503.959229655872
 20
-1716.588940428624
 30
0.0
 11
1521.959229655871
 21
-1734.588940428624
 31
0.0
  0
LINE
  5
1D1
330
1F
100
AcDbEntity
  8
0-1
  6
Continuous
 62
    92
370
    13
100
AcDbLine
 10
1101.959229655871
 20
-1860.588940428622
 30
0.0
 11
1101.959229655871
 21
1383.911059571379
 31
0.0
  0
LINE
  5
1D2
330
1F
100
AcDbEntity
  8
0-1
  6
Continuous
 62
    92
370
    13
100
AcDbLine
 10
1119.959229655871
 20
-1716.588940428622
 30
0.0
 11
1119.959229655871
 21
1239.911059571379
 31
0.0
  0
LINE
  5
1D3
330
1F
100
AcDbEntity
  8
0-1
  6
Continuous
 62
    92
370
    13
100
AcDbLine
 10
1142.459229655871
 20
-1694.088940428622
 30
0.0
 11
1142.459229655871
 21
1217.411059571379
 31
0.0
  0
LINE
  5
1D4
330
1F
100
AcDbEntity
  8
0-1
  6
Continuous
 62
    92
370
    13
100
AcDbLine
 10
1128.014229655872
 20
1231.36105957138
 30
0.0
 11
1142.459229655871
 21
1217.411059571379
 31
0.0
  0
LINE
  5
1D5
330
1F
100
AcDbEntity
  8
0-1
  6
Continuous
 62
    92
370
    13
100
AcDbLine
 10
1101.959229655871
 20
1257.911059571379
 30
0.0
 11
1119.959229655871
 21
1239.911059571379
 31
0.0
  0
LINE
  5
1D6
330
1F
100
AcDbEntity
  8
0-1
  6
Continuous
 62
    92
370
    13
100
AcDbLine
 10
1128.014229655872
 20
-1708.533940428623
 30
0.0
 11
1142.459229655871
 21
-1694.088940428622
 31
0.0
  0
LINE
  5
1D7
330
1F
100
AcDbEntity
  8
0-1
  6
Continuous
 62
    92
370
    13
100
AcDbLine
 10
1119.959229655871
 20
-1716.588940428624
 30
0.0
 11
1101.959229655871
 21
-1734.588940428624
 31
0.0
  0
LWPOLYLINE
  5
1D8
330
1F
100
AcDbEntity
  8
0-1
  6
Continuous
 62
     7
370
     9
100
AcDbPolyline
 90
        4
 70
     1
 43
6.0
 10
1019.459229935108
 20
1613.411059571381
 42
0.4142135623731
 10
1016.459229935108
 20
1616.411059571381
 42
0.4142135623731
 10
1013.459229935108
 20
1613.411059571381
 42
0.4142135623731
 10
1016.459229935108
 20
1610.411059571381
 42
0.4142135623731
  0
LINE
  5
1D9
330
1F
100
AcDbEntity
  8
0-1
  6
Continuous
 62
   120
370
     5
100
AcDbLine
 10
1016.459229935108
 20
1613.411059571381
 30
0.0
 11
1016.459229935108
 21
1463.411059571381
 31
0.0
  0
LINE
  5
1DA
330
1F
100
AcDbEntity
  8
0-1
  6
Continuous
 62
   120
370
     5
100
AcDbLine
 10
1016.459229935108
 20
1613.411059571381
 30
0.0
 11
1607.45922993511
 21
1613.411059571381
 31
0.0
  0
LWPOLYLINE
  5
1DB
330
1F
100
AcDbEntity
  8
0-1
  6
Continuous
 62
     7
370
     9
100
AcDbPolyline
 90
        4
 70
     1
 43
6.0
 10
1610.45922993511
 20
1613.411059571381
 42
0.4142135623731
 10
1607.45922993511
 20
1616.411059571381
 42
0.4142135623731
 10
1604.459229935109
 20
1613.411059571381
 42
0.4142135623731
 10
1607.45922993511
 20
1610.411059571381
 42
0.4142135623731
  0
LINE
  5
1DC
330
1F
100
AcDbEntity
  8
0-1
  6
Continuous
 62
   120
370
     5
100
AcDbLine
 10
1607.45922993511
 20
1613.411059571381
 30
0.0
 11
1607.45922993511
 21
1463.411059571381
 31
0.0
  0
TEXT
  5
1DD
330
1F
100
AcDbEntity
  8
0-1
  6
Continuous
 62
     7
370
   211
100
AcDbText
 10
1109.459229935109
 20
1641.101059571381
 30
0.0
 40
68.58
  1
ＤＷ＝394
  7
ＭＳ ゴシック
100
AcDbText
  0
ARC
  5
1DE
330
1F
100
AcDbEntity
  8
0-1
  6
Continuous
 62
    92
370
    13
100
AcDbCircle
 10
1540.709229935112
 20
-347.0889404286189
 30
0.0
 40
1.5
100
AcDbArc
 50
90.0
 51
180.0
  0
LINE
  5
1DF
330
1F
100
AcDbEntity
  8
0-1
  6
Continuous
 62
    92
370
    13
100
AcDbLine
 10
1552.709229935108
 20
-345.5889404286203
 30
0.0
 11
1540.709229935112
 21
-345.5889404286203
 31
0.0
  0
ARC
  5
1E0
330
1F
100
AcDbEntity
  8
0-1
  6
Continuous
 62
    92
370
    13
100
AcDbCircle
 10
1552.709229935108
 20
-347.0889404286189
 30
0.0
 40
1.5
100
AcDbArc
 50
0.0000000000000127
 51
90.00000000000001
  0
LINE
  5
1E1
330
1F
100
AcDbEntity
  8
0-1
  6
Continuous
 62
    92
370
    13
100
AcDbLine
 10
1554.209229935109
 20
-545.0889404286179
 30
0.0
 11
1554.209229935109
 21
-347.0889404286189
 31
0.0
  0
ARC
  5
1E2
330
1F
100
AcDbEntity
  8
0-1
  6
Continuous
 62
    92
370
    13
100
AcDbCircle
 10
1552.709229935108
 20
-545.0889404286179
 30
0.0
 40
1.5
100
AcDbArc
 50
270.0
 51
0.0
  0
LINE
  5
1E3
330
1F
100
AcDbEntity
  8
0-1
  6
Continuous
 62
    92
370
    13
100
AcDbLine
 10
1540.709229935112
 20
-546.588940428619
 30
0.0
 11
1552.709229935108
 21
-546.588940428619
 31
0.0
  0
LINE
  5
1E4
330
1F
100
AcDbEntity
  8
0-1
  6
Continuous
 62
    92
370
    13
100
AcDbLine
 10
1539.20922993511
 20
-545.0889404286179
 30
0.0
 11
1539.20922993511
 21
-347.0889404286189
 31
0.0
  0
ARC
  5
1E5
330
1F
100
AcDbEntity
  8
0-1
  6
Continuous
 62
    92
370
    13
100
AcDbCircle
 10
1540.709229935112
 20
-545.0889404286179
 30
0.0
 40
1.5
100
AcDbArc
 50
180.0
 51
270.0
  0
ARC
  5
1E6
330
1F
100
AcDbEntity
  8
0-1
  6
Continuous
 62
     7
370
     9
100
AcDbCircle
 10
1539.20922993511
 20
-350.0889404286179
 30
0.0
 40
1.5
100
AcDbArc
 50
90.0
 51
180.0
  0
ARC
  5
1E7
330
1F
100
AcDbEntity
  8
0-1
  6
Continuous
 62
     7
370
     9
100
AcDbCircle
 10
1554.209229935109
 20
-350.0889404286179
 30
0.0
 40
1.5
100
AcDbArc
 50
0.0000000000000127
 51
90.00000000000001
  0
LINE
  5
1E8
330
1F
100
AcDbEntity
  8
0-1
  6
Continuous
 62
     7
370
     9
100
AcDbLine
 10
1555.709229935111
 20
-377.0889404286189
 30
0.0
 11
1555.709229935111
 21
-350.0889404286179
 31
0.0
  0
ARC
  5
1E9
330
1F
100
AcDbEntity
  8
0-1
  6
Continuous
 62
     7
370
     9
100
AcDbCircle
 10
1554.209229935109
 20
-377.0889404286189
 30
0.0
 40
1.5
100
AcDbArc
 50
270.0
 51
0.0
  0
LINE
  5
1EA
330
1F
100
AcDbEntity
  8
0-1
  6
Continuous
 62
     7
370
     9
100
AcDbLine
 10
1537.709229935108
 20
-377.0889404286189
 30
0.0
 11
1537.709229935108
 21
-350.0889404286179
 31
0.0
  0
ARC
  5
1EB
330
1F
100
AcDbEntity
  8
0-1
  6
Continuous
 62
     7
370
     9
100
AcDbCircle
 10
1539.20922993511
 20
-377.0889404286189
 30
0.0
 40
1.5
100
AcDbArc
 50
180.0
 51
270.0
  0
ARC
  5
1EC
330
1F
100
AcDbEntity
  8
0-1
  6
Continuous
 62
     7
370
     9
100
AcDbCircle
 10
1539.20922993511
 20
-515.0889404286179
 30
0.0
 40
1.5
100
AcDbArc
 50
90.0
 51
180.0
  0
ARC
  5
1ED
330
1F
100
AcDbEntity
  8
0-1
  6
Continuous
 62
     7
370
     9
100
AcDbCircle
 10
1554.209229935109
 20
-515.0889404286179
 30
0.0
 40
1.5
100
AcDbArc
 50
0.0000000000000127
 51
90.00000000000001
  0
LINE
  5
1EE
330
1F
100
AcDbEntity
  8
0-1
  6
Continuous
 62
     7
370
     9
100
AcDbLine
 10
1555.709229935111
 20
-542.0889404286188
 30
0.0
 11
1555.709229935111
 21
-515.0889404286179
 31
0.0
  0
ARC
  5
1EF
330
1F
100
AcDbEntity
  8
0-1
  6
Continuous
 62
     7
370
     9
100
AcDbCircle
 10
1554.209229935109
 20
-542.0889404286188
 30
0.0
 40
1.5
100
AcDbArc
 50
270.0
 51
0.0
  0
LINE
  5
1F0
330
1F
100
AcDbEntity
  8
0-1
  6
Continuous
 62
     7
370
     9
100
AcDbLine
 10
1537.709229935108
 20
-542.0889404286188
 30
0.0
 11
1537.709229935108
 21
-515.0889404286179
 31
0.0
  0
ARC
  5
1F1
330
1F
100
AcDbEntity
  8
0-1
  6
Continuous
 62
     7
370
     9
100
AcDbCircle
 10
1539.20922993511
 20
-542.0889404286188
 30
0.0
 40
1.5
100
AcDbArc
 50
180.0
 51
270.0
  0
LINE
  5
1F2
330
1F
100
AcDbEntity
  8
0-1
  6
Continuous
 62
    92
370
    13
100
AcDbLine
 10
2348.459229935113
 20
1383.911059571379
 30
0.0
 11
1757.459229935111
 21
1383.911059571379
 31
0.0
  0
LINE
  5
1F3
330
1F
100
AcDbEntity
  8
0-1
  6
Continuous
 62
    92
370
    13
100
AcDbLine
 10
2348.459229935113
 20
-1860.588940428624
 30
0.0
 11
1757.459229935111
 21
-1860.588940428624
 31
0.0
  0
LINE
  5
1F4
330
1F
100
AcDbEntity
  8
0-1
  6
Continuous
 62
    92
370
    13
100
AcDbLine
 10
1757.459229935111
 20
1383.911059571379
 30
0.0
 11
1757.459229935111
 21
-1860.588940428624
 31
0.0
  0
LINE
  5
1F5
330
1F
100
AcDbEntity
  8
0-1
  6
Continuous
 62
    92
370
    13
100
AcDbLine
 10
2348.459229935113
 20
1383.911059571379
 30
0.0
 11
2348.459229935113
 21
-1860.588940428624
 31
0.0
  0
LINE
  5
1F6
330
1F
100
AcDbEntity
  8
0-1
  6
Continuous
 62
    92
370
    13
100
AcDbLine
 10
1860.959230214349
 20
-1716.588940428625
 30
0.0
 11
1860.959230214349
 21
1239.911059571375
 31
0.0
  0
LINE
  5
1F7
330
1F
100
AcDbEntity
  8
0-1
  6
Continuous
 62
    92
370
    13
100
AcDbLine
 10
1860.959230214349
 20
1239.911059571375
 30
0.0
 11
2244.959230214348
 21
1239.911059571375
 31
0.0
  0
LINE
  5
1F8
330
1F
100
AcDbEntity
  8
0-1
  6
Continuous
 62
    92
370
    13
100
AcDbLine
 10
1860.959230214349
 20
1239.911059571375
 30
0.0
 11
1842.959230214349
 21
1257.911059571376
 31
0.0
  0
LINE
  5
1F9
330
1F
100
AcDbEntity
  8
0-1
  6
Continuous
 62
    92
370
    13
100
AcDbLine
 10
1842.959230214349
 20
1257.911059571376
 30
0.0
 11
2262.959230214349
 21
1257.911059571376
 31
0.0
  0
LINE
  5
1FA
330
1F
100
AcDbEntity
  8
0-1
  6
Continuous
 62
    92
370
    13
100
AcDbLine
 10
1883.459230214349
 20
-1694.088940428625
 30
0.0
 11
2222.459230214348
 21
-1694.088940428625
 31
0.0
  0
LINE
  5
1FB
330
1F
100
AcDbEntity
  8
0-1
  6
Continuous
 62
    92
370
    13
100
AcDbLine
 10
1860.959230214349
 20
-1716.588940428625
 30
0.0
 11
2244.959230214348
 21
-1716.588940428625
 31
0.0
  0
LINE
  5
1FC
330
1F
100
AcDbEntity
  8
0-1
  6
Continuous
 62
    92
370
    13
100
AcDbLine
 10
1842.959230214349
 20
-1734.588940428628
 30
0.0
 11
2262.959230214349
 21
-1734.588940428628
 31
0.0
  0
LINE
  5
1FD
330
1F
100
AcDbEntity
  8
0-1
  6
Continuous
 62
    92
370
    13
100
AcDbLine
 10
1883.459230214349
 20
1217.411059571375
 30
0.0
 11
2222.459230214348
 21
1217.411059571375
 31
0.0
  0
LINE
  5
1FE
330
1F
100
AcDbEntity
  8
0-1
  6
Continuous
 62
    92
370
    13
100
AcDbLine
 10
1842.959230214349
 20
-1860.588940428626
 30
0.0
 11
1842.959230214349
 21
1383.911059571376
 31
0.0
  0
LINE
  5
1FF
330
1F
100
AcDbEntity
  8
0-1
  6
Continuous
 62
    92
370
    13
100
AcDbLine
 10
1883.459230214349
 20
-1694.088940428625
 30
0.0
 11
1883.459230214349
 21
1217.411059571375
 31
0.0
  0
LINE
  5
200
330
1F
100
AcDbEntity
  8
0-1
  6
Continuous
 62
    92
370
    13
100
AcDbLine
 10
1883.459230214349
 20
1217.411059571375
 30
0.0
 11
1869.01423021435
 21
1231.361059571376
 31
0.0
  0
LINE
  5
201
330
1F
100
AcDbEntity
  8
0-1
  6
Continuous
 62
    92
370
    13
100
AcDbLine
 10
1883.459230214349
 20
-1694.088940428625
 30
0.0
 11
1869.01423021435
 21
-1708.533940428627
 31
0.0
  0
LINE
  5
202
330
1F
100
AcDbEntity
  8
0-1
  6
Continuous
 62
    92
370
    13
100
AcDbLine
 10
1860.959230214349
 20
-1716.588940428627
 30
0.0
 11
1842.959230214349
 21
-1734.588940428628
 31
0.0
  0
LINE
  5
203
330
1F
100
AcDbEntity
  8
0-1
  6
Continuous
 62
    92
370
    13
100
AcDbLine
 10
2262.959230214349
 20
-1860.588940428626
 30
0.0
 11
2262.959230214349
 21
1383.911059571376
 31
0.0
  0
LINE
  5
204
330
1F
100
AcDbEntity
  8
0-1
  6
Continuous
 62
    92
370
    13
100
AcDbLine
 10
2244.959230214348
 20
-1716.588940428625
 30
0.0
 11
2244.959230214348
 21
1239.911059571375
 31
0.0
  0
LINE
  5
205
330
1F
100
AcDbEntity
  8
0-1
  6
Continuous
 62
    92
370
    13
100
AcDbLine
 10
2222.459230214348
 20
-1694.088940428625
 30
0.0
 11
2222.459230214348
 21
1217.411059571375
 31
0.0
  0
LINE
  5
206
330
1F
100
AcDbEntity
  8
0-1
  6
Continuous
 62
    92
370
    13
100
AcDbLine
 10
2236.904230214348
 20
1231.361059571376
 30
0.0
 11
2222.459230214348
 21
1217.411059571375
 31
0.0
  0
LINE
  5
207
330
1F
100
AcDbEntity
  8
0-1
  6
Continuous
 62
    92
370
    13
100
AcDbLine
 10
2262.959230214349
 20
1257.911059571376
 30
0.0
 11
2244.959230214348
 21
1239.911059571375
 31
0.0
  0
LINE
  5
208
330
1F
100
AcDbEntity
  8
0-1
  6
Continuous
 62
    92
370
    13
100
AcDbLine
 10
2236.904230214348
 20
-1708.533940428627
 30
0.0
 11
2222.459230214348
 21
-1694.088940428625
 31
0.0
  0
LINE
  5
209
330
1F
100
AcDbEntity
  8
0-1
  6
Continuous
 62
    92
370
    13
100
AcDbLine
 10
2244.959230214348
 20
-1716.588940428627
 30
0.0
 11
2262.959230214349
 21
-1734.588940428628
 31
0.0
  0
LINE
  5
20A
330
1F
100
AcDbEntity
  8
0-1
  6
JWW_CENTER1
 62
     7
370
     9
100
AcDbLine
 10
1757.459230214348
 20
1383.911059571377
 30
0.0
 11
2348.459230214349
 21
-238.3389404286249
 31
0.0
  0
LINE
  5
20B
330
1F
100
AcDbEntity
  8
0-1
  6
JWW_CENTER1
 62
     7
370
     9
100
AcDbLine
 10
2348.459230214349
 20
-238.3389404286249
 30
0.0
 11
1757.459230214348
 21
-1860.588940428626
 31
0.0
  0
LWPOLYLINE
  5
20C
330
1F
100
AcDbEntity
  8
0-1
  6
Continuous
 62
     7
370
     9
100
AcDbPolyline
 90
        4
 70
     1
 43
6.0
 10
2351.459229935113
 20
1613.411059571377
 42
0.4142135623731
 10
2348.459229935113
 20
1616.411059571377
 42
0.4142135623731
 10
2345.459229935113
 20
1613.411059571377
 42
0.4142135623731
 10
2348.459229935113
 20
1610.411059571377
 42
0.4142135623731
  0
LINE
  5
20D
330
1F
100
AcDbEntity
  8
0-1
  6
Continuous
 62
   120
370
     5
100
AcDbLine
 10
2348.459229935113
 20
1613.411059571377
 30
0.0
 11
2348.459229935113
 21
1463.411059571377
 31
0.0
  0
LINE
  5
20E
330
1F
100
AcDbEntity
  8
0-1
  6
Continuous
 62
   120
370
     5
100
AcDbLine
 10
2348.459229935113
 20
1613.411059571377
 30
0.0
 11
1757.459229935111
 21
1613.411059571377
 31
0.0
  0
LWPOLYLINE
  5
20F
330
1F
100
AcDbEntity
  8
0-1
  6
Continuous
 62
     7
370
     9
100
AcDbPolyline
 90
        4
 70
     1
 43
6.0
 10
1760.459229935111
 20
1613.411059571377
 42
0.4142135623731
 10
1757.459229935111
 20
1616.411059571377
 42
0.4142135623731
 10
1754.459229935111
 20
1613.411059571377
 42
0.4142135623731
 10
1757.459229935111
 20
1610.411059571377
 42
0.4142135623731
  0
LINE
  5
210
330
1F
100
AcDbEntity
  8
0-1
  6
Continuous
 62
   120
370
     5
100
AcDbLine
 10
1757.459229935111
 20
1613.411059571377
 30
0.0
 11
1757.459229935111
 21
1463.411059571377
 31
0.0
  0
TEXT
  5
211
330
1F
100
AcDbEntity
  8
0-1
  6
Continuous
 62
     7
370
   211
100
AcDbText
 10
1850.459229935112
 20
1641.101059571377
 30
0.0
 40
68.58
  1
ＤＷ＝394
 41
0.9999999999999994
  7
ＭＳ ゴシック
100
AcDbText
  0
ARC
  5
212
330
1F
100
AcDbEntity
  8
0-1
  6
Continuous
 62
    92
370
    13
100
AcDbCircle
 10
1824.209229935109
 20
-347.0889404286223
 30
0.0
 40
1.5
100
AcDbArc
 50
0.0
 51
90.0
  0
LINE
  5
213
330
1F
100
AcDbEntity
  8
0-1
  6
Continuous
 62
    92
370
    13
100
AcDbLine
 10
1812.209229935113
 20
-345.5889404286237
 30
0.0
 11
1824.209229935109
 21
-345.5889404286237
 31
0.0
  0
ARC
  5
214
330
1F
100
AcDbEntity
  8
0-1
  6
Continuous
 62
    92
370
    13
100
AcDbCircle
 10
1812.209229935113
 20
-347.0889404286223
 30
0.0
 40
1.5
100
AcDbArc
 50
89.99999999999999
 51
180.0
  0
LINE
  5
215
330
1F
100
AcDbEntity
  8
0-1
  6
Continuous
 62
    92
370
    13
100
AcDbLine
 10
1810.709229935111
 20
-545.0889404286213
 30
0.0
 11
1810.709229935111
 21
-347.0889404286223
 31
0.0
  0
ARC
  5
216
330
1F
100
AcDbEntity
  8
0-1
  6
Continuous
 62
    92
370
    13
100
AcDbCircle
 10
1812.209229935113
 20
-545.0889404286213
 30
0.0
 40
1.5
100
AcDbArc
 50
180.0
 51
270.0
  0
LINE
  5
217
330
1F
100
AcDbEntity
  8
0-1
  6
Continuous
 62
    92
370
    13
100
AcDbLine
 10
1824.209229935109
 20
-546.5889404286224
 30
0.0
 11
1812.209229935113
 21
-546.5889404286224
 31
0.0
  0
LINE
  5
218
330
1F
100
AcDbEntity
  8
0-1
  6
Continuous
 62
    92
370
    13
100
AcDbLine
 10
1825.709229935111
 20
-545.0889404286213
 30
0.0
 11
1825.709229935111
 21
-347.0889404286223
 31
0.0
  0
ARC
  5
219
330
1F
100
AcDbEntity
  8
0-1
  6
Continuous
 62
    92
370
    13
100
AcDbCircle
 10
1824.209229935109
 20
-545.0889404286213
 30
0.0
 40
1.5
100
AcDbArc
 50
270.0
 51
0.0
  0
ARC
  5
21A
330
1F
100
AcDbEntity
  8
0-1
  6
Continuous
 62
     7
370
     9
100
AcDbCircle
 10
1825.709229935111
 20
-350.0889404286213
 30
0.0
 40
1.5
100
AcDbArc
 50
0.0
 51
90.0
  0
ARC
  5
21B
330
1F
100
AcDbEntity
  8
0-1
  6
Continuous
 62
     7
370
     9
100
AcDbCircle
 10
1810.709229935111
 20
-350.0889404286213
 30
0.0
 40
1.5
100
AcDbArc
 50
89.99999999999999
 51
180.0
  0
LINE
  5
21C
330
1F
100
AcDbEntity
  8
0-1
  6
Continuous
 62
     7
370
     9
100
AcDbLine
 10
1809.209229935109
 20
-377.0889404286223
 30
0.0
 11
1809.209229935109
 21
-350.0889404286213
 31
0.0
  0
ARC
  5
21D
330
1F
100
AcDbEntity
  8
0-1
  6
Continuous
 62
     7
370
     9
100
AcDbCircle
 10
1810.709229935111
 20
-377.0889404286223
 30
0.0
 40
1.5
100
AcDbArc
 50
180.0
 51
270.0
  0
LINE
  5
21E
330
1F
100
AcDbEntity
  8
0-1
  6
Continuous
 62
     7
370
     9
100
AcDbLine
 10
1827.209229935113
 20
-377.0889404286223
 30
0.0
 11
1827.209229935113
 21
-350.0889404286213
 31
0.0
  0
ARC
  5
21F
330
1F
100
AcDbEntity
  8
0-1
  6
Continuous
 62
     7
370
     9
100
AcDbCircle
 10
1825.709229935111
 20
-377.0889404286223
 30
0.0
 40
1.5
100
AcDbArc
 50
270.0
 51
0.0
  0
ARC
  5
220
330
1F
100
AcDbEntity
  8
0-1
  6
Continuous
 62
     7
370
     9
100
AcDbCircle
 10
1825.709229935111
 20
-515.0889404286213
 30
0.0
 40
1.5
100
AcDbArc
 50
0.0
 51
90.0
  0
ARC
  5
221
330
1F
100
AcDbEntity
  8
0-1
  6
Continuous
 62
     7
370
     9
100
AcDbCircle
 10
1810.709229935111
 20
-515.0889404286213
 30
0.0
 40
1.5
100
AcDbArc
 50
89.99999999999999
 51
180.0
  0
LINE
  5
222
330
1F
100
AcDbEntity
  8
0-1
  6
Continuous
 62
     7
370
     9
100
AcDbLine
 10
1809.209229935109
 20
-542.0889404286222
 30
0.0
 11
1809.209229935109
 21
-515.0889404286213
 31
0.0
  0
ARC
  5
223
330
1F
100
AcDbEntity
  8
0-1
  6
Continuous
 62
     7
370
     9
100
AcDbCircle
 10
1810.709229935111
 20
-542.0889404286222
 30
0.0
 40
1.5
100
AcDbArc
 50
180.0
 51
270.0
  0
LINE
  5
224
330
1F
100
AcDbEntity
  8
0-1
  6
Continuous
 62
     7
370
     9
100
AcDbLine
 10
1827.209229935113
 20
-542.0889404286222
 30
0.0
 11
1827.209229935113
 21
-515.0889404286213
 31
0.0
  0
ARC
  5
225
330
1F
100
AcDbEntity
  8
0-1
  6
Continuous
 62
     7
370
     9
100
AcDbCircle
 10
1825.709229935111
 20
-542.0889404286222
 30
0.0
 40
1.5
100
AcDbArc
 50
270.0
 51
0.0
  0
LINE
  5
226
330
1F
100
AcDbEntity
  8
0-1
  6
Continuous
 62
     7
370
     9
100
AcDbLine
 10
1481.45922965587
 20
-929.5923823835943
 30
0.0
 11
1142.459229655871
 21
-1268.592382383593
 31
0.0
  0
LINE
  5
227
330
1F
100
AcDbEntity
  8
0-1
  6
Continuous
 62
     7
370
     9
100
AcDbLine
 10
1481.45922965587
 20
770.875831409398
 30
0.0
 11
1142.459229655871
 21
431.8758314093992
 31
0.0
  0
LINE
  5
228
330
1F
100
AcDbEntity
  8
0-1
  6
Continuous
 62
     7
370
     9
100
AcDbLine
 10
1481.45922965587
 20
733.0873278069596
 30
0.0
 11
1142.459229655871
 21
394.087327806961
 31
0.0
  0
LINE
  5
229
330
1F
100
AcDbEntity
  8
0-1
  6
Continuous
 62
     7
370
     9
100
AcDbLine
 10
1481.45922965587
 20
644.739288055203
 30
0.0
 11
1142.459229655871
 21
305.7392880552043
 31
0.0
  0
LINE
  5
22A
330
1F
100
AcDbEntity
  8
0-1
  6
Continuous
 62
     7
370
     9
100
AcDbLine
 10
1481.45922965587
 20
-832.1048902437252
 30
0.0
 11
1142.459229655871
 21
-1171.104890243724
 31
0.0
  0
LINE
  5
22B
330
1F
100
AcDbEntity
  8
0-1
  6
Continuous
 62
     7
370
     9
100
AcDbLine
 10
1481.45922965587
 20
-911.3134776073694
 30
0.0
 11
1142.459229655871
 21
-1250.313477607368
 31
0.0
  0
LINE
  5
22C
330
1F
100
AcDbEntity
  8
0-1
  6
Continuous
 62
     7
370
     9
100
AcDbLine
 10
2222.459230214348
 20
-929.5923818251167
 30
0.0
 11
1883.459230214349
 21
-1268.592381825116
 31
0.0
  0
LINE
  5
22D
330
1F
100
AcDbEntity
  8
0-1
  6
Continuous
 62
     7
370
     9
100
AcDbLine
 10
2222.459230214348
 20
770.875831967876
 30
0.0
 11
1883.459230214349
 21
431.8758319678764
 31
0.0
  0
LINE
  5
22E
330
1F
100
AcDbEntity
  8
0-1
  6
Continuous
 62
     7
370
     9
100
AcDbLine
 10
2222.459230214348
 20
733.0873283654377
 30
0.0
 11
1883.459230214349
 21
394.0873283654382
 31
0.0
  0
LINE
  5
22F
330
1F
100
AcDbEntity
  8
0-1
  6
Continuous
 62
     7
370
     9
100
AcDbLine
 10
2222.459230214348
 20
644.7392886136811
 30
0.0
 11
1883.459230214349
 21
305.7392886136815
 31
0.0
  0
LINE
  5
230
330
1F
100
AcDbEntity
  8
0-1
  6
Continuous
 62
     7
370
     9
100
AcDbLine
 10
2222.459230214348
 20
-832.1048896852476
 30
0.0
 11
1883.459230214349
 21
-1171.104889685247
 31
0.0
  0
LINE
  5
231
330
1F
100
AcDbEntity
  8
0-1
  6
Continuous
 62
     7
370
     9
100
AcDbLine
 10
2222.459230214348
 20
-911.3134770488916
 30
0.0
 11
1883.459230214349
 21
-1250.313477048891
 31
0.0
  0
LINE
  5
232
330
1F
100
AcDbEntity
  8
0-1
  6
JWW_CENTER1
 62
     7
370
     9
100
AcDbLine
 10
1607.459229655873
 20
1383.911059571381
 30
0.0
 11
1016.459229655872
 21
-238.338940428621
 31
0.0
  0
LINE
  5
233
330
1F
100
AcDbEntity
  8
0-1
  6
JWW_CENTER1
 62
     7
370
     9
100
AcDbLine
 10
1016.459229655872
 20
-238.338940428621
 30
0.0
 11
1607.459229655873
 21
-1860.588940428622
 31
0.0
  0
TEXT
  5
234
330
1F
100
AcDbEntity
  8
文字
  6
Continuous
 62
     7
370
     9
100
AcDbText
 10
-2707.34693877551
 20
-2191.669897959184
 30
0.0
 40
57.15000000000001
  1
ソフトアート　立体框組角タイプ　FFP_B02
 41
0.9999999999999999
  7
ＭＳ ゴシック
100
AcDbText
  0
ENDSEC
  0
SECTION
  2
OBJECTS
  0
DICTIONARY
  5
C
330
0
100
AcDbDictionary
281
     1
  3
ACAD_DETAILVIEWSTYLE
350
26C
  3
ACAD_GROUP
350
D
  3
ACAD_LAYOUT
350
1A
  3
ACAD_MATERIAL
350
43
  3
ACAD_MLEADERSTYLE
350
6B
  3
ACAD_MLINESTYLE
350
17
  3
ACAD_PLOTSETTINGS
350
19
  3
ACAD_PLOTSTYLENAME
350
E
  3
ACAD_SCALELIST
350
47
  3
ACAD_SECTIONVIEWSTYLE
350
26D
  3
ACAD_TABLESTYLE
350
69
  3
ACAD_VISUALSTYLE
350
2A
  3
ACDB_RECOMPOSE_DATA
350
269
  3
AcDbVariableDictionary
350
235
  0
SUN
  5
6D
330
29
100
AcDbSun
 90
        1
290
     0
 63
     7
421
 16777215
 40
1.0
291
     1
 91
  2455826
 92
 54000000
292
     0
 70
     2
 71
   256
280
     1
  0
DICTIONARY
  5
26C
102
{ACAD_REACTORS
330
C
102
}
330
C
100
AcDbDictionary
281
     1
  0
DICTIONARY
  5
D
102
{ACAD_REACTORS
330
C
102
}
330
C
100
AcDbDictionary
281
     1
  0
DICTIONARY
  5
1A
102
{ACAD_REACTORS
330
C
102
}
330
C
100
AcDbDictionary
281
     1
  3
Layout1
350
1E
  3
Layout2
350
26
  3
Model
350
22
  0
DICTIONARY
  5
43
102
{ACAD_REACTORS
330
C
102
}
330
C
100
AcDbDictionary
281
     1
  3
ByBlock
350
45
  3
ByLayer
350
44
  3
Global
350
46
  0
DICTIONARY
  5
6B
102
{ACAD_REACTORS
330
C
102
}
330
C
100
AcDbDictionary
281
     1
  3
Standard
350
6C
  0
DICTIONARY
  5
17
102
{ACAD_REACTORS
330
C
102
}
330
C
100
AcDbDictionary
281
     1
  3
Standard
350
18
  0
DICTIONARY
  5
19
102
{ACAD_REACTORS
330
C
102
}
330
C
100
AcDbDictionary
281
     1
  0
ACDBDICTIONARYWDFLT
  5
E
102
{ACAD_REACTORS
330
C
102
}
330
C
100
AcDbDictionary
281
     1
  3
Normal
350
F
100
AcDbDictionaryWithDefault
340
F
  0
DICTIONARY
  5
47
102
{ACAD_REACTORS
330
C
102
}
330
C
100
AcDbDictionary
281
     1
  3
A0
350
48
  3
A1
350
49
  3
A2
350
4A
  3
A3
350
4B
  3
A4
350
4C
  3
A5
350
4D
  3
A6
350
4E
  3
A7
350
4F
  3
A8
350
50
  3
A9
350
51
  3
B0
350
52
  3
B1
350
53
  3
B2
350
54
  3
B3
350
55
  3
B4
350
56
  3
B5
350
57
  3
B6
350
58
  3
B7
350
59
  3
B8
350
5A
  3
B9
350
5B
  3
C0
350
5C
  3
C1
350
5D
  3
C2
350
5E
  3
C3
350
5F
  3
C4
350
60
  3
C5
350
61
  3
C6
350
62
  3
C7
350
63
  3
C8
350
64
  3
C9
350
65
  3
D0
350
66
  3
D1
350
67
  3
D2
350
68
  0
DICTIONARY
  5
26D
102
{ACAD_REACTORS
330
C
102
}
330
C
100
AcDbDictionary
281
     1
  0
DICTIONARY
  5
69
102
{ACAD_REACTORS
330
C
102
}
330
C
100
AcDbDictionary
281
     1
  3
Standard
350
6A
  0
DICTIONARY
  5
2A
102
{ACAD_REACTORS
330
C
102
}
330
C
100
AcDbDictionary
281
     1
  3
2dWireframe
350
2F
  3
Basic
350
32
  3
Brighten
350
36
  3
ColorChange
350
3A
  3
Conceptual
350
34
  3
Dim
350
35
  3
EdgeColorOff
350
3D
  3
Facepattern
350
39
  3
Flat
350
2B
  3
FlatWithEdges
350
2C
  3
Gouraud
350
2D
  3
GouraudWithEdges
350
2E
  3
Hidden
350
31
  3
JitterOff
350
3B
  3
Linepattern
350
38
  3
OverhangOff
350
3C
  3
Realistic
350
33
  3
Shaded
350
42
  3
Shaded with edges
350
41
  3
Shades of Gray
350
3E
  3
Sketchy
350
3F
  3
Thicken
350
37
  3
Wireframe
350
30
  3
X-Ray
350
40
  0
XRECORD
  5
269
102
{ACAD_REACTORS
330
C
102
}
330
C
100
AcDbXrecord
280
     1
 90
        1
330
6A
  0
DICTIONARY
  5
235
102
{ACAD_REACTORS
330
C
102
}
330
C
100
AcDbDictionary
281
     1
  3
CANNOSCALE
350
236
  3
CENTEREXE
350
26E
  3
CENTERLTYPEFILE
350
26F
  3
CMLEADERSTYLE
350
26B
  3
CTABLESTYLE
350
26A
  0
LAYOUT
  5
1E
102
{ACAD_REACTORS
330
1A
102
}
330
1A
100
AcDbPlotSettings
  1

  2
none_device
  4

  6

 40
0.0
 41
0.0
 42
0.0
 43
0.0
 44
0.0
 45
0.0
 46
0.0
 47
0.0
 48
0.0
 49
0.0
140
0.0
141
0.0
142
1.0
143
1.0
 70
   688
 72
     1
 73
     0
 74
     5
  7

 75
    16
 76
     0
 77
     5
 78
   300
147
1.0
148
0.0
149
0.0
100
AcDbLayout
  1
Layout1
 70
     1
 71
     1
 10
0.0
 20
0.0
 11
420.0
 21
297.0
 12
0.0
 22
0.0
 32
0.0
 14
1.000000000000000E+20
 24
1.000000000000000E+20
 34
1.000000000000000E+20
 15
-1.000000000000000E+20
 25
-1.000000000000000E+20
 35
-1.000000000000000E+20
146
0.0
 13
0.0
 23
0.0
 33
0.0
 16
1.0
 26
0.0
 36
0.0
 17
0.0
 27
1.0
 37
0.0
 76
     0
330
1B
  0
LAYOUT
  5
26
102
{ACAD_REACTORS
330
1A
102
}
330
1A
100
AcDbPlotSettings
  1

  2
none_device
  4

  6

 40
0.0
 41
0.0
 42
0.0
 43
0.0
 44
0.0
 45
0.0
 46
0.0
 47
0.0
 48
0.0
 49
0.0
140
0.0
141
0.0
142
1.0
143
1.0
 70
   688
 72
     1
 73
     0
 74
     5
  7

 75
    16
 76
     0
 77
     5
 78
   300
147
1.0
148
0.0
149
0.0
100
AcDbLayout
  1
Layout2
 70
     1
 71
     2
 10
0.0
 20
0.0
 11
0.0
 21
0.0
 12
0.0
 22
0.0
 32
0.0
 14
0.0
 24
0.0
 34
0.0
 15
0.0
 25
0.0
 35
0.0
146
0.0
 13
0.0
 23
0.0
 33
0.0
 16
1.0
 26
0.0
 36
0.0
 17
0.0
 27
1.0
 37
0.0
 76
     0
330
23
  0
LAYOUT
  5
22
102
{ACAD_REACTORS
330
1A
102
}
330
1A
100
AcDbPlotSettings
  1

  2
none_device
  4
Letter_(8.50_x_11.00_Inches)
  6

 40
6.35
 41
6.35
 42
6.35000508
 43
6.35000508
 44
215.9
 45
279.4
 46
0.0
 47
0.0
 48
0.0
 49
0.0
140
0.0
141
0.0
142
1.0
143
1.0
 70
  1712
 72
     1
 73
     0
 74
     0
  7

 75
     0
 76
     0
 77
     5
 78
   300
147
1.0
148
0.0
149
0.0
100
AcDbLayout
  1
Model
 70
     1
 71
     0
 10
-4455.0
 20
-3150.0
 11
4455.0
 21
3150.0
 12
0.0
 22
0.0
 32
0.0
 14
-4455.0
 24
-3150.0
 34
0.0
 15
4455.0
 25
3150.0
 35
0.0
146
0.0
 13
0.0
 23
0.0
 33
0.0
 16
1.0
 26
0.0
 36
0.0
 17
0.0
 27
1.0
 37
0.0
 76
     0
330
1F
331
29
  0
MATERIAL
  5
45
102
{ACAD_REACTORS
330
43
102
}
330
43
100
AcDbMaterial
  1
ByBlock
 72
     1
 94
      127
  0
MATERIAL
  5
44
102
{ACAD_REACTORS
330
43
102
}
330
43
100
AcDbMaterial
  1
ByLayer
 72
     1
 94
      127
  0
MATERIAL
  5
46
102
{ACAD_REACTORS
330
43
102
}
330
43
100
AcDbMaterial
  1
Global
 72
     1
 94
      127
  0
MLEADERSTYLE
  5
6C
102
{ACAD_REACTORS
330
6B
102
}
330
6B
100
AcDbMLeaderStyle
179
     2
170
     2
171
     1
172
     0
 90
        2
 40
0.0
 41
0.0
173
     1
 91
-1056964608
340
14
 92
       -2
290
     1
 42
2.0
291
     1
 43
8.0
  3
Standard
341
0
 44
4.0
300

342
11
174
     1
178
     6
175
     1
176
     0
 93
-1056964608
 45
4.0
292
     0
297
     0
 46
4.0
343
0
 94
-1056964608
 47
1.0
 49
1.0
140
1.0
293
     1
141
0.0
294
     1
177
     0
142
1.0
295
     0
296
     0
143
3.75
271
     0
272
     9
273
     9
  0
MLINESTYLE
  5
18
102
{ACAD_REACTORS
330
17
102
}
330
17
100
AcDbMlineStyle
  2
Standard
 70
     0
  3

 62
   256
 51
90.0
 52
90.0
 71
     2
 49
0.5
 62
   256
  6
BYLAYER
 49
-0.5
 62
   256
  6
BYLAYER
  0
ACDBPLACEHOLDER
  5
F
102
{ACAD_REACTORS
330
E
102
}
330
E
  0
SCALE
  5
48
102
{ACAD_REACTORS
330
47
102
}
330
47
100
AcDbScale
 70
     0
300
1:1
140
1.0
141
1.0
290
     1
  0
SCALE
  5
49
102
{ACAD_REACTORS
330
47
102
}
330
47
100
AcDbScale
 70
     0
300
1:2
140
1.0
141
2.0
290
     0
  0
SCALE
  5
4A
102
{ACAD_REACTORS
330
47
102
}
330
47
100
AcDbScale
 70
     0
300
1:4
140
1.0
141
4.0
290
     0
  0
SCALE
  5
4B
102
{ACAD_REACTORS
330
47
102
}
330
47
100
AcDbScale
 70
     0
300
1:5
140
1.0
141
5.0
290
     0
  0
SCALE
  5
4C
102
{ACAD_REACTORS
330
47
102
}
330
47
100
AcDbScale
 70
     0
300
1:8
140
1.0
141
8.0
290
     0
  0
SCALE
  5
4D
102
{ACAD_REACTORS
330
47
102
}
330
47
100
AcDbScale
 70
     0
300
1:10
140
1.0
141
10.0
290
     0
  0
SCALE
  5
4E
102
{ACAD_REACTORS
330
47
102
}
330
47
100
AcDbScale
 70
     0
300
1:16
140
1.0
141
16.0
290
     0
  0
SCALE
  5
4F
102
{ACAD_REACTORS
330
47
102
}
330
47
100
AcDbScale
 70
     0
300
1:20
140
1.0
141
20.0
290
     0
  0
SCALE
  5
50
102
{ACAD_REACTORS
330
47
102
}
330
47
100
AcDbScale
 70
     0
300
1:30
140
1.0
141
30.0
290
     0
  0
SCALE
  5
51
102
{ACAD_REACTORS
330
47
102
}
330
47
100
AcDbScale
 70
     0
300
1:40
140
1.0
141
40.0
290
     0
  0
SCALE
  5
52
102
{ACAD_REACTORS
330
47
102
}
330
47
100
AcDbScale
 70
     0
300
1:50
140
1.0
141
50.0
290
     0
  0
SCALE
  5
53
102
{ACAD_REACTORS
330
47
102
}
330
47
100
AcDbScale
 70
     0
300
1:100
140
1.0
141
100.0
290
     0
  0
SCALE
  5
54
102
{ACAD_REACTORS
330
47
102
}
330
47
100
AcDbScale
 70
     0
300
2:1
140
2.0
141
1.0
290
     0
  0
SCALE
  5
55
102
{ACAD_REACTORS
330
47
102
}
330
47
100
AcDbScale
 70
     0
300
4:1
140
4.0
141
1.0
290
     0
  0
SCALE
  5
56
102
{ACAD_REACTORS
330
47
102
}
330
47
100
AcDbScale
 70
     0
300
8:1
140
8.0
141
1.0
290
     0
  0
SCALE
  5
57
102
{ACAD_REACTORS
330
47
102
}
330
47
100
AcDbScale
 70
     0
300
10:1
140
10.0
141
1.0
290
     0
  0
SCALE
  5
58
102
{ACAD_REACTORS
330
47
102
}
330
47
100
AcDbScale
 70
     0
300
100:1
140
100.0
141
1.0
290
     0
  0
SCALE
  5
59
102
{ACAD_REACTORS
330
47
102
}
330
47
100
AcDbScale
 70
     0
300
1/128" = 1'-0"
140
0.0078125
141
12.0
290
     0
  0
SCALE
  5
5A
102
{ACAD_REACTORS
330
47
102
}
330
47
100
AcDbScale
 70
     0
300
1/64" = 1'-0"
140
0.015625
141
12.0
290
     0
  0
SCALE
  5
5B
102
{ACAD_REACTORS
330
47
102
}
330
47
100
AcDbScale
 70
     0
300
1/32" = 1'-0"
140
0.03125
141
12.0
290
     0
  0
SCALE
  5
5C
102
{ACAD_REACTORS
330
47
102
}
330
47
100
AcDbScale
 70
     0
300
1/16" = 1'-0"
140
0.0625
141
12.0
290
     0
  0
SCALE
  5
5D
102
{ACAD_REACTORS
330
47
102
}
330
47
100
AcDbScale
 70
     0
300
3/32" = 1'-0"
140
0.09375
141
12.0
290
     0
  0
SCALE
  5
5E
102
{ACAD_REACTORS
330
47
102
}
330
47
100
AcDbScale
 70
     0
300
1/8" = 1'-0"
140
0.125
141
12.0
290
     0
  0
SCALE
  5
5F
102
{ACAD_REACTORS
330
47
102
}
330
47
100
AcDbScale
 70
     0
300
3/16" = 1'-0"
140
0.1875
141
12.0
290
     0
  0
SCALE
  5
60
102
{ACAD_REACTORS
330
47
102
}
330
47
100
AcDbScale
 70
     0
300
1/4" = 1'-0"
140
0.25
141
12.0
290
     0
  0
SCALE
  5
61
102
{ACAD_REACTORS
330
47
102
}
330
47
100
AcDbScale
 70
     0
300
3/8" = 1'-0"
140
0.375
141
12.0
290
     0
  0
SCALE
  5
62
102
{ACAD_REACTORS
330
47
102
}
330
47
100
AcDbScale
 70
     0
300
1/2" = 1'-0"
140
0.5
141
12.0
290
     0
  0
SCALE
  5
63
102
{ACAD_REACTORS
330
47
102
}
330
47
100
AcDbScale
 70
     0
300
3/4" = 1'-0"
140
0.75
141
12.0
290
     0
  0
SCALE
  5
64
102
{ACAD_REACTORS
330
47
102
}
330
47
100
AcDbScale
 70
     0
300
1" = 1'-0"
140
1.0
141
12.0
290
     0
  0
SCALE
  5
65
102
{ACAD_REACTORS
330
47
102
}
330
47
100
AcDbScale
 70
     0
300
1-1/2" = 1'-0"
140
1.5
141
12.0
290
     0
  0
SCALE
  5
66
102
{ACAD_REACTORS
330
47
102
}
330
47
100
AcDbScale
 70
     0
300
3" = 1'-0"
140
3.0
141
12.0
290
     0
  0
SCALE
  5
67
102
{ACAD_REACTORS
330
47
102
}
330
47
100
AcDbScale
 70
     0
300
6" = 1'-0"
140
6.0
141
12.0
290
     0
  0
SCALE
  5
68
102
{ACAD_REACTORS
330
47
102
}
330
47
100
AcDbScale
 70
     0
300
1'-0" = 1'-0"
140
12.0
141
12.0
290
     0
  0
TABLESTYLE
  5
6A
102
{ACAD_REACTORS
330
69
102
}
102
{ACAD_XDICTIONARY
360
267
102
}
330
69
100
AcDbTableStyle
  3
Standard
 70
     0
 71
     0
 40
0.06
 41
0.06
280
     0
281
     0
  7
Standard
140
4.5
170
     2
 62
     0
 63
   257
283
     0
 90
        4
 91
        0
  1

274
    -2
284
     1
 64
     0
275
    -2
285
     1
 65
     0
276
    -2
286
     1
 66
     0
277
    -2
287
     1
 67
     0
278
    -2
288
     1
 68
     0
279
    -2
289
     1
 69
     0
  7
Standard
140
6.0
170
     5
 62
     0
 63
   257
283
     0
 90
        4
 91
        0
  1

274
    -2
284
     1
 64
     0
275
    -2
285
     1
 65
     0
276
    -2
286
     1
 66
     0
277
    -2
287
     1
 67
     0
278
    -2
288
     1
 68
     0
279
    -2
289
     1
 69
     0
  7
Standard
140
4.5
170
     5
 62
     0
 63
   257
283
     0
 90
        4
 91
        0
  1

274
    -2
284
     1
 64
     0
275
    -2
285
     1
 65
     0
276
    -2
286
     1
 66
     0
277
    -2
287
     1
 67
     0
278
    -2
288
     1
 68
     0
279
    -2
289
     1
 69
     0
  0
VISUALSTYLE
  5
2F
102
{ACAD_REACTORS
330
2A
102
}
102
{ACAD_XDICTIONARY
360
23F
102
}
330
2A
100
AcDbVisualStyle
  2
2dWireframe
 70
     4
177
     2
291
     0
 71
     0
176
     1
 72
     2
176
     1
 73
     0
176
     1
 90
        0
176
     1
 40
0.6
176
     1
 41
30.0
176
     1
 62
     5
 63
     7
421
 16777215
176
     1
 74
     1
176
     1
 91
        4
176
     1
 64
     7
176
     1
 65
   257
176
     1
 75
     1
176
     1
175
     1
176
     1
 42
1.0
176
     1
 92
        0
176
     1
 66
   257
176
     1
 43
1.0
176
     1
 76
     1
176
     1
 77
     6
176
     1
 78
     2
176
     1
 67
     7
176
     1
 79
     5
176
     1
170
     0
176
     1
171
     0
176
     1
290
     0
176
     1
 93
        1
176
     1
 44
0.0
176
     1
173
     0
176
     1
  0
VISUALSTYLE
  5
32
102
{ACAD_REACTORS
330
2A
102
}
102
{ACAD_XDICTIONARY
360
245
102
}
330
2A
100
AcDbVisualStyle
  2
Basic
 70
     7
177
     2
291
     1
 71
     1
176
     1
 72
     0
176
     1
 73
     1
176
     1
 90
        0
176
     1
 40
0.6
176
     1
 41
30.0
176
     1
 62
     5
 63
     7
421
 16777215
176
     1
 74
     0
176
     1
 91
        4
176
     1
 64
     7
176
     1
 65
   257
176
     1
 75
     1
176
     1
175
     1
176
     1
 42
1.0
176
     1
 92
        8
176
     1
 66
     7
176
     1
 43
1.0
176
     1
 76
     1
176
     1
 77
     6
176
     1
 78
     2
176
     1
 67
     7
176
     1
 79
     5
176
     1
170
     0
176
     1
171
     0
176
     1
290
     0
176
     1
 93
        1
176
     1
 44
0.0
176
     1
173
     0
176
     1
  0
VISUALSTYLE
  5
36
102
{ACAD_REACTORS
330
2A
102
}
102
{ACAD_XDICTIONARY
360
24D
102
}
330
2A
100
AcDbVisualStyle
  2
Brighten
 70
    12
177
     2
291
     1
 71
     2
176
     1
 72
     2
176
     1
 73
     0
176
     1
 90
        0
176
     1
 40
0.6
176
     1
 41
30.0
176
     1
 62
     5
 63
     7
421
 16777215
176
     1
 74
     1
176
     1
 91
        4
176
     1
 64
     7
176
     1
 65
   257
176
     1
 75
     1
176
     1
175
     1
176
     1
 42
1.0
176
     1
 92
        8
176
     1
 66
     7
176
     1
 43
1.0
176
     1
 76
     1
176
     1
 77
     6
176
     1
 78
     2
176
     1
 67
     7
176
     1
 79
     5
176
     1
170
     0
176
     1
171
     0
176
     1
290
     0
176
     1
 93
        1
176
     1
 44
50.0
176
     1
173
     0
176
     1
  0
VISUALSTYLE
  5
3A
102
{ACAD_REACTORS
330
2A
102
}
102
{ACAD_XDICTIONARY
360
255
102
}
330
2A
100
AcDbVisualStyle
  2
ColorChange
 70
    16
177
     2
291
     1
 71
     2
176
     1
 72
     2
176
     1
 73
     3
176
     1
 90
        0
176
     1
 40
0.6
176
     1
 41
30.0
176
     1
 62
     5
 63
     8
421
  8421504
176
     1
 74
     1
176
     1
 91
        4
176
     1
 64
     7
176
     1
 65
   257
176
     1
 75
     1
176
     1
175
     1
176
     1
 42
1.0
176
     1
 92
        8
176
     1
 66
     8
424
  8421504
176
     1
 43
1.0
176
     1
 76
     1
176
     1
 77
     6
176
     1
 78
     2
176
     1
 67
     7
176
     1
 79
     5
176
     1
170
     0
176
     1
171
     0
176
     1
290
     0
176
     1
 93
        1
176
     1
 44
0.0
176
     1
173
     0
176
     1
  0
VISUALSTYLE
  5
34
102
{ACAD_REACTORS
330
2A
102
}
102
{ACAD_XDICTIONARY
360
249
102
}
330
2A
100
AcDbVisualStyle
  2
Conceptual
 70
     9
177
     2
291
     0
 71
     3
176
     1
 72
     2
176
     1
 73
     0
176
     1
 90
        0
176
     1
 40
0.6
176
     1
 41
30.0
176
     1
 62
     5
 63
     7
421
 16777215
176
     1
 74
     2
176
     1
 91
        2
176
     1
 64
     7
176
     1
 65
   257
176
     1
 75
     1
176
     1
175
     1
176
     1
 42
179.0
176
     1
 92
        8
176
     1
 66
     7
176
     1
 43
1.0
176
     1
 76
     1
176
     1
 77
     6
176
     1
 78
     2
176
     1
 67
     7
176
     1
 79
     3
176
     1
170
     0
176
     1
171
     0
176
     1
290
     0
176
     1
 93
        1
176
     1
 44
0.0
176
     1
173
     0
176
     1
  0
VISUALSTYLE
  5
35
102
{ACAD_REACTORS
330
2A
102
}
102
{ACAD_XDICTIONARY
360
24B
102
}
330
2A
100
AcDbVisualStyle
  2
Dim
 70
    11
177
     2
291
     1
 71
     2
176
     1
 72
     2
176
     1
 73
     0
176
     1
 90
        0
176
     1
 40
0.6
176
     1
 41
30.0
176
     1
 62
     5
 63
     7
421
 16777215
176
     1
 74
     1
176
     1
 91
        4
176
     1
 64
     7
176
     1
 65
   257
176
     1
 75
     1
176
     1
175
     1
176
     1
 42
1.0
176
     1
 92
        8
176
     1
 66
     7
176
     1
 43
1.0
176
     1
 76
     1
176
     1
 77
     6
176
     1
 78
     2
176
     1
 67
     7
176
     1
 79
     5
176
     1
170
     0
176
     1
171
     0
176
     1
290
     0
176
     1
 93
        1
176
     1
 44
-50.0
176
     1
173
     0
176
     1
  0
VISUALSTYLE
  5
3D
102
{ACAD_REACTORS
330
2A
102
}
102
{ACAD_XDICTIONARY
360
25B
102
}
330
2A
100
AcDbVisualStyle
  2
EdgeColorOff
 70
    22
177
     2
291
     1
 71
     2
176
     0
 72
     2
176
     0
 73
     0
176
     0
 90
        0
176
     0
 40
0.6
176
     0
 41
30.0
176
     0
 62
     5
 63
     7
421
 16777215
176
     0
 74
     1
176
     0
 91
        4
176
     0
 64
     7
176
     0
 65
   257
176
     0
 75
     1
176
     0
175
     1
176
     0
 42
1.0
176
     0
 92
        8
176
     2
 66
     7
176
     0
 43
1.0
176
     0
 76
     1
176
     0
 77
     6
176
     0
 78
     2
176
     0
 67
     7
176
     0
 79
     5
176
     0
170
     0
176
     0
171
     0
176
     0
290
     0
176
     0
 93
        1
176
     0
 44
0.0
176
     0
173
     0
176
     0
  0
VISUALSTYLE
  5
39
102
{ACAD_REACTORS
330
2A
102
}
102
{ACAD_XDICTIONARY
360
253
102
}
330
2A
100
AcDbVisualStyle
  2
Facepattern
 70
    15
177
     2
291
     1
 71
     2
176
     1
 72
     2
176
     1
 73
     0
176
     1
 90
        0
176
     1
 40
0.6
176
     1
 41
30.0
176
     1
 62
     5
 63
     7
421
 16777215
176
     1
 74
     1
176
     1
 91
        4
176
     1
 64
     7
176
     1
 65
   257
176
     1
 75
     1
176
     1
175
     1
176
     1
 42
1.0
176
     1
 92
        8
176
     1
 66
     7
176
     1
 43
1.0
176
     1
 76
     1
176
     1
 77
     6
176
     1
 78
     2
176
     1
 67
     7
176
     1
 79
     5
176
     1
170
     0
176
     1
171
     0
176
     1
290
     0
176
     1
 93
        1
176
     1
 44
0.0
176
     1
173
     0
176
     1
  0
VISUALSTYLE
  5
2B
102
{ACAD_REACTORS
330
2A
102
}
102
{ACAD_XDICTIONARY
360
237
102
}
330
2A
100
AcDbVisualStyle
  2
Flat
 70
     0
177
     2
291
     1
 71
     2
176
     1
 72
     1
176
     1
 73
     1
176
     1
 90
        2
176
     1
 40
0.6
176
     1
 41
30.0
176
     1
 62
     5
 63
     7
421
 16777215
176
     1
 74
     0
176
     1
 91
        0
176
     1
 64
     7
176
     1
 65
   257
176
     1
 75
     1
176
     1
175
     1
176
     1
 42
1.0
176
     1
 92
        8
176
     1
 66
     7
176
     1
 43
1.0
176
     1
 76
     1
176
     1
 77
     6
176
     1
 78
     2
176
     1
 67
     7
176
     1
 79
     5
176
     1
170
     0
176
     1
171
     0
176
     1
290
     0
176
     1
 93
       13
176
     1
 44
0.0
176
     1
173
     0
176
     1
  0
VISUALSTYLE
  5
2C
102
{ACAD_REACTORS
330
2A
102
}
102
{ACAD_XDICTIONARY
360
239
102
}
330
2A
100
AcDbVisualStyle
  2
FlatWithEdges
 70
     1
177
     2
291
     1
 71
     2
176
     1
 72
     1
176
     1
 73
     1
176
     1
 90
        2
176
     1
 40
0.6
176
     1
 41
30.0
176
     1
 62
     5
 63
     7
421
 16777215
176
     1
 74
     1
176
     1
 91
        0
176
     1
 64
     7
176
     1
 65
   257
176
     1
 75
     1
176
     1
175
     1
176
     1
 42
1.0
176
     1
 92
        0
176
     1
 66
   257
176
     1
 43
1.0
176
     1
 76
     1
176
     1
 77
     6
176
     1
 78
     2
176
     1
 67
     7
176
     1
 79
     5
176
     1
170
     0
176
     1
171
     0
176
     1
290
     0
176
     1
 93
       13
176
     1
 44
0.0
176
     1
173
     0
176
     1
  0
VISUALSTYLE
  5
2D
102
{ACAD_REACTORS
330
2A
102
}
102
{ACAD_XDICTIONARY
360
23B
102
}
330
2A
100
AcDbVisualStyle
  2
Gouraud
 70
     2
177
     2
291
     1
 71
     2
176
     1
 72
     2
176
     1
 73
     1
176
     1
 90
        2
176
     1
 40
0.6
176
     1
 41
30.0
176
     1
 62
     5
 63
     7
421
 16777215
176
     1
 74
     0
176
     1
 91
        0
176
     1
 64
     7
176
     1
 65
   257
176
     1
 75
     1
176
     1
175
     1
176
     1
 42
1.0
176
     1
 92
        0
176
     1
 66
     7
176
     1
 43
1.0
176
     1
 76
     1
176
     1
 77
     6
176
     1
 78
     2
176
     1
 67
     7
176
     1
 79
     5
176
     1
170
     0
176
     1
171
     0
176
     1
290
     0
176
     1
 93
       13
176
     1
 44
0.0
176
     1
173
     0
176
     1
  0
VISUALSTYLE
  5
2E
102
{ACAD_REACTORS
330
2A
102
}
102
{ACAD_XDICTIONARY
360
23D
102
}
330
2A
100
AcDbVisualStyle
  2
GouraudWithEdges
 70
     3
177
     2
291
     1
 71
     2
176
     1
 72
     2
176
     1
 73
     1
176
     1
 90
        2
176
     1
 40
0.6
176
     1
 41
30.0
176
     1
 62
     5
 63
     7
421
 16777215
176
     1
 74
     1
176
     1
 91
        0
176
     1
 64
     7
176
     1
 65
   257
176
     1
 75
     1
176
     1
175
     1
176
     1
 42
1.0
176
     1
 92
        0
176
     1
 66
   257
176
     1
 43
1.0
176
     1
 76
     1
176
     1
 77
     6
176
     1
 78
     2
176
     1
 67
     7
176
     1
 79
     5
176
     1
170
     0
176
     1
171
     0
176
     1
290
     0
176
     1
 93
       13
176
     1
 44
0.0
176
     1
173
     0
176
     1
  0
VISUALSTYLE
  5
31
102
{ACAD_REACTORS
330
2A
102
}
102
{ACAD_XDICTIONARY
360
243
102
}
330
2A
100
AcDbVisualStyle
  2
Hidden
 70
     6
177
     2
291
     0
 71
     1
176
     1
 72
     2
176
     1
 73
     2
176
     1
 90
        0
176
     1
 40
0.6
176
     1
 41
30.0
176
     1
 62
     5
 63
     7
421
 16777215
176
     1
 74
     2
176
     1
 91
        2
176
     1
 64
     7
176
     1
 65
   257
176
     1
 75
     2
176
     1
175
     1
176
     1
 42
40.0
176
     1
 92
        0
176
     1
 66
   257
176
     1
 43
1.0
176
     1
 76
     1
176
     1
 77
     6
176
     1
 78
     2
176
     1
 67
     7
176
     1
 79
     3
176
     1
170
     0
176
     1
171
     0
176
     1
290
     0
176
     1
 93
        1
176
     1
 44
0.0
176
     1
173
     0
176
     1
  0
VISUALSTYLE
  5
3B
102
{ACAD_REACTORS
330
2A
102
}
102
{ACAD_XDICTIONARY
360
257
102
}
330
2A
100
AcDbVisualStyle
  2
JitterOff
 70
    20
177
     2
291
     1
 71
     2
176
     0
 72
     2
176
     0
 73
     0
176
     0
 90
        0
176
     0
 40
0.6
176
     0
 41
30.0
176
     0
 62
     5
 63
     7
421
 16777215
176
     0
 74
     1
176
     0
 91
        4
176
     0
 64
     7
176
     0
 65
   257
176
     0
 75
     1
176
     0
175
     1
176
     0
 42
1.0
176
     0
 92
       10
176
     2
 66
     7
176
     0
 43
1.0
176
     0
 76
     1
176
     0
 77
     6
176
     0
 78
     2
176
     0
 67
     7
176
     0
 79
     5
176
     0
170
     0
176
     0
171
     0
176
     0
290
     0
176
     0
 93
        1
176
     0
 44
0.0
176
     0
173
     0
176
     0
  0
VISUALSTYLE
  5
38
102
{ACAD_REACTORS
330
2A
102
}
102
{ACAD_XDICTIONARY
360
251
102
}
330
2A
100
AcDbVisualStyle
  2
Linepattern
 70
    14
177
     2
291
     1
 71
     2
176
     1
 72
     2
176
     1
 73
     0
176
     1
 90
        0
176
     1
 40
0.6
176
     1
 41
30.0
176
     1
 62
     5
 63
     7
421
 16777215
176
     1
 74
     1
176
     1
 91
        4
176
     1
 64
     7
176
     1
 65
   257
176
     1
 75
     7
176
     1
175
     7
176
     1
 42
1.0
176
     1
 92
        8
176
     1
 66
     7
176
     1
 43
1.0
176
     1
 76
     1
176
     1
 77
     6
176
     1
 78
     2
176
     1
 67
     7
176
     1
 79
     5
176
     1
170
     0
176
     1
171
     0
176
     1
290
     0
176
     1
 93
        1
176
     1
 44
0.0
176
     1
173
     0
176
     1
  0
VISUALSTYLE
  5
3C
102
{ACAD_REACTORS
330
2A
102
}
102
{ACAD_XDICTIONARY
360
259
102
}
330
2A
100
AcDbVisualStyle
  2
OverhangOff
 70
    21
177
     2
291
     1
 71
     2
176
     0
 72
     2
176
     0
 73
     0
176
     0
 90
        0
176
     0
 40
0.6
176
     0
 41
30.0
176
     0
 62
     5
 63
     7
421
 16777215
176
     0
 74
     1
176
     0
 91
        4
176
     0
 64
     7
176
     0
 65
   257
176
     0
 75
     1
176
     0
175
     1
176
     0
 42
1.0
176
     0
 92
        9
176
     2
 66
     7
176
     0
 43
1.0
176
     0
 76
     1
176
     0
 77
     6
176
     0
 78
     2
176
     0
 67
     7
176
     0
 79
     5
176
     0
170
     0
176
     0
171
     0
176
     0
290
     0
176
     0
 93
        1
176
     0
 44
0.0
176
     0
173
     0
176
     0
  0
VISUALSTYLE
  5
33
102
{ACAD_REACTORS
330
2A
102
}
102
{ACAD_XDICTIONARY
360
247
102
}
330
2A
100
AcDbVisualStyle
  2
Realistic
 70
     8
177
     2
291
     0
 71
     2
176
     1
 72
     3
176
     1
 73
     0
176
     1
 90
        2
176
     1
 40
0.6
176
     1
 41
30.0
176
     1
 62
     5
 63
     7
421
 16777215
176
     1
 74
     0
176
     1
 91
        0
176
     1
 64
     7
176
     1
 65
   257
176
     1
 75
     1
176
     1
175
     1
176
     1
 42
1.0
176
     1
 92
        8
176
     1
 66
   257
176
     1
 43
1.0
176
     1
 76
     1
176
     1
 77
     6
176
     1
 78
     2
176
     1
 67
     7
176
     1
 79
     3
176
     1
170
     0
176
     1
171
     0
176
     1
290
     0
176
     1
 93
       13
176
     1
 44
0.0
176
     1
173
     0
176
     1
  0
VISUALSTYLE
  5
42
102
{ACAD_REACTORS
330
2A
102
}
102
{ACAD_XDICTIONARY
360
265
102
}
330
2A
100
AcDbVisualStyle
  2
Shaded
 70
    27
177
     2
291
     0
 71
     2
176
     1
 72
     2
176
     1
 73
     1
176
     1
 90
        2
176
     1
 40
0.6
176
     1
 41
30.0
176
     1
 62
     5
 63
     7
421
 16777215
176
     1
 74
     0
176
     1
 91
        4
176
     1
 64
     7
176
     1
 65
   257
176
     1
 75
     1
176
     1
175
     1
176
     1
 42
1.0
176
     1
 92
        8
176
     1
 66
   257
176
     1
 43
1.0
176
     1
 76
     1
176
     1
 77
     6
176
     1
 78
     2
176
     1
 67
     8
425
  7895160
176
     1
 79
     3
176
     1
170
     0
176
     1
171
     0
176
     1
290
     0
176
     1
 93
        5
176
     1
 44
0.0
176
     1
173
     0
176
     1
  0
VISUALSTYLE
  5
41
102
{ACAD_REACTORS
330
2A
102
}
102
{ACAD_XDICTIONARY
360
263
102
}
330
2A
100
AcDbVisualStyle
  2
Shaded with edges
 70
    26
177
     2
291
     0
 71
     2
176
     1
 72
     2
176
     1
 73
     1
176
     1
 90
        2
176
     1
 40
0.6
176
     1
 41
30.0
176
     1
 62
     5
 63
     7
421
 16777215
176
     1
 74
     1
176
     1
 91
       10
176
     1
 64
     7
176
     1
 65
   257
176
     1
 75
     2
176
     1
175
     1
176
     1
 42
1.0
176
     1
 92
        8
176
     1
 66
   257
176
     1
 43
1.0
176
     1
 76
     1
176
     1
 77
     6
176
     1
 78
     2
176
     1
 67
     7
176
     1
 79
     3
176
     1
170
     0
176
     1
171
     0
176
     1
290
     0
176
     1
 93
        5
176
     1
 44
0.0
176
     1
173
     0
176
     1
  0
VISUALSTYLE
  5
3E
102
{ACAD_REACTORS
330
2A
102
}
102
{ACAD_XDICTIONARY
360
25D
102
}
330
2A
100
AcDbVisualStyle
  2
Shades of Gray
 70
    23
177
     2
291
     0
 71
     2
176
     1
 72
     2
176
     1
 73
     3
176
     1
 90
        0
176
     1
 40
0.6
176
     1
 41
30.0
176
     1
 62
     5
 63
     7
421
 16777215
176
     1
 74
     2
176
     1
 91
        2
176
     1
 64
     7
176
     1
 65
     7
176
     1
 75
     1
176
     1
175
     1
176
     1
 42
40.0
176
     1
 92
        8
176
     1
 66
     7
176
     1
 43
1.0
176
     1
 76
     1
176
     1
 77
     6
176
     1
 78
     2
176
     1
 67
     7
176
     1
 79
     3
176
     1
170
     0
176
     1
171
     0
176
     1
290
     0
176
     1
 93
        1
176
     1
 44
0.0
176
     1
173
     0
176
     1
  0
VISUALSTYLE
  5
3F
102
{ACAD_REACTORS
330
2A
102
}
102
{ACAD_XDICTIONARY
360
25F
102
}
330
2A
100
AcDbVisualStyle
  2
Sketchy
 70
    24
177
     2
291
     0
 71
     1
176
     1
 72
     2
176
     1
 73
     2
176
     1
 90
        0
176
     1
 40
0.6
176
     1
 41
30.0
176
     1
 62
     5
 63
     7
421
 16777215
176
     1
 74
     2
176
     1
 91
        2
176
     1
 64
     7
176
     1
 65
     7
176
     1
 75
     1
176
     1
175
     1
176
     1
 42
40.0
176
     1
 92
       11
176
     1
 66
     7
176
     1
 43
1.0
176
     1
 76
     1
176
     1
 77
     6
176
     1
 78
     2
176
     1
 67
     7
176
     1
 79
     6
176
     1
170
     0
176
     1
171
     0
176
     1
290
     0
176
     1
 93
        1
176
     1
 44
0.0
176
     1
173
     0
176
     1
  0
VISUALSTYLE
  5
37
102
{ACAD_REACTORS
330
2A
102
}
102
{ACAD_XDICTIONARY
360
24F
102
}
330
2A
100
AcDbVisualStyle
  2
Thicken
 70
    13
177
     2
291
     1
 71
     2
176
     1
 72
     2
176
     1
 73
     0
176
     1
 90
        0
176
     1
 40
0.6
176
     1
 41
30.0
176
     1
 62
     5
 63
     7
421
 16777215
176
     1
 74
     1
176
     1
 91
        4
176
     1
 64
     7
176
     1
 65
   257
176
     1
 75
     1
176
     1
175
     1
176
     1
 42
1.0
176
     1
 92
       12
176
     1
 66
     7
176
     1
 43
1.0
176
     1
 76
     1
176
     1
 77
     6
176
     1
 78
     2
176
     1
 67
     7
176
     1
 79
     5
176
     1
170
     0
176
     1
171
     0
176
     1
290
     0
176
     1
 93
        1
176
     1
 44
0.0
176
     1
173
     0
176
     1
  0
VISUALSTYLE
  5
30
102
{ACAD_REACTORS
330
2A
102
}
102
{ACAD_XDICTIONARY
360
241
102
}
330
2A
100
AcDbVisualStyle
  2
Wireframe
 70
     5
177
     2
291
     0
 71
     0
176
     1
 72
     2
176
     1
 73
     0
176
     1
 90
        0
176
     1
 40
0.6
176
     1
 41
30.0
176
     1
 62
     5
 63
     7
421
 16777215
176
     1
 74
     1
176
     1
 91
        4
176
     1
 64
     7
176
     1
 65
   257
176
     1
 75
     1
176
     1
175
     1
176
     1
 42
1.0
176
     1
 92
        0
176
     1
 66
   257
176
     1
 43
1.0
176
     1
 76
     1
176
     1
 77
     6
176
     1
 78
     2
176
     1
 67
     7
176
     1
 79
     3
176
     1
170
     0
176
     1
171
     0
176
     1
290
     0
176
     1
 93
        1
176
     1
 44
0.0
176
     1
173
     0
176
     1
  0
VISUALSTYLE
  5
40
102
{ACAD_REACTORS
330
2A
102
}
102
{ACAD_XDICTIONARY
360
261
102
}
330
2A
100
AcDbVisualStyle
  2
X-Ray
 70
    25
177
     2
291
     0
 71
     2
176
     1
 72
     2
176
     1
 73
     1
176
     1
 90
        1
176
     1
 40
0.5
176
     1
 41
30.0
176
     1
 62
     5
 63
     7
421
 16777215
176
     1
 74
     1
176
     1
 91
        0
176
     1
 64
     7
176
     1
 65
   257
176
     1
 75
     1
176
     1
175
     1
176
     1
 42
1.0
176
     1
 92
        8
176
     1
 66
     7
176
     1
 43
1.0
176
     1
 76
     1
176
     1
 77
     6
176
     1
 78
     2
176
     1
 67
     7
176
     1
 79
     3
176
     1
170
     0
176
     1
171
     0
176
     1
290
     0
176
     1
 93
       13
176
     1
 44
0.0
176
     1
173
     0
176
     1
  0
DICTIONARYVAR
  5
236
102
{ACAD_REACTORS
330
235
102
}
330
235
100
DictionaryVariables
280
     0
  1
1:1
  0
DICTIONARYVAR
  5
26E
102
{ACAD_REACTORS
330
235
102
}
330
235
100
DictionaryVariables
280
     0
  1
3.500000
  0
DICTIONARYVAR
  5
26F
102
{ACAD_REACTORS
330
235
102
}
330
235
100
DictionaryVariables
280
     0
  1
acadiso.lin
  0
DICTIONARYVAR
  5
26B
102
{ACAD_REACTORS
330
235
102
}
330
235
100
DictionaryVariables
280
     0
  1
Standard
  0
DICTIONARYVAR
  5
26A
102
{ACAD_REACTORS
330
235
102
}
330
235
100
DictionaryVariables
280
     0
  1
Standard
  0
DICTIONARY
  5
267
330
6A
100
AcDbDictionary
280
     1
281
     1
  3
ACAD_ROUNDTRIP_2008_TABLESTYLE_CELLSTYLEMAP
360
268
  0
DICTIONARY
  5
23F
330
2F
100
AcDbDictionary
280
     1
281
     1
  3
ACAD_XREC_ROUNDTRIP
360
240
  0
DICTIONARY
  5
245
330
32
100
AcDbDictionary
280
     1
281
     1
  3
ACAD_XREC_ROUNDTRIP
360
246
  0
DICTIONARY
  5
24D
330
36
100
AcDbDictionary
280
     1
281
     1
  3
ACAD_XREC_ROUNDTRIP
360
24E
  0
DICTIONARY
  5
255
330
3A
100
AcDbDictionary
280
     1
281
     1
  3
ACAD_XREC_ROUNDTRIP
360
256
  0
DICTIONARY
  5
249
330
34
100
AcDbDictionary
280
     1
281
     1
  3
ACAD_XREC_ROUNDTRIP
360
24A
  0
DICTIONARY
  5
24B
330
35
100
AcDbDictionary
280
     1
281
     1
  3
ACAD_XREC_ROUNDTRIP
360
24C
  0
DICTIONARY
  5
25B
330
3D
100
AcDbDictionary
280
     1
281
     1
  3
ACAD_XREC_ROUNDTRIP
360
25C
  0
DICTIONARY
  5
253
330
39
100
AcDbDictionary
280
     1
281
     1
  3
ACAD_XREC_ROUNDTRIP
360
254
  0
DICTIONARY
  5
237
330
2B
100
AcDbDictionary
280
     1
281
     1
  3
ACAD_XREC_ROUNDTRIP
360
238
  0
DICTIONARY
  5
239
330
2C
100
AcDbDictionary
280
     1
281
     1
  3
ACAD_XREC_ROUNDTRIP
360
23A
  0
DICTIONARY
  5
23B
330
2D
100
AcDbDictionary
280
     1
281
     1
  3
ACAD_XREC_ROUNDTRIP
360
23C
  0
DICTIONARY
  5
23D
330
2E
100
AcDbDictionary
280
     1
281
     1
  3
ACAD_XREC_ROUNDTRIP
360
23E
  0
DICTIONARY
  5
243
330
31
100
AcDbDictionary
280
     1
281
     1
  3
ACAD_XREC_ROUNDTRIP
360
244
  0
DICTIONARY
  5
257
330
3B
100
AcDbDictionary
280
     1
281
     1
  3
ACAD_XREC_ROUNDTRIP
360
258
  0
DICTIONARY
  5
251
330
38
100
AcDbDictionary
280
     1
281
     1
  3
ACAD_XREC_ROUNDTRIP
360
252
  0
DICTIONARY
  5
259
330
3C
100
AcDbDictionary
280
     1
281
     1
  3
ACAD_XREC_ROUNDTRIP
360
25A
  0
DICTIONARY
  5
247
330
33
100
AcDbDictionary
280
     1
281
     1
  3
ACAD_XREC_ROUNDTRIP
360
248
  0
DICTIONARY
  5
265
330
42
100
AcDbDictionary
280
     1
281
     1
  3
ACAD_XREC_ROUNDTRIP
360
266
  0
DICTIONARY
  5
263
330
41
100
AcDbDictionary
280
     1
281
     1
  3
ACAD_XREC_ROUNDTRIP
360
264
  0
DICTIONARY
  5
25D
330
3E
100
AcDbDictionary
280
     1
281
     1
  3
ACAD_XREC_ROUNDTRIP
360
25E
  0
DICTIONARY
  5
25F
330
3F
100
AcDbDictionary
280
     1
281
     1
  3
ACAD_XREC_ROUNDTRIP
360
260
  0
DICTIONARY
  5
24F
330
37
100
AcDbDictionary
280
     1
281
     1
  3
ACAD_XREC_ROUNDTRIP
360
250
  0
DICTIONARY
  5
241
330
30
100
AcDbDictionary
280
     1
281
     1
  3
ACAD_XREC_ROUNDTRIP
360
242
  0
DICTIONARY
  5
261
330
40
100
AcDbDictionary
280
     1
281
     1
  3
ACAD_XREC_ROUNDTRIP
360
262
  0
CELLSTYLEMAP
  5
268
102
{ACAD_REACTORS
330
267
102
}
330
267
100
AcDbCellStyleMap
 90
        3
300
CELLSTYLE
  1
TABLEFORMAT_BEGIN
 90
        5
170
     1
 91
        0
 92
    32768
 62
   257
 93
        1
300
CONTENTFORMAT
  1
CONTENTFORMAT_BEGIN
 90
        0
 91
        0
 92
        4
 93
        0
300

 40
0.0
140
1.0
 94
        5
 62
     0
340
11
144
6.0
309
CONTENTFORMAT_END
171
     1
301
MARGIN
  1
CELLMARGIN_BEGIN
 40
1.5
 40
1.5
 40
1.5
 40
1.5
 40
1.5
 40
1.5
309
CELLMARGIN_END
 94
        6
 95
        1
302
GRIDFORMAT
  1
GRIDFORMAT_BEGIN
 90
        0
 91
        1
 62
     0
 92
       -2
340
14
 93
        0
 40
0.045
309
GRIDFORMAT_END
 95
        2
302
GRIDFORMAT
  1
GRIDFORMAT_BEGIN
 90
        0
 91
        1
 62
     0
 92
       -2
340
14
 93
        0
 40
0.045
309
GRIDFORMAT_END
 95
        4
302
GRIDFORMAT
  1
GRIDFORMAT_BEGIN
 90
        0
 91
        1
 62
     0
 92
       -2
340
14
 93
        0
 40
0.045
309
GRIDFORMAT_END
 95
        8
302
GRIDFORMAT
  1
GRIDFORMAT_BEGIN
 90
        0
 91
        1
 62
     0
 92
       -2
340
14
 93
        0
 40
0.045
309
GRIDFORMAT_END
 95
       16
302
GRIDFORMAT
  1
GRIDFORMAT_BEGIN
 90
        0
 91
        1
 62
     0
 92
       -2
340
14
 93
        0
 40
0.045
309
GRIDFORMAT_END
 95
       32
302
GRIDFORMAT
  1
GRIDFORMAT_BEGIN
 90
        0
 91
        1
 62
     0
 92
       -2
340
14
 93
        0
 40
0.045
309
GRIDFORMAT_END
309
TABLEFORMAT_END
  1
CELLSTYLE_BEGIN
 90
        1
 91
        1
300
_TITLE
309
CELLSTYLE_END
300
CELLSTYLE
  1
TABLEFORMAT_BEGIN
 90
        5
170
     1
 91
        0
 92
        0
 62
   257
 93
        1
300
CONTENTFORMAT
  1
CONTENTFORMAT_BEGIN
 90
        0
 91
        0
 92
        4
 93
        0
300

 40
0.0
140
1.0
 94
        5
 62
     0
340
11
144
4.5
309
CONTENTFORMAT_END
171
     1
301
MARGIN
  1
CELLMARGIN_BEGIN
 40
1.5
 40
1.5
 40
1.5
 40
1.5
 40
1.5
 40
1.5
309
CELLMARGIN_END
 94
        6
 95
        1
302
GRIDFORMAT
  1
GRIDFORMAT_BEGIN
 90
        0
 91
        1
 62
     0
 92
       -2
340
14
 93
        0
 40
0.045
309
GRIDFORMAT_END
 95
        2
302
GRIDFORMAT
  1
GRIDFORMAT_BEGIN
 90
        0
 91
        1
 62
     0
 92
       -2
340
14
 93
        0
 40
0.045
309
GRIDFORMAT_END
 95
        4
302
GRIDFORMAT
  1
GRIDFORMAT_BEGIN
 90
        0
 91
        1
 62
     0
 92
       -2
340
14
 93
        0
 40
0.045
309
GRIDFORMAT_END
 95
        8
302
GRIDFORMAT
  1
GRIDFORMAT_BEGIN
 90
        0
 91
        1
 62
     0
 92
       -2
340
14
 93
        0
 40
0.045
309
GRIDFORMAT_END
 95
       16
302
GRIDFORMAT
  1
GRIDFORMAT_BEGIN
 90
        0
 91
        1
 62
     0
 92
       -2
340
14
 93
        0
 40
0.045
309
GRIDFORMAT_END
 95
       32
302
GRIDFORMAT
  1
GRIDFORMAT_BEGIN
 90
        0
 91
        1
 62
     0
 92
       -2
340
14
 93
        0
 40
0.045
309
GRIDFORMAT_END
309
TABLEFORMAT_END
  1
CELLSTYLE_BEGIN
 90
        2
 91
        1
300
_HEADER
309
CELLSTYLE_END
300
CELLSTYLE
  1
TABLEFORMAT_BEGIN
 90
        5
170
     1
 91
        0
 92
        0
 62
   257
 93
        1
300
CONTENTFORMAT
  1
CONTENTFORMAT_BEGIN
 90
        0
 91
        0
 92
        4
 93
        0
300

 40
0.0
140
1.0
 94
        2
 62
     0
340
11
144
4.5
309
CONTENTFORMAT_END
171
     1
301
MARGIN
  1
CELLMARGIN_BEGIN
 40
1.5
 40
1.5
 40
1.5
 40
1.5
 40
1.5
 40
1.5
309
CELLMARGIN_END
 94
        6
 95
        1
302
GRIDFORMAT
  1
GRIDFORMAT_BEGIN
 90
        0
 91
        1
 62
     0
 92
       -2
340
14
 93
        0
 40
0.045
309
GRIDFORMAT_END
 95
        2
302
GRIDFORMAT
  1
GRIDFORMAT_BEGIN
 90
        0
 91
        1
 62
     0
 92
       -2
340
14
 93
        0
 40
0.045
309
GRIDFORMAT_END
 95
        4
302
GRIDFORMAT
  1
GRIDFORMAT_BEGIN
 90
        0
 91
        1
 62
     0
 92
       -2
340
14
 93
        0
 40
0.045
309
GRIDFORMAT_END
 95
        8
302
GRIDFORMAT
  1
GRIDFORMAT_BEGIN
 90
        0
 91
        1
 62
     0
 92
       -2
340
14
 93
        0
 40
0.045
309
GRIDFORMAT_END
 95
       16
302
GRIDFORMAT
  1
GRIDFORMAT_BEGIN
 90
        0
 91
        1
 62
     0
 92
       -2
340
14
 93
        0
 40
0.045
309
GRIDFORMAT_END
 95
       32
302
GRIDFORMAT
  1
GRIDFORMAT_BEGIN
 90
        0
 91
        1
 62
     0
 92
       -2
340
14
 93
        0
 40
0.045
309
GRIDFORMAT_END
309
TABLEFORMAT_END
  1
CELLSTYLE_BEGIN
 90
        3
 91
        2
300
_DATA
309
CELLSTYLE_END
  0
XRECORD
  5
240
102
{ACAD_REACTORS
330
23F
102
}
330
23F
100
AcDbXrecord
280
     1
102
RTVSPost2010Prop28
280
     1
102
RTVSPost2010PropOp28
 70
     1
102
RTVSPost2010Prop29
280
     1
102
RTVSPost2010PropOp29
 70
     1
102
RTVSPost2010Prop30
280
     0
102
RTVSPost2010PropOp30
 70
     1
102
RTVSPost2010Prop31
280
     0
102
RTVSPost2010PropOp31
 70
     1
102
RTVSPost2010Prop32
280
     0
102
RTVSPost2010PropOp32
 70
     1
102
RTVSPost2010Prop33
280
     0
102
RTVSPost2010PropOp33
 70
     1
102
RTVSPost2010Prop34
280
     0
102
RTVSPost2010PropOp34
 70
     1
102
RTVSPost2010Prop35
280
     0
102
RTVSPost2010PropOp35
 70
     1
102
RTVSPost2010Prop36
280
     0
102
RTVSPost2010PropOp36
 70
     1
102
RTVSPost2010Prop37
 90
       50
102
RTVSPost2010PropOp37
 70
     1
102
RTVSPost2010Prop38
140
0.0
102
RTVSPost2010PropOp38
 70
     1
102
RTVSPost2010Prop39
140
1.0
102
RTVSPost2010PropOp39
 70
     1
102
RTVSPost2010Prop40
 90
        0
102
RTVSPost2010PropOp40
 70
     1
102
RTVSPost2010Prop41ColorIndex
 90
       18
102
RTVSPost2010Prop41ColorRGB
 90
        0
102
RTVSPost2010PropOp41
 70
     1
102
RTVSPost2010Prop42
 90
       50
102
RTVSPost2010PropOp42
 70
     1
102
RTVSPost2010Prop43
 90
        3
102
RTVSPost2010PropOp43
 70
     1
102
RTVSPost2010Prop44ColorIndex
 90
        5
102
RTVSPost2010Prop44ColorRGB
 90
      255
102
RTVSPost2010PropOp44
 70
     1
102
RTVSPost2010Prop45
280
     0
102
RTVSPost2010PropOp45
 70
     1
102
RTVSPost2010Prop46
 90
       50
102
RTVSPost2010PropOp46
 70
     1
102
RTVSPost2010Prop47
 90
       50
102
RTVSPost2010PropOp47
 70
     1
102
RTVSPost2010Prop48
 90
       50
102
RTVSPost2010PropOp48
 70
     1
102
RTVSPost2010Prop49
280
     0
102
RTVSPost2010PropOp49
 70
     1
102
RTVSPost2010Prop50
 90
       50
102
RTVSPost2010PropOp50
 70
     1
102
RTVSPost2010Prop51ColorIndex
 90
      256
102
RTVSPost2010Prop51ColorRGB
 90
-16777216
102
RTVSPost2010PropOp51
 70
     0
102
RTVSPost2010Prop52
140
1.0
102
RTVSPost2010PropOp52
 70
     0
102
RTVSPost2010Prop53
 90
        2
102
RTVSPost2010PropOp53
 70
     1
102
RTVSPost2010Prop54
  1
strokes_ogs.tif
102
RTVSPost2010PropOp54
 70
     1
102
RTVSPost2010Prop55
280
     0
102
RTVSPost2010PropOp55
 70
     1
102
RTVSPost2010Prop56
140
1.0
102
RTVSPost2010PropOp56
 70
     1
102
RTVSPost2010Prop57
140
1.0
102
RTVSPost2010PropOp57
 70
     1
  0
XRECORD
  5
246
102
{ACAD_REACTORS
330
245
102
}
330
245
100
AcDbXrecord
280
     1
102
RTVSPost2010Prop28
280
     0
102
RTVSPost2010PropOp28
 70
     1
102
RTVSPost2010Prop29
280
     1
102
RTVSPost2010PropOp29
 70
     1
102
RTVSPost2010Prop30
280
     1
102
RTVSPost2010PropOp30
 70
     1
102
RTVSPost2010Prop31
280
     0
102
RTVSPost2010PropOp31
 70
     1
102
RTVSPost2010Prop32
280
     0
102
RTVSPost2010PropOp32
 70
     1
102
RTVSPost2010Prop33
280
     0
102
RTVSPost2010PropOp33
 70
     1
102
RTVSPost2010Prop34
280
     0
102
RTVSPost2010PropOp34
 70
     1
102
RTVSPost2010Prop35
280
     0
102
RTVSPost2010PropOp35
 70
     1
102
RTVSPost2010Prop36
280
     0
102
RTVSPost2010PropOp36
 70
     1
102
RTVSPost2010Prop37
 90
       50
102
RTVSPost2010PropOp37
 70
     1
102
RTVSPost2010Prop38
140
0.0
102
RTVSPost2010PropOp38
 70
     1
102
RTVSPost2010Prop39
140
1.0
102
RTVSPost2010PropOp39
 70
     1
102
RTVSPost2010Prop40
 90
        0
102
RTVSPost2010PropOp40
 70
     1
102
RTVSPost2010Prop41ColorIndex
 90
       18
102
RTVSPost2010Prop41ColorRGB
 90
        0
102
RTVSPost2010PropOp41
 70
     1
102
RTVSPost2010Prop42
 90
       50
102
RTVSPost2010PropOp42
 70
     1
102
RTVSPost2010Prop43
 90
        3
102
RTVSPost2010PropOp43
 70
     1
102
RTVSPost2010Prop44ColorIndex
 90
        5
102
RTVSPost2010Prop44ColorRGB
 90
      255
102
RTVSPost2010PropOp44
 70
     1
102
RTVSPost2010Prop45
280
     0
102
RTVSPost2010PropOp45
 70
     1
102
RTVSPost2010Prop46
 90
       50
102
RTVSPost2010PropOp46
 70
     1
102
RTVSPost2010Prop47
 90
       50
102
RTVSPost2010PropOp47
 70
     1
102
RTVSPost2010Prop48
 90
       50
102
RTVSPost2010PropOp48
 70
     1
102
RTVSPost2010Prop49
280
     0
102
RTVSPost2010PropOp49
 70
     1
102
RTVSPost2010Prop50
 90
       50
102
RTVSPost2010PropOp50
 70
     1
102
RTVSPost2010Prop51ColorIndex
 90
      256
102
RTVSPost2010Prop51ColorRGB
 90
-16777216
102
RTVSPost2010PropOp51
 70
     0
102
RTVSPost2010Prop52
140
1.0
102
RTVSPost2010PropOp52
 70
     0
102
RTVSPost2010Prop53
 90
        2
102
RTVSPost2010PropOp53
 70
     1
102
RTVSPost2010Prop54
  1
strokes_ogs.tif
102
RTVSPost2010PropOp54
 70
     1
102
RTVSPost2010Prop55
280
     0
102
RTVSPost2010PropOp55
 70
     1
102
RTVSPost2010Prop56
140
1.0
102
RTVSPost2010PropOp56
 70
     1
102
RTVSPost2010Prop57
140
1.0
102
RTVSPost2010PropOp57
 70
     1
  0
XRECORD
  5
24E
102
{ACAD_REACTORS
330
24D
102
}
330
24D
100
AcDbXrecord
280
     1
102
RTVSPost2010Prop28
280
     0
102
RTVSPost2010PropOp28
 70
     1
102
RTVSPost2010Prop29
280
     1
102
RTVSPost2010PropOp29
 70
     1
102
RTVSPost2010Prop30
280
     1
102
RTVSPost2010PropOp30
 70
     1
102
RTVSPost2010Prop31
280
     0
102
RTVSPost2010PropOp31
 70
     1
102
RTVSPost2010Prop32
280
     0
102
RTVSPost2010PropOp32
 70
     1
102
RTVSPost2010Prop33
280
     0
102
RTVSPost2010PropOp33
 70
     1
102
RTVSPost2010Prop34
280
     0
102
RTVSPost2010PropOp34
 70
     1
102
RTVSPost2010Prop35
280
     0
102
RTVSPost2010PropOp35
 70
     1
102
RTVSPost2010Prop36
280
     0
102
RTVSPost2010PropOp36
 70
     1
102
RTVSPost2010Prop37
 90
       50
102
RTVSPost2010PropOp37
 70
     1
102
RTVSPost2010Prop38
140
0.0
102
RTVSPost2010PropOp38
 70
     1
102
RTVSPost2010Prop39
140
1.0
102
RTVSPost2010PropOp39
 70
     1
102
RTVSPost2010Prop40
 90
        0
102
RTVSPost2010PropOp40
 70
     1
102
RTVSPost2010Prop41ColorIndex
 90
       18
102
RTVSPost2010Prop41ColorRGB
 90
        0
102
RTVSPost2010PropOp41
 70
     1
102
RTVSPost2010Prop42
 90
       50
102
RTVSPost2010PropOp42
 70
     1
102
RTVSPost2010Prop43
 90
        3
102
RTVSPost2010PropOp43
 70
     1
102
RTVSPost2010Prop44ColorIndex
 90
        5
102
RTVSPost2010Prop44ColorRGB
 90
      255
102
RTVSPost2010PropOp44
 70
     1
102
RTVSPost2010Prop45
280
     0
102
RTVSPost2010PropOp45
 70
     1
102
RTVSPost2010Prop46
 90
       50
102
RTVSPost2010PropOp46
 70
     1
102
RTVSPost2010Prop47
 90
       50
102
RTVSPost2010PropOp47
 70
     1
102
RTVSPost2010Prop48
 90
       50
102
RTVSPost2010PropOp48
 70
     1
102
RTVSPost2010Prop49
280
     0
102
RTVSPost2010PropOp49
 70
     1
102
RTVSPost2010Prop50
 90
       50
102
RTVSPost2010PropOp50
 70
     1
102
RTVSPost2010Prop51ColorIndex
 90
      256
102
RTVSPost2010Prop51ColorRGB
 90
-16777216
102
RTVSPost2010PropOp51
 70
     0
102
RTVSPost2010Prop52
140
1.0
102
RTVSPost2010PropOp52
 70
     0
102
RTVSPost2010Prop53
 90
        2
102
RTVSPost2010PropOp53
 70
     1
102
RTVSPost2010Prop54
  1
strokes_ogs.tif
102
RTVSPost2010PropOp54
 70
     1
102
RTVSPost2010Prop55
280
     0
102
RTVSPost2010PropOp55
 70
     1
102
RTVSPost2010Prop56
140
1.0
102
RTVSPost2010PropOp56
 70
     1
102
RTVSPost2010Prop57
140
1.0
102
RTVSPost2010PropOp57
 70
     1
  0
XRECORD
  5
256
102
{ACAD_REACTORS
330
255
102
}
330
255
100
AcDbXrecord
280
     1
102
RTVSPost2010Prop28
280
     0
102
RTVSPost2010PropOp28
 70
     1
102
RTVSPost2010Prop29
280
     1
102
RTVSPost2010PropOp29
 70
     1
102
RTVSPost2010Prop30
280
     1
102
RTVSPost2010PropOp30
 70
     1
102
RTVSPost2010Prop31
280
     0
102
RTVSPost2010PropOp31
 70
     1
102
RTVSPost2010Prop32
280
     0
102
RTVSPost2010PropOp32
 70
     1
102
RTVSPost2010Prop33
280
     0
102
RTVSPost2010PropOp33
 70
     1
102
RTVSPost2010Prop34
280
     0
102
RTVSPost2010PropOp34
 70
     1
102
RTVSPost2010Prop35
280
     0
102
RTVSPost2010PropOp35
 70
     1
102
RTVSPost2010Prop36
280
     0
102
RTVSPost2010PropOp36
 70
     1
102
RTVSPost2010Prop37
 90
       50
102
RTVSPost2010PropOp37
 70
     1
102
RTVSPost2010Prop38
140
0.0
102
RTVSPost2010PropOp38
 70
     1
102
RTVSPost2010Prop39
140
1.0
102
RTVSPost2010PropOp39
 70
     1
102
RTVSPost2010Prop40
 90
        0
102
RTVSPost2010PropOp40
 70
     1
102
RTVSPost2010Prop41ColorIndex
 90
       18
102
RTVSPost2010Prop41ColorRGB
 90
        0
102
RTVSPost2010PropOp41
 70
     1
102
RTVSPost2010Prop42
 90
       50
102
RTVSPost2010PropOp42
 70
     1
102
RTVSPost2010Prop43
 90
        3
102
RTVSPost2010PropOp43
 70
     1
102
RTVSPost2010Prop44ColorIndex
 90
        5
102
RTVSPost2010Prop44ColorRGB
 90
      255
102
RTVSPost2010PropOp44
 70
     1
102
RTVSPost2010Prop45
280
     0
102
RTVSPost2010PropOp45
 70
     1
102
RTVSPost2010Prop46
 90
       50
102
RTVSPost2010PropOp46
 70
     1
102
RTVSPost2010Prop47
 90
       50
102
RTVSPost2010PropOp47
 70
     1
102
RTVSPost2010Prop48
 90
       50
102
RTVSPost2010PropOp48
 70
     1
102
RTVSPost2010Prop49
280
     0
102
RTVSPost2010PropOp49
 70
     1
102
RTVSPost2010Prop50
 90
       50
102
RTVSPost2010PropOp50
 70
     1
102
RTVSPost2010Prop51ColorIndex
 90
      256
102
RTVSPost2010Prop51ColorRGB
 90
-16777216
102
RTVSPost2010PropOp51
 70
     0
102
RTVSPost2010Prop52
140
1.0
102
RTVSPost2010PropOp52
 70
     0
102
RTVSPost2010Prop53
 90
        2
102
RTVSPost2010PropOp53
 70
     1
102
RTVSPost2010Prop54
  1
strokes_ogs.tif
102
RTVSPost2010PropOp54
 70
     1
102
RTVSPost2010Prop55
280
     0
102
RTVSPost2010PropOp55
 70
     1
102
RTVSPost2010Prop56
140
1.0
102
RTVSPost2010PropOp56
 70
     1
102
RTVSPost2010Prop57
140
1.0
102
RTVSPost2010PropOp57
 70
     1
  0
XRECORD
  5
24A
102
{ACAD_REACTORS
330
249
102
}
330
249
100
AcDbXrecord
280
     1
102
RTVSPost2010Prop28
280
     0
102
RTVSPost2010PropOp28
 70
     1
102
RTVSPost2010Prop29
280
     1
102
RTVSPost2010PropOp29
 70
     1
102
RTVSPost2010Prop30
280
     1
102
RTVSPost2010PropOp30
 70
     1
102
RTVSPost2010Prop31
280
     0
102
RTVSPost2010PropOp31
 70
     1
102
RTVSPost2010Prop32
280
     0
102
RTVSPost2010PropOp32
 70
     1
102
RTVSPost2010Prop33
280
     0
102
RTVSPost2010PropOp33
 70
     1
102
RTVSPost2010Prop34
280
     0
102
RTVSPost2010PropOp34
 70
     1
102
RTVSPost2010Prop35
280
     0
102
RTVSPost2010PropOp35
 70
     1
102
RTVSPost2010Prop36
280
     0
102
RTVSPost2010PropOp36
 70
     1
102
RTVSPost2010Prop37
 90
       50
102
RTVSPost2010PropOp37
 70
     1
102
RTVSPost2010Prop38
140
0.0
102
RTVSPost2010PropOp38
 70
     1
102
RTVSPost2010Prop39
140
1.0
102
RTVSPost2010PropOp39
 70
     1
102
RTVSPost2010Prop40
 90
        0
102
RTVSPost2010PropOp40
 70
     1
102
RTVSPost2010Prop41ColorIndex
 90
       18
102
RTVSPost2010Prop41ColorRGB
 90
        0
102
RTVSPost2010PropOp41
 70
     1
102
RTVSPost2010Prop42
 90
       50
102
RTVSPost2010PropOp42
 70
     1
102
RTVSPost2010Prop43
 90
        3
102
RTVSPost2010PropOp43
 70
     1
102
RTVSPost2010Prop44ColorIndex
 90
        5
102
RTVSPost2010Prop44ColorRGB
 90
      255
102
RTVSPost2010PropOp44
 70
     1
102
RTVSPost2010Prop45
280
     0
102
RTVSPost2010PropOp45
 70
     1
102
RTVSPost2010Prop46
 90
       50
102
RTVSPost2010PropOp46
 70
     1
102
RTVSPost2010Prop47
 90
       50
102
RTVSPost2010PropOp47
 70
     1
102
RTVSPost2010Prop48
 90
       50
102
RTVSPost2010PropOp48
 70
     1
102
RTVSPost2010Prop49
280
     0
102
RTVSPost2010PropOp49
 70
     1
102
RTVSPost2010Prop50
 90
       50
102
RTVSPost2010PropOp50
 70
     1
102
RTVSPost2010Prop51ColorIndex
 90
      256
102
RTVSPost2010Prop51ColorRGB
 90
-16777216
102
RTVSPost2010PropOp51
 70
     0
102
RTVSPost2010Prop52
140
1.0
102
RTVSPost2010PropOp52
 70
     0
102
RTVSPost2010Prop53
 90
        2
102
RTVSPost2010PropOp53
 70
     1
102
RTVSPost2010Prop54
  1
strokes_ogs.tif
102
RTVSPost2010PropOp54
 70
     1
102
RTVSPost2010Prop55
280
     0
102
RTVSPost2010PropOp55
 70
     1
102
RTVSPost2010Prop56
140
1.0
102
RTVSPost2010PropOp56
 70
     1
102
RTVSPost2010Prop57
140
1.0
102
RTVSPost2010PropOp57
 70
     1
  0
XRECORD
  5
24C
102
{ACAD_REACTORS
330
24B
102
}
330
24B
100
AcDbXrecord
280
     1
102
RTVSPost2010Prop28
280
     0
102
RTVSPost2010PropOp28
 70
     1
102
RTVSPost2010Prop29
280
     1
102
RTVSPost2010PropOp29
 70
     1
102
RTVSPost2010Prop30
280
     1
102
RTVSPost2010PropOp30
 70
     1
102
RTVSPost2010Prop31
280
     0
102
RTVSPost2010PropOp31
 70
     1
102
RTVSPost2010Prop32
280
     0
102
RTVSPost2010PropOp32
 70
     1
102
RTVSPost2010Prop33
280
     0
102
RTVSPost2010PropOp33
 70
     1
102
RTVSPost2010Prop34
280
     0
102
RTVSPost2010PropOp34
 70
     1
102
RTVSPost2010Prop35
280
     0
102
RTVSPost2010PropOp35
 70
     1
102
RTVSPost2010Prop36
280
     0
102
RTVSPost2010PropOp36
 70
     1
102
RTVSPost2010Prop37
 90
       50
102
RTVSPost2010PropOp37
 70
     1
102
RTVSPost2010Prop38
140
0.0
102
RTVSPost2010PropOp38
 70
     1
102
RTVSPost2010Prop39
140
1.0
102
RTVSPost2010PropOp39
 70
     1
102
RTVSPost2010Prop40
 90
        0
102
RTVSPost2010PropOp40
 70
     1
102
RTVSPost2010Prop41ColorIndex
 90
       18
102
RTVSPost2010Prop41ColorRGB
 90
        0
102
RTVSPost2010PropOp41
 70
     1
102
RTVSPost2010Prop42
 90
       50
102
RTVSPost2010PropOp42
 70
     1
102
RTVSPost2010Prop43
 90
        3
102
RTVSPost2010PropOp43
 70
     1
102
RTVSPost2010Prop44ColorIndex
 90
        5
102
RTVSPost2010Prop44ColorRGB
 90
      255
102
RTVSPost2010PropOp44
 70
     1
102
RTVSPost2010Prop45
280
     0
102
RTVSPost2010PropOp45
 70
     1
102
RTVSPost2010Prop46
 90
       50
102
RTVSPost2010PropOp46
 70
     1
102
RTVSPost2010Prop47
 90
       50
102
RTVSPost2010PropOp47
 70
     1
102
RTVSPost2010Prop48
 90
       50
102
RTVSPost2010PropOp48
 70
     1
102
RTVSPost2010Prop49
280
     0
102
RTVSPost2010PropOp49
 70
     1
102
RTVSPost2010Prop50
 90
       50
102
RTVSPost2010PropOp50
 70
     1
102
RTVSPost2010Prop51ColorIndex
 90
      256
102
RTVSPost2010Prop51ColorRGB
 90
-16777216
102
RTVSPost2010PropOp51
 70
     0
102
RTVSPost2010Prop52
140
1.0
102
RTVSPost2010PropOp52
 70
     0
102
RTVSPost2010Prop53
 90
        2
102
RTVSPost2010PropOp53
 70
     1
102
RTVSPost2010Prop54
  1
strokes_ogs.tif
102
RTVSPost2010PropOp54
 70
     1
102
RTVSPost2010Prop55
280
     0
102
RTVSPost2010PropOp55
 70
     1
102
RTVSPost2010Prop56
140
1.0
102
RTVSPost2010PropOp56
 70
     1
102
RTVSPost2010Prop57
140
1.0
102
RTVSPost2010PropOp57
 70
     1
  0
XRECORD
  5
25C
102
{ACAD_REACTORS
330
25B
102
}
330
25B
100
AcDbXrecord
280
     1
102
RTVSPost2010Prop28
280
     0
102
RTVSPost2010PropOp28
 70
     0
102
RTVSPost2010Prop29
280
     1
102
RTVSPost2010PropOp29
 70
     0
102
RTVSPost2010Prop30
280
     1
102
RTVSPost2010PropOp30
 70
     0
102
RTVSPost2010Prop31
280
     0
102
RTVSPost2010PropOp31
 70
     0
102
RTVSPost2010Prop32
280
     0
102
RTVSPost2010PropOp32
 70
     0
102
RTVSPost2010Prop33
280
     0
102
RTVSPost2010PropOp33
 70
     0
102
RTVSPost2010Prop34
280
     0
102
RTVSPost2010PropOp34
 70
     0
102
RTVSPost2010Prop35
280
     0
102
RTVSPost2010PropOp35
 70
     0
102
RTVSPost2010Prop36
280
     0
102
RTVSPost2010PropOp36
 70
     0
102
RTVSPost2010Prop37
 90
       50
102
RTVSPost2010PropOp37
 70
     0
102
RTVSPost2010Prop38
140
0.0
102
RTVSPost2010PropOp38
 70
     0
102
RTVSPost2010Prop39
140
1.0
102
RTVSPost2010PropOp39
 70
     0
102
RTVSPost2010Prop40
 90
        0
102
RTVSPost2010PropOp40
 70
     0
102
RTVSPost2010Prop41ColorIndex
 90
       18
102
RTVSPost2010Prop41ColorRGB
 90
        0
102
RTVSPost2010PropOp41
 70
     0
102
RTVSPost2010Prop42
 90
       50
102
RTVSPost2010PropOp42
 70
     0
102
RTVSPost2010Prop43
 90
        3
102
RTVSPost2010PropOp43
 70
     0
102
RTVSPost2010Prop44ColorIndex
 90
        5
102
RTVSPost2010Prop44ColorRGB
 90
      255
102
RTVSPost2010PropOp44
 70
     0
102
RTVSPost2010Prop45
280
     0
102
RTVSPost2010PropOp45
 70
     0
102
RTVSPost2010Prop46
 90
       50
102
RTVSPost2010PropOp46
 70
     0
102
RTVSPost2010Prop47
 90
       50
102
RTVSPost2010PropOp47
 70
     0
102
RTVSPost2010Prop48
 90
       50
102
RTVSPost2010PropOp48
 70
     0
102
RTVSPost2010Prop49
280
     0
102
RTVSPost2010PropOp49
 70
     0
102
RTVSPost2010Prop50
 90
       50
102
RTVSPost2010PropOp50
 70
     0
102
RTVSPost2010Prop51ColorIndex
 90
      256
102
RTVSPost2010Prop51ColorRGB
 90
-16777216
102
RTVSPost2010PropOp51
 70
     0
102
RTVSPost2010Prop52
140
1.0
102
RTVSPost2010PropOp52
 70
     0
102
RTVSPost2010Prop53
 90
        2
102
RTVSPost2010PropOp53
 70
     0
102
RTVSPost2010Prop54
  1
strokes_ogs.tif
102
RTVSPost2010PropOp54
 70
     0
102
RTVSPost2010Prop55
280
     0
102
RTVSPost2010PropOp55
 70
     0
102
RTVSPost2010Prop56
140
1.0
102
RTVSPost2010PropOp56
 70
     0
102
RTVSPost2010Prop57
140
1.0
102
RTVSPost2010PropOp57
 70
     0
  0
XRECORD
  5
254
102
{ACAD_REACTORS
330
253
102
}
330
253
100
AcDbXrecord
280
     1
102
RTVSPost2010Prop28
280
     0
102
RTVSPost2010PropOp28
 70
     1
102
RTVSPost2010Prop29
280
     1
102
RTVSPost2010PropOp29
 70
     1
102
RTVSPost2010Prop30
280
     1
102
RTVSPost2010PropOp30
 70
     1
102
RTVSPost2010Prop31
280
     0
102
RTVSPost2010PropOp31
 70
     1
102
RTVSPost2010Prop32
280
     0
102
RTVSPost2010PropOp32
 70
     1
102
RTVSPost2010Prop33
280
     0
102
RTVSPost2010PropOp33
 70
     1
102
RTVSPost2010Prop34
280
     0
102
RTVSPost2010PropOp34
 70
     1
102
RTVSPost2010Prop35
280
     0
102
RTVSPost2010PropOp35
 70
     1
102
RTVSPost2010Prop36
280
     0
102
RTVSPost2010PropOp36
 70
     1
102
RTVSPost2010Prop37
 90
       50
102
RTVSPost2010PropOp37
 70
     1
102
RTVSPost2010Prop38
140
0.0
102
RTVSPost2010PropOp38
 70
     1
102
RTVSPost2010Prop39
140
1.0
102
RTVSPost2010PropOp39
 70
     1
102
RTVSPost2010Prop40
 90
        0
102
RTVSPost2010PropOp40
 70
     1
102
RTVSPost2010Prop41ColorIndex
 90
       18
102
RTVSPost2010Prop41ColorRGB
 90
        0
102
RTVSPost2010PropOp41
 70
     1
102
RTVSPost2010Prop42
 90
       50
102
RTVSPost2010PropOp42
 70
     1
102
RTVSPost2010Prop43
 90
        3
102
RTVSPost2010PropOp43
 70
     1
102
RTVSPost2010Prop44ColorIndex
 90
        5
102
RTVSPost2010Prop44ColorRGB
 90
      255
102
RTVSPost2010PropOp44
 70
     1
102
RTVSPost2010Prop45
280
     0
102
RTVSPost2010PropOp45
 70
     1
102
RTVSPost2010Prop46
 90
       50
102
RTVSPost2010PropOp46
 70
     1
102
RTVSPost2010Prop47
 90
       50
102
RTVSPost2010PropOp47
 70
     1
102
RTVSPost2010Prop48
 90
       50
102
RTVSPost2010PropOp48
 70
     1
102
RTVSPost2010Prop49
280
     0
102
RTVSPost2010PropOp49
 70
     1
102
RTVSPost2010Prop50
 90
       50
102
RTVSPost2010PropOp50
 70
     1
102
RTVSPost2010Prop51ColorIndex
 90
      256
102
RTVSPost2010Prop51ColorRGB
 90
-16777216
102
RTVSPost2010PropOp51
 70
     0
102
RTVSPost2010Prop52
140
1.0
102
RTVSPost2010PropOp52
 70
     0
102
RTVSPost2010Prop53
 90
        2
102
RTVSPost2010PropOp53
 70
     1
102
RTVSPost2010Prop54
  1
strokes_ogs.tif
102
RTVSPost2010PropOp54
 70
     1
102
RTVSPost2010Prop55
280
     0
102
RTVSPost2010PropOp55
 70
     1
102
RTVSPost2010Prop56
140
1.0
102
RTVSPost2010PropOp56
 70
     1
102
RTVSPost2010Prop57
140
1.0
102
RTVSPost2010PropOp57
 70
     1
  0
XRECORD
  5
238
102
{ACAD_REACTORS
330
237
102
}
330
237
100
AcDbXrecord
280
     1
102
RTVSPost2010Prop28
280
     0
102
RTVSPost2010PropOp28
 70
     1
102
RTVSPost2010Prop29
280
     1
102
RTVSPost2010PropOp29
 70
     1
102
RTVSPost2010Prop30
280
     1
102
RTVSPost2010PropOp30
 70
     1
102
RTVSPost2010Prop31
280
     0
102
RTVSPost2010PropOp31
 70
     1
102
RTVSPost2010Prop32
280
     0
102
RTVSPost2010PropOp32
 70
     1
102
RTVSPost2010Prop33
280
     0
102
RTVSPost2010PropOp33
 70
     1
102
RTVSPost2010Prop34
280
     0
102
RTVSPost2010PropOp34
 70
     1
102
RTVSPost2010Prop35
280
     0
102
RTVSPost2010PropOp35
 70
     1
102
RTVSPost2010Prop36
280
     0
102
RTVSPost2010PropOp36
 70
     1
102
RTVSPost2010Prop37
 90
       50
102
RTVSPost2010PropOp37
 70
     1
102
RTVSPost2010Prop38
140
0.0
102
RTVSPost2010PropOp38
 70
     1
102
RTVSPost2010Prop39
140
1.0
102
RTVSPost2010PropOp39
 70
     1
102
RTVSPost2010Prop40
 90
        0
102
RTVSPost2010PropOp40
 70
     1
102
RTVSPost2010Prop41ColorIndex
 90
       18
102
RTVSPost2010Prop41ColorRGB
 90
        0
102
RTVSPost2010PropOp41
 70
     1
102
RTVSPost2010Prop42
 90
       50
102
RTVSPost2010PropOp42
 70
     1
102
RTVSPost2010Prop43
 90
        3
102
RTVSPost2010PropOp43
 70
     1
102
RTVSPost2010Prop44ColorIndex
 90
        5
102
RTVSPost2010Prop44ColorRGB
 90
      255
102
RTVSPost2010PropOp44
 70
     1
102
RTVSPost2010Prop45
280
     0
102
RTVSPost2010PropOp45
 70
     1
102
RTVSPost2010Prop46
 90
       50
102
RTVSPost2010PropOp46
 70
     1
102
RTVSPost2010Prop47
 90
       50
102
RTVSPost2010PropOp47
 70
     1
102
RTVSPost2010Prop48
 90
       50
102
RTVSPost2010PropOp48
 70
     1
102
RTVSPost2010Prop49
280
     0
102
RTVSPost2010PropOp49
 70
     1
102
RTVSPost2010Prop50
 90
       50
102
RTVSPost2010PropOp50
 70
     1
102
RTVSPost2010Prop51ColorIndex
 90
      256
102
RTVSPost2010Prop51ColorRGB
 90
-16777216
102
RTVSPost2010PropOp51
 70
     0
102
RTVSPost2010Prop52
140
1.0
102
RTVSPost2010PropOp52
 70
     0
102
RTVSPost2010Prop53
 90
        2
102
RTVSPost2010PropOp53
 70
     1
102
RTVSPost2010Prop54
  1
strokes_ogs.tif
102
RTVSPost2010PropOp54
 70
     1
102
RTVSPost2010Prop55
280
     0
102
RTVSPost2010PropOp55
 70
     1
102
RTVSPost2010Prop56
140
1.0
102
RTVSPost2010PropOp56
 70
     1
102
RTVSPost2010Prop57
140
1.0
102
RTVSPost2010PropOp57
 70
     1
  0
XRECORD
  5
23A
102
{ACAD_REACTORS
330
239
102
}
330
239
100
AcDbXrecord
280
     1
102
RTVSPost2010Prop28
280
     0
102
RTVSPost2010PropOp28
 70
     1
102
RTVSPost2010Prop29
280
     1
102
RTVSPost2010PropOp29
 70
     1
102
RTVSPost2010Prop30
280
     1
102
RTVSPost2010PropOp30
 70
     1
102
RTVSPost2010Prop31
280
     0
102
RTVSPost2010PropOp31
 70
     1
102
RTVSPost2010Prop32
280
     0
102
RTVSPost2010PropOp32
 70
     1
102
RTVSPost2010Prop33
280
     0
102
RTVSPost2010PropOp33
 70
     1
102
RTVSPost2010Prop34
280
     0
102
RTVSPost2010PropOp34
 70
     1
102
RTVSPost2010Prop35
280
     0
102
RTVSPost2010PropOp35
 70
     1
102
RTVSPost2010Prop36
280
     0
102
RTVSPost2010PropOp36
 70
     1
102
RTVSPost2010Prop37
 90
       50
102
RTVSPost2010PropOp37
 70
     1
102
RTVSPost2010Prop38
140
0.0
102
RTVSPost2010PropOp38
 70
     1
102
RTVSPost2010Prop39
140
1.0
102
RTVSPost2010PropOp39
 70
     1
102
RTVSPost2010Prop40
 90
        0
102
RTVSPost2010PropOp40
 70
     1
102
RTVSPost2010Prop41ColorIndex
 90
       18
102
RTVSPost2010Prop41ColorRGB
 90
        0
102
RTVSPost2010PropOp41
 70
     1
102
RTVSPost2010Prop42
 90
       50
102
RTVSPost2010PropOp42
 70
     1
102
RTVSPost2010Prop43
 90
        3
102
RTVSPost2010PropOp43
 70
     1
102
RTVSPost2010Prop44ColorIndex
 90
        5
102
RTVSPost2010Prop44ColorRGB
 90
      255
102
RTVSPost2010PropOp44
 70
     1
102
RTVSPost2010Prop45
280
     0
102
RTVSPost2010PropOp45
 70
     1
102
RTVSPost2010Prop46
 90
       50
102
RTVSPost2010PropOp46
 70
     1
102
RTVSPost2010Prop47
 90
       50
102
RTVSPost2010PropOp47
 70
     1
102
RTVSPost2010Prop48
 90
       50
102
RTVSPost2010PropOp48
 70
     1
102
RTVSPost2010Prop49
280
     0
102
RTVSPost2010PropOp49
 70
     1
102
RTVSPost2010Prop50
 90
       50
102
RTVSPost2010PropOp50
 70
     1
102
RTVSPost2010Prop51ColorIndex
 90
      256
102
RTVSPost2010Prop51ColorRGB
 90
-16777216
102
RTVSPost2010PropOp51
 70
     0
102
RTVSPost2010Prop52
140
1.0
102
RTVSPost2010PropOp52
 70
     0
102
RTVSPost2010Prop53
 90
        2
102
RTVSPost2010PropOp53
 70
     1
102
RTVSPost2010Prop54
  1
strokes_ogs.tif
102
RTVSPost2010PropOp54
 70
     1
102
RTVSPost2010Prop55
280
     0
102
RTVSPost2010PropOp55
 70
     1
102
RTVSPost2010Prop56
140
1.0
102
RTVSPost2010PropOp56
 70
     1
102
RTVSPost2010Prop57
140
1.0
102
RTVSPost2010PropOp57
 70
     1
  0
XRECORD
  5
23C
102
{ACAD_REACTORS
330
23B
102
}
330
23B
100
AcDbXrecord
280
     1
102
RTVSPost2010Prop28
280
     0
102
RTVSPost2010PropOp28
 70
     1
102
RTVSPost2010Prop29
280
     1
102
RTVSPost2010PropOp29
 70
     1
102
RTVSPost2010Prop30
280
     1
102
RTVSPost2010PropOp30
 70
     1
102
RTVSPost2010Prop31
280
     0
102
RTVSPost2010PropOp31
 70
     1
102
RTVSPost2010Prop32
280
     0
102
RTVSPost2010PropOp32
 70
     1
102
RTVSPost2010Prop33
280
     0
102
RTVSPost2010PropOp33
 70
     1
102
RTVSPost2010Prop34
280
     0
102
RTVSPost2010PropOp34
 70
     1
102
RTVSPost2010Prop35
280
     0
102
RTVSPost2010PropOp35
 70
     1
102
RTVSPost2010Prop36
280
     0
102
RTVSPost2010PropOp36
 70
     1
102
RTVSPost2010Prop37
 90
       50
102
RTVSPost2010PropOp37
 70
     1
102
RTVSPost2010Prop38
140
0.0
102
RTVSPost2010PropOp38
 70
     1
102
RTVSPost2010Prop39
140
1.0
102
RTVSPost2010PropOp39
 70
     1
102
RTVSPost2010Prop40
 90
        0
102
RTVSPost2010PropOp40
 70
     1
102
RTVSPost2010Prop41ColorIndex
 90
       18
102
RTVSPost2010Prop41ColorRGB
 90
        0
102
RTVSPost2010PropOp41
 70
     1
102
RTVSPost2010Prop42
 90
       50
102
RTVSPost2010PropOp42
 70
     1
102
RTVSPost2010Prop43
 90
        3
102
RTVSPost2010PropOp43
 70
     1
102
RTVSPost2010Prop44ColorIndex
 90
        5
102
RTVSPost2010Prop44ColorRGB
 90
      255
102
RTVSPost2010PropOp44
 70
     1
102
RTVSPost2010Prop45
280
     0
102
RTVSPost2010PropOp45
 70
     1
102
RTVSPost2010Prop46
 90
       50
102
RTVSPost2010PropOp46
 70
     1
102
RTVSPost2010Prop47
 90
       50
102
RTVSPost2010PropOp47
 70
     1
102
RTVSPost2010Prop48
 90
       50
102
RTVSPost2010PropOp48
 70
     1
102
RTVSPost2010Prop49
280
     0
102
RTVSPost2010PropOp49
 70
     1
102
RTVSPost2010Prop50
 90
       50
102
RTVSPost2010PropOp50
 70
     1
102
RTVSPost2010Prop51ColorIndex
 90
      256
102
RTVSPost2010Prop51ColorRGB
 90
-16777216
102
RTVSPost2010PropOp51
 70
     0
102
RTVSPost2010Prop52
140
1.0
102
RTVSPost2010PropOp52
 70
     0
102
RTVSPost2010Prop53
 90
        2
102
RTVSPost2010PropOp53
 70
     1
102
RTVSPost2010Prop54
  1
strokes_ogs.tif
102
RTVSPost2010PropOp54
 70
     1
102
RTVSPost2010Prop55
280
     0
102
RTVSPost2010PropOp55
 70
     1
102
RTVSPost2010Prop56
140
1.0
102
RTVSPost2010PropOp56
 70
     1
102
RTVSPost2010Prop57
140
1.0
102
RTVSPost2010PropOp57
 70
     1
  0
XRECORD
  5
23E
102
{ACAD_REACTORS
330
23D
102
}
330
23D
100
AcDbXrecord
280
     1
102
RTVSPost2010Prop28
280
     0
102
RTVSPost2010PropOp28
 70
     1
102
RTVSPost2010Prop29
280
     1
102
RTVSPost2010PropOp29
 70
     1
102
RTVSPost2010Prop30
280
     1
102
RTVSPost2010PropOp30
 70
     1
102
RTVSPost2010Prop31
280
     0
102
RTVSPost2010PropOp31
 70
     1
102
RTVSPost2010Prop32
280
     0
102
RTVSPost2010PropOp32
 70
     1
102
RTVSPost2010Prop33
280
     0
102
RTVSPost2010PropOp33
 70
     1
102
RTVSPost2010Prop34
280
     0
102
RTVSPost2010PropOp34
 70
     1
102
RTVSPost2010Prop35
280
     0
102
RTVSPost2010PropOp35
 70
     1
102
RTVSPost2010Prop36
280
     0
102
RTVSPost2010PropOp36
 70
     1
102
RTVSPost2010Prop37
 90
       50
102
RTVSPost2010PropOp37
 70
     1
102
RTVSPost2010Prop38
140
0.0
102
RTVSPost2010PropOp38
 70
     1
102
RTVSPost2010Prop39
140
1.0
102
RTVSPost2010PropOp39
 70
     1
102
RTVSPost2010Prop40
 90
        0
102
RTVSPost2010PropOp40
 70
     1
102
RTVSPost2010Prop41ColorIndex
 90
       18
102
RTVSPost2010Prop41ColorRGB
 90
        0
102
RTVSPost2010PropOp41
 70
     1
102
RTVSPost2010Prop42
 90
       50
102
RTVSPost2010PropOp42
 70
     1
102
RTVSPost2010Prop43
 90
        3
102
RTVSPost2010PropOp43
 70
     1
102
RTVSPost2010Prop44ColorIndex
 90
        5
102
RTVSPost2010Prop44ColorRGB
 90
      255
102
RTVSPost2010PropOp44
 70
     1
102
RTVSPost2010Prop45
280
     0
102
RTVSPost2010PropOp45
 70
     1
102
RTVSPost2010Prop46
 90
       50
102
RTVSPost2010PropOp46
 70
     1
102
RTVSPost2010Prop47
 90
       50
102
RTVSPost2010PropOp47
 70
     1
102
RTVSPost2010Prop48
 90
       50
102
RTVSPost2010PropOp48
 70
     1
102
RTVSPost2010Prop49
280
     0
102
RTVSPost2010PropOp49
 70
     1
102
RTVSPost2010Prop50
 90
       50
102
RTVSPost2010PropOp50
 70
     1
102
RTVSPost2010Prop51ColorIndex
 90
      256
102
RTVSPost2010Prop51ColorRGB
 90
-16777216
102
RTVSPost2010PropOp51
 70
     0
102
RTVSPost2010Prop52
140
1.0
102
RTVSPost2010PropOp52
 70
     0
102
RTVSPost2010Prop53
 90
        2
102
RTVSPost2010PropOp53
 70
     1
102
RTVSPost2010Prop54
  1
strokes_ogs.tif
102
RTVSPost2010PropOp54
 70
     1
102
RTVSPost2010Prop55
280
     0
102
RTVSPost2010PropOp55
 70
     1
102
RTVSPost2010Prop56
140
1.0
102
RTVSPost2010PropOp56
 70
     1
102
RTVSPost2010Prop57
140
1.0
102
RTVSPost2010PropOp57
 70
     1
  0
XRECORD
  5
244
102
{ACAD_REACTORS
330
243
102
}
330
243
100
AcDbXrecord
280
     1
102
RTVSPost2010Prop28
280
     0
102
RTVSPost2010PropOp28
 70
     1
102
RTVSPost2010Prop29
280
     1
102
RTVSPost2010PropOp29
 70
     1
102
RTVSPost2010Prop30
280
     1
102
RTVSPost2010PropOp30
 70
     1
102
RTVSPost2010Prop31
280
     0
102
RTVSPost2010PropOp31
 70
     1
102
RTVSPost2010Prop32
280
     0
102
RTVSPost2010PropOp32
 70
     1
102
RTVSPost2010Prop33
280
     0
102
RTVSPost2010PropOp33
 70
     1
102
RTVSPost2010Prop34
280
     0
102
RTVSPost2010PropOp34
 70
     1
102
RTVSPost2010Prop35
280
     0
102
RTVSPost2010PropOp35
 70
     1
102
RTVSPost2010Prop36
280
     0
102
RTVSPost2010PropOp36
 70
     1
102
RTVSPost2010Prop37
 90
       50
102
RTVSPost2010PropOp37
 70
     1
102
RTVSPost2010Prop38
140
0.0
102
RTVSPost2010PropOp38
 70
     1
102
RTVSPost2010Prop39
140
1.0
102
RTVSPost2010PropOp39
 70
     1
102
RTVSPost2010Prop40
 90
        0
102
RTVSPost2010PropOp40
 70
     1
102
RTVSPost2010Prop41ColorIndex
 90
       18
102
RTVSPost2010Prop41ColorRGB
 90
        0
102
RTVSPost2010PropOp41
 70
     1
102
RTVSPost2010Prop42
 90
       50
102
RTVSPost2010PropOp42
 70
     1
102
RTVSPost2010Prop43
 90
        3
102
RTVSPost2010PropOp43
 70
     1
102
RTVSPost2010Prop44ColorIndex
 90
        5
102
RTVSPost2010Prop44ColorRGB
 90
      255
102
RTVSPost2010PropOp44
 70
     1
102
RTVSPost2010Prop45
280
     0
102
RTVSPost2010PropOp45
 70
     1
102
RTVSPost2010Prop46
 90
       50
102
RTVSPost2010PropOp46
 70
     1
102
RTVSPost2010Prop47
 90
       50
102
RTVSPost2010PropOp47
 70
     1
102
RTVSPost2010Prop48
 90
       50
102
RTVSPost2010PropOp48
 70
     1
102
RTVSPost2010Prop49
280
     0
102
RTVSPost2010PropOp49
 70
     1
102
RTVSPost2010Prop50
 90
       50
102
RTVSPost2010PropOp50
 70
     1
102
RTVSPost2010Prop51ColorIndex
 90
      256
102
RTVSPost2010Prop51ColorRGB
 90
-16777216
102
RTVSPost2010PropOp51
 70
     0
102
RTVSPost2010Prop52
140
1.0
102
RTVSPost2010PropOp52
 70
     0
102
RTVSPost2010Prop53
 90
        2
102
RTVSPost2010PropOp53
 70
     1
102
RTVSPost2010Prop54
  1
strokes_ogs.tif
102
RTVSPost2010PropOp54
 70
     1
102
RTVSPost2010Prop55
280
     0
102
RTVSPost2010PropOp55
 70
     1
102
RTVSPost2010Prop56
140
1.0
102
RTVSPost2010PropOp56
 70
     1
102
RTVSPost2010Prop57
140
1.0
102
RTVSPost2010PropOp57
 70
     1
  0
XRECORD
  5
258
102
{ACAD_REACTORS
330
257
102
}
330
257
100
AcDbXrecord
280
     1
102
RTVSPost2010Prop28
280
     0
102
RTVSPost2010PropOp28
 70
     0
102
RTVSPost2010Prop29
280
     1
102
RTVSPost2010PropOp29
 70
     0
102
RTVSPost2010Prop30
280
     1
102
RTVSPost2010PropOp30
 70
     0
102
RTVSPost2010Prop31
280
     0
102
RTVSPost2010PropOp31
 70
     0
102
RTVSPost2010Prop32
280
     0
102
RTVSPost2010PropOp32
 70
     0
102
RTVSPost2010Prop33
280
     0
102
RTVSPost2010PropOp33
 70
     0
102
RTVSPost2010Prop34
280
     0
102
RTVSPost2010PropOp34
 70
     0
102
RTVSPost2010Prop35
280
     0
102
RTVSPost2010PropOp35
 70
     0
102
RTVSPost2010Prop36
280
     0
102
RTVSPost2010PropOp36
 70
     0
102
RTVSPost2010Prop37
 90
       50
102
RTVSPost2010PropOp37
 70
     0
102
RTVSPost2010Prop38
140
0.0
102
RTVSPost2010PropOp38
 70
     0
102
RTVSPost2010Prop39
140
1.0
102
RTVSPost2010PropOp39
 70
     0
102
RTVSPost2010Prop40
 90
        0
102
RTVSPost2010PropOp40
 70
     0
102
RTVSPost2010Prop41ColorIndex
 90
       18
102
RTVSPost2010Prop41ColorRGB
 90
        0
102
RTVSPost2010PropOp41
 70
     0
102
RTVSPost2010Prop42
 90
       50
102
RTVSPost2010PropOp42
 70
     0
102
RTVSPost2010Prop43
 90
        3
102
RTVSPost2010PropOp43
 70
     0
102
RTVSPost2010Prop44ColorIndex
 90
        5
102
RTVSPost2010Prop44ColorRGB
 90
      255
102
RTVSPost2010PropOp44
 70
     0
102
RTVSPost2010Prop45
280
     0
102
RTVSPost2010PropOp45
 70
     0
102
RTVSPost2010Prop46
 90
       50
102
RTVSPost2010PropOp46
 70
     0
102
RTVSPost2010Prop47
 90
       50
102
RTVSPost2010PropOp47
 70
     0
102
RTVSPost2010Prop48
 90
       50
102
RTVSPost2010PropOp48
 70
     0
102
RTVSPost2010Prop49
280
     0
102
RTVSPost2010PropOp49
 70
     0
102
RTVSPost2010Prop50
 90
       50
102
RTVSPost2010PropOp50
 70
     0
102
RTVSPost2010Prop51ColorIndex
 90
      256
102
RTVSPost2010Prop51ColorRGB
 90
-16777216
102
RTVSPost2010PropOp51
 70
     0
102
RTVSPost2010Prop52
140
1.0
102
RTVSPost2010PropOp52
 70
     0
102
RTVSPost2010Prop53
 90
        2
102
RTVSPost2010PropOp53
 70
     0
102
RTVSPost2010Prop54
  1
strokes_ogs.tif
102
RTVSPost2010PropOp54
 70
     0
102
RTVSPost2010Prop55
280
     0
102
RTVSPost2010PropOp55
 70
     0
102
RTVSPost2010Prop56
140
1.0
102
RTVSPost2010PropOp56
 70
     0
102
RTVSPost2010Prop57
140
1.0
102
RTVSPost2010PropOp57
 70
     0
  0
XRECORD
  5
252
102
{ACAD_REACTORS
330
251
102
}
330
251
100
AcDbXrecord
280
     1
102
RTVSPost2010Prop28
280
     0
102
RTVSPost2010PropOp28
 70
     1
102
RTVSPost2010Prop29
280
     1
102
RTVSPost2010PropOp29
 70
     1
102
RTVSPost2010Prop30
280
     1
102
RTVSPost2010PropOp30
 70
     1
102
RTVSPost2010Prop31
280
     0
102
RTVSPost2010PropOp31
 70
     1
102
RTVSPost2010Prop32
280
     0
102
RTVSPost2010PropOp32
 70
     1
102
RTVSPost2010Prop33
280
     0
102
RTVSPost2010PropOp33
 70
     1
102
RTVSPost2010Prop34
280
     0
102
RTVSPost2010PropOp34
 70
     1
102
RTVSPost2010Prop35
280
     0
102
RTVSPost2010PropOp35
 70
     1
102
RTVSPost2010Prop36
280
     0
102
RTVSPost2010PropOp36
 70
     1
102
RTVSPost2010Prop37
 90
       50
102
RTVSPost2010PropOp37
 70
     1
102
RTVSPost2010Prop38
140
0.0
102
RTVSPost2010PropOp38
 70
     1
102
RTVSPost2010Prop39
140
1.0
102
RTVSPost2010PropOp39
 70
     1
102
RTVSPost2010Prop40
 90
        0
102
RTVSPost2010PropOp40
 70
     1
102
RTVSPost2010Prop41ColorIndex
 90
       18
102
RTVSPost2010Prop41ColorRGB
 90
        0
102
RTVSPost2010PropOp41
 70
     1
102
RTVSPost2010Prop42
 90
       50
102
RTVSPost2010PropOp42
 70
     1
102
RTVSPost2010Prop43
 90
        3
102
RTVSPost2010PropOp43
 70
     1
102
RTVSPost2010Prop44ColorIndex
 90
        5
102
RTVSPost2010Prop44ColorRGB
 90
      255
102
RTVSPost2010PropOp44
 70
     1
102
RTVSPost2010Prop45
280
     0
102
RTVSPost2010PropOp45
 70
     1
102
RTVSPost2010Prop46
 90
       50
102
RTVSPost2010PropOp46
 70
     1
102
RTVSPost2010Prop47
 90
       50
102
RTVSPost2010PropOp47
 70
     1
102
RTVSPost2010Prop48
 90
       50
102
RTVSPost2010PropOp48
 70
     1
102
RTVSPost2010Prop49
280
     0
102
RTVSPost2010PropOp49
 70
     1
102
RTVSPost2010Prop50
 90
       50
102
RTVSPost2010PropOp50
 70
     1
102
RTVSPost2010Prop51ColorIndex
 90
      256
102
RTVSPost2010Prop51ColorRGB
 90
-16777216
102
RTVSPost2010PropOp51
 70
     0
102
RTVSPost2010Prop52
140
1.0
102
RTVSPost2010PropOp52
 70
     0
102
RTVSPost2010Prop53
 90
        2
102
RTVSPost2010PropOp53
 70
     1
102
RTVSPost2010Prop54
  1
strokes_ogs.tif
102
RTVSPost2010PropOp54
 70
     1
102
RTVSPost2010Prop55
280
     0
102
RTVSPost2010PropOp55
 70
     1
102
RTVSPost2010Prop56
140
1.0
102
RTVSPost2010PropOp56
 70
     1
102
RTVSPost2010Prop57
140
1.0
102
RTVSPost2010PropOp57
 70
     1
  0
XRECORD
  5
25A
102
{ACAD_REACTORS
330
259
102
}
330
259
100
AcDbXrecord
280
     1
102
RTVSPost2010Prop28
280
     0
102
RTVSPost2010PropOp28
 70
     0
102
RTVSPost2010Prop29
280
     1
102
RTVSPost2010PropOp29
 70
     0
102
RTVSPost2010Prop30
280
     1
102
RTVSPost2010PropOp30
 70
     0
102
RTVSPost2010Prop31
280
     0
102
RTVSPost2010PropOp31
 70
     0
102
RTVSPost2010Prop32
280
     0
102
RTVSPost2010PropOp32
 70
     0
102
RTVSPost2010Prop33
280
     0
102
RTVSPost2010PropOp33
 70
     0
102
RTVSPost2010Prop34
280
     0
102
RTVSPost2010PropOp34
 70
     0
102
RTVSPost2010Prop35
280
     0
102
RTVSPost2010PropOp35
 70
     0
102
RTVSPost2010Prop36
280
     0
102
RTVSPost2010PropOp36
 70
     0
102
RTVSPost2010Prop37
 90
       50
102
RTVSPost2010PropOp37
 70
     0
102
RTVSPost2010Prop38
140
0.0
102
RTVSPost2010PropOp38
 70
     0
102
RTVSPost2010Prop39
140
1.0
102
RTVSPost2010PropOp39
 70
     0
102
RTVSPost2010Prop40
 90
        0
102
RTVSPost2010PropOp40
 70
     0
102
RTVSPost2010Prop41ColorIndex
 90
       18
102
RTVSPost2010Prop41ColorRGB
 90
        0
102
RTVSPost2010PropOp41
 70
     0
102
RTVSPost2010Prop42
 90
       50
102
RTVSPost2010PropOp42
 70
     0
102
RTVSPost2010Prop43
 90
        3
102
RTVSPost2010PropOp43
 70
     0
102
RTVSPost2010Prop44ColorIndex
 90
        5
102
RTVSPost2010Prop44ColorRGB
 90
      255
102
RTVSPost2010PropOp44
 70
     0
102
RTVSPost2010Prop45
280
     0
102
RTVSPost2010PropOp45
 70
     0
102
RTVSPost2010Prop46
 90
       50
102
RTVSPost2010PropOp46
 70
     0
102
RTVSPost2010Prop47
 90
       50
102
RTVSPost2010PropOp47
 70
     0
102
RTVSPost2010Prop48
 90
       50
102
RTVSPost2010PropOp48
 70
     0
102
RTVSPost2010Prop49
280
     0
102
RTVSPost2010PropOp49
 70
     0
102
RTVSPost2010Prop50
 90
       50
102
RTVSPost2010PropOp50
 70
     0
102
RTVSPost2010Prop51ColorIndex
 90
      256
102
RTVSPost2010Prop51ColorRGB
 90
-16777216
102
RTVSPost2010PropOp51
 70
     0
102
RTVSPost2010Prop52
140
1.0
102
RTVSPost2010PropOp52
 70
     0
102
RTVSPost2010Prop53
 90
        2
102
RTVSPost2010PropOp53
 70
     0
102
RTVSPost2010Prop54
  1
strokes_ogs.tif
102
RTVSPost2010PropOp54
 70
     0
102
RTVSPost2010Prop55
280
     0
102
RTVSPost2010PropOp55
 70
     0
102
RTVSPost2010Prop56
140
1.0
102
RTVSPost2010PropOp56
 70
     0
102
RTVSPost2010Prop57
140
1.0
102
RTVSPost2010PropOp57
 70
     0
  0
XRECORD
  5
248
102
{ACAD_REACTORS
330
247
102
}
330
247
100
AcDbXrecord
280
     1
102
RTVSPost2010Prop28
280
     0
102
RTVSPost2010PropOp28
 70
     1
102
RTVSPost2010Prop29
280
     1
102
RTVSPost2010PropOp29
 70
     1
102
RTVSPost2010Prop30
280
     1
102
RTVSPost2010PropOp30
 70
     1
102
RTVSPost2010Prop31
280
     0
102
RTVSPost2010PropOp31
 70
     1
102
RTVSPost2010Prop32
280
     0
102
RTVSPost2010PropOp32
 70
     1
102
RTVSPost2010Prop33
280
     0
102
RTVSPost2010PropOp33
 70
     1
102
RTVSPost2010Prop34
280
     0
102
RTVSPost2010PropOp34
 70
     1
102
RTVSPost2010Prop35
280
     0
102
RTVSPost2010PropOp35
 70
     1
102
RTVSPost2010Prop36
280
     0
102
RTVSPost2010PropOp36
 70
     1
102
RTVSPost2010Prop37
 90
       50
102
RTVSPost2010PropOp37
 70
     1
102
RTVSPost2010Prop38
140
0.0
102
RTVSPost2010PropOp38
 70
     1
102
RTVSPost2010Prop39
140
1.0
102
RTVSPost2010PropOp39
 70
     1
102
RTVSPost2010Prop40
 90
        0
102
RTVSPost2010PropOp40
 70
     1
102
RTVSPost2010Prop41ColorIndex
 90
       18
102
RTVSPost2010Prop41ColorRGB
 90
        0
102
RTVSPost2010PropOp41
 70
     1
102
RTVSPost2010Prop42
 90
       50
102
RTVSPost2010PropOp42
 70
     1
102
RTVSPost2010Prop43
 90
        3
102
RTVSPost2010PropOp43
 70
     1
102
RTVSPost2010Prop44ColorIndex
 90
        5
102
RTVSPost2010Prop44ColorRGB
 90
      255
102
RTVSPost2010PropOp44
 70
     1
102
RTVSPost2010Prop45
280
     0
102
RTVSPost2010PropOp45
 70
     1
102
RTVSPost2010Prop46
 90
       50
102
RTVSPost2010PropOp46
 70
     1
102
RTVSPost2010Prop47
 90
       50
102
RTVSPost2010PropOp47
 70
     1
102
RTVSPost2010Prop48
 90
       50
102
RTVSPost2010PropOp48
 70
     1
102
RTVSPost2010Prop49
280
     0
102
RTVSPost2010PropOp49
 70
     1
102
RTVSPost2010Prop50
 90
       50
102
RTVSPost2010PropOp50
 70
     1
102
RTVSPost2010Prop51ColorIndex
 90
      256
102
RTVSPost2010Prop51ColorRGB
 90
-16777216
102
RTVSPost2010PropOp51
 70
     0
102
RTVSPost2010Prop52
140
1.0
102
RTVSPost2010PropOp52
 70
     0
102
RTVSPost2010Prop53
 90
        2
102
RTVSPost2010PropOp53
 70
     1
102
RTVSPost2010Prop54
  1
strokes_ogs.tif
102
RTVSPost2010PropOp54
 70
     1
102
RTVSPost2010Prop55
280
     0
102
RTVSPost2010PropOp55
 70
     1
102
RTVSPost2010Prop56
140
1.0
102
RTVSPost2010PropOp56
 70
     1
102
RTVSPost2010Prop57
140
1.0
102
RTVSPost2010PropOp57
 70
     1
  0
XRECORD
  5
266
102
{ACAD_REACTORS
330
265
102
}
330
265
100
AcDbXrecord
280
     1
102
RTVSPost2010Prop28
280
     0
102
RTVSPost2010PropOp28
 70
     1
102
RTVSPost2010Prop29
280
     1
102
RTVSPost2010PropOp29
 70
     1
102
RTVSPost2010Prop30
280
     1
102
RTVSPost2010PropOp30
 70
     1
102
RTVSPost2010Prop31
280
     0
102
RTVSPost2010PropOp31
 70
     1
102
RTVSPost2010Prop32
280
     0
102
RTVSPost2010PropOp32
 70
     1
102
RTVSPost2010Prop33
280
     0
102
RTVSPost2010PropOp33
 70
     1
102
RTVSPost2010Prop34
280
     0
102
RTVSPost2010PropOp34
 70
     1
102
RTVSPost2010Prop35
280
     0
102
RTVSPost2010PropOp35
 70
     1
102
RTVSPost2010Prop36
280
     0
102
RTVSPost2010PropOp36
 70
     1
102
RTVSPost2010Prop37
 90
       50
102
RTVSPost2010PropOp37
 70
     1
102
RTVSPost2010Prop38
140
0.0
102
RTVSPost2010PropOp38
 70
     1
102
RTVSPost2010Prop39
140
1.0
102
RTVSPost2010PropOp39
 70
     1
102
RTVSPost2010Prop40
 90
        0
102
RTVSPost2010PropOp40
 70
     1
102
RTVSPost2010Prop41ColorIndex
 90
       18
102
RTVSPost2010Prop41ColorRGB
 90
        0
102
RTVSPost2010PropOp41
 70
     1
102
RTVSPost2010Prop42
 90
       50
102
RTVSPost2010PropOp42
 70
     1
102
RTVSPost2010Prop43
 90
        3
102
RTVSPost2010PropOp43
 70
     1
102
RTVSPost2010Prop44ColorIndex
 90
        5
102
RTVSPost2010Prop44ColorRGB
 90
      255
102
RTVSPost2010PropOp44
 70
     1
102
RTVSPost2010Prop45
280
     0
102
RTVSPost2010PropOp45
 70
     1
102
RTVSPost2010Prop46
 90
       50
102
RTVSPost2010PropOp46
 70
     1
102
RTVSPost2010Prop47
 90
       50
102
RTVSPost2010PropOp47
 70
     1
102
RTVSPost2010Prop48
 90
       50
102
RTVSPost2010PropOp48
 70
     1
102
RTVSPost2010Prop49
280
     0
102
RTVSPost2010PropOp49
 70
     1
102
RTVSPost2010Prop50
 90
       50
102
RTVSPost2010PropOp50
 70
     1
102
RTVSPost2010Prop51ColorIndex
 90
      256
102
RTVSPost2010Prop51ColorRGB
 90
-16777216
102
RTVSPost2010PropOp51
 70
     0
102
RTVSPost2010Prop52
140
1.0
102
RTVSPost2010PropOp52
 70
     0
102
RTVSPost2010Prop53
 90
        2
102
RTVSPost2010PropOp53
 70
     1
102
RTVSPost2010Prop54
  1
strokes_ogs.tif
102
RTVSPost2010PropOp54
 70
     1
102
RTVSPost2010Prop55
280
     0
102
RTVSPost2010PropOp55
 70
     1
102
RTVSPost2010Prop56
140
1.0
102
RTVSPost2010PropOp56
 70
     1
102
RTVSPost2010Prop57
140
1.0
102
RTVSPost2010PropOp57
 70
     1
  0
XRECORD
  5
264
102
{ACAD_REACTORS
330
263
102
}
330
263
100
AcDbXrecord
280
     1
102
RTVSPost2010Prop28
280
     0
102
RTVSPost2010PropOp28
 70
     1
102
RTVSPost2010Prop29
280
     1
102
RTVSPost2010PropOp29
 70
     1
102
RTVSPost2010Prop30
280
     1
102
RTVSPost2010PropOp30
 70
     1
102
RTVSPost2010Prop31
280
     0
102
RTVSPost2010PropOp31
 70
     1
102
RTVSPost2010Prop32
280
     0
102
RTVSPost2010PropOp32
 70
     1
102
RTVSPost2010Prop33
280
     0
102
RTVSPost2010PropOp33
 70
     1
102
RTVSPost2010Prop34
280
     0
102
RTVSPost2010PropOp34
 70
     1
102
RTVSPost2010Prop35
280
     0
102
RTVSPost2010PropOp35
 70
     1
102
RTVSPost2010Prop36
280
     0
102
RTVSPost2010PropOp36
 70
     1
102
RTVSPost2010Prop37
 90
       50
102
RTVSPost2010PropOp37
 70
     1
102
RTVSPost2010Prop38
140
0.0
102
RTVSPost2010PropOp38
 70
     1
102
RTVSPost2010Prop39
140
1.0
102
RTVSPost2010PropOp39
 70
     1
102
RTVSPost2010Prop40
 90
        0
102
RTVSPost2010PropOp40
 70
     1
102
RTVSPost2010Prop41ColorIndex
 90
       18
102
RTVSPost2010Prop41ColorRGB
 90
        0
102
RTVSPost2010PropOp41
 70
     1
102
RTVSPost2010Prop42
 90
       50
102
RTVSPost2010PropOp42
 70
     1
102
RTVSPost2010Prop43
 90
        3
102
RTVSPost2010PropOp43
 70
     1
102
RTVSPost2010Prop44ColorIndex
 90
        5
102
RTVSPost2010Prop44ColorRGB
 90
      255
102
RTVSPost2010PropOp44
 70
     1
102
RTVSPost2010Prop45
280
     0
102
RTVSPost2010PropOp45
 70
     1
102
RTVSPost2010Prop46
 90
       50
102
RTVSPost2010PropOp46
 70
     1
102
RTVSPost2010Prop47
 90
       50
102
RTVSPost2010PropOp47
 70
     1
102
RTVSPost2010Prop48
 90
       50
102
RTVSPost2010PropOp48
 70
     1
102
RTVSPost2010Prop49
280
     0
102
RTVSPost2010PropOp49
 70
     1
102
RTVSPost2010Prop50
 90
       50
102
RTVSPost2010PropOp50
 70
     1
102
RTVSPost2010Prop51ColorIndex
 90
      256
102
RTVSPost2010Prop51ColorRGB
 90
-16777216
102
RTVSPost2010PropOp51
 70
     0
102
RTVSPost2010Prop52
140
1.0
102
RTVSPost2010PropOp52
 70
     0
102
RTVSPost2010Prop53
 90
        2
102
RTVSPost2010PropOp53
 70
     1
102
RTVSPost2010Prop54
  1
strokes_ogs.tif
102
RTVSPost2010PropOp54
 70
     1
102
RTVSPost2010Prop55
280
     0
102
RTVSPost2010PropOp55
 70
     1
102
RTVSPost2010Prop56
140
1.0
102
RTVSPost2010PropOp56
 70
     1
102
RTVSPost2010Prop57
140
1.0
102
RTVSPost2010PropOp57
 70
     1
  0
XRECORD
  5
25E
102
{ACAD_REACTORS
330
25D
102
}
330
25D
100
AcDbXrecord
280
     1
102
RTVSPost2010Prop28
280
     0
102
RTVSPost2010PropOp28
 70
     1
102
RTVSPost2010Prop29
280
     1
102
RTVSPost2010PropOp29
 70
     1
102
RTVSPost2010Prop30
280
     1
102
RTVSPost2010PropOp30
 70
     1
102
RTVSPost2010Prop31
280
     0
102
RTVSPost2010PropOp31
 70
     1
102
RTVSPost2010Prop32
280
     0
102
RTVSPost2010PropOp32
 70
     1
102
RTVSPost2010Prop33
280
     0
102
RTVSPost2010PropOp33
 70
     1
102
RTVSPost2010Prop34
280
     0
102
RTVSPost2010PropOp34
 70
     1
102
RTVSPost2010Prop35
280
     0
102
RTVSPost2010PropOp35
 70
     1
102
RTVSPost2010Prop36
280
     0
102
RTVSPost2010PropOp36
 70
     1
102
RTVSPost2010Prop37
 90
       50
102
RTVSPost2010PropOp37
 70
     1
102
RTVSPost2010Prop38
140
0.0
102
RTVSPost2010PropOp38
 70
     1
102
RTVSPost2010Prop39
140
1.0
102
RTVSPost2010PropOp39
 70
     1
102
RTVSPost2010Prop40
 90
        0
102
RTVSPost2010PropOp40
 70
     1
102
RTVSPost2010Prop41ColorIndex
 90
       18
102
RTVSPost2010Prop41ColorRGB
 90
        0
102
RTVSPost2010PropOp41
 70
     1
102
RTVSPost2010Prop42
 90
       50
102
RTVSPost2010PropOp42
 70
     1
102
RTVSPost2010Prop43
 90
        3
102
RTVSPost2010PropOp43
 70
     1
102
RTVSPost2010Prop44ColorIndex
 90
        5
102
RTVSPost2010Prop44ColorRGB
 90
      255
102
RTVSPost2010PropOp44
 70
     1
102
RTVSPost2010Prop45
280
     0
102
RTVSPost2010PropOp45
 70
     1
102
RTVSPost2010Prop46
 90
       50
102
RTVSPost2010PropOp46
 70
     1
102
RTVSPost2010Prop47
 90
       50
102
RTVSPost2010PropOp47
 70
     1
102
RTVSPost2010Prop48
 90
       50
102
RTVSPost2010PropOp48
 70
     1
102
RTVSPost2010Prop49
280
     0
102
RTVSPost2010PropOp49
 70
     1
102
RTVSPost2010Prop50
 90
       50
102
RTVSPost2010PropOp50
 70
     1
102
RTVSPost2010Prop51ColorIndex
 90
      256
102
RTVSPost2010Prop51ColorRGB
 90
-16777216
102
RTVSPost2010PropOp51
 70
     0
102
RTVSPost2010Prop52
140
1.0
102
RTVSPost2010PropOp52
 70
     0
102
RTVSPost2010Prop53
 90
        2
102
RTVSPost2010PropOp53
 70
     1
102
RTVSPost2010Prop54
  1
strokes_ogs.tif
102
RTVSPost2010PropOp54
 70
     1
102
RTVSPost2010Prop55
280
     0
102
RTVSPost2010PropOp55
 70
     1
102
RTVSPost2010Prop56
140
1.0
102
RTVSPost2010PropOp56
 70
     1
102
RTVSPost2010Prop57
140
1.0
102
RTVSPost2010PropOp57
 70
     1
  0
XRECORD
  5
260
102
{ACAD_REACTORS
330
25F
102
}
330
25F
100
AcDbXrecord
280
     1
102
RTVSPost2010Prop28
280
     0
102
RTVSPost2010PropOp28
 70
     1
102
RTVSPost2010Prop29
280
     1
102
RTVSPost2010PropOp29
 70
     1
102
RTVSPost2010Prop30
280
     1
102
RTVSPost2010PropOp30
 70
     1
102
RTVSPost2010Prop31
280
     0
102
RTVSPost2010PropOp31
 70
     1
102
RTVSPost2010Prop32
280
     0
102
RTVSPost2010PropOp32
 70
     1
102
RTVSPost2010Prop33
280
     0
102
RTVSPost2010PropOp33
 70
     1
102
RTVSPost2010Prop34
280
     0
102
RTVSPost2010PropOp34
 70
     1
102
RTVSPost2010Prop35
280
     0
102
RTVSPost2010PropOp35
 70
     1
102
RTVSPost2010Prop36
280
     0
102
RTVSPost2010PropOp36
 70
     1
102
RTVSPost2010Prop37
 90
       50
102
RTVSPost2010PropOp37
 70
     1
102
RTVSPost2010Prop38
140
0.0
102
RTVSPost2010PropOp38
 70
     1
102
RTVSPost2010Prop39
140
1.0
102
RTVSPost2010PropOp39
 70
     1
102
RTVSPost2010Prop40
 90
        0
102
RTVSPost2010PropOp40
 70
     1
102
RTVSPost2010Prop41ColorIndex
 90
       18
102
RTVSPost2010Prop41ColorRGB
 90
        0
102
RTVSPost2010PropOp41
 70
     1
102
RTVSPost2010Prop42
 90
       50
102
RTVSPost2010PropOp42
 70
     1
102
RTVSPost2010Prop43
 90
        3
102
RTVSPost2010PropOp43
 70
     1
102
RTVSPost2010Prop44ColorIndex
 90
        5
102
RTVSPost2010Prop44ColorRGB
 90
      255
102
RTVSPost2010PropOp44
 70
     1
102
RTVSPost2010Prop45
280
     0
102
RTVSPost2010PropOp45
 70
     1
102
RTVSPost2010Prop46
 90
       50
102
RTVSPost2010PropOp46
 70
     1
102
RTVSPost2010Prop47
 90
       50
102
RTVSPost2010PropOp47
 70
     1
102
RTVSPost2010Prop48
 90
       50
102
RTVSPost2010PropOp48
 70
     1
102
RTVSPost2010Prop49
280
     0
102
RTVSPost2010PropOp49
 70
     1
102
RTVSPost2010Prop50
 90
       50
102
RTVSPost2010PropOp50
 70
     1
102
RTVSPost2010Prop51ColorIndex
 90
      256
102
RTVSPost2010Prop51ColorRGB
 90
-16777216
102
RTVSPost2010PropOp51
 70
     0
102
RTVSPost2010Prop52
140
1.0
102
RTVSPost2010PropOp52
 70
     0
102
RTVSPost2010Prop53
 90
        2
102
RTVSPost2010PropOp53
 70
     1
102
RTVSPost2010Prop54
  1
strokes_ogs.tif
102
RTVSPost2010PropOp54
 70
     1
102
RTVSPost2010Prop55
280
     0
102
RTVSPost2010PropOp55
 70
     1
102
RTVSPost2010Prop56
140
1.0
102
RTVSPost2010PropOp56
 70
     1
102
RTVSPost2010Prop57
140
1.0
102
RTVSPost2010PropOp57
 70
     1
  0
XRECORD
  5
250
102
{ACAD_REACTORS
330
24F
102
}
330
24F
100
AcDbXrecord
280
     1
102
RTVSPost2010Prop28
280
     0
102
RTVSPost2010PropOp28
 70
     1
102
RTVSPost2010Prop29
280
     1
102
RTVSPost2010PropOp29
 70
     1
102
RTVSPost2010Prop30
280
     1
102
RTVSPost2010PropOp30
 70
     1
102
RTVSPost2010Prop31
280
     0
102
RTVSPost2010PropOp31
 70
     1
102
RTVSPost2010Prop32
280
     0
102
RTVSPost2010PropOp32
 70
     1
102
RTVSPost2010Prop33
280
     0
102
RTVSPost2010PropOp33
 70
     1
102
RTVSPost2010Prop34
280
     0
102
RTVSPost2010PropOp34
 70
     1
102
RTVSPost2010Prop35
280
     0
102
RTVSPost2010PropOp35
 70
     1
102
RTVSPost2010Prop36
280
     0
102
RTVSPost2010PropOp36
 70
     1
102
RTVSPost2010Prop37
 90
       50
102
RTVSPost2010PropOp37
 70
     1
102
RTVSPost2010Prop38
140
0.0
102
RTVSPost2010PropOp38
 70
     1
102
RTVSPost2010Prop39
140
1.0
102
RTVSPost2010PropOp39
 70
     1
102
RTVSPost2010Prop40
 90
        0
102
RTVSPost2010PropOp40
 70
     1
102
RTVSPost2010Prop41ColorIndex
 90
       18
102
RTVSPost2010Prop41ColorRGB
 90
        0
102
RTVSPost2010PropOp41
 70
     1
102
RTVSPost2010Prop42
 90
       50
102
RTVSPost2010PropOp42
 70
     1
102
RTVSPost2010Prop43
 90
        3
102
RTVSPost2010PropOp43
 70
     1
102
RTVSPost2010Prop44ColorIndex
 90
        5
102
RTVSPost2010Prop44ColorRGB
 90
      255
102
RTVSPost2010PropOp44
 70
     1
102
RTVSPost2010Prop45
280
     0
102
RTVSPost2010PropOp45
 70
     1
102
RTVSPost2010Prop46
 90
       50
102
RTVSPost2010PropOp46
 70
     1
102
RTVSPost2010Prop47
 90
       50
102
RTVSPost2010PropOp47
 70
     1
102
RTVSPost2010Prop48
 90
       50
102
RTVSPost2010PropOp48
 70
     1
102
RTVSPost2010Prop49
280
     0
102
RTVSPost2010PropOp49
 70
     1
102
RTVSPost2010Prop50
 90
       50
102
RTVSPost2010PropOp50
 70
     1
102
RTVSPost2010Prop51ColorIndex
 90
      256
102
RTVSPost2010Prop51ColorRGB
 90
-16777216
102
RTVSPost2010PropOp51
 70
     0
102
RTVSPost2010Prop52
140
1.0
102
RTVSPost2010PropOp52
 70
     0
102
RTVSPost2010Prop53
 90
        2
102
RTVSPost2010PropOp53
 70
     1
102
RTVSPost2010Prop54
  1
strokes_ogs.tif
102
RTVSPost2010PropOp54
 70
     1
102
RTVSPost2010Prop55
280
     0
102
RTVSPost2010PropOp55
 70
     1
102
RTVSPost2010Prop56
140
1.0
102
RTVSPost2010PropOp56
 70
     1
102
RTVSPost2010Prop57
140
1.0
102
RTVSPost2010PropOp57
 70
     1
  0
XRECORD
  5
242
102
{ACAD_REACTORS
330
241
102
}
330
241
100
AcDbXrecord
280
     1
102
RTVSPost2010Prop28
280
     0
102
RTVSPost2010PropOp28
 70
     1
102
RTVSPost2010Prop29
280
     1
102
RTVSPost2010PropOp29
 70
     1
102
RTVSPost2010Prop30
280
     1
102
RTVSPost2010PropOp30
 70
     1
102
RTVSPost2010Prop31
280
     0
102
RTVSPost2010PropOp31
 70
     1
102
RTVSPost2010Prop32
280
     0
102
RTVSPost2010PropOp32
 70
     1
102
RTVSPost2010Prop33
280
     0
102
RTVSPost2010PropOp33
 70
     1
102
RTVSPost2010Prop34
280
     0
102
RTVSPost2010PropOp34
 70
     1
102
RTVSPost2010Prop35
280
     0
102
RTVSPost2010PropOp35
 70
     1
102
RTVSPost2010Prop36
280
     0
102
RTVSPost2010PropOp36
 70
     1
102
RTVSPost2010Prop37
 90
       50
102
RTVSPost2010PropOp37
 70
     1
102
RTVSPost2010Prop38
140
0.0
102
RTVSPost2010PropOp38
 70
     1
102
RTVSPost2010Prop39
140
1.0
102
RTVSPost2010PropOp39
 70
     1
102
RTVSPost2010Prop40
 90
        0
102
RTVSPost2010PropOp40
 70
     1
102
RTVSPost2010Prop41ColorIndex
 90
       18
102
RTVSPost2010Prop41ColorRGB
 90
        0
102
RTVSPost2010PropOp41
 70
     1
102
RTVSPost2010Prop42
 90
       50
102
RTVSPost2010PropOp42
 70
     1
102
RTVSPost2010Prop43
 90
        3
102
RTVSPost2010PropOp43
 70
     1
102
RTVSPost2010Prop44ColorIndex
 90
        5
102
RTVSPost2010Prop44ColorRGB
 90
      255
102
RTVSPost2010PropOp44
 70
     1
102
RTVSPost2010Prop45
280
     0
102
RTVSPost2010PropOp45
 70
     1
102
RTVSPost2010Prop46
 90
       50
102
RTVSPost2010PropOp46
 70
     1
102
RTVSPost2010Prop47
 90
       50
102
RTVSPost2010PropOp47
 70
     1
102
RTVSPost2010Prop48
 90
       50
102
RTVSPost2010PropOp48
 70
     1
102
RTVSPost2010Prop49
280
     0
102
RTVSPost2010PropOp49
 70
     1
102
RTVSPost2010Prop50
 90
       50
102
RTVSPost2010PropOp50
 70
     1
102
RTVSPost2010Prop51ColorIndex
 90
      256
102
RTVSPost2010Prop51ColorRGB
 90
-16777216
102
RTVSPost2010PropOp51
 70
     0
102
RTVSPost2010Prop52
140
1.0
102
RTVSPost2010PropOp52
 70
     0
102
RTVSPost2010Prop53
 90
        2
102
RTVSPost2010PropOp53
 70
     1
102
RTVSPost2010Prop54
  1
strokes_ogs.tif
102
RTVSPost2010PropOp54
 70
     1
102
RTVSPost2010Prop55
280
     0
102
RTVSPost2010PropOp55
 70
     1
102
RTVSPost2010Prop56
140
1.0
102
RTVSPost2010PropOp56
 70
     1
102
RTVSPost2010Prop57
140
1.0
102
RTVSPost2010PropOp57
 70
     1
  0
XRECORD
  5
262
102
{ACAD_REACTORS
330
261
102
}
330
261
100
AcDbXrecord
280
     1
102
RTVSPost2010Prop28
280
     0
102
RTVSPost2010PropOp28
 70
     1
102
RTVSPost2010Prop29
280
     1
102
RTVSPost2010PropOp29
 70
     1
102
RTVSPost2010Prop30
280
     1
102
RTVSPost2010PropOp30
 70
     1
102
RTVSPost2010Prop31
280
     0
102
RTVSPost2010PropOp31
 70
     1
102
RTVSPost2010Prop32
280
     0
102
RTVSPost2010PropOp32
 70
     1
102
RTVSPost2010Prop33
280
     0
102
RTVSPost2010PropOp33
 70
     1
102
RTVSPost2010Prop34
280
     0
102
RTVSPost2010PropOp34
 70
     1
102
RTVSPost2010Prop35
280
     0
102
RTVSPost2010PropOp35
 70
     1
102
RTVSPost2010Prop36
280
     0
102
RTVSPost2010PropOp36
 70
     1
102
RTVSPost2010Prop37
 90
       50
102
RTVSPost2010PropOp37
 70
     1
102
RTVSPost2010Prop38
140
0.0
102
RTVSPost2010PropOp38
 70
     1
102
RTVSPost2010Prop39
140
1.0
102
RTVSPost2010PropOp39
 70
     1
102
RTVSPost2010Prop40
 90
        0
102
RTVSPost2010PropOp40
 70
     1
102
RTVSPost2010Prop41ColorIndex
 90
       18
102
RTVSPost2010Prop41ColorRGB
 90
        0
102
RTVSPost2010PropOp41
 70
     1
102
RTVSPost2010Prop42
 90
       50
102
RTVSPost2010PropOp42
 70
     1
102
RTVSPost2010Prop43
 90
        3
102
RTVSPost2010PropOp43
 70
     1
102
RTVSPost2010Prop44ColorIndex
 90
        5
102
RTVSPost2010Prop44ColorRGB
 90
      255
102
RTVSPost2010PropOp44
 70
     1
102
RTVSPost2010Prop45
280
     0
102
RTVSPost2010PropOp45
 70
     1
102
RTVSPost2010Prop46
 90
       50
102
RTVSPost2010PropOp46
 70
     1
102
RTVSPost2010Prop47
 90
       50
102
RTVSPost2010PropOp47
 70
     1
102
RTVSPost2010Prop48
 90
       50
102
RTVSPost2010PropOp48
 70
     1
102
RTVSPost2010Prop49
280
     0
102
RTVSPost2010PropOp49
 70
     1
102
RTVSPost2010Prop50
 90
       50
102
RTVSPost2010PropOp50
 70
     1
102
RTVSPost2010Prop51ColorIndex
 90
      256
102
RTVSPost2010Prop51ColorRGB
 90
-16777216
102
RTVSPost2010PropOp51
 70
     0
102
RTVSPost2010Prop52
140
1.0
102
RTVSPost2010PropOp52
 70
     0
102
RTVSPost2010Prop53
 90
        2
102
RTVSPost2010PropOp53
 70
     1
102
RTVSPost2010Prop54
  1
strokes_ogs.tif
102
RTVSPost2010PropOp54
 70
     1
102
RTVSPost2010Prop55
280
     0
102
RTVSPost2010PropOp55
 70
     1
102
RTVSPost2010Prop56
140
1.0
102
RTVSPost2010PropOp56
 70
     1
102
RTVSPost2010Prop57
140
1.0
102
RTVSPost2010PropOp57
 70
     1
  0
ENDSEC
  0
EOF
