  0
SECTION
  2
HEADER
  9
$ACADVER
  1
AC1024
  9
$ACADMAINTVER
 70
     6
  9
$DWGCODEPAGE
  3
ANSI_932
  9
$INSBASE
 10
0.0
 20
0.0
 30
0.0
  9
$EXTMIN
 10
-4455.0
 20
-3150.0
 30
0.0
  9
$EXTMAX
 10
4455.0
 20
3150.0
 30
0.0
  9
$LIMMIN
 10
-4455.0
 20
-3150.0
  9
$LIMMAX
 10
4455.0
 20
3150.0
  9
$ORTHOMODE
 70
     0
  9
$REGENMODE
 70
     1
  9
$FILLMODE
 70
     1
  9
$QTEXTMODE
 70
     0
  9
$MIRRTEXT
 70
     1
  9
$LTSCALE
 40
30.0
  9
$ATTMODE
 70
     1
  9
$TEXTSIZE
 40
2.5
  9
$TRACEWID
 40
1.0
  9
$TEXTSTYLE
  7
Standard
  9
$CLAYER
  8
0
  9
$CELTYPE
  6
ByLayer
  9
$CECOLOR
 62
   256
  9
$CELTSCALE
 40
1.0
  9
$DISPSILH
 70
     0
  9
$DIMSCALE
 40
1.0
  9
$DIMASZ
 40
2.5
  9
$DIMEXO
 40
0.625
  9
$DIMDLI
 40
3.75
  9
$DIMRND
 40
0.0
  9
$DIMDLE
 40
0.0
  9
$DIMEXE
 40
1.25
  9
$DIMTP
 40
0.0
  9
$DIMTM
 40
0.0
  9
$DIMTXT
 40
2.5
  9
$DIMCEN
 40
2.5
  9
$DIMTSZ
 40
0.0
  9
$DIMTOL
 70
     0
  9
$DIMLIM
 70
     0
  9
$DIMTIH
 70
     0
  9
$DIMTOH
 70
     0
  9
$DIMSE1
 70
     0
  9
$DIMSE2
 70
     0
  9
$DIMTAD
 70
     1
  9
$DIMZIN
 70
     8
  9
$DIMBLK
  1

  9
$DIMASO
 70
     1
  9
$DIMSHO
 70
     1
  9
$DIMPOST
  1

  9
$DIMAPOST
  1

  9
$DIMALT
 70
     0
  9
$DIMALTD
 70
     3
  9
$DIMALTF
 40
0.03937007874016
  9
$DIMLFAC
 40
1.0
  9
$DIMTOFL
 70
     1
  9
$DIMTVP
 40
0.0
  9
$DIMTIX
 70
     0
  9
$DIMSOXD
 70
     0
  9
$DIMSAH
 70
     0
  9
$DIMBLK1
  1

  9
$DIMBLK2
  1

  9
$DIMSTYLE
  2
ISO-25
  9
$DIMCLRD
 70
     0
  9
$DIMCLRE
 70
     0
  9
$DIMCLRT
 70
     0
  9
$DIMTFAC
 40
1.0
  9
$DIMGAP
 40
0.625
  9
$DIMJUST
 70
     0
  9
$DIMSD1
 70
     0
  9
$DIMSD2
 70
     0
  9
$DIMTOLJ
 70
     0
  9
$DIMTZIN
 70
     8
  9
$DIMALTZ
 70
     0
  9
$DIMALTTZ
 70
     0
  9
$DIMUPT
 70
     0
  9
$DIMDEC
 70
     2
  9
$DIMTDEC
 70
     2
  9
$DIMALTU
 70
     2
  9
$DIMALTTD
 70
     3
  9
$DIMTXSTY
  7
Standard
  9
$DIMAUNIT
 70
     0
  9
$DIMADEC
 70
     0
  9
$DIMALTRND
 40
0.0
  9
$DIMAZIN
 70
     0
  9
$DIMDSEP
 70
    44
  9
$DIMATFIT
 70
     3
  9
$DIMFRAC
 70
     0
  9
$DIMLDRBLK
  1

  9
$DIMLUNIT
 70
     2
  9
$DIMLWD
 70
    -2
  9
$DIMLWE
 70
    -2
  9
$DIMTMOVE
 70
     0
  9
$DIMFXL
 40
1.0
  9
$DIMFXLON
 70
     0
  9
$DIMJOGANG
 40
0.7853981633974483
  9
$DIMTFILL
 70
     0
  9
$DIMTFILLCLR
 70
     0
  9
$DIMARCSYM
 70
     0
  9
$DIMLTYPE
  6

  9
$DIMLTEX1
  6

  9
$DIMLTEX2
  6

  9
$DIMTXTDIRECTION
 70
     0
  9
$LUNITS
 70
     2
  9
$LUPREC
 70
     4
  9
$SKETCHINC
 40
1.0
  9
$FILLETRAD
 40
10.0
  9
$AUNITS
 70
     0
  9
$AUPREC
 70
     0
  9
$MENU
  1
.
  9
$ELEVATION
 40
0.0
  9
$PELEVATION
 40
0.0
  9
$THICKNESS
 40
0.0
  9
$LIMCHECK
 70
     0
  9
$CHAMFERA
 40
10.0
  9
$CHAMFERB
 40
10.0
  9
$CHAMFERC
 40
20.0
  9
$CHAMFERD
 40
0.0
  9
$SKPOLY
 70
     0
  9
$TDCREATE
 40
2457953.402114977
  9
$TDUCREATE
 40
2457953.027114977
  9
$TDUPDATE
 40
2457953.402114988
  9
$TDUUPDATE
 40
2457953.027114988
  9
$TDINDWG
 40
0.0000000116
  9
$TDUSRTIMER
 40
0.0000000116
  9
$USRTIMER
 70
     1
  9
$ANGBASE
 50
0.0
  9
$ANGDIR
 70
     0
  9
$PDMODE
 70
     0
  9
$PDSIZE
 40
0.0
  9
$PLINEWID
 40
0.0
  9
$SPLFRAME
 70
     0
  9
$SPLINETYPE
 70
     6
  9
$SPLINESEGS
 70
     8
  9
$HANDSEED
  5
84
  9
$SURFTAB1
 70
     6
  9
$SURFTAB2
 70
     6
  9
$SURFTYPE
 70
     6
  9
$SURFU
 70
     6
  9
$SURFV
 70
     6
  9
$UCSBASE
  2

  9
$UCSNAME
  2

  9
$UCSORG
 10
0.0
 20
0.0
 30
0.0
  9
$UCSXDIR
 10
1.0
 20
0.0
 30
0.0
  9
$UCSYDIR
 10
0.0
 20
1.0
 30
0.0
  9
$UCSORTHOREF
  2

  9
$UCSORTHOVIEW
 70
     0
  9
$UCSORGTOP
 10
0.0
 20
0.0
 30
0.0
  9
$UCSORGBOTTOM
 10
0.0
 20
0.0
 30
0.0
  9
$UCSORGLEFT
 10
0.0
 20
0.0
 30
0.0
  9
$UCSORGRIGHT
 10
0.0
 20
0.0
 30
0.0
  9
$UCSORGFRONT
 10
0.0
 20
0.0
 30
0.0
  9
$UCSORGBACK
 10
0.0
 20
0.0
 30
0.0
  9
$PUCSBASE
  2

  9
$PUCSNAME
  2

  9
$PUCSORG
 10
0.0
 20
0.0
 30
0.0
  9
$PUCSXDIR
 10
1.0
 20
0.0
 30
0.0
  9
$PUCSYDIR
 10
0.0
 20
1.0
 30
0.0
  9
$PUCSORTHOREF
  2

  9
$PUCSORTHOVIEW
 70
     0
  9
$PUCSORGTOP
 10
0.0
 20
0.0
 30
0.0
  9
$PUCSORGBOTTOM
 10
0.0
 20
0.0
 30
0.0
  9
$PUCSORGLEFT
 10
0.0
 20
0.0
 30
0.0
  9
$PUCSORGRIGHT
 10
0.0
 20
0.0
 30
0.0
  9
$PUCSORGFRONT
 10
0.0
 20
0.0
 30
0.0
  9
$PUCSORGBACK
 10
0.0
 20
0.0
 30
0.0
  9
$USERI1
 70
     0
  9
$USERI2
 70
     0
  9
$USERI3
 70
     0
  9
$USERI4
 70
     0
  9
$USERI5
 70
     0
  9
$USERR1
 40
0.0
  9
$USERR2
 40
0.0
  9
$USERR3
 40
0.0
  9
$USERR4
 40
0.0
  9
$USERR5
 40
0.0
  9
$WORLDVIEW
 70
     1
  9
$SHADEDGE
 70
     3
  9
$SHADEDIF
 70
    70
  9
$TILEMODE
 70
     1
  9
$MAXACTVP
 70
    64
  9
$PINSBASE
 10
0.0
 20
0.0
 30
0.0
  9
$PLIMCHECK
 70
     0
  9
$PEXTMIN
 10
1.000000000000000E+20
 20
1.000000000000000E+20
 30
1.000000000000000E+20
  9
$PEXTMAX
 10
-1.000000000000000E+20
 20
-1.000000000000000E+20
 30
-1.000000000000000E+20
  9
$PLIMMIN
 10
0.0
 20
0.0
  9
$PLIMMAX
 10
420.0
 20
297.0
  9
$UNITMODE
 70
     0
  9
$VISRETAIN
 70
     1
  9
$PLINEGEN
 70
     0
  9
$PSLTSCALE
 70
     1
  9
$TREEDEPTH
 70
  3020
  9
$CMLSTYLE
  2
Standard
  9
$CMLJUST
 70
     0
  9
$CMLSCALE
 40
20.0
  9
$PROXYGRAPHICS
 70
     1
  9
$MEASUREMENT
 70
     1
  9
$CELWEIGHT
370
    -1
  9
$ENDCAPS
280
     0
  9
$JOINSTYLE
280
     0
  9
$LWDISPLAY
290
     0
  9
$INSUNITS
 70
     4
  9
$HYPERLINKBASE
  1

  9
$STYLESHEET
  1

  9
$XEDIT
290
     1
  9
$CEPSNTYPE
380
     0
  9
$PSTYLEMODE
290
     1
  9
$FINGERPRINTGUID
  2
{1033765C-2511-46FF-BFDF-F4429D427985}
  9
$VERSIONGUID
  2
{FAEB1C32-E019-11D5-929B-00C0DF256EC4}
  9
$EXTNAMES
290
     1
  9
$PSVPSCALE
 40
0.0
  9
$OLESTARTUP
290
     0
  9
$SORTENTS
280
   127
  9
$INDEXCTL
280
     0
  9
$HIDETEXT
280
     1
  9
$XCLIPFRAME
280
     2
  9
$HALOGAP
280
     0
  9
$OBSCOLOR
 70
   257
  9
$OBSLTYPE
280
     0
  9
$INTERSECTIONDISPLAY
280
     0
  9
$INTERSECTIONCOLOR
 70
   257
  9
$DIMASSOC
280
     2
  9
$PROJECTNAME
  1

  9
$CAMERADISPLAY
290
     0
  9
$LENSLENGTH
 40
50.0
  9
$CAMERAHEIGHT
 40
0.0
  9
$STEPSPERSEC
 40
2.0
  9
$STEPSIZE
 40
6.0
  9
$3DDWFPREC
 40
2.0
  9
$PSOLWIDTH
 40
5.0
  9
$PSOLHEIGHT
 40
80.0
  9
$LOFTANG1
 40
1.570796326794897
  9
$LOFTANG2
 40
1.570796326794897
  9
$LOFTMAG1
 40
0.0
  9
$LOFTMAG2
 40
0.0
  9
$LOFTPARAM
 70
     7
  9
$LOFTNORMALS
280
     1
  9
$LATITUDE
 40
37.795
  9
$LONGITUDE
 40
-122.394
  9
$NORTHDIRECTION
 40
0.0
  9
$TIMEZONE
 70
 -8000
  9
$LIGHTGLYPHDISPLAY
280
     1
  9
$TILEMODELIGHTSYNCH
280
     1
  9
$SOLIDHIST
280
     1
  9
$SHOWHIST
280
     1
  9
$DWFFRAME
280
     2
  9
$DGNFRAME
280
     2
  9
$REALWORLDSCALE
290
     1
  9
$INTERFERECOLOR
 62
   256
  9
$CSHADOW
280
     0
  9
$SHADOWPLANELOCATION
 40
0.0
  0
ENDSEC
  0
SECTION
  2
CLASSES
  0
CLASS
  1
ACDBDICTIONARYWDFLT
  2
AcDbDictionaryWithDefault
  3
ObjectDBX Classes
 90
        0
 91
        4
280
     0
281
     0
  0
CLASS
  1
VISUALSTYLE
  2
AcDbVisualStyle
  3
ObjectDBX Classes
 90
     4095
 91
        4
280
     0
281
     0
  0
CLASS
  1
MATERIAL
  2
AcDbMaterial
  3
ObjectDBX Classes
 90
     1153
 91
        4
280
     0
281
     0
  0
ENDSEC
  0
SECTION
  2
TABLES
  0
TABLE
  2
VPORT
  5
8
330
0
100
AcDbSymbolTable
 70
     1
  0
VPORT
  5
29
330
8
100
AcDbSymbolTableRecord
100
AcDbViewportTableRecord
  2
*Active
 70
     0
 10
0.0
 20
0.0
 11
1.0
 21
1.0
 12
0.0
 22
0.0
 13
0.0
 23
0.0
 14
10.0
 24
10.0
 15
10.0
 25
10.0
 16
0.0
 26
0.0
 36
1.0
 17
0.0
 27
0.0
 37
0.0
 40
6930.000000000001
 41
1.414285714285714
 42
50.0
 43
0.0
 44
0.0
 50
0.0
 51
0.0
 71
     0
 72
 10000
 73
     1
 74
     3
 75
     0
 76
     0
 77
     0
 78
     0
281
     0
 65
     1
110
0.0
120
0.0
130
0.0
111
1.0
121
0.0
131
0.0
112
0.0
122
1.0
132
0.0
 79
     0
146
0.0
 60
     3
 61
     5
292
     1
282
     1
141
0.0
142
0.0
 63
   250
  0
ENDTAB
  0
TABLE
  2
LTYPE
  5
5
330
0
100
AcDbSymbolTable
 70
     1
  0
LTYPE
  5
14
330
5
100
AcDbSymbolTableRecord
100
AcDbLinetypeTableRecord
  2
ByBlock
 70
     0
  3

 72
    65
 73
     0
 40
0.0
  0
LTYPE
  5
15
330
5
100
AcDbSymbolTableRecord
100
AcDbLinetypeTableRecord
  2
ByLayer
 70
     0
  3

 72
    65
 73
     0
 40
0.0
  0
LTYPE
  5
16
330
5
100
AcDbSymbolTableRecord
100
AcDbLinetypeTableRecord
  2
Continuous
 70
     0
  3
Solid line
 72
    65
 73
     0
 40
0.0
  0
ENDTAB
  0
TABLE
  2
LAYER
  5
2
330
0
100
AcDbSymbolTable
 70
     3
  0
LAYER
  5
10
330
2
100
AcDbSymbolTableRecord
100
AcDbLayerTableRecord
  2
0
 70
     0
 62
     7
  6
Continuous
370
    -3
390
F
347
3E
  0
LAYER
  5
3F
330
2
100
AcDbSymbolTableRecord
100
AcDbLayerTableRecord
  2
0-0
 70
     0
 62
     7
  6
Continuous
370
    -3
390
F
347
3E
  0
LAYER
  5
40
330
2
100
AcDbSymbolTableRecord
100
AcDbLayerTableRecord
  2
寸法
 70
     0
 62
     7
  6
Continuous
370
    -3
390
F
347
3E
  0
ENDTAB
  0
TABLE
  2
STYLE
  5
3
330
0
100
AcDbSymbolTable
 70
     1
  0
STYLE
  5
11
330
3
100
AcDbSymbolTableRecord
100
AcDbTextStyleTableRecord
  2
Standard
 70
     0
 40
0.0
 41
1.0
 50
0.0
 71
     0
 42
2.5
  3
txt
  4

  0
ENDTAB
  0
TABLE
  2
VIEW
  5
6
330
0
100
AcDbSymbolTable
 70
     0
  0
ENDTAB
  0
TABLE
  2
UCS
  5
7
330
0
100
AcDbSymbolTable
 70
     0
  0
ENDTAB
  0
TABLE
  2
APPID
  5
9
330
0
100
AcDbSymbolTable
 70
     1
  0
APPID
  5
12
330
9
100
AcDbSymbolTableRecord
100
AcDbRegAppTableRecord
  2
ACAD
 70
     0
  0
ENDTAB
  0
TABLE
  2
DIMSTYLE
  5
A
330
0
100
AcDbSymbolTable
 70
     1
100
AcDbDimStyleTable
  0
DIMSTYLE
105
27
330
A
100
AcDbSymbolTableRecord
100
AcDbDimStyleTableRecord
  2
ISO-25
 70
     0
 41
2.5
 42
0.625
 43
3.75
 44
1.25
 73
     0
 74
     0
 77
     1
 78
     8
140
2.5
141
2.5
143
0.03937007874016
147
0.625
171
     3
172
     1
178
     0
271
     2
272
     2
274
     3
278
    44
283
     0
284
     8
340
11
  0
ENDTAB
  0
TABLE
  2
BLOCK_RECORD
  5
1
330
0
100
AcDbSymbolTable
 70
     1
  0
BLOCK_RECORD
  5
1F
330
1
100
AcDbSymbolTableRecord
100
AcDbBlockTableRecord
  2
*Model_Space
340
22
 70
     0
280
     1
281
     0
  0
BLOCK_RECORD
  5
1B
330
1
100
AcDbSymbolTableRecord
100
AcDbBlockTableRecord
  2
*Paper_Space
340
1E
 70
     0
280
     1
281
     0
  0
BLOCK_RECORD
  5
23
330
1
100
AcDbSymbolTableRecord
100
AcDbBlockTableRecord
  2
*Paper_Space0
340
26
 70
     0
280
     1
281
     0
  0
ENDTAB
  0
ENDSEC
  0
SECTION
  2
BLOCKS
  0
BLOCK
  5
20
330
1F
100
AcDbEntity
  8
0
100
AcDbBlockBegin
  2
*Model_Space
 70
     0
 10
0.0
 20
0.0
 30
0.0
  3
*Model_Space
  1

  0
ENDBLK
  5
21
330
1F
100
AcDbEntity
  8
0
100
AcDbBlockEnd
  0
BLOCK
  5
1C
330
1B
100
AcDbEntity
 67
     1
  8
0
100
AcDbBlockBegin
  2
*Paper_Space
 70
     0
 10
0.0
 20
0.0
 30
0.0
  3
*Paper_Space
  1

  0
ENDBLK
  5
1D
330
1B
100
AcDbEntity
 67
     1
  8
0
100
AcDbBlockEnd
  0
BLOCK
  5
24
330
23
100
AcDbEntity
  8
0
100
AcDbBlockBegin
  2
*Paper_Space0
 70
     0
 10
0.0
 20
0.0
 30
0.0
  3
*Paper_Space0
  1

  0
ENDBLK
  5
25
330
23
100
AcDbEntity
  8
0
100
AcDbBlockEnd
  0
ENDSEC
  0
SECTION
  2
ENTITIES
  0
LINE
  5
41
330
1F
100
AcDbEntity
  8
0-0
  6
Continuous
 62
    92
370
    13
100
AcDbLine
 10
-208.5999999999996
 20
-213.7538461538462
 30
0.0
 11
125.4000000000002
 21
-213.7538461538462
 31
0.0
  0
LINE
  5
42
330
1F
100
AcDbEntity
  8
0-0
  6
Continuous
 62
     7
370
     9
100
AcDbLine
 10
129.4
 20
921.2461538461537
 30
0.0
 11
129.4
 21
-213.7538461538462
 31
0.0
  0
LINE
  5
43
330
1F
100
AcDbEntity
  8
0-0
  6
Continuous
 62
     7
370
     9
100
AcDbLine
 10
-208.5999999999996
 20
921.2461538461537
 30
0.0
 11
125.4000000000002
 21
921.2461538461537
 31
0.0
  0
LINE
  5
44
330
1F
100
AcDbEntity
  8
0-0
  6
Continuous
 62
     7
370
     9
100
AcDbLine
 10
125.4000000000002
 20
921.2461538461537
 30
0.0
 11
125.4000000000002
 21
-213.7538461538462
 31
0.0
  0
LINE
  5
45
330
1F
100
AcDbEntity
  8
0-0
  6
Continuous
 62
     7
370
     9
100
AcDbLine
 10
129.4
 20
921.2461538461537
 30
0.0
 11
463.3999999999997
 21
921.2461538461537
 31
0.0
  0
LINE
  5
46
330
1F
100
AcDbEntity
  8
0-0
  6
Continuous
 62
     7
370
     9
100
AcDbLine
 10
-208.5999999999996
 20
921.2461538461537
 30
0.0
 11
-208.5999999999996
 21
-213.7538461538462
 31
0.0
  0
LINE
  5
47
330
1F
100
AcDbEntity
  8
0-0
  6
Continuous
 62
     7
370
     9
100
AcDbLine
 10
463.3999999999997
 20
921.2461538461537
 30
0.0
 11
463.3999999999997
 21
-213.7538461538462
 31
0.0
  0
LINE
  5
48
330
1F
100
AcDbEntity
  8
0-0
  6
Continuous
 62
     7
370
     9
100
AcDbLine
 10
129.4
 20
-213.7538461538462
 30
0.0
 11
463.3999999999997
 21
-213.7538461538462
 31
0.0
  0
LINE
  5
49
330
1F
100
AcDbEntity
  8
0-0
  6
Continuous
 62
     7
370
     9
100
AcDbLine
 10
-208.5999999999996
 20
-213.7538461538462
 30
0.0
 11
125.4000000000002
 21
-213.7538461538462
 31
0.0
  0
LINE
  5
4A
330
1F
100
AcDbEntity
  8
0-0
  6
Continuous
 62
    92
370
    13
100
AcDbLine
 10
-212.0999999999998
 20
926.2461538461542
 30
0.0
 11
466.9
 21
926.2461538461542
 31
0.0
  0
LINE
  5
4B
330
1F
100
AcDbEntity
  8
0-0
  6
Continuous
 62
    92
370
    13
100
AcDbLine
 10
-212.0999999999998
 20
-218.7538461538468
 30
0.0
 11
466.9
 21
-218.7538461538468
 31
0.0
  0
LINE
  5
4C
330
1F
100
AcDbEntity
  8
0-0
  6
Continuous
 62
    92
370
    13
100
AcDbLine
 10
-212.0999999999998
 20
936.2461538461541
 30
0.0
 11
-212.0999999999998
 21
-228.7538461538462
 31
0.0
  0
LINE
  5
4D
330
1F
100
AcDbEntity
  8
0-0
  6
Continuous
 62
    92
370
    13
100
AcDbLine
 10
466.9
 20
-228.7538461538462
 30
0.0
 11
466.9
 21
936.2461538461541
 31
0.0
  0
LINE
  5
4E
330
1F
100
AcDbEntity
  8
0-0
  6
Continuous
 62
    92
370
    13
100
AcDbLine
 10
-246.0999999999996
 20
960.2461538461545
 30
0.0
 11
500.8999999999997
 21
960.2461538461545
 31
0.0
  0
LINE
  5
4F
330
1F
100
AcDbEntity
  8
0-0
  6
Continuous
 62
    92
370
    13
100
AcDbLine
 10
-222.0999999999992
 20
936.2461538461541
 30
0.0
 11
476.8999999999994
 21
936.2461538461541
 31
0.0
  0
LINE
  5
50
330
1F
100
AcDbEntity
  8
0-0
  6
Continuous
 62
    92
370
    13
100
AcDbLine
 10
-222.0999999999992
 20
960.2461538461545
 30
0.0
 11
-222.0999999999992
 21
-242.7538461538462
 31
0.0
  0
LINE
  5
51
330
1F
100
AcDbEntity
  8
0-0
  6
Continuous
 62
    92
370
    13
100
AcDbLine
 10
-246.0999999999996
 20
960.2461538461545
 30
0.0
 11
-246.0999999999996
 21
-242.7538461538462
 31
0.0
  0
LINE
  5
52
330
1F
100
AcDbEntity
  8
0-0
  6
Continuous
 62
    92
370
    13
100
AcDbLine
 10
476.8999999999994
 20
960.2461538461545
 30
0.0
 11
476.8999999999994
 21
-242.7538461538462
 31
0.0
  0
LINE
  5
53
330
1F
100
AcDbEntity
  8
0-0
  6
Continuous
 62
    92
370
    13
100
AcDbLine
 10
500.8999999999997
 20
960.2461538461545
 30
0.0
 11
500.8999999999997
 21
-242.7538461538462
 31
0.0
  0
LINE
  5
54
330
1F
100
AcDbEntity
  8
0-0
  6
Continuous
 62
    92
370
    13
100
AcDbLine
 10
-246.0999999999996
 20
-242.7538461538462
 30
0.0
 11
500.8999999999997
 21
-242.7538461538462
 31
0.0
  0
LINE
  5
55
330
1F
100
AcDbEntity
  8
0-0
  6
Continuous
 62
    92
370
    13
100
AcDbLine
 10
-222.0999999999992
 20
-228.7538461538462
 30
0.0
 11
476.8999999999994
 21
-228.7538461538462
 31
0.0
  0
LINE
  5
56
330
1F
100
AcDbEntity
  8
0-0
  6
Continuous
 62
     7
370
     9
100
AcDbLine
 10
-139.5999999999992
 20
841.2461538461536
 30
0.0
 11
56.39999999999986
 21
841.2461538461536
 31
0.0
  0
LINE
  5
57
330
1F
100
AcDbEntity
  8
0-0
  6
Continuous
 62
     7
370
     9
100
AcDbLine
 10
-139.5999999999992
 20
921.2461538461537
 30
0.0
 11
-139.5999999999992
 21
-213.7538461538462
 31
0.0
  0
LINE
  5
58
330
1F
100
AcDbEntity
  8
0-0
  6
Continuous
 62
     7
370
     9
100
AcDbLine
 10
56.39999999999986
 20
921.2461538461537
 30
0.0
 11
56.39999999999986
 21
-213.7538461538462
 31
0.0
  0
LINE
  5
59
330
1F
100
AcDbEntity
  8
0-0
  6
Continuous
 62
     7
370
     9
100
AcDbLine
 10
198.4000000000003
 20
921.2461538461537
 30
0.0
 11
198.4000000000003
 21
-213.7538461538462
 31
0.0
  0
LINE
  5
5A
330
1F
100
AcDbEntity
  8
0-0
  6
Continuous
 62
     7
370
     9
100
AcDbLine
 10
198.4000000000003
 20
841.2461538461536
 30
0.0
 11
394.3999999999994
 21
841.2461538461536
 31
0.0
  0
LINE
  5
5B
330
1F
100
AcDbEntity
  8
0-0
  6
Continuous
 62
     7
370
     9
100
AcDbLine
 10
198.4000000000003
 20
-133.753846153846
 30
0.0
 11
394.3999999999994
 21
-133.753846153846
 31
0.0
  0
LINE
  5
5C
330
1F
100
AcDbEntity
  8
0-0
  6
Continuous
 62
     7
370
     9
100
AcDbLine
 10
394.3999999999994
 20
921.2461538461537
 30
0.0
 11
394.3999999999994
 21
-213.7538461538462
 31
0.0
  0
LINE
  5
5D
330
1F
100
AcDbEntity
  8
0-0
  6
Continuous
 62
     7
370
     9
100
AcDbLine
 10
-139.5999999999992
 20
-133.753846153846
 30
0.0
 11
56.39999999999986
 21
-133.753846153846
 31
0.0
  0
LWPOLYLINE
  5
5E
330
1F
100
AcDbEntity
  8
寸法
  6
Continuous
 62
     7
370
     9
100
AcDbPolyline
 90
        4
 70
     1
 43
3.0
 10
-207.0999999999996
 20
-492.7538461538456
 42
0.4142135623731
 10
-208.5999999999996
 20
-491.2538461538456
 42
0.4142135623731
 10
-210.0999999999996
 20
-492.7538461538456
 42
0.4142135623731
 10
-208.5999999999996
 20
-494.2538461538457
 42
0.4142135623731
  0
LWPOLYLINE
  5
5F
330
1F
100
AcDbEntity
  8
寸法
  6
Continuous
 62
     7
370
     9
100
AcDbPolyline
 90
        4
 70
     1
 43
3.0
 10
126.9000000000002
 20
-492.7538461538456
 42
0.4142135623731
 10
125.4000000000002
 20
-491.2538461538456
 42
0.4142135623731
 10
123.9000000000002
 20
-492.7538461538456
 42
0.4142135623731
 10
125.4000000000002
 20
-494.2538461538457
 42
0.4142135623731
  0
LINE
  5
60
330
1F
100
AcDbEntity
  8
寸法
  6
Continuous
 62
   120
370
     5
100
AcDbLine
 10
-208.5999999999996
 20
-492.7538461538456
 30
0.0
 11
-208.5999999999996
 21
-292.753846153846
 31
0.0
  0
LWPOLYLINE
  5
61
330
1F
100
AcDbEntity
  8
寸法
  6
Continuous
 62
     7
370
     9
100
AcDbPolyline
 90
        4
 70
     1
 43
3.0
 10
130.9
 20
-492.7538461538456
 42
0.4142135623731
 10
129.4
 20
-491.2538461538456
 42
0.4142135623731
 10
127.9
 20
-492.7538461538456
 42
0.4142135623731
 10
129.4
 20
-494.2538461538457
 42
0.4142135623731
  0
LWPOLYLINE
  5
62
330
1F
100
AcDbEntity
  8
寸法
  6
Continuous
 62
     7
370
     9
100
AcDbPolyline
 90
        4
 70
     1
 43
3.0
 10
464.8999999999997
 20
-492.7538461538456
 42
0.4142135623731
 10
463.3999999999997
 20
-491.2538461538456
 42
0.4142135623731
 10
461.8999999999997
 20
-492.7538461538456
 42
0.4142135623731
 10
463.3999999999997
 20
-494.2538461538457
 42
0.4142135623731
  0
LINE
  5
63
330
1F
100
AcDbEntity
  8
寸法
  6
Continuous
 62
   120
370
     5
100
AcDbLine
 10
463.3999999999997
 20
-492.7538461538456
 30
0.0
 11
463.3999999999997
 21
-292.753846153846
 31
0.0
  0
LINE
  5
64
330
1F
100
AcDbEntity
  8
寸法
  6
Continuous
 62
   120
370
     5
100
AcDbLine
 10
-212.0999999999998
 20
-692.7538461538456
 30
0.0
 11
466.9
 21
-692.7538461538456
 31
0.0
  0
LWPOLYLINE
  5
65
330
1F
100
AcDbEntity
  8
寸法
  6
Continuous
 62
     7
370
     9
100
AcDbPolyline
 90
        4
 70
     1
 43
3.0
 10
-210.5999999999998
 20
-692.7538461538456
 42
0.4142135623731
 10
-212.0999999999998
 20
-691.2538461538455
 42
0.4142135623731
 10
-213.5999999999998
 20
-692.7538461538456
 42
0.4142135623731
 10
-212.0999999999998
 20
-694.2538461538456
 42
0.4142135623731
  0
LWPOLYLINE
  5
66
330
1F
100
AcDbEntity
  8
寸法
  6
Continuous
 62
     7
370
     9
100
AcDbPolyline
 90
        4
 70
     1
 43
3.0
 10
468.4
 20
-692.7538461538456
 42
0.4142135623731
 10
466.9
 20
-691.2538461538455
 42
0.4142135623731
 10
465.4
 20
-692.7538461538456
 42
0.4142135623731
 10
466.9
 20
-694.2538461538456
 42
0.4142135623731
  0
LINE
  5
67
330
1F
100
AcDbEntity
  8
寸法
  6
Continuous
 62
   120
370
     5
100
AcDbLine
 10
-212.0999999999998
 20
-692.7538461538456
 30
0.0
 11
-212.0999999999998
 21
-292.753846153846
 31
0.0
  0
LINE
  5
68
330
1F
100
AcDbEntity
  8
寸法
  6
Continuous
 62
   120
370
     5
100
AcDbLine
 10
466.9
 20
-692.7538461538456
 30
0.0
 11
466.9
 21
-292.753846153846
 31
0.0
  0
LWPOLYLINE
  5
69
330
1F
100
AcDbEntity
  8
寸法
  6
Continuous
 62
     7
370
     9
100
AcDbPolyline
 90
        4
 70
     1
 43
3.0
 10
-234.5999999999993
 20
-892.7538461538456
 42
0.4142135623731
 10
-236.0999999999993
 20
-891.2538461538456
 42
0.4142135623731
 10
-237.5999999999993
 20
-892.7538461538456
 42
0.4142135623731
 10
-236.0999999999993
 20
-894.2538461538456
 42
0.4142135623731
  0
LINE
  5
6A
330
1F
100
AcDbEntity
  8
寸法
  6
Continuous
 62
   120
370
     5
100
AcDbLine
 10
-236.0999999999993
 20
-892.7538461538456
 30
0.0
 11
-236.0999999999993
 21
-292.753846153846
 31
0.0
  0
LWPOLYLINE
  5
6B
330
1F
100
AcDbEntity
  8
寸法
  6
Continuous
 62
     7
370
     9
100
AcDbPolyline
 90
        4
 70
     1
 43
3.0
 10
492.3999999999995
 20
-892.7538461538456
 42
0.4142135623731
 10
490.8999999999995
 20
-891.2538461538456
 42
0.4142135623731
 10
489.3999999999995
 20
-892.7538461538456
 42
0.4142135623731
 10
490.8999999999995
 20
-894.2538461538456
 42
0.4142135623731
  0
LINE
  5
6C
330
1F
100
AcDbEntity
  8
寸法
  6
Continuous
 62
   120
370
     5
100
AcDbLine
 10
490.8999999999995
 20
-892.7538461538456
 30
0.0
 11
490.8999999999995
 21
-292.753846153846
 31
0.0
  0
LINE
  5
6D
330
1F
100
AcDbEntity
  8
寸法
  6
Continuous
 62
   120
370
     5
100
AcDbLine
 10
-236.0999999999993
 20
-892.7538461538456
 30
0.0
 11
490.8999999999995
 21
-892.7538461538456
 31
0.0
  0
LINE
  5
6E
330
1F
100
AcDbEntity
  8
寸法
  6
Continuous
 62
   120
370
     5
100
AcDbLine
 10
-496.0999999999999
 20
-213.7538461538462
 30
0.0
 11
-496.0999999999999
 21
921.2461538461537
 31
0.0
  0
LWPOLYLINE
  5
6F
330
1F
100
AcDbEntity
  8
寸法
  6
Continuous
 62
     7
370
     9
100
AcDbPolyline
 90
        4
 70
     1
 43
3.0
 10
-494.5999999999999
 20
-213.7538461538462
 42
0.4142135623731
 10
-496.0999999999999
 20
-212.2538461538462
 42
0.4142135623731
 10
-497.5999999999999
 20
-213.7538461538462
 42
0.4142135623731
 10
-496.0999999999999
 20
-215.2538461538462
 42
0.4142135623731
  0
LWPOLYLINE
  5
70
330
1F
100
AcDbEntity
  8
寸法
  6
Continuous
 62
     7
370
     9
100
AcDbPolyline
 90
        4
 70
     1
 43
3.0
 10
-494.5999999999999
 20
921.2461538461537
 42
0.4142135623731
 10
-496.0999999999999
 20
922.7461538461537
 42
0.4142135623731
 10
-497.5999999999999
 20
921.2461538461537
 42
0.4142135623731
 10
-496.0999999999999
 20
919.7461538461537
 42
0.4142135623731
  0
LINE
  5
71
330
1F
100
AcDbEntity
  8
寸法
  6
Continuous
 62
   120
370
     5
100
AcDbLine
 10
-496.0999999999999
 20
-213.7538461538462
 30
0.0
 11
-296.1000000000001
 21
-213.7538461538462
 31
0.0
  0
LINE
  5
72
330
1F
100
AcDbEntity
  8
寸法
  6
Continuous
 62
   120
370
     5
100
AcDbLine
 10
-496.0999999999999
 20
921.2461538461537
 30
0.0
 11
-296.1000000000001
 21
921.2461538461537
 31
0.0
  0
LINE
  5
73
330
1F
100
AcDbEntity
  8
寸法
  6
Continuous
 62
   120
370
     5
100
AcDbLine
 10
-696.0999999999996
 20
-242.7538461538462
 30
0.0
 11
-696.0999999999996
 21
950.2461538461546
 31
0.0
  0
LWPOLYLINE
  5
74
330
1F
100
AcDbEntity
  8
寸法
  6
Continuous
 62
     7
370
     9
100
AcDbPolyline
 90
        4
 70
     1
 43
3.0
 10
-694.5999999999996
 20
-242.7538461538462
 42
0.4142135623731
 10
-696.0999999999996
 20
-241.2538461538462
 42
0.4142135623731
 10
-697.5999999999996
 20
-242.7538461538462
 42
0.4142135623731
 10
-696.0999999999996
 20
-244.2538461538463
 42
0.4142135623731
  0
LWPOLYLINE
  5
75
330
1F
100
AcDbEntity
  8
寸法
  6
Continuous
 62
     7
370
     9
100
AcDbPolyline
 90
        4
 70
     1
 43
3.0
 10
-694.5999999999996
 20
950.2461538461546
 42
0.4142135623731
 10
-696.0999999999996
 20
951.7461538461546
 42
0.4142135623731
 10
-697.5999999999996
 20
950.2461538461546
 42
0.4142135623731
 10
-696.0999999999996
 20
948.7461538461546
 42
0.4142135623731
  0
LINE
  5
76
330
1F
100
AcDbEntity
  8
寸法
  6
Continuous
 62
   120
370
     5
100
AcDbLine
 10
-696.0999999999996
 20
-242.7538461538462
 30
0.0
 11
-296.1000000000001
 21
-242.7538461538462
 31
0.0
  0
LINE
  5
77
330
1F
100
AcDbEntity
  8
寸法
  6
Continuous
 62
   120
370
     5
100
AcDbLine
 10
-696.0999999999996
 20
950.2461538461546
 30
0.0
 11
-296.1000000000001
 21
950.2461538461546
 31
0.0
  0
MTEXT
  5
78
330
1F
100
AcDbEntity
  8
寸法
  6
Continuous
 62
     7
370
   211
100
AcDbMText
 10
-142.5999999999999
 20
-692.0338461538456
 30
0.0
 40
91.43999999999998
 41
540.0
 46
0.0
 71
     7
 72
     1
  1
{\fＭＳ ゴシック|b0|i0|c128|p49;枠内＝679}
 73
     1
 44
1.0
  0
MTEXT
  5
79
330
1F
100
AcDbEntity
  8
寸法
  6
Continuous
 62
     7
370
   211
100
AcDbMText
 10
-142.5999999999999
 20
-892.0338461538456
 30
0.0
 40
91.43999999999998
 41
540.0
 46
0.0
 71
     7
 72
     1
  1
{\fＭＳ ゴシック|b0|i0|c128|p49;枠外＝727}
 73
     1
 44
1.0
  0
MTEXT
  5
7A
330
1F
100
AcDbEntity
  8
寸法
  6
Continuous
 62
     7
370
   211
100
AcDbMText
 10
-511.0999999999999
 20
9.46615384615357
 30
0.0
 40
91.43999999999997
 41
660.0
 46
0.0
 71
     7
 72
     1
  1
{\fＭＳ ゴシック|b0|i0|c128|p49;ＤＨ＝1,135}
 11
6.123031769111886E-17
 21
1.0
 31
0.0
 73
     1
 44
1.0
  0
MTEXT
  5
7B
330
1F
100
AcDbEntity
  8
寸法
  6
Continuous
 62
     7
370
   211
100
AcDbMText
 10
-711.0999999999996
 20
9.46615384615437
 30
0.0
 40
91.43999999999997
 41
660.0
 46
0.0
 71
     7
 72
     1
  1
{\fＭＳ ゴシック|b0|i0|c128|p49;枠外＝1,193}
 11
6.123031769111886E-17
 21
1.0
 31
0.0
 73
     1
 44
1.0
  0
MTEXT
  5
7C
330
1F
100
AcDbEntity
  8
寸法
  6
Continuous
 62
     7
370
   211
100
AcDbMText
 10
-191.5999999999997
 20
-505.0967032967028
 30
0.0
 40
65.31428571428573
 41
300.0
 46
0.0
 71
     7
 72
     1
  1
{\fＭＳ ゴシック|b0|i0|c128|p49;DW＝334}
 73
     1
 44
1.0
  0
MTEXT
  5
7D
330
1F
100
AcDbEntity
  8
寸法
  6
Continuous
 62
     7
370
   211
100
AcDbMText
 10
146.3999999999999
 20
-505.0967032967028
 30
0.0
 40
65.31428571428573
 41
300.0
 46
0.0
 71
     7
 72
     1
  1
{\fＭＳ ゴシック|b0|i0|c128|p49;DW＝334}
 73
     1
 44
1.0
  0
LINE
  5
7E
330
1F
100
AcDbEntity
  8
寸法
  6
Continuous
 62
   120
370
     5
100
AcDbLine
 10
-208.5999999999996
 20
-492.7538461538456
 30
0.0
 11
125.4000000000002
 21
-492.7538461538456
 31
0.0
  0
LINE
  5
7F
330
1F
100
AcDbEntity
  8
寸法
  6
Continuous
 62
   120
370
     5
100
AcDbLine
 10
125.4000000000002
 20
-492.7538461538456
 30
0.0
 11
125.4000000000002
 21
-292.753846153846
 31
0.0
  0
LINE
  5
80
330
1F
100
AcDbEntity
  8
寸法
  6
Continuous
 62
   120
370
     5
100
AcDbLine
 10
129.4
 20
-492.7538461538456
 30
0.0
 11
129.4
 21
-292.753846153846
 31
0.0
  0
LINE
  5
81
330
1F
100
AcDbEntity
  8
寸法
  6
Continuous
 62
   120
370
     5
100
AcDbLine
 10
129.4
 20
-492.7538461538456
 30
0.0
 11
463.3999999999997
 21
-492.7538461538456
 31
0.0
  0
ENDSEC
  0
SECTION
  2
OBJECTS
  0
DICTIONARY
  5
C
330
0
100
AcDbDictionary
281
     1
  3
ACAD_GROUP
350
D
  3
ACAD_LAYOUT
350
1A
  3
ACAD_MATERIAL
350
3B
  3
ACAD_MLEADERSTYLE
350
83
  3
ACAD_MLINESTYLE
350
17
  3
ACAD_PLOTSETTINGS
350
19
  3
ACAD_PLOTSTYLENAME
350
E
  3
ACAD_TABLESTYLE
350
82
  3
ACAD_VISUALSTYLE
350
2A
  0
DICTIONARY
  5
D
102
{ACAD_REACTORS
330
C
102
}
330
C
100
AcDbDictionary
281
     1
  0
DICTIONARY
  5
1A
102
{ACAD_REACTORS
330
C
102
}
330
C
100
AcDbDictionary
281
     1
  3
Layout1
350
1E
  3
Layout2
350
26
  3
Model
350
22
  0
DICTIONARY
  5
3B
102
{ACAD_REACTORS
330
C
102
}
330
C
100
AcDbDictionary
281
     1
  3
ByBlock
350
3D
  3
ByLayer
350
3C
  3
Global
350
3E
  0
DICTIONARY
  5
83
102
{ACAD_REACTORS
330
C
102
}
330
C
100
AcDbDictionary
281
     1
  0
DICTIONARY
  5
17
102
{ACAD_REACTORS
330
C
102
}
330
C
100
AcDbDictionary
281
     1
  3
Standard
350
18
  0
DICTIONARY
  5
19
102
{ACAD_REACTORS
330
C
102
}
330
C
100
AcDbDictionary
281
     1
  0
ACDBDICTIONARYWDFLT
  5
E
102
{ACAD_REACTORS
330
C
102
}
330
C
100
AcDbDictionary
281
     1
  3
Normal
350
F
100
AcDbDictionaryWithDefault
340
F
  0
DICTIONARY
  5
82
102
{ACAD_REACTORS
330
C
102
}
330
C
100
AcDbDictionary
281
     1
  0
DICTIONARY
  5
2A
102
{ACAD_REACTORS
330
C
102
}
330
C
100
AcDbDictionary
281
     1
  3
2dWireframe
350
2F
  3
3D Hidden
350
31
  3
3dWireframe
350
30
  3
Basic
350
32
  3
Brighten
350
36
  3
ColorChange
350
3A
  3
Conceptual
350
34
  3
Dim
350
35
  3
Facepattern
350
39
  3
Flat
350
2B
  3
FlatWithEdges
350
2C
  3
Gouraud
350
2D
  3
GouraudWithEdges
350
2E
  3
Linepattern
350
38
  3
Realistic
350
33
  3
Thicken
350
37
  0
LAYOUT
  5
1E
102
{ACAD_REACTORS
330
1A
102
}
330
1A
100
AcDbPlotSettings
  1

  2
none_device
  4

  6

 40
0.0
 41
0.0
 42
0.0
 43
0.0
 44
0.0
 45
0.0
 46
0.0
 47
0.0
 48
0.0
 49
0.0
140
0.0
141
0.0
142
1.0
143
1.0
 70
   688
 72
     0
 73
     0
 74
     5
  7

 75
    16
 76
     0
 77
     5
 78
   300
147
1.0
148
0.0
149
0.0
100
AcDbLayout
  1
Layout1
 70
     1
 71
     1
 10
0.0
 20
0.0
 11
420.0
 21
297.0
 12
0.0
 22
0.0
 32
0.0
 14
1.000000000000000E+20
 24
1.000000000000000E+20
 34
1.000000000000000E+20
 15
-1.000000000000000E+20
 25
-1.000000000000000E+20
 35
-1.000000000000000E+20
146
0.0
 13
0.0
 23
0.0
 33
0.0
 16
1.0
 26
0.0
 36
0.0
 17
0.0
 27
1.0
 37
0.0
 76
     0
330
1B
  0
LAYOUT
  5
26
102
{ACAD_REACTORS
330
1A
102
}
330
1A
100
AcDbPlotSettings
  1

  2
none_device
  4

  6

 40
0.0
 41
0.0
 42
0.0
 43
0.0
 44
0.0
 45
0.0
 46
0.0
 47
0.0
 48
0.0
 49
0.0
140
0.0
141
0.0
142
1.0
143
1.0
 70
   688
 72
     0
 73
     0
 74
     5
  7

 75
    16
 76
     0
 77
     5
 78
   300
147
1.0
148
0.0
149
0.0
100
AcDbLayout
  1
Layout2
 70
     1
 71
     2
 10
0.0
 20
0.0
 11
0.0
 21
0.0
 12
0.0
 22
0.0
 32
0.0
 14
0.0
 24
0.0
 34
0.0
 15
0.0
 25
0.0
 35
0.0
146
0.0
 13
0.0
 23
0.0
 33
0.0
 16
1.0
 26
0.0
 36
0.0
 17
0.0
 27
1.0
 37
0.0
 76
     0
330
23
  0
LAYOUT
  5
22
102
{ACAD_REACTORS
330
1A
102
}
330
1A
100
AcDbPlotSettings
  1

  2
none_device
  4

  6

 40
0.0
 41
0.0
 42
0.0
 43
0.0
 44
0.0
 45
0.0
 46
0.0
 47
0.0
 48
0.0
 49
0.0
140
0.0
141
0.0
142
1.0
143
1.0
 70
  1712
 72
     0
 73
     0
 74
     0
  7

 75
     0
 76
     0
 77
     5
 78
   300
147
1.0
148
0.0
149
0.0
100
AcDbLayout
  1
Model
 70
     1
 71
     0
 10
-4455.0
 20
-3150.0
 11
4455.0
 21
3150.0
 12
0.0
 22
0.0
 32
0.0
 14
-4455.0
 24
-3150.0
 34
0.0
 15
4455.0
 25
3150.0
 35
0.0
146
0.0
 13
0.0
 23
0.0
 33
0.0
 16
1.0
 26
0.0
 36
0.0
 17
0.0
 27
1.0
 37
0.0
 76
     0
330
1F
331
29
  0
MATERIAL
  5
3D
102
{ACAD_REACTORS
330
3B
102
}
330
3B
100
AcDbMaterial
  1
ByBlock
 72
     1
 94
      127
  0
MATERIAL
  5
3C
102
{ACAD_REACTORS
330
3B
102
}
330
3B
100
AcDbMaterial
  1
ByLayer
 72
     1
 94
      127
  0
MATERIAL
  5
3E
102
{ACAD_REACTORS
330
3B
102
}
330
3B
100
AcDbMaterial
  1
Global
 72
     1
 94
      127
  0
MLINESTYLE
  5
18
102
{ACAD_REACTORS
330
17
102
}
330
17
100
AcDbMlineStyle
  2
Standard
 70
     0
  3

 62
   256
 51
90.0
 52
90.0
 71
     2
 49
0.5
 62
   256
  6
BYLAYER
 49
-0.5
 62
   256
  6
BYLAYER
  0
ACDBPLACEHOLDER
  5
F
102
{ACAD_REACTORS
330
E
102
}
330
E
  0
VISUALSTYLE
  5
2F
102
{ACAD_REACTORS
330
2A
102
}
330
2A
100
AcDbVisualStyle
  2
2dWireframe
 70
     4
177
     2
291
     0
 71
     0
176
     1
 72
     2
176
     1
 73
     0
176
     1
 90
        0
176
     1
 40
-0.6
176
     1
 41
-30.0
176
     1
 62
     5
 63
     7
421
 16777215
176
     1
 74
     1
176
     1
 91
        4
176
     1
 64
     7
176
     1
 65
   257
176
     1
 75
     1
176
     1
175
     1
176
     1
 42
1.0
176
     1
 92
        0
176
     1
 66
   257
176
     1
 43
1.0
176
     1
 76
     1
176
     1
 77
     6
176
     1
 78
     2
176
     1
 67
     7
176
     1
 79
     5
176
     1
170
     0
176
     1
171
     0
176
     1
290
     0
176
     1
 93
        1
176
     1
 44
0.0
176
     1
173
     0
176
     1
  0
VISUALSTYLE
  5
31
102
{ACAD_REACTORS
330
2A
102
}
330
2A
100
AcDbVisualStyle
  2
3D Hidden
 70
     6
177
     2
291
     0
 71
     1
176
     1
 72
     2
176
     1
 73
     2
176
     1
 90
        0
176
     1
 40
-0.6
176
     1
 41
-30.0
176
     1
 62
     5
 63
     7
421
 16777215
176
     1
 74
     2
176
     1
 91
        2
176
     1
 64
     7
176
     1
 65
   257
176
     1
 75
     2
176
     1
175
     1
176
     1
 42
40.0
176
     1
 92
        0
176
     1
 66
   257
176
     1
 43
1.0
176
     1
 76
     1
176
     1
 77
     6
176
     1
 78
     2
176
     1
 67
     7
176
     1
 79
     3
176
     1
170
     0
176
     1
171
     0
176
     1
290
     0
176
     1
 93
        1
176
     1
 44
0.0
176
     1
173
     0
176
     1
  0
VISUALSTYLE
  5
30
102
{ACAD_REACTORS
330
2A
102
}
330
2A
100
AcDbVisualStyle
  2
3dWireframe
 70
     5
177
     2
291
     0
 71
     0
176
     1
 72
     2
176
     1
 73
     0
176
     1
 90
        0
176
     1
 40
-0.6
176
     1
 41
-30.0
176
     1
 62
     5
 63
     7
421
 16777215
176
     1
 74
     1
176
     1
 91
        4
176
     1
 64
     7
176
     1
 65
   257
176
     1
 75
     1
176
     1
175
     1
176
     1
 42
1.0
176
     1
 92
        0
176
     1
 66
   257
176
     1
 43
1.0
176
     1
 76
     1
176
     1
 77
     6
176
     1
 78
     2
176
     1
 67
     7
176
     1
 79
     5
176
     1
170
     0
176
     1
171
     0
176
     1
290
     0
176
     1
 93
        1
176
     1
 44
0.0
176
     1
173
     0
176
     1
  0
VISUALSTYLE
  5
32
102
{ACAD_REACTORS
330
2A
102
}
330
2A
100
AcDbVisualStyle
  2
Basic
 70
     7
177
     2
291
     1
 71
     1
176
     1
 72
     0
176
     1
 73
     1
176
     1
 90
        0
176
     1
 40
-0.6
176
     1
 41
-30.0
176
     1
 62
     5
 63
     7
421
 16777215
176
     1
 74
     0
176
     1
 91
        4
176
     1
 64
     7
176
     1
 65
   257
176
     1
 75
     1
176
     1
175
     1
176
     1
 42
1.0
176
     1
 92
        8
176
     1
 66
     7
176
     1
 43
1.0
176
     1
 76
     1
176
     1
 77
     6
176
     1
 78
     2
176
     1
 67
     7
176
     1
 79
     5
176
     1
170
     0
176
     1
171
     0
176
     1
290
     0
176
     1
 93
        1
176
     1
 44
0.0
176
     1
173
     0
176
     1
  0
VISUALSTYLE
  5
36
102
{ACAD_REACTORS
330
2A
102
}
330
2A
100
AcDbVisualStyle
  2
Brighten
 70
    12
177
     2
291
     1
 71
     2
176
     1
 72
     2
176
     1
 73
     0
176
     1
 90
        0
176
     1
 40
-0.6
176
     1
 41
-30.0
176
     1
 62
     5
 63
     7
421
 16777215
176
     1
 74
     1
176
     1
 91
        4
176
     1
 64
     7
176
     1
 65
   257
176
     1
 75
     1
176
     1
175
     1
176
     1
 42
1.0
176
     1
 92
        8
176
     1
 66
     7
176
     1
 43
1.0
176
     1
 76
     1
176
     1
 77
     6
176
     1
 78
     2
176
     1
 67
     7
176
     1
 79
     5
176
     1
170
     0
176
     1
171
     0
176
     1
290
     0
176
     1
 93
        1
176
     1
 44
50.0
176
     1
173
     0
176
     1
  0
VISUALSTYLE
  5
3A
102
{ACAD_REACTORS
330
2A
102
}
330
2A
100
AcDbVisualStyle
  2
ColorChange
 70
    16
177
     2
291
     1
 71
     2
176
     1
 72
     2
176
     1
 73
     3
176
     1
 90
        0
176
     1
 40
-0.6
176
     1
 41
-30.0
176
     1
 62
     5
 63
     8
421
  8421504
176
     1
 74
     1
176
     1
 91
        4
176
     1
 64
     7
176
     1
 65
   257
176
     1
 75
     1
176
     1
175
     1
176
     1
 42
1.0
176
     1
 92
        8
176
     1
 66
     8
424
  8421504
176
     1
 43
1.0
176
     1
 76
     1
176
     1
 77
     6
176
     1
 78
     2
176
     1
 67
     7
176
     1
 79
     5
176
     1
170
     0
176
     1
171
     0
176
     1
290
     0
176
     1
 93
        1
176
     1
 44
0.0
176
     1
173
     0
176
     1
  0
VISUALSTYLE
  5
34
102
{ACAD_REACTORS
330
2A
102
}
330
2A
100
AcDbVisualStyle
  2
Conceptual
 70
     9
177
     2
291
     0
 71
     3
176
     1
 72
     2
176
     1
 73
     0
176
     1
 90
        0
176
     1
 40
-0.6
176
     1
 41
-30.0
176
     1
 62
     5
 63
     7
421
 16777215
176
     1
 74
     2
176
     1
 91
        2
176
     1
 64
     7
176
     1
 65
   257
176
     1
 75
     1
176
     1
175
     1
176
     1
 42
40.0
176
     1
 92
        8
176
     1
 66
     7
176
     1
 43
1.0
176
     1
 76
     1
176
     1
 77
     6
176
     1
 78
     2
176
     1
 67
     7
176
     1
 79
     3
176
     1
170
     0
176
     1
171
     0
176
     1
290
     0
176
     1
 93
        1
176
     1
 44
0.0
176
     1
173
     0
176
     1
  0
VISUALSTYLE
  5
35
102
{ACAD_REACTORS
330
2A
102
}
330
2A
100
AcDbVisualStyle
  2
Dim
 70
    11
177
     2
291
     1
 71
     2
176
     1
 72
     2
176
     1
 73
     0
176
     1
 90
        0
176
     1
 40
-0.6
176
     1
 41
-30.0
176
     1
 62
     5
 63
     7
421
 16777215
176
     1
 74
     1
176
     1
 91
        4
176
     1
 64
     7
176
     1
 65
   257
176
     1
 75
     1
176
     1
175
     1
176
     1
 42
1.0
176
     1
 92
        8
176
     1
 66
     7
176
     1
 43
1.0
176
     1
 76
     1
176
     1
 77
     6
176
     1
 78
     2
176
     1
 67
     7
176
     1
 79
     5
176
     1
170
     0
176
     1
171
     0
176
     1
290
     0
176
     1
 93
        1
176
     1
 44
-50.0
176
     1
173
     0
176
     1
  0
VISUALSTYLE
  5
39
102
{ACAD_REACTORS
330
2A
102
}
330
2A
100
AcDbVisualStyle
  2
Facepattern
 70
    15
177
     2
291
     1
 71
     2
176
     1
 72
     2
176
     1
 73
     0
176
     1
 90
        0
176
     1
 40
-0.6
176
     1
 41
-30.0
176
     1
 62
     5
 63
     7
421
 16777215
176
     1
 74
     1
176
     1
 91
        4
176
     1
 64
     7
176
     1
 65
   257
176
     1
 75
     1
176
     1
175
     1
176
     1
 42
1.0
176
     1
 92
        8
176
     1
 66
     7
176
     1
 43
1.0
176
     1
 76
     1
176
     1
 77
     6
176
     1
 78
     2
176
     1
 67
     7
176
     1
 79
     5
176
     1
170
     0
176
     1
171
     0
176
     1
290
     0
176
     1
 93
        1
176
     1
 44
0.0
176
     1
173
     0
176
     1
  0
VISUALSTYLE
  5
2B
102
{ACAD_REACTORS
330
2A
102
}
330
2A
100
AcDbVisualStyle
  2
Flat
 70
     0
177
     2
291
     1
 71
     2
176
     1
 72
     1
176
     1
 73
     1
176
     1
 90
        2
176
     1
 40
-0.6
176
     1
 41
30.0
176
     1
 62
     5
 63
     7
421
 16777215
176
     1
 74
     0
176
     1
 91
        4
176
     1
 64
     7
176
     1
 65
   257
176
     1
 75
     1
176
     1
175
     1
176
     1
 42
1.0
176
     1
 92
        8
176
     1
 66
     7
176
     1
 43
1.0
176
     1
 76
     1
176
     1
 77
     6
176
     1
 78
     2
176
     1
 67
     7
176
     1
 79
     5
176
     1
170
     0
176
     1
171
     0
176
     1
290
     0
176
     1
 93
       13
176
     1
 44
0.0
176
     1
173
     0
176
     1
  0
VISUALSTYLE
  5
2C
102
{ACAD_REACTORS
330
2A
102
}
330
2A
100
AcDbVisualStyle
  2
FlatWithEdges
 70
     1
177
     2
291
     1
 71
     2
176
     1
 72
     1
176
     1
 73
     1
176
     1
 90
        2
176
     1
 40
-0.6
176
     1
 41
30.0
176
     1
 62
     5
 63
     7
421
 16777215
176
     1
 74
     1
176
     1
 91
        4
176
     1
 64
     7
176
     1
 65
   257
176
     1
 75
     1
176
     1
175
     1
176
     1
 42
1.0
176
     1
 92
        0
176
     1
 66
   257
176
     1
 43
1.0
176
     1
 76
     1
176
     1
 77
     6
176
     1
 78
     2
176
     1
 67
     7
176
     1
 79
     5
176
     1
170
     0
176
     1
171
     0
176
     1
290
     0
176
     1
 93
       13
176
     1
 44
0.0
176
     1
173
     0
176
     1
  0
VISUALSTYLE
  5
2D
102
{ACAD_REACTORS
330
2A
102
}
330
2A
100
AcDbVisualStyle
  2
Gouraud
 70
     2
177
     2
291
     1
 71
     2
176
     1
 72
     2
176
     1
 73
     1
176
     1
 90
        2
176
     1
 40
-0.6
176
     1
 41
30.0
176
     1
 62
     5
 63
     7
421
 16777215
176
     1
 74
     0
176
     1
 91
        4
176
     1
 64
     7
176
     1
 65
   257
176
     1
 75
     1
176
     1
175
     1
176
     1
 42
1.0
176
     1
 92
        0
176
     1
 66
     7
176
     1
 43
1.0
176
     1
 76
     1
176
     1
 77
     6
176
     1
 78
     2
176
     1
 67
     7
176
     1
 79
     5
176
     1
170
     0
176
     1
171
     0
176
     1
290
     0
176
     1
 93
       13
176
     1
 44
0.0
176
     1
173
     0
176
     1
  0
VISUALSTYLE
  5
2E
102
{ACAD_REACTORS
330
2A
102
}
330
2A
100
AcDbVisualStyle
  2
GouraudWithEdges
 70
     3
177
     2
291
     1
 71
     2
176
     1
 72
     2
176
     1
 73
     1
176
     1
 90
        2
176
     1
 40
-0.6
176
     1
 41
30.0
176
     1
 62
     5
 63
     7
421
 16777215
176
     1
 74
     1
176
     1
 91
        4
176
     1
 64
     7
176
     1
 65
   257
176
     1
 75
     1
176
     1
175
     1
176
     1
 42
1.0
176
     1
 92
        0
176
     1
 66
   257
176
     1
 43
1.0
176
     1
 76
     1
176
     1
 77
     6
176
     1
 78
     2
176
     1
 67
     7
176
     1
 79
     5
176
     1
170
     0
176
     1
171
     0
176
     1
290
     0
176
     1
 93
       13
176
     1
 44
0.0
176
     1
173
     0
176
     1
  0
VISUALSTYLE
  5
38
102
{ACAD_REACTORS
330
2A
102
}
330
2A
100
AcDbVisualStyle
  2
Linepattern
 70
    14
177
     2
291
     1
 71
     2
176
     1
 72
     2
176
     1
 73
     0
176
     1
 90
        0
176
     1
 40
-0.6
176
     1
 41
-30.0
176
     1
 62
     5
 63
     7
421
 16777215
176
     1
 74
     1
176
     1
 91
        4
176
     1
 64
     7
176
     1
 65
   257
176
     1
 75
     7
176
     1
175
     7
176
     1
 42
1.0
176
     1
 92
        8
176
     1
 66
     7
176
     1
 43
1.0
176
     1
 76
     1
176
     1
 77
     6
176
     1
 78
     2
176
     1
 67
     7
176
     1
 79
     5
176
     1
170
     0
176
     1
171
     0
176
     1
290
     0
176
     1
 93
        1
176
     1
 44
0.0
176
     1
173
     0
176
     1
  0
VISUALSTYLE
  5
33
102
{ACAD_REACTORS
330
2A
102
}
330
2A
100
AcDbVisualStyle
  2
Realistic
 70
     8
177
     2
291
     0
 71
     2
176
     1
 72
     2
176
     1
 73
     0
176
     1
 90
        0
176
     1
 40
-0.6
176
     1
 41
-30.0
176
     1
 62
     5
 63
     7
421
 16777215
176
     1
 74
     1
176
     1
 91
        0
176
     1
 64
     7
176
     1
 65
   257
176
     1
 75
     1
176
     1
175
     1
176
     1
 42
1.0
176
     1
 92
        8
176
     1
 66
     8
424
  7895160
176
     1
 43
1.0
176
     1
 76
     1
176
     1
 77
     6
176
     1
 78
     2
176
     1
 67
     7
176
     1
 79
     5
176
     1
170
     0
176
     1
171
     0
176
     1
290
     0
176
     1
 93
       13
176
     1
 44
0.0
176
     1
173
     0
176
     1
  0
VISUALSTYLE
  5
37
102
{ACAD_REACTORS
330
2A
102
}
330
2A
100
AcDbVisualStyle
  2
Thicken
 70
    13
177
     2
291
     1
 71
     2
176
     1
 72
     2
176
     1
 73
     0
176
     1
 90
        0
176
     1
 40
-0.6
176
     1
 41
-30.0
176
     1
 62
     5
 63
     7
421
 16777215
176
     1
 74
     1
176
     1
 91
        4
176
     1
 64
     7
176
     1
 65
   257
176
     1
 75
     1
176
     1
175
     1
176
     1
 42
1.0
176
     1
 92
       12
176
     1
 66
     7
176
     1
 43
1.0
176
     1
 76
     1
176
     1
 77
     6
176
     1
 78
     2
176
     1
 67
     7
176
     1
 79
     5
176
     1
170
     0
176
     1
171
     0
176
     1
290
     0
176
     1
 93
        1
176
     1
 44
0.0
176
     1
173
     0
176
     1
  0
ENDSEC
  0
EOF
