  0
SECTION
  2
HEADER
  9
$ACADVER
  1
AC1024
  9
$ACADMAINTVER
 70
     6
  9
$DWGCODEPAGE
  3
ANSI_932
  9
$INSBASE
 10
0.0
 20
0.0
 30
0.0
  9
$EXTMIN
 10
-6300.0
 20
-4455.0
 30
0.0
  9
$EXTMAX
 10
6300.0
 20
4455.0
 30
0.0
  9
$LIMMIN
 10
-6300.0
 20
-4455.0
  9
$LIMMAX
 10
6300.0
 20
4455.0
  9
$ORTHOMODE
 70
     0
  9
$REGENMODE
 70
     1
  9
$FILLMODE
 70
     1
  9
$QTEXTMODE
 70
     0
  9
$MIRRTEXT
 70
     1
  9
$LTSCALE
 40
30.0
  9
$ATTMODE
 70
     1
  9
$TEXTSIZE
 40
2.5
  9
$TRACEWID
 40
1.0
  9
$TEXTSTYLE
  7
Standard
  9
$CLAYER
  8
0
  9
$CELTYPE
  6
ByLayer
  9
$CECOLOR
 62
   256
  9
$CELTSCALE
 40
1.0
  9
$DISPSILH
 70
     0
  9
$DIMSCALE
 40
1.0
  9
$DIMASZ
 40
2.5
  9
$DIMEXO
 40
0.625
  9
$DIMDLI
 40
3.75
  9
$DIMRND
 40
0.0
  9
$DIMDLE
 40
0.0
  9
$DIMEXE
 40
1.25
  9
$DIMTP
 40
0.0
  9
$DIMTM
 40
0.0
  9
$DIMTXT
 40
2.5
  9
$DIMCEN
 40
2.5
  9
$DIMTSZ
 40
0.0
  9
$DIMTOL
 70
     0
  9
$DIMLIM
 70
     0
  9
$DIMTIH
 70
     0
  9
$DIMTOH
 70
     0
  9
$DIMSE1
 70
     0
  9
$DIMSE2
 70
     0
  9
$DIMTAD
 70
     1
  9
$DIMZIN
 70
     8
  9
$DIMBLK
  1

  9
$DIMASO
 70
     1
  9
$DIMSHO
 70
     1
  9
$DIMPOST
  1

  9
$DIMAPOST
  1

  9
$DIMALT
 70
     0
  9
$DIMALTD
 70
     3
  9
$DIMALTF
 40
0.03937007874016
  9
$DIMLFAC
 40
1.0
  9
$DIMTOFL
 70
     1
  9
$DIMTVP
 40
0.0
  9
$DIMTIX
 70
     0
  9
$DIMSOXD
 70
     0
  9
$DIMSAH
 70
     0
  9
$DIMBLK1
  1

  9
$DIMBLK2
  1

  9
$DIMSTYLE
  2
ISO-25
  9
$DIMCLRD
 70
     0
  9
$DIMCLRE
 70
     0
  9
$DIMCLRT
 70
     0
  9
$DIMTFAC
 40
1.0
  9
$DIMGAP
 40
0.625
  9
$DIMJUST
 70
     0
  9
$DIMSD1
 70
     0
  9
$DIMSD2
 70
     0
  9
$DIMTOLJ
 70
     0
  9
$DIMTZIN
 70
     8
  9
$DIMALTZ
 70
     0
  9
$DIMALTTZ
 70
     0
  9
$DIMUPT
 70
     0
  9
$DIMDEC
 70
     2
  9
$DIMTDEC
 70
     2
  9
$DIMALTU
 70
     2
  9
$DIMALTTD
 70
     3
  9
$DIMTXSTY
  7
Standard
  9
$DIMAUNIT
 70
     0
  9
$DIMADEC
 70
     0
  9
$DIMALTRND
 40
0.0
  9
$DIMAZIN
 70
     0
  9
$DIMDSEP
 70
    44
  9
$DIMATFIT
 70
     3
  9
$DIMFRAC
 70
     0
  9
$DIMLDRBLK
  1

  9
$DIMLUNIT
 70
     2
  9
$DIMLWD
 70
    -2
  9
$DIMLWE
 70
    -2
  9
$DIMTMOVE
 70
     0
  9
$DIMFXL
 40
1.0
  9
$DIMFXLON
 70
     0
  9
$DIMJOGANG
 40
0.7853981633974483
  9
$DIMTFILL
 70
     0
  9
$DIMTFILLCLR
 70
     0
  9
$DIMARCSYM
 70
     0
  9
$DIMLTYPE
  6

  9
$DIMLTEX1
  6

  9
$DIMLTEX2
  6

  9
$DIMTXTDIRECTION
 70
     0
  9
$LUNITS
 70
     2
  9
$LUPREC
 70
     4
  9
$SKETCHINC
 40
1.0
  9
$FILLETRAD
 40
10.0
  9
$AUNITS
 70
     0
  9
$AUPREC
 70
     0
  9
$MENU
  1
.
  9
$ELEVATION
 40
0.0
  9
$PELEVATION
 40
0.0
  9
$THICKNESS
 40
0.0
  9
$LIMCHECK
 70
     0
  9
$CHAMFERA
 40
10.0
  9
$CHAMFERB
 40
10.0
  9
$CHAMFERC
 40
20.0
  9
$CHAMFERD
 40
0.0
  9
$SKPOLY
 70
     0
  9
$TDCREATE
 40
2457914.530683079
  9
$TDUCREATE
 40
2457914.155683079
  9
$TDUPDATE
 40
2457914.53068309
  9
$TDUUPDATE
 40
2457914.15568309
  9
$TDINDWG
 40
0.0000000116
  9
$TDUSRTIMER
 40
0.0000000116
  9
$USRTIMER
 70
     1
  9
$ANGBASE
 50
0.0
  9
$ANGDIR
 70
     0
  9
$PDMODE
 70
     0
  9
$PDSIZE
 40
0.0
  9
$PLINEWID
 40
0.0
  9
$SPLFRAME
 70
     0
  9
$SPLINETYPE
 70
     6
  9
$SPLINESEGS
 70
     8
  9
$HANDSEED
  5
40E
  9
$SURFTAB1
 70
     6
  9
$SURFTAB2
 70
     6
  9
$SURFTYPE
 70
     6
  9
$SURFU
 70
     6
  9
$SURFV
 70
     6
  9
$UCSBASE
  2

  9
$UCSNAME
  2

  9
$UCSORG
 10
0.0
 20
0.0
 30
0.0
  9
$UCSXDIR
 10
1.0
 20
0.0
 30
0.0
  9
$UCSYDIR
 10
0.0
 20
1.0
 30
0.0
  9
$UCSORTHOREF
  2

  9
$UCSORTHOVIEW
 70
     0
  9
$UCSORGTOP
 10
0.0
 20
0.0
 30
0.0
  9
$UCSORGBOTTOM
 10
0.0
 20
0.0
 30
0.0
  9
$UCSORGLEFT
 10
0.0
 20
0.0
 30
0.0
  9
$UCSORGRIGHT
 10
0.0
 20
0.0
 30
0.0
  9
$UCSORGFRONT
 10
0.0
 20
0.0
 30
0.0
  9
$UCSORGBACK
 10
0.0
 20
0.0
 30
0.0
  9
$PUCSBASE
  2

  9
$PUCSNAME
  2

  9
$PUCSORG
 10
0.0
 20
0.0
 30
0.0
  9
$PUCSXDIR
 10
1.0
 20
0.0
 30
0.0
  9
$PUCSYDIR
 10
0.0
 20
1.0
 30
0.0
  9
$PUCSORTHOREF
  2

  9
$PUCSORTHOVIEW
 70
     0
  9
$PUCSORGTOP
 10
0.0
 20
0.0
 30
0.0
  9
$PUCSORGBOTTOM
 10
0.0
 20
0.0
 30
0.0
  9
$PUCSORGLEFT
 10
0.0
 20
0.0
 30
0.0
  9
$PUCSORGRIGHT
 10
0.0
 20
0.0
 30
0.0
  9
$PUCSORGFRONT
 10
0.0
 20
0.0
 30
0.0
  9
$PUCSORGBACK
 10
0.0
 20
0.0
 30
0.0
  9
$USERI1
 70
     0
  9
$USERI2
 70
     0
  9
$USERI3
 70
     0
  9
$USERI4
 70
     0
  9
$USERI5
 70
     0
  9
$USERR1
 40
0.0
  9
$USERR2
 40
0.0
  9
$USERR3
 40
0.0
  9
$USERR4
 40
0.0
  9
$USERR5
 40
0.0
  9
$WORLDVIEW
 70
     1
  9
$SHADEDGE
 70
     3
  9
$SHADEDIF
 70
    70
  9
$TILEMODE
 70
     1
  9
$MAXACTVP
 70
    64
  9
$PINSBASE
 10
0.0
 20
0.0
 30
0.0
  9
$PLIMCHECK
 70
     0
  9
$PEXTMIN
 10
1.000000000000000E+20
 20
1.000000000000000E+20
 30
1.000000000000000E+20
  9
$PEXTMAX
 10
-1.000000000000000E+20
 20
-1.000000000000000E+20
 30
-1.000000000000000E+20
  9
$PLIMMIN
 10
0.0
 20
0.0
  9
$PLIMMAX
 10
420.0
 20
297.0
  9
$UNITMODE
 70
     0
  9
$VISRETAIN
 70
     1
  9
$PLINEGEN
 70
     0
  9
$PSLTSCALE
 70
     1
  9
$TREEDEPTH
 70
  3020
  9
$CMLSTYLE
  2
Standard
  9
$CMLJUST
 70
     0
  9
$CMLSCALE
 40
20.0
  9
$PROXYGRAPHICS
 70
     1
  9
$MEASUREMENT
 70
     1
  9
$CELWEIGHT
370
    -1
  9
$ENDCAPS
280
     0
  9
$JOINSTYLE
280
     0
  9
$LWDISPLAY
290
     0
  9
$INSUNITS
 70
     4
  9
$HYPERLINKBASE
  1

  9
$STYLESHEET
  1

  9
$XEDIT
290
     1
  9
$CEPSNTYPE
380
     0
  9
$PSTYLEMODE
290
     1
  9
$FINGERPRINTGUID
  2
{2B83ADB7-33D5-43B0-B566-4E9324030938}
  9
$VERSIONGUID
  2
{FAEB1C32-E019-11D5-929B-00C0DF256EC4}
  9
$EXTNAMES
290
     1
  9
$PSVPSCALE
 40
0.0
  9
$OLESTARTUP
290
     0
  9
$SORTENTS
280
   127
  9
$INDEXCTL
280
     0
  9
$HIDETEXT
280
     1
  9
$XCLIPFRAME
280
     2
  9
$HALOGAP
280
     0
  9
$OBSCOLOR
 70
   257
  9
$OBSLTYPE
280
     0
  9
$INTERSECTIONDISPLAY
280
     0
  9
$INTERSECTIONCOLOR
 70
   257
  9
$DIMASSOC
280
     2
  9
$PROJECTNAME
  1

  9
$CAMERADISPLAY
290
     0
  9
$LENSLENGTH
 40
50.0
  9
$CAMERAHEIGHT
 40
0.0
  9
$STEPSPERSEC
 40
2.0
  9
$STEPSIZE
 40
6.0
  9
$3DDWFPREC
 40
2.0
  9
$PSOLWIDTH
 40
5.0
  9
$PSOLHEIGHT
 40
80.0
  9
$LOFTANG1
 40
1.570796326794897
  9
$LOFTANG2
 40
1.570796326794897
  9
$LOFTMAG1
 40
0.0
  9
$LOFTMAG2
 40
0.0
  9
$LOFTPARAM
 70
     7
  9
$LOFTNORMALS
280
     1
  9
$LATITUDE
 40
37.795
  9
$LONGITUDE
 40
-122.394
  9
$NORTHDIRECTION
 40
0.0
  9
$TIMEZONE
 70
 -8000
  9
$LIGHTGLYPHDISPLAY
280
     1
  9
$TILEMODELIGHTSYNCH
280
     1
  9
$SOLIDHIST
280
     1
  9
$SHOWHIST
280
     1
  9
$DWFFRAME
280
     2
  9
$DGNFRAME
280
     2
  9
$REALWORLDSCALE
290
     1
  9
$INTERFERECOLOR
 62
   256
  9
$CSHADOW
280
     0
  9
$SHADOWPLANELOCATION
 40
0.0
  0
ENDSEC
  0
SECTION
  2
CLASSES
  0
CLASS
  1
ACDBDICTIONARYWDFLT
  2
AcDbDictionaryWithDefault
  3
ObjectDBX Classes
 90
        0
 91
        4
280
     0
281
     0
  0
CLASS
  1
VISUALSTYLE
  2
AcDbVisualStyle
  3
ObjectDBX Classes
 90
     4095
 91
        4
280
     0
281
     0
  0
CLASS
  1
MATERIAL
  2
AcDbMaterial
  3
ObjectDBX Classes
 90
     1153
 91
        4
280
     0
281
     0
  0
ENDSEC
  0
SECTION
  2
TABLES
  0
TABLE
  2
VPORT
  5
8
330
0
100
AcDbSymbolTable
 70
     1
  0
VPORT
  5
29
330
8
100
AcDbSymbolTableRecord
100
AcDbViewportTableRecord
  2
*Active
 70
     0
 10
0.0
 20
0.0
 11
1.0
 21
1.0
 12
0.0
 22
0.0
 13
0.0
 23
0.0
 14
10.0
 24
10.0
 15
10.0
 25
10.0
 16
0.0
 26
0.0
 36
1.0
 17
0.0
 27
0.0
 37
0.0
 40
9801.0
 41
1.414141414141414
 42
50.0
 43
0.0
 44
0.0
 50
0.0
 51
0.0
 71
     0
 72
 10000
 73
     1
 74
     3
 75
     0
 76
     0
 77
     0
 78
     0
281
     0
 65
     1
110
0.0
120
0.0
130
0.0
111
1.0
121
0.0
131
0.0
112
0.0
122
1.0
132
0.0
 79
     0
146
0.0
 60
     3
 61
     5
292
     1
282
     1
141
0.0
142
0.0
 63
   250
  0
ENDTAB
  0
TABLE
  2
LTYPE
  5
5
330
0
100
AcDbSymbolTable
 70
     5
  0
LTYPE
  5
14
330
5
100
AcDbSymbolTableRecord
100
AcDbLinetypeTableRecord
  2
ByBlock
 70
     0
  3

 72
    65
 73
     0
 40
0.0
  0
LTYPE
  5
15
330
5
100
AcDbSymbolTableRecord
100
AcDbLinetypeTableRecord
  2
ByLayer
 70
     0
  3

 72
    65
 73
     0
 40
0.0
  0
LTYPE
  5
16
330
5
100
AcDbSymbolTableRecord
100
AcDbLinetypeTableRecord
  2
Continuous
 70
     0
  3
Solid line
 72
    65
 73
     0
 40
0.0
  0
LTYPE
  5
3F
330
5
100
AcDbSymbolTableRecord
100
AcDbLinetypeTableRecord
  2
JWW_HOJO
 70
     0
  3
  -   -   -   -   -   -   -   - 
 72
    65
 73
     2
 40
1.693333333333333
 49
-1.27
 74
     0
 49
0.4233333333333333
 74
     0
  0
LTYPE
  5
40
330
5
100
AcDbSymbolTableRecord
100
AcDbLinetypeTableRecord
  2
JWW_DASHED2
 70
     0
  3
--    ----    ----    ----    --
 72
    65
 73
     2
 40
3.386666666666667
 49
1.693333333333333
 74
     0
 49
-1.693333333333333
 74
     0
  0
LTYPE
  5
41
330
5
100
AcDbSymbolTableRecord
100
AcDbLinetypeTableRecord
  2
JWW_CENTER1
 70
     0
  3
-----  --  ----------  --  -----
 72
    65
 73
     4
 40
6.773333333333333
 49
4.233333333333333
 74
     0
 49
-0.8466666666666667
 74
     0
 49
0.8466666666666667
 74
     0
 49
-0.8466666666666667
 74
     0
  0
LTYPE
  5
42
330
5
100
AcDbSymbolTableRecord
100
AcDbLinetypeTableRecord
  2
JWW_DASHED1
 70
     0
  3
-  --  --  --  --  --  --  --  -
 72
    65
 73
     2
 40
1.693333333333333
 49
0.8466666666666667
 74
     0
 49
-0.8466666666666667
 74
     0
  0
ENDTAB
  0
TABLE
  2
LAYER
  5
2
330
0
100
AcDbSymbolTable
 70
    15
  0
LAYER
  5
10
330
2
100
AcDbSymbolTableRecord
100
AcDbLayerTableRecord
  2
0
 70
     0
 62
     7
  6
Continuous
370
    -3
390
F
347
3E
  0
LAYER
  5
43
330
2
100
AcDbSymbolTableRecord
100
AcDbLayerTableRecord
  2
F-0_補助線
 70
     0
 62
     7
  6
Continuous
370
    -3
390
F
347
3E
  0
LAYER
  5
44
330
2
100
AcDbSymbolTableRecord
100
AcDbLayerTableRecord
  2
0-A_文字
 70
     0
 62
     7
  6
Continuous
370
    -3
390
F
347
3E
  0
LAYER
  5
45
330
2
100
AcDbSymbolTableRecord
100
AcDbLayerTableRecord
  2
F-1_枠
 70
     0
 62
     7
  6
Continuous
370
    -3
390
F
347
3E
  0
LAYER
  5
46
330
2
100
AcDbSymbolTableRecord
100
AcDbLayerTableRecord
  2
F-A_文字
 70
     0
 62
     7
  6
Continuous
370
    -3
390
F
347
3E
  0
LAYER
  5
47
330
2
100
AcDbSymbolTableRecord
100
AcDbLayerTableRecord
  2
戸当り
 70
     0
 62
     7
  6
Continuous
370
    -3
390
F
347
3E
  0
LAYER
  5
48
330
2
100
AcDbSymbolTableRecord
100
AcDbLayerTableRecord
  2
0-0_補助線
 70
     0
 62
     7
  6
Continuous
370
    -3
390
F
347
3E
  0
LAYER
  5
49
330
2
100
AcDbSymbolTableRecord
100
AcDbLayerTableRecord
  2
0-3_仕上げ
 70
     0
 62
     7
  6
Continuous
370
    -3
390
F
347
3E
  0
LAYER
  5
4A
330
2
100
AcDbSymbolTableRecord
100
AcDbLayerTableRecord
  2
0-C_ハッチ
 70
     0
 62
     7
  6
Continuous
370
    -3
390
F
347
3E
  0
LAYER
  5
4B
330
2
100
AcDbSymbolTableRecord
100
AcDbLayerTableRecord
  2
0-4_枠
 70
     0
 62
     7
  6
Continuous
370
    -3
390
F
347
3E
  0
LAYER
  5
4C
330
2
100
AcDbSymbolTableRecord
100
AcDbLayerTableRecord
  2
0-7_金物
 70
     0
 62
     7
  6
Continuous
370
    -3
390
F
347
3E
  0
LAYER
  5
4D
330
2
100
AcDbSymbolTableRecord
100
AcDbLayerTableRecord
  2
0-1_通り芯
 70
     0
 62
     7
  6
Continuous
370
    -3
390
F
347
3E
  0
LAYER
  5
4E
330
2
100
AcDbSymbolTableRecord
100
AcDbLayerTableRecord
  2
0-B_寸法
 70
     0
 62
     7
  6
Continuous
370
    -3
390
F
347
3E
  0
LAYER
  5
4F
330
2
100
AcDbSymbolTableRecord
100
AcDbLayerTableRecord
  2
0-6_扉
 70
     0
 62
     7
  6
Continuous
370
    -3
390
F
347
3E
  0
LAYER
  5
50
330
2
100
AcDbSymbolTableRecord
100
AcDbLayerTableRecord
  2
0-2_柱
 70
     0
 62
     7
  6
Continuous
370
    -3
390
F
347
3E
  0
ENDTAB
  0
TABLE
  2
STYLE
  5
3
330
0
100
AcDbSymbolTable
 70
     1
  0
STYLE
  5
11
330
3
100
AcDbSymbolTableRecord
100
AcDbTextStyleTableRecord
  2
Standard
 70
     0
 40
0.0
 41
1.0
 50
0.0
 71
     0
 42
2.5
  3
txt
  4

  0
ENDTAB
  0
TABLE
  2
VIEW
  5
6
330
0
100
AcDbSymbolTable
 70
     0
  0
ENDTAB
  0
TABLE
  2
UCS
  5
7
330
0
100
AcDbSymbolTable
 70
     0
  0
ENDTAB
  0
TABLE
  2
APPID
  5
9
330
0
100
AcDbSymbolTable
 70
     1
  0
APPID
  5
12
330
9
100
AcDbSymbolTableRecord
100
AcDbRegAppTableRecord
  2
ACAD
 70
     0
  0
ENDTAB
  0
TABLE
  2
DIMSTYLE
  5
A
330
0
100
AcDbSymbolTable
 70
     1
100
AcDbDimStyleTable
  0
DIMSTYLE
105
27
330
A
100
AcDbSymbolTableRecord
100
AcDbDimStyleTableRecord
  2
ISO-25
 70
     0
 41
2.5
 42
0.625
 43
3.75
 44
1.25
 73
     0
 74
     0
 77
     1
 78
     8
140
2.5
141
2.5
143
0.03937007874016
147
0.625
171
     3
172
     1
178
     0
271
     2
272
     2
274
     3
278
    44
283
     0
284
     8
340
11
  0
ENDTAB
  0
TABLE
  2
BLOCK_RECORD
  5
1
330
0
100
AcDbSymbolTable
 70
     1
  0
BLOCK_RECORD
  5
1F
330
1
100
AcDbSymbolTableRecord
100
AcDbBlockTableRecord
  2
*Model_Space
340
22
 70
     0
280
     1
281
     0
  0
BLOCK_RECORD
  5
1B
330
1
100
AcDbSymbolTableRecord
100
AcDbBlockTableRecord
  2
*Paper_Space
340
1E
 70
     0
280
     1
281
     0
  0
BLOCK_RECORD
  5
23
330
1
100
AcDbSymbolTableRecord
100
AcDbBlockTableRecord
  2
*Paper_Space0
340
26
 70
     0
280
     1
281
     0
  0
ENDTAB
  0
ENDSEC
  0
SECTION
  2
BLOCKS
  0
BLOCK
  5
20
330
1F
100
AcDbEntity
  8
0
100
AcDbBlockBegin
  2
*Model_Space
 70
     0
 10
0.0
 20
0.0
 30
0.0
  3
*Model_Space
  1

  0
ENDBLK
  5
21
330
1F
100
AcDbEntity
  8
0
100
AcDbBlockEnd
  0
BLOCK
  5
1C
330
1B
100
AcDbEntity
 67
     1
  8
0
100
AcDbBlockBegin
  2
*Paper_Space
 70
     0
 10
0.0
 20
0.0
 30
0.0
  3
*Paper_Space
  1

  0
ENDBLK
  5
1D
330
1B
100
AcDbEntity
 67
     1
  8
0
100
AcDbBlockEnd
  0
BLOCK
  5
24
330
23
100
AcDbEntity
  8
0
100
AcDbBlockBegin
  2
*Paper_Space0
 70
     0
 10
0.0
 20
0.0
 30
0.0
  3
*Paper_Space0
  1

  0
ENDBLK
  5
25
330
23
100
AcDbEntity
  8
0
100
AcDbBlockEnd
  0
ENDSEC
  0
SECTION
  2
ENTITIES
  0
LINE
  5
51
330
1F
100
AcDbEntity
  8
F-0_補助線
  6
JWW_HOJO
 62
     7
370
     9
100
AcDbLine
 10
9.918593965360003
 20
-3939.99973721807
 30
0.0
 11
5849.917694934004
 21
-3940.005165429179
 31
0.0
  0
LINE
  5
52
330
1F
100
AcDbEntity
  8
0-A_文字
  6
Continuous
 62
    92
370
    13
100
AcDbLine
 10
-5659.999495325861
 20
4000.00018145587
 30
0.0
 11
-5659.999495325861
 21
3730.00018145587
 31
0.0
  0
LINE
  5
53
330
1F
100
AcDbEntity
  8
F-0_補助線
  6
JWW_HOJO
 62
   120
370
     5
100
AcDbLine
 10
-6140.081333436773
 20
-4455.0
 30
0.0
 11
-6140.081333436773
 21
4424.999604096284
 31
0.0
  0
LINE
  5
54
330
1F
100
AcDbEntity
  8
F-0_補助線
  6
JWW_HOJO
 62
   120
370
     5
100
AcDbLine
 10
-6140.081333436773
 20
4424.999604096284
 30
0.0
 11
6159.917676803936
 21
4424.999604096284
 31
0.0
  0
LINE
  5
55
330
1F
100
AcDbEntity
  8
F-0_補助線
  6
JWW_HOJO
 62
   120
370
     5
100
AcDbLine
 10
6159.917676803936
 20
4424.999604096284
 30
0.0
 11
6159.917676803936
 21
-4455.0
 31
0.0
  0
LINE
  5
56
330
1F
100
AcDbEntity
  8
F-0_補助線
  6
JWW_HOJO
 62
   120
370
     5
100
AcDbLine
 10
6159.917676803936
 20
-4455.0
 30
0.0
 11
-6140.081333436773
 21
-4455.0
 31
0.0
  0
LINE
  5
57
330
1F
100
AcDbEntity
  8
F-0_補助線
  6
JWW_HOJO
 62
     7
370
     9
100
AcDbLine
 10
1009.918254163523
 20
-3795.000003092998
 30
0.0
 11
1009.918254163523
 21
-4195.000008247994
 31
0.0
  0
LINE
  5
58
330
1F
100
AcDbEntity
  8
F-0_補助線
  6
JWW_HOJO
 62
     7
370
     9
100
AcDbLine
 10
509.9185840832865
 20
-3795.000003092998
 30
0.0
 11
509.9185840832865
 21
-4195.000008247994
 31
0.0
  0
LINE
  5
59
330
1F
100
AcDbEntity
  8
F-1_枠
  6
Continuous
 62
   200
370
    20
100
AcDbLine
 10
5859.917429364114
 20
4174.999769056166
 30
0.0
 11
5859.917429364114
 21
-4205.000164959882
 31
0.0
  0
LINE
  5
5A
330
1F
100
AcDbEntity
  8
F-1_枠
  6
Continuous
 62
   200
370
    20
100
AcDbLine
 10
-5840.081317971782
 20
4174.999769056166
 30
0.0
 11
-5840.081317971782
 21
-4205.000164959882
 31
0.0
  0
LINE
  5
5B
330
1F
100
AcDbEntity
  8
F-1_枠
  6
Continuous
 62
   200
370
    20
100
AcDbLine
 10
5859.917429364114
 20
-4205.000002577498
 30
0.0
 11
-5840.081085996952
 21
-4205.000002577498
 31
0.0
  0
LINE
  5
5C
330
1F
100
AcDbEntity
  8
F-1_枠
  6
Continuous
 62
   200
370
    20
100
AcDbLine
 10
-5830.081323642279
 20
4174.999769056166
 30
0.0
 11
-5830.081323642279
 21
-4205.000164959882
 31
0.0
  0
LINE
  5
5D
330
1F
100
AcDbEntity
  8
F-1_枠
  6
Continuous
 62
   200
370
    20
100
AcDbLine
 10
-5835.081309208291
 20
4174.999769056166
 30
0.0
 11
-5835.081309208291
 21
-4205.000164959882
 31
0.0
  0
LINE
  5
5E
330
1F
100
AcDbEntity
  8
F-1_枠
  6
Continuous
 62
   200
370
    20
100
AcDbLine
 10
5854.917165428304
 20
4174.999769056166
 30
0.0
 11
5854.917165428304
 21
-4205.000164959882
 31
0.0
  0
LINE
  5
5F
330
1F
100
AcDbEntity
  8
F-1_枠
  6
Continuous
 62
   200
370
    20
100
AcDbLine
 10
5859.917429364114
 20
-4199.999993814004
 30
0.0
 11
-5840.081085996952
 21
-4199.999993814004
 31
0.0
  0
LINE
  5
60
330
1F
100
AcDbEntity
  8
F-1_枠
  6
Continuous
 62
   200
370
    20
100
AcDbLine
 10
5859.917429364114
 20
-4195.000008247994
 30
0.0
 11
-5840.081085996952
 21
-4195.000008247994
 31
0.0
  0
LINE
  5
61
330
1F
100
AcDbEntity
  8
F-1_枠
  6
Continuous
 62
   200
370
    20
100
AcDbLine
 10
4349.917891251784
 20
-3795.000003092998
 30
0.0
 11
4349.917891251784
 21
-4195.000008247994
 31
0.0
  0
LINE
  5
62
330
1F
100
AcDbEntity
  8
F-1_枠
  6
Continuous
 62
   200
370
    20
100
AcDbLine
 10
2849.917396372139
 20
-3795.000003092998
 30
0.0
 11
2849.917396372139
 21
-4195.000008247994
 31
0.0
  0
LINE
  5
63
330
1F
100
AcDbEntity
  8
F-1_枠
  6
Continuous
 62
   200
370
    20
100
AcDbLine
 10
9.918542843316231
 20
-3795.000003092998
 30
0.0
 11
9.918542843316231
 21
-4195.000008247994
 31
0.0
  0
LINE
  5
64
330
1F
100
AcDbEntity
  8
F-1_枠
  6
Continuous
 62
   200
370
    20
100
AcDbLine
 10
9.918542843316231
 20
-3994.999936078046
 30
0.0
 11
5849.917643811961
 21
-3995.005364289155
 31
0.0
  0
LINE
  5
65
330
1F
100
AcDbEntity
  8
F-1_枠
  6
Continuous
 62
   200
370
    20
100
AcDbLine
 10
-5840.081085996952
 20
4174.999769056166
 30
0.0
 11
5859.917429364114
 21
4174.999769056166
 31
0.0
  0
LINE
  5
66
330
1F
100
AcDbEntity
  8
F-1_枠
  6
Continuous
 62
   200
370
    20
100
AcDbLine
 10
-5840.081085996952
 20
4164.999983504013
 30
0.0
 11
5859.917429364114
 21
4164.999983504013
 31
0.0
  0
LINE
  5
67
330
1F
100
AcDbEntity
  8
F-1_枠
  6
Continuous
 62
   200
370
    20
100
AcDbLine
 10
-5840.081085996952
 20
4169.999505120355
 30
0.0
 11
5859.917429364114
 21
4169.999505120355
 31
0.0
  0
LINE
  5
68
330
1F
100
AcDbEntity
  8
F-0_補助線
  6
JWW_HOJO
 62
     7
370
     9
100
AcDbLine
 10
-5830.081323642279
 20
-3994.99993607839
 30
0.0
 11
9.918542843316231
 21
-3994.99993607839
 31
0.0
  0
LINE
  5
69
330
1F
100
AcDbEntity
  8
F-0_補助線
  6
JWW_HOJO
 62
     7
370
     9
100
AcDbLine
 10
-5830.081323642279
 20
-3904.99993607839
 30
0.0
 11
9.918542843316231
 21
-3904.99993607839
 31
0.0
  0
LINE
  5
6A
330
1F
100
AcDbEntity
  8
F-0_補助線
  6
JWW_HOJO
 62
     7
370
     9
100
AcDbLine
 10
-5830.081323642279
 20
-4084.99993607839
 30
0.0
 11
9.918542843316231
 21
-4084.99993607839
 31
0.0
  0
LINE
  5
6B
330
1F
100
AcDbEntity
  8
F-0_補助線
  6
JWW_HOJO
 62
     7
370
     9
100
AcDbLine
 10
9.918408067688347
 20
-4139.999739777983
 30
0.0
 11
5849.917509036332
 21
-4140.005167989091
 31
0.0
  0
LINE
  5
6C
330
1F
100
AcDbEntity
  8
F-0_補助線
  6
JWW_HOJO
 62
     7
370
     9
100
AcDbLine
 10
9.918491721639953
 20
-4049.999739778022
 30
0.0
 11
5849.917592690284
 21
-4050.005167989131
 31
0.0
  0
LINE
  5
6D
330
1F
100
AcDbEntity
  8
F-0_補助線
  6
JWW_HOJO
 62
     7
370
     9
100
AcDbLine
 10
9.918677619311609
 20
-3849.999737218109
 30
0.0
 11
5849.917778587956
 21
-3850.005165429218
 31
0.0
  0
LINE
  5
6E
330
1F
100
AcDbEntity
  8
F-0_補助線
  6
JWW_HOJO
 62
     7
370
     9
100
AcDbLine
 10
2939.917396372139
 20
-3795.000003092998
 30
0.0
 11
2939.917396372139
 21
-4195.000008247994
 31
0.0
  0
LINE
  5
6F
330
1F
100
AcDbEntity
  8
F-0_補助線
  6
JWW_HOJO
 62
     7
370
     9
100
AcDbLine
 10
99.91854284331623
 20
-3795.000003092998
 30
0.0
 11
99.91854284331623
 21
-4195.000008247994
 31
0.0
  0
LINE
  5
70
330
1F
100
AcDbEntity
  8
F-0_補助線
  6
JWW_HOJO
 62
     7
370
     9
100
AcDbLine
 10
4439.917891251784
 20
-3795.000003092998
 30
0.0
 11
4439.917891251784
 21
-4195.000008247994
 31
0.0
  0
LINE
  5
71
330
1F
100
AcDbEntity
  8
F-1_枠
  6
Continuous
 62
   200
370
    20
100
AcDbLine
 10
5859.917429364114
 20
-3795.000003092998
 30
0.0
 11
-5840.081085996952
 21
-3795.000003092998
 31
0.0
  0
LINE
  5
72
330
1F
100
AcDbEntity
  8
F-1_枠
  6
Continuous
 62
   200
370
    20
100
AcDbLine
 10
5859.917429364114
 20
-3790.000017526987
 30
0.0
 11
-5840.081085996952
 21
-3790.000017526987
 31
0.0
  0
LINE
  5
73
330
1F
100
AcDbEntity
  8
F-0_補助線
  6
JWW_HOJO
 62
     7
370
     9
100
AcDbLine
 10
-5087.628710189611
 20
-3795.000003092999
 30
0.0
 11
-5087.628710189611
 21
-4205.000164959882
 31
0.0
  0
LINE
  5
74
330
1F
100
AcDbEntity
  8
F-0_補助線
  6
JWW_HOJO
 62
     7
370
     9
100
AcDbLine
 10
-50.08145715668377
 20
-3795.000003092998
 30
0.0
 11
-50.08145715668377
 21
-4195.000008247994
 31
0.0
  0
MTEXT
  5
75
330
1F
100
AcDbEntity
  8
F-0_補助線
  6
Continuous
 62
     7
370
     0
100
AcDbMText
 10
509.9185840832865
 20
-3950.199002252999
 30
0.0
 40
71.17657923900997
 41
525.0
 46
0.0
 71
     7
 72
     1
  1
{\fHGP明朝B|b1|i0|c128|p18;ＳＯＦＴＡＲＴ}
 73
     1
 44
1.0
  0
MTEXT
  5
76
330
1F
100
AcDbEntity
  8
F-0_補助線
  6
Continuous
 62
     7
370
     0
100
AcDbMText
 10
1110.209427605311
 20
-3946.734791872504
 30
0.0
 40
78.105
 41
615.0
 46
0.0
 71
     7
 72
     1
  1
{\fＭＳ ゴシック|b0|i0|c128|p49;建具納まり図}
 73
     1
 44
1.0
  0
MTEXT
  5
77
330
1F
100
AcDbEntity
  8
F-A_文字
  6
Continuous
 62
     7
370
     0
100
AcDbMText
 10
99.91854284331623
 20
-3887.139820871936
 30
0.0
 40
45.72
 41
180.0
 46
0.0
 71
     7
 72
     1
  1
{\fＭＳ ゴシック|b0|i0|c128|p49;図面名}
 73
     1
 44
1.0
  0
MTEXT
  5
78
330
1F
100
AcDbEntity
  8
F-A_文字
  6
Continuous
 62
     7
370
     0
100
AcDbMText
 10
2939.917396372139
 20
-3887.142460617774
 30
0.0
 40
45.72
 41
300.0
 46
0.0
 71
     7
 72
     1
  1
{\fＭＳ ゴシック|b0|i0|c128|p49;ＳＣＡＬＥ}
 73
     1
 44
1.0
  0
MTEXT
  5
79
330
1F
100
AcDbEntity
  8
F-A_文字
  6
Continuous
 62
     7
370
     0
100
AcDbMText
 10
4439.917891251784
 20
-3887.143854850754
 30
0.0
 40
45.72
 41
240.0
 46
0.0
 71
     7
 72
     1
  1
{\fＭＳ ゴシック|b0|i0|c128|p49;ＤＡＴＥ}
 73
     1
 44
1.0
  0
MTEXT
  5
7A
330
1F
100
AcDbEntity
  8
F-A_文字
  6
Continuous
 62
     7
370
     0
100
AcDbMText
 10
2939.917396372139
 20
-4087.14246317786
 30
0.0
 40
45.72
 41
240.0
 46
0.0
 71
     7
 72
     1
  1
{\fＭＳ ゴシック|b0|i0|c128|p49;ＦＩＬＥ}
 73
     1
 44
1.0
  0
MTEXT
  5
7B
330
1F
100
AcDbEntity
  8
F-A_文字
  6
Continuous
 62
     7
370
     0
100
AcDbMText
 10
4439.917891251784
 20
-4087.143857410839
 30
0.0
 40
45.72
 41
180.0
 46
0.0
 71
     7
 72
     1
  1
{\fＭＳ ゴシック|b0|i0|c128|p49;ＮＯ．}
 73
     1
 44
1.0
  0
MTEXT
  5
7C
330
1F
100
AcDbEntity
  8
F-A_文字
  6
Continuous
 62
     7
370
     0
100
AcDbMText
 10
1394.917396372138
 20
-4096.140669266149
 30
0.0
 40
45.72
 41
120.0
 46
0.0
 71
     7
 72
     1
  1
{\fＭＳ ゴシック|b0|i0|c128|p49;株式}
 73
     1
 44
1.0
  0
MTEXT
  5
7D
330
1F
100
AcDbEntity
  8
F-A_文字
  6
Continuous
 62
     7
370
     0
100
AcDbMText
 10
1604.917396372138
 20
-4164.281754523929
 30
0.0
 40
101.44125
 41
1065.0
 46
0.0
 71
     7
 72
     1
  1
{\fＭＳ ゴシック|b0|i0|c128|p49;ウッドワン・・・}
 73
     1
 44
1.0
  0
MTEXT
  5
7E
330
1F
100
AcDbEntity
  8
F-A_文字
  6
Continuous
 62
     7
370
     0
100
AcDbMText
 10
1394.917396372138
 20
-4168.140669266187
 30
0.0
 40
45.72
 41
120.0
 46
0.0
 71
     7
 72
     1
  1
{\fＭＳ ゴシック|b0|i0|c128|p49;会社}
 73
     1
 44
1.0
  0
MTEXT
  5
7F
330
1F
100
AcDbEntity
  8
F-A_文字
  6
Continuous
 62
     7
370
     0
100
AcDbMText
 10
5768.321977672939
 20
-4314.841419020919
 30
0.0
 40
68.58
 41
90.0
 46
0.0
 71
     7
 72
     1
  1
{\fＭＳ ゴシック|b0|i0|c128|p49;）}
 73
     1
 44
1.0
  0
MTEXT
  5
80
330
1F
100
AcDbEntity
  8
F-A_文字
  6
Continuous
 62
     7
370
     0
100
AcDbMText
 10
5350.114617405298
 20
-4316.235443869856
 30
0.0
 40
68.58
 41
45.0
 46
0.0
 71
     7
 72
     1
  1
{\fＭＳ ゴシック|b0|i0|c128|p49;,}
 73
     1
 44
1.0
  0
MTEXT
  5
81
330
1F
100
AcDbEntity
  8
F-A_文字
  6
Continuous
 62
     7
370
     0
100
AcDbMText
 10
5083.855928478601
 20
-4314.771967288282
 30
0.0
 40
74.295
 41
97.5
 46
0.0
 71
     7
 72
     1
  1
{\fＭＳ ゴシック|b0|i0|c128|p49;$y}
 73
     1
 44
1.0
  0
MTEXT
  5
82
330
1F
100
AcDbEntity
  8
F-A_文字
  6
Continuous
 62
     7
370
     0
100
AcDbMText
 10
5238.592649517422
 20
-4314.771967288282
 30
0.0
 40
74.295
 41
97.5
 46
0.0
 71
     7
 72
     1
  1
{\fＭＳ ゴシック|b0|i0|c128|p49;$m}
 73
     1
 44
1.0
  0
MTEXT
  5
83
330
1F
100
AcDbEntity
  8
F-A_文字
  6
Continuous
 62
     7
370
     0
100
AcDbMText
 10
5393.32938200033
 20
-4314.771967288282
 30
0.0
 40
74.295
 41
97.5
 46
0.0
 71
     7
 72
     1
  1
{\fＭＳ ゴシック|b0|i0|c128|p49;$d}
 73
     1
 44
1.0
  0
MTEXT
  5
84
330
1F
100
AcDbEntity
  8
F-A_文字
  6
Continuous
 62
     7
370
     0
100
AcDbMText
 10
5548.066114483239
 20
-4314.771967288282
 30
0.0
 40
74.295
 41
195.0
 46
0.0
 71
     7
 72
     1
  1
{\fＭＳ ゴシック|b0|i0|c128|p49;印刷}
 73
     1
 44
1.0
  0
MTEXT
  5
85
330
1F
100
AcDbEntity
  8
F-A_文字
  6
Continuous
 62
     7
370
     0
100
AcDbMText
 10
4943.952040816226
 20
-4319.023493567732
 30
0.0
 40
68.58
 41
90.0
 46
0.0
 71
     7
 72
     1
  1
{\fＭＳ ゴシック|b0|i0|c128|p49;（}
 73
     1
 44
1.0
  0
MTEXT
  5
86
330
1F
100
AcDbEntity
  8
F-A_文字
  6
Continuous
 62
     7
370
     0
100
AcDbMText
 10
5191.195810375571
 20
-4319.023493567732
 30
0.0
 40
68.58
 41
45.0
 46
0.0
 71
     7
 72
     1
  1
{\fＭＳ ゴシック|b0|i0|c128|p49;,}
 73
     1
 44
1.0
  0
MTEXT
  5
87
330
1F
100
AcDbEntity
  8
F-A_文字
  6
Continuous
 62
     7
370
     9
100
AcDbMText
 10
5096.167700144058
 20
-4147.857012699985
 30
0.0
 40
74.295
 41
97.5
 46
0.0
 71
     7
 72
     1
  1
{\fＭＳ ゴシック|b0|i0|c128|p49;01}
 73
     1
 44
1.0
  0
LINE
  5
88
330
1F
100
AcDbEntity
  8
0-A_文字
  6
Continuous
 62
    92
370
    13
100
AcDbLine
 10
-5659.999495325861
 20
4000.00018145587
 30
0.0
 11
-2798.749495325861
 21
4000.00018145587
 31
0.0
  0
LINE
  5
89
330
1F
100
AcDbEntity
  8
0-A_文字
  6
Continuous
 62
    92
370
    13
100
AcDbLine
 10
-5659.999495325861
 20
3730.00018145587
 30
0.0
 11
-2798.749495325861
 21
3730.00018145587
 31
0.0
  0
LINE
  5
8A
330
1F
100
AcDbEntity
  8
0-A_文字
  6
Continuous
 62
    92
370
    13
100
AcDbLine
 10
-2798.749495325861
 20
4000.00018145587
 30
0.0
 11
-2798.749495325861
 21
3730.00018145587
 31
0.0
  0
MTEXT
  5
8B
330
1F
100
AcDbEntity
  8
0-A_文字
  6
Continuous
 62
    92
370
    13
100
AcDbMText
 10
-5588.749495325861
 20
3758.886967170156
 30
0.0
 40
147.7735714285714
 41
2715.0
 46
0.0
 71
     7
 72
     1
  1
{\fＭＳ ゴシック|b0|i0|c128|p49;アルシャルル　３枚引き込み戸}
 73
     1
 44
1.0
  0
ELLIPSE
  5
8C
330
1F
100
AcDbEntity
  8
戸当り
  6
Continuous
 62
    92
370
    13
100
AcDbEllipse
 10
4678.012708240816
 20
2876.053590301511
 30
0.0
 11
11.36181697857171
 21
42.40287823032828
 31
0.0
210
0.0
220
0.0
230
0.9999999999999999
 40
0.6
 41
1.570796326794897
 42
4.71238898038469
  0
LINE
  5
8D
330
1F
100
AcDbEntity
  8
戸当り
  6
Continuous
 62
    92
370
    13
100
AcDbLine
 10
4703.454435179014
 20
2869.236500114367
 30
0.0
 11
4652.570981302621
 21
2882.870680488653
 31
0.0
  0
LINE
  5
8E
330
1F
100
AcDbEntity
  8
戸当り
  6
Continuous
 62
    92
370
    13
100
AcDbLine
 10
4706.715555147305
 20
2881.407165525609
 30
0.0
 11
4655.832101270911
 21
2895.041345899896
 31
0.0
  0
ELLIPSE
  5
8F
330
1F
100
AcDbEntity
  8
戸当り
  6
Continuous
 62
    92
370
    13
100
AcDbEllipse
 10
4702.186101538497
 20
2966.269922279796
 30
0.0
 11
21.86569797210526
 21
81.6038957748525
 31
0.0
210
0.0
220
0.0
230
1.0
 40
0.5
 41
4.340591432030095
 42
8.225779182329084
  0
ELLIPSE
  5
90
330
1F
100
AcDbEntity
  8
戸当り
  6
Continuous
 62
    92
370
    13
100
AcDbEllipse
 10
4701.560478665396
 20
2963.935065931004
 30
0.0
 11
26.49533313827761
 21
98.88192943551533
 31
0.0
210
0.0
220
0.0
230
0.9999999999999999
 40
0.4
 41
3.840308517104466
 42
4.432552034522944
  0
ELLIPSE
  5
91
330
1F
100
AcDbEntity
  8
戸当り
  6
Continuous
 62
    92
370
    13
100
AcDbEllipse
 10
4701.560478665396
 20
2963.935065931004
 30
0.0
 11
26.49533313827761
 21
98.88192943551533
 31
0.0
210
0.0
220
0.0
230
0.9999999999999999
 40
0.4
 41
1.850633272656679
 42
2.442876790075129
  0
ELLIPSE
  5
92
330
1F
100
AcDbEntity
  8
戸当り
  6
Continuous
 62
    92
370
    13
100
AcDbEllipse
 10
4562.898498494115
 20
2838.28484693721
 30
0.0
 11
-7.622927487939132
 21
43.23177007461331
 31
0.0
210
0.0
220
0.0
230
1.0
 40
0.6000000000000001
 41
1.570796326794897
 42
4.71238898038469
  0
LINE
  5
93
330
1F
100
AcDbEntity
  8
戸当り
  6
Continuous
 62
    92
370
    13
100
AcDbLine
 10
4588.837560538884
 20
2842.858603429973
 30
0.0
 11
4536.959436449348
 21
2833.711090444447
 31
0.0
  0
LINE
  5
94
330
1F
100
AcDbEntity
  8
戸当り
  6
Continuous
 62
    92
370
    13
100
AcDbLine
 10
4586.64959350028
 20
2855.267181117928
 30
0.0
 11
4534.771469410744
 21
2846.1196681324
 31
0.0
  0
ELLIPSE
  5
95
330
1F
100
AcDbEntity
  8
戸当り
  6
Continuous
 62
    92
370
    13
100
AcDbEllipse
 10
4546.679963677618
 20
2930.264728582853
 30
0.0
 11
-14.67024424252691
 21
83.19908946199426
 31
0.0
210
0.0
220
0.0
230
1.0
 40
0.5
 41
4.340591432030095
 42
8.225779182329084
  0
ELLIPSE
  5
96
330
1F
100
AcDbEntity
  8
戸当り
  6
Continuous
 62
    92
370
    13
100
AcDbEllipse
 10
4547.099709727518
 20
2927.884230441196
 30
0.0
 11
-17.7763823922528
 21
100.8148742797557
 31
0.0
210
0.0
220
0.0
230
1.0
 40
0.4000000000000001
 41
3.840308517104466
 42
4.432552034522944
  0
ELLIPSE
  5
97
330
1F
100
AcDbEntity
  8
戸当り
  6
Continuous
 62
    92
370
    13
100
AcDbEllipse
 10
4547.099709727518
 20
2927.884230441196
 30
0.0
 11
-17.7763823922528
 21
100.8148742797557
 31
0.0
210
0.0
220
0.0
230
1.0
 40
0.4000000000000001
 41
1.850633272656679
 42
2.442876790075129
  0
ELLIPSE
  5
98
330
1F
100
AcDbEntity
  8
戸当り
  6
Continuous
 62
    92
370
    13
100
AcDbEllipse
 10
3482.311431053613
 20
2876.053590301511
 30
0.0
 11
11.36181697857171
 21
42.40287823032828
 31
0.0
210
0.0
220
0.0
230
0.9999999999999999
 40
0.6
 41
1.570796326794897
 42
4.71238898038469
  0
LINE
  5
99
330
1F
100
AcDbEntity
  8
戸当り
  6
Continuous
 62
    92
370
    13
100
AcDbLine
 10
3507.75315799181
 20
2869.236500114367
 30
0.0
 11
3456.869704115417
 21
2882.870680488653
 31
0.0
  0
LINE
  5
9A
330
1F
100
AcDbEntity
  8
戸当り
  6
Continuous
 62
    92
370
    13
100
AcDbLine
 10
3511.014277960101
 20
2881.407165525609
 30
0.0
 11
3460.130824083708
 21
2895.041345899896
 31
0.0
  0
ELLIPSE
  5
9B
330
1F
100
AcDbEntity
  8
戸当り
  6
Continuous
 62
    92
370
    13
100
AcDbEllipse
 10
3506.484824351294
 20
2966.269922279796
 30
0.0
 11
21.86569797210526
 21
81.6038957748525
 31
0.0
210
0.0
220
0.0
230
1.0
 40
0.5
 41
4.340591432030095
 42
8.225779182329084
  0
ELLIPSE
  5
9C
330
1F
100
AcDbEntity
  8
戸当り
  6
Continuous
 62
    92
370
    13
100
AcDbEllipse
 10
3505.859201478192
 20
2963.935065931004
 30
0.0
 11
26.49533313827761
 21
98.88192943551533
 31
0.0
210
0.0
220
0.0
230
0.9999999999999999
 40
0.4
 41
3.840308517104466
 42
4.432552034522944
  0
ELLIPSE
  5
9D
330
1F
100
AcDbEntity
  8
戸当り
  6
Continuous
 62
    92
370
    13
100
AcDbEllipse
 10
3505.859201478192
 20
2963.935065931004
 30
0.0
 11
26.49533313827761
 21
98.88192943551533
 31
0.0
210
0.0
220
0.0
230
0.9999999999999999
 40
0.4
 41
1.850633272656679
 42
2.442876790075129
  0
ELLIPSE
  5
9E
330
1F
100
AcDbEntity
  8
戸当り
  6
Continuous
 62
    92
370
    13
100
AcDbEllipse
 10
3367.197221306912
 20
2838.28484693721
 30
0.0
 11
-7.622927487939132
 21
43.23177007461331
 31
0.0
210
0.0
220
0.0
230
1.0
 40
0.6000000000000001
 41
1.570796326794897
 42
4.71238898038469
  0
LINE
  5
9F
330
1F
100
AcDbEntity
  8
戸当り
  6
Continuous
 62
    92
370
    13
100
AcDbLine
 10
3393.13628335168
 20
2842.858603429973
 30
0.0
 11
3341.258159262145
 21
2833.711090444447
 31
0.0
  0
LINE
  5
A0
330
1F
100
AcDbEntity
  8
戸当り
  6
Continuous
 62
    92
370
    13
100
AcDbLine
 10
3390.948316313076
 20
2855.267181117928
 30
0.0
 11
3339.070192223541
 21
2846.1196681324
 31
0.0
  0
ELLIPSE
  5
A1
330
1F
100
AcDbEntity
  8
戸当り
  6
Continuous
 62
    92
370
    13
100
AcDbEllipse
 10
3350.978686490413
 20
2930.264728582853
 30
0.0
 11
-14.67024424252691
 21
83.19908946199426
 31
0.0
210
0.0
220
0.0
230
1.0
 40
0.5
 41
4.340591432030095
 42
8.225779182329084
  0
ELLIPSE
  5
A2
330
1F
100
AcDbEntity
  8
戸当り
  6
Continuous
 62
    92
370
    13
100
AcDbEllipse
 10
3351.398432540314
 20
2927.884230441196
 30
0.0
 11
-17.7763823922528
 21
100.8148742797557
 31
0.0
210
0.0
220
0.0
230
1.0
 40
0.4000000000000001
 41
3.840308517104466
 42
4.432552034522944
  0
ELLIPSE
  5
A3
330
1F
100
AcDbEntity
  8
戸当り
  6
Continuous
 62
    92
370
    13
100
AcDbEllipse
 10
3351.398432540314
 20
2927.884230441196
 30
0.0
 11
-17.7763823922528
 21
100.8148742797557
 31
0.0
210
0.0
220
0.0
230
1.0
 40
0.4000000000000001
 41
1.850633272656679
 42
2.442876790075129
  0
LINE
  5
A4
330
1F
100
AcDbEntity
  8
戸当り
  6
JWW_DASHED2
 62
    92
370
    13
100
AcDbLine
 10
2917.747519047497
 20
3308.574932571403
 30
0.0
 11
2590.380426573896
 21
3308.574932571403
 31
0.0
  0
LINE
  5
A5
330
1F
100
AcDbEntity
  8
戸当り
  6
JWW_DASHED2
 62
    92
370
    13
100
AcDbLine
 10
2917.747519047497
 20
3322.974932571404
 30
0.0
 11
2590.380426573896
 21
3322.974932571404
 31
0.0
  0
LINE
  5
A6
330
1F
100
AcDbEntity
  8
戸当り
  6
JWW_DASHED2
 62
    92
370
    13
100
AcDbLine
 10
2917.747519047497
 20
3337.374932571404
 30
0.0
 11
2590.380426573896
 21
3337.374932571404
 31
0.0
  0
LINE
  5
A7
330
1F
100
AcDbEntity
  8
戸当り
  6
Continuous
 62
    40
370
    15
100
AcDbLine
 10
3584.481703527497
 20
3337.374932571404
 30
0.0
 11
3928.6487960011
 21
3337.374932571404
 31
0.0
  0
LINE
  5
A8
330
1F
100
AcDbEntity
  8
戸当り
  6
Continuous
 62
    40
370
    15
100
AcDbLine
 10
3928.6487960011
 20
3346.974932571404
 30
0.0
 11
4000.6487960011
 21
3346.974932571404
 31
0.0
  0
LINE
  5
A9
330
1F
100
AcDbEntity
  8
戸当り
  6
Continuous
 62
    40
370
    15
100
AcDbLine
 10
3928.6487960011
 20
3276.174932571404
 30
0.0
 11
3928.6487960011
 21
3346.974932571404
 31
0.0
  0
LINE
  5
AA
330
1F
100
AcDbEntity
  8
戸当り
  6
Continuous
 62
    40
370
    15
100
AcDbLine
 10
2590.380426573896
 20
3346.974932571404
 30
0.0
 11
2518.380426573897
 21
3346.974932571404
 31
0.0
  0
LINE
  5
AB
330
1F
100
AcDbEntity
  8
戸当り
  6
Continuous
 62
    40
370
    15
100
AcDbLine
 10
2590.380426573896
 20
3297.774932571404
 30
0.0
 11
2590.380426573896
 21
3346.974932571404
 31
0.0
  0
LINE
  5
AC
330
1F
100
AcDbEntity
  8
戸当り
  6
Continuous
 62
    92
370
    13
100
AcDbLine
 10
3594.081703527499
 20
3236.574932571404
 30
0.0
 11
3594.081703527499
 21
3385.374932571404
 31
0.0
  0
LINE
  5
AD
330
1F
100
AcDbEntity
  8
戸当り
  6
Continuous
 62
    92
370
    13
100
AcDbLine
 10
3259.514611287498
 20
3236.574932571404
 30
0.0
 11
3259.514611287498
 21
3385.374932571404
 31
0.0
  0
LINE
  5
AE
330
1F
100
AcDbEntity
  8
戸当り
  6
Continuous
 62
    40
370
    15
100
AcDbLine
 10
3249.914611287499
 20
3322.974932571404
 30
0.0
 11
3603.681703527499
 21
3322.974932571404
 31
0.0
  0
LINE
  5
AF
330
1F
100
AcDbEntity
  8
戸当り
  6
Continuous
 62
    40
370
    15
100
AcDbLine
 10
2917.747519047497
 20
3308.574932571403
 30
0.0
 11
3269.114611287498
 21
3308.574932571403
 31
0.0
  0
LINE
  5
B0
330
1F
100
AcDbEntity
  8
戸当り
  6
Continuous
 62
    40
370
    15
100
AcDbLine
 10
2590.380426573896
 20
3297.774932571404
 30
0.0
 11
2932.147519047498
 21
3297.774932571404
 31
0.0
  0
LINE
  5
B1
330
1F
100
AcDbEntity
  8
戸当り
  6
Continuous
 62
    40
370
    15
100
AcDbLine
 10
2932.147519047498
 20
3276.174932571404
 30
0.0
 11
2932.147519047498
 21
3297.774932571404
 31
0.0
  0
LINE
  5
B2
330
1F
100
AcDbEntity
  8
戸当り
  6
Continuous
 62
    40
370
    15
100
AcDbLine
 10
3928.6487960011
 20
3276.174932571404
 30
0.0
 11
4000.6487960011
 21
3276.174932571404
 31
0.0
  0
LINE
  5
B3
330
1F
100
AcDbEntity
  8
戸当り
  6
Continuous
 62
    40
370
    15
100
AcDbLine
 10
2932.147519047498
 20
3276.174932571404
 30
0.0
 11
2518.380426573897
 21
3276.174932571404
 31
0.0
  0
LINE
  5
B4
330
1F
100
AcDbEntity
  8
戸当り
  6
JWW_DASHED2
 62
    92
370
    13
100
AcDbLine
 10
5131.550072954703
 20
3308.574932571404
 30
0.0
 11
5458.917165428304
 21
3308.574932571404
 31
0.0
  0
LINE
  5
B5
330
1F
100
AcDbEntity
  8
戸当り
  6
JWW_DASHED2
 62
    92
370
    13
100
AcDbLine
 10
5131.550072954703
 20
3322.974932571405
 30
0.0
 11
5458.917165428304
 21
3322.974932571405
 31
0.0
  0
LINE
  5
B6
330
1F
100
AcDbEntity
  8
戸当り
  6
JWW_DASHED2
 62
    92
370
    13
100
AcDbLine
 10
5131.550072954703
 20
3337.374932571404
 30
0.0
 11
5458.917165428304
 21
3337.374932571404
 31
0.0
  0
LINE
  5
B7
330
1F
100
AcDbEntity
  8
戸当り
  6
Continuous
 62
    40
370
    15
100
AcDbLine
 10
4464.815888474701
 20
3337.374932571404
 30
0.0
 11
4120.6487960011
 21
3337.374932571404
 31
0.0
  0
LINE
  5
B8
330
1F
100
AcDbEntity
  8
戸当り
  6
Continuous
 62
    40
370
    15
100
AcDbLine
 10
4120.6487960011
 20
3346.974932571405
 30
0.0
 11
4048.6487960011
 21
3346.974932571405
 31
0.0
  0
LINE
  5
B9
330
1F
100
AcDbEntity
  8
戸当り
  6
Continuous
 62
    40
370
    15
100
AcDbLine
 10
4120.6487960011
 20
3276.174932571404
 30
0.0
 11
4120.6487960011
 21
3346.974932571405
 31
0.0
  0
LINE
  5
BA
330
1F
100
AcDbEntity
  8
戸当り
  6
Continuous
 62
    40
370
    15
100
AcDbLine
 10
5458.917165428304
 20
3346.974932571405
 30
0.0
 11
5530.917165428304
 21
3346.974932571405
 31
0.0
  0
LINE
  5
BB
330
1F
100
AcDbEntity
  8
戸当り
  6
Continuous
 62
    40
370
    15
100
AcDbLine
 10
5458.917165428304
 20
3297.774932571404
 30
0.0
 11
5458.917165428304
 21
3346.974932571405
 31
0.0
  0
LINE
  5
BC
330
1F
100
AcDbEntity
  8
戸当り
  6
Continuous
 62
    92
370
    13
100
AcDbLine
 10
4455.215888474701
 20
3236.574932571404
 30
0.0
 11
4455.215888474701
 21
3385.374932571404
 31
0.0
  0
LINE
  5
BD
330
1F
100
AcDbEntity
  8
戸当り
  6
Continuous
 62
    92
370
    13
100
AcDbLine
 10
4789.782980714702
 20
3236.574932571404
 30
0.0
 11
4789.782980714702
 21
3385.374932571404
 31
0.0
  0
LINE
  5
BE
330
1F
100
AcDbEntity
  8
戸当り
  6
Continuous
 62
    40
370
    15
100
AcDbLine
 10
4799.382980714701
 20
3322.974932571405
 30
0.0
 11
4445.615888474702
 21
3322.974932571405
 31
0.0
  0
LINE
  5
BF
330
1F
100
AcDbEntity
  8
戸当り
  6
Continuous
 62
    40
370
    15
100
AcDbLine
 10
5131.550072954703
 20
3308.574932571404
 30
0.0
 11
4780.182980714702
 21
3308.574932571404
 31
0.0
  0
LINE
  5
C0
330
1F
100
AcDbEntity
  8
戸当り
  6
Continuous
 62
    40
370
    15
100
AcDbLine
 10
5458.917165428304
 20
3297.774932571404
 30
0.0
 11
5117.150072954702
 21
3297.774932571404
 31
0.0
  0
LINE
  5
C1
330
1F
100
AcDbEntity
  8
戸当り
  6
Continuous
 62
    40
370
    15
100
AcDbLine
 10
5117.150072954702
 20
3276.174932571404
 30
0.0
 11
5117.150072954702
 21
3297.774932571404
 31
0.0
  0
LINE
  5
C2
330
1F
100
AcDbEntity
  8
戸当り
  6
Continuous
 62
    40
370
    15
100
AcDbLine
 10
4120.6487960011
 20
3276.174932571404
 30
0.0
 11
4048.6487960011
 21
3276.174932571404
 31
0.0
  0
LINE
  5
C3
330
1F
100
AcDbEntity
  8
戸当り
  6
Continuous
 62
    40
370
    15
100
AcDbLine
 10
5117.150072954702
 20
3276.174932571404
 30
0.0
 11
5530.917165428304
 21
3276.174932571404
 31
0.0
  0
LINE
  5
C4
330
1F
100
AcDbEntity
  8
0-0_補助線
  6
JWW_HOJO
 62
   120
370
     5
100
AcDbLine
 10
5124.350072954702
 20
2718.999983504013
 30
0.0
 11
5124.350072954702
 21
3684.999983504013
 31
0.0
  0
LINE
  5
C5
330
1F
100
AcDbEntity
  8
0-0_補助線
  6
JWW_HOJO
 62
   120
370
     5
100
AcDbLine
 10
4455.215888474701
 20
2718.999983504013
 30
0.0
 11
4455.215888474701
 21
3684.999983504013
 31
0.0
  0
LINE
  5
C6
330
1F
100
AcDbEntity
  8
0-0_補助線
  6
JWW_HOJO
 62
   120
370
     5
100
AcDbLine
 10
5458.917165194702
 20
2718.999983504013
 30
0.0
 11
5458.917165194702
 21
3684.999983504013
 31
0.0
  0
LINE
  5
C7
330
1F
100
AcDbEntity
  8
0-0_補助線
  6
JWW_HOJO
 62
   120
370
     5
100
AcDbLine
 10
4120.648796234702
 20
2718.999983504013
 30
0.0
 11
4120.648796234702
 21
3684.999983504013
 31
0.0
  0
LINE
  5
C8
330
1F
100
AcDbEntity
  8
0-0_補助線
  6
JWW_HOJO
 62
   120
370
     5
100
AcDbLine
 10
4789.782980714702
 20
2718.999983504013
 30
0.0
 11
4789.782980714702
 21
3684.999983504013
 31
0.0
  0
LINE
  5
C9
330
1F
100
AcDbEntity
  8
0-0_補助線
  6
JWW_HOJO
 62
   120
370
     5
100
AcDbLine
 10
5530.917165428304
 20
2718.999983504013
 30
0.0
 11
5530.917165428304
 21
3684.999983504013
 31
0.0
  0
LINE
  5
CA
330
1F
100
AcDbEntity
  8
0-0_補助線
  6
JWW_HOJO
 62
   120
370
     5
100
AcDbLine
 10
4048.6487960011
 20
2718.999983504013
 30
0.0
 11
4048.6487960011
 21
3684.999983504013
 31
0.0
  0
LINE
  5
CB
330
1F
100
AcDbEntity
  8
0-0_補助線
  6
JWW_HOJO
 62
   120
370
     5
100
AcDbLine
 10
3594.081703527499
 20
2718.999983504013
 30
0.0
 11
3594.081703527499
 21
3684.999983504013
 31
0.0
  0
LINE
  5
CC
330
1F
100
AcDbEntity
  8
0-0_補助線
  6
JWW_HOJO
 62
   120
370
     5
100
AcDbLine
 10
3928.648795767498
 20
2718.999983504013
 30
0.0
 11
3928.648795767498
 21
3684.999983504013
 31
0.0
  0
LINE
  5
CD
330
1F
100
AcDbEntity
  8
0-0_補助線
  6
JWW_HOJO
 62
   120
370
     5
100
AcDbLine
 10
2924.947519047498
 20
3684.999983504013
 30
0.0
 11
2924.947519047498
 21
2718.999983504013
 31
0.0
  0
LINE
  5
CE
330
1F
100
AcDbEntity
  8
0-0_補助線
  6
JWW_HOJO
 62
   120
370
     5
100
AcDbLine
 10
2590.380426807499
 20
3684.999983504013
 30
0.0
 11
2590.380426807499
 21
2718.999983504013
 31
0.0
  0
LINE
  5
CF
330
1F
100
AcDbEntity
  8
0-0_補助線
  6
JWW_HOJO
 62
   120
370
     5
100
AcDbLine
 10
3259.514611287498
 20
3684.999983504013
 30
0.0
 11
3259.514611287498
 21
2718.999983504013
 31
0.0
  0
LINE
  5
D0
330
1F
100
AcDbEntity
  8
0-0_補助線
  6
JWW_HOJO
 62
   120
370
     5
100
AcDbLine
 10
4000.6487960011
 20
2718.999983504013
 30
0.0
 11
4000.6487960011
 21
3684.999983504013
 31
0.0
  0
LINE
  5
D1
330
1F
100
AcDbEntity
  8
0-0_補助線
  6
JWW_HOJO
 62
   120
370
     5
100
AcDbLine
 10
2518.380426573897
 20
3684.999983504013
 30
0.0
 11
2518.380426573897
 21
2718.999983504013
 31
0.0
  0
LINE
  5
D2
330
1F
100
AcDbEntity
  8
0-A_文字
  6
Continuous
 62
    92
370
    13
100
AcDbLine
 10
4024.6487960011
 20
2718.999983504013
 30
0.0
 11
4024.6487960011
 21
3684.999983504013
 31
0.0
  0
LINE
  5
D3
330
1F
100
AcDbEntity
  8
0-A_文字
  6
Continuous
 62
    92
370
    13
100
AcDbLine
 10
5554.917165428304
 20
2718.999983504013
 30
0.0
 11
5554.917165428304
 21
3684.999983504013
 31
0.0
  0
LINE
  5
D4
330
1F
100
AcDbEntity
  8
0-A_文字
  6
Continuous
 62
    92
370
    13
100
AcDbLine
 10
2494.380426573896
 20
3684.999983504013
 30
0.0
 11
2494.380426573896
 21
2718.999983504013
 31
0.0
  0
LINE
  5
D5
330
1F
100
AcDbEntity
  8
0-A_文字
  6
Continuous
 62
    92
370
    13
100
AcDbLine
 10
5554.917165428304
 20
2718.999983504013
 30
0.0
 11
2494.380426573896
 21
2718.999983504013
 31
0.0
  0
MTEXT
  5
D6
330
1F
100
AcDbEntity
  8
0-A_文字
  6
Continuous
 62
     7
370
     9
100
AcDbMText
 10
4587.282980714702
 20
3561.576233504013
 30
0.0
 40
77.15249999999999
 41
405.0
 46
0.0
 71
     7
 72
     1
  1
{\fＭＳ ゴシック|b0|i0|c128|p49;左引き手}
 73
     1
 44
1.0
  0
MTEXT
  5
D7
330
1F
100
AcDbEntity
  8
0-A_文字
  6
Continuous
 62
     7
370
     9
100
AcDbMText
 10
3057.014611287498
 20
3561.576233504013
 30
0.0
 40
77.15249999999999
 41
405.0
 46
0.0
 71
     7
 72
     1
  1
{\fＭＳ ゴシック|b0|i0|c128|p49;右引き手}
 73
     1
 44
1.0
  0
MTEXT
  5
D8
330
1F
100
AcDbEntity
  8
0-A_文字
  6
Continuous
 62
     7
370
     9
100
AcDbMText
 10
2494.380426573898
 20
3700.719983504012
 30
0.0
 40
91.44
 41
720.0
 46
0.0
 71
     7
 72
     1
  1
{\fＭＳ ゴシック|b0|i0|c128|p49;■引き手方向}
 73
     1
 44
1.0
  0
LINE
  5
D9
330
1F
100
AcDbEntity
  8
0-A_文字
  6
Continuous
 62
    92
370
    13
100
AcDbLine
 10
2494.380426573896
 20
3684.999983504013
 30
0.0
 11
5554.917165428304
 21
3684.999983504013
 31
0.0
  0
LINE
  5
DA
330
1F
100
AcDbEntity
  8
0-A_文字
  6
Continuous
 62
    92
370
    13
100
AcDbLine
 10
2494.380426573896
 20
3540.999983504011
 30
0.0
 11
5554.917165428304
 21
3540.999983504012
 31
0.0
  0
LINE
  5
DB
330
1F
100
AcDbEntity
  8
F-0_補助線
  6
JWW_HOJO
 62
     7
370
     9
100
AcDbLine
 10
3764.917643811961
 20
-3795.000003092998
 30
0.0
 11
3764.917643811961
 21
-4195.000008247994
 31
0.0
  0
MTEXT
  5
DC
330
1F
100
AcDbEntity
  8
F-A_文字
  6
Continuous
 62
     7
370
     0
100
AcDbMText
 10
3689.917643811961
 20
-3946.903115907308
 30
0.0
 40
76.19999999999999
 41
150.0
 46
0.0
 71
     7
 72
     1
  1
{\fＭＳ ゴシック|b0|i0|c128|p49;1/5}
 73
     1
 44
1.0
  0
MTEXT
  5
DD
330
1F
100
AcDbEntity
  8
F-A_文字
  6
Continuous
 62
     7
370
     0
100
AcDbMText
 10
-5080.081323642279
 20
-4045.058436078391
 30
0.0
 40
79.88299999999994
 41
4717.5
 46
0.0
 71
     7
 72
     1
  1
{\fＭＳ ゴシック|b0|i0|c128|p49;ソフトアート　アルシャルル　３枚引き込み戸　下荷重（レールタイプ）ドアＨ2,342　枠外Ｗ3,567}
 73
     1
 44
1.0
  0
MTEXT
  5
DE
330
1F
100
AcDbEntity
  8
F-A_文字
  6
Continuous
 62
     7
370
     9
100
AcDbMText
 10
3296.167643811961
 20
-4145.315618467413
 30
0.0
 40
79.37500000000004
 41
937.5000000000005
 46
0.0
 71
     7
 72
     1
  1
{\fＭＳ ゴシック|b0|i0|c128|p49;FA38(8)-II3567_S01}
 73
     1
 44
1.0
  0
LINE
  5
DF
330
1F
100
AcDbEntity
  8
0-A_文字
  6
Continuous
 62
     7
370
     9
100
AcDbLine
 10
-599.2880302337575
 20
-3133.967421702954
 30
0.0
 11
-569.2880302337575
 21
-3185.92894593002
 31
0.0
  0
LINE
  5
E0
330
1F
100
AcDbEntity
  8
0-A_文字
  6
Continuous
 62
     7
370
     9
100
AcDbLine
 10
-599.2880302337575
 20
-3133.967421702954
 30
0.0
 11
-539.2880302337575
 21
-3133.967421702954
 31
0.0
  0
LINE
  5
E1
330
1F
100
AcDbEntity
  8
0-A_文字
  6
Continuous
 62
     7
370
     9
100
AcDbLine
 10
-539.2880302337575
 20
-3133.967421702954
 30
0.0
 11
-569.2880302337558
 21
-3185.92894593002
 31
0.0
  0
LINE
  5
E2
330
1F
100
AcDbEntity
  8
0-0_補助線
  6
JWW_HOJO
 62
   120
370
     5
100
AcDbLine
 10
-578.6751342341668
 20
-1884.848713373476
 30
0.0
 11
603.3248657658326
 21
-1884.848713373476
 31
0.0
  0
LINE
  5
E3
330
1F
100
AcDbEntity
  8
0-0_補助線
  6
JWW_HOJO
 62
   120
370
     5
100
AcDbLine
 10
-578.6751342341668
 20
-2004.848713373476
 30
0.0
 11
603.3248657658324
 21
-2004.848713373476
 31
0.0
  0
LINE
  5
E4
330
1F
100
AcDbEntity
  8
0-3_仕上げ
  6
Continuous
 62
    40
370
    15
100
AcDbLine
 10
657.3248657658324
 20
-3258.848919635542
 30
0.0
 11
-632.6751342341676
 21
-3258.848919635542
 31
0.0
  0
LINE
  5
E5
330
1F
100
AcDbEntity
  8
0-3_仕上げ
  6
Continuous
 62
    40
370
    15
100
AcDbLine
 10
657.3248657658324
 20
-3186.848919635541
 30
0.0
 11
-632.6751342341676
 21
-3186.848919635541
 31
0.0
  0
LINE
  5
E6
330
1F
100
AcDbEntity
  8
0-3_仕上げ
  6
Continuous
 62
     7
370
     9
100
AcDbLine
 10
657.3248657658324
 20
-3222.84891963554
 30
0.0
 11
-632.6751342341676
 21
-3222.84891963554
 31
0.0
  0
LINE
  5
E7
330
1F
100
AcDbEntity
  8
0-3_仕上げ
  6
Continuous
 62
     7
370
     9
100
AcDbLine
 10
657.3248657658324
 20
-3240.848919635543
 30
0.0
 11
-632.6751342341676
 21
-3240.848919635542
 31
0.0
  0
LINE
  5
E8
330
1F
100
AcDbEntity
  8
0-3_仕上げ
  6
Continuous
 62
     7
370
     9
100
AcDbLine
 10
657.3248657658324
 20
-3231.848919635541
 30
0.0
 11
-632.6751342341676
 21
-3231.848919635541
 31
0.0
  0
LINE
  5
E9
330
1F
100
AcDbEntity
  8
0-3_仕上げ
  6
Continuous
 62
     7
370
     9
100
AcDbLine
 10
657.3248657658324
 20
-3213.84891963554
 30
0.0
 11
-632.6751342341676
 21
-3213.848919635539
 31
0.0
  0
LINE
  5
EA
330
1F
100
AcDbEntity
  8
0-3_仕上げ
  6
Continuous
 62
     7
370
     9
100
AcDbLine
 10
657.3248657658324
 20
-3204.848919635541
 30
0.0
 11
-632.6751342341676
 21
-3204.848919635541
 31
0.0
  0
LINE
  5
EB
330
1F
100
AcDbEntity
  8
0-3_仕上げ
  6
Continuous
 62
     7
370
     9
100
AcDbLine
 10
657.3248657658324
 20
-3195.848919635543
 30
0.0
 11
-632.6751342341676
 21
-3195.848919635542
 31
0.0
  0
LINE
  5
EC
330
1F
100
AcDbEntity
  8
0-3_仕上げ
  6
Continuous
 62
     7
370
     9
100
AcDbLine
 10
657.3248657658324
 20
-3249.848919635541
 30
0.0
 11
-632.6751342341676
 21
-3249.848919635541
 31
0.0
  0
LINE
  5
ED
330
1F
100
AcDbEntity
  8
0-C_ハッチ
  6
Continuous
 62
   120
370
     5
100
AcDbLine
 10
-134.2539344092381
 20
-642.8487133734834
 30
0.0
 11
-50.25393440924077
 21
-558.8487133734814
 31
0.0
  0
LINE
  5
EE
330
1F
100
AcDbEntity
  8
0-C_ハッチ
  6
Continuous
 62
   120
370
     5
100
AcDbLine
 10
129.1278833088047
 20
-735.8487133734841
 30
0.0
 11
153.9248657658311
 21
-711.0517309164572
 31
0.0
  0
LINE
  5
EF
330
1F
100
AcDbEntity
  8
0-C_ハッチ
  6
Continuous
 62
   120
370
     5
100
AcDbLine
 10
162.730913689104
 20
-642.8487133734834
 30
0.0
 11
246.7309136891026
 21
-558.8487133734814
 31
0.0
  0
LINE
  5
F0
330
1F
100
AcDbEntity
  8
0-C_ハッチ
  6
Continuous
 62
   120
370
     5
100
AcDbLine
 10
-15.45999516989369
 20
-642.8487133734834
 30
0.0
 11
68.54000483010495
 21
-558.8487133734814
 31
0.0
  0
LINE
  5
F1
330
1F
100
AcDbEntity
  8
0-C_ハッチ
  6
Continuous
 62
   120
370
     5
100
AcDbLine
 10
43.93697444975444
 20
-642.8487133734834
 30
0.0
 11
127.9369744497565
 21
-558.8487133734814
 31
0.0
  0
LINE
  5
F2
330
1F
100
AcDbEntity
  8
0-C_ハッチ
  6
Continuous
 62
   120
370
     5
100
AcDbLine
 10
-108.4599951698901
 20
-735.8487133734841
 30
0.0
 11
-74.07513423416745
 21
-701.4638524377597
 31
0.0
  0
LINE
  5
F3
330
1F
100
AcDbEntity
  8
0-C_ハッチ
  6
Continuous
 62
   120
370
     5
100
AcDbLine
 10
-253.0478736485894
 20
-642.8487133734834
 30
0.0
 11
-169.0478736485886
 21
-558.8487133734814
 31
0.0
  0
LINE
  5
F4
330
1F
100
AcDbEntity
  8
0-C_ハッチ
  6
Continuous
 62
   120
370
     5
100
AcDbLine
 10
-193.6509040288901
 20
-642.8487133734834
 30
0.0
 11
-109.650904028888
 21
-558.8487133734814
 31
0.0
  0
LINE
  5
F5
330
1F
100
AcDbEntity
  8
0-C_ハッチ
  6
Continuous
 62
   120
370
     5
100
AcDbLine
 10
-346.0478736485905
 20
-735.8487133734841
 30
0.0
 11
-302.0751342341673
 21
-691.8759739590599
 31
0.0
  0
LINE
  5
F6
330
1F
100
AcDbEntity
  8
0-0_補助線
  6
JWW_HOJO
 62
   120
370
     5
100
AcDbLine
 10
657.3248657658324
 20
-3258.848713373458
 30
0.0
 11
657.3248657658332
 21
-498.8487133734817
 31
0.0
  0
LINE
  5
F7
330
1F
100
AcDbEntity
  8
0-0_補助線
  6
JWW_HOJO
 62
   120
370
     5
100
AcDbLine
 10
867.3248657658324
 20
-3258.848713373456
 30
0.0
 11
867.3248657658334
 21
-498.8487133734817
 31
0.0
  0
LINE
  5
F8
330
1F
100
AcDbEntity
  8
0-0_補助線
  6
JWW_HOJO
 62
   120
370
     5
100
AcDbLine
 10
-632.6751342341676
 20
-3258.848713373458
 30
0.0
 11
-632.6751342341668
 21
-498.8487133734813
 31
0.0
  0
MTEXT
  5
F9
330
1F
100
AcDbEntity
  8
0-A_文字
  6
Continuous
 62
     7
370
     9
100
AcDbMText
 10
-4492.003744288702
 20
2824.192215758227
 30
0.0
 40
91.44
 41
600.0
 46
0.0
 71
     7
 72
     1
  1
{\fＭＳ ゴシック|b0|i0|c128|p49;■横断面図}
 73
     1
 44
1.0
  0
LINE
  5
FA
330
1F
100
AcDbEntity
  8
0-4_枠
  6
Continuous
 62
    92
370
    13
100
AcDbLine
 10
-302.8569647895425
 20
-738.8487133734814
 30
0.0
 11
-302.8569647895421
 21
-642.8487133734834
 31
0.0
  0
LINE
  5
FB
330
1F
100
AcDbEntity
  8
0-4_枠
  6
Continuous
 62
    92
370
    13
100
AcDbLine
 10
-134.8569647895418
 20
-738.8487133734814
 30
0.0
 11
-134.8569647895414
 21
-642.8487133734834
 31
0.0
  0
LINE
  5
FC
330
1F
100
AcDbEntity
  8
0-4_枠
  6
Continuous
 62
    92
370
    13
100
AcDbLine
 10
-134.8569647895414
 20
-642.8487133734834
 30
0.0
 11
-302.8569647895421
 21
-642.8487133734834
 31
0.0
  0
LINE
  5
FD
330
1F
100
AcDbEntity
  8
0-4_枠
  6
Continuous
 62
    92
370
    13
100
AcDbLine
 10
-74.8569647895414
 20
-738.8487133734814
 30
0.0
 11
-74.8569647895414
 21
-642.8487133734834
 31
0.0
  0
LINE
  5
FE
330
1F
100
AcDbEntity
  8
0-4_枠
  6
Continuous
 62
    92
370
    13
100
AcDbLine
 10
-134.8569647895418
 20
-735.8487133734841
 30
0.0
 11
-74.8569647895414
 21
-735.8487133734841
 31
0.0
  0
LINE
  5
FF
330
1F
100
AcDbEntity
  8
0-4_枠
  6
Continuous
 62
    92
370
    13
100
AcDbLine
 10
-74.8569647895414
 20
-738.8487133734814
 30
0.0
 11
-134.8569647895418
 21
-738.8487133734814
 31
0.0
  0
LINE
  5
100
330
1F
100
AcDbEntity
  8
0-4_枠
  6
Continuous
 62
    92
370
    13
100
AcDbLine
 10
93.14303521045929
 20
-738.8487133734814
 30
0.0
 11
93.14303521045929
 21
-642.8487133734834
 31
0.0
  0
LINE
  5
101
330
1F
100
AcDbEntity
  8
0-4_枠
  6
Continuous
 62
    92
370
    13
100
AcDbLine
 10
93.14303521045929
 20
-642.8487133734834
 30
0.0
 11
-74.8569647895414
 21
-642.8487133734834
 31
0.0
  0
LINE
  5
102
330
1F
100
AcDbEntity
  8
0-4_枠
  6
Continuous
 62
    92
370
    13
100
AcDbLine
 10
153.1430352104593
 20
-738.8487133734814
 30
0.0
 11
153.1430352104593
 21
-642.8487133734834
 31
0.0
  0
LINE
  5
103
330
1F
100
AcDbEntity
  8
0-4_枠
  6
Continuous
 62
    92
370
    13
100
AcDbLine
 10
153.1430352104593
 20
-735.8487133734841
 30
0.0
 11
93.14303521045929
 21
-735.8487133734841
 31
0.0
  0
LINE
  5
104
330
1F
100
AcDbEntity
  8
0-4_枠
  6
Continuous
 62
    92
370
    13
100
AcDbLine
 10
153.1430352104593
 20
-738.8487133734814
 30
0.0
 11
93.14303521045929
 21
-738.8487133734814
 31
0.0
  0
LINE
  5
105
330
1F
100
AcDbEntity
  8
0-4_枠
  6
Continuous
 62
    92
370
    13
100
AcDbLine
 10
321.1430352104583
 20
-738.8487133734814
 30
0.0
 11
321.1430352104583
 21
-642.8487133734834
 31
0.0
  0
LINE
  5
106
330
1F
100
AcDbEntity
  8
0-4_枠
  6
Continuous
 62
    92
370
    13
100
AcDbLine
 10
321.1430352104583
 20
-642.8487133734834
 30
0.0
 11
153.1430352104593
 21
-642.8487133734834
 31
0.0
  0
LINE
  5
107
330
1F
100
AcDbEntity
  8
0-C_ハッチ
  6
Continuous
 62
   120
370
     5
100
AcDbLine
 10
222.1278833088046
 20
-642.8487133734834
 30
0.0
 11
303.1278833088043
 21
-561.848713373482
 31
0.0
  0
LINE
  5
108
330
1F
100
AcDbEntity
  8
0-C_ハッチ
  6
Continuous
 62
   120
370
     5
100
AcDbLine
 10
281.524852928451
 20
-642.8487133734834
 30
0.0
 11
362.5248529284506
 21
-561.848713373482
 31
0.0
  0
LINE
  5
109
330
1F
100
AcDbEntity
  8
0-7_金物
  6
Continuous
 62
     7
370
     9
100
AcDbLine
 10
281.3631601179032
 20
-747.5507440946479
 30
0.0
 11
188.5115589723661
 21
-747.5507440946479
 31
0.0
  0
LINE
  5
10A
330
1F
100
AcDbEntity
  8
0-7_金物
  6
Continuous
 62
     7
370
     9
100
AcDbLine
 10
188.5115589723661
 20
-756.9900828085237
 30
0.0
 11
188.5115589723661
 21
-662.1702442248213
 31
0.0
  0
LINE
  5
10B
330
1F
100
AcDbEntity
  8
0-7_金物
  6
Continuous
 62
     7
370
     9
100
AcDbLine
 10
188.5115589723661
 20
-676.5465785127707
 30
0.0
 11
281.3631601179032
 21
-676.5465785127707
 31
0.0
  0
LINE
  5
10C
330
1F
100
AcDbEntity
  8
0-7_金物
  6
Continuous
 62
     7
370
     9
100
AcDbLine
 10
281.3631601179032
 20
-756.9900828085237
 30
0.0
 11
281.3631601179032
 21
-662.1702442248213
 31
0.0
  0
LINE
  5
10D
330
1F
100
AcDbEntity
  8
0-7_金物
  6
Continuous
 62
     7
370
     9
100
AcDbLine
 10
188.5115589723661
 20
-662.1702442248213
 30
0.0
 11
168.2633163272239
 21
-662.1702442248213
 31
0.0
  0
LINE
  5
10E
330
1F
100
AcDbEntity
  8
0-7_金物
  6
Continuous
 62
     7
370
     9
100
AcDbLine
 10
168.2633163272239
 20
-662.1702442248213
 30
0.0
 11
168.2633163272239
 21
-756.9900828085237
 31
0.0
  0
LINE
  5
10F
330
1F
100
AcDbEntity
  8
0-7_金物
  6
Continuous
 62
     7
370
     9
100
AcDbLine
 10
168.2633163272239
 20
-756.9900828085237
 30
0.0
 11
188.5115589723661
 21
-756.9900828085237
 31
0.0
  0
LINE
  5
110
330
1F
100
AcDbEntity
  8
0-7_金物
  6
Continuous
 62
     7
370
     9
100
AcDbLine
 10
281.3631601179032
 20
-756.9900828085237
 30
0.0
 11
302.3986977383141
 21
-756.9900828085237
 31
0.0
  0
LINE
  5
111
330
1F
100
AcDbEntity
  8
0-7_金物
  6
Continuous
 62
     7
370
     9
100
AcDbLine
 10
302.3986977383141
 20
-756.9900828085237
 30
0.0
 11
302.3986977383141
 21
-662.1702442248213
 31
0.0
  0
LINE
  5
112
330
1F
100
AcDbEntity
  8
0-7_金物
  6
Continuous
 62
     7
370
     9
100
AcDbLine
 10
281.3631601179032
 20
-662.1702442248213
 30
0.0
 11
302.3986977383141
 21
-662.1702442248213
 31
0.0
  0
LINE
  5
113
330
1F
100
AcDbEntity
  8
0-7_金物
  6
Continuous
 62
     7
370
     9
100
AcDbLine
 10
53.36316011790259
 20
-747.5507440946479
 30
0.0
 11
-39.48844102763289
 21
-747.5507440946479
 31
0.0
  0
LINE
  5
114
330
1F
100
AcDbEntity
  8
0-7_金物
  6
Continuous
 62
     7
370
     9
100
AcDbLine
 10
-39.48844102763289
 20
-756.9900828085237
 30
0.0
 11
-39.48844102763289
 21
-662.1702442248213
 31
0.0
  0
LINE
  5
115
330
1F
100
AcDbEntity
  8
0-7_金物
  6
Continuous
 62
     7
370
     9
100
AcDbLine
 10
-39.48844102763289
 20
-676.5465785127707
 30
0.0
 11
53.36316011790259
 21
-676.5465785127707
 31
0.0
  0
LINE
  5
116
330
1F
100
AcDbEntity
  8
0-7_金物
  6
Continuous
 62
     7
370
     9
100
AcDbLine
 10
53.36316011790259
 20
-756.9900828085237
 30
0.0
 11
53.36316011790259
 21
-662.1702442248213
 31
0.0
  0
LINE
  5
117
330
1F
100
AcDbEntity
  8
0-7_金物
  6
Continuous
 62
     7
370
     9
100
AcDbLine
 10
-39.48844102763289
 20
-662.1702442248213
 30
0.0
 11
-59.73668367277682
 21
-662.1702442248213
 31
0.0
  0
LINE
  5
118
330
1F
100
AcDbEntity
  8
0-7_金物
  6
Continuous
 62
     7
370
     9
100
AcDbLine
 10
-59.73668367277682
 20
-662.1702442248213
 30
0.0
 11
-59.73668367277682
 21
-756.9900828085237
 31
0.0
  0
LINE
  5
119
330
1F
100
AcDbEntity
  8
0-7_金物
  6
Continuous
 62
     7
370
     9
100
AcDbLine
 10
-59.73668367277682
 20
-756.9900828085237
 30
0.0
 11
-39.48844102763289
 21
-756.9900828085237
 31
0.0
  0
LINE
  5
11A
330
1F
100
AcDbEntity
  8
0-7_金物
  6
Continuous
 62
     7
370
     9
100
AcDbLine
 10
53.36316011790259
 20
-756.9900828085237
 30
0.0
 11
74.39869773831347
 21
-756.9900828085237
 31
0.0
  0
LINE
  5
11B
330
1F
100
AcDbEntity
  8
0-7_金物
  6
Continuous
 62
     7
370
     9
100
AcDbLine
 10
74.39869773831347
 20
-756.9900828085237
 30
0.0
 11
74.39869773831347
 21
-662.1702442248213
 31
0.0
  0
LINE
  5
11C
330
1F
100
AcDbEntity
  8
0-7_金物
  6
Continuous
 62
     7
370
     9
100
AcDbLine
 10
53.36316011790259
 20
-662.1702442248213
 30
0.0
 11
74.39869773831347
 21
-662.1702442248213
 31
0.0
  0
LINE
  5
11D
330
1F
100
AcDbEntity
  8
0-7_金物
  6
Continuous
 62
     7
370
     9
100
AcDbLine
 10
-174.6368398520882
 20
-747.5507440946479
 30
0.0
 11
-267.4884409976237
 21
-747.5507440946479
 31
0.0
  0
LINE
  5
11E
330
1F
100
AcDbEntity
  8
0-7_金物
  6
Continuous
 62
     7
370
     9
100
AcDbLine
 10
-267.4884409976237
 20
-756.9900828085237
 30
0.0
 11
-267.4884409976237
 21
-662.1702442248213
 31
0.0
  0
LINE
  5
11F
330
1F
100
AcDbEntity
  8
0-7_金物
  6
Continuous
 62
     7
370
     9
100
AcDbLine
 10
-267.4884409976237
 20
-676.5465785127707
 30
0.0
 11
-174.6368398520882
 21
-676.5465785127707
 31
0.0
  0
LINE
  5
120
330
1F
100
AcDbEntity
  8
0-7_金物
  6
Continuous
 62
     7
370
     9
100
AcDbLine
 10
-174.6368398520882
 20
-756.9900828085237
 30
0.0
 11
-174.6368398520882
 21
-662.1702442248213
 31
0.0
  0
LINE
  5
121
330
1F
100
AcDbEntity
  8
0-7_金物
  6
Continuous
 62
     7
370
     9
100
AcDbLine
 10
-267.4884409976237
 20
-662.1702442248213
 30
0.0
 11
-287.7366836427676
 21
-662.1702442248213
 31
0.0
  0
LINE
  5
122
330
1F
100
AcDbEntity
  8
0-7_金物
  6
Continuous
 62
     7
370
     9
100
AcDbLine
 10
-287.7366836427676
 20
-662.1702442248213
 30
0.0
 11
-287.7366836427676
 21
-756.9900828085237
 31
0.0
  0
LINE
  5
123
330
1F
100
AcDbEntity
  8
0-7_金物
  6
Continuous
 62
     7
370
     9
100
AcDbLine
 10
-287.7366836427676
 20
-756.9900828085237
 30
0.0
 11
-267.4884409976237
 21
-756.9900828085237
 31
0.0
  0
LINE
  5
124
330
1F
100
AcDbEntity
  8
0-7_金物
  6
Continuous
 62
     7
370
     9
100
AcDbLine
 10
-174.6368398520882
 20
-756.9900828085237
 30
0.0
 11
-153.6013022316773
 21
-756.9900828085237
 31
0.0
  0
LINE
  5
125
330
1F
100
AcDbEntity
  8
0-7_金物
  6
Continuous
 62
     7
370
     9
100
AcDbLine
 10
-153.6013022316773
 20
-756.9900828085237
 30
0.0
 11
-153.6013022316773
 21
-662.1702442248213
 31
0.0
  0
LINE
  5
126
330
1F
100
AcDbEntity
  8
0-7_金物
  6
Continuous
 62
     7
370
     9
100
AcDbLine
 10
-174.6368398520882
 20
-662.1702442248213
 30
0.0
 11
-153.6013022316773
 21
-662.1702442248213
 31
0.0
  0
LINE
  5
127
330
1F
100
AcDbEntity
  8
0-A_文字
  6
Continuous
 62
     7
370
     9
100
AcDbLine
 10
321.1430351504499
 20
-642.84871337348
 30
0.0
 11
153.1430351504493
 21
-642.84871337348
 31
0.0
  0
LINE
  5
128
330
1F
100
AcDbEntity
  8
0-A_文字
  6
Continuous
 62
     7
370
     9
100
AcDbLine
 10
153.1430351504493
 20
-642.84871337348
 30
0.0
 11
153.1430351504493
 21
-738.8487133734814
 31
0.0
  0
LINE
  5
129
330
1F
100
AcDbEntity
  8
0-A_文字
  6
Continuous
 62
     7
370
     9
100
AcDbLine
 10
312.1430351504479
 20
-651.8487133734786
 30
0.0
 11
162.1430351504479
 21
-651.8487133734786
 31
0.0
  0
LINE
  5
12A
330
1F
100
AcDbEntity
  8
0-A_文字
  6
Continuous
 62
     7
370
     9
100
AcDbLine
 10
334.0145592796649
 20
-738.8487133734814
 30
0.0
 11
345.1430351504486
 21
-738.8487133734814
 31
0.0
  0
LINE
  5
12B
330
1F
100
AcDbEntity
  8
0-A_文字
  6
Continuous
 62
     7
370
     9
100
AcDbLine
 10
162.1430351504479
 20
-651.8487133734786
 30
0.0
 11
162.1430351504479
 21
-761.048713373482
 31
0.0
  0
LINE
  5
12C
330
1F
100
AcDbEntity
  8
0-A_文字
  6
Continuous
 62
     7
370
     9
100
AcDbLine
 10
321.1430351504499
 20
-754.7470590511535
 30
0.0
 11
321.1430351504499
 21
-642.84871337348
 31
0.0
  0
LINE
  5
12D
330
1F
100
AcDbEntity
  8
0-A_文字
  6
Continuous
 62
     7
370
     9
100
AcDbLine
 10
312.1430351504479
 20
-761.048713373482
 30
0.0
 11
312.1430351504479
 21
-651.8487133734786
 31
0.0
  0
LINE
  5
12E
330
1F
100
AcDbEntity
  8
0-A_文字
  6
Continuous
 62
     7
370
     9
100
AcDbLine
 10
153.1430351504493
 20
-770.0487133734806
 30
0.0
 11
183.1430351504493
 21
-770.0487133734806
 31
0.0
  0
LINE
  5
12F
330
1F
100
AcDbEntity
  8
0-A_文字
  6
Continuous
 62
     7
370
     9
100
AcDbLine
 10
321.1430351504499
 20
-770.0487133734806
 30
0.0
 11
291.1430351504499
 21
-770.0487133734806
 31
0.0
  0
LINE
  5
130
330
1F
100
AcDbEntity
  8
0-A_文字
  6
Continuous
 62
     7
370
     9
100
AcDbLine
 10
291.1430351504499
 20
-770.0487133734806
 30
0.0
 11
291.1430351504499
 21
-761.048713373482
 31
0.0
  0
LINE
  5
131
330
1F
100
AcDbEntity
  8
0-A_文字
  6
Continuous
 62
     7
370
     9
100
AcDbLine
 10
183.1430351504493
 20
-770.0487133734806
 30
0.0
 11
183.1430351504493
 21
-761.048713373482
 31
0.0
  0
LINE
  5
132
330
1F
100
AcDbEntity
  8
0-A_文字
  6
Continuous
 62
     7
370
     9
100
AcDbLine
 10
291.1430351504499
 20
-761.048713373482
 30
0.0
 11
312.1430351504479
 21
-761.048713373482
 31
0.0
  0
LINE
  5
133
330
1F
100
AcDbEntity
  8
0-A_文字
  6
Continuous
 62
     7
370
     9
100
AcDbLine
 10
183.1430351504493
 20
-761.048713373482
 30
0.0
 11
162.1430351504479
 21
-761.048713373482
 31
0.0
  0
LINE
  5
134
330
1F
100
AcDbEntity
  8
0-A_文字
  6
Continuous
 62
     7
370
     9
100
AcDbLine
 10
321.1430351504499
 20
-770.0487133734806
 30
0.0
 11
345.1430351504486
 21
-738.8487133734814
 31
0.0
  0
LINE
  5
135
330
1F
100
AcDbEntity
  8
0-A_文字
  6
Continuous
 62
     7
370
     9
100
AcDbLine
 10
321.1430351504499
 20
-754.7470590511535
 30
0.0
 11
334.0145592796649
 21
-738.8487133734814
 31
0.0
  0
LINE
  5
136
330
1F
100
AcDbEntity
  8
0-A_文字
  6
Continuous
 62
     7
370
     9
100
AcDbLine
 10
153.1430351504493
 20
-770.0487133734806
 30
0.0
 11
153.1430351504493
 21
-747.84871337348
 31
0.0
  0
LINE
  5
137
330
1F
100
AcDbEntity
  8
0-A_文字
  6
Continuous
 62
     7
370
     9
100
AcDbLine
 10
-134.8569647895435
 20
-642.84871337348
 30
0.0
 11
-302.8569647895425
 21
-642.84871337348
 31
0.0
  0
LINE
  5
138
330
1F
100
AcDbEntity
  8
0-A_文字
  6
Continuous
 62
     7
370
     9
100
AcDbLine
 10
-143.8569647895422
 20
-651.8487133734786
 30
0.0
 11
-293.8569647895422
 21
-651.8487133734786
 31
0.0
  0
LINE
  5
139
330
1F
100
AcDbEntity
  8
0-A_文字
  6
Continuous
 62
     7
370
     9
100
AcDbLine
 10
-315.7284889187592
 20
-738.8487133734814
 30
0.0
 11
-326.8569647895446
 21
-738.8487133734814
 31
0.0
  0
LINE
  5
13A
330
1F
100
AcDbEntity
  8
0-A_文字
  6
Continuous
 62
     7
370
     9
100
AcDbLine
 10
-134.8569647895435
 20
-770.0487133734806
 30
0.0
 11
-134.8569647895435
 21
-642.84871337348
 31
0.0
  0
LINE
  5
13B
330
1F
100
AcDbEntity
  8
0-A_文字
  6
Continuous
 62
     7
370
     9
100
AcDbLine
 10
-302.8569647895425
 20
-642.84871337348
 30
0.0
 11
-302.8569647895425
 21
-770.0487133734806
 31
0.0
  0
LINE
  5
13C
330
1F
100
AcDbEntity
  8
0-A_文字
  6
Continuous
 62
     7
370
     9
100
AcDbLine
 10
-293.8569647895422
 20
-651.8487133734786
 30
0.0
 11
-293.8569647895422
 21
-761.048713373482
 31
0.0
  0
LINE
  5
13D
330
1F
100
AcDbEntity
  8
0-A_文字
  6
Continuous
 62
     7
370
     9
100
AcDbLine
 10
-143.8569647895422
 20
-761.048713373482
 30
0.0
 11
-143.8569647895422
 21
-651.8487133734786
 31
0.0
  0
LINE
  5
13E
330
1F
100
AcDbEntity
  8
0-A_文字
  6
Continuous
 62
     7
370
     9
100
AcDbLine
 10
-302.8569647895425
 20
-770.0487133734806
 30
0.0
 11
-272.8569647895425
 21
-770.0487133734806
 31
0.0
  0
LINE
  5
13F
330
1F
100
AcDbEntity
  8
0-A_文字
  6
Continuous
 62
     7
370
     9
100
AcDbLine
 10
-164.8569647895435
 20
-770.0487133734806
 30
0.0
 11
-164.8569647895435
 21
-761.048713373482
 31
0.0
  0
LINE
  5
140
330
1F
100
AcDbEntity
  8
0-A_文字
  6
Continuous
 62
     7
370
     9
100
AcDbLine
 10
-272.8569647895425
 20
-770.0487133734806
 30
0.0
 11
-272.8569647895425
 21
-761.048713373482
 31
0.0
  0
LINE
  5
141
330
1F
100
AcDbEntity
  8
0-A_文字
  6
Continuous
 62
     7
370
     9
100
AcDbLine
 10
-164.8569647895435
 20
-761.048713373482
 30
0.0
 11
-143.8569647895422
 21
-761.048713373482
 31
0.0
  0
LINE
  5
142
330
1F
100
AcDbEntity
  8
0-A_文字
  6
Continuous
 62
     7
370
     9
100
AcDbLine
 10
-272.8569647895425
 20
-761.048713373482
 30
0.0
 11
-293.8569647895422
 21
-761.048713373482
 31
0.0
  0
LINE
  5
143
330
1F
100
AcDbEntity
  8
0-A_文字
  6
Continuous
 62
     7
370
     9
100
AcDbLine
 10
-134.8569647895435
 20
-770.0487133734806
 30
0.0
 11
-164.8569647895435
 21
-770.0487133734806
 31
0.0
  0
LINE
  5
144
330
1F
100
AcDbEntity
  8
0-A_文字
  6
Continuous
 62
     7
370
     9
100
AcDbLine
 10
-302.8569647895442
 20
-770.0487133734806
 30
0.0
 11
-326.8569647895446
 21
-738.8487133734814
 31
0.0
  0
LINE
  5
145
330
1F
100
AcDbEntity
  8
0-A_文字
  6
Continuous
 62
     7
370
     9
100
AcDbLine
 10
-302.8569647895442
 20
-754.7470590511535
 30
0.0
 11
-315.7284889187592
 21
-738.8487133734814
 31
0.0
  0
LINE
  5
146
330
1F
100
AcDbEntity
  8
0-A_文字
  6
Continuous
 62
     7
370
     9
100
AcDbLine
 10
93.14303518044724
 20
-642.84871337348
 30
0.0
 11
-74.85696481955173
 21
-642.84871337348
 31
0.0
  0
LINE
  5
147
330
1F
100
AcDbEntity
  8
0-A_文字
  6
Continuous
 62
     7
370
     9
100
AcDbLine
 10
84.1430351804486
 20
-651.8487133734786
 30
0.0
 11
-65.8569648195514
 21
-651.8487133734786
 31
0.0
  0
LINE
  5
148
330
1F
100
AcDbEntity
  8
0-A_文字
  6
Continuous
 62
     7
370
     9
100
AcDbLine
 10
93.14303518044724
 20
-770.0487133734806
 30
0.0
 11
93.14303518044724
 21
-642.84871337348
 31
0.0
  0
LINE
  5
149
330
1F
100
AcDbEntity
  8
0-A_文字
  6
Continuous
 62
     7
370
     9
100
AcDbLine
 10
-74.85696481955173
 20
-642.84871337348
 30
0.0
 11
-74.85696481955173
 21
-770.0487133734806
 31
0.0
  0
LINE
  5
14A
330
1F
100
AcDbEntity
  8
0-A_文字
  6
Continuous
 62
     7
370
     9
100
AcDbLine
 10
-65.8569648195514
 20
-651.8487133734786
 30
0.0
 11
-65.8569648195514
 21
-761.048713373482
 31
0.0
  0
LINE
  5
14B
330
1F
100
AcDbEntity
  8
0-A_文字
  6
Continuous
 62
     7
370
     9
100
AcDbLine
 10
84.1430351804486
 20
-761.048713373482
 30
0.0
 11
84.1430351804486
 21
-651.8487133734786
 31
0.0
  0
LINE
  5
14C
330
1F
100
AcDbEntity
  8
0-A_文字
  6
Continuous
 62
     7
370
     9
100
AcDbLine
 10
-74.85696481955173
 20
-770.0487133734806
 30
0.0
 11
-44.85696481955173
 21
-770.0487133734806
 31
0.0
  0
LINE
  5
14D
330
1F
100
AcDbEntity
  8
0-A_文字
  6
Continuous
 62
     7
370
     9
100
AcDbLine
 10
63.14303518044724
 20
-770.0487133734806
 30
0.0
 11
63.14303518044724
 21
-761.048713373482
 31
0.0
  0
LINE
  5
14E
330
1F
100
AcDbEntity
  8
0-A_文字
  6
Continuous
 62
     7
370
     9
100
AcDbLine
 10
-44.85696481955173
 20
-770.0487133734806
 30
0.0
 11
-44.85696481955173
 21
-761.048713373482
 31
0.0
  0
LINE
  5
14F
330
1F
100
AcDbEntity
  8
0-A_文字
  6
Continuous
 62
     7
370
     9
100
AcDbLine
 10
63.14303518044724
 20
-761.048713373482
 30
0.0
 11
84.1430351804486
 21
-761.048713373482
 31
0.0
  0
LINE
  5
150
330
1F
100
AcDbEntity
  8
0-A_文字
  6
Continuous
 62
     7
370
     9
100
AcDbLine
 10
-44.85696481955173
 20
-761.048713373482
 30
0.0
 11
-65.8569648195514
 21
-761.048713373482
 31
0.0
  0
LINE
  5
151
330
1F
100
AcDbEntity
  8
0-A_文字
  6
Continuous
 62
     7
370
     9
100
AcDbLine
 10
93.14303518044724
 20
-770.0487133734806
 30
0.0
 11
63.14303518044724
 21
-770.0487133734806
 31
0.0
  0
LINE
  5
152
330
1F
100
AcDbEntity
  8
0-A_文字
  6
Continuous
 62
     7
370
     9
100
AcDbLine
 10
-134.8569647895435
 20
-738.8487133734814
 30
0.0
 11
-74.85696481955173
 21
-738.8487133734814
 31
0.0
  0
LINE
  5
153
330
1F
100
AcDbEntity
  8
0-A_文字
  6
Continuous
 62
     7
370
     9
100
AcDbLine
 10
93.14303518044724
 20
-738.8487133734814
 30
0.0
 11
153.1430351504493
 21
-738.8487133734814
 31
0.0
  0
LINE
  5
154
330
1F
100
AcDbEntity
  8
0-A_文字
  6
Continuous
 62
     7
370
     9
100
AcDbLine
 10
153.1430351504493
 20
-747.84871337348
 30
0.0
 11
93.14303518044724
 21
-747.84871337348
 31
0.0
  0
LINE
  5
155
330
1F
100
AcDbEntity
  8
0-A_文字
  6
Continuous
 62
     7
370
     9
100
AcDbLine
 10
-74.85696481955173
 20
-747.84871337348
 30
0.0
 11
-134.8569647895435
 21
-747.84871337348
 31
0.0
  0
LINE
  5
156
330
1F
100
AcDbEntity
  8
0-0_補助線
  6
JWW_HOJO
 62
   120
370
     5
100
AcDbLine
 10
237.9185939653594
 20
-3258.848713373458
 30
0.0
 11
237.9185939653603
 21
-498.8487133734813
 31
0.0
  0
LINE
  5
157
330
1F
100
AcDbEntity
  8
0-1_通り芯
  6
JWW_CENTER1
 62
   120
370
     5
100
AcDbLine
 10
9.918593965359577
 20
-3258.848713373458
 30
0.0
 11
9.91859396536043
 21
-498.8487133734813
 31
0.0
  0
LINE
  5
158
330
1F
100
AcDbEntity
  8
0-0_補助線
  6
JWW_HOJO
 62
   120
370
     5
100
AcDbLine
 10
-218.0814060046312
 20
-3258.848713373458
 30
0.0
 11
-218.0814060046303
 21
-498.8487133734813
 31
0.0
  0
LWPOLYLINE
  5
159
330
1F
100
AcDbEntity
  8
0-B_寸法
  6
Continuous
 62
     7
370
     9
100
AcDbPolyline
 90
        4
 70
     1
 43
3.0
 10
868.8248657658324
 20
-3186.848919635541
 42
0.4142135623731
 10
867.3248657658324
 20
-3185.348919635541
 42
0.4142135623731
 10
865.8248657658324
 20
-3186.848919635541
 42
0.4142135623731
 10
867.3248657658324
 20
-3188.348919635541
 42
0.4142135623731
  0
LINE
  5
15A
330
1F
100
AcDbEntity
  8
0-B_寸法
  6
Continuous
 62
   120
370
     5
100
AcDbLine
 10
867.3248657658324
 20
-3186.848919635541
 30
0.0
 11
657.3248657658324
 21
-3186.848919635541
 31
0.0
  0
LWPOLYLINE
  5
15B
330
1F
100
AcDbEntity
  8
0-B_寸法
  6
Continuous
 62
     7
370
     9
100
AcDbPolyline
 90
        4
 70
     1
 43
3.0
 10
868.8248657658328
 20
-738.8487133734814
 42
0.4142135623731
 10
867.3248657658328
 20
-737.3487133734812
 42
0.4142135623731
 10
865.8248657658327
 20
-738.8487133734814
 42
0.4142135623731
 10
867.3248657658328
 20
-740.3487133734814
 42
0.4142135623731
  0
LINE
  5
15C
330
1F
100
AcDbEntity
  8
0-B_寸法
  6
Continuous
 62
   120
370
     5
100
AcDbLine
 10
1077.324865765833
 20
-738.8487133734817
 30
0.0
 11
657.3248657658328
 21
-738.8487133734814
 31
0.0
  0
LINE
  5
15D
330
1F
100
AcDbEntity
  8
0-B_寸法
  6
Continuous
 62
   120
370
     5
100
AcDbLine
 10
1287.324865765832
 20
-3186.848713373458
 30
0.0
 11
657.3248657658324
 21
-3186.848713373458
 31
0.0
  0
LWPOLYLINE
  5
15E
330
1F
100
AcDbEntity
  8
0-B_寸法
  6
Continuous
 62
     7
370
     9
100
AcDbPolyline
 90
        4
 70
     1
 43
3.0
 10
1078.824865765832
 20
-738.8487133734817
 42
0.4142135623731
 10
1077.324865765832
 20
-737.3487133734817
 42
0.4142135623731
 10
1075.824865765833
 20
-738.8487133734817
 42
0.4142135623731
 10
1077.324865765832
 20
-740.3487133734817
 42
0.4142135623731
  0
LINE
  5
15F
330
1F
100
AcDbEntity
  8
0-B_寸法
  6
Continuous
 62
   120
370
     5
100
AcDbLine
 10
1077.324865765833
 20
-558.8487133734817
 30
0.0
 11
1077.324865765833
 21
-738.8487133734817
 31
0.0
  0
LWPOLYLINE
  5
160
330
1F
100
AcDbEntity
  8
0-B_寸法
  6
Continuous
 62
     7
370
     9
100
AcDbPolyline
 90
        4
 70
     1
 43
3.0
 10
1078.824865765832
 20
-558.8487133734817
 42
0.4142135623731
 10
1077.324865765832
 20
-557.3487133734817
 42
0.4142135623731
 10
1075.824865765833
 20
-558.8487133734817
 42
0.4142135623731
 10
1077.324865765832
 20
-560.3487133734817
 42
0.4142135623731
  0
LINE
  5
161
330
1F
100
AcDbEntity
  8
0-B_寸法
  6
Continuous
 62
   120
370
     5
100
AcDbLine
 10
1287.324865765833
 20
-558.8487133734817
 30
0.0
 11
657.324865765833
 21
-558.8487133734817
 31
0.0
  0
LINE
  5
162
330
1F
100
AcDbEntity
  8
0-B_寸法
  6
Continuous
 62
   120
370
     5
100
AcDbLine
 10
1287.324865765832
 20
-3258.848713373458
 30
0.0
 11
1287.324865765832
 21
-3186.848713373458
 31
0.0
  0
LWPOLYLINE
  5
163
330
1F
100
AcDbEntity
  8
0-B_寸法
  6
Continuous
 62
     7
370
     9
100
AcDbPolyline
 90
        4
 70
     1
 43
3.0
 10
1288.824865765832
 20
-3258.848713373458
 42
0.4142135623731
 10
1287.324865765832
 20
-3257.348713373458
 42
0.4142135623731
 10
1285.824865765833
 20
-3258.848713373458
 42
0.4142135623731
 10
1287.324865765832
 20
-3260.348713373458
 42
0.4142135623731
  0
LWPOLYLINE
  5
164
330
1F
100
AcDbEntity
  8
0-B_寸法
  6
Continuous
 62
     7
370
     9
100
AcDbPolyline
 90
        4
 70
     1
 43
3.0
 10
1288.824865765832
 20
-3186.848713373458
 42
0.4142135623731
 10
1287.324865765832
 20
-3185.348713373458
 42
0.4142135623731
 10
1285.824865765833
 20
-3186.848713373458
 42
0.4142135623731
 10
1287.324865765832
 20
-3188.348713373458
 42
0.4142135623731
  0
LINE
  5
165
330
1F
100
AcDbEntity
  8
0-B_寸法
  6
Continuous
 62
   120
370
     5
100
AcDbLine
 10
1287.324865765832
 20
-3258.848713373458
 30
0.0
 11
657.3248657658324
 21
-3258.848713373458
 31
0.0
  0
LINE
  5
166
330
1F
100
AcDbEntity
  8
0-B_寸法
  6
Continuous
 62
   120
370
     5
100
AcDbLine
 10
1287.324865765832
 20
-3186.848713373458
 30
0.0
 11
1287.324865765833
 21
-558.8487133734817
 31
0.0
  0
LWPOLYLINE
  5
167
330
1F
100
AcDbEntity
  8
0-B_寸法
  6
Continuous
 62
     7
370
     9
100
AcDbPolyline
 90
        4
 70
     1
 43
3.0
 10
1288.824865765832
 20
-558.8487133734817
 42
0.4142135623731
 10
1287.324865765832
 20
-557.3487133734817
 42
0.4142135623731
 10
1285.824865765833
 20
-558.8487133734817
 42
0.4142135623731
 10
1287.324865765832
 20
-560.3487133734817
 42
0.4142135623731
  0
LINE
  5
168
330
1F
100
AcDbEntity
  8
0-0_補助線
  6
JWW_HOJO
 62
   120
370
     5
100
AcDbLine
 10
1287.324865765832
 20
-3258.848713373458
 30
0.0
 11
-632.6751342341676
 21
-3258.848713373458
 31
0.0
  0
LINE
  5
169
330
1F
100
AcDbEntity
  8
0-1_通り芯
  6
JWW_CENTER1
 62
   120
370
     5
100
AcDbLine
 10
-632.6751342341668
 20
-558.8487133734814
 30
0.0
 11
1401.324865765834
 21
-558.8487133734817
 31
0.0
  0
LINE
  5
16A
330
1F
100
AcDbEntity
  8
0-1_通り芯
  6
JWW_CENTER1
 62
   120
370
     5
100
AcDbLine
 10
-632.6751342341676
 20
-3258.848713641888
 30
0.0
 11
1401.324865765834
 21
-3258.848713373458
 31
0.0
  0
MTEXT
  5
16B
330
1F
100
AcDbEntity
  8
0-A_文字
  6
Continuous
 62
     7
370
     9
100
AcDbMText
 10
1753.930181260267
 20
2808.324533952609
 30
0.0
 40
77.72399999999897
 41
509.9999999999932
 46
0.0
 71
     7
 72
     1
  1
{\fＭＳ ゴシック|b0|i0|c128|p49;※防寒なし}
 73
     1
 44
1.0
  0
MTEXT
  5
16C
330
1F
100
AcDbEntity
  8
0-A_文字
  6
Continuous
 62
     7
370
     9
100
AcDbMText
 10
324.7478587919874
 20
1605.947828306393
 30
0.0
 40
78.97090909090909
 41
1140.0
 46
0.0
 71
     7
 72
     1
  1
{\fＭＳ ゴシック|b0|i0|c128|p49;間仕切り壁（現場造作）}
 73
     1
 44
1.0
  0
LINE
  5
16D
330
1F
100
AcDbEntity
  8
0-0_補助線
  6
JWW_HOJO
 62
   120
370
     5
100
AcDbLine
 10
1077.324865765832
 20
-3258.848713373457
 30
0.0
 11
1077.324865765833
 21
-498.8487133734817
 31
0.0
  0
LINE
  5
16E
330
1F
100
AcDbEntity
  8
0-0_補助線
  6
JWW_HOJO
 62
   120
370
     5
100
AcDbLine
 10
-632.6751342341668
 20
-498.8487133734813
 30
0.0
 11
1287.324865765833
 21
-498.8487133734813
 31
0.0
  0
LINE
  5
16F
330
1F
100
AcDbEntity
  8
0-0_補助線
  6
JWW_HOJO
 62
   120
370
     5
100
AcDbLine
 10
1287.324865765832
 20
-3258.848713373458
 30
0.0
 11
1287.324865765833
 21
-498.8487133734817
 31
0.0
  0
LINE
  5
170
330
1F
100
AcDbEntity
  8
0-B_寸法
  6
Continuous
 62
   120
370
     5
100
AcDbLine
 10
1077.324865765832
 20
-3186.848713373458
 30
0.0
 11
1077.324865765833
 21
-738.8487133734817
 31
0.0
  0
LWPOLYLINE
  5
171
330
1F
100
AcDbEntity
  8
0-B_寸法
  6
Continuous
 62
     7
370
     9
100
AcDbPolyline
 90
        4
 70
     1
 43
3.0
 10
1078.824865765832
 20
-3186.848713373458
 42
0.4142135623731
 10
1077.324865765832
 20
-3185.348713373458
 42
0.4142135623731
 10
1075.824865765833
 20
-3186.848713373458
 42
0.4142135623731
 10
1077.324865765832
 20
-3188.348713373458
 42
0.4142135623731
  0
MTEXT
  5
172
330
1F
100
AcDbEntity
  8
0-A_文字
  6
Continuous
 62
     7
370
     9
100
AcDbMText
 10
117.7529314060677
 20
1261.059159475224
 30
0.0
 40
79.19357142857106
 41
1454.999999999993
 46
0.0
 71
     7
 72
     1
  1
{\fＭＳ ゴシック|b0|i0|c128|p49;※間仕切壁はクロス巻き込み。}
 73
     1
 44
1.0
  0
MTEXT
  5
173
330
1F
100
AcDbEntity
  8
0-A_文字
  6
Continuous
 62
     7
370
     9
100
AcDbMText
 10
1196.568307535352
 20
555.7529987609386
 30
0.0
 40
78.58124999999998
 41
824.9999999999998
 46
0.0
 71
     7
 72
     1
  1
{\fＭＳ ゴシック|b0|i0|c128|p49;※図示：左引き手}
 73
     1
 44
1.0
  0
MTEXT
  5
174
330
1F
100
AcDbEntity
  8
0-A_文字
  6
Continuous
 62
     7
370
     9
100
AcDbMText
 10
-632.6751342341654
 20
-352.2120577837496
 30
0.0
 40
91.44
 41
600.0
 46
0.0
 71
     7
 72
     1
  1
{\fＭＳ ゴシック|b0|i0|c128|p49;■縦断面図}
 73
     1
 44
1.0
  0
LINE
  5
175
330
1F
100
AcDbEntity
  8
0-B_寸法
  6
Continuous
 62
   120
370
     5
100
AcDbLine
 10
867.3248657658324
 20
-3186.848919635541
 30
0.0
 11
867.3248657658324
 21
-3099.848919635541
 31
0.0
  0
LWPOLYLINE
  5
176
330
1F
100
AcDbEntity
  8
0-B_寸法
  6
Continuous
 62
     7
370
     9
100
AcDbPolyline
 90
        4
 70
     1
 43
3.0
 10
868.8248657658324
 20
-3099.848919635541
 42
0.4142135623731
 10
867.3248657658324
 20
-3098.348919635541
 42
0.4142135623731
 10
865.8248657658324
 20
-3099.848919635541
 42
0.4142135623731
 10
867.3248657658324
 20
-3101.348919635541
 42
0.4142135623731
  0
LINE
  5
177
330
1F
100
AcDbEntity
  8
0-B_寸法
  6
Continuous
 62
   120
370
     5
100
AcDbLine
 10
867.3248657658324
 20
-3099.848919635541
 30
0.0
 11
657.3248657658324
 21
-3099.848919635541
 31
0.0
  0
LWPOLYLINE
  5
178
330
1F
100
AcDbEntity
  8
0-B_寸法
  6
Continuous
 62
     7
370
     9
100
AcDbPolyline
 90
        4
 70
     1
 43
3.0
 10
329.4185939653595
 20
-1524.848840222053
 42
0.4142135623731
 10
327.9185939653595
 20
-1523.348840222053
 42
0.4142135623731
 10
326.4185939653595
 20
-1524.848840222053
 42
0.4142135623731
 10
327.9185939653595
 20
-1526.348840222052
 42
0.4142135623731
  0
LWPOLYLINE
  5
179
330
1F
100
AcDbEntity
  8
0-B_寸法
  6
Continuous
 62
     7
370
     9
100
AcDbPolyline
 90
        4
 70
     1
 43
3.0
 10
149.4185939653595
 20
-1524.848840222053
 42
0.4142135623731
 10
147.9185939653595
 20
-1523.348840222053
 42
0.4142135623731
 10
146.4185939653595
 20
-1524.848840222053
 42
0.4142135623731
 10
147.9185939653595
 20
-1526.348840222052
 42
0.4142135623731
  0
LWPOLYLINE
  5
17A
330
1F
100
AcDbEntity
  8
0-B_寸法
  6
Continuous
 62
     7
370
     9
100
AcDbPolyline
 90
        4
 70
     1
 43
3.0
 10
101.4185939653622
 20
-1524.848840222053
 42
0.4142135623731
 10
99.91859396536225
 20
-1523.348840222053
 42
0.4142135623731
 10
98.41859396536225
 20
-1524.848840222053
 42
0.4142135623731
 10
99.91859396536225
 20
-1526.348840222052
 42
0.4142135623731
  0
LWPOLYLINE
  5
17B
330
1F
100
AcDbEntity
  8
0-B_寸法
  6
Continuous
 62
     7
370
     9
100
AcDbPolyline
 90
        4
 70
     1
 43
3.0
 10
-78.58140603463777
 20
-1524.848840222053
 42
0.4142135623731
 10
-80.08140603463775
 20
-1523.348840222053
 42
0.4142135623731
 10
-81.58140603463775
 20
-1524.848840222053
 42
0.4142135623731
 10
-80.08140603463775
 20
-1526.348840222052
 42
0.4142135623731
  0
LWPOLYLINE
  5
17C
330
1F
100
AcDbEntity
  8
0-B_寸法
  6
Continuous
 62
     7
370
     9
100
AcDbPolyline
 90
        4
 70
     1
 43
3.0
 10
-126.5814060346355
 20
-1524.848840222053
 42
0.4142135623731
 10
-128.0814060346354
 20
-1523.348840222053
 42
0.4142135623731
 10
-129.5814060346354
 20
-1524.848840222053
 42
0.4142135623731
 10
-128.0814060346354
 20
-1526.348840222052
 42
0.4142135623731
  0
LWPOLYLINE
  5
17D
330
1F
100
AcDbEntity
  8
0-B_寸法
  6
Continuous
 62
     7
370
     9
100
AcDbPolyline
 90
        4
 70
     1
 43
3.0
 10
-306.5814060346355
 20
-1524.848840222053
 42
0.4142135623731
 10
-308.0814060346355
 20
-1523.348840222053
 42
0.4142135623731
 10
-309.5814060346355
 20
-1524.848840222053
 42
0.4142135623731
 10
-308.0814060346355
 20
-1526.348840222052
 42
0.4142135623731
  0
LINE
  5
17E
330
1F
100
AcDbEntity
  8
0-B_寸法
  6
Continuous
 62
   120
370
     5
100
AcDbLine
 10
-308.0814060346351
 20
-1524.848840222053
 30
0.0
 11
327.9185939653599
 21
-1524.848840222053
 31
0.0
  0
LINE
  5
17F
330
1F
100
AcDbEntity
  8
0-6_扉
  6
Continuous
 62
   200
370
    20
100
AcDbLine
 10
99.91859396536225
 20
-1224.276818690239
 30
0.0
 11
99.91859396536225
 21
-1386.848840222052
 31
0.0
  0
LINE
  5
180
330
1F
100
AcDbEntity
  8
0-6_扉
  6
Continuous
 62
   200
370
    20
100
AcDbLine
 10
99.91859396536225
 20
-1506.848840222052
 30
0.0
 11
99.91859396536225
 21
-1884.848713373476
 31
0.0
  0
LINE
  5
181
330
1F
100
AcDbEntity
  8
0-6_扉
  6
Continuous
 62
   200
370
    20
100
AcDbLine
 10
147.9185939653595
 20
-1506.848840222052
 30
0.0
 11
147.9185939653595
 21
-1884.848713373476
 31
0.0
  0
LINE
  5
182
330
1F
100
AcDbEntity
  8
0-6_扉
  6
Continuous
 62
   200
370
    20
100
AcDbLine
 10
-128.081406034635
 20
-1506.848840222052
 30
0.0
 11
-128.081406034635
 21
-1884.848713373476
 31
0.0
  0
LINE
  5
183
330
1F
100
AcDbEntity
  8
0-6_扉
  6
Continuous
 62
   200
370
    20
100
AcDbLine
 10
-80.08140603463775
 20
-1224.276818690239
 30
0.0
 11
-80.08140603463775
 21
-1884.848713373476
 31
0.0
  0
MTEXT
  5
184
330
1F
100
AcDbEntity
  8
0-B_寸法
  6
Continuous
 62
     7
370
     0
100
AcDbMText
 10
-2882.735567775326
 20
2992.182533978227
 30
0.0
 40
91.44
 41
120.0
 46
0.0
 71
     7
 72
     1
  1
{\fＭＳ ゴシック|b0|i0|c128|p49;30}
 73
     1
 44
1.0
  0
MTEXT
  5
185
330
1F
100
AcDbEntity
  8
0-B_寸法
  6
Continuous
 62
     7
370
     0
100
AcDbMText
 10
-1435.467517400949
 20
2992.182533978227
 30
0.0
 40
91.44
 41
120.0
 46
0.0
 71
     7
 72
     1
  1
{\fＭＳ ゴシック|b0|i0|c128|p49;30}
 73
     1
 44
1.0
  0
MTEXT
  5
186
330
1F
100
AcDbEntity
  8
0-B_寸法
  6
Continuous
 62
     7
370
   211
100
AcDbMText
 10
-81.94965557815905
 20
2995.040033978227
 30
0.0
 40
97.15499999999999
 41
127.5
 46
0.0
 71
     7
 72
     1
  1
{\fＭＳ ゴシック|b0|i0|c128|p49;30}
 73
     1
 44
1.0
  0
MTEXT
  5
187
330
1F
100
AcDbEntity
  8
0-B_寸法
  6
Continuous
 62
     7
370
     0
100
AcDbMText
 10
-3138.013554044063
 20
2425.185622027204
 30
0.0
 40
91.44
 41
120.0
 46
0.0
 71
     7
 72
     1
  1
{\fＭＳ ゴシック|b0|i0|c128|p49;30}
 11
6.123031769111886E-17
 21
1.0
 31
0.0
 73
     1
 44
1.0
  0
MTEXT
  5
188
330
1F
100
AcDbEntity
  8
0-B_寸法
  6
Continuous
 62
     7
370
   211
100
AcDbMText
 10
-3138.013504556098
 20
2317.182459746269
 30
0.0
 40
91.44
 41
60.0
 46
0.0
 71
     7
 72
     1
  1
{\fＭＳ ゴシック|b0|i0|c128|p49;8}
 11
6.123031769111886E-17
 21
1.0
 31
0.0
 73
     1
 44
1.0
  0
ARC
  5
189
330
1F
100
AcDbEntity
  8
0-7_金物
  6
Continuous
 62
     7
370
     9
100
AcDbCircle
 10
1.518594025372657
 20
-3181.449125897627
 30
0.0
 40
0.6000000000000001
100
AcDbArc
 50
180.0
 51
270.0
  0
LINE
  5
18A
330
1F
100
AcDbEntity
  8
0-7_金物
  6
Continuous
 62
     7
370
     9
100
AcDbLine
 10
18.31859402537273
 20
-3182.049125897626
 30
0.0
 11
1.518594025372657
 21
-3182.049125897626
 31
0.0
  0
ARC
  5
18B
330
1F
100
AcDbEntity
  8
0-7_金物
  6
Continuous
 62
     7
370
     9
100
AcDbCircle
 10
18.31859402537273
 20
-3181.449125897627
 30
0.0
 40
0.6000000000000001
100
AcDbArc
 50
270.0
 51
0.0
  0
LINE
  5
18C
330
1F
100
AcDbEntity
  8
0-7_金物
  6
Continuous
 62
     7
370
     9
100
AcDbLine
 10
0.9185940253732028
 20
-3169.016670365592
 30
0.0
 11
-8.02981899747099
 21
-3166.033866024645
 31
0.0
  0
LINE
  5
18D
330
1F
100
AcDbEntity
  8
0-7_金物
  6
Continuous
 62
     7
370
     9
100
AcDbLine
 10
18.91859402537388
 20
-3169.016670365592
 30
0.0
 11
27.86700704821808
 21
-3166.033866024645
 31
0.0
  0
LINE
  5
18E
330
1F
100
AcDbEntity
  8
0-7_金物
  6
Continuous
 62
     7
370
     9
100
AcDbLine
 10
27.91859402537252
 20
-3160.449125897626
 30
0.0
 11
27.91859402537252
 21
-3166.033866024645
 31
0.0
  0
LINE
  5
18F
330
1F
100
AcDbEntity
  8
0-7_金物
  6
Continuous
 62
     7
370
     9
100
AcDbLine
 10
-8.081405974627138
 20
-3160.449125897626
 30
0.0
 11
-8.081405974627138
 21
-3166.033866024645
 31
0.0
  0
LINE
  5
190
330
1F
100
AcDbEntity
  8
0-7_金物
  6
Continuous
 62
     7
370
     9
100
AcDbLine
 10
18.91859402537388
 20
-3181.449125897627
 30
0.0
 11
18.91859402537388
 21
-3160.449125897626
 31
0.0
  0
LINE
  5
191
330
1F
100
AcDbEntity
  8
0-7_金物
  6
Continuous
 62
     7
370
     9
100
AcDbLine
 10
0.9185940253732028
 20
-3181.449125897627
 30
0.0
 11
0.9185940253732028
 21
-3160.449125897626
 31
0.0
  0
ARC
  5
192
330
1F
100
AcDbEntity
  8
0-7_金物
  6
Continuous
 62
     7
370
     9
100
AcDbCircle
 10
-12.58140597462646
 20
-3154.449125897627
 30
0.0
 40
6.0
100
AcDbArc
 50
180.0
 51
270.0
  0
LINE
  5
193
330
1F
100
AcDbEntity
  8
0-7_金物
  6
Continuous
 62
     7
370
     9
100
AcDbLine
 10
32.41859402537354
 20
-3160.449125897626
 30
0.0
 11
-12.58140597462646
 21
-3160.449125897626
 31
0.0
  0
ARC
  5
194
330
1F
100
AcDbEntity
  8
0-7_金物
  6
Continuous
 62
     7
370
     9
100
AcDbCircle
 10
32.41859402537354
 20
-3154.449125897627
 30
0.0
 40
6.0
100
AcDbArc
 50
270.0
 51
0.0
  0
ARC
  5
195
330
1F
100
AcDbEntity
  8
0-7_金物
  6
Continuous
 62
     7
370
     9
100
AcDbCircle
 10
-226.4814059446181
 20
-3181.449125897627
 30
0.0
 40
0.6000000000000001
100
AcDbArc
 50
180.0
 51
270.0
  0
LINE
  5
196
330
1F
100
AcDbEntity
  8
0-7_金物
  6
Continuous
 62
     7
370
     9
100
AcDbLine
 10
-209.6814059446181
 20
-3182.049125897626
 30
0.0
 11
-226.4814059446181
 21
-3182.049125897626
 31
0.0
  0
ARC
  5
197
330
1F
100
AcDbEntity
  8
0-7_金物
  6
Continuous
 62
     7
370
     9
100
AcDbCircle
 10
-209.6814059446181
 20
-3181.449125897627
 30
0.0
 40
0.6000000000000001
100
AcDbArc
 50
270.0
 51
0.0
  0
LINE
  5
198
330
1F
100
AcDbEntity
  8
0-7_金物
  6
Continuous
 62
     7
370
     9
100
AcDbLine
 10
-227.0814059446176
 20
-3169.016670365592
 30
0.0
 11
-236.0298189674618
 21
-3166.033866024645
 31
0.0
  0
LINE
  5
199
330
1F
100
AcDbEntity
  8
0-7_金物
  6
Continuous
 62
     7
370
     9
100
AcDbLine
 10
-209.0814059446169
 20
-3169.016670365592
 30
0.0
 11
-200.1329929217727
 21
-3166.033866024645
 31
0.0
  0
LINE
  5
19A
330
1F
100
AcDbEntity
  8
0-7_金物
  6
Continuous
 62
     7
370
     9
100
AcDbLine
 10
-200.0814059446183
 20
-3160.449125897626
 30
0.0
 11
-200.0814059446183
 21
-3166.033866024645
 31
0.0
  0
LINE
  5
19B
330
1F
100
AcDbEntity
  8
0-7_金物
  6
Continuous
 62
     7
370
     9
100
AcDbLine
 10
-236.081405944618
 20
-3160.449125897626
 30
0.0
 11
-236.081405944618
 21
-3166.033866024645
 31
0.0
  0
LINE
  5
19C
330
1F
100
AcDbEntity
  8
0-7_金物
  6
Continuous
 62
     7
370
     9
100
AcDbLine
 10
-209.0814059446169
 20
-3181.449125897627
 30
0.0
 11
-209.0814059446169
 21
-3160.449125897626
 31
0.0
  0
LINE
  5
19D
330
1F
100
AcDbEntity
  8
0-7_金物
  6
Continuous
 62
     7
370
     9
100
AcDbLine
 10
-227.0814059446176
 20
-3181.449125897627
 30
0.0
 11
-227.0814059446176
 21
-3160.449125897626
 31
0.0
  0
ARC
  5
19E
330
1F
100
AcDbEntity
  8
0-7_金物
  6
Continuous
 62
     7
370
     9
100
AcDbCircle
 10
-240.5814059446173
 20
-3154.449125897627
 30
0.0
 40
6.0
100
AcDbArc
 50
180.0
 51
270.0
  0
LINE
  5
19F
330
1F
100
AcDbEntity
  8
0-7_金物
  6
Continuous
 62
     7
370
     9
100
AcDbLine
 10
-195.5814059446172
 20
-3160.449125897626
 30
0.0
 11
-240.5814059446173
 21
-3160.449125897626
 31
0.0
  0
ARC
  5
1A0
330
1F
100
AcDbEntity
  8
0-7_金物
  6
Continuous
 62
     7
370
     9
100
AcDbCircle
 10
-195.5814059446172
 20
-3154.449125897627
 30
0.0
 40
6.0
100
AcDbArc
 50
270.0
 51
0.0
  0
ARC
  5
1A1
330
1F
100
AcDbEntity
  8
0-7_金物
  6
Continuous
 62
     7
370
     9
100
AcDbCircle
 10
229.5185940253733
 20
-3181.449125897627
 30
0.0
 40
0.6000000000000001
100
AcDbArc
 50
180.0
 51
270.0
  0
LINE
  5
1A2
330
1F
100
AcDbEntity
  8
0-7_金物
  6
Continuous
 62
     7
370
     9
100
AcDbLine
 10
246.3185940253734
 20
-3182.049125897626
 30
0.0
 11
229.5185940253733
 21
-3182.049125897626
 31
0.0
  0
ARC
  5
1A3
330
1F
100
AcDbEntity
  8
0-7_金物
  6
Continuous
 62
     7
370
     9
100
AcDbCircle
 10
246.3185940253734
 20
-3181.449125897627
 30
0.0
 40
0.6000000000000001
100
AcDbArc
 50
270.0
 51
0.0
  0
LINE
  5
1A4
330
1F
100
AcDbEntity
  8
0-7_金物
  6
Continuous
 62
     7
370
     9
100
AcDbLine
 10
228.9185940253722
 20
-3169.016670365592
 30
0.0
 11
219.970181002528
 21
-3166.033866024645
 31
0.0
  0
LINE
  5
1A5
330
1F
100
AcDbEntity
  8
0-7_金物
  6
Continuous
 62
     7
370
     9
100
AcDbLine
 10
246.9185940253729
 20
-3169.016670365592
 30
0.0
 11
255.8670070482171
 21
-3166.033866024645
 31
0.0
  0
LINE
  5
1A6
330
1F
100
AcDbEntity
  8
0-7_金物
  6
Continuous
 62
     7
370
     9
100
AcDbLine
 10
255.9185940253732
 20
-3160.449125897626
 30
0.0
 11
255.9185940253732
 21
-3166.033866024645
 31
0.0
  0
LINE
  5
1A7
330
1F
100
AcDbEntity
  8
0-7_金物
  6
Continuous
 62
     7
370
     9
100
AcDbLine
 10
219.9185940253736
 20
-3160.449125897626
 30
0.0
 11
219.9185940253736
 21
-3166.033866024645
 31
0.0
  0
LINE
  5
1A8
330
1F
100
AcDbEntity
  8
0-7_金物
  6
Continuous
 62
     7
370
     9
100
AcDbLine
 10
246.9185940253729
 20
-3181.449125897627
 30
0.0
 11
246.9185940253729
 21
-3160.449125897626
 31
0.0
  0
LINE
  5
1A9
330
1F
100
AcDbEntity
  8
0-7_金物
  6
Continuous
 62
     7
370
     9
100
AcDbLine
 10
228.9185940253722
 20
-3181.449125897627
 30
0.0
 11
228.9185940253722
 21
-3160.449125897626
 31
0.0
  0
ARC
  5
1AA
330
1F
100
AcDbEntity
  8
0-7_金物
  6
Continuous
 62
     7
370
     9
100
AcDbCircle
 10
215.4185940253725
 20
-3154.449125897627
 30
0.0
 40
6.0
100
AcDbArc
 50
180.0
 51
270.0
  0
LINE
  5
1AB
330
1F
100
AcDbEntity
  8
0-7_金物
  6
Continuous
 62
     7
370
     9
100
AcDbLine
 10
260.4185940253725
 20
-3160.449125897626
 30
0.0
 11
215.4185940253725
 21
-3160.449125897626
 31
0.0
  0
ARC
  5
1AC
330
1F
100
AcDbEntity
  8
0-7_金物
  6
Continuous
 62
     7
370
     9
100
AcDbCircle
 10
260.4185940253725
 20
-3154.449125897627
 30
0.0
 40
6.0
100
AcDbArc
 50
270.0
 51
0.0
  0
LINE
  5
1AD
330
1F
100
AcDbEntity
  8
0-6_扉
  6
Continuous
 62
   200
370
    20
100
AcDbLine
 10
147.9185939653595
 20
-2004.848713373476
 30
0.0
 11
147.9185939653595
 21
-3090.84891963554
 31
0.0
  0
LINE
  5
1AE
330
1F
100
AcDbEntity
  8
0-6_扉
  6
Continuous
 62
   200
370
    20
100
AcDbLine
 10
-128.081406034635
 20
-2004.848713373476
 30
0.0
 11
-128.0814060346354
 21
-3090.84891963554
 31
0.0
  0
LINE
  5
1AF
330
1F
100
AcDbEntity
  8
0-6_扉
  6
Continuous
 62
   200
370
    20
100
AcDbLine
 10
-80.08140603463775
 20
-2004.848713373476
 30
0.0
 11
-80.08140603463775
 21
-3090.84891963554
 31
0.0
  0
LINE
  5
1B0
330
1F
100
AcDbEntity
  8
0-6_扉
  6
Continuous
 62
   200
370
    20
100
AcDbLine
 10
99.91859396536225
 20
-2004.848713373476
 30
0.0
 11
99.91859396536225
 21
-3090.84891963554
 31
0.0
  0
LINE
  5
1B1
330
1F
100
AcDbEntity
  8
0-6_扉
  6
Continuous
 62
   200
370
    20
100
AcDbLine
 10
-128.0814060346354
 20
-3090.848919635541
 30
0.0
 11
-308.0814060346355
 21
-3090.848919635541
 31
0.0
  0
LINE
  5
1B2
330
1F
100
AcDbEntity
  8
0-6_扉
  6
Continuous
 62
   200
370
    20
100
AcDbLine
 10
-308.0814060346351
 20
-2004.848713373476
 30
0.0
 11
-308.0814060346355
 21
-3090.84891963554
 31
0.0
  0
LINE
  5
1B3
330
1F
100
AcDbEntity
  8
0-6_扉
  6
Continuous
 62
   200
370
    20
100
AcDbLine
 10
99.91859396536225
 20
-3090.848919635541
 30
0.0
 11
-80.08140603463775
 21
-3090.848919635541
 31
0.0
  0
LINE
  5
1B4
330
1F
100
AcDbEntity
  8
0-6_扉
  6
Continuous
 62
   200
370
    20
100
AcDbLine
 10
147.9185939653595
 20
-3090.848919635541
 30
0.0
 11
327.9185939653595
 21
-3090.848919635541
 31
0.0
  0
LINE
  5
1B5
330
1F
100
AcDbEntity
  8
0-6_扉
  6
Continuous
 62
   200
370
    20
100
AcDbLine
 10
327.9185939653595
 20
-2004.848713373476
 30
0.0
 11
327.9185939653595
 21
-3090.84891963554
 31
0.0
  0
LINE
  5
1B6
330
1F
100
AcDbEntity
  8
0-7_金物
  6
Continuous
 62
   200
370
    20
100
AcDbLine
 10
150.9185940253732
 20
-3099.848919635541
 30
0.0
 11
324.9185940253735
 21
-3099.848919635541
 31
0.0
  0
LINE
  5
1B7
330
1F
100
AcDbEntity
  8
0-7_金物
  6
Continuous
 62
   200
370
    20
100
AcDbLine
 10
-77.08140597462747
 20
-3099.848919635541
 30
0.0
 11
96.91859402537287
 21
-3099.848919635541
 31
0.0
  0
LINE
  5
1B8
330
1F
100
AcDbEntity
  8
0-7_金物
  6
Continuous
 62
   200
370
    20
100
AcDbLine
 10
-305.0814059446183
 20
-3099.848919635541
 30
0.0
 11
-131.0814059446179
 21
-3099.848919635541
 31
0.0
  0
LINE
  5
1B9
330
1F
100
AcDbEntity
  8
0-7_金物
  6
Continuous
 62
   200
370
    20
100
AcDbLine
 10
327.9185940253725
 20
-3096.848919635541
 30
0.0
 11
327.9185940253725
 21
-3090.848919635541
 31
0.0
  0
LINE
  5
1BA
330
1F
100
AcDbEntity
  8
0-7_金物
  6
Continuous
 62
   200
370
    20
100
AcDbLine
 10
147.9185940253725
 20
-3096.848919635541
 30
0.0
 11
147.9185940253725
 21
-3090.848919635541
 31
0.0
  0
LINE
  5
1BB
330
1F
100
AcDbEntity
  8
0-7_金物
  6
Continuous
 62
   200
370
    20
100
AcDbLine
 10
149.4697115351763
 20
-3090.848919635541
 30
0.0
 11
327.9185940253725
 21
-3090.848919635541
 31
0.0
  0
LINE
  5
1BC
330
1F
100
AcDbEntity
  8
0-7_金物
  6
Continuous
 62
   200
370
    20
100
AcDbLine
 10
147.9185940253725
 20
-3090.848919635541
 30
0.0
 11
149.4697115351763
 21
-3090.848919635541
 31
0.0
  0
ARC
  5
1BD
330
1F
100
AcDbEntity
  8
0-7_金物
  6
Continuous
 62
   200
370
    20
100
AcDbCircle
 10
324.9185940253735
 20
-3096.848919635541
 30
0.0
 40
3.0
100
AcDbArc
 50
270.0
 51
0.0
  0
ARC
  5
1BE
330
1F
100
AcDbEntity
  8
0-7_金物
  6
Continuous
 62
   200
370
    20
100
AcDbCircle
 10
150.9185940253732
 20
-3096.848919635541
 30
0.0
 40
3.0
100
AcDbArc
 50
180.0
 51
270.0
  0
LINE
  5
1BF
330
1F
100
AcDbEntity
  8
0-7_金物
  6
Continuous
 62
   200
370
    20
100
AcDbLine
 10
-128.0814059446172
 20
-3096.848919635541
 30
0.0
 11
-128.0814059446172
 21
-3090.848919635541
 31
0.0
  0
LINE
  5
1C0
330
1F
100
AcDbEntity
  8
0-7_金物
  6
Continuous
 62
   200
370
    20
100
AcDbLine
 10
-308.0814059446173
 20
-3096.848919635541
 30
0.0
 11
-308.0814059446173
 21
-3090.848919635541
 31
0.0
  0
LINE
  5
1C1
330
1F
100
AcDbEntity
  8
0-7_金物
  6
Continuous
 62
   200
370
    20
100
AcDbLine
 10
-306.5302884348152
 20
-3090.848919635541
 30
0.0
 11
-128.0814059446172
 21
-3090.848919635541
 31
0.0
  0
LINE
  5
1C2
330
1F
100
AcDbEntity
  8
0-7_金物
  6
Continuous
 62
   200
370
    20
100
AcDbLine
 10
-308.0814059446173
 20
-3090.848919635541
 30
0.0
 11
-306.5302884348152
 21
-3090.848919635541
 31
0.0
  0
ARC
  5
1C3
330
1F
100
AcDbEntity
  8
0-7_金物
  6
Continuous
 62
   200
370
    20
100
AcDbCircle
 10
-131.0814059446179
 20
-3096.848919635541
 30
0.0
 40
3.0
100
AcDbArc
 50
270.0
 51
0.0
  0
ARC
  5
1C4
330
1F
100
AcDbEntity
  8
0-7_金物
  6
Continuous
 62
   200
370
    20
100
AcDbCircle
 10
-305.0814059446183
 20
-3096.848919635541
 30
0.0
 40
3.0
100
AcDbArc
 50
180.0
 51
270.0
  0
LINE
  5
1C5
330
1F
100
AcDbEntity
  8
0-7_金物
  6
Continuous
 62
   200
370
    20
100
AcDbLine
 10
99.91859402537355
 20
-3096.848919635541
 30
0.0
 11
99.91859402537355
 21
-3090.848919635541
 31
0.0
  0
LINE
  5
1C6
330
1F
100
AcDbEntity
  8
0-7_金物
  6
Continuous
 62
   200
370
    20
100
AcDbLine
 10
-80.08140597462645
 20
-3096.848919635541
 30
0.0
 11
-80.08140597462645
 21
-3090.848919635541
 31
0.0
  0
LINE
  5
1C7
330
1F
100
AcDbEntity
  8
0-7_金物
  6
Continuous
 62
   200
370
    20
100
AcDbLine
 10
-78.53028846482434
 20
-3090.848919635541
 30
0.0
 11
99.91859402537355
 21
-3090.848919635541
 31
0.0
  0
LINE
  5
1C8
330
1F
100
AcDbEntity
  8
0-7_金物
  6
Continuous
 62
   200
370
    20
100
AcDbLine
 10
-80.08140597462645
 20
-3090.848919635541
 30
0.0
 11
-78.53028846482434
 21
-3090.848919635541
 31
0.0
  0
ARC
  5
1C9
330
1F
100
AcDbEntity
  8
0-7_金物
  6
Continuous
 62
   200
370
    20
100
AcDbCircle
 10
96.91859402537287
 20
-3096.848919635541
 30
0.0
 40
3.0
100
AcDbArc
 50
270.0
 51
0.0
  0
ARC
  5
1CA
330
1F
100
AcDbEntity
  8
0-7_金物
  6
Continuous
 62
   200
370
    20
100
AcDbCircle
 10
-77.08140597462747
 20
-3096.848919635541
 30
0.0
 40
3.0
100
AcDbArc
 50
180.0
 51
270.0
  0
LINE
  5
1CB
330
1F
100
AcDbEntity
  8
0-7_金物
  6
Continuous
 62
     7
370
     9
100
AcDbLine
 10
266.4185940253722
 20
-3154.449125897627
 30
0.0
 11
266.4185940253722
 21
-3099.848919635541
 31
0.0
  0
LINE
  5
1CC
330
1F
100
AcDbEntity
  8
0-7_金物
  6
Continuous
 62
     7
370
     9
100
AcDbLine
 10
209.4185940253729
 20
-3154.449125897627
 30
0.0
 11
209.4185940253729
 21
-3099.848919635541
 31
0.0
  0
LINE
  5
1CD
330
1F
100
AcDbEntity
  8
0-7_金物
  6
Continuous
 62
     7
370
     9
100
AcDbLine
 10
-189.5814059446176
 20
-3154.449125897627
 30
0.0
 11
-189.5814059446176
 21
-3099.848919635541
 31
0.0
  0
LINE
  5
1CE
330
1F
100
AcDbEntity
  8
0-7_金物
  6
Continuous
 62
     7
370
     9
100
AcDbLine
 10
-246.5814059446169
 20
-3154.449125897627
 30
0.0
 11
-246.5814059446169
 21
-3099.848919635541
 31
0.0
  0
LINE
  5
1CF
330
1F
100
AcDbEntity
  8
0-7_金物
  6
Continuous
 62
     7
370
     9
100
AcDbLine
 10
38.4185940253732
 20
-3154.449125897627
 30
0.0
 11
38.4185940253732
 21
-3099.848919635541
 31
0.0
  0
LINE
  5
1D0
330
1F
100
AcDbEntity
  8
0-7_金物
  6
Continuous
 62
     7
370
     9
100
AcDbLine
 10
-18.58140597462612
 20
-3154.449125897627
 30
0.0
 11
-18.58140597462612
 21
-3099.848919635541
 31
0.0
  0
LINE
  5
1D1
330
1F
100
AcDbEntity
  8
0-B_寸法
  6
Continuous
 62
   120
370
     5
100
AcDbLine
 10
-332.0814059290222
 20
-2814.701189206626
 30
0.0
 11
-104.0814059290223
 21
-2814.701189206626
 31
0.0
  0
LWPOLYLINE
  5
1D2
330
1F
100
AcDbEntity
  8
0-B_寸法
  6
Continuous
 62
     7
370
     9
100
AcDbPolyline
 90
        4
 70
     1
 43
3.0
 10
-330.5814059290222
 20
-2814.701189206626
 42
0.4142135623731
 10
-332.0814059290222
 20
-2813.201189206626
 42
0.4142135623731
 10
-333.5814059290222
 20
-2814.701189206626
 42
0.4142135623731
 10
-332.0814059290222
 20
-2816.201189206626
 42
0.4142135623731
  0
LWPOLYLINE
  5
1D3
330
1F
100
AcDbEntity
  8
0-B_寸法
  6
Continuous
 62
     7
370
     9
100
AcDbPolyline
 90
        4
 70
     1
 43
3.0
 10
-102.5814059290223
 20
-2814.701189206626
 42
0.4142135623731
 10
-104.0814059290223
 20
-2813.201189206626
 42
0.4142135623731
 10
-105.5814059290223
 20
-2814.701189206626
 42
0.4142135623731
 10
-104.0814059290223
 20
-2816.201189206626
 42
0.4142135623731
  0
LINE
  5
1D4
330
1F
100
AcDbEntity
  8
0-B_寸法
  6
Continuous
 62
   120
370
     5
100
AcDbLine
 10
-332.0814059290222
 20
-2814.701189206626
 30
0.0
 11
-332.0814059290222
 21
-2958.848822629192
 31
0.0
  0
LINE
  5
1D5
330
1F
100
AcDbEntity
  8
0-B_寸法
  6
Continuous
 62
   120
370
     5
100
AcDbLine
 10
-104.0814059290223
 20
-2814.701189206626
 30
0.0
 11
-104.0814059290223
 21
-2958.848822629192
 31
0.0
  0
LINE
  5
1D6
330
1F
100
AcDbEntity
  8
0-B_寸法
  6
Continuous
 62
   120
370
     5
100
AcDbLine
 10
-104.0814059290223
 20
-2814.701189206626
 30
0.0
 11
123.9185940409685
 21
-2814.701189206626
 31
0.0
  0
LWPOLYLINE
  5
1D7
330
1F
100
AcDbEntity
  8
0-B_寸法
  6
Continuous
 62
     7
370
     9
100
AcDbPolyline
 90
        4
 70
     1
 43
3.0
 10
125.4185940409684
 20
-2814.701189206626
 42
0.4142135623731
 10
123.9185940409685
 20
-2813.201189206626
 42
0.4142135623731
 10
122.4185940409685
 20
-2814.701189206626
 42
0.4142135623731
 10
123.9185940409685
 20
-2816.201189206626
 42
0.4142135623731
  0
LINE
  5
1D8
330
1F
100
AcDbEntity
  8
0-B_寸法
  6
Continuous
 62
   120
370
     5
100
AcDbLine
 10
123.9185940409685
 20
-2814.701189206626
 30
0.0
 11
123.9185940409685
 21
-2958.848822629192
 31
0.0
  0
MTEXT
  5
1D9
330
1F
100
AcDbEntity
  8
0-B_寸法
  6
Continuous
 62
     7
370
     0
100
AcDbMText
 10
-1690.745503669687
 20
2197.185622027206
 30
0.0
 40
91.44
 41
120.0
 46
0.0
 71
     7
 72
     1
  1
{\fＭＳ ゴシック|b0|i0|c128|p49;30}
 11
6.123031769111886E-17
 21
1.0
 31
0.0
 73
     1
 44
1.0
  0
LINE
  5
1DA
330
1F
100
AcDbEntity
  8
0-B_寸法
  6
Continuous
 62
   120
370
     5
100
AcDbLine
 10
123.9185940409685
 20
-2814.701189206626
 30
0.0
 11
351.9185940409683
 21
-2814.701189206626
 31
0.0
  0
LWPOLYLINE
  5
1DB
330
1F
100
AcDbEntity
  8
0-B_寸法
  6
Continuous
 62
     7
370
     9
100
AcDbPolyline
 90
        4
 70
     1
 43
3.0
 10
353.4185940409683
 20
-2814.701189206626
 42
0.4142135623731
 10
351.9185940409683
 20
-2813.201189206626
 42
0.4142135623731
 10
350.4185940409683
 20
-2814.701189206626
 42
0.4142135623731
 10
351.9185940409683
 20
-2816.201189206626
 42
0.4142135623731
  0
LINE
  5
1DC
330
1F
100
AcDbEntity
  8
0-B_寸法
  6
Continuous
 62
   120
370
     5
100
AcDbLine
 10
351.9185940409683
 20
-2814.701189206626
 30
0.0
 11
351.9185940409683
 21
-2958.848822629192
 31
0.0
  0
MTEXT
  5
1DD
330
1F
100
AcDbEntity
  8
0-B_寸法
  6
Continuous
 62
     7
370
   211
100
AcDbMText
 10
-3907.003892752597
 20
2170.182533978225
 30
0.0
 40
91.44
 41
180.0
 46
0.0
 71
     7
 72
     1
  1
{\fＭＳ ゴシック|b0|i0|c128|p49;138}
 11
6.123031769111886E-17
 21
1.0
 31
0.0
 73
     1
 44
1.0
  0
LINE
  5
1DE
330
1F
100
AcDbEntity
  8
0-7_金物
  6
Continuous
 62
   120
370
     5
100
AcDbLine
 10
-2037.972748540046
 20
1932.462533978226
 30
0.0
 11
-754.9520752657472
 21
1932.462533978226
 31
0.0
  0
LINE
  5
1DF
330
1F
100
AcDbEntity
  8
0-7_金物
  6
Continuous
 62
   120
370
     5
100
AcDbLine
 10
-2037.972748540046
 20
2616.462533978225
 30
0.0
 11
-754.9520752657472
 21
2616.462533978225
 31
0.0
  0
LINE
  5
1E0
330
1F
100
AcDbEntity
  8
0-7_金物
  6
Continuous
 62
   120
370
     5
100
AcDbLine
 10
-3440.993458442058
 20
2616.462533978225
 30
0.0
 11
-2157.972748540046
 21
2616.462533978225
 31
0.0
  0
LINE
  5
1E1
330
1F
100
AcDbEntity
  8
0-7_金物
  6
Continuous
 62
   120
370
     5
100
AcDbLine
 10
-3440.993458442058
 20
1932.462533978226
 30
0.0
 11
-2157.972748540046
 21
1932.462533978226
 31
0.0
  0
LINE
  5
1E2
330
1F
100
AcDbEntity
  8
0-7_金物
  6
Continuous
 62
   120
370
     5
100
AcDbLine
 10
-4252.003744288702
 20
1932.462533978226
 30
0.0
 11
-3560.993458442058
 21
1932.462533978226
 31
0.0
  0
LINE
  5
1E3
330
1F
100
AcDbEntity
  8
0-B_寸法
  6
Continuous
 62
   120
370
     5
100
AcDbLine
 10
-2912.735753355192
 20
2811.462533978227
 30
0.0
 11
-2912.735753355192
 21
2991.462533978227
 31
0.0
  0
LINE
  5
1E4
330
1F
100
AcDbEntity
  8
0-B_寸法
  6
Continuous
 62
   120
370
     5
100
AcDbLine
 10
-2912.735753355192
 20
2991.462533978227
 30
0.0
 11
-2732.735382195457
 21
2991.462533978227
 31
0.0
  0
LINE
  5
1E5
330
1F
100
AcDbEntity
  8
0-B_寸法
  6
Continuous
 62
   120
370
     5
100
AcDbLine
 10
-2732.735382195457
 20
2811.462533978227
 30
0.0
 11
-2732.735382195457
 21
2991.462533978227
 31
0.0
  0
LWPOLYLINE
  5
1E6
330
1F
100
AcDbEntity
  8
0-B_寸法
  6
Continuous
 62
     7
370
     9
100
AcDbPolyline
 90
        4
 70
     1
 43
3.0
 10
-2911.235753355192
 20
2991.462533978227
 42
0.4142135623731
 10
-2912.735753355192
 20
2992.962533978227
 42
0.4142135623731
 10
-2914.235753355191
 20
2991.462533978227
 42
0.4142135623731
 10
-2912.735753355192
 20
2989.962533978227
 42
0.4142135623731
  0
LWPOLYLINE
  5
1E7
330
1F
100
AcDbEntity
  8
0-B_寸法
  6
Continuous
 62
     7
370
     9
100
AcDbPolyline
 90
        4
 70
     1
 43
3.0
 10
-2731.235382195457
 20
2991.462533978227
 42
0.4142135623731
 10
-2732.735382195457
 20
2992.962533978227
 42
0.4142135623731
 10
-2734.235382195457
 20
2991.462533978227
 42
0.4142135623731
 10
-2732.735382195457
 20
2989.962533978227
 42
0.4142135623731
  0
LINE
  5
1E8
330
1F
100
AcDbEntity
  8
0-B_寸法
  6
Continuous
 62
   120
370
     5
100
AcDbLine
 10
-1465.467702980815
 20
2811.462533978227
 30
0.0
 11
-1465.467702980815
 21
2991.462533978227
 31
0.0
  0
LINE
  5
1E9
330
1F
100
AcDbEntity
  8
0-B_寸法
  6
Continuous
 62
   120
370
     5
100
AcDbLine
 10
-1465.467702980815
 20
2991.462533978227
 30
0.0
 11
-1285.46733182108
 21
2991.462533978227
 31
0.0
  0
LINE
  5
1EA
330
1F
100
AcDbEntity
  8
0-B_寸法
  6
Continuous
 62
   120
370
     5
100
AcDbLine
 10
-1285.46733182108
 20
2811.462533978227
 30
0.0
 11
-1285.46733182108
 21
2991.462533978227
 31
0.0
  0
LWPOLYLINE
  5
1EB
330
1F
100
AcDbEntity
  8
0-B_寸法
  6
Continuous
 62
     7
370
     9
100
AcDbPolyline
 90
        4
 70
     1
 43
3.0
 10
-1463.967702980815
 20
2991.462533978227
 42
0.4142135623731
 10
-1465.467702980815
 20
2992.962533978227
 42
0.4142135623731
 10
-1466.967702980815
 20
2991.462533978227
 42
0.4142135623731
 10
-1465.467702980815
 20
2989.962533978227
 42
0.4142135623731
  0
LWPOLYLINE
  5
1EC
330
1F
100
AcDbEntity
  8
0-B_寸法
  6
Continuous
 62
     7
370
     9
100
AcDbPolyline
 90
        4
 70
     1
 43
3.0
 10
-1283.96733182108
 20
2991.462533978227
 42
0.4142135623731
 10
-1285.46733182108
 20
2992.962533978227
 42
0.4142135623731
 10
-1286.96733182108
 20
2991.462533978227
 42
0.4142135623731
 10
-1285.46733182108
 20
2989.962533978227
 42
0.4142135623731
  0
LINE
  5
1ED
330
1F
100
AcDbEntity
  8
0-C_ハッチ
  6
Continuous
 62
   120
370
     5
100
AcDbLine
 10
-4432.003595824812
 20
2281.579331523497
 30
0.0
 11
-4291.003744288706
 21
2422.578168039625
 31
0.0
  0
LINE
  5
1EE
330
1F
100
AcDbEntity
  8
0-C_ハッチ
  6
Continuous
 62
   120
370
     5
100
AcDbLine
 10
-4432.003595824812
 20
2349.465101744321
 30
0.0
 11
-4291.003744288706
 21
2490.461877621068
 31
0.0
  0
LINE
  5
1EF
330
1F
100
AcDbEntity
  8
0-C_ハッチ
  6
Continuous
 62
   120
370
     5
100
AcDbLine
 10
-4429.003595824812
 20
1877.283551871008
 30
0.0
 11
-4255.003309413217
 21
2051.286207539886
 31
0.0
  0
LINE
  5
1F0
330
1F
100
AcDbEntity
  8
0-C_ハッチ
  6
Continuous
 62
   120
370
     5
100
AcDbLine
 10
-4432.003595824812
 20
2077.932167557007
 30
0.0
 11
-4255.003309413217
 21
2254.932939870208
 31
0.0
  0
LINE
  5
1F1
330
1F
100
AcDbEntity
  8
0-C_ハッチ
  6
Continuous
 62
   120
370
     5
100
AcDbLine
 10
-4432.003595824812
 20
2010.049643473077
 30
0.0
 11
-4255.003309413217
 21
2187.050501210541
 31
0.0
  0
LINE
  5
1F2
330
1F
100
AcDbEntity
  8
0-4_枠
  6
Continuous
 62
    92
370
    13
100
AcDbLine
 10
-4291.003744288706
 20
2376.462533978227
 30
0.0
 11
-4255.003309413217
 21
2376.462533978227
 31
0.0
  0
LINE
  5
1F3
330
1F
100
AcDbEntity
  8
0-4_枠
  6
Continuous
 62
    92
370
    13
100
AcDbLine
 10
-4291.003744288706
 20
2628.462533978227
 30
0.0
 11
-4291.003744288706
 21
2376.462533978227
 31
0.0
  0
LINE
  5
1F4
330
1F
100
AcDbEntity
  8
0-4_枠
  6
Continuous
 62
    92
370
    13
100
AcDbLine
 10
-4291.003744288706
 20
2628.462533978227
 30
0.0
 11
-4255.003309413217
 21
2628.462533978227
 31
0.0
  0
LINE
  5
1F5
330
1F
100
AcDbEntity
  8
0-4_枠
  6
Continuous
 62
    92
370
    13
100
AcDbLine
 10
-4288.003744288704
 20
2379.462533978225
 30
0.0
 11
-4252.003744288702
 21
2379.462533978225
 31
0.0
  0
LINE
  5
1F6
330
1F
100
AcDbEntity
  8
0-4_枠
  6
Continuous
 62
    92
370
    13
100
AcDbLine
 10
-4288.003744288704
 20
2625.462533978226
 30
0.0
 11
-4252.003744288702
 21
2625.462533978226
 31
0.0
  0
LINE
  5
1F7
330
1F
100
AcDbEntity
  8
0-4_枠
  6
Continuous
 62
    92
370
    13
100
AcDbLine
 10
-4288.003744288704
 20
2625.462533978226
 30
0.0
 11
-4288.003744288704
 21
2379.462533978225
 31
0.0
  0
LINE
  5
1F8
330
1F
100
AcDbEntity
  8
0-C_ハッチ
  6
Continuous
 62
   120
370
     5
100
AcDbLine
 10
-4432.003595824812
 20
2145.814799919434
 30
0.0
 11
-4255.003309413217
 21
2322.814865783694
 31
0.0
  0
LINE
  5
1F9
330
1F
100
AcDbEntity
  8
0-C_ハッチ
  6
Continuous
 62
   120
370
     5
100
AcDbLine
 10
-4432.003595824812
 20
2213.697152341982
 30
0.0
 11
-4269.237777435013
 21
2376.462533978227
 31
0.0
  0
LINE
  5
1FA
330
1F
100
AcDbEntity
  8
0-C_ハッチ
  6
Continuous
 62
   120
370
     5
100
AcDbLine
 10
-4432.003595824812
 20
2417.344251508838
 30
0.0
 11
-4291.003744288706
 21
2558.343656462367
 31
0.0
  0
LINE
  5
1FB
330
1F
100
AcDbEntity
  8
0-C_ハッチ
  6
Continuous
 62
   120
370
     5
100
AcDbLine
 10
-4288.767244396985
 20
2628.462533978227
 30
0.0
 11
-4255.003309413217
 21
2662.226415974946
 31
0.0
  0
LINE
  5
1FC
330
1F
100
AcDbEntity
  8
0-C_ハッチ
  6
Continuous
 62
   120
370
     5
100
AcDbLine
 10
-4432.003595824812
 20
2485.226407336749
 30
0.0
 11
-4291.003744288706
 21
2626.226037596332
 31
0.0
  0
MTEXT
  5
1FD
330
1F
100
AcDbEntity
  8
0-B_寸法
  6
Continuous
 62
     7
370
   211
100
AcDbMText
 10
-1690.745454181721
 20
2089.18245974627
 30
0.0
 40
91.44
 41
60.0
 46
0.0
 71
     7
 72
     1
  1
{\fＭＳ ゴシック|b0|i0|c128|p49;8}
 11
6.123031769111886E-17
 21
1.0
 31
0.0
 73
     1
 44
1.0
  0
MTEXT
  5
1FE
330
1F
100
AcDbEntity
  8
0-B_寸法
  6
Continuous
 62
     7
370
   211
100
AcDbMText
 10
-4402.003597422198
 20
907.1823737609386
 30
0.0
 40
91.44
 41
120.0
 46
0.0
 71
     7
 72
     1
  1
{\fＭＳ ゴシック|b0|i0|c128|p49;30}
 73
     1
 44
1.0
  0
LINE
  5
1FF
330
1F
100
AcDbEntity
  8
0-4_枠
  6
Continuous
 62
    92
370
    13
100
AcDbLine
 10
-4429.003744288702
 20
2589.462533978225
 30
0.0
 11
-4432.003595824812
 21
2589.462533978225
 31
0.0
  0
LINE
  5
200
330
1F
100
AcDbEntity
  8
0-C_ハッチ
  6
Continuous
 62
   120
370
     5
100
AcDbLine
 10
-4365.944431075512
 20
1872.462099102735
 30
0.0
 11
-4255.003309413217
 21
1983.404352528899
 31
0.0
  0
LINE
  5
201
330
1F
100
AcDbEntity
  8
0-C_ハッチ
  6
Continuous
 62
   120
370
     5
100
AcDbLine
 10
-4298.062537868089
 20
1872.462099102735
 30
0.0
 11
-4255.003309413217
 21
1915.521913869232
 31
0.0
  0
LINE
  5
202
330
1F
100
AcDbEntity
  8
0-7_金物
  6
Continuous
 62
   120
370
     5
100
AcDbLine
 10
-3560.993458442058
 20
2616.462533978225
 30
0.0
 11
-4252.003744288702
 21
2616.462533978225
 31
0.0
  0
LINE
  5
203
330
1F
100
AcDbEntity
  8
0-7_金物
  6
Continuous
 62
   120
370
     5
100
AcDbLine
 10
-4252.003744288702
 20
2412.384057507
 30
0.0
 11
-4252.003744288702
 21
2367.384057507
 31
0.0
  0
LINE
  5
204
330
1F
100
AcDbEntity
  8
0-7_金物
  6
Continuous
 62
   120
370
     5
100
AcDbLine
 10
-4252.003744288702
 20
2592.384057507
 30
0.0
 11
-4252.003744288702
 21
2616.462533978225
 31
0.0
  0
LINE
  5
205
330
1F
100
AcDbEntity
  8
0-6_扉
  6
Continuous
 62
   200
370
    20
100
AcDbLine
 10
-634.9520752657472
 20
1956.462533978227
 30
0.0
 11
71.8003788798552
 21
1956.46258484491
 31
0.0
  0
LINE
  5
206
330
1F
100
AcDbEntity
  8
0-6_扉
  6
Continuous
 62
   200
370
    20
100
AcDbLine
 10
71.8003788798552
 20
1956.46258484491
 30
0.0
 11
71.80030996382669
 21
2136.462584844906
 31
0.0
  0
LINE
  5
207
330
1F
100
AcDbEntity
  8
0-6_扉
  6
Continuous
 62
   200
370
    20
100
AcDbLine
 10
-634.9520752657472
 20
2136.462533978227
 30
0.0
 11
71.80030996382669
 21
2136.462584844906
 31
0.0
  0
LINE
  5
208
330
1F
100
AcDbEntity
  8
0-B_寸法
  6
Continuous
 62
   120
370
     5
100
AcDbLine
 10
-1525.467702980815
 20
2364.462533978225
 30
0.0
 11
-1675.745454181724
 21
2364.462533978225
 31
0.0
  0
LWPOLYLINE
  5
209
330
1F
100
AcDbEntity
  8
0-B_寸法
  6
Continuous
 62
     7
370
     9
100
AcDbPolyline
 90
        4
 70
     1
 43
3.0
 10
-1674.245454181724
 20
2364.462533978225
 42
0.4142135623731
 10
-1675.745454181724
 20
2365.962533978225
 42
0.4142135623731
 10
-1677.245454181724
 20
2364.462533978225
 42
0.4142135623731
 10
-1675.745454181724
 20
2362.962533978225
 42
0.4142135623731
  0
LINE
  5
20A
330
1F
100
AcDbEntity
  8
0-B_寸法
  6
Continuous
 62
   120
370
     5
100
AcDbLine
 10
-1525.467702980815
 20
2184.462533978225
 30
0.0
 11
-1675.745454181724
 21
2184.462533978225
 31
0.0
  0
LWPOLYLINE
  5
20B
330
1F
100
AcDbEntity
  8
0-B_寸法
  6
Continuous
 62
     7
370
     9
100
AcDbPolyline
 90
        4
 70
     1
 43
3.0
 10
-1674.245454181724
 20
2184.462533978225
 42
0.4142135623731
 10
-1675.745454181724
 20
2185.962533978225
 42
0.4142135623731
 10
-1677.245454181724
 20
2184.462533978225
 42
0.4142135623731
 10
-1675.745454181724
 20
2182.962533978225
 42
0.4142135623731
  0
LWPOLYLINE
  5
20C
330
1F
100
AcDbEntity
  8
0-B_寸法
  6
Continuous
 62
     7
370
     9
100
AcDbPolyline
 90
        4
 70
     1
 43
3.0
 10
-1674.245454181724
 20
2136.462533978227
 42
0.4142135623731
 10
-1675.745454181724
 20
2137.962533978227
 42
0.4142135623731
 10
-1677.245454181724
 20
2136.462533978227
 42
0.4142135623731
 10
-1675.745454181724
 20
2134.962533978227
 42
0.4142135623731
  0
LINE
  5
20D
330
1F
100
AcDbEntity
  8
0-B_寸法
  6
Continuous
 62
   120
370
     5
100
AcDbLine
 10
-2972.735753355192
 20
2592.462533978227
 30
0.0
 11
-3123.013504556101
 21
2592.462533978227
 31
0.0
  0
LWPOLYLINE
  5
20E
330
1F
100
AcDbEntity
  8
0-B_寸法
  6
Continuous
 62
     7
370
     9
100
AcDbPolyline
 90
        4
 70
     1
 43
3.0
 10
-3121.513504556101
 20
2592.462533978227
 42
0.4142135623731
 10
-3123.013504556101
 20
2593.962533978226
 42
0.4142135623731
 10
-3124.513504556101
 20
2592.462533978227
 42
0.4142135623731
 10
-3123.013504556101
 20
2590.962533978227
 42
0.4142135623731
  0
LINE
  5
20F
330
1F
100
AcDbEntity
  8
0-B_寸法
  6
Continuous
 62
   120
370
     5
100
AcDbLine
 10
-2972.735753355192
 20
2412.462533978227
 30
0.0
 11
-3123.013504556101
 21
2412.462533978227
 31
0.0
  0
LWPOLYLINE
  5
210
330
1F
100
AcDbEntity
  8
0-B_寸法
  6
Continuous
 62
     7
370
     9
100
AcDbPolyline
 90
        4
 70
     1
 43
3.0
 10
-3121.513504556101
 20
2412.462533978227
 42
0.4142135623731
 10
-3123.013504556101
 20
2413.962533978226
 42
0.4142135623731
 10
-3124.513504556101
 20
2412.462533978227
 42
0.4142135623731
 10
-3123.013504556101
 20
2410.962533978227
 42
0.4142135623731
  0
LINE
  5
211
330
1F
100
AcDbEntity
  8
0-B_寸法
  6
Continuous
 62
   120
370
     5
100
AcDbLine
 10
-3123.013504556101
 20
2592.462533978227
 30
0.0
 11
-3123.013504556101
 21
2364.462533978225
 31
0.0
  0
LWPOLYLINE
  5
212
330
1F
100
AcDbEntity
  8
0-B_寸法
  6
Continuous
 62
     7
370
     9
100
AcDbPolyline
 90
        4
 70
     1
 43
3.0
 10
-3121.513504556101
 20
2364.462533978225
 42
0.4142135623731
 10
-3123.013504556101
 20
2365.962533978225
 42
0.4142135623731
 10
-3124.513504556101
 20
2364.462533978225
 42
0.4142135623731
 10
-3123.013504556101
 20
2362.962533978225
 42
0.4142135623731
  0
LINE
  5
213
330
1F
100
AcDbEntity
  8
0-B_寸法
  6
Continuous
 62
   120
370
     5
100
AcDbLine
 10
-3123.013504556101
 20
2364.462533978225
 30
0.0
 11
-2972.735753355192
 21
2364.462533978225
 31
0.0
  0
LINE
  5
214
330
1F
100
AcDbEntity
  8
0-6_扉
  6
Continuous
 62
   200
370
    20
100
AcDbLine
 10
-1465.467702980815
 20
1956.462533978227
 30
0.0
 11
-754.9520752657472
 21
1956.462533978227
 31
0.0
  0
LINE
  5
215
330
1F
100
AcDbEntity
  8
0-6_扉
  6
Continuous
 62
   200
370
    20
100
AcDbLine
 10
-1465.467702980815
 20
2136.462533978227
 30
0.0
 11
-754.9520752657472
 21
2136.462533978227
 31
0.0
  0
LINE
  5
216
330
1F
100
AcDbEntity
  8
0-6_扉
  6
Continuous
 62
   200
370
    20
100
AcDbLine
 10
-2037.972748540046
 20
2184.462533978225
 30
0.0
 11
-1285.467702980815
 21
2184.462533978225
 31
0.0
  0
LINE
  5
217
330
1F
100
AcDbEntity
  8
0-6_扉
  6
Continuous
 62
   200
370
    20
100
AcDbLine
 10
-2037.972748540046
 20
2364.462533978225
 30
0.0
 11
-1285.467702980815
 21
2364.462533978225
 31
0.0
  0
LINE
  5
218
330
1F
100
AcDbEntity
  8
0-6_扉
  6
Continuous
 62
   200
370
    20
100
AcDbLine
 10
-2912.735753355192
 20
2184.462533978225
 30
0.0
 11
-2157.972748540046
 21
2184.462533978225
 31
0.0
  0
LINE
  5
219
330
1F
100
AcDbEntity
  8
0-6_扉
  6
Continuous
 62
   200
370
    20
100
AcDbLine
 10
-2912.735753355192
 20
2364.462533978225
 30
0.0
 11
-2157.972748540046
 21
2364.462533978225
 31
0.0
  0
LINE
  5
21A
330
1F
100
AcDbEntity
  8
0-6_扉
  6
Continuous
 62
   200
370
    20
100
AcDbLine
 10
-4270.003791480725
 20
2412.462533978227
 30
0.0
 11
-3560.993458442058
 21
2412.462533978227
 31
0.0
  0
LINE
  5
21B
330
1F
100
AcDbEntity
  8
0-6_扉
  6
Continuous
 62
   200
370
    20
100
AcDbLine
 10
-4270.003791480725
 20
2592.462533978227
 30
0.0
 11
-3560.993458442058
 21
2592.462533978227
 31
0.0
  0
LINE
  5
21C
330
1F
100
AcDbEntity
  8
0-6_扉
  6
Continuous
 62
   200
370
    20
100
AcDbLine
 10
-3440.993458442058
 20
2412.462533978227
 30
0.0
 11
-2732.735753355192
 21
2412.462533978227
 31
0.0
  0
LINE
  5
21D
330
1F
100
AcDbEntity
  8
0-6_扉
  6
Continuous
 62
   200
370
    20
100
AcDbLine
 10
-3440.993458442058
 20
2592.462533978227
 30
0.0
 11
-2732.735753355192
 21
2592.462533978227
 31
0.0
  0
LINE
  5
21E
330
1F
100
AcDbEntity
  8
0-6_扉
  6
Continuous
 62
   200
370
    20
100
AcDbLine
 10
-4270.003791480725
 20
2592.462533978227
 30
0.0
 11
-4270.003791480725
 21
2412.462533978227
 31
0.0
  0
LINE
  5
21F
330
1F
100
AcDbEntity
  8
0-6_扉
  6
Continuous
 62
   200
370
    20
100
AcDbLine
 10
-2732.735753355192
 20
2412.462533978227
 30
0.0
 11
-2732.735753355192
 21
2592.462533978227
 31
0.0
  0
LINE
  5
220
330
1F
100
AcDbEntity
  8
0-6_扉
  6
Continuous
 62
   200
370
    20
100
AcDbLine
 10
-2912.735753355192
 20
2364.462533978225
 30
0.0
 11
-2912.735753355192
 21
2184.462533978225
 31
0.0
  0
LINE
  5
221
330
1F
100
AcDbEntity
  8
0-6_扉
  6
Continuous
 62
   200
370
    20
100
AcDbLine
 10
-1285.467702980815
 20
2184.462533978225
 30
0.0
 11
-1285.467702980815
 21
2364.462533978225
 31
0.0
  0
LINE
  5
222
330
1F
100
AcDbEntity
  8
0-6_扉
  6
Continuous
 62
   200
370
    20
100
AcDbLine
 10
-1465.467702980815
 20
2136.462533978227
 30
0.0
 11
-1465.467702980815
 21
1956.462533978227
 31
0.0
  0
LINE
  5
223
330
1F
100
AcDbEntity
  8
0-6_扉
  6
Continuous
 62
    92
370
    13
100
AcDbLine
 10
-2821.983085177195
 20
2727.462533978227
 30
0.0
 11
-2821.983085177195
 21
2061.541010449452
 31
0.0
  0
LINE
  5
224
330
1F
100
AcDbEntity
  8
0-6_扉
  6
Continuous
 62
    92
370
    13
100
AcDbLine
 10
-1373.962411902897
 20
2499.462533978225
 30
0.0
 11
-1373.962411902897
 21
1833.541010449451
 31
0.0
  0
MTEXT
  5
225
330
1F
100
AcDbEntity
  8
0-B_寸法
  6
Continuous
 62
     7
370
   211
100
AcDbMText
 10
1459.068010607564
 20
907.1823737609386
 30
0.0
 40
91.44
 41
120.0
 46
0.0
 71
     7
 72
     1
  1
{\fＭＳ ゴシック|b0|i0|c128|p49;30}
 73
     1
 44
1.0
  0
MTEXT
  5
226
330
1F
100
AcDbEntity
  8
0-B_寸法
  6
Continuous
 62
     7
370
   211
100
AcDbMText
 10
1062.324865765833
 20
-724.0212133734817
 30
0.0
 40
97.15499999999999
 41
127.5
 46
0.0
 71
     7
 72
     1
  1
{\fＭＳ ゴシック|b0|i0|c128|p49;30}
 11
6.123031769111886E-17
 21
1.0
 31
0.0
 73
     1
 44
1.0
  0
ARC
  5
227
330
1F
100
AcDbEntity
  8
0-7_金物
  6
Continuous
 62
     7
370
     9
100
AcDbCircle
 10
-2779.985753355195
 20
2502.462533978227
 30
0.0
 40
65.25000000000269
100
AcDbArc
 50
316.3971810272986
 51
43.60281897270136
  0
ARC
  5
228
330
1F
100
AcDbEntity
  8
0-7_金物
  6
Continuous
 62
     7
370
     9
100
AcDbCircle
 10
-1332.717702980818
 20
2274.462533978225
 30
0.0
 40
65.25000000000269
100
AcDbArc
 50
316.3971810272986
 51
43.60281897270136
  0
ARC
  5
229
330
1F
100
AcDbEntity
  8
0-7_金物
  6
Continuous
 62
     7
370
     9
100
AcDbCircle
 10
24.55034442185706
 20
2046.462533978227
 30
0.0
 40
65.25000000000269
100
AcDbArc
 50
316.3971810272986
 51
43.60281897270136
  0
ARC
  5
22A
330
1F
100
AcDbEntity
  8
0-7_金物
  6
Continuous
 62
     7
370
     9
100
AcDbCircle
 10
-2865.485753355189
 20
2274.462533978225
 30
0.0
 40
65.25000000000269
100
AcDbArc
 50
136.3971810272986
 51
223.6028189727014
  0
ARC
  5
22B
330
1F
100
AcDbEntity
  8
0-7_金物
  6
Continuous
 62
     7
370
     9
100
AcDbCircle
 10
-1418.217702980812
 20
2046.462533978227
 30
0.0
 40
65.25000000000269
100
AcDbArc
 50
136.3971810272986
 51
223.6028189727014
  0
MTEXT
  5
22C
330
1F
100
AcDbEntity
  8
0-B_寸法
  6
Continuous
 62
     7
370
   211
100
AcDbMText
 10
852.3248657658328
 20
-1123.760210368254
 30
0.0
 40
100.0125
 41
262.5
 46
0.0
 71
     7
 72
     1
  1
{\fＭＳ ゴシック|b0|i0|c128|p49;13.5}
 11
6.123031769111886E-17
 21
1.0
 31
0.0
 73
     1
 44
1.0
  0
ARC
  5
22D
330
1F
100
AcDbEntity
  8
0-7_金物
  6
Continuous
 62
     7
370
     9
100
AcDbCircle
 10
-4222.753791480723
 20
2502.462533978227
 30
0.0
 40
65.25000000000269
100
AcDbArc
 50
136.3971810272986
 51
223.6028189727014
  0
LINE
  5
22E
330
1F
100
AcDbEntity
  8
0-B_寸法
  6
Continuous
 62
   120
370
     5
100
AcDbLine
 10
-1675.745454181724
 20
2364.462533978225
 30
0.0
 11
-1675.745454181724
 21
2136.462533978227
 31
0.0
  0
LINE
  5
22F
330
1F
100
AcDbEntity
  8
0-B_寸法
  6
Continuous
 62
   120
370
     5
100
AcDbLine
 10
-1675.745454181724
 20
2136.462533978227
 30
0.0
 11
-1525.467702980815
 21
2136.462533978227
 31
0.0
  0
LINE
  5
230
330
1F
100
AcDbEntity
  8
0-6_扉
  6
JWW_DASHED2
 62
    40
370
    15
100
AcDbLine
 10
-108.1997398673039
 20
2592.462483111543
 30
0.0
 11
-108.1997398673039
 21
2412.462483111543
 31
0.0
  0
LINE
  5
231
330
1F
100
AcDbEntity
  8
0-6_扉
  6
JWW_DASHED2
 62
    40
370
    15
100
AcDbLine
 10
-108.1996211201448
 20
2364.462483111545
 30
0.0
 11
-108.1996211201448
 21
2184.462483111545
 31
0.0
  0
LINE
  5
232
330
1F
100
AcDbEntity
  8
0-6_扉
  6
JWW_DASHED2
 62
    40
370
    15
100
AcDbLine
 10
-108.1996211201448
 20
2136.462483111542
 30
0.0
 11
-108.1996211201448
 21
1956.462483111542
 31
0.0
  0
LINE
  5
233
330
1F
100
AcDbEntity
  8
0-C_ハッチ
  6
JWW_DASHED1
 62
   120
370
     5
100
AcDbLine
 10
1603.260580376399
 20
1446.462373760938
 30
0.0
 11
1609.068307535353
 21
1452.270100919892
 31
0.0
  0
LINE
  5
234
330
1F
100
AcDbEntity
  8
0-C_ハッチ
  6
JWW_DASHED1
 62
   120
370
     5
100
AcDbLine
 10
1560.834173505202
 20
1446.46237376094
 30
0.0
 11
1609.068307535343
 21
1494.696507791082
 31
0.0
  0
LINE
  5
235
330
1F
100
AcDbEntity
  8
0-C_ハッチ
  6
JWW_DASHED1
 62
   120
370
     5
100
AcDbLine
 10
1518.407766634005
 20
1446.462373760945
 30
0.0
 11
1593.407766634
 21
1521.462373760939
 31
0.0
  0
LINE
  5
236
330
1F
100
AcDbEntity
  8
0-C_ハッチ
  6
JWW_DASHED1
 62
   120
370
     5
100
AcDbLine
 10
1475.981359762809
 20
1446.462373760947
 30
0.0
 11
1550.981359762804
 21
1521.462373760943
 31
0.0
  0
LINE
  5
237
330
1F
100
AcDbEntity
  8
0-C_ハッチ
  6
JWW_DASHED1
 62
   120
370
     5
100
AcDbLine
 10
1433.554952891598
 20
1446.462373760938
 30
0.0
 11
1508.554952891594
 21
1521.462373760932
 31
0.0
  0
LINE
  5
238
330
1F
100
AcDbEntity
  8
0-C_ハッチ
  6
JWW_DASHED1
 62
   120
370
     5
100
AcDbLine
 10
1391.128546020402
 20
1446.46237376094
 30
0.0
 11
1466.128546020397
 21
1521.462373760935
 31
0.0
  0
LINE
  5
239
330
1F
100
AcDbEntity
  8
0-C_ハッチ
  6
JWW_DASHED1
 62
   120
370
     5
100
AcDbLine
 10
1348.702139149205
 20
1446.462373760945
 30
0.0
 11
1423.702139149199
 21
1521.462373760939
 31
0.0
  0
LINE
  5
23A
330
1F
100
AcDbEntity
  8
0-C_ハッチ
  6
JWW_DASHED1
 62
   120
370
     5
100
AcDbLine
 10
1306.275732278009
 20
1446.462373760949
 30
0.0
 11
1381.275732278003
 21
1521.462373760942
 31
0.0
  0
LINE
  5
23B
330
1F
100
AcDbEntity
  8
0-C_ハッチ
  6
JWW_DASHED1
 62
   120
370
     5
100
AcDbLine
 10
1263.849325406853
 20
1446.462373760938
 30
0.0
 11
1338.849325406865
 21
1521.46237376095
 31
0.0
  0
LINE
  5
23C
330
1F
100
AcDbEntity
  8
0-C_ハッチ
  6
JWW_DASHED1
 62
   120
370
     5
100
AcDbLine
 10
1608.849325406855
 20
1791.462373760939
 30
0.0
 11
1609.068307535351
 21
1791.681355889436
 31
0.0
  0
LINE
  5
23D
330
1F
100
AcDbEntity
  8
0-C_ハッチ
  6
JWW_DASHED1
 62
   120
370
     5
100
AcDbLine
 10
1221.422918535656
 20
1446.46237376094
 30
0.0
 11
1296.422918535668
 21
1521.462373760952
 31
0.0
  0
LINE
  5
23E
330
1F
100
AcDbEntity
  8
0-C_ハッチ
  6
JWW_DASHED1
 62
   120
370
     5
100
AcDbLine
 10
1566.422918535658
 20
1791.462373760942
 30
0.0
 11
1609.06830753535
 21
1834.107762760635
 31
0.0
  0
LINE
  5
23F
330
1F
100
AcDbEntity
  8
0-C_ハッチ
  6
JWW_DASHED1
 62
   120
370
     5
100
AcDbLine
 10
1178.99651166446
 20
1446.462373760945
 30
0.0
 11
1253.996511664456
 21
1521.46237376094
 31
0.0
  0
LINE
  5
240
330
1F
100
AcDbEntity
  8
0-C_ハッチ
  6
JWW_DASHED1
 62
   120
370
     5
100
AcDbLine
 10
1523.996511664463
 20
1791.462373760946
 30
0.0
 11
1598.996511664458
 21
1866.462373760942
 31
0.0
  0
LINE
  5
241
330
1F
100
AcDbEntity
  8
0-C_ハッチ
  6
JWW_DASHED1
 62
   120
370
     5
100
AcDbLine
 10
1136.570104793263
 20
1446.462373760947
 30
0.0
 11
1211.57010479326
 21
1521.462373760945
 31
0.0
  0
LINE
  5
242
330
1F
100
AcDbEntity
  8
0-C_ハッチ
  6
JWW_DASHED1
 62
   120
370
     5
100
AcDbLine
 10
1481.570104793266
 20
1791.46237376095
 30
0.0
 11
1556.570104793262
 21
1866.462373760945
 31
0.0
  0
LINE
  5
243
330
1F
100
AcDbEntity
  8
0-C_ハッチ
  6
JWW_DASHED1
 62
   120
370
     5
100
AcDbLine
 10
1094.143697922056
 20
1446.46237376094
 30
0.0
 11
1169.143697922053
 21
1521.462373760936
 31
0.0
  0
LINE
  5
244
330
1F
100
AcDbEntity
  8
0-C_ハッチ
  6
JWW_DASHED1
 62
   120
370
     5
100
AcDbLine
 10
1439.143697922055
 20
1791.462373760939
 30
0.0
 11
1514.14369792205
 21
1866.462373760934
 31
0.0
  0
LINE
  5
245
330
1F
100
AcDbEntity
  8
0-C_ハッチ
  6
JWW_DASHED1
 62
   120
370
     5
100
AcDbLine
 10
1051.71729105086
 20
1446.462373760945
 30
0.0
 11
1126.717291050856
 21
1521.46237376094
 31
0.0
  0
LINE
  5
246
330
1F
100
AcDbEntity
  8
0-C_ハッチ
  6
JWW_DASHED1
 62
   120
370
     5
100
AcDbLine
 10
1396.71729105086
 20
1791.462373760945
 30
0.0
 11
1471.717291050853
 21
1866.462373760938
 31
0.0
  0
LINE
  5
247
330
1F
100
AcDbEntity
  8
0-C_ハッチ
  6
JWW_DASHED1
 62
   120
370
     5
100
AcDbLine
 10
1009.290884179664
 20
1446.462373760949
 30
0.0
 11
1084.290884179655
 21
1521.462373760939
 31
0.0
  0
LINE
  5
248
330
1F
100
AcDbEntity
  8
0-C_ハッチ
  6
JWW_DASHED1
 62
   120
370
     5
100
AcDbLine
 10
1354.290884179661
 20
1791.462373760945
 30
0.0
 11
1429.290884179657
 21
1866.462373760942
 31
0.0
  0
LINE
  5
249
330
1F
100
AcDbEntity
  8
0-C_ハッチ
  6
JWW_DASHED1
 62
   120
370
     5
100
AcDbLine
 10
966.8644773084675
 20
1446.462373760952
 30
0.0
 11
1041.864477308459
 21
1521.462373760943
 31
0.0
  0
LINE
  5
24A
330
1F
100
AcDbEntity
  8
0-C_ハッチ
  6
JWW_DASHED1
 62
   120
370
     5
100
AcDbLine
 10
1311.864477308464
 20
1791.462373760949
 30
0.0
 11
1386.864477308462
 21
1866.462373760945
 31
0.0
  0
LINE
  5
24B
330
1F
100
AcDbEntity
  8
0-C_ハッチ
  6
JWW_DASHED1
 62
   120
370
     5
100
AcDbLine
 10
924.4380704373085
 20
1446.462373760939
 30
0.0
 11
999.4380704373212
 21
1521.462373760951
 31
0.0
  0
LINE
  5
24C
330
1F
100
AcDbEntity
  8
0-C_ハッチ
  6
JWW_DASHED1
 62
   120
370
     5
100
AcDbLine
 10
1269.438070437311
 20
1791.46237376094
 30
0.0
 11
1344.438070437321
 21
1866.462373760951
 31
0.0
  0
LINE
  5
24D
330
1F
100
AcDbEntity
  8
0-C_ハッチ
  6
JWW_DASHED1
 62
   120
370
     5
100
AcDbLine
 10
882.0116635661119
 20
1446.462373760942
 30
0.0
 11
957.0116635661246
 21
1521.462373760954
 31
0.0
  0
LINE
  5
24E
330
1F
100
AcDbEntity
  8
0-C_ハッチ
  6
JWW_DASHED1
 62
   120
370
     5
100
AcDbLine
 10
1227.011663566114
 20
1791.462373760945
 30
0.0
 11
1302.011663566109
 21
1866.462373760939
 31
0.0
  0
LINE
  5
24F
330
1F
100
AcDbEntity
  8
0-C_ハッチ
  6
JWW_DASHED1
 62
   120
370
     5
100
AcDbLine
 10
839.5852566949153
 20
1446.462373760945
 30
0.0
 11
914.5852566949127
 21
1521.462373760942
 31
0.0
  0
LINE
  5
250
330
1F
100
AcDbEntity
  8
0-C_ハッチ
  6
JWW_DASHED1
 62
   120
370
     5
100
AcDbLine
 10
1184.585256694918
 20
1791.462373760949
 30
0.0
 11
1259.585256694913
 21
1866.462373760942
 31
0.0
  0
LINE
  5
251
330
1F
100
AcDbEntity
  8
0-C_ハッチ
  6
JWW_DASHED1
 62
   120
370
     5
100
AcDbLine
 10
1142.158849823721
 20
1791.462373760951
 30
0.0
 11
1217.158849823716
 21
1866.462373760945
 31
0.0
  0
LINE
  5
252
330
1F
100
AcDbEntity
  8
0-C_ハッチ
  6
JWW_DASHED1
 62
   120
370
     5
100
AcDbLine
 10
1099.732442952514
 20
1791.462373760945
 30
0.0
 11
1174.732442952507
 21
1866.462373760938
 31
0.0
  0
LINE
  5
253
330
1F
100
AcDbEntity
  8
0-C_ハッチ
  6
JWW_DASHED1
 62
   120
370
     5
100
AcDbLine
 10
1057.306036081319
 20
1791.462373760949
 30
0.0
 11
1132.306036081312
 21
1866.462373760942
 31
0.0
  0
LINE
  5
254
330
1F
100
AcDbEntity
  8
0-C_ハッチ
  6
JWW_DASHED1
 62
   120
370
     5
100
AcDbLine
 10
1014.879629210117
 20
1791.462373760946
 30
0.0
 11
1089.879629210116
 21
1866.462373760945
 31
0.0
  0
LINE
  5
255
330
1F
100
AcDbEntity
  8
0-C_ハッチ
  6
JWW_DASHED1
 62
   120
370
     5
100
AcDbLine
 10
972.4532223389633
 20
1791.462373760939
 30
0.0
 11
1047.453222338973
 21
1866.462373760949
 31
0.0
  0
LINE
  5
256
330
1F
100
AcDbEntity
  8
0-C_ハッチ
  6
JWW_DASHED1
 62
   120
370
     5
100
AcDbLine
 10
930.0268154677672
 20
1791.462373760942
 30
0.0
 11
1005.026815467777
 21
1866.462373760952
 31
0.0
  0
LINE
  5
257
330
1F
100
AcDbEntity
  8
0-C_ハッチ
  6
JWW_DASHED1
 62
   120
370
     5
100
AcDbLine
 10
887.6004085965706
 20
1791.462373760945
 30
0.0
 11
962.6004085965642
 21
1866.462373760939
 31
0.0
  0
LINE
  5
258
330
1F
100
AcDbEntity
  8
0-C_ハッチ
  6
JWW_DASHED1
 62
   120
370
     5
100
AcDbLine
 10
845.1740017253744
 20
1791.46237376095
 30
0.0
 11
920.174001725368
 21
1866.462373760943
 31
0.0
  0
LINE
  5
259
330
1F
100
AcDbEntity
  8
0-0_補助線
  6
JWW_HOJO
 62
   120
370
     5
100
AcDbLine
 10
-4492.003744288702
 20
2811.462533978227
 30
0.0
 11
1669.068307535352
 21
2811.462533978227
 31
0.0
  0
LINE
  5
25A
330
1F
100
AcDbEntity
  8
0-0_補助線
  6
JWW_HOJO
 62
   120
370
     5
100
AcDbLine
 10
-4492.003744288702
 20
2502.462533978227
 30
0.0
 11
1669.068307535352
 21
2502.462533978227
 31
0.0
  0
LINE
  5
25B
330
1F
100
AcDbEntity
  8
0-0_補助線
  6
JWW_HOJO
 62
   120
370
     5
100
AcDbLine
 10
-4492.003744288702
 20
2046.462533978224
 30
0.0
 11
1669.068307535352
 21
2046.462533978224
 31
0.0
  0
LINE
  5
25C
330
1F
100
AcDbEntity
  8
0-1_通り芯
  6
JWW_CENTER1
 62
   120
370
     5
100
AcDbLine
 10
-4492.003744288702
 20
2274.462533978227
 30
0.0
 11
1669.068307535352
 21
2274.462533978227
 31
0.0
  0
LINE
  5
25D
330
1F
100
AcDbEntity
  8
0-C_ハッチ
  6
Continuous
 62
   120
370
     5
100
AcDbLine
 10
1606.068307535353
 20
2669.957363383804
 30
0.0
 11
1432.068127703132
 21
2495.957183551584
 31
0.0
  0
LINE
  5
25E
330
1F
100
AcDbEntity
  8
0-C_ハッチ
  6
Continuous
 62
   120
370
     5
100
AcDbLine
 10
1606.068307535353
 20
2610.560393764102
 30
0.0
 11
1432.068159238149
 21
2436.5602454669
 31
0.0
  0
LINE
  5
25F
330
1F
100
AcDbEntity
  8
0-C_ハッチ
  6
Continuous
 62
   120
370
     5
100
AcDbLine
 10
1609.068307535355
 20
2435.36948490511
 30
0.0
 11
1432.068253843199
 21
2258.369431212951
 31
0.0
  0
LINE
  5
260
330
1F
100
AcDbEntity
  8
0-C_ハッチ
  6
Continuous
 62
   120
370
     5
100
AcDbLine
 10
1609.068307535355
 20
2494.766454524812
 30
0.0
 11
1432.068222308181
 21
2317.766369297637
 31
0.0
  0
LINE
  5
261
330
1F
100
AcDbEntity
  8
0-C_ハッチ
  6
Continuous
 62
   120
370
     5
100
AcDbLine
 10
1609.06830753535
 20
2554.163424144454
 30
0.0
 11
1432.068190773166
 21
2377.163307382269
 31
0.0
  0
LINE
  5
262
330
1F
100
AcDbEntity
  8
0-C_ハッチ
  6
Continuous
 62
   120
370
     5
100
AcDbLine
 10
1609.068307535345
 20
2375.972515285452
 30
0.0
 11
1432.068285378213
 21
2198.97249312832
 31
0.0
  0
LINE
  5
263
330
1F
100
AcDbEntity
  8
0-4_枠
  6
Continuous
 62
    92
370
    13
100
AcDbLine
 10
1606.068307535351
 20
1956.462373760939
 30
0.0
 11
1609.068159071461
 21
1956.462373760939
 31
0.0
  0
LINE
  5
264
330
1F
100
AcDbEntity
  8
0-4_枠
  6
Continuous
 62
    92
370
    13
100
AcDbLine
 10
1606.068307535351
 20
1956.462373760939
 30
0.0
 11
1606.068307535351
 21
1869.462533978225
 31
0.0
  0
LINE
  5
265
330
1F
100
AcDbEntity
  8
0-4_枠
  6
Continuous
 62
    92
370
    13
100
AcDbLine
 10
1441.79622959671
 20
1866.462373760939
 30
0.0
 11
1609.068307535352
 21
1866.462373760939
 31
0.0
  0
LINE
  5
266
330
1F
100
AcDbEntity
  8
0-4_枠
  6
Continuous
 62
    92
370
    13
100
AcDbLine
 10
1441.79622959671
 20
1866.462373760939
 30
0.0
 11
1429.068307535352
 21
1879.190295822296
 31
0.0
  0
LINE
  5
267
330
1F
100
AcDbEntity
  8
0-4_枠
  6
Continuous
 62
    92
370
    13
100
AcDbLine
 10
1443.038710066543
 20
1869.462533978225
 30
0.0
 11
1606.068307535351
 21
1869.462533978225
 31
0.0
  0
LINE
  5
268
330
1F
100
AcDbEntity
  8
0-4_枠
  6
Continuous
 62
    92
370
    13
100
AcDbLine
 10
1443.038710066543
 20
1869.462533978225
 30
0.0
 11
1432.067872659866
 21
1880.433371384902
 31
0.0
  0
LINE
  5
269
330
1F
100
AcDbEntity
  8
0-C_ハッチ
  6
Continuous
 62
   120
370
     5
100
AcDbLine
 10
1609.068307535348
 20
1960.193727947759
 30
0.0
 11
1518.337113565814
 21
1869.462533978225
 31
0.0
  0
LINE
  5
26A
330
1F
100
AcDbEntity
  8
0-C_ハッチ
  6
Continuous
 62
   120
370
     5
100
AcDbLine
 10
1606.068307535351
 20
1897.79675832806
 30
0.0
 11
1577.734083185516
 21
1869.462533978225
 31
0.0
  0
LINE
  5
26B
330
1F
100
AcDbEntity
  8
0-6_扉
  6
JWW_DASHED2
 62
    40
370
    15
100
AcDbLine
 10
1429.068341993367
 20
2412.462533978228
 30
0.0
 11
1429.068273077337
 21
2592.462533978224
 31
0.0
  0
LINE
  5
26C
330
1F
100
AcDbEntity
  8
0-6_扉
  6
JWW_DASHED2
 62
    40
370
    15
100
AcDbLine
 10
1429.068460740525
 20
2184.46253397823
 30
0.0
 11
1429.068391824497
 21
2364.462533978224
 31
0.0
  0
LINE
  5
26D
330
1F
100
AcDbEntity
  8
0-C_ハッチ
  6
Continuous
 62
   120
370
     5
100
AcDbLine
 10
1609.068307535355
 20
2078.987667187112
 30
0.0
 11
1432.068407711738
 21
1901.987767363499
 31
0.0
  0
LINE
  5
26E
330
1F
100
AcDbEntity
  8
0-C_ハッチ
  6
Continuous
 62
   120
370
     5
100
AcDbLine
 10
1609.068307535359
 20
2019.590697567418
 30
0.0
 11
1458.940143946166
 21
1869.462533978225
 31
0.0
  0
LINE
  5
26F
330
1F
100
AcDbEntity
  8
0-6_扉
  6
JWW_DASHED2
 62
    40
370
    15
100
AcDbLine
 10
1429.068391824497
 20
2136.462533978221
 30
0.0
 11
1429.068460740525
 21
1956.462533978227
 31
0.0
  0
LINE
  5
270
330
1F
100
AcDbEntity
  8
0-C_ハッチ
  6
Continuous
 62
   120
370
     5
100
AcDbLine
 10
1609.068307535362
 20
2316.575545665765
 30
0.0
 11
1432.067872659866
 21
2139.575110790272
 31
0.0
  0
LINE
  5
271
330
1F
100
AcDbEntity
  8
0-C_ハッチ
  6
Continuous
 62
   120
370
     5
100
AcDbLine
 10
1609.068307535353
 20
2138.384636806763
 30
0.0
 11
1432.067872659866
 21
1961.384201931274
 31
0.0
  0
LINE
  5
272
330
1F
100
AcDbEntity
  8
0-C_ハッチ
  6
Continuous
 62
   120
370
     5
100
AcDbLine
 10
1609.068307535348
 20
2257.178576046107
 30
0.0
 11
1432.067872659866
 21
2080.178141170625
 31
0.0
  0
LINE
  5
273
330
1F
100
AcDbEntity
  8
0-C_ハッチ
  6
Continuous
 62
   120
370
     5
100
AcDbLine
 10
1609.068307535348
 20
2197.781606426405
 30
0.0
 11
1432.067872659866
 21
2020.781171550921
 31
0.0
  0
LINE
  5
274
330
1F
100
AcDbEntity
  8
0-2_柱
  6
Continuous
 62
     7
370
     9
100
AcDbLine
 10
-33.1996211201448
 20
1521.462373760939
 30
0.0
 11
236.8003788798552
 21
1521.462373760939
 31
0.0
  0
LINE
  5
275
330
1F
100
AcDbEntity
  8
0-2_柱
  6
Continuous
 62
     7
370
     9
100
AcDbLine
 10
236.8003788798552
 20
1521.462373760939
 30
0.0
 11
236.8003788798552
 21
1791.462373760939
 31
0.0
  0
LINE
  5
276
330
1F
100
AcDbEntity
  8
0-2_柱
  6
Continuous
 62
     7
370
     9
100
AcDbLine
 10
236.8003788798552
 20
1791.462373760939
 30
0.0
 11
-33.1996211201448
 21
1791.462373760939
 31
0.0
  0
LINE
  5
277
330
1F
100
AcDbEntity
  8
0-2_柱
  6
Continuous
 62
     7
370
     9
100
AcDbLine
 10
-33.1996211201448
 20
1791.462373760939
 30
0.0
 11
-33.1996211201448
 21
1521.462373760939
 31
0.0
  0
LINE
  5
278
330
1F
100
AcDbEntity
  8
0-2_柱
  6
Continuous
 62
     7
370
     9
100
AcDbLine
 10
236.8003788798552
 20
1791.462373760939
 30
0.0
 11
-33.1996211201448
 21
1521.462373760939
 31
0.0
  0
LINE
  5
279
330
1F
100
AcDbEntity
  8
0-2_柱
  6
Continuous
 62
     7
370
     9
100
AcDbLine
 10
-33.1996211201448
 20
1791.462373760939
 30
0.0
 11
236.8003788798552
 21
1521.462373760939
 31
0.0
  0
LINE
  5
27A
330
1F
100
AcDbEntity
  8
0-3_仕上げ
  6
Continuous
 62
    40
370
    15
100
AcDbLine
 10
-33.1996211201448
 20
1791.462373760939
 30
0.0
 11
-33.1996211201448
 21
1521.462373760939
 31
0.0
  0
LINE
  5
27B
330
1F
100
AcDbEntity
  8
0-3_仕上げ
  6
Continuous
 62
    40
370
    15
100
AcDbLine
 10
-108.1996211201448
 20
1866.462373760939
 30
0.0
 11
-108.1996211201448
 21
1446.462373760939
 31
0.0
  0
LINE
  5
27C
330
1F
100
AcDbEntity
  8
0-C_ハッチ
  6
JWW_DASHED1
 62
   120
370
     5
100
AcDbLine
 10
506.2850324672759
 20
1446.462373760942
 30
0.0
 11
581.2850324672742
 21
1521.46237376094
 31
0.0
  0
LINE
  5
27D
330
1F
100
AcDbEntity
  8
0-C_ハッチ
  6
JWW_DASHED1
 62
   120
370
     5
100
AcDbLine
 10
463.8586255960797
 20
1446.462373760945
 30
0.0
 11
538.858625596078
 21
1521.462373760945
 31
0.0
  0
LINE
  5
27E
330
1F
100
AcDbEntity
  8
0-C_ハッチ
  6
JWW_DASHED1
 62
   120
370
     5
100
AcDbLine
 10
421.432218724878
 20
1446.462373760945
 30
0.0
 11
496.4322187248763
 21
1521.462373760942
 31
0.0
  0
LINE
  5
27F
330
1F
100
AcDbEntity
  8
0-C_ハッチ
  6
JWW_DASHED1
 62
   120
370
     5
100
AcDbLine
 10
379.0058118536814
 20
1446.462373760949
 30
0.0
 11
454.0058118536797
 21
1521.462373760946
 31
0.0
  0
LINE
  5
280
330
1F
100
AcDbEntity
  8
0-C_ハッチ
  6
JWW_DASHED1
 62
   120
370
     5
100
AcDbLine
 10
336.5794049824856
 20
1446.462373760952
 30
0.0
 11
411.5794049824729
 21
1521.462373760939
 31
0.0
  0
LINE
  5
281
330
1F
100
AcDbEntity
  8
0-C_ハッチ
  6
JWW_DASHED1
 62
   120
370
     5
100
AcDbLine
 10
294.1529981112899
 20
1446.462373760956
 30
0.0
 11
369.1529981112762
 21
1521.462373760942
 31
0.0
  0
LINE
  5
282
330
1F
100
AcDbEntity
  8
0-C_ハッチ
  6
JWW_DASHED1
 62
   120
370
     5
100
AcDbLine
 10
251.726591240124
 20
1446.462373760935
 30
0.0
 11
326.7265912401389
 21
1521.462373760951
 31
0.0
  0
LINE
  5
283
330
1F
100
AcDbEntity
  8
0-C_ハッチ
  6
JWW_DASHED1
 62
   120
370
     5
100
AcDbLine
 10
209.3001843689274
 20
1446.462373760939
 30
0.0
 11
284.3001843689427
 21
1521.462373760954
 31
0.0
  0
LINE
  5
284
330
1F
100
AcDbEntity
  8
0-C_ハッチ
  6
JWW_DASHED1
 62
   120
370
     5
100
AcDbLine
 10
166.8737774977308
 20
1446.462373760943
 30
0.0
 11
241.8737774977303
 21
1521.462373760942
 31
0.0
  0
LINE
  5
285
330
1F
100
AcDbEntity
  8
0-C_ハッチ
  6
JWW_DASHED1
 62
   120
370
     5
100
AcDbLine
 10
511.8737774977359
 20
1791.462373760947
 30
0.0
 11
586.8737774977286
 21
1866.46237376094
 31
0.0
  0
LINE
  5
286
330
1F
100
AcDbEntity
  8
0-C_ハッチ
  6
JWW_DASHED1
 62
   120
370
     5
100
AcDbLine
 10
124.4473706265342
 20
1446.462373760945
 30
0.0
 11
199.4473706265342
 21
1521.462373760945
 31
0.0
  0
LINE
  5
287
330
1F
100
AcDbEntity
  8
0-C_ハッチ
  6
JWW_DASHED1
 62
   120
370
     5
100
AcDbLine
 10
469.4473706265393
 20
1791.462373760951
 30
0.0
 11
544.447370626532
 21
1866.462373760945
 31
0.0
  0
LINE
  5
288
330
1F
100
AcDbEntity
  8
0-C_ハッチ
  6
JWW_DASHED1
 62
   120
370
     5
100
AcDbLine
 10
82.02096375533586
 20
1446.462373760949
 30
0.0
 11
157.0209637553354
 21
1521.462373760947
 31
0.0
  0
LINE
  5
289
330
1F
100
AcDbEntity
  8
0-C_ハッチ
  6
JWW_DASHED1
 62
   120
370
     5
100
AcDbLine
 10
427.0209637553384
 20
1791.46237376095
 30
0.0
 11
502.0209637553299
 21
1866.462373760942
 31
0.0
  0
LINE
  5
28A
330
1F
100
AcDbEntity
  8
0-C_ハッチ
  6
JWW_DASHED1
 62
   120
370
     5
100
AcDbLine
 10
39.5945568841401
 20
1446.462373760952
 30
0.0
 11
114.5945568841393
 21
1521.462373760951
 31
0.0
  0
LINE
  5
28B
330
1F
100
AcDbEntity
  8
0-C_ハッチ
  6
JWW_DASHED1
 62
   120
370
     5
100
AcDbLine
 10
384.5945568841422
 20
1791.462373760954
 30
0.0
 11
459.5945568841333
 21
1866.462373760945
 31
0.0
  0
LINE
  5
28C
330
1F
100
AcDbEntity
  8
0-C_ハッチ
  6
JWW_DASHED1
 62
   120
370
     5
100
AcDbLine
 10
-2.831849987056074
 20
1446.462373760956
 30
0.0
 11
72.168150012929
 21
1521.46237376094
 31
0.0
  0
LINE
  5
28D
330
1F
100
AcDbEntity
  8
0-C_ハッチ
  6
JWW_DASHED1
 62
   120
370
     5
100
AcDbLine
 10
342.1681500129341
 20
1791.462373760945
 30
0.0
 11
417.1681500129375
 21
1866.462373760949
 31
0.0
  0
LINE
  5
28E
330
1F
100
AcDbEntity
  8
0-C_ハッチ
  6
JWW_DASHED1
 62
   120
370
     5
100
AcDbLine
 10
-45.25825685825225
 20
1446.462373760959
 30
0.0
 11
29.7417431417324
 21
1521.462373760945
 31
0.0
  0
LINE
  5
28F
330
1F
100
AcDbEntity
  8
0-C_ハッチ
  6
JWW_DASHED1
 62
   120
370
     5
100
AcDbLine
 10
299.7417431417222
 20
1791.462373760934
 30
0.0
 11
374.7417431417418
 21
1866.462373760953
 31
0.0
  0
LINE
  5
290
330
1F
100
AcDbEntity
  8
0-C_ハッチ
  6
JWW_DASHED1
 62
   120
370
     5
100
AcDbLine
 10
-87.68466372942072
 20
1446.462373760936
 30
0.0
 11
-12.68466372940537
 21
1521.462373760952
 31
0.0
  0
LINE
  5
291
330
1F
100
AcDbEntity
  8
0-C_ハッチ
  6
JWW_DASHED1
 62
   120
370
     5
100
AcDbLine
 10
257.3153362705844
 20
1791.462373760942
 30
0.0
 11
332.3153362705921
 21
1866.462373760949
 31
0.0
  0
LINE
  5
292
330
1F
100
AcDbEntity
  8
0-C_ハッチ
  6
JWW_DASHED1
 62
   120
370
     5
100
AcDbLine
 10
-108.1996211201457
 20
1468.373823241411
 30
0.0
 11
-33.1996211201465
 21
1543.37382324141
 31
0.0
  0
LINE
  5
293
330
1F
100
AcDbEntity
  8
0-C_ハッチ
  6
JWW_DASHED1
 62
   120
370
     5
100
AcDbLine
 10
214.8889293993878
 20
1791.462373760945
 30
0.0
 11
289.8889293993801
 21
1866.462373760938
 31
0.0
  0
LINE
  5
294
330
1F
100
AcDbEntity
  8
0-C_ハッチ
  6
JWW_DASHED1
 62
   120
370
     5
100
AcDbLine
 10
-108.1996211201491
 20
1510.800230112609
 30
0.0
 11
-33.19962112015077
 21
1585.800230112607
 31
0.0
  0
LINE
  5
295
330
1F
100
AcDbEntity
  8
0-C_ハッチ
  6
JWW_DASHED1
 62
   120
370
     5
100
AcDbLine
 10
172.462522528192
 20
1791.462373760949
 30
0.0
 11
247.4625225281835
 21
1866.46237376094
 31
0.0
  0
LINE
  5
296
330
1F
100
AcDbEntity
  8
0-C_ハッチ
  6
JWW_DASHED1
 62
   120
370
     5
100
AcDbLine
 10
-108.1996211201525
 20
1553.226636983805
 30
0.0
 11
-33.19962112015546
 21
1628.226636983803
 31
0.0
  0
LINE
  5
297
330
1F
100
AcDbEntity
  8
0-C_ハッチ
  6
JWW_DASHED1
 62
   120
370
     5
100
AcDbLine
 10
130.0361156569937
 20
1791.462373760951
 30
0.0
 11
205.0361156569844
 21
1866.462373760942
 31
0.0
  0
LINE
  5
298
330
1F
100
AcDbEntity
  8
0-C_ハッチ
  6
JWW_DASHED1
 62
   120
370
     5
100
AcDbLine
 10
-108.1996211201555
 20
1595.653043855003
 30
0.0
 11
-33.19962112016015
 21
1670.653043854998
 31
0.0
  0
LINE
  5
299
330
1F
100
AcDbEntity
  8
0-C_ハッチ
  6
JWW_DASHED1
 62
   120
370
     5
100
AcDbLine
 10
87.60970878579798
 20
1791.462373760956
 30
0.0
 11
162.6097087857877
 21
1866.462373760945
 31
0.0
  0
LINE
  5
29A
330
1F
100
AcDbEntity
  8
0-C_ハッチ
  6
JWW_DASHED1
 62
   120
370
     5
100
AcDbLine
 10
-108.1996211201584
 20
1638.079450726199
 30
0.0
 11
-33.19962112014863
 21
1713.079450726209
 31
0.0
  0
LINE
  5
29B
330
1F
100
AcDbEntity
  8
0-C_ハッチ
  6
JWW_DASHED1
 62
   120
370
     5
100
AcDbLine
 10
45.18330191458688
 20
1791.462373760945
 30
0.0
 11
120.183301914592
 21
1866.462373760949
 31
0.0
  0
LINE
  5
29C
330
1F
100
AcDbEntity
  8
0-C_ハッチ
  6
JWW_DASHED1
 62
   120
370
     5
100
AcDbLine
 10
-108.1996211201619
 20
1680.505857597396
 30
0.0
 11
-33.19962112015332
 21
1755.505857597404
 31
0.0
  0
LINE
  5
29D
330
1F
100
AcDbEntity
  8
0-C_ハッチ
  6
JWW_DASHED1
 62
   120
370
     5
100
AcDbLine
 10
2.756895043390273
 20
1791.462373760947
 30
0.0
 11
77.75689504339539
 21
1866.462373760952
 31
0.0
  0
LINE
  5
29E
330
1F
100
AcDbEntity
  8
0-C_ハッチ
  6
JWW_DASHED1
 62
   120
370
     5
100
AcDbLine
 10
-108.1996211201482
 20
1722.932264468555
 30
0.0
 11
35.33048817224397
 21
1866.462373760947
 31
0.0
  0
LINE
  5
29F
330
1F
100
AcDbEntity
  8
0-C_ハッチ
  6
JWW_DASHED1
 62
   120
370
     5
100
AcDbLine
 10
-108.1996211201414
 20
1765.358671339763
 30
0.0
 11
-7.095918698967978
 21
1866.462373760935
 31
0.0
  0
LINE
  5
2A0
330
1F
100
AcDbEntity
  8
0-C_ハッチ
  6
JWW_DASHED1
 62
   120
370
     5
100
AcDbLine
 10
-108.1996211201448
 20
1807.785078210959
 30
0.0
 11
-49.52232557016458
 21
1866.462373760939
 31
0.0
  0
LINE
  5
2A1
330
1F
100
AcDbEntity
  8
0-C_ハッチ
  6
JWW_DASHED1
 62
   120
370
     5
100
AcDbLine
 10
-108.1996211201474
 20
1850.211485082156
 30
0.0
 11
-91.94873244136119
 21
1866.462373760942
 31
0.0
  0
MTEXT
  5
2A2
330
1F
100
AcDbEntity
  8
0-B_寸法
  6
Continuous
 62
     7
370
   211
100
AcDbMText
 10
-87.5814059746273
 20
-1270.14370971458
 30
0.0
 40
99.06
 41
195.0
 46
0.0
 71
     7
 72
     1
  1
{\fＭＳ ゴシック|b0|i0|c128|p49;130}
 73
     1
 44
1.0
  0
MTEXT
  5
2A3
330
1F
100
AcDbEntity
  8
0-B_寸法
  6
Continuous
 62
     7
370
   211
100
AcDbMText
 10
-278.0814060346347
 20
-1524.128840222053
 30
0.0
 40
91.44
 41
120.0
 46
0.0
 71
     7
 72
     1
  1
{\fＭＳ ゴシック|b0|i0|c128|p49;30}
 73
     1
 44
1.0
  0
LINE
  5
2A4
330
1F
100
AcDbEntity
  8
0-0_補助線
  6
JWW_HOJO
 62
   120
370
     5
100
AcDbLine
 10
-4492.003744288702
 20
696.4623737609386
 30
0.0
 11
1669.068307535352
 21
696.4623737609386
 31
0.0
  0
LINE
  5
2A5
330
1F
100
AcDbEntity
  8
0-0_補助線
  6
JWW_HOJO
 62
   120
370
     5
100
AcDbLine
 10
1669.068307535352
 20
2811.462533978227
 30
0.0
 11
1669.068307535352
 21
696.4623737609386
 31
0.0
  0
LINE
  5
2A6
330
1F
100
AcDbEntity
  8
0-0_補助線
  6
JWW_HOJO
 62
   120
370
     5
100
AcDbLine
 10
-4492.003744288702
 20
906.4623737609386
 30
0.0
 11
1669.068307535352
 21
906.4623737609386
 31
0.0
  0
LINE
  5
2A7
330
1F
100
AcDbEntity
  8
0-0_補助線
  6
JWW_HOJO
 62
   120
370
     5
100
AcDbLine
 10
-4492.003744288702
 20
1266.462373760939
 30
0.0
 11
1669.068307535352
 21
1266.462373760939
 31
0.0
  0
LINE
  5
2A8
330
1F
100
AcDbEntity
  8
0-0_補助線
  6
JWW_HOJO
 62
   120
370
     5
100
AcDbLine
 10
-4492.003744288702
 20
2811.462533978227
 30
0.0
 11
-4492.003744288702
 21
696.4623737609386
 31
0.0
  0
MTEXT
  5
2A9
330
1F
100
AcDbEntity
  8
0-B_寸法
  6
Continuous
 62
     7
370
   211
100
AcDbMText
 10
-134.0814060346364
 20
-1524.128840222053
 30
0.0
 40
91.44
 41
60.0
 46
0.0
 71
     7
 72
     1
  1
{\fＭＳ ゴシック|b0|i0|c128|p49;8}
 73
     1
 44
1.0
  0
LWPOLYLINE
  5
2AA
330
1F
100
AcDbEntity
  8
0-B_寸法
  6
Continuous
 62
     7
370
     9
100
AcDbPolyline
 90
        4
 70
     1
 43
3.0
 10
-4430.503744288702
 20
696.4623737609386
 42
0.4142135623731
 10
-4432.003744288702
 20
697.9623737609387
 42
0.4142135623731
 10
-4433.503744288702
 20
696.4623737609386
 42
0.4142135623731
 10
-4432.003744288702
 20
694.9623737609386
 42
0.4142135623731
  0
LWPOLYLINE
  5
2AB
330
1F
100
AcDbEntity
  8
0-B_寸法
  6
Continuous
 62
     7
370
     9
100
AcDbPolyline
 90
        4
 70
     1
 43
3.0
 10
-4250.503450555695
 20
906.4623737609386
 42
0.4142135623731
 10
-4252.003450555695
 20
907.9623737609387
 42
0.4142135623731
 10
-4253.503450555696
 20
906.4623737609386
 42
0.4142135623731
 10
-4252.003450555695
 20
904.9623737609386
 42
0.4142135623731
  0
LWPOLYLINE
  5
2AC
330
1F
100
AcDbEntity
  8
0-B_寸法
  6
Continuous
 62
     7
370
     9
100
AcDbPolyline
 90
        4
 70
     1
 43
3.0
 10
-4430.503744288702
 20
906.4623737609386
 42
0.4142135623731
 10
-4432.003744288702
 20
907.9623737609387
 42
0.4142135623731
 10
-4433.503744288702
 20
906.4623737609386
 42
0.4142135623731
 10
-4432.003744288702
 20
904.9623737609386
 42
0.4142135623731
  0
LINE
  5
2AD
330
1F
100
AcDbEntity
  8
0-B_寸法
  6
Continuous
 62
   120
370
     5
100
AcDbLine
 10
-4432.003744288702
 20
696.4623737609386
 30
0.0
 11
-4432.003744288702
 21
1266.462373760939
 31
0.0
  0
LINE
  5
2AE
330
1F
100
AcDbEntity
  8
0-B_寸法
  6
Continuous
 62
   120
370
     5
100
AcDbLine
 10
-4252.003450555695
 20
906.4623737609386
 30
0.0
 11
-4252.003450555695
 21
1266.462373760939
 31
0.0
  0
LINE
  5
2AF
330
1F
100
AcDbEntity
  8
0-0_補助線
  6
JWW_HOJO
 62
   120
370
     5
100
AcDbLine
 10
-2157.972748540046
 20
1266.462373760939
 30
0.0
 11
-2157.972748540046
 21
2811.462533978227
 31
0.0
  0
LINE
  5
2B0
330
1F
100
AcDbEntity
  8
0-0_補助線
  6
JWW_HOJO
 62
   120
370
     5
100
AcDbLine
 10
-2037.972748540046
 20
1266.462373760939
 30
0.0
 11
-2037.972748540046
 21
2811.462533978227
 31
0.0
  0
LINE
  5
2B1
330
1F
100
AcDbEntity
  8
0-0_補助線
  6
JWW_HOJO
 62
   120
370
     5
100
AcDbLine
 10
-754.9520752657472
 20
1266.462373760939
 30
0.0
 11
-754.9520752657472
 21
2811.462533978227
 31
0.0
  0
LINE
  5
2B2
330
1F
100
AcDbEntity
  8
0-0_補助線
  6
JWW_HOJO
 62
   120
370
     5
100
AcDbLine
 10
-634.9520752657472
 20
1266.462373760939
 30
0.0
 11
-634.9520752657472
 21
2811.462533978227
 31
0.0
  0
LINE
  5
2B3
330
1F
100
AcDbEntity
  8
0-0_補助線
  6
JWW_HOJO
 62
   120
370
     5
100
AcDbLine
 10
-3560.993458442058
 20
1266.462373760939
 30
0.0
 11
-3560.993458442058
 21
2811.462533978227
 31
0.0
  0
LINE
  5
2B4
330
1F
100
AcDbEntity
  8
0-0_補助線
  6
JWW_HOJO
 62
   120
370
     5
100
AcDbLine
 10
-3440.993458442058
 20
1266.462373760939
 30
0.0
 11
-3440.993458442058
 21
2811.462533978227
 31
0.0
  0
LWPOLYLINE
  5
2B5
330
1F
100
AcDbEntity
  8
0-B_寸法
  6
Continuous
 62
     7
370
     9
100
AcDbPolyline
 90
        4
 70
     1
 43
3.0
 10
1610.568307535352
 20
696.4623737609386
 42
0.4142135623731
 10
1609.068307535352
 20
697.9623737609387
 42
0.4142135623731
 10
1607.568307535352
 20
696.4623737609386
 42
0.4142135623731
 10
1609.068307535352
 20
694.9623737609386
 42
0.4142135623731
  0
MTEXT
  5
2B6
330
1F
100
AcDbEntity
  8
0-B_寸法
  6
Continuous
 62
     7
370
   211
100
AcDbMText
 10
-50.08140603463776
 20
-1524.128840222053
 30
0.0
 40
91.44
 41
120.0
 46
0.0
 71
     7
 72
     1
  1
{\fＭＳ ゴシック|b0|i0|c128|p49;30}
 73
     1
 44
1.0
  0
LINE
  5
2B7
330
1F
100
AcDbEntity
  8
0-B_寸法
  6
Continuous
 62
   120
370
     5
100
AcDbLine
 10
1429.067713679777
 20
906.4623737609386
 30
0.0
 11
1429.067713679777
 21
1266.462373760939
 31
0.0
  0
LINE
  5
2B8
330
1F
100
AcDbEntity
  8
0-B_寸法
  6
Continuous
 62
   120
370
     5
100
AcDbLine
 10
1429.068448159358
 20
906.4623737609386
 30
0.0
 11
1429.068448159358
 21
1266.462373760939
 31
0.0
  0
LWPOLYLINE
  5
2B9
330
1F
100
AcDbEntity
  8
0-B_寸法
  6
Continuous
 62
     7
370
     9
100
AcDbPolyline
 90
        4
 70
     1
 43
3.0
 10
1610.568307535352
 20
906.4623737609386
 42
0.4142135623731
 10
1609.068307535352
 20
907.9623737609387
 42
0.4142135623731
 10
1607.568307535352
 20
906.4623737609386
 42
0.4142135623731
 10
1609.068307535352
 20
904.9623737609386
 42
0.4142135623731
  0
LWPOLYLINE
  5
2BA
330
1F
100
AcDbEntity
  8
0-B_寸法
  6
Continuous
 62
     7
370
     9
100
AcDbPolyline
 90
        4
 70
     1
 43
3.0
 10
1430.567713679777
 20
906.4623737609386
 42
0.4142135623731
 10
1429.067713679777
 20
907.9623737609387
 42
0.4142135623731
 10
1427.567713679777
 20
906.4623737609386
 42
0.4142135623731
 10
1429.067713679777
 20
904.9623737609386
 42
0.4142135623731
  0
LWPOLYLINE
  5
2BB
330
1F
100
AcDbEntity
  8
0-B_寸法
  6
Continuous
 62
     7
370
     9
100
AcDbPolyline
 90
        4
 70
     1
 43
3.0
 10
1430.568448159358
 20
906.4623737609386
 42
0.4142135623731
 10
1429.068448159358
 20
907.9623737609387
 42
0.4142135623731
 10
1427.568448159358
 20
906.4623737609386
 42
0.4142135623731
 10
1429.068448159358
 20
904.9623737609386
 42
0.4142135623731
  0
LINE
  5
2BC
330
1F
100
AcDbEntity
  8
0-B_寸法
  6
Continuous
 62
   120
370
     5
100
AcDbLine
 10
1609.068307535352
 20
906.4623737609386
 30
0.0
 11
-4432.003744288702
 21
906.4623737609386
 31
0.0
  0
LINE
  5
2BD
330
1F
100
AcDbEntity
  8
0-B_寸法
  6
Continuous
 62
   120
370
     5
100
AcDbLine
 10
1609.068307535352
 20
696.4623737609386
 30
0.0
 11
1609.068307535352
 21
1266.462373760939
 31
0.0
  0
LINE
  5
2BE
330
1F
100
AcDbEntity
  8
0-B_寸法
  6
Continuous
 62
   120
370
     5
100
AcDbLine
 10
-4432.003744288702
 20
696.4623737609386
 30
0.0
 11
1609.068307535352
 21
696.4623737609386
 31
0.0
  0
LINE
  5
2BF
330
1F
100
AcDbEntity
  8
0-0_補助線
  6
JWW_HOJO
 62
   120
370
     5
100
AcDbLine
 10
602.3160065949228
 20
1266.462373760939
 30
0.0
 11
602.3160065949228
 21
2811.462533978227
 31
0.0
  0
LINE
  5
2C0
330
1F
100
AcDbEntity
  8
0-0_補助線
  6
JWW_HOJO
 62
   120
370
     5
100
AcDbLine
 10
722.3160065949228
 20
1266.462373760939
 30
0.0
 11
722.3160065949228
 21
2811.462533978227
 31
0.0
  0
LINE
  5
2C1
330
1F
100
AcDbEntity
  8
0-6_扉
  6
JWW_DASHED2
 62
    40
370
    15
100
AcDbLine
 10
722.3158878477636
 20
2412.462483111543
 30
0.0
 11
1429.068341993367
 21
2412.462533978228
 31
0.0
  0
LINE
  5
2C2
330
1F
100
AcDbEntity
  8
0-6_扉
  6
JWW_DASHED2
 62
    40
370
    15
100
AcDbLine
 10
722.3158878477636
 20
2592.462483111543
 30
0.0
 11
1429.068273077337
 21
2592.462533978224
 31
0.0
  0
LINE
  5
2C3
330
1F
100
AcDbEntity
  8
0-6_扉
  6
JWW_DASHED2
 62
    40
370
    15
100
AcDbLine
 10
-108.1997398673039
 20
2412.462483111543
 30
0.0
 11
602.3158878477636
 21
2412.462483111543
 31
0.0
  0
LINE
  5
2C4
330
1F
100
AcDbEntity
  8
0-6_扉
  6
JWW_DASHED2
 62
    40
370
    15
100
AcDbLine
 10
-108.1997398673039
 20
2592.462483111543
 30
0.0
 11
602.3158878477636
 21
2592.462483111543
 31
0.0
  0
LINE
  5
2C5
330
1F
100
AcDbEntity
  8
0-6_扉
  6
JWW_DASHED2
 62
    40
370
    15
100
AcDbLine
 10
722.3160065949228
 20
2184.462483111545
 30
0.0
 11
1429.068460740525
 21
2184.46253397823
 31
0.0
  0
LINE
  5
2C6
330
1F
100
AcDbEntity
  8
0-6_扉
  6
JWW_DASHED2
 62
    40
370
    15
100
AcDbLine
 10
722.3160065949228
 20
2364.462483111545
 30
0.0
 11
1429.068391824497
 21
2364.462533978224
 31
0.0
  0
LINE
  5
2C7
330
1F
100
AcDbEntity
  8
0-6_扉
  6
JWW_DASHED2
 62
    40
370
    15
100
AcDbLine
 10
-108.1996211201448
 20
2184.462483111545
 30
0.0
 11
602.3160065949228
 21
2184.462483111545
 31
0.0
  0
LINE
  5
2C8
330
1F
100
AcDbEntity
  8
0-6_扉
  6
JWW_DASHED2
 62
    40
370
    15
100
AcDbLine
 10
-108.1996211201448
 20
2364.462483111545
 30
0.0
 11
602.3160065949228
 21
2364.462483111545
 31
0.0
  0
LINE
  5
2C9
330
1F
100
AcDbEntity
  8
0-6_扉
  6
JWW_DASHED2
 62
    40
370
    15
100
AcDbLine
 10
722.3160065949228
 20
1956.462483111542
 30
0.0
 11
1429.068460740525
 21
1956.462533978227
 31
0.0
  0
LINE
  5
2CA
330
1F
100
AcDbEntity
  8
0-6_扉
  6
JWW_DASHED2
 62
    40
370
    15
100
AcDbLine
 10
722.3160065949228
 20
2136.462483111542
 30
0.0
 11
1429.068391824497
 21
2136.462533978221
 31
0.0
  0
LINE
  5
2CB
330
1F
100
AcDbEntity
  8
0-6_扉
  6
JWW_DASHED2
 62
    40
370
    15
100
AcDbLine
 10
-108.1996211201448
 20
1956.462483111542
 30
0.0
 11
602.3160065949228
 21
1956.462483111542
 31
0.0
  0
LINE
  5
2CC
330
1F
100
AcDbEntity
  8
0-6_扉
  6
JWW_DASHED2
 62
    40
370
    15
100
AcDbLine
 10
-108.1996211201448
 20
2136.462483111542
 30
0.0
 11
602.3160065949228
 21
2136.462483111542
 31
0.0
  0
LINE
  5
2CD
330
1F
100
AcDbEntity
  8
0-3_仕上げ
  6
Continuous
 62
    40
370
    15
100
AcDbLine
 10
-108.1996211201448
 20
1866.462373760939
 30
0.0
 11
602.3160065949228
 21
1866.462373760939
 31
0.0
  0
LINE
  5
2CE
330
1F
100
AcDbEntity
  8
0-3_仕上げ
  6
Continuous
 62
    40
370
    15
100
AcDbLine
 10
-108.1996211201448
 20
1446.462373760939
 30
0.0
 11
602.3160065949228
 21
1446.462373760939
 31
0.0
  0
LINE
  5
2CF
330
1F
100
AcDbEntity
  8
0-C_ハッチ
  6
JWW_DASHED1
 62
   120
370
     5
100
AcDbLine
 10
591.1378462096686
 20
1446.462373760935
 30
0.0
 11
602.3160065949228
 21
1457.64053414619
 31
0.0
  0
LINE
  5
2D0
330
1F
100
AcDbEntity
  8
0-C_ハッチ
  6
JWW_DASHED1
 62
   120
370
     5
100
AcDbLine
 10
548.7114393384725
 20
1446.462373760939
 30
0.0
 11
602.3160065949228
 21
1500.066941017388
 31
0.0
  0
LINE
  5
2D1
330
1F
100
AcDbEntity
  8
0-C_ハッチ
  6
JWW_DASHED1
 62
   120
370
     5
100
AcDbLine
 10
596.7265912401286
 20
1791.46237376094
 30
0.0
 11
602.3160065949228
 21
1797.051789115734
 31
0.0
  0
LINE
  5
2D2
330
1F
100
AcDbEntity
  8
0-C_ハッチ
  6
JWW_DASHED1
 62
   120
370
     5
100
AcDbLine
 10
554.3001843689325
 20
1791.462373760945
 30
0.0
 11
602.3160065949228
 21
1839.478195986934
 31
0.0
  0
LINE
  5
2D3
330
1F
100
AcDbEntity
  8
0-3_仕上げ
  6
Continuous
 62
    40
370
    15
100
AcDbLine
 10
-33.1996211201448
 20
1791.462373760939
 30
0.0
 11
602.3160065949228
 21
1791.462373760939
 31
0.0
  0
LINE
  5
2D4
330
1F
100
AcDbEntity
  8
0-3_仕上げ
  6
Continuous
 62
    40
370
    15
100
AcDbLine
 10
-33.1996211201448
 20
1521.462373760939
 30
0.0
 11
602.3160065949228
 21
1521.462373760939
 31
0.0
  0
LINE
  5
2D5
330
1F
100
AcDbEntity
  8
0-3_仕上げ
  6
Continuous
 62
    40
370
    15
100
AcDbLine
 10
722.3160065949228
 20
1866.462373760939
 30
0.0
 11
1609.068307535352
 21
1866.462373760939
 31
0.0
  0
LINE
  5
2D6
330
1F
100
AcDbEntity
  8
0-3_仕上げ
  6
Continuous
 62
    40
370
    15
100
AcDbLine
 10
722.3160065949228
 20
1446.462373760939
 30
0.0
 11
1609.068307535352
 21
1446.462373760939
 31
0.0
  0
LINE
  5
2D7
330
1F
100
AcDbEntity
  8
0-3_仕上げ
  6
Continuous
 62
    40
370
    15
100
AcDbLine
 10
722.3160065949228
 20
1791.462373760939
 30
0.0
 11
1609.068307535352
 21
1791.462373760939
 31
0.0
  0
LINE
  5
2D8
330
1F
100
AcDbEntity
  8
0-3_仕上げ
  6
Continuous
 62
    40
370
    15
100
AcDbLine
 10
722.3160065949228
 20
1521.462373760939
 30
0.0
 11
1609.068307535352
 21
1521.462373760939
 31
0.0
  0
LINE
  5
2D9
330
1F
100
AcDbEntity
  8
0-C_ハッチ
  6
JWW_DASHED1
 62
   120
370
     5
100
AcDbLine
 10
797.1588498237153
 20
1446.462373760945
 30
0.0
 11
872.1588498237127
 21
1521.462373760942
 31
0.0
  0
LINE
  5
2DA
330
1F
100
AcDbEntity
  8
0-C_ハッチ
  6
JWW_DASHED1
 62
   120
370
     5
100
AcDbLine
 10
802.7475948541744
 20
1791.46237376095
 30
0.0
 11
877.747594854168
 21
1866.462373760943
 31
0.0
  0
LINE
  5
2DB
330
1F
100
AcDbEntity
  8
0-C_ハッチ
  6
JWW_DASHED1
 62
   120
370
     5
100
AcDbLine
 10
754.7324429525152
 20
1446.462373760945
 30
0.0
 11
829.7324429525127
 21
1521.462373760942
 31
0.0
  0
LINE
  5
2DC
330
1F
100
AcDbEntity
  8
0-C_ハッチ
  6
JWW_DASHED1
 62
   120
370
     5
100
AcDbLine
 10
760.3211879829744
 20
1791.46237376095
 30
0.0
 11
835.321187982968
 21
1866.462373760943
 31
0.0
  0
LINE
  5
2DD
330
1F
100
AcDbEntity
  8
0-C_ハッチ
  6
JWW_DASHED1
 62
   120
370
     5
100
AcDbLine
 10
722.3160065949228
 20
1838.310006115297
 30
0.0
 11
750.4683742405679
 21
1866.462373760943
 31
0.0
  0
LINE
  5
2DE
330
1F
100
AcDbEntity
  8
0-C_ハッチ
  6
JWW_DASHED1
 62
   120
370
     5
100
AcDbLine
 10
722.3160065949228
 20
1456.472344274552
 30
0.0
 11
787.3060360813126
 21
1521.462373760942
 31
0.0
  0
LINE
  5
2DF
330
1F
100
AcDbEntity
  8
0-C_ハッチ
  6
JWW_DASHED1
 62
   120
370
     5
100
AcDbLine
 10
722.3160065949228
 20
1795.883599244098
 30
0.0
 11
792.894781111768
 21
1866.462373760943
 31
0.0
  0
LINE
  5
2E0
330
1F
100
AcDbEntity
  8
0-C_ハッチ
  6
JWW_DASHED1
 62
   120
370
     5
100
AcDbLine
 10
722.3160065949228
 20
1498.898751145753
 30
0.0
 11
744.8796292101126
 21
1521.462373760942
 31
0.0
  0
LINE
  5
2E1
330
1F
100
AcDbEntity
  8
0-C_ハッチ
  6
Continuous
 62
   120
370
     5
100
AcDbLine
 10
-4429.003744288702
 20
1945.166436261741
 30
0.0
 11
-4255.003309413217
 21
2119.168646199554
 31
0.0
  0
LINE
  5
2E2
330
1F
100
AcDbEntity
  8
0-7_金物
  6
Continuous
 62
   120
370
     5
100
AcDbLine
 10
-634.9520752657472
 20
2616.462533978225
 30
0.0
 11
602.3160065949228
 21
2616.462533978225
 31
0.0
  0
LINE
  5
2E3
330
1F
100
AcDbEntity
  8
0-7_金物
  6
Continuous
 62
   120
370
     5
100
AcDbLine
 10
722.3160065949228
 20
2616.462533978225
 30
0.0
 11
1429.068307535352
 21
2616.462533978225
 31
0.0
  0
LINE
  5
2E4
330
1F
100
AcDbEntity
  8
0-7_金物
  6
Continuous
 62
   120
370
     5
100
AcDbLine
 10
-634.9520752657472
 20
1932.462533978226
 30
0.0
 11
602.3160065949228
 21
1932.462533978226
 31
0.0
  0
LINE
  5
2E5
330
1F
100
AcDbEntity
  8
0-7_金物
  6
Continuous
 62
   120
370
     5
100
AcDbLine
 10
722.3160065949228
 20
1932.462533978226
 30
0.0
 11
1429.068307535352
 21
1932.462533978226
 31
0.0
  0
MTEXT
  5
2E6
330
1F
100
AcDbEntity
  8
0-B_寸法
  6
Continuous
 62
     7
370
   211
100
AcDbMText
 10
93.91859396536088
 20
-1524.128840222053
 30
0.0
 40
91.44
 41
60.0
 46
0.0
 71
     7
 72
     1
  1
{\fＭＳ ゴシック|b0|i0|c128|p49;8}
 73
     1
 44
1.0
  0
MTEXT
  5
2E7
330
1F
100
AcDbEntity
  8
0-B_寸法
  6
Continuous
 62
     7
370
   211
100
AcDbMText
 10
177.9185939653595
 20
-1524.128840222053
 30
0.0
 40
91.44
 41
120.0
 46
0.0
 71
     7
 72
     1
  1
{\fＭＳ ゴシック|b0|i0|c128|p49;30}
 73
     1
 44
1.0
  0
LINE
  5
2E8
330
1F
100
AcDbEntity
  8
0-A_文字
  6
Continuous
 62
     7
370
     9
100
AcDbLine
 10
1753.930181260265
 20
2859.462533952609
 30
0.0
 11
1693.930181260265
 21
2859.462533952609
 31
0.0
  0
LINE
  5
2E9
330
1F
100
AcDbEntity
  8
0-A_文字
  6
Continuous
 62
     7
370
     9
100
AcDbLine
 10
1548.672562652421
 20
2607.868958337358
 30
0.0
 11
1693.930181260265
 21
2859.462533952609
 31
0.0
  0
LINE
  5
2EA
330
1F
100
AcDbEntity
  8
0-7_金物
  6
Continuous
 62
     7
370
     9
100
AcDbLine
 10
-230.8569648195446
 20
-747.5507440946479
 30
0.0
 11
-230.8569648195446
 21
-819.8487133734806
 31
0.0
  0
LINE
  5
2EB
330
1F
100
AcDbEntity
  8
0-7_金物
  6
Continuous
 62
     7
370
     9
100
AcDbLine
 10
-206.8569648195459
 20
-747.5507440946479
 30
0.0
 11
-206.8569648195459
 21
-819.8487133734806
 31
0.0
  0
LINE
  5
2EC
330
1F
100
AcDbEntity
  8
0-7_金物
  6
Continuous
 62
     7
370
     9
100
AcDbLine
 10
-2.856964849553805
 20
-747.5507440946479
 30
0.0
 11
-2.856964849553805
 21
-819.8487133734806
 31
0.0
  0
LINE
  5
2ED
330
1F
100
AcDbEntity
  8
0-7_金物
  6
Continuous
 62
     7
370
     9
100
AcDbLine
 10
21.14303515044483
 20
-747.5507440946479
 30
0.0
 11
21.14303515044483
 21
-819.8487133734806
 31
0.0
  0
LINE
  5
2EE
330
1F
100
AcDbEntity
  8
0-7_金物
  6
Continuous
 62
     7
370
     9
100
AcDbLine
 10
249.1430351504472
 20
-747.5507440946479
 30
0.0
 11
249.1430351504472
 21
-819.8487133734806
 31
0.0
  0
LINE
  5
2EF
330
1F
100
AcDbEntity
  8
0-7_金物
  6
Continuous
 62
     7
370
     9
100
AcDbLine
 10
225.1430351504452
 20
-747.5507440946479
 30
0.0
 11
225.1430351504452
 21
-819.8487133734806
 31
0.0
  0
LWPOLYLINE
  5
2F0
330
1F
100
AcDbEntity
  8
0-B_寸法
  6
Continuous
 62
     7
370
     9
100
AcDbPolyline
 90
        4
 70
     1
 43
3.0
 10
868.8248657658328
 20
-819.8487133734809
 42
0.4142135623731
 10
867.3248657658328
 20
-818.3487133734809
 42
0.4142135623731
 10
865.8248657658327
 20
-819.8487133734809
 42
0.4142135623731
 10
867.3248657658328
 20
-821.348713373481
 42
0.4142135623731
  0
LINE
  5
2F1
330
1F
100
AcDbEntity
  8
0-B_寸法
  6
Continuous
 62
   120
370
     5
100
AcDbLine
 10
867.3248657658328
 20
-819.8487133734809
 30
0.0
 11
657.3248657658328
 21
-819.8487133734809
 31
0.0
  0
LINE
  5
2F2
330
1F
100
AcDbEntity
  8
0-B_寸法
  6
Continuous
 62
   120
370
     5
100
AcDbLine
 10
867.3248657658328
 20
-819.8487133734809
 30
0.0
 11
867.3248657658328
 21
-738.8487133734814
 31
0.0
  0
LINE
  5
2F3
330
1F
100
AcDbEntity
  8
0-B_寸法
  6
Continuous
 62
   120
370
     5
100
AcDbLine
 10
867.3248657658324
 20
-3099.848919635541
 30
0.0
 11
867.3248657658328
 21
-819.8487133734809
 31
0.0
  0
LINE
  5
2F4
330
1F
100
AcDbEntity
  8
0-6_扉
  6
Continuous
 62
   200
370
    20
100
AcDbLine
 10
99.91859396536267
 20
-819.8487133734806
 30
0.0
 11
99.91859396536225
 21
-1146.705968154041
 31
0.0
  0
LINE
  5
2F5
330
1F
100
AcDbEntity
  8
0-6_扉
  6
Continuous
 62
   200
370
    20
100
AcDbLine
 10
327.9185939653603
 20
-819.8487133734806
 30
0.0
 11
147.9185939653599
 21
-819.8487133734806
 31
0.0
  0
LINE
  5
2F6
330
1F
100
AcDbEntity
  8
0-6_扉
  6
Continuous
 62
   200
370
    20
100
AcDbLine
 10
99.91859396536267
 20
-819.8487133734806
 30
0.0
 11
-80.08140603463733
 21
-819.8487133734806
 31
0.0
  0
LINE
  5
2F7
330
1F
100
AcDbEntity
  8
0-6_扉
  6
Continuous
 62
   200
370
    20
100
AcDbLine
 10
327.9185939653603
 20
-819.8487133734806
 30
0.0
 11
327.9185939653599
 21
-1884.848713373476
 31
0.0
  0
LINE
  5
2F8
330
1F
100
AcDbEntity
  8
0-6_扉
  6
Continuous
 62
   200
370
    20
100
AcDbLine
 10
-128.081406034635
 20
-819.8487133734806
 30
0.0
 11
-308.0814060346351
 21
-819.8487133734806
 31
0.0
  0
LINE
  5
2F9
330
1F
100
AcDbEntity
  8
0-6_扉
  6
Continuous
 62
   200
370
    20
100
AcDbLine
 10
-308.0814060346351
 20
-819.8487133734806
 30
0.0
 11
-308.0814060346351
 21
-1884.848713373476
 31
0.0
  0
LINE
  5
2FA
330
1F
100
AcDbEntity
  8
0-6_扉
  6
Continuous
 62
   200
370
    20
100
AcDbLine
 10
-80.08140603463733
 20
-819.8487133734806
 30
0.0
 11
-80.08140603463775
 21
-1146.705968154041
 31
0.0
  0
LINE
  5
2FB
330
1F
100
AcDbEntity
  8
0-6_扉
  6
Continuous
 62
   200
370
    20
100
AcDbLine
 10
-128.081406034635
 20
-819.8487133734806
 30
0.0
 11
-128.081406034635
 21
-1386.848840222052
 31
0.0
  0
LINE
  5
2FC
330
1F
100
AcDbEntity
  8
0-6_扉
  6
Continuous
 62
   200
370
    20
100
AcDbLine
 10
147.9185939653599
 20
-819.8487133734806
 30
0.0
 11
147.9185939653595
 21
-1386.848840222052
 31
0.0
  0
LINE
  5
2FD
330
1F
100
AcDbEntity
  8
0-B_寸法
  6
Continuous
 62
   120
370
     5
100
AcDbLine
 10
-108.1997398673039
 20
3171.462533978227
 30
0.0
 11
1609.068307535352
 21
3171.462533978227
 31
0.0
  0
LWPOLYLINE
  5
2FE
330
1F
100
AcDbEntity
  8
0-B_寸法
  6
Continuous
 62
     7
370
     9
100
AcDbPolyline
 90
        4
 70
     1
 43
3.0
 10
-106.6997398673039
 20
3171.462533978227
 42
0.4142135623731
 10
-108.1997398673039
 20
3172.962533978227
 42
0.4142135623731
 10
-109.6997398673039
 20
3171.462533978227
 42
0.4142135623731
 10
-108.1997398673039
 20
3169.962533978227
 42
0.4142135623731
  0
LWPOLYLINE
  5
2FF
330
1F
100
AcDbEntity
  8
0-B_寸法
  6
Continuous
 62
     7
370
     9
100
AcDbPolyline
 90
        4
 70
     1
 43
3.0
 10
1610.568307535352
 20
3171.462533978227
 42
0.4142135623731
 10
1609.068307535352
 20
3172.962533978227
 42
0.4142135623731
 10
1607.568307535352
 20
3171.462533978227
 42
0.4142135623731
 10
1609.068307535352
 20
3169.962533978227
 42
0.4142135623731
  0
LINE
  5
300
330
1F
100
AcDbEntity
  8
0-B_寸法
  6
Continuous
 62
   120
370
     5
100
AcDbLine
 10
-108.1997398673039
 20
3171.462533978227
 30
0.0
 11
-108.1997398673039
 21
2811.462533978227
 31
0.0
  0
LINE
  5
301
330
1F
100
AcDbEntity
  8
0-B_寸法
  6
Continuous
 62
   120
370
     5
100
AcDbLine
 10
1609.068307535352
 20
3171.462533978227
 30
0.0
 11
1609.068307535352
 21
2811.462533978227
 31
0.0
  0
MTEXT
  5
302
330
1F
100
AcDbEntity
  8
0-B_寸法
  6
Continuous
 62
     7
370
   211
100
AcDbMText
 10
-281.8314059290223
 20
-2811.123689206626
 30
0.0
 40
97.15499999999997
 41
127.5
 46
0.0
 71
     7
 72
     1
  1
{\fＭＳ ゴシック|b0|i0|c128|p49;38}
 73
     1
 44
1.0
  0
LINE
  5
303
330
1F
100
AcDbEntity
  8
0-B_寸法
  6
Continuous
 62
   120
370
     5
100
AcDbLine
 10
-108.1996211201448
 20
2991.462533978227
 30
0.0
 11
71.80030996382669
 21
2991.462533978227
 31
0.0
  0
LWPOLYLINE
  5
304
330
1F
100
AcDbEntity
  8
0-B_寸法
  6
Continuous
 62
     7
370
     9
100
AcDbPolyline
 90
        4
 70
     1
 43
3.0
 10
-106.6996211201448
 20
2991.462533978227
 42
0.4142135623731
 10
-108.1996211201448
 20
2992.962533978227
 42
0.4142135623731
 10
-109.6996211201448
 20
2991.462533978227
 42
0.4142135623731
 10
-108.1996211201448
 20
2989.962533978227
 42
0.4142135623731
  0
LWPOLYLINE
  5
305
330
1F
100
AcDbEntity
  8
0-B_寸法
  6
Continuous
 62
     7
370
     9
100
AcDbPolyline
 90
        4
 70
     1
 43
3.0
 10
73.30030996382669
 20
2991.462533978227
 42
0.4142135623731
 10
71.80030996382669
 20
2992.962533978227
 42
0.4142135623731
 10
70.30030996382669
 20
2991.462533978227
 42
0.4142135623731
 10
71.80030996382669
 20
2989.962533978227
 42
0.4142135623731
  0
LINE
  5
306
330
1F
100
AcDbEntity
  8
0-B_寸法
  6
Continuous
 62
   120
370
     5
100
AcDbLine
 10
-108.1996211201448
 20
2991.462533978227
 30
0.0
 11
-108.1996211201448
 21
2811.462533978227
 31
0.0
  0
LINE
  5
307
330
1F
100
AcDbEntity
  8
0-B_寸法
  6
Continuous
 62
   120
370
     5
100
AcDbLine
 10
71.80030996382669
 20
2991.462533978227
 30
0.0
 11
71.80030996382669
 21
2811.462533978227
 31
0.0
  0
MTEXT
  5
308
330
1F
100
AcDbEntity
  8
0-B_寸法
  6
Continuous
 62
     7
370
   211
100
AcDbMText
 10
-53.83140594402693
 20
-2811.123689206626
 30
0.0
 40
97.15499999999999
 41
127.5
 46
0.0
 71
     7
 72
     1
  1
{\fＭＳ ゴシック|b0|i0|c128|p49;38}
 73
     1
 44
1.0
  0
MTEXT
  5
309
330
1F
100
AcDbEntity
  8
0-B_寸法
  6
Continuous
 62
     7
370
   211
100
AcDbMText
 10
174.1685940409683
 20
-2811.123689206626
 30
0.0
 40
97.15500000000002
 41
127.5
 46
0.0
 71
     7
 72
     1
  1
{\fＭＳ ゴシック|b0|i0|c128|p49;38}
 73
     1
 44
1.0
  0
LINE
  5
30A
330
1F
100
AcDbEntity
  8
0-4_枠
  6
Continuous
 62
    92
370
    13
100
AcDbLine
 10
-4429.003744288702
 20
1863.462099102736
 30
0.0
 11
-4429.003744288702
 21
1950.462533978226
 31
0.0
  0
LINE
  5
30B
330
1F
100
AcDbEntity
  8
0-4_枠
  6
Continuous
 62
    92
370
    13
100
AcDbLine
 10
-4429.003744288702
 20
1950.462533978226
 30
0.0
 11
-4432.003595824812
 21
1950.462533978226
 31
0.0
  0
LINE
  5
30C
330
1F
100
AcDbEntity
  8
0-4_枠
  6
Continuous
 62
    92
370
    13
100
AcDbLine
 10
-4264.731666350061
 20
1860.462533978226
 30
0.0
 11
-4432.003744288702
 21
1860.462533978226
 31
0.0
  0
LINE
  5
30D
330
1F
100
AcDbEntity
  8
0-4_枠
  6
Continuous
 62
    92
370
    13
100
AcDbLine
 10
-4252.003744288702
 20
1873.190456039584
 30
0.0
 11
-4252.003744288702
 21
2379.462533978225
 31
0.0
  0
LINE
  5
30E
330
1F
100
AcDbEntity
  8
0-4_枠
  6
Continuous
 62
    92
370
    13
100
AcDbLine
 10
-4264.731666350061
 20
1860.462533978226
 30
0.0
 11
-4252.003744288702
 21
1873.190456039584
 31
0.0
  0
LINE
  5
30F
330
1F
100
AcDbEntity
  8
0-4_枠
  6
Continuous
 62
    92
370
    13
100
AcDbLine
 10
-4255.003309413217
 20
1874.43353160219
 30
0.0
 11
-4255.003309413217
 21
2376.462533978227
 31
0.0
  0
LINE
  5
310
330
1F
100
AcDbEntity
  8
0-4_枠
  6
Continuous
 62
    92
370
    13
100
AcDbLine
 10
-4265.974741912672
 20
1863.462099102736
 30
0.0
 11
-4255.003309413217
 21
1874.43353160219
 31
0.0
  0
LINE
  5
311
330
1F
100
AcDbEntity
  8
0-4_枠
  6
Continuous
 62
    92
370
    13
100
AcDbLine
 10
-4265.974741912672
 20
1863.462099102736
 30
0.0
 11
-4429.003744288702
 21
1863.462099102736
 31
0.0
  0
LINE
  5
312
330
1F
100
AcDbEntity
  8
0-B_寸法
  6
Continuous
 62
   120
370
     5
100
AcDbLine
 10
-3892.003892752597
 20
1860.462533978226
 30
0.0
 11
-4072.003892752597
 21
1860.462533978226
 31
0.0
  0
LWPOLYLINE
  5
313
330
1F
100
AcDbEntity
  8
0-B_寸法
  6
Continuous
 62
     7
370
     9
100
AcDbPolyline
 90
        4
 70
     1
 43
3.0
 10
-3890.503892752597
 20
1860.462533978226
 42
0.4142135623731
 10
-3892.003892752597
 20
1861.962533978226
 42
0.4142135623731
 10
-3893.503892752597
 20
1860.462533978226
 42
0.4142135623731
 10
-3892.003892752597
 20
1858.962533978227
 42
0.4142135623731
  0
LINE
  5
314
330
1F
100
AcDbEntity
  8
0-4_枠
  6
Continuous
 62
    92
370
    13
100
AcDbLine
 10
-4264.731666350061
 20
2688.462533978226
 30
0.0
 11
-4432.003744288702
 21
2688.462533978226
 31
0.0
  0
LINE
  5
315
330
1F
100
AcDbEntity
  8
0-4_枠
  6
Continuous
 62
    92
370
    13
100
AcDbLine
 10
-4429.003744288702
 20
2589.462533978225
 30
0.0
 11
-4429.003744288702
 21
2685.462373760939
 31
0.0
  0
LINE
  5
316
330
1F
100
AcDbEntity
  8
0-4_枠
  6
Continuous
 62
    92
370
    13
100
AcDbLine
 10
-4252.003744288702
 20
2675.734611916868
 30
0.0
 11
-4252.003744288702
 21
2625.462533978226
 31
0.0
  0
LINE
  5
317
330
1F
100
AcDbEntity
  8
0-4_枠
  6
Continuous
 62
    92
370
    13
100
AcDbLine
 10
-4252.003744288702
 20
2675.734611916868
 30
0.0
 11
-4264.731666350061
 21
2688.462533978226
 31
0.0
  0
LINE
  5
318
330
1F
100
AcDbEntity
  8
0-4_枠
  6
Continuous
 62
    92
370
    13
100
AcDbLine
 10
-4265.974146819894
 20
2685.462373760939
 30
0.0
 11
-4429.003744288702
 21
2685.462373760939
 31
0.0
  0
LINE
  5
319
330
1F
100
AcDbEntity
  8
0-4_枠
  6
Continuous
 62
    92
370
    13
100
AcDbLine
 10
-4255.003309413217
 20
2674.491536354263
 30
0.0
 11
-4265.974146819894
 21
2685.462373760939
 31
0.0
  0
LINE
  5
31A
330
1F
100
AcDbEntity
  8
0-4_枠
  6
Continuous
 62
    92
370
    13
100
AcDbLine
 10
-4255.003309413217
 20
2674.491536354263
 30
0.0
 11
-4255.003309413217
 21
2628.462533978227
 31
0.0
  0
LINE
  5
31B
330
1F
100
AcDbEntity
  8
0-B_寸法
  6
Continuous
 62
   120
370
     5
100
AcDbLine
 10
-3892.003892752597
 20
2688.462533978226
 30
0.0
 11
-4072.003892752597
 21
2688.462533978226
 31
0.0
  0
LWPOLYLINE
  5
31C
330
1F
100
AcDbEntity
  8
0-B_寸法
  6
Continuous
 62
     7
370
     9
100
AcDbPolyline
 90
        4
 70
     1
 43
3.0
 10
-3890.503892752597
 20
2688.462533978226
 42
0.4142135623731
 10
-3892.003892752597
 20
2689.962533978226
 42
0.4142135623731
 10
-3893.503892752597
 20
2688.462533978226
 42
0.4142135623731
 10
-3892.003892752597
 20
2686.962533978226
 42
0.4142135623731
  0
LINE
  5
31D
330
1F
100
AcDbEntity
  8
0-4_枠
  6
Continuous
 62
    92
370
    13
100
AcDbLine
 10
1606.068307535351
 20
2685.462968853716
 30
0.0
 11
1606.068307535351
 21
2598.462533978226
 31
0.0
  0
LINE
  5
31E
330
1F
100
AcDbEntity
  8
0-4_枠
  6
Continuous
 62
    92
370
    13
100
AcDbLine
 10
1606.068307535351
 20
2598.462533978226
 30
0.0
 11
1609.068159071461
 21
2598.462533978226
 31
0.0
  0
LINE
  5
31F
330
1F
100
AcDbEntity
  8
0-4_枠
  6
Continuous
 62
    92
370
    13
100
AcDbLine
 10
1441.79622959671
 20
2688.462533978226
 30
0.0
 11
1609.068307535352
 21
2688.462533978226
 31
0.0
  0
LINE
  5
320
330
1F
100
AcDbEntity
  8
0-4_枠
  6
Continuous
 62
    92
370
    13
100
AcDbLine
 10
1429.068307535352
 20
2675.734611916868
 30
0.0
 11
1441.79622959671
 21
2688.462533978226
 31
0.0
  0
LINE
  5
321
330
1F
100
AcDbEntity
  8
0-4_枠
  6
Continuous
 62
    92
370
    13
100
AcDbLine
 10
1432.067872659866
 20
2674.491536354263
 30
0.0
 11
1443.03930515932
 21
2685.462968853716
 31
0.0
  0
LINE
  5
322
330
1F
100
AcDbEntity
  8
0-4_枠
  6
Continuous
 62
    92
370
    13
100
AcDbLine
 10
1443.03930515932
 20
2685.462968853716
 30
0.0
 11
1606.068307535351
 21
2685.462968853716
 31
0.0
  0
LINE
  5
323
330
1F
100
AcDbEntity
  8
0-4_枠
  6
Continuous
 62
    92
370
    13
100
AcDbLine
 10
1609.068307535352
 20
2688.462533978226
 30
0.0
 11
1609.068307535352
 21
1866.462373760939
 31
0.0
  0
LINE
  5
324
330
1F
100
AcDbEntity
  8
0-4_枠
  6
Continuous
 62
    92
370
    13
100
AcDbLine
 10
1429.068307535352
 20
2675.734611916868
 30
0.0
 11
1429.068307535352
 21
1879.190295822296
 31
0.0
  0
LINE
  5
325
330
1F
100
AcDbEntity
  8
0-4_枠
  6
Continuous
 62
    92
370
    13
100
AcDbLine
 10
1432.067872659866
 20
2674.491536354263
 30
0.0
 11
1432.067872659866
 21
1880.433371384902
 31
0.0
  0
LINE
  5
326
330
1F
100
AcDbEntity
  8
0-4_枠
  6
Continuous
 62
    92
370
    13
100
AcDbLine
 10
-4432.003744288702
 20
1860.462533978226
 30
0.0
 11
-4432.003744288702
 21
2688.462533978226
 31
0.0
  0
LINE
  5
327
330
1F
100
AcDbEntity
  8
0-B_寸法
  6
Continuous
 62
   120
370
     5
100
AcDbLine
 10
-3892.003892752597
 20
1860.462533978226
 30
0.0
 11
-3892.003892752597
 21
2688.462533978226
 31
0.0
  0
LINE
  5
328
330
1F
100
AcDbEntity
  8
0-C_ハッチ
  6
Continuous
 62
   120
370
     5
100
AcDbLine
 10
1502.779973765916
 20
2685.462968853716
 30
0.0
 11
1432.0680646331
 21
2614.751059720903
 31
0.0
  0
LINE
  5
329
330
1F
100
AcDbEntity
  8
0-C_ハッチ
  6
Continuous
 62
   120
370
     5
100
AcDbLine
 10
1432.068096168115
 20
2555.354121636215
 30
0.0
 11
1562.176943385618
 21
2685.462968853716
 31
0.0
  0
LINE
  5
32A
330
1F
100
AcDbEntity
  8
0-C_ハッチ
  6
Continuous
 62
   120
370
     5
100
AcDbLine
 10
-4432.003595824812
 20
2553.108280927479
 30
0.0
 11
-4299.649348890544
 21
2685.462373760939
 31
0.0
  0
LINE
  5
32B
330
1F
100
AcDbEntity
  8
0-C_ハッチ
  6
Continuous
 62
   120
370
     5
100
AcDbLine
 10
-4429.003744288702
 20
2623.990284798516
 30
0.0
 11
-4367.53158375389
 21
2685.462373760939
 31
0.0
  0
LINE
  5
32C
330
1F
100
AcDbEntity
  8
0-4_枠
  6
Continuous
 62
   120
370
     5
100
AcDbLine
 10
-404.0814060346401
 20
-2004.848713373476
 30
0.0
 11
-404.0814060346406
 21
-3186.848919635541
 31
0.0
  0
LINE
  5
32D
330
1F
100
AcDbEntity
  8
0-4_枠
  6
Continuous
 62
   120
370
     5
100
AcDbLine
 10
-404.0814060346397
 20
-558.8487133734814
 30
0.0
 11
-404.0814060346401
 21
-1884.848713373475
 31
0.0
  0
LINE
  5
32E
330
1F
100
AcDbEntity
  8
0-4_枠
  6
Continuous
 62
    92
370
    13
100
AcDbLine
 10
-380.08140603464
 20
-738.8487133734814
 30
0.0
 11
-380.0814060346396
 21
-558.8487133734814
 31
0.0
  0
LINE
  5
32F
330
1F
100
AcDbEntity
  8
0-4_枠
  6
Continuous
 62
    92
370
    13
100
AcDbLine
 10
-377.081840910129
 20
-735.8487133734841
 30
0.0
 11
-377.0818409101286
 21
-561.848713373482
 31
0.0
  0
LINE
  5
330
330
1F
100
AcDbEntity
  8
0-4_枠
  6
Continuous
 62
    92
370
    13
100
AcDbLine
 10
-377.081840910129
 20
-735.8487133734841
 30
0.0
 11
-302.8569647895425
 21
-735.8487133734841
 31
0.0
  0
LINE
  5
331
330
1F
100
AcDbEntity
  8
0-4_枠
  6
Continuous
 62
    92
370
    13
100
AcDbLine
 10
-302.8569647895425
 20
-738.8487133734814
 30
0.0
 11
-380.08140603464
 21
-738.8487133734814
 31
0.0
  0
LINE
  5
332
330
1F
100
AcDbEntity
  8
0-4_枠
  6
Continuous
 62
   120
370
     5
100
AcDbLine
 10
-404.0814060346397
 20
-558.8487133734814
 30
0.0
 11
-380.0814060346396
 21
-558.8487133734814
 31
0.0
  0
LINE
  5
333
330
1F
100
AcDbEntity
  8
0-4_枠
  6
Continuous
 62
    92
370
    13
100
AcDbLine
 10
-290.0814060346396
 20
-561.848713373482
 30
0.0
 11
-377.0818409101286
 21
-561.848713373482
 31
0.0
  0
LINE
  5
334
330
1F
100
AcDbEntity
  8
0-4_枠
  6
Continuous
 62
    92
370
    13
100
AcDbLine
 10
-290.0814060346396
 20
-558.8487133734814
 30
0.0
 11
-290.0814060346396
 21
-561.848713373482
 31
0.0
  0
LINE
  5
335
330
1F
100
AcDbEntity
  8
0-C_ハッチ
  6
Continuous
 62
   120
370
     5
100
AcDbLine
 10
-377.0818409101286
 20
-588.6917717760231
 30
0.0
 11
-350.238782507587
 21
-561.848713373482
 31
0.0
  0
LINE
  5
336
330
1F
100
AcDbEntity
  8
0-C_ハッチ
  6
Continuous
 62
   120
370
     5
100
AcDbLine
 10
-377.0818409101289
 20
-707.4857110153722
 30
0.0
 11
-228.4448432682397
 21
-558.8487133734814
 31
0.0
  0
LINE
  5
337
330
1F
100
AcDbEntity
  8
0-C_ハッチ
  6
Continuous
 62
   120
370
     5
100
AcDbLine
 10
-377.0818409101288
 20
-648.0887413957262
 30
0.0
 11
-287.841812887887
 21
-558.8487133734814
 31
0.0
  0
LINE
  5
338
330
1F
100
AcDbEntity
  8
0-4_枠
  6
Continuous
 62
   120
370
     5
100
AcDbLine
 10
423.9185939653596
 20
-3186.848919635541
 30
0.0
 11
423.91859396536
 21
-2004.848713373476
 31
0.0
  0
LINE
  5
339
330
1F
100
AcDbEntity
  8
0-4_枠
  6
Continuous
 62
   120
370
     5
100
AcDbLine
 10
423.9185939653605
 20
-1884.848713373476
 30
0.0
 11
423.9185939653605
 21
-558.8487133734814
 31
0.0
  0
LINE
  5
33A
330
1F
100
AcDbEntity
  8
0-4_枠
  6
Continuous
 62
    92
370
    13
100
AcDbLine
 10
309.9185939653609
 20
-561.848713373482
 30
0.0
 11
309.9185939653609
 21
-558.8487133734814
 31
0.0
  0
LINE
  5
33B
330
1F
100
AcDbEntity
  8
0-4_枠
  6
Continuous
 62
    92
370
    13
100
AcDbLine
 10
309.9185939653609
 20
-561.848713373482
 30
0.0
 11
396.9184337480773
 21
-561.848713373482
 31
0.0
  0
LINE
  5
33C
330
1F
100
AcDbEntity
  8
0-4_枠
  6
Continuous
 62
    92
370
    13
100
AcDbLine
 10
396.9184337480773
 20
-735.8487133734841
 30
0.0
 11
321.1430352104583
 21
-735.8487133734841
 31
0.0
  0
LINE
  5
33D
330
1F
100
AcDbEntity
  8
0-4_枠
  6
Continuous
 62
    92
370
    13
100
AcDbLine
 10
399.9185939653604
 20
-738.8487133734814
 30
0.0
 11
321.1430352104583
 21
-738.8487133734814
 31
0.0
  0
LINE
  5
33E
330
1F
100
AcDbEntity
  8
0-4_枠
  6
Continuous
 62
    92
370
    13
100
AcDbLine
 10
-380.0814060346396
 20
-558.8487133734814
 30
0.0
 11
399.9185939653604
 21
-558.8487133734814
 31
0.0
  0
LINE
  5
33F
330
1F
100
AcDbEntity
  8
0-4_枠
  6
Continuous
 62
   120
370
     5
100
AcDbLine
 10
423.9185939653605
 20
-558.8487133734814
 30
0.0
 11
399.9185939653604
 21
-558.8487133734814
 31
0.0
  0
LINE
  5
340
330
1F
100
AcDbEntity
  8
0-4_枠
  6
Continuous
 62
    92
370
    13
100
AcDbLine
 10
399.9185939653604
 20
-738.8487133734814
 30
0.0
 11
399.9185939653604
 21
-558.8487133734814
 31
0.0
  0
LINE
  5
341
330
1F
100
AcDbEntity
  8
0-4_枠
  6
Continuous
 62
    92
370
    13
100
AcDbLine
 10
396.9184337480773
 20
-735.8487133734841
 30
0.0
 11
396.9184337480773
 21
-561.848713373482
 31
0.0
  0
LINE
  5
342
330
1F
100
AcDbEntity
  8
0-C_ハッチ
  6
Continuous
 62
   120
370
     5
100
AcDbLine
 10
-134.8569647895417
 20
-702.8487133734893
 30
0.0
 11
9.143035210458521
 21
-558.8487133734817
 31
0.0
  0
LINE
  5
343
330
1F
100
AcDbEntity
  8
0-C_ハッチ
  6
Continuous
 62
   120
370
     5
100
AcDbLine
 10
93.14303521045929
 20
-653.0396222324795
 30
0.0
 11
187.3339440694566
 21
-558.8487133734814
 31
0.0
  0
LINE
  5
344
330
1F
100
AcDbEntity
  8
0-C_ハッチ
  6
Continuous
 62
   120
370
     5
100
AcDbLine
 10
93.14303521045929
 20
-712.4365918521302
 30
0.0
 11
153.9248657658311
 21
-651.6547612967563
 31
0.0
  0
LINE
  5
345
330
1F
100
AcDbEntity
  8
0-C_ハッチ
  6
Continuous
 62
   120
370
     5
100
AcDbLine
 10
366.7157617874501
 20
-735.8487133734841
 30
0.0
 11
396.9184337480773
 21
-705.646041412856
 31
0.0
  0
LINE
  5
346
330
1F
100
AcDbEntity
  8
0-C_ハッチ
  6
Continuous
 62
   120
370
     5
100
AcDbLine
 10
396.9184337480773
 20
-586.8521021735627
 30
0.0
 11
321.1430352104583
 21
-662.6275007111817
 31
0.0
  0
LINE
  5
347
330
1F
100
AcDbEntity
  8
0-C_ハッチ
  6
Continuous
 62
   120
370
     5
100
AcDbLine
 10
321.1430352104583
 20
-722.0244703308277
 30
0.0
 11
396.9184337480773
 21
-646.2490717932078
 31
0.0
  0
MTEXT
  5
348
330
1F
100
AcDbEntity
  8
0-B_寸法
  6
Continuous
 62
     7
370
   211
100
AcDbMText
 10
852.3248657658324
 20
-3092.423933214045
 30
0.0
 40
100.0125
 41
262.5
 46
0.0
 71
     7
 72
     1
  1
{\fＭＳ ゴシック|b0|i0|c128|p49;14.5}
 11
6.123031769111886E-17
 21
1.0
 31
0.0
 73
     1
 44
1.0
  0
MTEXT
  5
349
330
1F
100
AcDbEntity
  8
0-B_寸法
  6
Continuous
 62
     7
370
   211
100
AcDbMText
 10
1272.324865765832
 20
-3409.771213373459
 30
0.0
 40
97.15499999999999
 41
127.5
 46
0.0
 71
     7
 72
     1
  1
{\fＭＳ ゴシック|b0|i0|c128|p49;12}
 11
6.123031769111886E-17
 21
1.0
 31
0.0
 73
     1
 44
1.0
  0
LWPOLYLINE
  5
34A
330
1F
100
AcDbEntity
  8
0-B_寸法
  6
Continuous
 62
     7
370
     9
100
AcDbPolyline
 90
        4
 70
     1
 43
3.0
 10
-378.58140603464
 20
-1274.67370971458
 42
0.4142135623731
 10
-380.08140603464
 20
-1273.17370971458
 42
0.4142135623731
 10
-381.58140603464
 20
-1274.67370971458
 42
0.4142135623731
 10
-380.08140603464
 20
-1276.17370971458
 42
0.4142135623731
  0
LINE
  5
34B
330
1F
100
AcDbEntity
  8
0-B_寸法
  6
Continuous
 62
   120
370
     5
100
AcDbLine
 10
-380.08140603464
 20
-1274.67370971458
 30
0.0
 11
-380.08140603464
 21
-1142.324276440101
 31
0.0
  0
LWPOLYLINE
  5
34C
330
1F
100
AcDbEntity
  8
0-B_寸法
  6
Continuous
 62
     7
370
     9
100
AcDbPolyline
 90
        4
 70
     1
 43
3.0
 10
401.4185939653604
 20
-1274.67370971458
 42
0.4142135623731
 10
399.9185939653604
 20
-1273.17370971458
 42
0.4142135623731
 10
398.4185939653603
 20
-1274.67370971458
 42
0.4142135623731
 10
399.9185939653604
 20
-1276.17370971458
 42
0.4142135623731
  0
LINE
  5
34D
330
1F
100
AcDbEntity
  8
0-B_寸法
  6
Continuous
 62
   120
370
     5
100
AcDbLine
 10
399.9185939653604
 20
-1274.67370971458
 30
0.0
 11
399.9185939653604
 21
-1142.324276440101
 31
0.0
  0
LINE
  5
34E
330
1F
100
AcDbEntity
  8
0-B_寸法
  6
Continuous
 62
   120
370
     5
100
AcDbLine
 10
-380.08140603464
 20
-1274.67370971458
 30
0.0
 11
399.9185939653604
 21
-1274.67370971458
 31
0.0
  0
MTEXT
  5
34F
330
1F
100
AcDbEntity
  8
0-B_寸法
  6
Continuous
 62
     7
370
   211
100
AcDbMText
 10
852.3248657658324
 20
-2321.433258828023
 30
0.0
 40
101.8309090909091
 41
735.0
 46
0.0
 71
     7
 72
     1
  1
{\fＭＳ ゴシック|b0|i0|c128|p49;ＤＨ＝2,342}
 11
6.123031769111886E-17
 21
1.0
 31
0.0
 73
     1
 44
1.0
  0
MTEXT
  5
350
330
1F
100
AcDbEntity
  8
0-B_寸法
  6
Continuous
 62
     7
370
   211
100
AcDbMText
 10
1062.324865765832
 20
-2321.433258828023
 30
0.0
 40
101.8309090909091
 41
735.0
 46
0.0
 71
     7
 72
     1
  1
{\fＭＳ ゴシック|b0|i0|c128|p49;枠内＝2,370}
 11
6.123031769111886E-17
 21
1.0
 31
0.0
 73
     1
 44
1.0
  0
MTEXT
  5
351
330
1F
100
AcDbEntity
  8
0-B_寸法
  6
Continuous
 62
     7
370
   211
100
AcDbMText
 10
1272.324865765832
 20
-2321.433258828023
 30
0.0
 40
101.8309090909091
 41
735.0
 46
0.0
 71
     7
 72
     1
  1
{\fＭＳ ゴシック|b0|i0|c128|p49;枠外＝2,400}
 11
6.123031769111886E-17
 21
1.0
 31
0.0
 73
     1
 44
1.0
  0
MTEXT
  5
352
330
1F
100
AcDbEntity
  8
0-B_寸法
  6
Continuous
 62
     7
370
   211
100
AcDbMText
 10
-1741.46786843796
 20
907.1823737609386
 30
0.0
 40
91.43999999999997
 41
660.0
 46
0.0
 71
     7
 72
     1
  1
{\fＭＳ ゴシック|b0|i0|c128|p49;枠内＝3,507}
 73
     1
 44
1.0
  0
MTEXT
  5
353
330
1F
100
AcDbEntity
  8
0-B_寸法
  6
Continuous
 62
     7
370
   211
100
AcDbMText
 10
-1741.46786843796
 20
697.1823737609386
 30
0.0
 40
91.43999999999997
 41
660.0
 46
0.0
 71
     7
 72
     1
  1
{\fＭＳ ゴシック|b0|i0|c128|p49;枠外＝3,567}
 73
     1
 44
1.0
  0
MTEXT
  5
354
330
1F
100
AcDbEntity
  8
0-B_寸法
  6
Continuous
 62
     7
370
   211
100
AcDbMText
 10
-2542.040505641739
 20
2200.182533978225
 30
0.0
 40
91.43999999999998
 41
540.0
 46
0.0
 71
     7
 72
     1
  1
{\fＭＳ ゴシック|b0|i0|c128|p49;ＤＷ＝900}
 73
     1
 44
1.0
  0
MTEXT
  5
355
330
1F
100
AcDbEntity
  8
0-B_寸法
  6
Continuous
 62
     7
370
   211
100
AcDbMText
 10
652.9342838340237
 20
3175.992533978227
 30
0.0
 40
99.06
 41
195.0
 46
0.0
 71
     7
 72
     1
  1
{\fＭＳ ゴシック|b0|i0|c128|p49;930}
 73
     1
 44
1.0
  0
LINE
  5
356
330
1F
100
AcDbEntity
  8
0-7_金物
  6
Continuous
 62
    92
370
    13
100
AcDbLine
 10
-198.7095075496963
 20
-3168.848469759011
 30
0.0
 11
-105.881406034637
 21
-3168.848469759011
 31
0.0
  0
LINE
  5
357
330
1F
100
AcDbEntity
  8
0-7_金物
  6
Continuous
 62
    92
370
    13
100
AcDbLine
 10
-104.0814060346369
 20
-3170.64846975901
 30
0.0
 11
-105.881406034637
 21
-3168.848469759011
 31
0.0
  0
LINE
  5
358
330
1F
100
AcDbEntity
  8
0-7_金物
  6
Continuous
 62
    92
370
    13
100
AcDbLine
 10
-102.2814060346352
 20
-3168.848469759011
 30
0.0
 11
-104.0814060346369
 21
-3170.64846975901
 31
0.0
  0
LINE
  5
359
330
1F
100
AcDbEntity
  8
0-7_金物
  6
Continuous
 62
    92
370
    13
100
AcDbLine
 10
-9.453304519577799
 20
-3168.848469759011
 30
0.0
 11
-102.2814060346352
 21
-3168.848469759011
 31
0.0
  0
ARC
  5
35A
330
1F
100
AcDbEntity
  8
0-7_金物
  6
Continuous
 62
    92
370
    13
100
AcDbCircle
 10
-9.453304519577799
 20
-3171.84846975901
 30
0.0
 40
3.0
100
AcDbArc
 50
72.12130340415871
 51
90.0
  0
LINE
  5
35B
330
1F
100
AcDbEntity
  8
0-7_金物
  6
Continuous
 62
    92
370
    13
100
AcDbLine
 10
-8.532296179808512
 20
-3168.993343905729
 30
0.0
 11
-1.760397694869056
 21
-3171.177827287969
 31
0.0
  0
ARC
  5
35C
330
1F
100
AcDbEntity
  8
0-7_金物
  6
Continuous
 62
    92
370
    13
100
AcDbCircle
 10
-2.681406034638343
 20
-3174.03295314125
 30
0.0
 40
3.0
100
AcDbArc
 50
0.0
 51
72.12130340415868
  0
LINE
  5
35D
330
1F
100
AcDbEntity
  8
0-7_金物
  6
Continuous
 62
    92
370
    13
100
AcDbLine
 10
0.3185939653638314
 20
-3174.03295314125
 30
0.0
 11
0.3185939653638314
 21
-3180.248469759011
 31
0.0
  0
ARC
  5
35E
330
1F
100
AcDbEntity
  8
0-7_金物
  6
Continuous
 62
    92
370
    13
100
AcDbCircle
 10
2.118593965362194
 20
-3180.248469759011
 30
0.0
 40
1.8
100
AcDbArc
 50
180.0
 51
270.0
  0
LINE
  5
35F
330
1F
100
AcDbEntity
  8
0-7_金物
  6
Continuous
 62
    92
370
    13
100
AcDbLine
 10
2.118593965362194
 20
-3182.048469759011
 30
0.0
 11
17.71859396536165
 21
-3182.048469759011
 31
0.0
  0
ARC
  5
360
330
1F
100
AcDbEntity
  8
0-7_金物
  6
Continuous
 62
    92
370
    13
100
AcDbCircle
 10
17.71859396536165
 20
-3180.248469759011
 30
0.0
 40
1.8
100
AcDbArc
 50
270.0
 51
0.0
  0
LINE
  5
361
330
1F
100
AcDbEntity
  8
0-7_金物
  6
Continuous
 62
    92
370
    13
100
AcDbLine
 10
19.51859396536193
 20
-3174.03295314125
 30
0.0
 11
19.51859396536193
 21
-3180.248469759011
 31
0.0
  0
ARC
  5
362
330
1F
100
AcDbEntity
  8
0-7_金物
  6
Continuous
 62
    92
370
    13
100
AcDbCircle
 10
22.5185939653641
 20
-3174.03295314125
 30
0.0
 40
3.0
100
AcDbArc
 50
107.8786965958413
 51
180.0
  0
LINE
  5
363
330
1F
100
AcDbEntity
  8
0-7_金物
  6
Continuous
 62
    92
370
    13
100
AcDbLine
 10
28.36948411053427
 20
-3168.993343905729
 30
0.0
 11
21.59758562559482
 21
-3171.177827287969
 31
0.0
  0
ARC
  5
364
330
1F
100
AcDbEntity
  8
0-7_金物
  6
Continuous
 62
    92
370
    13
100
AcDbCircle
 10
29.29049245030356
 20
-3171.84846975901
 30
0.0
 40
3.0
100
AcDbArc
 50
90.0
 51
107.8786965958413
  0
LINE
  5
365
330
1F
100
AcDbEntity
  8
0-7_金物
  6
Continuous
 62
    92
370
    13
100
AcDbLine
 10
29.29049245030356
 20
-3168.848469759011
 30
0.0
 11
122.1185939653626
 21
-3168.848469759011
 31
0.0
  0
LINE
  5
366
330
1F
100
AcDbEntity
  8
0-7_金物
  6
Continuous
 62
    92
370
    13
100
AcDbLine
 10
123.9185939653629
 20
-3170.64846975901
 30
0.0
 11
122.1185939653626
 21
-3168.848469759011
 31
0.0
  0
LINE
  5
367
330
1F
100
AcDbEntity
  8
0-7_金物
  6
Continuous
 62
    92
370
    13
100
AcDbLine
 10
125.7185939653628
 20
-3168.848469759011
 30
0.0
 11
123.9185939653629
 21
-3170.64846975901
 31
0.0
  0
LINE
  5
368
330
1F
100
AcDbEntity
  8
0-7_金物
  6
Continuous
 62
    92
370
    13
100
AcDbLine
 10
218.5466954804195
 20
-3168.848469759011
 30
0.0
 11
125.7185939653628
 21
-3168.848469759011
 31
0.0
  0
ARC
  5
369
330
1F
100
AcDbEntity
  8
0-7_金物
  6
Continuous
 62
    92
370
    13
100
AcDbCircle
 10
218.5466954804195
 20
-3171.84846975901
 30
0.0
 40
3.0
100
AcDbArc
 50
72.12130340415871
 51
90.0
  0
LINE
  5
36A
330
1F
100
AcDbEntity
  8
0-7_金物
  6
Continuous
 62
    92
370
    13
100
AcDbLine
 10
219.4677038201888
 20
-3168.993343905729
 30
0.0
 11
226.2396023051297
 21
-3171.177827287969
 31
0.0
  0
ARC
  5
36B
330
1F
100
AcDbEntity
  8
0-7_金物
  6
Continuous
 62
    92
370
    13
100
AcDbCircle
 10
225.3185939653604
 20
-3174.03295314125
 30
0.0
 40
3.0
100
AcDbArc
 50
0.0
 51
72.12130340415868
  0
LINE
  5
36C
330
1F
100
AcDbEntity
  8
0-7_金物
  6
Continuous
 62
    92
370
    13
100
AcDbLine
 10
228.3185939653611
 20
-3174.03295314125
 30
0.0
 11
228.3185939653611
 21
-3180.248469759011
 31
0.0
  0
ARC
  5
36D
330
1F
100
AcDbEntity
  8
0-7_金物
  6
Continuous
 62
    92
370
    13
100
AcDbCircle
 10
230.1185939653614
 20
-3180.248469759011
 30
0.0
 40
1.8
100
AcDbArc
 50
180.0
 51
270.0
  0
LINE
  5
36E
330
1F
100
AcDbEntity
  8
0-7_金物
  6
Continuous
 62
    92
370
    13
100
AcDbLine
 10
230.1185939653614
 20
-3182.048469759011
 30
0.0
 11
245.7185939653608
 21
-3182.048469759011
 31
0.0
  0
ARC
  5
36F
330
1F
100
AcDbEntity
  8
0-7_金物
  6
Continuous
 62
    92
370
    13
100
AcDbCircle
 10
245.7185939653608
 20
-3180.248469759011
 30
0.0
 40
1.8
100
AcDbArc
 50
270.0
 51
0.0
  0
LINE
  5
370
330
1F
100
AcDbEntity
  8
0-7_金物
  6
Continuous
 62
    92
370
    13
100
AcDbLine
 10
247.5185939653607
 20
-3174.03295314125
 30
0.0
 11
247.5185939653607
 21
-3180.248469759011
 31
0.0
  0
ARC
  5
371
330
1F
100
AcDbEntity
  8
0-7_金物
  6
Continuous
 62
    92
370
    13
100
AcDbCircle
 10
250.5185939653614
 20
-3174.03295314125
 30
0.0
 40
3.0
100
AcDbArc
 50
107.8786965958413
 51
180.0
  0
LINE
  5
372
330
1F
100
AcDbEntity
  8
0-7_金物
  6
Continuous
 62
    92
370
    13
100
AcDbLine
 10
256.3694841105331
 20
-3168.993343905729
 30
0.0
 11
249.5975856255921
 21
-3171.177827287969
 31
0.0
  0
ARC
  5
373
330
1F
100
AcDbEntity
  8
0-7_金物
  6
Continuous
 62
    92
370
    13
100
AcDbCircle
 10
257.2904924503023
 20
-3171.84846975901
 30
0.0
 40
3.0
100
AcDbArc
 50
90.0
 51
107.8786965958413
  0
LINE
  5
374
330
1F
100
AcDbEntity
  8
0-7_金物
  6
Continuous
 62
    92
370
    13
100
AcDbLine
 10
257.2904924503023
 20
-3168.848469759011
 30
0.0
 11
290.1185939653614
 21
-3168.848469759011
 31
0.0
  0
LINE
  5
375
330
1F
100
AcDbEntity
  8
0-7_金物
  6
Continuous
 62
    92
370
    13
100
AcDbLine
 10
291.9185939653613
 20
-3170.64846975901
 30
0.0
 11
290.1185939653614
 21
-3168.848469759011
 31
0.0
  0
LINE
  5
376
330
1F
100
AcDbEntity
  8
0-7_金物
  6
Continuous
 62
    92
370
    13
100
AcDbLine
 10
293.718593965363
 20
-3168.848469759011
 30
0.0
 11
291.9185939653613
 21
-3170.64846975901
 31
0.0
  0
LINE
  5
377
330
1F
100
AcDbEntity
  8
0-7_金物
  6
Continuous
 62
    92
370
    13
100
AcDbLine
 10
333.1303688659721
 20
-3168.848469759011
 30
0.0
 11
293.718593965363
 21
-3168.848469759011
 31
0.0
  0
ARC
  5
378
330
1F
100
AcDbEntity
  8
0-7_金物
  6
Continuous
 62
    92
370
    13
100
AcDbCircle
 10
333.1303688659721
 20
-3174.848469759011
 30
0.0
 40
6.0
100
AcDbArc
 50
45.00000000000005
 51
90.00000000000006
  0
LINE
  5
379
330
1F
100
AcDbEntity
  8
0-7_金物
  6
Continuous
 62
    92
370
    13
100
AcDbLine
 10
337.3730095530908
 20
-3170.605829071892
 30
0.0
 11
351.5671221027862
 21
-3184.799941621587
 31
0.0
  0
ARC
  5
37A
330
1F
100
AcDbEntity
  8
0-7_金物
  6
Continuous
 62
    92
370
    13
100
AcDbCircle
 10
350.7185939653625
 20
-3185.64846975901
 30
0.0
 40
1.2
100
AcDbArc
 50
270.0
 51
45.00000000000003
  0
LINE
  5
37B
330
1F
100
AcDbEntity
  8
0-7_金物
  6
Continuous
 62
    92
370
    13
100
AcDbLine
 10
341.118593965361
 20
-3186.84846975901
 30
0.0
 11
350.7185939653625
 21
-3186.84846975901
 31
0.0
  0
ARC
  5
37C
330
1F
100
AcDbEntity
  8
0-7_金物
  6
Continuous
 62
    92
370
    13
100
AcDbCircle
 10
341.118593965361
 20
-3185.64846975901
 30
0.0
 40
1.2
100
AcDbArc
 50
180.0
 51
270.0
  0
LINE
  5
37D
330
1F
100
AcDbEntity
  8
0-7_金物
  6
Continuous
 62
    92
370
    13
100
AcDbLine
 10
339.9185939653621
 20
-3185.64846975901
 30
0.0
 11
339.9185939653621
 21
-3183.333751133249
 31
0.0
  0
LINE
  5
37E
330
1F
100
AcDbEntity
  8
0-7_金物
  6
Continuous
 62
    92
370
    13
100
AcDbLine
 10
339.9185939653621
 20
-3183.333751133249
 30
0.0
 11
332.6333125911236
 21
-3176.048469759011
 31
0.0
  0
LINE
  5
37F
330
1F
100
AcDbEntity
  8
0-7_金物
  6
Continuous
 62
    92
370
    13
100
AcDbLine
 10
309.9185939653619
 20
-3176.048469759011
 30
0.0
 11
332.6333125911236
 21
-3176.048469759011
 31
0.0
  0
LINE
  5
380
330
1F
100
AcDbEntity
  8
0-7_金物
  6
Continuous
 62
    92
370
    13
100
AcDbLine
 10
309.9185939653619
 20
-3185.04846975901
 30
0.0
 11
309.9185939653619
 21
-3176.048469759011
 31
0.0
  0
ARC
  5
381
330
1F
100
AcDbEntity
  8
0-7_金物
  6
Continuous
 62
    92
370
    13
100
AcDbCircle
 10
308.1185939653602
 20
-3185.04846975901
 30
0.0
 40
1.8
100
AcDbArc
 50
270.0
 51
0.0
  0
LINE
  5
382
330
1F
100
AcDbEntity
  8
0-7_金物
  6
Continuous
 62
    92
370
    13
100
AcDbLine
 10
308.1185939653602
 20
-3186.84846975901
 30
0.0
 11
305.7185939653608
 21
-3186.84846975901
 31
0.0
  0
ARC
  5
383
330
1F
100
AcDbEntity
  8
0-7_金物
  6
Continuous
 62
    92
370
    13
100
AcDbCircle
 10
305.7185939653608
 20
-3185.04846975901
 30
0.0
 40
1.8
100
AcDbArc
 50
180.0
 51
270.0
  0
LINE
  5
384
330
1F
100
AcDbEntity
  8
0-7_金物
  6
Continuous
 62
    92
370
    13
100
AcDbLine
 10
303.9185939653606
 20
-3185.04846975901
 30
0.0
 11
303.9185939653606
 21
-3176.048469759011
 31
0.0
  0
LINE
  5
385
330
1F
100
AcDbEntity
  8
0-7_金物
  6
Continuous
 62
    92
370
    13
100
AcDbLine
 10
279.9185939653619
 20
-3176.048469759011
 30
0.0
 11
303.9185939653606
 21
-3176.048469759011
 31
0.0
  0
LINE
  5
386
330
1F
100
AcDbEntity
  8
0-7_金物
  6
Continuous
 62
    92
370
    13
100
AcDbLine
 10
279.9185939653619
 20
-3185.04846975901
 30
0.0
 11
279.9185939653619
 21
-3176.048469759011
 31
0.0
  0
ARC
  5
387
330
1F
100
AcDbEntity
  8
0-7_金物
  6
Continuous
 62
    92
370
    13
100
AcDbCircle
 10
278.1185939653602
 20
-3185.04846975901
 30
0.0
 40
1.8
100
AcDbArc
 50
270.0
 51
0.0
  0
LINE
  5
388
330
1F
100
AcDbEntity
  8
0-7_金物
  6
Continuous
 62
    92
370
    13
100
AcDbLine
 10
270.3185939653604
 20
-3186.84846975901
 30
0.0
 11
278.1185939653602
 21
-3186.84846975901
 31
0.0
  0
ARC
  5
389
330
1F
100
AcDbEntity
  8
0-7_金物
  6
Continuous
 62
    92
370
    13
100
AcDbCircle
 10
270.3185939653604
 20
-3184.448469759011
 30
0.0
 40
2.4
100
AcDbArc
 50
180.0
 51
270.0
  0
ARC
  5
38A
330
1F
100
AcDbEntity
  8
0-7_金物
  6
Continuous
 62
    92
370
    13
100
AcDbCircle
 10
270.3185939653604
 20
-3184.448469759011
 30
0.0
 40
2.4
100
AcDbArc
 50
90.0
 51
180.0
  0
LINE
  5
38B
330
1F
100
AcDbEntity
  8
0-7_金物
  6
Continuous
 62
    92
370
    13
100
AcDbLine
 10
270.3185939653604
 20
-3182.048469759011
 30
0.0
 11
273.9185939653606
 21
-3182.048469759011
 31
0.0
  0
LINE
  5
38C
330
1F
100
AcDbEntity
  8
0-7_金物
  6
Continuous
 62
    92
370
    13
100
AcDbLine
 10
273.9185939653606
 20
-3176.048469759011
 30
0.0
 11
273.9185939653606
 21
-3182.048469759011
 31
0.0
  0
LINE
  5
38D
330
1F
100
AcDbEntity
  8
0-7_金物
  6
Continuous
 62
    92
370
    13
100
AcDbLine
 10
259.51859396536
 20
-3176.048469759011
 30
0.0
 11
273.9185939653606
 21
-3176.048469759011
 31
0.0
  0
ARC
  5
38E
330
1F
100
AcDbEntity
  8
0-7_金物
  6
Continuous
 62
    92
370
    13
100
AcDbCircle
 10
259.51859396536
 20
-3179.04846975901
 30
0.0
 40
3.0
100
AcDbArc
 50
90.0
 51
180.0
  0
LINE
  5
38F
330
1F
100
AcDbEntity
  8
0-7_金物
  6
Continuous
 62
    92
370
    13
100
AcDbLine
 10
256.5185939653628
 20
-3179.04846975901
 30
0.0
 11
256.5185939653628
 21
-3185.04846975901
 31
0.0
  0
ARC
  5
390
330
1F
100
AcDbEntity
  8
0-7_金物
  6
Continuous
 62
    92
370
    13
100
AcDbCircle
 10
254.718593965361
 20
-3185.04846975901
 30
0.0
 40
1.8
100
AcDbArc
 50
270.0
 51
0.0
  0
LINE
  5
391
330
1F
100
AcDbEntity
  8
0-7_金物
  6
Continuous
 62
    92
370
    13
100
AcDbLine
 10
254.718593965361
 20
-3186.84846975901
 30
0.0
 11
221.1185939653608
 21
-3186.84846975901
 31
0.0
  0
ARC
  5
392
330
1F
100
AcDbEntity
  8
0-7_金物
  6
Continuous
 62
    92
370
    13
100
AcDbCircle
 10
221.1185939653608
 20
-3185.04846975901
 30
0.0
 40
1.8
100
AcDbArc
 50
180.0
 51
270.0
  0
LINE
  5
393
330
1F
100
AcDbEntity
  8
0-7_金物
  6
Continuous
 62
    92
370
    13
100
AcDbLine
 10
219.3185939653625
 20
-3179.04846975901
 30
0.0
 11
219.3185939653625
 21
-3185.04846975901
 31
0.0
  0
ARC
  5
394
330
1F
100
AcDbEntity
  8
0-7_金物
  6
Continuous
 62
    92
370
    13
100
AcDbCircle
 10
216.3185939653618
 20
-3179.04846975901
 30
0.0
 40
3.0
100
AcDbArc
 50
0.0
 51
90.00000000000001
  0
LINE
  5
395
330
1F
100
AcDbEntity
  8
0-7_金物
  6
Continuous
 62
    92
370
    13
100
AcDbLine
 10
216.3185939653618
 20
-3176.048469759011
 30
0.0
 11
201.9185939653613
 21
-3176.048469759011
 31
0.0
  0
LINE
  5
396
330
1F
100
AcDbEntity
  8
0-7_金物
  6
Continuous
 62
    92
370
    13
100
AcDbLine
 10
201.9185939653613
 20
-3176.048469759011
 30
0.0
 11
201.9185939653613
 21
-3182.048469759011
 31
0.0
  0
LINE
  5
397
330
1F
100
AcDbEntity
  8
0-7_金物
  6
Continuous
 62
    92
370
    13
100
AcDbLine
 10
205.5185939653614
 20
-3182.048469759011
 30
0.0
 11
201.9185939653613
 21
-3182.048469759011
 31
0.0
  0
ARC
  5
398
330
1F
100
AcDbEntity
  8
0-7_金物
  6
Continuous
 62
    92
370
    13
100
AcDbCircle
 10
205.5185939653614
 20
-3184.448469759011
 30
0.0
 40
2.4
100
AcDbArc
 50
0.0
 51
90.0
  0
ARC
  5
399
330
1F
100
AcDbEntity
  8
0-7_金物
  6
Continuous
 62
    92
370
    13
100
AcDbCircle
 10
205.5185939653614
 20
-3184.448469759011
 30
0.0
 40
2.4
100
AcDbArc
 50
270.0
 51
0.0
  0
LINE
  5
39A
330
1F
100
AcDbEntity
  8
0-7_金物
  6
Continuous
 62
    92
370
    13
100
AcDbLine
 10
205.5185939653614
 20
-3186.84846975901
 30
0.0
 11
197.7185939653617
 21
-3186.84846975901
 31
0.0
  0
ARC
  5
39B
330
1F
100
AcDbEntity
  8
0-7_金物
  6
Continuous
 62
    92
370
    13
100
AcDbCircle
 10
197.7185939653617
 20
-3185.04846975901
 30
0.0
 40
1.8
100
AcDbArc
 50
180.0
 51
270.0
  0
LINE
  5
39C
330
1F
100
AcDbEntity
  8
0-7_金物
  6
Continuous
 62
    92
370
    13
100
AcDbLine
 10
195.9185939653599
 20
-3185.04846975901
 30
0.0
 11
195.9185939653599
 21
-3176.048469759011
 31
0.0
  0
LINE
  5
39D
330
1F
100
AcDbEntity
  8
0-7_金物
  6
Continuous
 62
    92
370
    13
100
AcDbLine
 10
195.9185939653599
 20
-3176.048469759011
 30
0.0
 11
141.9185939653644
 21
-3176.048469759011
 31
0.0
  0
LINE
  5
39E
330
1F
100
AcDbEntity
  8
0-7_金物
  6
Continuous
 62
    92
370
    13
100
AcDbLine
 10
141.9185939653644
 20
-3176.048469759011
 30
0.0
 11
141.9185939653644
 21
-3182.048469759011
 31
0.0
  0
LINE
  5
39F
330
1F
100
AcDbEntity
  8
0-7_金物
  6
Continuous
 62
    92
370
    13
100
AcDbLine
 10
145.5185939653659
 20
-3182.048469759011
 30
0.0
 11
141.9185939653644
 21
-3182.048469759011
 31
0.0
  0
ARC
  5
3A0
330
1F
100
AcDbEntity
  8
0-7_金物
  6
Continuous
 62
    92
370
    13
100
AcDbCircle
 10
145.5185939653659
 20
-3184.448469759011
 30
0.0
 40
2.4
100
AcDbArc
 50
0.0
 51
90.0
  0
ARC
  5
3A1
330
1F
100
AcDbEntity
  8
0-7_金物
  6
Continuous
 62
    92
370
    13
100
AcDbCircle
 10
145.5185939653659
 20
-3184.448469759011
 30
0.0
 40
2.4
100
AcDbArc
 50
270.0
 51
0.0
  0
LINE
  5
3A2
330
1F
100
AcDbEntity
  8
0-7_金物
  6
Continuous
 62
    92
370
    13
100
AcDbLine
 10
145.5185939653659
 20
-3186.84846975901
 30
0.0
 11
137.7185939653661
 21
-3186.84846975901
 31
0.0
  0
ARC
  5
3A3
330
1F
100
AcDbEntity
  8
0-7_金物
  6
Continuous
 62
    92
370
    13
100
AcDbCircle
 10
137.7185939653661
 20
-3185.04846975901
 30
0.0
 40
1.8
100
AcDbArc
 50
180.0
 51
270.0
  0
LINE
  5
3A4
330
1F
100
AcDbEntity
  8
0-7_金物
  6
Continuous
 62
    92
370
    13
100
AcDbLine
 10
135.9185939653631
 20
-3185.04846975901
 30
0.0
 11
135.9185939653631
 21
-3176.048469759011
 31
0.0
  0
LINE
  5
3A5
330
1F
100
AcDbEntity
  8
0-7_金物
  6
Continuous
 62
    92
370
    13
100
AcDbLine
 10
111.9185939653627
 20
-3176.048469759011
 30
0.0
 11
135.9185939653614
 21
-3176.048469759011
 31
0.0
  0
LINE
  5
3A6
330
1F
100
AcDbEntity
  8
0-7_金物
  6
Continuous
 62
    92
370
    13
100
AcDbLine
 10
111.9185939653627
 20
-3185.04846975901
 30
0.0
 11
111.9185939653627
 21
-3176.048469759011
 31
0.0
  0
ARC
  5
3A7
330
1F
100
AcDbEntity
  8
0-7_金物
  6
Continuous
 62
    92
370
    13
100
AcDbCircle
 10
110.118593965361
 20
-3185.04846975901
 30
0.0
 40
1.8
100
AcDbArc
 50
270.0
 51
0.0
  0
LINE
  5
3A8
330
1F
100
AcDbEntity
  8
0-7_金物
  6
Continuous
 62
    92
370
    13
100
AcDbLine
 10
102.3185939653612
 20
-3186.84846975901
 30
0.0
 11
110.118593965361
 21
-3186.84846975901
 31
0.0
  0
ARC
  5
3A9
330
1F
100
AcDbEntity
  8
0-7_金物
  6
Continuous
 62
    92
370
    13
100
AcDbCircle
 10
102.3185939653612
 20
-3184.448469759011
 30
0.0
 40
2.4
100
AcDbArc
 50
180.0
 51
270.0
  0
ARC
  5
3AA
330
1F
100
AcDbEntity
  8
0-7_金物
  6
Continuous
 62
    92
370
    13
100
AcDbCircle
 10
102.3185939653612
 20
-3184.448469759011
 30
0.0
 40
2.4
100
AcDbArc
 50
90.0
 51
180.0
  0
LINE
  5
3AB
330
1F
100
AcDbEntity
  8
0-7_金物
  6
Continuous
 62
    92
370
    13
100
AcDbLine
 10
102.3185939653612
 20
-3182.048469759011
 30
0.0
 11
105.9185939653614
 21
-3182.048469759011
 31
0.0
  0
LINE
  5
3AC
330
1F
100
AcDbEntity
  8
0-7_金物
  6
Continuous
 62
    92
370
    13
100
AcDbLine
 10
105.9185939653614
 20
-3176.048469759011
 30
0.0
 11
105.9185939653614
 21
-3182.048469759011
 31
0.0
  0
LINE
  5
3AD
330
1F
100
AcDbEntity
  8
0-7_金物
  6
Continuous
 62
    92
370
    13
100
AcDbLine
 10
51.91859396536465
 20
-3176.048469759011
 30
0.0
 11
105.9185939653614
 21
-3176.048469759011
 31
0.0
  0
LINE
  5
3AE
330
1F
100
AcDbEntity
  8
0-7_金物
  6
Continuous
 62
    92
370
    13
100
AcDbLine
 10
51.91859396536465
 20
-3185.04846975901
 30
0.0
 11
51.91859396536465
 21
-3176.048469759011
 31
0.0
  0
ARC
  5
3AF
330
1F
100
AcDbEntity
  8
0-7_金物
  6
Continuous
 62
    92
370
    13
100
AcDbCircle
 10
50.11859396536138
 20
-3185.04846975901
 30
0.0
 40
1.8
100
AcDbArc
 50
270.0
 51
0.0
  0
LINE
  5
3B0
330
1F
100
AcDbEntity
  8
0-7_金物
  6
Continuous
 62
    92
370
    13
100
AcDbLine
 10
42.31859396536166
 20
-3186.84846975901
 30
0.0
 11
50.11859396536138
 21
-3186.84846975901
 31
0.0
  0
ARC
  5
3B1
330
1F
100
AcDbEntity
  8
0-7_金物
  6
Continuous
 62
    92
370
    13
100
AcDbCircle
 10
42.31859396536166
 20
-3184.448469759011
 30
0.0
 40
2.4
100
AcDbArc
 50
180.0
 51
270.0
  0
ARC
  5
3B2
330
1F
100
AcDbEntity
  8
0-7_金物
  6
Continuous
 62
    92
370
    13
100
AcDbCircle
 10
42.31859396536166
 20
-3184.448469759011
 30
0.0
 40
2.4
100
AcDbArc
 50
90.0
 51
180.0
  0
LINE
  5
3B3
330
1F
100
AcDbEntity
  8
0-7_金物
  6
Continuous
 62
    92
370
    13
100
AcDbLine
 10
42.31859396536166
 20
-3182.048469759011
 30
0.0
 11
45.91859396536329
 21
-3182.048469759011
 31
0.0
  0
LINE
  5
3B4
330
1F
100
AcDbEntity
  8
0-7_金物
  6
Continuous
 62
    92
370
    13
100
AcDbLine
 10
45.91859396536329
 20
-3176.048469759011
 30
0.0
 11
45.91859396536329
 21
-3182.048469759011
 31
0.0
  0
LINE
  5
3B5
330
1F
100
AcDbEntity
  8
0-7_金物
  6
Continuous
 62
    92
370
    13
100
AcDbLine
 10
31.51859396536274
 20
-3176.048469759011
 30
0.0
 11
45.91859396536329
 21
-3176.048469759011
 31
0.0
  0
ARC
  5
3B6
330
1F
100
AcDbEntity
  8
0-7_金物
  6
Continuous
 62
    92
370
    13
100
AcDbCircle
 10
31.51859396536274
 20
-3179.04846975901
 30
0.0
 40
3.0
100
AcDbArc
 50
90.0
 51
180.0
  0
LINE
  5
3B7
330
1F
100
AcDbEntity
  8
0-7_金物
  6
Continuous
 62
    92
370
    13
100
AcDbLine
 10
28.51859396536206
 20
-3179.04846975901
 30
0.0
 11
28.51859396536206
 21
-3185.04846975901
 31
0.0
  0
ARC
  5
3B8
330
1F
100
AcDbEntity
  8
0-7_金物
  6
Continuous
 62
    92
370
    13
100
AcDbCircle
 10
26.7185939653622
 20
-3185.04846975901
 30
0.0
 40
1.8
100
AcDbArc
 50
270.0
 51
0.0
  0
LINE
  5
3B9
330
1F
100
AcDbEntity
  8
0-7_金物
  6
Continuous
 62
    92
370
    13
100
AcDbLine
 10
26.7185939653622
 20
-3186.84846975901
 30
0.0
 11
-6.881406034636441
 21
-3186.84846975901
 31
0.0
  0
ARC
  5
3BA
330
1F
100
AcDbEntity
  8
0-7_金物
  6
Continuous
 62
    92
370
    13
100
AcDbCircle
 10
-6.881406034636441
 20
-3185.04846975901
 30
0.0
 40
1.8
100
AcDbArc
 50
180.0
 51
270.0
  0
LINE
  5
3BB
330
1F
100
AcDbEntity
  8
0-7_金物
  6
Continuous
 62
    92
370
    13
100
AcDbLine
 10
-8.681406034638215
 20
-3179.04846975901
 30
0.0
 11
-8.681406034638215
 21
-3185.04846975901
 31
0.0
  0
ARC
  5
3BC
330
1F
100
AcDbEntity
  8
0-7_金物
  6
Continuous
 62
    92
370
    13
100
AcDbCircle
 10
-11.68140603463698
 20
-3179.04846975901
 30
0.0
 40
3.0
100
AcDbArc
 50
0.0
 51
90.00000000000001
  0
LINE
  5
3BD
330
1F
100
AcDbEntity
  8
0-7_金物
  6
Continuous
 62
    92
370
    13
100
AcDbLine
 10
-11.68140603463698
 20
-3176.048469759011
 30
0.0
 11
-26.08140603463752
 21
-3176.048469759011
 31
0.0
  0
LINE
  5
3BE
330
1F
100
AcDbEntity
  8
0-7_金物
  6
Continuous
 62
    92
370
    13
100
AcDbLine
 10
-26.08140603463752
 20
-3176.048469759011
 30
0.0
 11
-26.08140603463752
 21
-3182.048469759011
 31
0.0
  0
LINE
  5
3BF
330
1F
100
AcDbEntity
  8
0-7_金物
  6
Continuous
 62
    92
370
    13
100
AcDbLine
 10
-22.4814060346359
 20
-3182.048469759011
 30
0.0
 11
-26.08140603463752
 21
-3182.048469759011
 31
0.0
  0
ARC
  5
3C0
330
1F
100
AcDbEntity
  8
0-7_金物
  6
Continuous
 62
    92
370
    13
100
AcDbCircle
 10
-22.4814060346359
 20
-3184.448469759011
 30
0.0
 40
2.4
100
AcDbArc
 50
0.0
 51
90.0
  0
ARC
  5
3C1
330
1F
100
AcDbEntity
  8
0-7_金物
  6
Continuous
 62
    92
370
    13
100
AcDbCircle
 10
-22.4814060346359
 20
-3184.448469759011
 30
0.0
 40
2.4
100
AcDbArc
 50
270.0
 51
0.0
  0
LINE
  5
3C2
330
1F
100
AcDbEntity
  8
0-7_金物
  6
Continuous
 62
    92
370
    13
100
AcDbLine
 10
-22.4814060346359
 20
-3186.84846975901
 30
0.0
 11
-30.28140603463562
 21
-3186.84846975901
 31
0.0
  0
ARC
  5
3C3
330
1F
100
AcDbEntity
  8
0-7_金物
  6
Continuous
 62
    92
370
    13
100
AcDbCircle
 10
-30.28140603463562
 20
-3185.04846975901
 30
0.0
 40
1.8
100
AcDbArc
 50
180.0
 51
270.0
  0
LINE
  5
3C4
330
1F
100
AcDbEntity
  8
0-7_金物
  6
Continuous
 62
    92
370
    13
100
AcDbLine
 10
-32.08140603463889
 20
-3185.04846975901
 30
0.0
 11
-32.08140603463889
 21
-3176.048469759011
 31
0.0
  0
LINE
  5
3C5
330
1F
100
AcDbEntity
  8
0-7_金物
  6
Continuous
 62
    92
370
    13
100
AcDbLine
 10
-32.08140603463889
 20
-3176.048469759011
 30
0.0
 11
-86.08140603463539
 21
-3176.048469759011
 31
0.0
  0
LINE
  5
3C6
330
1F
100
AcDbEntity
  8
0-7_金物
  6
Continuous
 62
    92
370
    13
100
AcDbLine
 10
-86.08140603463539
 20
-3176.048469759011
 30
0.0
 11
-86.08140603463539
 21
-3182.048469759011
 31
0.0
  0
LINE
  5
3C7
330
1F
100
AcDbEntity
  8
0-7_金物
  6
Continuous
 62
    92
370
    13
100
AcDbLine
 10
-82.48140603463398
 20
-3182.048469759011
 30
0.0
 11
-86.08140603463539
 21
-3182.048469759011
 31
0.0
  0
ARC
  5
3C8
330
1F
100
AcDbEntity
  8
0-7_金物
  6
Continuous
 62
    92
370
    13
100
AcDbCircle
 10
-82.48140603463398
 20
-3184.448469759011
 30
0.0
 40
2.4
100
AcDbArc
 50
0.0
 51
90.0
  0
ARC
  5
3C9
330
1F
100
AcDbEntity
  8
0-7_金物
  6
Continuous
 62
    92
370
    13
100
AcDbCircle
 10
-82.48140603463398
 20
-3184.448469759011
 30
0.0
 40
2.4
100
AcDbArc
 50
270.0
 51
0.0
  0
LINE
  5
3CA
330
1F
100
AcDbEntity
  8
0-7_金物
  6
Continuous
 62
    92
370
    13
100
AcDbLine
 10
-82.48140603463398
 20
-3186.84846975901
 30
0.0
 11
-90.2814060346337
 21
-3186.84846975901
 31
0.0
  0
ARC
  5
3CB
330
1F
100
AcDbEntity
  8
0-7_金物
  6
Continuous
 62
    92
370
    13
100
AcDbCircle
 10
-90.2814060346337
 20
-3185.04846975901
 30
0.0
 40
1.8
100
AcDbArc
 50
180.0
 51
270.0
  0
LINE
  5
3CC
330
1F
100
AcDbEntity
  8
0-7_金物
  6
Continuous
 62
    92
370
    13
100
AcDbLine
 10
-92.08140603463676
 20
-3185.04846975901
 30
0.0
 11
-92.08140603463676
 21
-3176.048469759011
 31
0.0
  0
LINE
  5
3CD
330
1F
100
AcDbEntity
  8
0-7_金物
  6
Continuous
 62
    92
370
    13
100
AcDbLine
 10
-116.0814060346371
 20
-3176.048469759011
 30
0.0
 11
-92.08140603463846
 21
-3176.048469759011
 31
0.0
  0
LINE
  5
3CE
330
1F
100
AcDbEntity
  8
0-7_金物
  6
Continuous
 62
    92
370
    13
100
AcDbLine
 10
-116.0814060346371
 20
-3185.04846975901
 30
0.0
 11
-116.0814060346371
 21
-3176.048469759011
 31
0.0
  0
ARC
  5
3CF
330
1F
100
AcDbEntity
  8
0-7_金物
  6
Continuous
 62
    92
370
    13
100
AcDbCircle
 10
-117.8814060346389
 20
-3185.04846975901
 30
0.0
 40
1.8
100
AcDbArc
 50
270.0
 51
0.0
  0
LINE
  5
3D0
330
1F
100
AcDbEntity
  8
0-7_金物
  6
Continuous
 62
    92
370
    13
100
AcDbLine
 10
-125.6814060346386
 20
-3186.84846975901
 30
0.0
 11
-117.8814060346389
 21
-3186.84846975901
 31
0.0
  0
ARC
  5
3D1
330
1F
100
AcDbEntity
  8
0-7_金物
  6
Continuous
 62
    92
370
    13
100
AcDbCircle
 10
-125.6814060346386
 20
-3184.448469759011
 30
0.0
 40
2.4
100
AcDbArc
 50
180.0
 51
270.0
  0
ARC
  5
3D2
330
1F
100
AcDbEntity
  8
0-7_金物
  6
Continuous
 62
    92
370
    13
100
AcDbCircle
 10
-125.6814060346386
 20
-3184.448469759011
 30
0.0
 40
2.4
100
AcDbArc
 50
90.0
 51
180.0
  0
LINE
  5
3D3
330
1F
100
AcDbEntity
  8
0-7_金物
  6
Continuous
 62
    92
370
    13
100
AcDbLine
 10
-125.6814060346386
 20
-3182.048469759011
 30
0.0
 11
-122.0814060346385
 21
-3182.048469759011
 31
0.0
  0
LINE
  5
3D4
330
1F
100
AcDbEntity
  8
0-7_金物
  6
Continuous
 62
    92
370
    13
100
AcDbLine
 10
-122.0814060346385
 20
-3176.048469759011
 30
0.0
 11
-122.0814060346385
 21
-3182.048469759011
 31
0.0
  0
LINE
  5
3D5
330
1F
100
AcDbEntity
  8
0-7_金物
  6
Continuous
 62
    92
370
    13
100
AcDbLine
 10
-176.0814060346367
 20
-3176.048469759011
 30
0.0
 11
-122.0814060346385
 21
-3176.048469759011
 31
0.0
  0
LINE
  5
3D6
330
1F
100
AcDbEntity
  8
0-7_金物
  6
Continuous
 62
    92
370
    13
100
AcDbLine
 10
-176.0814060346367
 20
-3185.04846975901
 30
0.0
 11
-176.0814060346367
 21
-3176.048469759011
 31
0.0
  0
ARC
  5
3D7
330
1F
100
AcDbEntity
  8
0-7_金物
  6
Continuous
 62
    92
370
    13
100
AcDbCircle
 10
-177.8814060346384
 20
-3185.04846975901
 30
0.0
 40
1.8
100
AcDbArc
 50
270.0
 51
0.0
  0
LINE
  5
3D8
330
1F
100
AcDbEntity
  8
0-7_金物
  6
Continuous
 62
    92
370
    13
100
AcDbLine
 10
-185.6814060346382
 20
-3186.84846975901
 30
0.0
 11
-177.8814060346384
 21
-3186.84846975901
 31
0.0
  0
ARC
  5
3D9
330
1F
100
AcDbEntity
  8
0-7_金物
  6
Continuous
 62
    92
370
    13
100
AcDbCircle
 10
-185.6814060346382
 20
-3184.448469759011
 30
0.0
 40
2.4
100
AcDbArc
 50
180.0
 51
270.0
  0
ARC
  5
3DA
330
1F
100
AcDbEntity
  8
0-7_金物
  6
Continuous
 62
    92
370
    13
100
AcDbCircle
 10
-185.6814060346382
 20
-3184.448469759011
 30
0.0
 40
2.4
100
AcDbArc
 50
90.0
 51
180.0
  0
LINE
  5
3DB
330
1F
100
AcDbEntity
  8
0-7_金物
  6
Continuous
 62
    92
370
    13
100
AcDbLine
 10
-185.6814060346382
 20
-3182.048469759011
 30
0.0
 11
-182.081406034638
 21
-3182.048469759011
 31
0.0
  0
LINE
  5
3DC
330
1F
100
AcDbEntity
  8
0-7_金物
  6
Continuous
 62
    92
370
    13
100
AcDbLine
 10
-182.081406034638
 20
-3176.048469759011
 30
0.0
 11
-182.081406034638
 21
-3182.048469759011
 31
0.0
  0
LINE
  5
3DD
330
1F
100
AcDbEntity
  8
0-7_金物
  6
Continuous
 62
    92
370
    13
100
AcDbLine
 10
-196.4814060346386
 20
-3176.048469759011
 30
0.0
 11
-182.081406034638
 21
-3176.048469759011
 31
0.0
  0
ARC
  5
3DE
330
1F
100
AcDbEntity
  8
0-7_金物
  6
Continuous
 62
    92
370
    13
100
AcDbCircle
 10
-196.4814060346386
 20
-3179.04846975901
 30
0.0
 40
3.0
100
AcDbArc
 50
90.0
 51
180.0
  0
LINE
  5
3DF
330
1F
100
AcDbEntity
  8
0-7_金物
  6
Continuous
 62
    92
370
    13
100
AcDbLine
 10
-199.4814060346359
 20
-3179.04846975901
 30
0.0
 11
-199.4814060346359
 21
-3185.04846975901
 31
0.0
  0
ARC
  5
3E0
330
1F
100
AcDbEntity
  8
0-7_金物
  6
Continuous
 62
    92
370
    13
100
AcDbCircle
 10
-201.2814060346376
 20
-3185.04846975901
 30
0.0
 40
1.8
100
AcDbArc
 50
270.0
 51
0.0
  0
LINE
  5
3E1
330
1F
100
AcDbEntity
  8
0-7_金物
  6
Continuous
 62
    92
370
    13
100
AcDbLine
 10
-201.2814060346376
 20
-3186.84846975901
 30
0.0
 11
-234.8814060346378
 21
-3186.84846975901
 31
0.0
  0
ARC
  5
3E2
330
1F
100
AcDbEntity
  8
0-7_金物
  6
Continuous
 62
    92
370
    13
100
AcDbCircle
 10
-234.8814060346378
 20
-3185.04846975901
 30
0.0
 40
1.8
100
AcDbArc
 50
180.0
 51
270.0
  0
LINE
  5
3E3
330
1F
100
AcDbEntity
  8
0-7_金物
  6
Continuous
 62
    92
370
    13
100
AcDbLine
 10
-236.6814060346361
 20
-3179.04846975901
 30
0.0
 11
-236.6814060346361
 21
-3185.04846975901
 31
0.0
  0
ARC
  5
3E4
330
1F
100
AcDbEntity
  8
0-7_金物
  6
Continuous
 62
    92
370
    13
100
AcDbCircle
 10
-239.6814060346368
 20
-3179.04846975901
 30
0.0
 40
3.0
100
AcDbArc
 50
0.0
 51
90.00000000000001
  0
LINE
  5
3E5
330
1F
100
AcDbEntity
  8
0-7_金物
  6
Continuous
 62
    92
370
    13
100
AcDbLine
 10
-239.6814060346368
 20
-3176.048469759011
 30
0.0
 11
-254.0814060346374
 21
-3176.048469759011
 31
0.0
  0
LINE
  5
3E6
330
1F
100
AcDbEntity
  8
0-7_金物
  6
Continuous
 62
    92
370
    13
100
AcDbLine
 10
-254.0814060346374
 20
-3176.048469759011
 30
0.0
 11
-254.0814060346374
 21
-3182.048469759011
 31
0.0
  0
LINE
  5
3E7
330
1F
100
AcDbEntity
  8
0-7_金物
  6
Continuous
 62
    92
370
    13
100
AcDbLine
 10
-250.4814060346372
 20
-3182.048469759011
 30
0.0
 11
-254.0814060346374
 21
-3182.048469759011
 31
0.0
  0
ARC
  5
3E8
330
1F
100
AcDbEntity
  8
0-7_金物
  6
Continuous
 62
    92
370
    13
100
AcDbCircle
 10
-250.4814060346372
 20
-3184.448469759011
 30
0.0
 40
2.4
100
AcDbArc
 50
0.0
 51
90.0
  0
ARC
  5
3E9
330
1F
100
AcDbEntity
  8
0-7_金物
  6
Continuous
 62
    92
370
    13
100
AcDbCircle
 10
-250.4814060346372
 20
-3184.448469759011
 30
0.0
 40
2.4
100
AcDbArc
 50
270.0
 51
0.0
  0
LINE
  5
3EA
330
1F
100
AcDbEntity
  8
0-7_金物
  6
Continuous
 62
    92
370
    13
100
AcDbLine
 10
-250.4814060346372
 20
-3186.84846975901
 30
0.0
 11
-258.2814060346369
 21
-3186.84846975901
 31
0.0
  0
ARC
  5
3EB
330
1F
100
AcDbEntity
  8
0-7_金物
  6
Continuous
 62
    92
370
    13
100
AcDbCircle
 10
-258.2814060346369
 20
-3185.04846975901
 30
0.0
 40
1.8
100
AcDbArc
 50
180.0
 51
270.0
  0
LINE
  5
3EC
330
1F
100
AcDbEntity
  8
0-7_金物
  6
Continuous
 62
    92
370
    13
100
AcDbLine
 10
-260.0814060346387
 20
-3185.04846975901
 30
0.0
 11
-260.0814060346387
 21
-3176.048469759011
 31
0.0
  0
LINE
  5
3ED
330
1F
100
AcDbEntity
  8
0-7_金物
  6
Continuous
 62
    92
370
    13
100
AcDbLine
 10
-260.0814060346387
 20
-3176.048469759011
 30
0.0
 11
-284.0814060346373
 21
-3176.048469759011
 31
0.0
  0
LINE
  5
3EE
330
1F
100
AcDbEntity
  8
0-7_金物
  6
Continuous
 62
    92
370
    13
100
AcDbLine
 10
-284.0814060346373
 20
-3185.04846975901
 30
0.0
 11
-284.0814060346373
 21
-3176.048469759011
 31
0.0
  0
ARC
  5
3EF
330
1F
100
AcDbEntity
  8
0-7_金物
  6
Continuous
 62
    92
370
    13
100
AcDbCircle
 10
-285.8814060346374
 20
-3185.04846975901
 30
0.0
 40
1.8
100
AcDbArc
 50
270.0
 51
0.0
  0
LINE
  5
3F0
330
1F
100
AcDbEntity
  8
0-7_金物
  6
Continuous
 62
    92
370
    13
100
AcDbLine
 10
-288.2814060346369
 20
-3186.84846975901
 30
0.0
 11
-285.8814060346374
 21
-3186.84846975901
 31
0.0
  0
ARC
  5
3F1
330
1F
100
AcDbEntity
  8
0-7_金物
  6
Continuous
 62
    92
370
    13
100
AcDbCircle
 10
-288.2814060346369
 20
-3185.04846975901
 30
0.0
 40
1.8
100
AcDbArc
 50
180.0
 51
270.0
  0
LINE
  5
3F2
330
1F
100
AcDbEntity
  8
0-7_金物
  6
Continuous
 62
    92
370
    13
100
AcDbLine
 10
-290.0814060346387
 20
-3185.04846975901
 30
0.0
 11
-290.0814060346387
 21
-3176.048469759011
 31
0.0
  0
LINE
  5
3F3
330
1F
100
AcDbEntity
  8
0-7_金物
  6
Continuous
 62
    92
370
    13
100
AcDbLine
 10
-312.7961246603969
 20
-3176.048469759011
 30
0.0
 11
-290.0814060346387
 21
-3176.048469759011
 31
0.0
  0
LINE
  5
3F4
330
1F
100
AcDbEntity
  8
0-7_金物
  6
Continuous
 62
    92
370
    13
100
AcDbLine
 10
-320.0814060346353
 20
-3183.333751133249
 30
0.0
 11
-312.7961246603969
 21
-3176.048469759011
 31
0.0
  0
LINE
  5
3F5
330
1F
100
AcDbEntity
  8
0-7_金物
  6
Continuous
 62
    92
370
    13
100
AcDbLine
 10
-320.0814060346353
 20
-3185.64846975901
 30
0.0
 11
-320.0814060346353
 21
-3183.333751133249
 31
0.0
  0
ARC
  5
3F6
330
1F
100
AcDbEntity
  8
0-7_金物
  6
Continuous
 62
    92
370
    13
100
AcDbCircle
 10
-321.2814060346376
 20
-3185.64846975901
 30
0.0
 40
1.2
100
AcDbArc
 50
270.0
 51
0.0
  0
LINE
  5
3F7
330
1F
100
AcDbEntity
  8
0-7_金物
  6
Continuous
 62
    92
370
    13
100
AcDbLine
 10
-321.2814060346376
 20
-3186.84846975901
 30
0.0
 11
-330.8814060346374
 21
-3186.84846975901
 31
0.0
  0
ARC
  5
3F8
330
1F
100
AcDbEntity
  8
0-7_金物
  6
Continuous
 62
    92
370
    13
100
AcDbCircle
 10
-330.8814060346374
 20
-3185.64846975901
 30
0.0
 40
1.2
100
AcDbArc
 50
135.0
 51
270.0
  0
LINE
  5
3F9
330
1F
100
AcDbEntity
  8
0-7_金物
  6
Continuous
 62
    92
370
    13
100
AcDbLine
 10
-317.5358216223641
 20
-3170.605829071892
 30
0.0
 11
-331.7299341720611
 21
-3184.799941621587
 31
0.0
  0
ARC
  5
3FA
330
1F
100
AcDbEntity
  8
0-7_金物
  6
Continuous
 62
    92
370
    13
100
AcDbCircle
 10
-313.2931809352455
 20
-3174.848469759011
 30
0.0
 40
6.0
100
AcDbArc
 50
90.0
 51
135.0
  0
LINE
  5
3FB
330
1F
100
AcDbEntity
  8
0-7_金物
  6
Continuous
 62
    92
370
    13
100
AcDbLine
 10
-313.2931809352455
 20
-3168.848469759011
 30
0.0
 11
-273.8814060346364
 21
-3168.848469759011
 31
0.0
  0
LINE
  5
3FC
330
1F
100
AcDbEntity
  8
0-7_金物
  6
Continuous
 62
    92
370
    13
100
AcDbLine
 10
-273.8814060346364
 20
-3168.848469759011
 30
0.0
 11
-272.081406034638
 21
-3170.64846975901
 31
0.0
  0
LINE
  5
3FD
330
1F
100
AcDbEntity
  8
0-7_金物
  6
Continuous
 62
    92
370
    13
100
AcDbLine
 10
-272.081406034638
 20
-3170.64846975901
 30
0.0
 11
-270.2814060346379
 21
-3168.848469759011
 31
0.0
  0
LINE
  5
3FE
330
1F
100
AcDbEntity
  8
0-7_金物
  6
Continuous
 62
    92
370
    13
100
AcDbLine
 10
-237.4533045195791
 20
-3168.848469759011
 30
0.0
 11
-270.2814060346379
 21
-3168.848469759011
 31
0.0
  0
ARC
  5
3FF
330
1F
100
AcDbEntity
  8
0-7_金物
  6
Continuous
 62
    92
370
    13
100
AcDbCircle
 10
-237.4533045195791
 20
-3171.84846975901
 30
0.0
 40
3.0
100
AcDbArc
 50
72.12130340415871
 51
90.0
  0
LINE
  5
400
330
1F
100
AcDbEntity
  8
0-7_金物
  6
Continuous
 62
    92
370
    13
100
AcDbLine
 10
-236.5322961798098
 20
-3168.993343905729
 30
0.0
 11
-229.7603976948689
 21
-3171.177827287969
 31
0.0
  0
ARC
  5
401
330
1F
100
AcDbEntity
  8
0-7_金物
  6
Continuous
 62
    92
370
    13
100
AcDbCircle
 10
-230.6814060346382
 20
-3174.03295314125
 30
0.0
 40
3.0
100
AcDbArc
 50
0.0
 51
72.12130340415868
  0
LINE
  5
402
330
1F
100
AcDbEntity
  8
0-7_金物
  6
Continuous
 62
    92
370
    13
100
AcDbLine
 10
-227.6814060346375
 20
-3174.03295314125
 30
0.0
 11
-227.6814060346375
 21
-3180.248469759011
 31
0.0
  0
ARC
  5
403
330
1F
100
AcDbEntity
  8
0-7_金物
  6
Continuous
 62
    92
370
    13
100
AcDbCircle
 10
-225.8814060346374
 20
-3180.248469759011
 30
0.0
 40
1.8
100
AcDbArc
 50
180.0
 51
270.0
  0
LINE
  5
404
330
1F
100
AcDbEntity
  8
0-7_金物
  6
Continuous
 62
    92
370
    13
100
AcDbLine
 10
-225.8814060346374
 20
-3182.048469759011
 30
0.0
 11
-210.281406034638
 21
-3182.048469759011
 31
0.0
  0
ARC
  5
405
330
1F
100
AcDbEntity
  8
0-7_金物
  6
Continuous
 62
    92
370
    13
100
AcDbCircle
 10
-210.281406034638
 20
-3180.248469759011
 30
0.0
 40
1.8
100
AcDbArc
 50
270.0
 51
0.0
  0
LINE
  5
406
330
1F
100
AcDbEntity
  8
0-7_金物
  6
Continuous
 62
    92
370
    13
100
AcDbLine
 10
-208.4814060346379
 20
-3174.03295314125
 30
0.0
 11
-208.4814060346379
 21
-3180.248469759011
 31
0.0
  0
ARC
  5
407
330
1F
100
AcDbEntity
  8
0-7_金物
  6
Continuous
 62
    92
370
    13
100
AcDbCircle
 10
-205.4814060346372
 20
-3174.03295314125
 30
0.0
 40
3.0
100
AcDbArc
 50
107.8786965958413
 51
180.0
  0
LINE
  5
408
330
1F
100
AcDbEntity
  8
0-7_金物
  6
Continuous
 62
    92
370
    13
100
AcDbLine
 10
-199.6305158894656
 20
-3168.993343905729
 30
0.0
 11
-206.4024143744065
 21
-3171.177827287969
 31
0.0
  0
ARC
  5
409
330
1F
100
AcDbEntity
  8
0-7_金物
  6
Continuous
 62
    92
370
    13
100
AcDbCircle
 10
-198.7095075496963
 20
-3171.84846975901
 30
0.0
 40
3.0
100
AcDbArc
 50
90.0
 51
107.8786965958413
  0
LINE
  5
40A
330
1F
100
AcDbEntity
  8
0-7_金物
  6
JWW_HOJO
 62
   120
370
     5
100
AcDbLine
 10
9.918593965359577
 20
-210.8487136418884
 30
0.0
 11
9.918593965359577
 21
-3258.848713920766
 31
0.0
  0
MTEXT
  5
40B
330
1F
100
AcDbEntity
  8
F-A_文字
  6
Continuous
 62
     7
370
     0
100
AcDbMText
 10
4938.667793092893
 20
-3938.213885139966
 30
0.0
 40
78.58125
 41
412.5
 46
0.0
 71
     7
 72
     1
  1
{\fＭＳ ゴシック|b0|i0|c128|p49;17.04.03}
 73
     1
 44
1.0
  0
ENDSEC
  0
SECTION
  2
OBJECTS
  0
DICTIONARY
  5
C
330
0
100
AcDbDictionary
281
     1
  3
ACAD_GROUP
350
D
  3
ACAD_LAYOUT
350
1A
  3
ACAD_MATERIAL
350
3B
  3
ACAD_MLEADERSTYLE
350
40D
  3
ACAD_MLINESTYLE
350
17
  3
ACAD_PLOTSETTINGS
350
19
  3
ACAD_PLOTSTYLENAME
350
E
  3
ACAD_TABLESTYLE
350
40C
  3
ACAD_VISUALSTYLE
350
2A
  0
DICTIONARY
  5
D
102
{ACAD_REACTORS
330
C
102
}
330
C
100
AcDbDictionary
281
     1
  0
DICTIONARY
  5
1A
102
{ACAD_REACTORS
330
C
102
}
330
C
100
AcDbDictionary
281
     1
  3
Layout1
350
1E
  3
Layout2
350
26
  3
Model
350
22
  0
DICTIONARY
  5
3B
102
{ACAD_REACTORS
330
C
102
}
330
C
100
AcDbDictionary
281
     1
  3
ByBlock
350
3D
  3
ByLayer
350
3C
  3
Global
350
3E
  0
DICTIONARY
  5
40D
102
{ACAD_REACTORS
330
C
102
}
330
C
100
AcDbDictionary
281
     1
  0
DICTIONARY
  5
17
102
{ACAD_REACTORS
330
C
102
}
330
C
100
AcDbDictionary
281
     1
  3
Standard
350
18
  0
DICTIONARY
  5
19
102
{ACAD_REACTORS
330
C
102
}
330
C
100
AcDbDictionary
281
     1
  0
ACDBDICTIONARYWDFLT
  5
E
102
{ACAD_REACTORS
330
C
102
}
330
C
100
AcDbDictionary
281
     1
  3
Normal
350
F
100
AcDbDictionaryWithDefault
340
F
  0
DICTIONARY
  5
40C
102
{ACAD_REACTORS
330
C
102
}
330
C
100
AcDbDictionary
281
     1
  0
DICTIONARY
  5
2A
102
{ACAD_REACTORS
330
C
102
}
330
C
100
AcDbDictionary
281
     1
  3
2dWireframe
350
2F
  3
3D Hidden
350
31
  3
3dWireframe
350
30
  3
Basic
350
32
  3
Brighten
350
36
  3
ColorChange
350
3A
  3
Conceptual
350
34
  3
Dim
350
35
  3
Facepattern
350
39
  3
Flat
350
2B
  3
FlatWithEdges
350
2C
  3
Gouraud
350
2D
  3
GouraudWithEdges
350
2E
  3
Linepattern
350
38
  3
Realistic
350
33
  3
Thicken
350
37
  0
LAYOUT
  5
1E
102
{ACAD_REACTORS
330
1A
102
}
330
1A
100
AcDbPlotSettings
  1

  2
none_device
  4

  6

 40
0.0
 41
0.0
 42
0.0
 43
0.0
 44
0.0
 45
0.0
 46
0.0
 47
0.0
 48
0.0
 49
0.0
140
0.0
141
0.0
142
1.0
143
1.0
 70
   688
 72
     0
 73
     0
 74
     5
  7

 75
    16
 76
     0
 77
     5
 78
   300
147
1.0
148
0.0
149
0.0
100
AcDbLayout
  1
Layout1
 70
     1
 71
     1
 10
0.0
 20
0.0
 11
420.0
 21
297.0
 12
0.0
 22
0.0
 32
0.0
 14
1.000000000000000E+20
 24
1.000000000000000E+20
 34
1.000000000000000E+20
 15
-1.000000000000000E+20
 25
-1.000000000000000E+20
 35
-1.000000000000000E+20
146
0.0
 13
0.0
 23
0.0
 33
0.0
 16
1.0
 26
0.0
 36
0.0
 17
0.0
 27
1.0
 37
0.0
 76
     0
330
1B
  0
LAYOUT
  5
26
102
{ACAD_REACTORS
330
1A
102
}
330
1A
100
AcDbPlotSettings
  1

  2
none_device
  4

  6

 40
0.0
 41
0.0
 42
0.0
 43
0.0
 44
0.0
 45
0.0
 46
0.0
 47
0.0
 48
0.0
 49
0.0
140
0.0
141
0.0
142
1.0
143
1.0
 70
   688
 72
     0
 73
     0
 74
     5
  7

 75
    16
 76
     0
 77
     5
 78
   300
147
1.0
148
0.0
149
0.0
100
AcDbLayout
  1
Layout2
 70
     1
 71
     2
 10
0.0
 20
0.0
 11
0.0
 21
0.0
 12
0.0
 22
0.0
 32
0.0
 14
0.0
 24
0.0
 34
0.0
 15
0.0
 25
0.0
 35
0.0
146
0.0
 13
0.0
 23
0.0
 33
0.0
 16
1.0
 26
0.0
 36
0.0
 17
0.0
 27
1.0
 37
0.0
 76
     0
330
23
  0
LAYOUT
  5
22
102
{ACAD_REACTORS
330
1A
102
}
330
1A
100
AcDbPlotSettings
  1

  2
none_device
  4

  6

 40
0.0
 41
0.0
 42
0.0
 43
0.0
 44
0.0
 45
0.0
 46
0.0
 47
0.0
 48
0.0
 49
0.0
140
0.0
141
0.0
142
1.0
143
1.0
 70
  1712
 72
     0
 73
     0
 74
     0
  7

 75
     0
 76
     0
 77
     5
 78
   300
147
1.0
148
0.0
149
0.0
100
AcDbLayout
  1
Model
 70
     1
 71
     0
 10
-6300.0
 20
-4455.0
 11
6300.0
 21
4455.0
 12
0.0
 22
0.0
 32
0.0
 14
-6300.0
 24
-4455.0
 34
0.0
 15
6300.0
 25
4455.0
 35
0.0
146
0.0
 13
0.0
 23
0.0
 33
0.0
 16
1.0
 26
0.0
 36
0.0
 17
0.0
 27
1.0
 37
0.0
 76
     0
330
1F
331
29
  0
MATERIAL
  5
3D
102
{ACAD_REACTORS
330
3B
102
}
330
3B
100
AcDbMaterial
  1
ByBlock
 72
     1
 94
      127
  0
MATERIAL
  5
3C
102
{ACAD_REACTORS
330
3B
102
}
330
3B
100
AcDbMaterial
  1
ByLayer
 72
     1
 94
      127
  0
MATERIAL
  5
3E
102
{ACAD_REACTORS
330
3B
102
}
330
3B
100
AcDbMaterial
  1
Global
 72
     1
 94
      127
  0
MLINESTYLE
  5
18
102
{ACAD_REACTORS
330
17
102
}
330
17
100
AcDbMlineStyle
  2
Standard
 70
     0
  3

 62
   256
 51
90.0
 52
90.0
 71
     2
 49
0.5
 62
   256
  6
BYLAYER
 49
-0.5
 62
   256
  6
BYLAYER
  0
ACDBPLACEHOLDER
  5
F
102
{ACAD_REACTORS
330
E
102
}
330
E
  0
VISUALSTYLE
  5
2F
102
{ACAD_REACTORS
330
2A
102
}
330
2A
100
AcDbVisualStyle
  2
2dWireframe
 70
     4
177
     2
291
     0
 71
     0
176
     1
 72
     2
176
     1
 73
     0
176
     1
 90
        0
176
     1
 40
-0.6
176
     1
 41
-30.0
176
     1
 62
     5
 63
     7
421
 16777215
176
     1
 74
     1
176
     1
 91
        4
176
     1
 64
     7
176
     1
 65
   257
176
     1
 75
     1
176
     1
175
     1
176
     1
 42
1.0
176
     1
 92
        0
176
     1
 66
   257
176
     1
 43
1.0
176
     1
 76
     1
176
     1
 77
     6
176
     1
 78
     2
176
     1
 67
     7
176
     1
 79
     5
176
     1
170
     0
176
     1
171
     0
176
     1
290
     0
176
     1
 93
        1
176
     1
 44
0.0
176
     1
173
     0
176
     1
  0
VISUALSTYLE
  5
31
102
{ACAD_REACTORS
330
2A
102
}
330
2A
100
AcDbVisualStyle
  2
3D Hidden
 70
     6
177
     2
291
     0
 71
     1
176
     1
 72
     2
176
     1
 73
     2
176
     1
 90
        0
176
     1
 40
-0.6
176
     1
 41
-30.0
176
     1
 62
     5
 63
     7
421
 16777215
176
     1
 74
     2
176
     1
 91
        2
176
     1
 64
     7
176
     1
 65
   257
176
     1
 75
     2
176
     1
175
     1
176
     1
 42
40.0
176
     1
 92
        0
176
     1
 66
   257
176
     1
 43
1.0
176
     1
 76
     1
176
     1
 77
     6
176
     1
 78
     2
176
     1
 67
     7
176
     1
 79
     3
176
     1
170
     0
176
     1
171
     0
176
     1
290
     0
176
     1
 93
        1
176
     1
 44
0.0
176
     1
173
     0
176
     1
  0
VISUALSTYLE
  5
30
102
{ACAD_REACTORS
330
2A
102
}
330
2A
100
AcDbVisualStyle
  2
3dWireframe
 70
     5
177
     2
291
     0
 71
     0
176
     1
 72
     2
176
     1
 73
     0
176
     1
 90
        0
176
     1
 40
-0.6
176
     1
 41
-30.0
176
     1
 62
     5
 63
     7
421
 16777215
176
     1
 74
     1
176
     1
 91
        4
176
     1
 64
     7
176
     1
 65
   257
176
     1
 75
     1
176
     1
175
     1
176
     1
 42
1.0
176
     1
 92
        0
176
     1
 66
   257
176
     1
 43
1.0
176
     1
 76
     1
176
     1
 77
     6
176
     1
 78
     2
176
     1
 67
     7
176
     1
 79
     5
176
     1
170
     0
176
     1
171
     0
176
     1
290
     0
176
     1
 93
        1
176
     1
 44
0.0
176
     1
173
     0
176
     1
  0
VISUALSTYLE
  5
32
102
{ACAD_REACTORS
330
2A
102
}
330
2A
100
AcDbVisualStyle
  2
Basic
 70
     7
177
     2
291
     1
 71
     1
176
     1
 72
     0
176
     1
 73
     1
176
     1
 90
        0
176
     1
 40
-0.6
176
     1
 41
-30.0
176
     1
 62
     5
 63
     7
421
 16777215
176
     1
 74
     0
176
     1
 91
        4
176
     1
 64
     7
176
     1
 65
   257
176
     1
 75
     1
176
     1
175
     1
176
     1
 42
1.0
176
     1
 92
        8
176
     1
 66
     7
176
     1
 43
1.0
176
     1
 76
     1
176
     1
 77
     6
176
     1
 78
     2
176
     1
 67
     7
176
     1
 79
     5
176
     1
170
     0
176
     1
171
     0
176
     1
290
     0
176
     1
 93
        1
176
     1
 44
0.0
176
     1
173
     0
176
     1
  0
VISUALSTYLE
  5
36
102
{ACAD_REACTORS
330
2A
102
}
330
2A
100
AcDbVisualStyle
  2
Brighten
 70
    12
177
     2
291
     1
 71
     2
176
     1
 72
     2
176
     1
 73
     0
176
     1
 90
        0
176
     1
 40
-0.6
176
     1
 41
-30.0
176
     1
 62
     5
 63
     7
421
 16777215
176
     1
 74
     1
176
     1
 91
        4
176
     1
 64
     7
176
     1
 65
   257
176
     1
 75
     1
176
     1
175
     1
176
     1
 42
1.0
176
     1
 92
        8
176
     1
 66
     7
176
     1
 43
1.0
176
     1
 76
     1
176
     1
 77
     6
176
     1
 78
     2
176
     1
 67
     7
176
     1
 79
     5
176
     1
170
     0
176
     1
171
     0
176
     1
290
     0
176
     1
 93
        1
176
     1
 44
50.0
176
     1
173
     0
176
     1
  0
VISUALSTYLE
  5
3A
102
{ACAD_REACTORS
330
2A
102
}
330
2A
100
AcDbVisualStyle
  2
ColorChange
 70
    16
177
     2
291
     1
 71
     2
176
     1
 72
     2
176
     1
 73
     3
176
     1
 90
        0
176
     1
 40
-0.6
176
     1
 41
-30.0
176
     1
 62
     5
 63
     8
421
  8421504
176
     1
 74
     1
176
     1
 91
        4
176
     1
 64
     7
176
     1
 65
   257
176
     1
 75
     1
176
     1
175
     1
176
     1
 42
1.0
176
     1
 92
        8
176
     1
 66
     8
424
  8421504
176
     1
 43
1.0
176
     1
 76
     1
176
     1
 77
     6
176
     1
 78
     2
176
     1
 67
     7
176
     1
 79
     5
176
     1
170
     0
176
     1
171
     0
176
     1
290
     0
176
     1
 93
        1
176
     1
 44
0.0
176
     1
173
     0
176
     1
  0
VISUALSTYLE
  5
34
102
{ACAD_REACTORS
330
2A
102
}
330
2A
100
AcDbVisualStyle
  2
Conceptual
 70
     9
177
     2
291
     0
 71
     3
176
     1
 72
     2
176
     1
 73
     0
176
     1
 90
        0
176
     1
 40
-0.6
176
     1
 41
-30.0
176
     1
 62
     5
 63
     7
421
 16777215
176
     1
 74
     2
176
     1
 91
        2
176
     1
 64
     7
176
     1
 65
   257
176
     1
 75
     1
176
     1
175
     1
176
     1
 42
40.0
176
     1
 92
        8
176
     1
 66
     7
176
     1
 43
1.0
176
     1
 76
     1
176
     1
 77
     6
176
     1
 78
     2
176
     1
 67
     7
176
     1
 79
     3
176
     1
170
     0
176
     1
171
     0
176
     1
290
     0
176
     1
 93
        1
176
     1
 44
0.0
176
     1
173
     0
176
     1
  0
VISUALSTYLE
  5
35
102
{ACAD_REACTORS
330
2A
102
}
330
2A
100
AcDbVisualStyle
  2
Dim
 70
    11
177
     2
291
     1
 71
     2
176
     1
 72
     2
176
     1
 73
     0
176
     1
 90
        0
176
     1
 40
-0.6
176
     1
 41
-30.0
176
     1
 62
     5
 63
     7
421
 16777215
176
     1
 74
     1
176
     1
 91
        4
176
     1
 64
     7
176
     1
 65
   257
176
     1
 75
     1
176
     1
175
     1
176
     1
 42
1.0
176
     1
 92
        8
176
     1
 66
     7
176
     1
 43
1.0
176
     1
 76
     1
176
     1
 77
     6
176
     1
 78
     2
176
     1
 67
     7
176
     1
 79
     5
176
     1
170
     0
176
     1
171
     0
176
     1
290
     0
176
     1
 93
        1
176
     1
 44
-50.0
176
     1
173
     0
176
     1
  0
VISUALSTYLE
  5
39
102
{ACAD_REACTORS
330
2A
102
}
330
2A
100
AcDbVisualStyle
  2
Facepattern
 70
    15
177
     2
291
     1
 71
     2
176
     1
 72
     2
176
     1
 73
     0
176
     1
 90
        0
176
     1
 40
-0.6
176
     1
 41
-30.0
176
     1
 62
     5
 63
     7
421
 16777215
176
     1
 74
     1
176
     1
 91
        4
176
     1
 64
     7
176
     1
 65
   257
176
     1
 75
     1
176
     1
175
     1
176
     1
 42
1.0
176
     1
 92
        8
176
     1
 66
     7
176
     1
 43
1.0
176
     1
 76
     1
176
     1
 77
     6
176
     1
 78
     2
176
     1
 67
     7
176
     1
 79
     5
176
     1
170
     0
176
     1
171
     0
176
     1
290
     0
176
     1
 93
        1
176
     1
 44
0.0
176
     1
173
     0
176
     1
  0
VISUALSTYLE
  5
2B
102
{ACAD_REACTORS
330
2A
102
}
330
2A
100
AcDbVisualStyle
  2
Flat
 70
     0
177
     2
291
     1
 71
     2
176
     1
 72
     1
176
     1
 73
     1
176
     1
 90
        2
176
     1
 40
-0.6
176
     1
 41
30.0
176
     1
 62
     5
 63
     7
421
 16777215
176
     1
 74
     0
176
     1
 91
        4
176
     1
 64
     7
176
     1
 65
   257
176
     1
 75
     1
176
     1
175
     1
176
     1
 42
1.0
176
     1
 92
        8
176
     1
 66
     7
176
     1
 43
1.0
176
     1
 76
     1
176
     1
 77
     6
176
     1
 78
     2
176
     1
 67
     7
176
     1
 79
     5
176
     1
170
     0
176
     1
171
     0
176
     1
290
     0
176
     1
 93
       13
176
     1
 44
0.0
176
     1
173
     0
176
     1
  0
VISUALSTYLE
  5
2C
102
{ACAD_REACTORS
330
2A
102
}
330
2A
100
AcDbVisualStyle
  2
FlatWithEdges
 70
     1
177
     2
291
     1
 71
     2
176
     1
 72
     1
176
     1
 73
     1
176
     1
 90
        2
176
     1
 40
-0.6
176
     1
 41
30.0
176
     1
 62
     5
 63
     7
421
 16777215
176
     1
 74
     1
176
     1
 91
        4
176
     1
 64
     7
176
     1
 65
   257
176
     1
 75
     1
176
     1
175
     1
176
     1
 42
1.0
176
     1
 92
        0
176
     1
 66
   257
176
     1
 43
1.0
176
     1
 76
     1
176
     1
 77
     6
176
     1
 78
     2
176
     1
 67
     7
176
     1
 79
     5
176
     1
170
     0
176
     1
171
     0
176
     1
290
     0
176
     1
 93
       13
176
     1
 44
0.0
176
     1
173
     0
176
     1
  0
VISUALSTYLE
  5
2D
102
{ACAD_REACTORS
330
2A
102
}
330
2A
100
AcDbVisualStyle
  2
Gouraud
 70
     2
177
     2
291
     1
 71
     2
176
     1
 72
     2
176
     1
 73
     1
176
     1
 90
        2
176
     1
 40
-0.6
176
     1
 41
30.0
176
     1
 62
     5
 63
     7
421
 16777215
176
     1
 74
     0
176
     1
 91
        4
176
     1
 64
     7
176
     1
 65
   257
176
     1
 75
     1
176
     1
175
     1
176
     1
 42
1.0
176
     1
 92
        0
176
     1
 66
     7
176
     1
 43
1.0
176
     1
 76
     1
176
     1
 77
     6
176
     1
 78
     2
176
     1
 67
     7
176
     1
 79
     5
176
     1
170
     0
176
     1
171
     0
176
     1
290
     0
176
     1
 93
       13
176
     1
 44
0.0
176
     1
173
     0
176
     1
  0
VISUALSTYLE
  5
2E
102
{ACAD_REACTORS
330
2A
102
}
330
2A
100
AcDbVisualStyle
  2
GouraudWithEdges
 70
     3
177
     2
291
     1
 71
     2
176
     1
 72
     2
176
     1
 73
     1
176
     1
 90
        2
176
     1
 40
-0.6
176
     1
 41
30.0
176
     1
 62
     5
 63
     7
421
 16777215
176
     1
 74
     1
176
     1
 91
        4
176
     1
 64
     7
176
     1
 65
   257
176
     1
 75
     1
176
     1
175
     1
176
     1
 42
1.0
176
     1
 92
        0
176
     1
 66
   257
176
     1
 43
1.0
176
     1
 76
     1
176
     1
 77
     6
176
     1
 78
     2
176
     1
 67
     7
176
     1
 79
     5
176
     1
170
     0
176
     1
171
     0
176
     1
290
     0
176
     1
 93
       13
176
     1
 44
0.0
176
     1
173
     0
176
     1
  0
VISUALSTYLE
  5
38
102
{ACAD_REACTORS
330
2A
102
}
330
2A
100
AcDbVisualStyle
  2
Linepattern
 70
    14
177
     2
291
     1
 71
     2
176
     1
 72
     2
176
     1
 73
     0
176
     1
 90
        0
176
     1
 40
-0.6
176
     1
 41
-30.0
176
     1
 62
     5
 63
     7
421
 16777215
176
     1
 74
     1
176
     1
 91
        4
176
     1
 64
     7
176
     1
 65
   257
176
     1
 75
     7
176
     1
175
     7
176
     1
 42
1.0
176
     1
 92
        8
176
     1
 66
     7
176
     1
 43
1.0
176
     1
 76
     1
176
     1
 77
     6
176
     1
 78
     2
176
     1
 67
     7
176
     1
 79
     5
176
     1
170
     0
176
     1
171
     0
176
     1
290
     0
176
     1
 93
        1
176
     1
 44
0.0
176
     1
173
     0
176
     1
  0
VISUALSTYLE
  5
33
102
{ACAD_REACTORS
330
2A
102
}
330
2A
100
AcDbVisualStyle
  2
Realistic
 70
     8
177
     2
291
     0
 71
     2
176
     1
 72
     2
176
     1
 73
     0
176
     1
 90
        0
176
     1
 40
-0.6
176
     1
 41
-30.0
176
     1
 62
     5
 63
     7
421
 16777215
176
     1
 74
     1
176
     1
 91
        0
176
     1
 64
     7
176
     1
 65
   257
176
     1
 75
     1
176
     1
175
     1
176
     1
 42
1.0
176
     1
 92
        8
176
     1
 66
     8
424
  7895160
176
     1
 43
1.0
176
     1
 76
     1
176
     1
 77
     6
176
     1
 78
     2
176
     1
 67
     7
176
     1
 79
     5
176
     1
170
     0
176
     1
171
     0
176
     1
290
     0
176
     1
 93
       13
176
     1
 44
0.0
176
     1
173
     0
176
     1
  0
VISUALSTYLE
  5
37
102
{ACAD_REACTORS
330
2A
102
}
330
2A
100
AcDbVisualStyle
  2
Thicken
 70
    13
177
     2
291
     1
 71
     2
176
     1
 72
     2
176
     1
 73
     0
176
     1
 90
        0
176
     1
 40
-0.6
176
     1
 41
-30.0
176
     1
 62
     5
 63
     7
421
 16777215
176
     1
 74
     1
176
     1
 91
        4
176
     1
 64
     7
176
     1
 65
   257
176
     1
 75
     1
176
     1
175
     1
176
     1
 42
1.0
176
     1
 92
       12
176
     1
 66
     7
176
     1
 43
1.0
176
     1
 76
     1
176
     1
 77
     6
176
     1
 78
     2
176
     1
 67
     7
176
     1
 79
     5
176
     1
170
     0
176
     1
171
     0
176
     1
290
     0
176
     1
 93
        1
176
     1
 44
0.0
176
     1
173
     0
176
     1
  0
ENDSEC
  0
EOF
