  0
SECTION
  2
HEADER
  9
$ACADVER
  1
AC1024
  9
$ACADMAINTVER
 70
     6
  9
$DWGCODEPAGE
  3
ANSI_932
  9
$INSBASE
 10
0.0
 20
0.0
 30
0.0
  9
$EXTMIN
 10
-6300.0
 20
-4455.0
 30
0.0
  9
$EXTMAX
 10
6300.0
 20
4455.0
 30
0.0
  9
$LIMMIN
 10
-6300.0
 20
-4455.0
  9
$LIMMAX
 10
6300.0
 20
4455.0
  9
$ORTHOMODE
 70
     0
  9
$REGENMODE
 70
     1
  9
$FILLMODE
 70
     1
  9
$QTEXTMODE
 70
     0
  9
$MIRRTEXT
 70
     1
  9
$LTSCALE
 40
30.0
  9
$ATTMODE
 70
     1
  9
$TEXTSIZE
 40
2.5
  9
$TRACEWID
 40
1.0
  9
$TEXTSTYLE
  7
Standard
  9
$CLAYER
  8
0
  9
$CELTYPE
  6
ByLayer
  9
$CECOLOR
 62
   256
  9
$CELTSCALE
 40
1.0
  9
$DISPSILH
 70
     0
  9
$DIMSCALE
 40
1.0
  9
$DIMASZ
 40
2.5
  9
$DIMEXO
 40
0.625
  9
$DIMDLI
 40
3.75
  9
$DIMRND
 40
0.0
  9
$DIMDLE
 40
0.0
  9
$DIMEXE
 40
1.25
  9
$DIMTP
 40
0.0
  9
$DIMTM
 40
0.0
  9
$DIMTXT
 40
2.5
  9
$DIMCEN
 40
2.5
  9
$DIMTSZ
 40
0.0
  9
$DIMTOL
 70
     0
  9
$DIMLIM
 70
     0
  9
$DIMTIH
 70
     0
  9
$DIMTOH
 70
     0
  9
$DIMSE1
 70
     0
  9
$DIMSE2
 70
     0
  9
$DIMTAD
 70
     1
  9
$DIMZIN
 70
     8
  9
$DIMBLK
  1

  9
$DIMASO
 70
     1
  9
$DIMSHO
 70
     1
  9
$DIMPOST
  1

  9
$DIMAPOST
  1

  9
$DIMALT
 70
     0
  9
$DIMALTD
 70
     3
  9
$DIMALTF
 40
0.03937007874016
  9
$DIMLFAC
 40
1.0
  9
$DIMTOFL
 70
     1
  9
$DIMTVP
 40
0.0
  9
$DIMTIX
 70
     0
  9
$DIMSOXD
 70
     0
  9
$DIMSAH
 70
     0
  9
$DIMBLK1
  1

  9
$DIMBLK2
  1

  9
$DIMSTYLE
  2
ISO-25
  9
$DIMCLRD
 70
     0
  9
$DIMCLRE
 70
     0
  9
$DIMCLRT
 70
     0
  9
$DIMTFAC
 40
1.0
  9
$DIMGAP
 40
0.625
  9
$DIMJUST
 70
     0
  9
$DIMSD1
 70
     0
  9
$DIMSD2
 70
     0
  9
$DIMTOLJ
 70
     0
  9
$DIMTZIN
 70
     8
  9
$DIMALTZ
 70
     0
  9
$DIMALTTZ
 70
     0
  9
$DIMUPT
 70
     0
  9
$DIMDEC
 70
     2
  9
$DIMTDEC
 70
     2
  9
$DIMALTU
 70
     2
  9
$DIMALTTD
 70
     3
  9
$DIMTXSTY
  7
Standard
  9
$DIMAUNIT
 70
     0
  9
$DIMADEC
 70
     0
  9
$DIMALTRND
 40
0.0
  9
$DIMAZIN
 70
     0
  9
$DIMDSEP
 70
    44
  9
$DIMATFIT
 70
     3
  9
$DIMFRAC
 70
     0
  9
$DIMLDRBLK
  1

  9
$DIMLUNIT
 70
     2
  9
$DIMLWD
 70
    -2
  9
$DIMLWE
 70
    -2
  9
$DIMTMOVE
 70
     0
  9
$DIMFXL
 40
1.0
  9
$DIMFXLON
 70
     0
  9
$DIMJOGANG
 40
0.7853981633974483
  9
$DIMTFILL
 70
     0
  9
$DIMTFILLCLR
 70
     0
  9
$DIMARCSYM
 70
     0
  9
$DIMLTYPE
  6

  9
$DIMLTEX1
  6

  9
$DIMLTEX2
  6

  9
$DIMTXTDIRECTION
 70
     0
  9
$LUNITS
 70
     2
  9
$LUPREC
 70
     4
  9
$SKETCHINC
 40
1.0
  9
$FILLETRAD
 40
10.0
  9
$AUNITS
 70
     0
  9
$AUPREC
 70
     0
  9
$MENU
  1
.
  9
$ELEVATION
 40
0.0
  9
$PELEVATION
 40
0.0
  9
$THICKNESS
 40
0.0
  9
$LIMCHECK
 70
     0
  9
$CHAMFERA
 40
10.0
  9
$CHAMFERB
 40
10.0
  9
$CHAMFERC
 40
20.0
  9
$CHAMFERD
 40
0.0
  9
$SKPOLY
 70
     0
  9
$TDCREATE
 40
2457914.530609838
  9
$TDUCREATE
 40
2457914.155609838
  9
$TDUPDATE
 40
2457914.530609849
  9
$TDUUPDATE
 40
2457914.155609849
  9
$TDINDWG
 40
0.0000000116
  9
$TDUSRTIMER
 40
0.0000000116
  9
$USRTIMER
 70
     1
  9
$ANGBASE
 50
0.0
  9
$ANGDIR
 70
     0
  9
$PDMODE
 70
     0
  9
$PDSIZE
 40
0.0
  9
$PLINEWID
 40
0.0
  9
$SPLFRAME
 70
     0
  9
$SPLINETYPE
 70
     6
  9
$SPLINESEGS
 70
     8
  9
$HANDSEED
  5
363
  9
$SURFTAB1
 70
     6
  9
$SURFTAB2
 70
     6
  9
$SURFTYPE
 70
     6
  9
$SURFU
 70
     6
  9
$SURFV
 70
     6
  9
$UCSBASE
  2

  9
$UCSNAME
  2

  9
$UCSORG
 10
0.0
 20
0.0
 30
0.0
  9
$UCSXDIR
 10
1.0
 20
0.0
 30
0.0
  9
$UCSYDIR
 10
0.0
 20
1.0
 30
0.0
  9
$UCSORTHOREF
  2

  9
$UCSORTHOVIEW
 70
     0
  9
$UCSORGTOP
 10
0.0
 20
0.0
 30
0.0
  9
$UCSORGBOTTOM
 10
0.0
 20
0.0
 30
0.0
  9
$UCSORGLEFT
 10
0.0
 20
0.0
 30
0.0
  9
$UCSORGRIGHT
 10
0.0
 20
0.0
 30
0.0
  9
$UCSORGFRONT
 10
0.0
 20
0.0
 30
0.0
  9
$UCSORGBACK
 10
0.0
 20
0.0
 30
0.0
  9
$PUCSBASE
  2

  9
$PUCSNAME
  2

  9
$PUCSORG
 10
0.0
 20
0.0
 30
0.0
  9
$PUCSXDIR
 10
1.0
 20
0.0
 30
0.0
  9
$PUCSYDIR
 10
0.0
 20
1.0
 30
0.0
  9
$PUCSORTHOREF
  2

  9
$PUCSORTHOVIEW
 70
     0
  9
$PUCSORGTOP
 10
0.0
 20
0.0
 30
0.0
  9
$PUCSORGBOTTOM
 10
0.0
 20
0.0
 30
0.0
  9
$PUCSORGLEFT
 10
0.0
 20
0.0
 30
0.0
  9
$PUCSORGRIGHT
 10
0.0
 20
0.0
 30
0.0
  9
$PUCSORGFRONT
 10
0.0
 20
0.0
 30
0.0
  9
$PUCSORGBACK
 10
0.0
 20
0.0
 30
0.0
  9
$USERI1
 70
     0
  9
$USERI2
 70
     0
  9
$USERI3
 70
     0
  9
$USERI4
 70
     0
  9
$USERI5
 70
     0
  9
$USERR1
 40
0.0
  9
$USERR2
 40
0.0
  9
$USERR3
 40
0.0
  9
$USERR4
 40
0.0
  9
$USERR5
 40
0.0
  9
$WORLDVIEW
 70
     1
  9
$SHADEDGE
 70
     3
  9
$SHADEDIF
 70
    70
  9
$TILEMODE
 70
     1
  9
$MAXACTVP
 70
    64
  9
$PINSBASE
 10
0.0
 20
0.0
 30
0.0
  9
$PLIMCHECK
 70
     0
  9
$PEXTMIN
 10
1.000000000000000E+20
 20
1.000000000000000E+20
 30
1.000000000000000E+20
  9
$PEXTMAX
 10
-1.000000000000000E+20
 20
-1.000000000000000E+20
 30
-1.000000000000000E+20
  9
$PLIMMIN
 10
0.0
 20
0.0
  9
$PLIMMAX
 10
420.0
 20
297.0
  9
$UNITMODE
 70
     0
  9
$VISRETAIN
 70
     1
  9
$PLINEGEN
 70
     0
  9
$PSLTSCALE
 70
     1
  9
$TREEDEPTH
 70
  3020
  9
$CMLSTYLE
  2
Standard
  9
$CMLJUST
 70
     0
  9
$CMLSCALE
 40
20.0
  9
$PROXYGRAPHICS
 70
     1
  9
$MEASUREMENT
 70
     1
  9
$CELWEIGHT
370
    -1
  9
$ENDCAPS
280
     0
  9
$JOINSTYLE
280
     0
  9
$LWDISPLAY
290
     0
  9
$INSUNITS
 70
     4
  9
$HYPERLINKBASE
  1

  9
$STYLESHEET
  1

  9
$XEDIT
290
     1
  9
$CEPSNTYPE
380
     0
  9
$PSTYLEMODE
290
     1
  9
$FINGERPRINTGUID
  2
{52CF431A-0F38-4AEB-8359-464E12FE4456}
  9
$VERSIONGUID
  2
{FAEB1C32-E019-11D5-929B-00C0DF256EC4}
  9
$EXTNAMES
290
     1
  9
$PSVPSCALE
 40
0.0
  9
$OLESTARTUP
290
     0
  9
$SORTENTS
280
   127
  9
$INDEXCTL
280
     0
  9
$HIDETEXT
280
     1
  9
$XCLIPFRAME
280
     2
  9
$HALOGAP
280
     0
  9
$OBSCOLOR
 70
   257
  9
$OBSLTYPE
280
     0
  9
$INTERSECTIONDISPLAY
280
     0
  9
$INTERSECTIONCOLOR
 70
   257
  9
$DIMASSOC
280
     2
  9
$PROJECTNAME
  1

  9
$CAMERADISPLAY
290
     0
  9
$LENSLENGTH
 40
50.0
  9
$CAMERAHEIGHT
 40
0.0
  9
$STEPSPERSEC
 40
2.0
  9
$STEPSIZE
 40
6.0
  9
$3DDWFPREC
 40
2.0
  9
$PSOLWIDTH
 40
5.0
  9
$PSOLHEIGHT
 40
80.0
  9
$LOFTANG1
 40
1.570796326794897
  9
$LOFTANG2
 40
1.570796326794897
  9
$LOFTMAG1
 40
0.0
  9
$LOFTMAG2
 40
0.0
  9
$LOFTPARAM
 70
     7
  9
$LOFTNORMALS
280
     1
  9
$LATITUDE
 40
37.795
  9
$LONGITUDE
 40
-122.394
  9
$NORTHDIRECTION
 40
0.0
  9
$TIMEZONE
 70
 -8000
  9
$LIGHTGLYPHDISPLAY
280
     1
  9
$TILEMODELIGHTSYNCH
280
     1
  9
$SOLIDHIST
280
     1
  9
$SHOWHIST
280
     1
  9
$DWFFRAME
280
     2
  9
$DGNFRAME
280
     2
  9
$REALWORLDSCALE
290
     1
  9
$INTERFERECOLOR
 62
   256
  9
$CSHADOW
280
     0
  9
$SHADOWPLANELOCATION
 40
0.0
  0
ENDSEC
  0
SECTION
  2
CLASSES
  0
CLASS
  1
ACDBDICTIONARYWDFLT
  2
AcDbDictionaryWithDefault
  3
ObjectDBX Classes
 90
        0
 91
        4
280
     0
281
     0
  0
CLASS
  1
VISUALSTYLE
  2
AcDbVisualStyle
  3
ObjectDBX Classes
 90
     4095
 91
        4
280
     0
281
     0
  0
CLASS
  1
MATERIAL
  2
AcDbMaterial
  3
ObjectDBX Classes
 90
     1153
 91
        4
280
     0
281
     0
  0
ENDSEC
  0
SECTION
  2
TABLES
  0
TABLE
  2
VPORT
  5
8
330
0
100
AcDbSymbolTable
 70
     1
  0
VPORT
  5
29
330
8
100
AcDbSymbolTableRecord
100
AcDbViewportTableRecord
  2
*Active
 70
     0
 10
0.0
 20
0.0
 11
1.0
 21
1.0
 12
0.0
 22
0.0
 13
0.0
 23
0.0
 14
10.0
 24
10.0
 15
10.0
 25
10.0
 16
0.0
 26
0.0
 36
1.0
 17
0.0
 27
0.0
 37
0.0
 40
9801.0
 41
1.414141414141414
 42
50.0
 43
0.0
 44
0.0
 50
0.0
 51
0.0
 71
     0
 72
 10000
 73
     1
 74
     3
 75
     0
 76
     0
 77
     0
 78
     0
281
     0
 65
     1
110
0.0
120
0.0
130
0.0
111
1.0
121
0.0
131
0.0
112
0.0
122
1.0
132
0.0
 79
     0
146
0.0
 60
     3
 61
     5
292
     1
282
     1
141
0.0
142
0.0
 63
   250
  0
ENDTAB
  0
TABLE
  2
LTYPE
  5
5
330
0
100
AcDbSymbolTable
 70
     5
  0
LTYPE
  5
14
330
5
100
AcDbSymbolTableRecord
100
AcDbLinetypeTableRecord
  2
ByBlock
 70
     0
  3

 72
    65
 73
     0
 40
0.0
  0
LTYPE
  5
15
330
5
100
AcDbSymbolTableRecord
100
AcDbLinetypeTableRecord
  2
ByLayer
 70
     0
  3

 72
    65
 73
     0
 40
0.0
  0
LTYPE
  5
16
330
5
100
AcDbSymbolTableRecord
100
AcDbLinetypeTableRecord
  2
Continuous
 70
     0
  3
Solid line
 72
    65
 73
     0
 40
0.0
  0
LTYPE
  5
3F
330
5
100
AcDbSymbolTableRecord
100
AcDbLinetypeTableRecord
  2
JWW_HOJO
 70
     0
  3
  -   -   -   -   -   -   -   - 
 72
    65
 73
     2
 40
1.693333333333333
 49
-1.27
 74
     0
 49
0.4233333333333333
 74
     0
  0
LTYPE
  5
40
330
5
100
AcDbSymbolTableRecord
100
AcDbLinetypeTableRecord
  2
JWW_DASHED2
 70
     0
  3
--    ----    ----    ----    --
 72
    65
 73
     2
 40
3.386666666666667
 49
1.693333333333333
 74
     0
 49
-1.693333333333333
 74
     0
  0
LTYPE
  5
41
330
5
100
AcDbSymbolTableRecord
100
AcDbLinetypeTableRecord
  2
JWW_DASHED1
 70
     0
  3
-  --  --  --  --  --  --  --  -
 72
    65
 73
     2
 40
1.693333333333333
 49
0.8466666666666667
 74
     0
 49
-0.8466666666666667
 74
     0
  0
LTYPE
  5
42
330
5
100
AcDbSymbolTableRecord
100
AcDbLinetypeTableRecord
  2
JWW_CENTER1
 70
     0
  3
-----  --  ----------  --  -----
 72
    65
 73
     4
 40
6.773333333333333
 49
4.233333333333333
 74
     0
 49
-0.8466666666666667
 74
     0
 49
0.8466666666666667
 74
     0
 49
-0.8466666666666667
 74
     0
  0
ENDTAB
  0
TABLE
  2
LAYER
  5
2
330
0
100
AcDbSymbolTable
 70
    15
  0
LAYER
  5
10
330
2
100
AcDbSymbolTableRecord
100
AcDbLayerTableRecord
  2
0
 70
     0
 62
     7
  6
Continuous
370
    -3
390
F
347
3E
  0
LAYER
  5
43
330
2
100
AcDbSymbolTableRecord
100
AcDbLayerTableRecord
  2
F-0_補助線
 70
     0
 62
     7
  6
Continuous
370
    -3
390
F
347
3E
  0
LAYER
  5
44
330
2
100
AcDbSymbolTableRecord
100
AcDbLayerTableRecord
  2
F-1_枠
 70
     0
 62
     7
  6
Continuous
370
    -3
390
F
347
3E
  0
LAYER
  5
45
330
2
100
AcDbSymbolTableRecord
100
AcDbLayerTableRecord
  2
0-A_文字
 70
     0
 62
     7
  6
Continuous
370
    -3
390
F
347
3E
  0
LAYER
  5
46
330
2
100
AcDbSymbolTableRecord
100
AcDbLayerTableRecord
  2
F-A_文字
 70
     0
 62
     7
  6
Continuous
370
    -3
390
F
347
3E
  0
LAYER
  5
47
330
2
100
AcDbSymbolTableRecord
100
AcDbLayerTableRecord
  2
0-0_補助線
 70
     0
 62
     7
  6
Continuous
370
    -3
390
F
347
3E
  0
LAYER
  5
48
330
2
100
AcDbSymbolTableRecord
100
AcDbLayerTableRecord
  2
戸当り
 70
     0
 62
     7
  6
Continuous
370
    -3
390
F
347
3E
  0
LAYER
  5
49
330
2
100
AcDbSymbolTableRecord
100
AcDbLayerTableRecord
  2
0-B_寸法
 70
     0
 62
     7
  6
Continuous
370
    -3
390
F
347
3E
  0
LAYER
  5
4A
330
2
100
AcDbSymbolTableRecord
100
AcDbLayerTableRecord
  2
0-C_ハッチ
 70
     0
 62
     7
  6
Continuous
370
    -3
390
F
347
3E
  0
LAYER
  5
4B
330
2
100
AcDbSymbolTableRecord
100
AcDbLayerTableRecord
  2
0-4_枠
 70
     0
 62
     7
  6
Continuous
370
    -3
390
F
347
3E
  0
LAYER
  5
4C
330
2
100
AcDbSymbolTableRecord
100
AcDbLayerTableRecord
  2
0-7_金物
 70
     0
 62
     7
  6
Continuous
370
    -3
390
F
347
3E
  0
LAYER
  5
4D
330
2
100
AcDbSymbolTableRecord
100
AcDbLayerTableRecord
  2
0-6_扉
 70
     0
 62
     7
  6
Continuous
370
    -3
390
F
347
3E
  0
LAYER
  5
4E
330
2
100
AcDbSymbolTableRecord
100
AcDbLayerTableRecord
  2
0-2_柱
 70
     0
 62
     7
  6
Continuous
370
    -3
390
F
347
3E
  0
LAYER
  5
4F
330
2
100
AcDbSymbolTableRecord
100
AcDbLayerTableRecord
  2
0-3_仕上げ
 70
     0
 62
     7
  6
Continuous
370
    -3
390
F
347
3E
  0
LAYER
  5
50
330
2
100
AcDbSymbolTableRecord
100
AcDbLayerTableRecord
  2
0-1_通り芯
 70
     0
 62
     7
  6
Continuous
370
    -3
390
F
347
3E
  0
ENDTAB
  0
TABLE
  2
STYLE
  5
3
330
0
100
AcDbSymbolTable
 70
     1
  0
STYLE
  5
11
330
3
100
AcDbSymbolTableRecord
100
AcDbTextStyleTableRecord
  2
Standard
 70
     0
 40
0.0
 41
1.0
 50
0.0
 71
     0
 42
2.5
  3
txt
  4

  0
ENDTAB
  0
TABLE
  2
VIEW
  5
6
330
0
100
AcDbSymbolTable
 70
     0
  0
ENDTAB
  0
TABLE
  2
UCS
  5
7
330
0
100
AcDbSymbolTable
 70
     0
  0
ENDTAB
  0
TABLE
  2
APPID
  5
9
330
0
100
AcDbSymbolTable
 70
     1
  0
APPID
  5
12
330
9
100
AcDbSymbolTableRecord
100
AcDbRegAppTableRecord
  2
ACAD
 70
     0
  0
ENDTAB
  0
TABLE
  2
DIMSTYLE
  5
A
330
0
100
AcDbSymbolTable
 70
     1
100
AcDbDimStyleTable
  0
DIMSTYLE
105
27
330
A
100
AcDbSymbolTableRecord
100
AcDbDimStyleTableRecord
  2
ISO-25
 70
     0
 41
2.5
 42
0.625
 43
3.75
 44
1.25
 73
     0
 74
     0
 77
     1
 78
     8
140
2.5
141
2.5
143
0.03937007874016
147
0.625
171
     3
172
     1
178
     0
271
     2
272
     2
274
     3
278
    44
283
     0
284
     8
340
11
  0
ENDTAB
  0
TABLE
  2
BLOCK_RECORD
  5
1
330
0
100
AcDbSymbolTable
 70
     1
  0
BLOCK_RECORD
  5
1F
330
1
100
AcDbSymbolTableRecord
100
AcDbBlockTableRecord
  2
*Model_Space
340
22
 70
     0
280
     1
281
     0
  0
BLOCK_RECORD
  5
1B
330
1
100
AcDbSymbolTableRecord
100
AcDbBlockTableRecord
  2
*Paper_Space
340
1E
 70
     0
280
     1
281
     0
  0
BLOCK_RECORD
  5
23
330
1
100
AcDbSymbolTableRecord
100
AcDbBlockTableRecord
  2
*Paper_Space0
340
26
 70
     0
280
     1
281
     0
  0
ENDTAB
  0
ENDSEC
  0
SECTION
  2
BLOCKS
  0
BLOCK
  5
20
330
1F
100
AcDbEntity
  8
0
100
AcDbBlockBegin
  2
*Model_Space
 70
     0
 10
0.0
 20
0.0
 30
0.0
  3
*Model_Space
  1

  0
ENDBLK
  5
21
330
1F
100
AcDbEntity
  8
0
100
AcDbBlockEnd
  0
BLOCK
  5
1C
330
1B
100
AcDbEntity
 67
     1
  8
0
100
AcDbBlockBegin
  2
*Paper_Space
 70
     0
 10
0.0
 20
0.0
 30
0.0
  3
*Paper_Space
  1

  0
ENDBLK
  5
1D
330
1B
100
AcDbEntity
 67
     1
  8
0
100
AcDbBlockEnd
  0
BLOCK
  5
24
330
23
100
AcDbEntity
  8
0
100
AcDbBlockBegin
  2
*Paper_Space0
 70
     0
 10
0.0
 20
0.0
 30
0.0
  3
*Paper_Space0
  1

  0
ENDBLK
  5
25
330
23
100
AcDbEntity
  8
0
100
AcDbBlockEnd
  0
ENDSEC
  0
SECTION
  2
ENTITIES
  0
LINE
  5
51
330
1F
100
AcDbEntity
  8
F-0_補助線
  6
JWW_HOJO
 62
   120
370
     5
100
AcDbLine
 10
-6140.081333436773
 20
-4455.0
 30
0.0
 11
-6140.081333436773
 21
4424.999604096284
 31
0.0
  0
LINE
  5
52
330
1F
100
AcDbEntity
  8
F-0_補助線
  6
JWW_HOJO
 62
   120
370
     5
100
AcDbLine
 10
-6140.081333436773
 20
4424.999604096284
 30
0.0
 11
6159.917676803936
 21
4424.999604096284
 31
0.0
  0
LINE
  5
53
330
1F
100
AcDbEntity
  8
F-0_補助線
  6
JWW_HOJO
 62
   120
370
     5
100
AcDbLine
 10
6159.917676803936
 20
4424.999604096284
 30
0.0
 11
6159.917676803936
 21
-4455.0
 31
0.0
  0
LINE
  5
54
330
1F
100
AcDbEntity
  8
F-0_補助線
  6
JWW_HOJO
 62
   120
370
     5
100
AcDbLine
 10
6159.917676803936
 20
-4455.0
 30
0.0
 11
-6140.081333436773
 21
-4455.0
 31
0.0
  0
LINE
  5
55
330
1F
100
AcDbEntity
  8
F-0_補助線
  6
JWW_HOJO
 62
     7
370
     9
100
AcDbLine
 10
1009.918254163523
 20
-3795.000003092998
 30
0.0
 11
1009.918254163523
 21
-4195.000008247994
 31
0.0
  0
LINE
  5
56
330
1F
100
AcDbEntity
  8
F-0_補助線
  6
JWW_HOJO
 62
     7
370
     9
100
AcDbLine
 10
509.9185840832865
 20
-3795.000003092998
 30
0.0
 11
509.9185840832865
 21
-4195.000008247994
 31
0.0
  0
LINE
  5
57
330
1F
100
AcDbEntity
  8
F-1_枠
  6
Continuous
 62
   200
370
    20
100
AcDbLine
 10
5859.917429364114
 20
4174.999769056166
 30
0.0
 11
5859.917429364114
 21
-4205.000164959882
 31
0.0
  0
LINE
  5
58
330
1F
100
AcDbEntity
  8
F-1_枠
  6
Continuous
 62
   200
370
    20
100
AcDbLine
 10
-5840.081317971782
 20
4174.999769056166
 30
0.0
 11
-5840.081317971782
 21
-4205.000164959882
 31
0.0
  0
LINE
  5
59
330
1F
100
AcDbEntity
  8
F-1_枠
  6
Continuous
 62
   200
370
    20
100
AcDbLine
 10
5859.917429364114
 20
-4205.000002577498
 30
0.0
 11
-5840.081085996952
 21
-4205.000002577498
 31
0.0
  0
LINE
  5
5A
330
1F
100
AcDbEntity
  8
F-1_枠
  6
Continuous
 62
   200
370
    20
100
AcDbLine
 10
-5830.081323642279
 20
4174.999769056166
 30
0.0
 11
-5830.081323642279
 21
-4205.000164959882
 31
0.0
  0
LINE
  5
5B
330
1F
100
AcDbEntity
  8
F-1_枠
  6
Continuous
 62
   200
370
    20
100
AcDbLine
 10
-5835.081309208291
 20
4174.999769056166
 30
0.0
 11
-5835.081309208291
 21
-4205.000164959882
 31
0.0
  0
LINE
  5
5C
330
1F
100
AcDbEntity
  8
F-1_枠
  6
Continuous
 62
   200
370
    20
100
AcDbLine
 10
5854.917165428304
 20
4174.999769056166
 30
0.0
 11
5854.917165428304
 21
-4205.000164959882
 31
0.0
  0
LINE
  5
5D
330
1F
100
AcDbEntity
  8
F-1_枠
  6
Continuous
 62
   200
370
    20
100
AcDbLine
 10
5849.917643811961
 20
4174.999769056166
 30
0.0
 11
5849.917643811961
 21
-4205.000164959882
 31
0.0
  0
LINE
  5
5E
330
1F
100
AcDbEntity
  8
F-1_枠
  6
Continuous
 62
   200
370
    20
100
AcDbLine
 10
5859.917429364114
 20
-4199.999993814004
 30
0.0
 11
-5840.081085996952
 21
-4199.999993814004
 31
0.0
  0
LINE
  5
5F
330
1F
100
AcDbEntity
  8
F-1_枠
  6
Continuous
 62
   200
370
    20
100
AcDbLine
 10
5859.917429364114
 20
-4195.000008247994
 30
0.0
 11
-5840.081085996952
 21
-4195.000008247994
 31
0.0
  0
LINE
  5
60
330
1F
100
AcDbEntity
  8
F-1_枠
  6
Continuous
 62
   200
370
    20
100
AcDbLine
 10
4349.917891251784
 20
-3795.000003092998
 30
0.0
 11
4349.917891251784
 21
-4195.000008247994
 31
0.0
  0
LINE
  5
61
330
1F
100
AcDbEntity
  8
F-1_枠
  6
Continuous
 62
   200
370
    20
100
AcDbLine
 10
2849.917396372139
 20
-3795.000003092998
 30
0.0
 11
2849.917396372139
 21
-4195.000008247994
 31
0.0
  0
LINE
  5
62
330
1F
100
AcDbEntity
  8
F-1_枠
  6
Continuous
 62
   200
370
    20
100
AcDbLine
 10
9.918542843316231
 20
-3795.000003092998
 30
0.0
 11
9.918542843316231
 21
-4195.000008247994
 31
0.0
  0
LINE
  5
63
330
1F
100
AcDbEntity
  8
F-1_枠
  6
Continuous
 62
   200
370
    20
100
AcDbLine
 10
9.918542843316231
 20
-3994.999936078046
 30
0.0
 11
5849.917643811961
 21
-3995.005364289155
 31
0.0
  0
LINE
  5
64
330
1F
100
AcDbEntity
  8
F-1_枠
  6
Continuous
 62
   200
370
    20
100
AcDbLine
 10
-5840.081085996952
 20
4174.999769056166
 30
0.0
 11
5859.917429364114
 21
4174.999769056166
 31
0.0
  0
LINE
  5
65
330
1F
100
AcDbEntity
  8
F-1_枠
  6
Continuous
 62
   200
370
    20
100
AcDbLine
 10
-5840.081085996952
 20
4164.999983504013
 30
0.0
 11
5859.917429364114
 21
4164.999983504013
 31
0.0
  0
LINE
  5
66
330
1F
100
AcDbEntity
  8
F-1_枠
  6
Continuous
 62
   200
370
    20
100
AcDbLine
 10
-5840.081085996952
 20
4169.999505120355
 30
0.0
 11
5859.917429364114
 21
4169.999505120355
 31
0.0
  0
LINE
  5
67
330
1F
100
AcDbEntity
  8
F-0_補助線
  6
JWW_HOJO
 62
     7
370
     9
100
AcDbLine
 10
-5830.081323642279
 20
-3994.99993607839
 30
0.0
 11
9.918542843316231
 21
-3994.99993607839
 31
0.0
  0
LINE
  5
68
330
1F
100
AcDbEntity
  8
F-0_補助線
  6
JWW_HOJO
 62
     7
370
     9
100
AcDbLine
 10
-5830.081323642279
 20
-3904.99993607839
 30
0.0
 11
9.918542843316231
 21
-3904.99993607839
 31
0.0
  0
LINE
  5
69
330
1F
100
AcDbEntity
  8
F-0_補助線
  6
JWW_HOJO
 62
     7
370
     9
100
AcDbLine
 10
-5830.081323642279
 20
-4084.99993607839
 30
0.0
 11
9.918542843316231
 21
-4084.99993607839
 31
0.0
  0
LINE
  5
6A
330
1F
100
AcDbEntity
  8
F-0_補助線
  6
JWW_HOJO
 62
     7
370
     9
100
AcDbLine
 10
9.918408067688347
 20
-4139.999739777983
 30
0.0
 11
5849.917509036332
 21
-4140.005167989091
 31
0.0
  0
LINE
  5
6B
330
1F
100
AcDbEntity
  8
F-0_補助線
  6
JWW_HOJO
 62
     7
370
     9
100
AcDbLine
 10
9.918491721639953
 20
-4049.999739778022
 30
0.0
 11
5849.917592690284
 21
-4050.005167989131
 31
0.0
  0
LINE
  5
6C
330
1F
100
AcDbEntity
  8
F-0_補助線
  6
JWW_HOJO
 62
     7
370
     9
100
AcDbLine
 10
9.918593965360003
 20
-3939.99973721807
 30
0.0
 11
5849.917694934004
 21
-3940.005165429179
 31
0.0
  0
LINE
  5
6D
330
1F
100
AcDbEntity
  8
F-0_補助線
  6
JWW_HOJO
 62
     7
370
     9
100
AcDbLine
 10
9.918677619311609
 20
-3849.999737218109
 30
0.0
 11
5849.917778587956
 21
-3850.005165429218
 31
0.0
  0
LINE
  5
6E
330
1F
100
AcDbEntity
  8
F-0_補助線
  6
JWW_HOJO
 62
     7
370
     9
100
AcDbLine
 10
2939.917396372139
 20
-3795.000003092998
 30
0.0
 11
2939.917396372139
 21
-4195.000008247994
 31
0.0
  0
LINE
  5
6F
330
1F
100
AcDbEntity
  8
F-0_補助線
  6
JWW_HOJO
 62
     7
370
     9
100
AcDbLine
 10
99.91854284331623
 20
-3795.000003092998
 30
0.0
 11
99.91854284331623
 21
-4195.000008247994
 31
0.0
  0
LINE
  5
70
330
1F
100
AcDbEntity
  8
F-0_補助線
  6
JWW_HOJO
 62
     7
370
     9
100
AcDbLine
 10
4439.917891251784
 20
-3795.000003092998
 30
0.0
 11
4439.917891251784
 21
-4195.000008247994
 31
0.0
  0
LINE
  5
71
330
1F
100
AcDbEntity
  8
F-1_枠
  6
Continuous
 62
   200
370
    20
100
AcDbLine
 10
5859.917429364114
 20
-3795.000003092998
 30
0.0
 11
-5840.081085996952
 21
-3795.000003092998
 31
0.0
  0
LINE
  5
72
330
1F
100
AcDbEntity
  8
F-1_枠
  6
Continuous
 62
   200
370
    20
100
AcDbLine
 10
5859.917429364114
 20
-3790.000017526987
 30
0.0
 11
-5840.081085996952
 21
-3790.000017526987
 31
0.0
  0
LINE
  5
73
330
1F
100
AcDbEntity
  8
F-0_補助線
  6
JWW_HOJO
 62
     7
370
     9
100
AcDbLine
 10
-5087.628710189611
 20
-3795.000003092999
 30
0.0
 11
-5087.628710189611
 21
-4205.000164959882
 31
0.0
  0
LINE
  5
74
330
1F
100
AcDbEntity
  8
F-0_補助線
  6
JWW_HOJO
 62
     7
370
     9
100
AcDbLine
 10
-50.08145715668377
 20
-3795.000003092998
 30
0.0
 11
-50.08145715668377
 21
-4195.000008247994
 31
0.0
  0
LINE
  5
75
330
1F
100
AcDbEntity
  8
0-A_文字
  6
Continuous
 62
    92
370
    13
100
AcDbLine
 10
-5659.999495325861
 20
4000.00018145587
 30
0.0
 11
-5659.999495325861
 21
3730.00018145587
 31
0.0
  0
MTEXT
  5
76
330
1F
100
AcDbEntity
  8
F-0_補助線
  6
Continuous
 62
     7
370
     0
100
AcDbMText
 10
509.9185840832865
 20
-3950.199002252999
 30
0.0
 40
71.17657923900997
 41
525.0
 46
0.0
 71
     7
 72
     1
  1
{\fHGP明朝B|b1|i0|c128|p18;ＳＯＦＴＡＲＴ}
 73
     1
 44
1.0
  0
MTEXT
  5
77
330
1F
100
AcDbEntity
  8
F-0_補助線
  6
Continuous
 62
     7
370
     0
100
AcDbMText
 10
1110.209427605311
 20
-3946.734791872504
 30
0.0
 40
78.105
 41
615.0
 46
0.0
 71
     7
 72
     1
  1
{\fＭＳ ゴシック|b0|i0|c128|p49;建具納まり図}
 73
     1
 44
1.0
  0
MTEXT
  5
78
330
1F
100
AcDbEntity
  8
F-A_文字
  6
Continuous
 62
     7
370
     0
100
AcDbMText
 10
99.91854284331623
 20
-3887.139820871936
 30
0.0
 40
45.72
 41
180.0
 46
0.0
 71
     7
 72
     1
  1
{\fＭＳ ゴシック|b0|i0|c128|p49;図面名}
 73
     1
 44
1.0
  0
MTEXT
  5
79
330
1F
100
AcDbEntity
  8
F-A_文字
  6
Continuous
 62
     7
370
     0
100
AcDbMText
 10
2939.917396372139
 20
-3887.142460617774
 30
0.0
 40
45.72
 41
300.0
 46
0.0
 71
     7
 72
     1
  1
{\fＭＳ ゴシック|b0|i0|c128|p49;ＳＣＡＬＥ}
 73
     1
 44
1.0
  0
MTEXT
  5
7A
330
1F
100
AcDbEntity
  8
F-A_文字
  6
Continuous
 62
     7
370
     0
100
AcDbMText
 10
4439.917891251784
 20
-3887.143854850754
 30
0.0
 40
45.72
 41
240.0
 46
0.0
 71
     7
 72
     1
  1
{\fＭＳ ゴシック|b0|i0|c128|p49;ＤＡＴＥ}
 73
     1
 44
1.0
  0
MTEXT
  5
7B
330
1F
100
AcDbEntity
  8
F-A_文字
  6
Continuous
 62
     7
370
     0
100
AcDbMText
 10
2939.917396372139
 20
-4087.14246317786
 30
0.0
 40
45.72
 41
240.0
 46
0.0
 71
     7
 72
     1
  1
{\fＭＳ ゴシック|b0|i0|c128|p49;ＦＩＬＥ}
 73
     1
 44
1.0
  0
MTEXT
  5
7C
330
1F
100
AcDbEntity
  8
F-A_文字
  6
Continuous
 62
     7
370
     0
100
AcDbMText
 10
4439.917891251784
 20
-4087.143857410839
 30
0.0
 40
45.72
 41
180.0
 46
0.0
 71
     7
 72
     1
  1
{\fＭＳ ゴシック|b0|i0|c128|p49;ＮＯ．}
 73
     1
 44
1.0
  0
MTEXT
  5
7D
330
1F
100
AcDbEntity
  8
F-A_文字
  6
Continuous
 62
     7
370
     0
100
AcDbMText
 10
1394.917396372138
 20
-4096.140669266149
 30
0.0
 40
45.72
 41
120.0
 46
0.0
 71
     7
 72
     1
  1
{\fＭＳ ゴシック|b0|i0|c128|p49;株式}
 73
     1
 44
1.0
  0
MTEXT
  5
7E
330
1F
100
AcDbEntity
  8
F-A_文字
  6
Continuous
 62
     7
370
     0
100
AcDbMText
 10
1604.917396372138
 20
-4164.281754523929
 30
0.0
 40
101.44125
 41
1065.0
 46
0.0
 71
     7
 72
     1
  1
{\fＭＳ ゴシック|b0|i0|c128|p49;ウッドワン・・・}
 73
     1
 44
1.0
  0
MTEXT
  5
7F
330
1F
100
AcDbEntity
  8
F-A_文字
  6
Continuous
 62
     7
370
     0
100
AcDbMText
 10
1394.917396372138
 20
-4168.140669266187
 30
0.0
 40
45.72
 41
120.0
 46
0.0
 71
     7
 72
     1
  1
{\fＭＳ ゴシック|b0|i0|c128|p49;会社}
 73
     1
 44
1.0
  0
MTEXT
  5
80
330
1F
100
AcDbEntity
  8
F-A_文字
  6
Continuous
 62
     7
370
     0
100
AcDbMText
 10
5768.321977672939
 20
-4314.841419020919
 30
0.0
 40
68.58
 41
90.0
 46
0.0
 71
     7
 72
     1
  1
{\fＭＳ ゴシック|b0|i0|c128|p49;）}
 73
     1
 44
1.0
  0
MTEXT
  5
81
330
1F
100
AcDbEntity
  8
F-A_文字
  6
Continuous
 62
     7
370
     0
100
AcDbMText
 10
5350.114617405298
 20
-4316.235443869856
 30
0.0
 40
68.58
 41
45.0
 46
0.0
 71
     7
 72
     1
  1
{\fＭＳ ゴシック|b0|i0|c128|p49;,}
 73
     1
 44
1.0
  0
MTEXT
  5
82
330
1F
100
AcDbEntity
  8
F-A_文字
  6
Continuous
 62
     7
370
     0
100
AcDbMText
 10
5083.855928478601
 20
-4314.771967288282
 30
0.0
 40
74.295
 41
97.5
 46
0.0
 71
     7
 72
     1
  1
{\fＭＳ ゴシック|b0|i0|c128|p49;$y}
 73
     1
 44
1.0
  0
MTEXT
  5
83
330
1F
100
AcDbEntity
  8
F-A_文字
  6
Continuous
 62
     7
370
     0
100
AcDbMText
 10
5238.592649517422
 20
-4314.771967288282
 30
0.0
 40
74.295
 41
97.5
 46
0.0
 71
     7
 72
     1
  1
{\fＭＳ ゴシック|b0|i0|c128|p49;$m}
 73
     1
 44
1.0
  0
MTEXT
  5
84
330
1F
100
AcDbEntity
  8
F-A_文字
  6
Continuous
 62
     7
370
     0
100
AcDbMText
 10
5393.32938200033
 20
-4314.771967288282
 30
0.0
 40
74.295
 41
97.5
 46
0.0
 71
     7
 72
     1
  1
{\fＭＳ ゴシック|b0|i0|c128|p49;$d}
 73
     1
 44
1.0
  0
MTEXT
  5
85
330
1F
100
AcDbEntity
  8
F-A_文字
  6
Continuous
 62
     7
370
     0
100
AcDbMText
 10
5548.066114483239
 20
-4314.771967288282
 30
0.0
 40
74.295
 41
195.0
 46
0.0
 71
     7
 72
     1
  1
{\fＭＳ ゴシック|b0|i0|c128|p49;印刷}
 73
     1
 44
1.0
  0
MTEXT
  5
86
330
1F
100
AcDbEntity
  8
F-A_文字
  6
Continuous
 62
     7
370
     0
100
AcDbMText
 10
4943.952040816226
 20
-4319.023493567732
 30
0.0
 40
68.58
 41
90.0
 46
0.0
 71
     7
 72
     1
  1
{\fＭＳ ゴシック|b0|i0|c128|p49;（}
 73
     1
 44
1.0
  0
MTEXT
  5
87
330
1F
100
AcDbEntity
  8
F-A_文字
  6
Continuous
 62
     7
370
     0
100
AcDbMText
 10
5191.195810375571
 20
-4319.023493567732
 30
0.0
 40
68.58
 41
45.0
 46
0.0
 71
     7
 72
     1
  1
{\fＭＳ ゴシック|b0|i0|c128|p49;,}
 73
     1
 44
1.0
  0
LINE
  5
88
330
1F
100
AcDbEntity
  8
0-A_文字
  6
Continuous
 62
    92
370
    13
100
AcDbLine
 10
-5659.999495325861
 20
4000.00018145587
 30
0.0
 11
-2828.749495325865
 21
4000.00018145587
 31
0.0
  0
LINE
  5
89
330
1F
100
AcDbEntity
  8
0-A_文字
  6
Continuous
 62
    92
370
    13
100
AcDbLine
 10
-5659.999495325861
 20
3730.00018145587
 30
0.0
 11
-2828.749495325865
 21
3730.00018145587
 31
0.0
  0
LINE
  5
8A
330
1F
100
AcDbEntity
  8
0-A_文字
  6
Continuous
 62
    92
370
    13
100
AcDbLine
 10
-2828.749495325865
 20
4000.00018145587
 30
0.0
 11
-2828.749495325865
 21
3730.00018145587
 31
0.0
  0
MTEXT
  5
8B
330
1F
100
AcDbEntity
  8
F-A_文字
  6
Continuous
 62
     7
370
     9
100
AcDbMText
 10
5096.167700144058
 20
-4147.857012699985
 30
0.0
 40
74.295
 41
97.5
 46
0.0
 71
     7
 72
     1
  1
{\fＭＳ ゴシック|b0|i0|c128|p49;01}
 73
     1
 44
1.0
  0
MTEXT
  5
8C
330
1F
100
AcDbEntity
  8
0-A_文字
  6
Continuous
 62
    92
370
    13
100
AcDbMText
 10
-5626.249495325865
 20
3758.886967170156
 30
0.0
 40
147.7735714285714
 41
2715.0
 46
0.0
 71
     7
 72
     1
  1
{\fＭＳ ゴシック|b0|i0|c128|p49;アルシャルル　２枚引き込み戸}
 73
     1
 44
1.0
  0
LINE
  5
8D
330
1F
100
AcDbEntity
  8
0-A_文字
  6
Continuous
 62
    92
370
    13
100
AcDbLine
 10
5549.917643811961
 20
3684.999983504013
 30
0.0
 11
3158.515089424757
 21
3684.999983504013
 31
0.0
  0
LINE
  5
8E
330
1F
100
AcDbEntity
  8
0-A_文字
  6
Continuous
 62
    92
370
    13
100
AcDbLine
 10
3158.515089437554
 20
3540.999983504012
 30
0.0
 11
5549.917643811961
 21
3540.999983504013
 31
0.0
  0
MTEXT
  5
8F
330
1F
100
AcDbEntity
  8
0-A_文字
  6
Continuous
 62
     7
370
     9
100
AcDbMText
 10
3553.865728024757
 20
3561.576233504013
 30
0.0
 40
77.15249999999999
 41
405.0
 46
0.0
 71
     7
 72
     1
  1
{\fＭＳ ゴシック|b0|i0|c128|p49;右引き手}
 73
     1
 44
1.0
  0
MTEXT
  5
90
330
1F
100
AcDbEntity
  8
0-A_文字
  6
Continuous
 62
     7
370
     9
100
AcDbMText
 10
4749.56700521836
 20
3561.576233504013
 30
0.0
 40
77.15249999999999
 41
405.0
 46
0.0
 71
     7
 72
     1
  1
{\fＭＳ ゴシック|b0|i0|c128|p49;左引き手}
 73
     1
 44
1.0
  0
MTEXT
  5
91
330
1F
100
AcDbEntity
  8
0-A_文字
  6
Continuous
 62
     7
370
     9
100
AcDbMText
 10
3158.515089424759
 20
3700.719983504012
 30
0.0
 40
91.44
 41
720.0
 46
0.0
 71
     7
 72
     1
  1
{\fＭＳ ゴシック|b0|i0|c128|p49;■引き手方向}
 73
     1
 44
1.0
  0
LINE
  5
92
330
1F
100
AcDbEntity
  8
0-A_文字
  6
Continuous
 62
    92
370
    13
100
AcDbLine
 10
5549.917643811961
 20
2718.999983504013
 30
0.0
 11
3158.515089437554
 21
2718.999983504013
 31
0.0
  0
LINE
  5
93
330
1F
100
AcDbEntity
  8
0-A_文字
  6
Continuous
 62
    92
370
    13
100
AcDbLine
 10
5549.917643811961
 20
2718.999983504013
 30
0.0
 11
5549.917643811961
 21
3684.999983504013
 31
0.0
  0
LINE
  5
94
330
1F
100
AcDbEntity
  8
0-A_文字
  6
Continuous
 62
    92
370
    13
100
AcDbLine
 10
3158.515089424757
 20
2718.999983504013
 30
0.0
 11
3158.515089424757
 21
3684.999983504013
 31
0.0
  0
LINE
  5
95
330
1F
100
AcDbEntity
  8
0-0_補助線
  6
JWW_HOJO
 62
   120
370
     5
100
AcDbLine
 10
5525.917643811961
 20
2718.999983504013
 30
0.0
 11
5525.917643811961
 21
3684.999983504013
 31
0.0
  0
LINE
  5
96
330
1F
100
AcDbEntity
  8
0-0_補助線
  6
JWW_HOJO
 62
   120
370
     5
100
AcDbLine
 10
4378.216366624757
 20
2718.999983504013
 30
0.0
 11
4378.216366624757
 21
3684.999983504013
 31
0.0
  0
LINE
  5
97
330
1F
100
AcDbEntity
  8
0-0_補助線
  6
JWW_HOJO
 62
   120
370
     5
100
AcDbLine
 10
5119.35055133836
 20
2718.999983504013
 30
0.0
 11
5119.35055133836
 21
3684.999983504013
 31
0.0
  0
LINE
  5
98
330
1F
100
AcDbEntity
  8
0-0_補助線
  6
JWW_HOJO
 62
   120
370
     5
100
AcDbLine
 10
4450.216366858359
 20
2718.999983504013
 30
0.0
 11
4450.216366858359
 21
3684.999983504013
 31
0.0
  0
LINE
  5
99
330
1F
100
AcDbEntity
  8
0-0_補助線
  6
JWW_HOJO
 62
   120
370
     5
100
AcDbLine
 10
4784.78345909836
 20
2718.999983504013
 30
0.0
 11
4784.78345909836
 21
3684.999983504013
 31
0.0
  0
LINE
  5
9A
330
1F
100
AcDbEntity
  8
0-0_補助線
  6
JWW_HOJO
 62
   120
370
     5
100
AcDbLine
 10
5453.917643578359
 20
2718.999983504013
 30
0.0
 11
5453.917643578359
 21
3684.999983504013
 31
0.0
  0
LINE
  5
9B
330
1F
100
AcDbEntity
  8
0-0_補助線
  6
JWW_HOJO
 62
   120
370
     5
100
AcDbLine
 10
3182.515089437554
 20
2718.999983504013
 30
0.0
 11
3182.515089437554
 21
3684.999983504013
 31
0.0
  0
LINE
  5
9C
330
1F
100
AcDbEntity
  8
0-0_補助線
  6
JWW_HOJO
 62
   120
370
     5
100
AcDbLine
 10
3254.515089671156
 20
2718.999983504013
 30
0.0
 11
3254.515089671156
 21
3684.999983504013
 31
0.0
  0
LINE
  5
9D
330
1F
100
AcDbEntity
  8
0-0_補助線
  6
JWW_HOJO
 62
   120
370
     5
100
AcDbLine
 10
3589.082181911155
 20
2718.999983504013
 30
0.0
 11
3589.082181911155
 21
3684.999983504013
 31
0.0
  0
LINE
  5
9E
330
1F
100
AcDbEntity
  8
0-0_補助線
  6
JWW_HOJO
 62
   120
370
     5
100
AcDbLine
 10
3923.649274151156
 20
2718.999983504013
 30
0.0
 11
3923.649274151156
 21
3684.999983504013
 31
0.0
  0
LINE
  5
9F
330
1F
100
AcDbEntity
  8
0-0_補助線
  6
JWW_HOJO
 62
   120
370
     5
100
AcDbLine
 10
4258.216366391156
 20
2718.999983504013
 30
0.0
 11
4258.216366391156
 21
3684.999983504013
 31
0.0
  0
LINE
  5
A0
330
1F
100
AcDbEntity
  8
0-0_補助線
  6
JWW_HOJO
 62
   120
370
     5
100
AcDbLine
 10
4330.216366624758
 20
2718.999983504013
 30
0.0
 11
4330.216366624758
 21
3684.999983504013
 31
0.0
  0
LINE
  5
A1
330
1F
100
AcDbEntity
  8
0-A_文字
  6
Continuous
 62
    92
370
    13
100
AcDbLine
 10
4354.216366624757
 20
2718.999983504013
 30
0.0
 11
4354.216366624757
 21
3684.999983504013
 31
0.0
  0
LINE
  5
A2
330
1F
100
AcDbEntity
  8
戸当り
  6
Continuous
 62
    40
370
    15
100
AcDbLine
 10
4450.216366624756
 20
3299.723525076141
 30
0.0
 11
4378.216366624757
 21
3299.723525076141
 31
0.0
  0
LINE
  5
A3
330
1F
100
AcDbEntity
  8
戸当り
  6
Continuous
 62
    40
370
    15
100
AcDbLine
 10
4450.216366624756
 20
3299.723525076141
 30
0.0
 11
4450.216366624756
 21
3370.523525076142
 31
0.0
  0
LINE
  5
A4
330
1F
100
AcDbEntity
  8
戸当り
  6
Continuous
 62
    40
370
    15
100
AcDbLine
 10
4450.216366624756
 20
3370.523525076142
 30
0.0
 11
4378.216366624757
 21
3370.523525076142
 31
0.0
  0
LINE
  5
A5
330
1F
100
AcDbEntity
  8
戸当り
  6
Continuous
 62
    40
370
    15
100
AcDbLine
 10
5121.750551104758
 20
3299.723525076141
 30
0.0
 11
5535.517643578361
 21
3299.723525076141
 31
0.0
  0
LINE
  5
A6
330
1F
100
AcDbEntity
  8
戸当り
  6
Continuous
 62
    40
370
    15
100
AcDbLine
 10
5121.750551104758
 20
3299.723525076141
 30
0.0
 11
5121.750551104758
 21
3321.323525076141
 31
0.0
  0
LINE
  5
A7
330
1F
100
AcDbEntity
  8
戸当り
  6
Continuous
 62
    40
370
    15
100
AcDbLine
 10
5463.517643578361
 20
3321.323525076141
 30
0.0
 11
5121.750551104758
 21
3321.323525076141
 31
0.0
  0
LINE
  5
A8
330
1F
100
AcDbEntity
  8
戸当り
  6
Continuous
 62
    40
370
    15
100
AcDbLine
 10
5136.150551104758
 20
3332.123525076141
 30
0.0
 11
4784.783458864757
 21
3332.123525076141
 31
0.0
  0
LINE
  5
A9
330
1F
100
AcDbEntity
  8
戸当り
  6
Continuous
 62
    40
370
    15
100
AcDbLine
 10
4803.983458864758
 20
3346.523525076141
 30
0.0
 11
4450.216366624756
 21
3346.523525076141
 31
0.0
  0
LINE
  5
AA
330
1F
100
AcDbEntity
  8
戸当り
  6
Continuous
 62
    92
370
    13
100
AcDbLine
 10
4794.383458864758
 20
3260.123525076141
 30
0.0
 11
4794.383458864758
 21
3408.923525076141
 31
0.0
  0
LINE
  5
AB
330
1F
100
AcDbEntity
  8
戸当り
  6
Continuous
 62
    40
370
    15
100
AcDbLine
 10
5463.517643578361
 20
3321.323525076141
 30
0.0
 11
5463.517643578361
 21
3370.523525076142
 31
0.0
  0
LINE
  5
AC
330
1F
100
AcDbEntity
  8
戸当り
  6
Continuous
 62
    40
370
    15
100
AcDbLine
 10
5463.517643578361
 20
3370.523525076142
 30
0.0
 11
5535.517643578361
 21
3370.523525076142
 31
0.0
  0
LINE
  5
AD
330
1F
100
AcDbEntity
  8
戸当り
  6
JWW_DASHED2
 62
    92
370
    13
100
AcDbLine
 10
5136.150551104758
 20
3346.523525076141
 30
0.0
 11
5463.517643578361
 21
3346.523525076141
 31
0.0
  0
LINE
  5
AE
330
1F
100
AcDbEntity
  8
戸当り
  6
JWW_DASHED2
 62
    92
370
    13
100
AcDbLine
 10
5136.150551104758
 20
3332.123525076141
 30
0.0
 11
5463.517643578361
 21
3332.123525076141
 31
0.0
  0
LINE
  5
AF
330
1F
100
AcDbEntity
  8
戸当り
  6
Continuous
 62
    40
370
    15
100
AcDbLine
 10
3596.282181911155
 20
3299.72352507614
 30
0.0
 11
3182.515089437554
 21
3299.72352507614
 31
0.0
  0
LINE
  5
B0
330
1F
100
AcDbEntity
  8
戸当り
  6
Continuous
 62
    40
370
    15
100
AcDbLine
 10
3596.282181911155
 20
3299.72352507614
 30
0.0
 11
3596.282181911155
 21
3321.32352507614
 31
0.0
  0
LINE
  5
B1
330
1F
100
AcDbEntity
  8
戸当り
  6
Continuous
 62
    40
370
    15
100
AcDbLine
 10
3254.515089437554
 20
3321.32352507614
 30
0.0
 11
3596.282181911155
 21
3321.32352507614
 31
0.0
  0
LINE
  5
B2
330
1F
100
AcDbEntity
  8
戸当り
  6
Continuous
 62
    40
370
    15
100
AcDbLine
 10
3581.882181911155
 20
3332.123525076141
 30
0.0
 11
3933.249274151156
 21
3332.123525076141
 31
0.0
  0
LINE
  5
B3
330
1F
100
AcDbEntity
  8
戸当り
  6
Continuous
 62
    40
370
    15
100
AcDbLine
 10
3914.049274151156
 20
3346.52352507614
 30
0.0
 11
4267.816366391156
 21
3346.52352507614
 31
0.0
  0
LINE
  5
B4
330
1F
100
AcDbEntity
  8
戸当り
  6
Continuous
 62
    92
370
    13
100
AcDbLine
 10
3923.649274151156
 20
3260.123525076141
 30
0.0
 11
3923.649274151156
 21
3408.923525076141
 31
0.0
  0
LINE
  5
B5
330
1F
100
AcDbEntity
  8
戸当り
  6
Continuous
 62
    40
370
    15
100
AcDbLine
 10
3254.515089437554
 20
3321.32352507614
 30
0.0
 11
3254.515089437554
 21
3370.523525076141
 31
0.0
  0
LINE
  5
B6
330
1F
100
AcDbEntity
  8
戸当り
  6
Continuous
 62
    40
370
    15
100
AcDbLine
 10
3254.515089437554
 20
3370.523525076141
 30
0.0
 11
3182.515089437554
 21
3370.523525076141
 31
0.0
  0
LINE
  5
B7
330
1F
100
AcDbEntity
  8
戸当り
  6
JWW_DASHED2
 62
    92
370
    13
100
AcDbLine
 10
3581.882181911155
 20
3346.52352507614
 30
0.0
 11
3254.515089437554
 21
3346.52352507614
 31
0.0
  0
LINE
  5
B8
330
1F
100
AcDbEntity
  8
戸当り
  6
JWW_DASHED2
 62
    92
370
    13
100
AcDbLine
 10
3581.882181911155
 20
3332.123525076141
 30
0.0
 11
3254.515089437554
 21
3332.123525076141
 31
0.0
  0
LINE
  5
B9
330
1F
100
AcDbEntity
  8
戸当り
  6
Continuous
 62
    40
370
    15
100
AcDbLine
 10
4267.816366391156
 20
3299.72352507614
 30
0.0
 11
4339.816366391155
 21
3299.72352507614
 31
0.0
  0
LINE
  5
BA
330
1F
100
AcDbEntity
  8
戸当り
  6
Continuous
 62
    40
370
    15
100
AcDbLine
 10
4267.816366391156
 20
3299.72352507614
 30
0.0
 11
4267.816366391156
 21
3370.523525076141
 31
0.0
  0
LINE
  5
BB
330
1F
100
AcDbEntity
  8
戸当り
  6
Continuous
 62
    40
370
    15
100
AcDbLine
 10
4267.816366391156
 20
3370.523525076141
 30
0.0
 11
4339.816366391155
 21
3370.523525076141
 31
0.0
  0
ELLIPSE
  5
BC
330
1F
100
AcDbEntity
  8
戸当り
  6
Continuous
 62
    92
370
    13
100
AcDbEllipse
 10
3848.249549283971
 20
2927.884230441196
 30
0.0
 11
-17.7763823922528
 21
100.8148742797557
 31
0.0
210
0.0
220
0.0
230
1.0
 40
0.4000000000000001
 41
1.850633272656679
 42
2.442876790075129
  0
ELLIPSE
  5
BD
330
1F
100
AcDbEntity
  8
戸当り
  6
Continuous
 62
    92
370
    13
100
AcDbEllipse
 10
3848.249549283971
 20
2927.884230441196
 30
0.0
 11
-17.7763823922528
 21
100.8148742797557
 31
0.0
210
0.0
220
0.0
230
1.0
 40
0.4000000000000001
 41
3.840308517104466
 42
4.432552034522944
  0
ELLIPSE
  5
BE
330
1F
100
AcDbEntity
  8
戸当り
  6
Continuous
 62
    92
370
    13
100
AcDbEllipse
 10
3847.82980323407
 20
2930.264728582853
 30
0.0
 11
-14.67024424252691
 21
83.19908946199426
 31
0.0
210
0.0
220
0.0
230
1.0
 40
0.5
 41
4.340591432030095
 42
8.225779182329084
  0
LINE
  5
BF
330
1F
100
AcDbEntity
  8
戸当り
  6
Continuous
 62
    92
370
    13
100
AcDbLine
 10
3887.799433056734
 20
2855.267181117928
 30
0.0
 11
3835.921308967198
 21
2846.1196681324
 31
0.0
  0
LINE
  5
C0
330
1F
100
AcDbEntity
  8
戸当り
  6
Continuous
 62
    92
370
    13
100
AcDbLine
 10
3889.987400095337
 20
2842.858603429973
 30
0.0
 11
3838.109276005801
 21
2833.711090444447
 31
0.0
  0
ELLIPSE
  5
C1
330
1F
100
AcDbEntity
  8
戸当り
  6
Continuous
 62
    92
370
    13
100
AcDbEllipse
 10
3864.048338050569
 20
2838.28484693721
 30
0.0
 11
-7.622927487939132
 21
43.23177007461331
 31
0.0
210
0.0
220
0.0
230
1.0
 40
0.6000000000000001
 41
1.570796326794897
 42
4.71238898038469
  0
ELLIPSE
  5
C2
330
1F
100
AcDbEntity
  8
戸当り
  6
Continuous
 62
    92
370
    13
100
AcDbEllipse
 10
4002.710318221849
 20
2963.935065931004
 30
0.0
 11
26.49533313827761
 21
98.88192943551533
 31
0.0
210
0.0
220
0.0
230
0.9999999999999999
 40
0.4
 41
1.850633272656679
 42
2.442876790075129
  0
ELLIPSE
  5
C3
330
1F
100
AcDbEntity
  8
戸当り
  6
Continuous
 62
    92
370
    13
100
AcDbEllipse
 10
4002.710318221849
 20
2963.935065931004
 30
0.0
 11
26.49533313827761
 21
98.88192943551533
 31
0.0
210
0.0
220
0.0
230
0.9999999999999999
 40
0.4
 41
3.840308517104466
 42
4.432552034522944
  0
ELLIPSE
  5
C4
330
1F
100
AcDbEntity
  8
戸当り
  6
Continuous
 62
    92
370
    13
100
AcDbEllipse
 10
4003.335941094951
 20
2966.269922279796
 30
0.0
 11
21.86569797210526
 21
81.6038957748525
 31
0.0
210
0.0
220
0.0
230
1.0
 40
0.5
 41
4.340591432030095
 42
8.225779182329084
  0
LINE
  5
C5
330
1F
100
AcDbEntity
  8
戸当り
  6
Continuous
 62
    92
370
    13
100
AcDbLine
 10
4007.865394703759
 20
2881.407165525609
 30
0.0
 11
3956.981940827366
 21
2895.041345899896
 31
0.0
  0
LINE
  5
C6
330
1F
100
AcDbEntity
  8
戸当り
  6
Continuous
 62
    92
370
    13
100
AcDbLine
 10
4004.604274735468
 20
2869.236500114367
 30
0.0
 11
3953.720820859075
 21
2882.870680488653
 31
0.0
  0
ELLIPSE
  5
C7
330
1F
100
AcDbEntity
  8
戸当り
  6
Continuous
 62
    92
370
    13
100
AcDbEllipse
 10
3979.162547797271
 20
2876.053590301511
 30
0.0
 11
11.36181697857171
 21
42.40287823032828
 31
0.0
210
0.0
220
0.0
230
0.9999999999999999
 40
0.6
 41
1.570796326794897
 42
4.71238898038469
  0
ELLIPSE
  5
C8
330
1F
100
AcDbEntity
  8
戸当り
  6
Continuous
 62
    92
370
    13
100
AcDbEllipse
 10
4718.983733997573
 20
2927.884230441196
 30
0.0
 11
-17.7763823922528
 21
100.8148742797557
 31
0.0
210
0.0
220
0.0
230
1.0
 40
0.4000000000000001
 41
1.850633272656679
 42
2.442876790075129
  0
ELLIPSE
  5
C9
330
1F
100
AcDbEntity
  8
戸当り
  6
Continuous
 62
    92
370
    13
100
AcDbEllipse
 10
4718.983733997573
 20
2927.884230441196
 30
0.0
 11
-17.7763823922528
 21
100.8148742797557
 31
0.0
210
0.0
220
0.0
230
1.0
 40
0.4000000000000001
 41
3.840308517104466
 42
4.432552034522944
  0
ELLIPSE
  5
CA
330
1F
100
AcDbEntity
  8
戸当り
  6
Continuous
 62
    92
370
    13
100
AcDbEllipse
 10
4718.563987947672
 20
2930.264728582853
 30
0.0
 11
-14.67024424252691
 21
83.19908946199426
 31
0.0
210
0.0
220
0.0
230
1.0
 40
0.5
 41
4.340591432030095
 42
8.225779182329084
  0
LINE
  5
CB
330
1F
100
AcDbEntity
  8
戸当り
  6
Continuous
 62
    92
370
    13
100
AcDbLine
 10
4758.533617770336
 20
2855.267181117928
 30
0.0
 11
4706.6554936808
 21
2846.1196681324
 31
0.0
  0
LINE
  5
CC
330
1F
100
AcDbEntity
  8
戸当り
  6
Continuous
 62
    92
370
    13
100
AcDbLine
 10
4760.721584808939
 20
2842.858603429973
 30
0.0
 11
4708.843460719403
 21
2833.711090444447
 31
0.0
  0
ELLIPSE
  5
CD
330
1F
100
AcDbEntity
  8
戸当り
  6
Continuous
 62
    92
370
    13
100
AcDbEllipse
 10
4734.782522764171
 20
2838.28484693721
 30
0.0
 11
-7.622927487939132
 21
43.23177007461331
 31
0.0
210
0.0
220
0.0
230
1.0
 40
0.6000000000000001
 41
1.570796326794897
 42
4.71238898038469
  0
ELLIPSE
  5
CE
330
1F
100
AcDbEntity
  8
戸当り
  6
Continuous
 62
    92
370
    13
100
AcDbEllipse
 10
4873.444502935451
 20
2963.935065931004
 30
0.0
 11
26.49533313827761
 21
98.88192943551533
 31
0.0
210
0.0
220
0.0
230
0.9999999999999999
 40
0.4
 41
1.850633272656679
 42
2.442876790075129
  0
ELLIPSE
  5
CF
330
1F
100
AcDbEntity
  8
戸当り
  6
Continuous
 62
    92
370
    13
100
AcDbEllipse
 10
4873.444502935451
 20
2963.935065931004
 30
0.0
 11
26.49533313827761
 21
98.88192943551533
 31
0.0
210
0.0
220
0.0
230
0.9999999999999999
 40
0.4
 41
3.840308517104466
 42
4.432552034522944
  0
ELLIPSE
  5
D0
330
1F
100
AcDbEntity
  8
戸当り
  6
Continuous
 62
    92
370
    13
100
AcDbEllipse
 10
4874.070125808553
 20
2966.269922279796
 30
0.0
 11
21.86569797210526
 21
81.6038957748525
 31
0.0
210
0.0
220
0.0
230
1.0
 40
0.5
 41
4.340591432030095
 42
8.225779182329084
  0
LINE
  5
D1
330
1F
100
AcDbEntity
  8
戸当り
  6
Continuous
 62
    92
370
    13
100
AcDbLine
 10
4878.59957941736
 20
2881.407165525609
 30
0.0
 11
4827.716125540966
 21
2895.041345899896
 31
0.0
  0
LINE
  5
D2
330
1F
100
AcDbEntity
  8
戸当り
  6
Continuous
 62
    92
370
    13
100
AcDbLine
 10
4875.338459449069
 20
2869.236500114367
 30
0.0
 11
4824.455005572676
 21
2882.870680488653
 31
0.0
  0
ELLIPSE
  5
D3
330
1F
100
AcDbEntity
  8
戸当り
  6
Continuous
 62
    92
370
    13
100
AcDbEllipse
 10
4849.896732510872
 20
2876.053590301511
 30
0.0
 11
11.36181697857171
 21
42.40287823032828
 31
0.0
210
0.0
220
0.0
230
0.9999999999999999
 40
0.6
 41
1.570796326794897
 42
4.71238898038469
  0
LINE
  5
D4
330
1F
100
AcDbEntity
  8
F-0_補助線
  6
JWW_HOJO
 62
     7
370
     9
100
AcDbLine
 10
3764.917643811961
 20
-3795.000003092998
 30
0.0
 11
3764.917643811961
 21
-4195.000008247994
 31
0.0
  0
MTEXT
  5
D5
330
1F
100
AcDbEntity
  8
F-A_文字
  6
Continuous
 62
     7
370
     0
100
AcDbMText
 10
3689.917643811961
 20
-3946.903115907308
 30
0.0
 40
76.19999999999999
 41
150.0
 46
0.0
 71
     7
 72
     1
  1
{\fＭＳ ゴシック|b0|i0|c128|p49;1/5}
 73
     1
 44
1.0
  0
MTEXT
  5
D6
330
1F
100
AcDbEntity
  8
F-A_文字
  6
Continuous
 62
     7
370
     0
100
AcDbMText
 10
-5080.081323642279
 20
-4045.058436078391
 30
0.0
 40
79.88299999999994
 41
4717.5
 46
0.0
 71
     7
 72
     1
  1
{\fＭＳ ゴシック|b0|i0|c128|p49;ソフトアート　アルシャルル　２枚引き込み戸　下荷重（レールタイプ）ドアＨ2,342　枠外Ｗ2,697}
 73
     1
 44
1.0
  0
LINE
  5
D7
330
1F
100
AcDbEntity
  8
0-B_寸法
  6
Continuous
 62
   120
370
     5
100
AcDbLine
 10
237.9184917216436
 20
-2814.700982944537
 30
0.0
 11
237.9184917216436
 21
-2958.848616367103
 31
0.0
  0
LWPOLYLINE
  5
D8
330
1F
100
AcDbEntity
  8
0-B_寸法
  6
Continuous
 62
     7
370
     9
100
AcDbPolyline
 90
        4
 70
     1
 43
3.0
 10
239.4184917216436
 20
-2814.700982944537
 42
0.4142135623731
 10
237.9184917216436
 20
-2813.200982944537
 42
0.4142135623731
 10
236.4184917216436
 20
-2814.700982944537
 42
0.4142135623731
 10
237.9184917216436
 20
-2816.200982944537
 42
0.4142135623731
  0
LINE
  5
D9
330
1F
100
AcDbEntity
  8
0-B_寸法
  6
Continuous
 62
   120
370
     5
100
AcDbLine
 10
9.918491721639953
 20
-2814.700982944537
 30
0.0
 11
237.9184917216436
 21
-2814.700982944537
 31
0.0
  0
MTEXT
  5
DA
330
1F
100
AcDbEntity
  8
0-0_補助線
  6
Continuous
 62
     7
370
   211
100
AcDbMText
 10
690.1685297792244
 20
2745.539322545649
 30
0.0
 40
97.15499999999999
 41
127.5
 46
0.0
 71
     7
 72
     1
  1
{\fＭＳ ゴシック|b0|i0|c128|p49;30}
 73
     1
 44
1.0
  0
LINE
  5
DB
330
1F
100
AcDbEntity
  8
0-B_寸法
  6
Continuous
 62
   120
370
     5
100
AcDbLine
 10
9.918491721639953
 20
-2814.700982944537
 30
0.0
 11
9.918491721639953
 21
-2958.848616367103
 31
0.0
  0
LINE
  5
DC
330
1F
100
AcDbEntity
  8
0-B_寸法
  6
Continuous
 62
   120
370
     5
100
AcDbLine
 10
-218.0815082783569
 20
-2814.700982944537
 30
0.0
 11
-218.0815082783569
 21
-2958.848616367103
 31
0.0
  0
LWPOLYLINE
  5
DD
330
1F
100
AcDbEntity
  8
0-B_寸法
  6
Continuous
 62
     7
370
     9
100
AcDbPolyline
 90
        4
 70
     1
 43
3.0
 10
11.41849172163995
 20
-2814.700982944537
 42
0.4142135623731
 10
9.918491721639953
 20
-2813.200982944537
 42
0.4142135623731
 10
8.418491721639953
 20
-2814.700982944537
 42
0.4142135623731
 10
9.918491721639953
 20
-2816.200982944537
 42
0.4142135623731
  0
LWPOLYLINE
  5
DE
330
1F
100
AcDbEntity
  8
0-B_寸法
  6
Continuous
 62
     7
370
     9
100
AcDbPolyline
 90
        4
 70
     1
 43
3.0
 10
-216.5815082783569
 20
-2814.700982944537
 42
0.4142135623731
 10
-218.0815082783569
 20
-2813.200982944537
 42
0.4142135623731
 10
-219.5815082783569
 20
-2814.700982944537
 42
0.4142135623731
 10
-218.0815082783569
 20
-2816.200982944537
 42
0.4142135623731
  0
LINE
  5
DF
330
1F
100
AcDbEntity
  8
0-B_寸法
  6
Continuous
 62
   120
370
     5
100
AcDbLine
 10
-218.0815082783569
 20
-2814.700982944537
 30
0.0
 11
9.918491721639953
 21
-2814.700982944537
 31
0.0
  0
MTEXT
  5
E0
330
1F
100
AcDbEntity
  8
0-A_文字
  6
Continuous
 62
     7
370
     9
100
AcDbMText
 10
-2570.081453928655
 20
2847.681822545649
 30
0.0
 40
91.44
 41
600.0
 46
0.0
 71
     7
 72
     1
  1
{\fＭＳ ゴシック|b0|i0|c128|p49;■横断面図}
 73
     1
 44
1.0
  0
LINE
  5
E1
330
1F
100
AcDbEntity
  8
0-B_寸法
  6
Continuous
 62
   120
370
     5
100
AcDbLine
 10
2344.87108230543
 20
773.9616245937909
 30
0.0
 11
2344.87108230543
 21
1343.961624593791
 31
0.0
  0
LWPOLYLINE
  5
E2
330
1F
100
AcDbEntity
  8
0-B_寸法
  6
Continuous
 62
     7
370
     9
100
AcDbPolyline
 90
        4
 70
     1
 43
3.0
 10
2346.371082305429
 20
983.9616245937909
 42
0.4142135623731
 10
2344.87108230543
 20
985.4616245937909
 42
0.4142135623731
 10
2343.37108230543
 20
983.9616245937909
 42
0.4142135623731
 10
2344.87108230543
 20
982.461624593791
 42
0.4142135623731
  0
LINE
  5
E3
330
1F
100
AcDbEntity
  8
0-B_寸法
  6
Continuous
 62
   120
370
     5
100
AcDbLine
 10
2164.87108230543
 20
983.9616245937909
 30
0.0
 11
2344.87108230543
 21
983.9616245937909
 31
0.0
  0
LINE
  5
E4
330
1F
100
AcDbEntity
  8
0-B_寸法
  6
Continuous
 62
   120
370
     5
100
AcDbLine
 10
2164.87108230543
 20
983.9616245937909
 30
0.0
 11
2164.87108230543
 21
1343.961624593791
 31
0.0
  0
LWPOLYLINE
  5
E5
330
1F
100
AcDbEntity
  8
0-B_寸法
  6
Continuous
 62
     7
370
     9
100
AcDbPolyline
 90
        4
 70
     1
 43
3.0
 10
2346.371082305429
 20
773.9616245937909
 42
0.4142135623731
 10
2344.87108230543
 20
775.461624593791
 42
0.4142135623731
 10
2343.37108230543
 20
773.9616245937909
 42
0.4142135623731
 10
2344.87108230543
 20
772.4616245937909
 42
0.4142135623731
  0
LWPOLYLINE
  5
E6
330
1F
100
AcDbEntity
  8
0-B_寸法
  6
Continuous
 62
     7
370
     9
100
AcDbPolyline
 90
        4
 70
     1
 43
3.0
 10
2166.371082305429
 20
983.9616245937909
 42
0.4142135623731
 10
2164.87108230543
 20
985.4616245937909
 42
0.4142135623731
 10
2163.37108230543
 20
983.9616245937909
 42
0.4142135623731
 10
2164.87108230543
 20
982.461624593791
 42
0.4142135623731
  0
MTEXT
  5
E7
330
1F
100
AcDbEntity
  8
0-A_文字
  6
Continuous
 62
     7
370
     9
100
AcDbMText
 10
2489.732956030344
 20
2621.823624568169
 30
0.0
 40
77.72399999999897
 41
509.9999999999932
 46
0.0
 71
     7
 72
     1
  1
{\fＭＳ ゴシック|b0|i0|c128|p49;※防寒なし}
 73
     1
 44
1.0
  0
LINE
  5
E8
330
1F
100
AcDbEntity
  8
0-B_寸法
  6
Continuous
 62
   120
370
     5
100
AcDbLine
 10
-2510.081453928655
 20
773.9616245937909
 30
0.0
 11
-2510.081453928655
 21
1343.961624593791
 31
0.0
  0
LWPOLYLINE
  5
E9
330
1F
100
AcDbEntity
  8
0-B_寸法
  6
Continuous
 62
     7
370
     9
100
AcDbPolyline
 90
        4
 70
     1
 43
3.0
 10
-2508.581453928655
 20
983.9616245937909
 42
0.4142135623731
 10
-2510.081453928655
 20
985.4616245937909
 42
0.4142135623731
 10
-2511.581453928655
 20
983.9616245937909
 42
0.4142135623731
 10
-2510.081453928655
 20
982.461624593791
 42
0.4142135623731
  0
LINE
  5
EA
330
1F
100
AcDbEntity
  8
0-B_寸法
  6
Continuous
 62
   120
370
     5
100
AcDbLine
 10
-2510.081453928655
 20
983.9616245937909
 30
0.0
 11
-2330.081453928653
 21
983.9616245937909
 31
0.0
  0
LINE
  5
EB
330
1F
100
AcDbEntity
  8
0-B_寸法
  6
Continuous
 62
   120
370
     5
100
AcDbLine
 10
-2330.081453928653
 20
983.9616245937909
 30
0.0
 11
-2330.081453928653
 21
1343.961624593791
 31
0.0
  0
LWPOLYLINE
  5
EC
330
1F
100
AcDbEntity
  8
0-B_寸法
  6
Continuous
 62
     7
370
     9
100
AcDbPolyline
 90
        4
 70
     1
 43
3.0
 10
-2508.581453928655
 20
773.9616245937909
 42
0.4142135623731
 10
-2510.081453928655
 20
775.461624593791
 42
0.4142135623731
 10
-2511.581453928655
 20
773.9616245937909
 42
0.4142135623731
 10
-2510.081453928655
 20
772.4616245937909
 42
0.4142135623731
  0
LWPOLYLINE
  5
ED
330
1F
100
AcDbEntity
  8
0-B_寸法
  6
Continuous
 62
     7
370
     9
100
AcDbPolyline
 90
        4
 70
     1
 43
3.0
 10
-2328.581453928653
 20
983.9616245937909
 42
0.4142135623731
 10
-2330.081453928653
 20
985.4616245937909
 42
0.4142135623731
 10
-2331.581453928653
 20
983.9616245937909
 42
0.4142135623731
 10
-2330.081453928653
 20
982.461624593791
 42
0.4142135623731
  0
LINE
  5
EE
330
1F
100
AcDbEntity
  8
0-B_寸法
  6
Continuous
 62
   120
370
     5
100
AcDbLine
 10
-2510.081453928655
 20
773.9616245937909
 30
0.0
 11
2344.87108230543
 21
773.9616245937909
 31
0.0
  0
LINE
  5
EF
330
1F
100
AcDbEntity
  8
0-B_寸法
  6
Continuous
 62
   120
370
     5
100
AcDbLine
 10
2164.87108230543
 20
983.9616245937909
 30
0.0
 11
-2330.081453928653
 21
983.9616245937909
 31
0.0
  0
LINE
  5
F0
330
1F
100
AcDbEntity
  8
0-0_補助線
  6
JWW_HOJO
 62
   120
370
     5
100
AcDbLine
 10
2404.87108230543
 20
983.9616245937909
 30
0.0
 11
-2570.081453928655
 21
983.9616245937909
 31
0.0
  0
LINE
  5
F1
330
1F
100
AcDbEntity
  8
0-0_補助線
  6
JWW_HOJO
 62
   120
370
     5
100
AcDbLine
 10
-2570.081453928655
 20
2741.961822545649
 30
0.0
 11
-2570.081453928655
 21
773.9616245937909
 31
0.0
  0
LINE
  5
F2
330
1F
100
AcDbEntity
  8
0-0_補助線
  6
JWW_HOJO
 62
   120
370
     5
100
AcDbLine
 10
2404.87108230543
 20
773.9616245937909
 30
0.0
 11
-2570.081453928655
 21
773.9616245937909
 31
0.0
  0
LINE
  5
F3
330
1F
100
AcDbEntity
  8
0-0_補助線
  6
JWW_HOJO
 62
   120
370
     5
100
AcDbLine
 10
2404.87108230543
 20
2741.961822545649
 30
0.0
 11
2404.87108230543
 21
773.9616245937909
 31
0.0
  0
LINE
  5
F4
330
1F
100
AcDbEntity
  8
0-0_補助線
  6
JWW_HOJO
 62
   120
370
     5
100
AcDbLine
 10
2404.87108230543
 20
1343.961624593791
 30
0.0
 11
-2570.081453928655
 21
1343.961624593791
 31
0.0
  0
LINE
  5
F5
330
1F
100
AcDbEntity
  8
0-C_ハッチ
  6
Continuous
 62
   120
370
     5
100
AcDbLine
 10
2341.871082305433
 20
1989.689269771786
 30
0.0
 11
2167.870647429942
 21
2163.68970464728
 31
0.0
  0
LINE
  5
F6
330
1F
100
AcDbEntity
  8
0-C_ハッチ
  6
Continuous
 62
   120
370
     5
100
AcDbLine
 10
2256.805223119627
 20
1955.961189718297
 30
0.0
 11
2167.870647429942
 21
2044.895765407984
 31
0.0
  0
LINE
  5
F7
330
1F
100
AcDbEntity
  8
0-C_ハッチ
  6
Continuous
 62
   120
370
     5
100
AcDbLine
 10
2197.408253499925
 20
1955.961189718297
 30
0.0
 11
2167.870647429942
 21
1985.498795788281
 31
0.0
  0
LINE
  5
F8
330
1F
100
AcDbEntity
  8
0-C_ハッチ
  6
Continuous
 62
   120
370
     5
100
AcDbLine
 10
2316.202192739273
 20
1955.961189718297
 30
0.0
 11
2167.870647429942
 21
2104.29273502763
 31
0.0
  0
LINE
  5
F9
330
1F
100
AcDbEntity
  8
0-4_枠
  6
Continuous
 62
    92
370
    13
100
AcDbLine
 10
2344.87108230543
 20
1952.961624593786
 30
0.0
 11
2344.87108230543
 21
2492.961624593786
 31
0.0
  0
LINE
  5
FA
330
1F
100
AcDbEntity
  8
0-4_枠
  6
Continuous
 62
    92
370
    13
100
AcDbLine
 10
2341.871082305433
 20
2042.961624593786
 30
0.0
 11
2341.871082305433
 21
1955.961189718297
 31
0.0
  0
LINE
  5
FB
330
1F
100
AcDbEntity
  8
0-4_枠
  6
Continuous
 62
    92
370
    13
100
AcDbLine
 10
2176.35592880418
 20
1955.961189718297
 30
0.0
 11
2341.871082305433
 21
1955.961189718297
 31
0.0
  0
LINE
  5
FC
330
1F
100
AcDbEntity
  8
0-4_枠
  6
Continuous
 62
    92
370
    13
100
AcDbLine
 10
2173.35636367967
 20
1952.961624593786
 30
0.0
 11
2344.87108230543
 21
1952.961624593786
 31
0.0
  0
LINE
  5
FD
330
1F
100
AcDbEntity
  8
0-4_枠
  6
Continuous
 62
    92
370
    13
100
AcDbLine
 10
2341.871082305433
 20
2042.961624593786
 30
0.0
 11
2344.87108230543
 21
2042.961624593786
 31
0.0
  0
LINE
  5
FE
330
1F
100
AcDbEntity
  8
0-4_枠
  6
Continuous
 62
    92
370
    13
100
AcDbLine
 10
2167.870647429942
 20
1964.446471092534
 30
0.0
 11
2176.35592880418
 21
1955.961189718297
 31
0.0
  0
LINE
  5
FF
330
1F
100
AcDbEntity
  8
0-4_枠
  6
Continuous
 62
    92
370
    13
100
AcDbLine
 10
2173.35636367967
 20
1952.961624593786
 30
0.0
 11
2164.871082305429
 21
1961.446905968023
 31
0.0
  0
LINE
  5
100
330
1F
100
AcDbEntity
  8
0-C_ハッチ
  6
Continuous
 62
   120
370
     5
100
AcDbLine
 10
2341.871082305433
 20
2464.865026729186
 30
0.0
 11
2316.774644658117
 21
2489.961464376498
 31
0.0
  0
LINE
  5
101
330
1F
100
AcDbEntity
  8
0-C_ハッチ
  6
Continuous
 62
   120
370
     5
100
AcDbLine
 10
2341.871082305441
 20
2405.468057109473
 30
0.0
 11
2257.377675038405
 21
2489.961464376509
 31
0.0
  0
LINE
  5
102
330
1F
100
AcDbEntity
  8
0-C_ハッチ
  6
Continuous
 62
   120
370
     5
100
AcDbLine
 10
2344.871082305431
 20
2343.071087489835
 30
0.0
 11
2197.98070541878
 21
2489.961464376487
 31
0.0
  0
LINE
  5
103
330
1F
100
AcDbEntity
  8
0-4_枠
  6
Continuous
 62
    92
370
    13
100
AcDbLine
 10
2341.871082305433
 20
2402.961624593786
 30
0.0
 11
2341.871082305433
 21
2489.961464376501
 31
0.0
  0
LINE
  5
104
330
1F
100
AcDbEntity
  8
0-4_枠
  6
Continuous
 62
    92
370
    13
100
AcDbLine
 10
2341.871082305433
 20
2402.961624593786
 30
0.0
 11
2344.87108230543
 21
2402.961624593786
 31
0.0
  0
LINE
  5
105
330
1F
100
AcDbEntity
  8
0-4_枠
  6
Continuous
 62
    92
370
    13
100
AcDbLine
 10
2174.598844149502
 20
2489.961464376501
 30
0.0
 11
2341.871082305433
 21
2489.961464376501
 31
0.0
  0
LINE
  5
106
330
1F
100
AcDbEntity
  8
0-4_枠
  6
Continuous
 62
    92
370
    13
100
AcDbLine
 10
2173.35636367967
 20
2492.961624593786
 30
0.0
 11
2344.87108230543
 21
2492.961624593786
 31
0.0
  0
LINE
  5
107
330
1F
100
AcDbEntity
  8
0-4_枠
  6
Continuous
 62
    92
370
    13
100
AcDbLine
 10
2174.598844149502
 20
2489.961464376501
 30
0.0
 11
2167.870647429942
 21
2483.23326765694
 31
0.0
  0
LINE
  5
108
330
1F
100
AcDbEntity
  8
0-4_枠
  6
Continuous
 62
    92
370
    13
100
AcDbLine
 10
2164.871082305429
 20
2484.476343219547
 30
0.0
 11
2173.35636367967
 21
2492.961624593786
 31
0.0
  0
MTEXT
  5
109
330
1F
100
AcDbEntity
  8
0-A_文字
  6
Continuous
 62
     7
370
     9
100
AcDbMText
 10
1096.866009691356
 20
1692.447079139241
 30
0.0
 40
78.97090909090909
 41
1140.0
 46
0.0
 71
     7
 72
     1
  1
{\fＭＳ ゴシック|b0|i0|c128|p49;間仕切り壁（現場造作）}
 73
     1
 44
1.0
  0
LINE
  5
10A
330
1F
100
AcDbEntity
  8
0-0_補助線
  6
JWW_HOJO
 62
   120
370
     5
100
AcDbLine
 10
2404.87108230543
 20
2741.961822545649
 30
0.0
 11
-2570.081453928655
 21
2741.961822545649
 31
0.0
  0
MTEXT
  5
10B
330
1F
100
AcDbEntity
  8
0-A_文字
  6
Continuous
 62
     7
370
     9
100
AcDbMText
 10
889.8710823054365
 20
1347.558410308072
 30
0.0
 40
79.19357142857106
 41
1454.999999999993
 46
0.0
 71
     7
 72
     1
  1
{\fＭＳ ゴシック|b0|i0|c128|p49;※間仕切壁はクロス巻き込み。}
 73
     1
 44
1.0
  0
LINE
  5
10C
330
1F
100
AcDbEntity
  8
0-B_寸法
  6
Continuous
 62
   120
370
     5
100
AcDbLine
 10
-2021.551464242582
 20
2492.961624593794
 30
0.0
 11
-2021.551464242576
 21
1952.961624593793
 31
0.0
  0
LINE
  5
10D
330
1F
100
AcDbEntity
  8
0-B_寸法
  6
Continuous
 62
   120
370
     5
100
AcDbLine
 10
-2021.551464242582
 20
2492.961624593794
 30
0.0
 11
-2228.683603066179
 21
2492.961624593794
 31
0.0
  0
LWPOLYLINE
  5
10E
330
1F
100
AcDbEntity
  8
0-B_寸法
  6
Continuous
 62
     7
370
     9
100
AcDbPolyline
 90
        4
 70
     1
 43
3.0
 10
-2020.051464242582
 20
2492.961624593794
 42
0.4142135623731
 10
-2021.551464242582
 20
2494.461624593794
 42
0.4142135623731
 10
-2023.051464242582
 20
2492.961624593794
 42
0.4142135623731
 10
-2021.551464242582
 20
2491.461624593794
 42
0.4142135623731
  0
LINE
  5
10F
330
1F
100
AcDbEntity
  8
0-B_寸法
  6
Continuous
 62
   120
370
     5
100
AcDbLine
 10
-2021.551464242576
 20
1952.961624593793
 30
0.0
 11
-2228.683603066179
 21
1952.961624593793
 31
0.0
  0
LWPOLYLINE
  5
110
330
1F
100
AcDbEntity
  8
0-B_寸法
  6
Continuous
 62
     7
370
     9
100
AcDbPolyline
 90
        4
 70
     1
 43
3.0
 10
-2020.051464242577
 20
1952.961624593793
 42
0.4142135623731
 10
-2021.551464242576
 20
1954.461624593793
 42
0.4142135623731
 10
-2023.051464242576
 20
1952.961624593793
 42
0.4142135623731
 10
-2021.551464242576
 20
1951.461624593793
 42
0.4142135623731
  0
LINE
  5
111
330
1F
100
AcDbEntity
  8
0-C_ハッチ
  6
Continuous
 62
   120
370
     5
100
AcDbLine
 10
-2362.61862512315
 20
2489.962059469282
 30
0.0
 11
-2333.081019053166
 21
2460.424453399299
 31
0.0
  0
LINE
  5
112
330
1F
100
AcDbEntity
  8
0-C_ハッチ
  6
Continuous
 62
   120
370
     5
100
AcDbLine
 10
-2507.081453928658
 20
1981.058222458395
 30
0.0
 11
-2481.985016281341
 21
1955.961784811083
 31
0.0
  0
LINE
  5
113
330
1F
100
AcDbEntity
  8
0-C_ハッチ
  6
Continuous
 62
   120
370
     5
100
AcDbLine
 10
-2507.081453928665
 20
2040.455192078107
 30
0.0
 11
-2422.588046661629
 21
1955.96178481107
 31
0.0
  0
LINE
  5
114
330
1F
100
AcDbEntity
  8
0-C_ハッチ
  6
Continuous
 62
   120
370
     5
100
AcDbLine
 10
-2510.081453928655
 20
2102.852161697746
 30
0.0
 11
-2363.191077042003
 21
1955.961784811093
 31
0.0
  0
LINE
  5
115
330
1F
100
AcDbEntity
  8
0-4_枠
  6
Continuous
 62
    92
370
    13
100
AcDbLine
 10
-2333.081019053166
 20
1964.446471092534
 30
0.0
 11
-2333.081019053166
 21
2210.961624593787
 31
0.0
  0
LINE
  5
116
330
1F
100
AcDbEntity
  8
0-4_枠
  6
Continuous
 62
    92
370
    13
100
AcDbLine
 10
-2330.081453928653
 20
1961.446905968023
 30
0.0
 11
-2330.081453928653
 21
2213.961624593788
 31
0.0
  0
LINE
  5
117
330
1F
100
AcDbEntity
  8
0-4_枠
  6
Continuous
 62
    92
370
    13
100
AcDbLine
 10
-2510.081453928655
 20
1952.961624593786
 30
0.0
 11
-2510.081453928655
 21
2492.961624593786
 31
0.0
  0
LINE
  5
118
330
1F
100
AcDbEntity
  8
0-4_枠
  6
Continuous
 62
    92
370
    13
100
AcDbLine
 10
-2507.081453928658
 20
2042.961624593786
 30
0.0
 11
-2507.081453928658
 21
1955.961189718297
 31
0.0
  0
LINE
  5
119
330
1F
100
AcDbEntity
  8
0-4_枠
  6
Continuous
 62
    92
370
    13
100
AcDbLine
 10
-2341.566300427403
 20
1955.961189718297
 30
0.0
 11
-2507.081453928658
 21
1955.961189718297
 31
0.0
  0
LINE
  5
11A
330
1F
100
AcDbEntity
  8
0-4_枠
  6
Continuous
 62
    92
370
    13
100
AcDbLine
 10
-2338.566735302895
 20
1952.961624593786
 30
0.0
 11
-2510.081453928655
 21
1952.961624593786
 31
0.0
  0
LINE
  5
11B
330
1F
100
AcDbEntity
  8
0-4_枠
  6
Continuous
 62
    92
370
    13
100
AcDbLine
 10
-2507.081453928658
 20
2042.961624593786
 30
0.0
 11
-2510.081453928655
 21
2042.961624593786
 31
0.0
  0
LINE
  5
11C
330
1F
100
AcDbEntity
  8
0-4_枠
  6
Continuous
 62
    92
370
    13
100
AcDbLine
 10
-2333.081019053166
 20
1964.446471092534
 30
0.0
 11
-2341.566300427403
 21
1955.961189718297
 31
0.0
  0
LINE
  5
11D
330
1F
100
AcDbEntity
  8
0-4_枠
  6
Continuous
 62
    92
370
    13
100
AcDbLine
 10
-2338.566735302895
 20
1952.961624593786
 30
0.0
 11
-2330.081453928653
 21
1961.446905968023
 31
0.0
  0
LINE
  5
11E
330
1F
100
AcDbEntity
  8
0-4_枠
  6
Continuous
 62
    92
370
    13
100
AcDbLine
 10
-2369.081453928653
 20
2210.961624593787
 30
0.0
 11
-2369.081453928653
 21
2462.961624593786
 31
0.0
  0
LINE
  5
11F
330
1F
100
AcDbEntity
  8
0-4_枠
  6
Continuous
 62
    92
370
    13
100
AcDbLine
 10
-2366.081453928653
 20
2213.961624593788
 30
0.0
 11
-2366.081453928653
 21
2459.961624593787
 31
0.0
  0
LINE
  5
120
330
1F
100
AcDbEntity
  8
0-4_枠
  6
Continuous
 62
    92
370
    13
100
AcDbLine
 10
-2369.081453928653
 20
2210.961624593787
 30
0.0
 11
-2333.081019053166
 21
2210.961624593787
 31
0.0
  0
LINE
  5
121
330
1F
100
AcDbEntity
  8
0-4_枠
  6
Continuous
 62
    92
370
    13
100
AcDbLine
 10
-2366.081453928653
 20
2213.961624593788
 30
0.0
 11
-2330.081453928653
 21
2213.961624593788
 31
0.0
  0
LINE
  5
122
330
1F
100
AcDbEntity
  8
0-4_枠
  6
Continuous
 62
    92
370
    13
100
AcDbLine
 10
-2369.081453928653
 20
2462.961624593786
 30
0.0
 11
-2333.081019053166
 21
2462.961624593786
 31
0.0
  0
LINE
  5
123
330
1F
100
AcDbEntity
  8
0-4_枠
  6
Continuous
 62
    92
370
    13
100
AcDbLine
 10
-2366.081453928653
 20
2459.961624593787
 30
0.0
 11
-2330.081453928653
 21
2459.961624593787
 31
0.0
  0
LINE
  5
124
330
1F
100
AcDbEntity
  8
0-4_枠
  6
Continuous
 62
    92
370
    13
100
AcDbLine
 10
-2333.081019053166
 20
2483.23326765694
 30
0.0
 11
-2333.081019053166
 21
2462.961624593786
 31
0.0
  0
LINE
  5
125
330
1F
100
AcDbEntity
  8
0-4_枠
  6
Continuous
 62
    92
370
    13
100
AcDbLine
 10
-2330.081453928653
 20
2484.476343219547
 30
0.0
 11
-2330.081453928653
 21
2459.961624593787
 31
0.0
  0
LINE
  5
126
330
1F
100
AcDbEntity
  8
0-4_枠
  6
Continuous
 62
    92
370
    13
100
AcDbLine
 10
-2507.081453928658
 20
2402.961624593786
 30
0.0
 11
-2507.081453928658
 21
2489.961464376501
 31
0.0
  0
LINE
  5
127
330
1F
100
AcDbEntity
  8
0-4_枠
  6
Continuous
 62
    92
370
    13
100
AcDbLine
 10
-2507.081453928658
 20
2402.961624593786
 30
0.0
 11
-2510.081453928655
 21
2402.961624593786
 31
0.0
  0
LINE
  5
128
330
1F
100
AcDbEntity
  8
0-4_枠
  6
Continuous
 62
    92
370
    13
100
AcDbLine
 10
-2339.809215772727
 20
2489.961464376501
 30
0.0
 11
-2507.081453928658
 21
2489.961464376501
 31
0.0
  0
LINE
  5
129
330
1F
100
AcDbEntity
  8
0-4_枠
  6
Continuous
 62
    92
370
    13
100
AcDbLine
 10
-2338.566735302895
 20
2492.961624593786
 30
0.0
 11
-2510.081453928655
 21
2492.961624593786
 31
0.0
  0
LINE
  5
12A
330
1F
100
AcDbEntity
  8
0-4_枠
  6
Continuous
 62
    92
370
    13
100
AcDbLine
 10
-2339.809215772727
 20
2489.961464376501
 30
0.0
 11
-2333.081019053166
 21
2483.23326765694
 31
0.0
  0
LINE
  5
12B
330
1F
100
AcDbEntity
  8
0-4_枠
  6
Continuous
 62
    92
370
    13
100
AcDbLine
 10
-2330.081453928653
 20
2484.476343219547
 30
0.0
 11
-2338.566735302895
 21
2492.961624593786
 31
0.0
  0
LINE
  5
12C
330
1F
100
AcDbEntity
  8
0-C_ハッチ
  6
Continuous
 62
   120
370
     5
100
AcDbLine
 10
-2422.015594742852
 20
2489.962059469282
 30
0.0
 11
-2369.081453928653
 21
2437.027918655084
 31
0.0
  0
LINE
  5
12D
330
1F
100
AcDbEntity
  8
0-C_ハッチ
  6
Continuous
 62
   120
370
     5
100
AcDbLine
 10
-2510.081453928655
 20
2399.837009796091
 30
0.0
 11
-2369.081453928653
 21
2258.837009796088
 31
0.0
  0
LINE
  5
12E
330
1F
100
AcDbEntity
  8
0-C_ハッチ
  6
Continuous
 62
   120
370
     5
100
AcDbLine
 10
-2507.081453928658
 20
2456.233979415793
 30
0.0
 11
-2369.081453928653
 21
2318.233979415787
 31
0.0
  0
LINE
  5
12F
330
1F
100
AcDbEntity
  8
0-C_ハッチ
  6
Continuous
 62
   120
370
     5
100
AcDbLine
 10
-2481.412564362498
 20
2489.962059469282
 30
0.0
 11
-2369.081453928653
 21
2377.630949035437
 31
0.0
  0
LINE
  5
130
330
1F
100
AcDbEntity
  8
0-C_ハッチ
  6
Continuous
 62
   120
370
     5
100
AcDbLine
 10
-2510.081453928645
 20
2340.440040176432
 30
0.0
 11
-2333.081019053166
 21
2163.439605300954
 31
0.0
  0
LINE
  5
131
330
1F
100
AcDbEntity
  8
0-C_ハッチ
  6
Continuous
 62
   120
370
     5
100
AcDbLine
 10
-2510.081453928668
 20
2162.249131317402
 30
0.0
 11
-2333.081019053166
 21
1985.248696441903
 31
0.0
  0
LINE
  5
132
330
1F
100
AcDbEntity
  8
0-C_ハッチ
  6
Continuous
 62
   120
370
     5
100
AcDbLine
 10
-2510.081453928648
 20
2221.646100937087
 30
0.0
 11
-2333.081019053166
 21
2044.645666061605
 31
0.0
  0
LINE
  5
133
330
1F
100
AcDbEntity
  8
0-C_ハッチ
  6
Continuous
 62
   120
370
     5
100
AcDbLine
 10
-2510.081453928662
 20
2281.043070556747
 30
0.0
 11
-2333.081019053166
 21
2104.042635681252
 31
0.0
  0
ARC
  5
134
330
1F
100
AcDbEntity
  8
0-7_金物
  6
Continuous
 62
     7
370
     9
100
AcDbCircle
 10
-2300.8314539156
 20
2336.961624593788
 30
0.0
 40
65.25000001305266
100
AcDbArc
 50
136.3971810272987
 51
223.6028189727014
  0
LINE
  5
135
330
1F
100
AcDbEntity
  8
0-6_扉
  6
Continuous
 62
   200
370
    20
100
AcDbLine
 10
-2348.081453925049
 20
2246.961624593788
 30
0.0
 11
-2348.081453925049
 21
2426.961624593788
 31
0.0
  0
LINE
  5
136
330
1F
100
AcDbEntity
  8
0-4_枠
  6
Continuous
 62
    92
370
    13
100
AcDbLine
 10
2167.870647429942
 20
1964.446471092534
 30
0.0
 11
2167.870647429942
 21
2483.23326765694
 31
0.0
  0
LINE
  5
137
330
1F
100
AcDbEntity
  8
0-4_枠
  6
Continuous
 62
    92
370
    13
100
AcDbLine
 10
2164.871082305429
 20
1961.446905968023
 30
0.0
 11
2164.871082305429
 21
2484.476343219547
 31
0.0
  0
LINE
  5
138
330
1F
100
AcDbEntity
  8
0-C_ハッチ
  6
Continuous
 62
   120
370
     5
100
AcDbLine
 10
2344.871082305443
 20
2283.674117870178
 30
0.0
 11
2167.870647429942
 21
2460.674552745677
 31
0.0
  0
LINE
  5
139
330
1F
100
AcDbEntity
  8
0-C_ハッチ
  6
Continuous
 62
   120
370
     5
100
AcDbLine
 10
2344.871082305431
 20
2046.086239391489
 30
0.0
 11
2167.870647429942
 21
2223.086674266979
 31
0.0
  0
LINE
  5
13A
330
1F
100
AcDbEntity
  8
0-C_ハッチ
  6
Continuous
 62
   120
370
     5
100
AcDbLine
 10
2344.871082305424
 20
2224.277148250493
 30
0.0
 11
2167.870647429942
 21
2401.277583125976
 31
0.0
  0
LINE
  5
13B
330
1F
100
AcDbEntity
  8
0-C_ハッチ
  6
Continuous
 62
   120
370
     5
100
AcDbLine
 10
2344.871082305438
 20
2164.880178630834
 30
0.0
 11
2167.870647429942
 21
2341.880613506328
 31
0.0
  0
LINE
  5
13C
330
1F
100
AcDbEntity
  8
0-C_ハッチ
  6
Continuous
 62
   120
370
     5
100
AcDbLine
 10
2344.871082305421
 20
2105.483209011149
 30
0.0
 11
2167.870647429942
 21
2282.483643886626
 31
0.0
  0
MTEXT
  5
13D
330
1F
100
AcDbEntity
  8
0-A_文字
  6
Continuous
 62
     7
370
     9
100
AcDbMText
 10
1932.37108230543
 20
633.2522495937909
 30
0.0
 40
78.58125
 41
825.0
 46
0.0
 71
     7
 72
     1
  1
{\fＭＳ ゴシック|b0|i0|c128|p49;※図示：左引き手}
 73
     1
 44
1.0
  0
LINE
  5
13E
330
1F
100
AcDbEntity
  8
0-B_寸法
  6
Continuous
 62
   120
370
     5
100
AcDbLine
 10
-842.0814559695514
 20
2741.961822545649
 30
0.0
 11
-662.0814559695548
 21
2741.961822545649
 31
0.0
  0
LWPOLYLINE
  5
13F
330
1F
100
AcDbEntity
  8
0-B_寸法
  6
Continuous
 62
     7
370
     9
100
AcDbPolyline
 90
        4
 70
     1
 43
3.0
 10
-840.5814559695514
 20
2741.961822545649
 42
0.4142135623731
 10
-842.0814559695514
 20
2743.461822545648
 42
0.4142135623731
 10
-843.5814559695515
 20
2741.961822545649
 42
0.4142135623731
 10
-842.0814559695514
 20
2740.461822545649
 42
0.4142135623731
  0
LWPOLYLINE
  5
140
330
1F
100
AcDbEntity
  8
0-B_寸法
  6
Continuous
 62
     7
370
     9
100
AcDbPolyline
 90
        4
 70
     1
 43
3.0
 10
-660.5814559695548
 20
2741.961822545649
 42
0.4142135623731
 10
-662.0814559695548
 20
2743.461822545648
 42
0.4142135623731
 10
-663.5814559695549
 20
2741.961822545649
 42
0.4142135623731
 10
-662.0814559695548
 20
2740.461822545649
 42
0.4142135623731
  0
LINE
  5
141
330
1F
100
AcDbEntity
  8
0-B_寸法
  6
Continuous
 62
   120
370
     5
100
AcDbLine
 10
-842.0814559695514
 20
2741.961822545649
 30
0.0
 11
-842.0814559695514
 21
2561.961822545649
 31
0.0
  0
LINE
  5
142
330
1F
100
AcDbEntity
  8
0-B_寸法
  6
Continuous
 62
   120
370
     5
100
AcDbLine
 10
-662.0814559695548
 20
2741.961822545649
 30
0.0
 11
-662.0814559695548
 21
2561.961822545649
 31
0.0
  0
LINE
  5
143
330
1F
100
AcDbEntity
  8
0-4_枠
  6
Continuous
 62
    92
370
    13
100
AcDbLine
 10
-752.0814559695508
 20
1862.96162459379
 30
0.0
 11
-752.0814559695508
 21
2582.96162459379
 31
0.0
  0
LINE
  5
144
330
1F
100
AcDbEntity
  8
0-6_扉
  6
Continuous
 62
   200
370
    20
100
AcDbLine
 10
843.9185297792244
 20
2198.96162459379
 30
0.0
 11
843.9185297792244
 21
2018.96162459379
 31
0.0
  0
ARC
  5
145
330
1F
100
AcDbEntity
  8
0-7_金物
  6
Continuous
 62
     7
370
     9
100
AcDbCircle
 10
796.6685297697759
 20
2108.96162459379
 30
0.0
 40
65.25000001305268
100
AcDbArc
 50
316.3971810272986
 51
43.60281897270134
  0
LINE
  5
146
330
1F
100
AcDbEntity
  8
0-6_扉
  6
Continuous
 62
   200
370
    20
100
AcDbLine
 10
843.9185297792244
 20
2198.96162459379
 30
0.0
 11
60.91853690483685
 21
2198.96162459379
 31
0.0
  0
LINE
  5
147
330
1F
100
AcDbEntity
  8
0-6_扉
  6
Continuous
 62
   200
370
    20
100
AcDbLine
 10
843.9185297792244
 20
2018.96162459379
 30
0.0
 11
60.91853690483685
 21
2018.96162459379
 31
0.0
  0
LINE
  5
148
330
1F
100
AcDbEntity
  8
0-6_扉
  6
Continuous
 62
   200
370
    20
100
AcDbLine
 10
-860.0814559731556
 20
2018.96162459379
 30
0.0
 11
-860.0814559731556
 21
2198.96162459379
 31
0.0
  0
LINE
  5
149
330
1F
100
AcDbEntity
  8
0-6_扉
  6
Continuous
 62
   200
370
    20
100
AcDbLine
 10
-662.0814559695508
 20
2246.961624593788
 30
0.0
 11
-662.0814559695508
 21
2426.961624593788
 31
0.0
  0
ARC
  5
14A
330
1F
100
AcDbEntity
  8
0-7_金物
  6
Continuous
 62
     7
370
     9
100
AcDbCircle
 10
-812.8314559637018
 20
2108.961624593793
 30
0.0
 40
65.25000001305268
100
AcDbArc
 50
136.3971810272987
 51
223.6028189727014
  0
ARC
  5
14B
330
1F
100
AcDbEntity
  8
0-7_金物
  6
Continuous
 62
     7
370
     9
100
AcDbCircle
 10
-709.3314559789992
 20
2336.961624593788
 30
0.0
 40
65.25000001305268
100
AcDbArc
 50
316.3971810272986
 51
43.60281897270134
  0
LINE
  5
14C
330
1F
100
AcDbEntity
  8
0-6_扉
  6
Continuous
 62
   200
370
    20
100
AcDbLine
 10
-59.08146309516315
 20
2198.96162459379
 30
0.0
 11
-860.0814559731556
 21
2198.96162459379
 31
0.0
  0
LINE
  5
14D
330
1F
100
AcDbEntity
  8
0-6_扉
  6
Continuous
 62
   200
370
    20
100
AcDbLine
 10
-59.08146309516315
 20
2018.96162459379
 30
0.0
 11
-860.0814559731556
 21
2018.96162459379
 31
0.0
  0
LINE
  5
14E
330
1F
100
AcDbEntity
  8
0-6_扉
  6
Continuous
 62
   200
370
    20
100
AcDbLine
 10
-2348.081453925049
 20
2426.961624593788
 30
0.0
 11
-1565.081448843938
 21
2426.961624593788
 31
0.0
  0
LINE
  5
14F
330
1F
100
AcDbEntity
  8
0-6_扉
  6
Continuous
 62
   200
370
    20
100
AcDbLine
 10
-2348.081453925049
 20
2246.961624593788
 30
0.0
 11
-1565.081448843938
 21
2246.961624593788
 31
0.0
  0
LINE
  5
150
330
1F
100
AcDbEntity
  8
0-6_扉
  6
Continuous
 62
   200
370
    20
100
AcDbLine
 10
-1445.081448843938
 20
2426.961624593788
 30
0.0
 11
-662.0814559695508
 21
2426.961624593788
 31
0.0
  0
LINE
  5
151
330
1F
100
AcDbEntity
  8
0-6_扉
  6
Continuous
 62
   200
370
    20
100
AcDbLine
 10
-1445.081448843938
 20
2246.961624593788
 30
0.0
 11
-662.0814559695508
 21
2246.961624593788
 31
0.0
  0
LINE
  5
152
330
1F
100
AcDbEntity
  8
0-0_補助線
  6
JWW_HOJO
 62
   120
370
     5
100
AcDbLine
 10
-2510.081453928655
 20
2741.961822545649
 30
0.0
 11
-2510.081453928655
 21
1343.961624593791
 31
0.0
  0
LINE
  5
153
330
1F
100
AcDbEntity
  8
0-0_補助線
  6
JWW_HOJO
 62
   120
370
     5
100
AcDbLine
 10
60.91853690483685
 20
1343.961624593791
 30
0.0
 11
60.91853690483685
 21
2741.961822545649
 31
0.0
  0
LINE
  5
154
330
1F
100
AcDbEntity
  8
0-0_補助線
  6
JWW_HOJO
 62
   120
370
     5
100
AcDbLine
 10
-59.08146309516315
 20
1343.961624593791
 30
0.0
 11
-59.08146309516315
 21
2741.961822545649
 31
0.0
  0
LINE
  5
155
330
1F
100
AcDbEntity
  8
0-0_補助線
  6
JWW_HOJO
 62
   120
370
     5
100
AcDbLine
 10
-1445.081448843938
 20
1343.961624593791
 30
0.0
 11
-1445.081448843938
 21
2741.961822545649
 31
0.0
  0
LINE
  5
156
330
1F
100
AcDbEntity
  8
0-0_補助線
  6
JWW_HOJO
 62
   120
370
     5
100
AcDbLine
 10
-1565.081448843938
 20
1343.961624593791
 30
0.0
 11
-1565.081448843938
 21
2741.961822545649
 31
0.0
  0
LINE
  5
157
330
1F
100
AcDbEntity
  8
0-C_ハッチ
  6
Continuous
 62
   120
370
     5
100
AcDbLine
 10
-2330.081453928653
 20
1193.961624593791
 30
0.0
 11
-2330.081453928653
 21
1343.961624593791
 31
0.0
  0
LINE
  5
158
330
1F
100
AcDbEntity
  8
0-2_柱
  6
Continuous
 62
     7
370
     9
100
AcDbLine
 10
738.9185297792244
 20
1607.961624593786
 30
0.0
 11
1008.918529779224
 21
1607.961624593786
 31
0.0
  0
LINE
  5
159
330
1F
100
AcDbEntity
  8
0-2_柱
  6
Continuous
 62
     7
370
     9
100
AcDbLine
 10
1008.918529779224
 20
1607.961624593786
 30
0.0
 11
1008.918529779224
 21
1877.961624593786
 31
0.0
  0
LINE
  5
15A
330
1F
100
AcDbEntity
  8
0-2_柱
  6
Continuous
 62
     7
370
     9
100
AcDbLine
 10
1008.918529779224
 20
1877.961624593786
 30
0.0
 11
738.9185297792244
 21
1877.961624593786
 31
0.0
  0
LINE
  5
15B
330
1F
100
AcDbEntity
  8
0-2_柱
  6
Continuous
 62
     7
370
     9
100
AcDbLine
 10
738.9185297792244
 20
1877.961624593786
 30
0.0
 11
738.9185297792244
 21
1607.961624593786
 31
0.0
  0
LINE
  5
15C
330
1F
100
AcDbEntity
  8
0-2_柱
  6
Continuous
 62
     7
370
     9
100
AcDbLine
 10
1008.918529779224
 20
1877.961624593786
 30
0.0
 11
738.9185297792244
 21
1607.961624593786
 31
0.0
  0
LINE
  5
15D
330
1F
100
AcDbEntity
  8
0-2_柱
  6
Continuous
 62
     7
370
     9
100
AcDbLine
 10
738.9185297792244
 20
1877.961624593786
 30
0.0
 11
1008.918529779224
 21
1607.961624593786
 31
0.0
  0
LINE
  5
15E
330
1F
100
AcDbEntity
  8
0-3_仕上げ
  6
Continuous
 62
    40
370
    15
100
AcDbLine
 10
738.9185297792244
 20
1877.961624593786
 30
0.0
 11
738.9185297792244
 21
1607.961624593786
 31
0.0
  0
LINE
  5
15F
330
1F
100
AcDbEntity
  8
0-3_仕上げ
  6
Continuous
 62
    40
370
    15
100
AcDbLine
 10
663.9185297792244
 20
1952.961624593786
 30
0.0
 11
663.9185297792244
 21
1532.961624593786
 31
0.0
  0
MTEXT
  5
160
330
1F
100
AcDbEntity
  8
0-A_文字
  6
Continuous
 62
     7
370
     9
100
AcDbMText
 10
-682.2514727158477
 20
-352.2120577837459
 30
0.0
 40
91.44
 41
600.0
 46
0.0
 71
     7
 72
     1
  1
{\fＭＳ ゴシック|b0|i0|c128|p49;■縦断面図}
 73
     1
 44
1.0
  0
LINE
  5
161
330
1F
100
AcDbEntity
  8
0-B_寸法
  6
Continuous
 62
   120
370
     5
100
AcDbLine
 10
-1052.35920717046
 20
2198.96162459379
 30
0.0
 11
-902.0814559695508
 21
2198.96162459379
 31
0.0
  0
LWPOLYLINE
  5
162
330
1F
100
AcDbEntity
  8
0-B_寸法
  6
Continuous
 62
     7
370
     9
100
AcDbPolyline
 90
        4
 70
     1
 43
3.0
 10
-1050.85920717046
 20
2198.96162459379
 42
0.4142135623731
 10
-1052.35920717046
 20
2200.46162459379
 42
0.4142135623731
 10
-1053.85920717046
 20
2198.96162459379
 42
0.4142135623731
 10
-1052.35920717046
 20
2197.46162459379
 42
0.4142135623731
  0
LINE
  5
163
330
1F
100
AcDbEntity
  8
0-B_寸法
  6
Continuous
 62
   120
370
     5
100
AcDbLine
 10
-1052.35920717046
 20
2426.961624593788
 30
0.0
 11
-1052.35920717046
 21
2198.96162459379
 31
0.0
  0
LWPOLYLINE
  5
164
330
1F
100
AcDbEntity
  8
0-B_寸法
  6
Continuous
 62
     7
370
     9
100
AcDbPolyline
 90
        4
 70
     1
 43
3.0
 10
-1050.85920717046
 20
2246.961624593788
 42
0.4142135623731
 10
-1052.35920717046
 20
2248.461624593788
 42
0.4142135623731
 10
-1053.85920717046
 20
2246.961624593788
 42
0.4142135623731
 10
-1052.35920717046
 20
2245.461624593788
 42
0.4142135623731
  0
LINE
  5
165
330
1F
100
AcDbEntity
  8
0-B_寸法
  6
Continuous
 62
   120
370
     5
100
AcDbLine
 10
-902.0814559695508
 20
2246.961624593788
 30
0.0
 11
-1052.35920717046
 21
2246.961624593788
 31
0.0
  0
LWPOLYLINE
  5
166
330
1F
100
AcDbEntity
  8
0-B_寸法
  6
Continuous
 62
     7
370
     9
100
AcDbPolyline
 90
        4
 70
     1
 43
3.0
 10
-1050.85920717046
 20
2426.961624593788
 42
0.4142135623731
 10
-1052.35920717046
 20
2428.461624593788
 42
0.4142135623731
 10
-1053.85920717046
 20
2426.961624593788
 42
0.4142135623731
 10
-1052.35920717046
 20
2425.461624593788
 42
0.4142135623731
  0
LINE
  5
167
330
1F
100
AcDbEntity
  8
0-B_寸法
  6
Continuous
 62
   120
370
     5
100
AcDbLine
 10
-902.0814559695508
 20
2426.961624593788
 30
0.0
 11
-1052.35920717046
 21
2426.961624593788
 31
0.0
  0
MTEXT
  5
168
330
1F
100
AcDbEntity
  8
0-B_寸法
  6
Continuous
 62
     7
370
   211
100
AcDbMText
 10
-812.0814559695548
 20
2742.681822545649
 30
0.0
 40
91.44
 41
120.0
 46
0.0
 71
     7
 72
     1
  1
{\fＭＳ ゴシック|b0|i0|c128|p49;30}
 73
     1
 44
1.0
  0
LINE
  5
169
330
1F
100
AcDbEntity
  8
0-B_寸法
  6
Continuous
 62
   120
370
     5
100
AcDbLine
 10
453.6405558824715
 20
2198.96162459379
 30
0.0
 11
453.6405558824715
 21
2018.96162459379
 31
0.0
  0
LWPOLYLINE
  5
16A
330
1F
100
AcDbEntity
  8
0-B_寸法
  6
Continuous
 62
     7
370
     9
100
AcDbPolyline
 90
        4
 70
     1
 43
3.0
 10
455.1405558824715
 20
2198.96162459379
 42
0.4142135623731
 10
453.6405558824715
 20
2200.46162459379
 42
0.4142135623731
 10
452.1405558824715
 20
2198.96162459379
 42
0.4142135623731
 10
453.6405558824715
 20
2197.46162459379
 42
0.4142135623731
  0
LWPOLYLINE
  5
16B
330
1F
100
AcDbEntity
  8
0-B_寸法
  6
Continuous
 62
     7
370
     9
100
AcDbPolyline
 90
        4
 70
     1
 43
3.0
 10
455.1405558824715
 20
2018.96162459379
 42
0.4142135623731
 10
453.6405558824715
 20
2020.46162459379
 42
0.4142135623731
 10
452.1405558824715
 20
2018.96162459379
 42
0.4142135623731
 10
453.6405558824715
 20
2017.46162459379
 42
0.4142135623731
  0
LINE
  5
16C
330
1F
100
AcDbEntity
  8
0-B_寸法
  6
Continuous
 62
   120
370
     5
100
AcDbLine
 10
453.6405558824715
 20
2198.96162459379
 30
0.0
 11
603.918307083381
 21
2198.96162459379
 31
0.0
  0
LINE
  5
16D
330
1F
100
AcDbEntity
  8
0-B_寸法
  6
Continuous
 62
   120
370
     5
100
AcDbLine
 10
453.6405558824715
 20
2018.96162459379
 30
0.0
 11
603.918307083381
 21
2018.96162459379
 31
0.0
  0
LINE
  5
16E
330
1F
100
AcDbEntity
  8
0-6_扉
  6
JWW_DASHED2
 62
    40
370
    15
100
AcDbLine
 10
2146.871082305429
 20
2018.96162459379
 30
0.0
 11
2146.871082305429
 21
2198.96162459379
 31
0.0
  0
LINE
  5
16F
330
1F
100
AcDbEntity
  8
0-6_扉
  6
JWW_DASHED2
 62
    40
370
    15
100
AcDbLine
 10
645.9185297792237
 20
2018.96162459379
 30
0.0
 11
645.9185297792237
 21
2198.96162459379
 31
0.0
  0
LINE
  5
170
330
1F
100
AcDbEntity
  8
0-C_ハッチ
  6
JWW_DASHED1
 62
   120
370
     5
100
AcDbLine
 10
2339.063355146477
 20
1532.961624593785
 30
0.0
 11
2344.871082305431
 21
1538.76935175274
 31
0.0
  0
LINE
  5
171
330
1F
100
AcDbEntity
  8
0-C_ハッチ
  6
JWW_DASHED1
 62
   120
370
     5
100
AcDbLine
 10
2296.636948275279
 20
1532.961624593789
 30
0.0
 11
2344.871082305421
 21
1581.195758623929
 31
0.0
  0
LINE
  5
172
330
1F
100
AcDbEntity
  8
0-C_ハッチ
  6
JWW_DASHED1
 62
   120
370
     5
100
AcDbLine
 10
2254.210541404083
 20
1532.961624593791
 30
0.0
 11
2329.210541404078
 21
1607.961624593787
 31
0.0
  0
LINE
  5
173
330
1F
100
AcDbEntity
  8
0-C_ハッチ
  6
JWW_DASHED1
 62
   120
370
     5
100
AcDbLine
 10
2211.784134532887
 20
1532.961624593795
 30
0.0
 11
2286.784134532882
 21
1607.961624593791
 31
0.0
  0
LINE
  5
174
330
1F
100
AcDbEntity
  8
0-C_ハッチ
  6
JWW_DASHED1
 62
   120
370
     5
100
AcDbLine
 10
2169.357727661676
 20
1532.961624593785
 30
0.0
 11
2244.357727661671
 21
1607.961624593779
 31
0.0
  0
LINE
  5
175
330
1F
100
AcDbEntity
  8
0-C_ハッチ
  6
JWW_DASHED1
 62
   120
370
     5
100
AcDbLine
 10
2126.931320790479
 20
1532.961624593789
 30
0.0
 11
2201.931320790475
 21
1607.961624593784
 31
0.0
  0
LINE
  5
176
330
1F
100
AcDbEntity
  8
0-C_ハッチ
  6
JWW_DASHED1
 62
   120
370
     5
100
AcDbLine
 10
2084.504913919284
 20
1532.961624593793
 30
0.0
 11
2159.504913919277
 21
1607.961624593786
 31
0.0
  0
LINE
  5
177
330
1F
100
AcDbEntity
  8
0-C_ハッチ
  6
JWW_DASHED1
 62
   120
370
     5
100
AcDbLine
 10
2042.078507048087
 20
1532.961624593796
 30
0.0
 11
2117.078507048081
 21
1607.96162459379
 31
0.0
  0
LINE
  5
178
330
1F
100
AcDbEntity
  8
0-C_ハッチ
  6
JWW_DASHED1
 62
   120
370
     5
100
AcDbLine
 10
1999.652100176931
 20
1532.961624593786
 30
0.0
 11
2074.652100176943
 21
1607.961624593797
 31
0.0
  0
LINE
  5
179
330
1F
100
AcDbEntity
  8
0-C_ハッチ
  6
JWW_DASHED1
 62
   120
370
     5
100
AcDbLine
 10
2344.652100176932
 20
1877.961624593787
 30
0.0
 11
2344.871082305429
 21
1878.180606722283
 31
0.0
  0
LINE
  5
17A
330
1F
100
AcDbEntity
  8
0-C_ハッチ
  6
JWW_DASHED1
 62
   120
370
     5
100
AcDbLine
 10
1957.225693305734
 20
1532.96162459379
 30
0.0
 11
2032.225693305746
 21
1607.961624593801
 31
0.0
  0
LINE
  5
17B
330
1F
100
AcDbEntity
  8
0-C_ハッチ
  6
JWW_DASHED1
 62
   120
370
     5
100
AcDbLine
 10
2302.225693305737
 20
1877.96162459379
 30
0.0
 11
2344.871082305428
 21
1920.607013593481
 31
0.0
  0
LINE
  5
17C
330
1F
100
AcDbEntity
  8
0-C_ハッチ
  6
JWW_DASHED1
 62
   120
370
     5
100
AcDbLine
 10
1914.799286434538
 20
1532.961624593793
 30
0.0
 11
1989.799286434534
 21
1607.96162459379
 31
0.0
  0
LINE
  5
17D
330
1F
100
AcDbEntity
  8
0-C_ハッチ
  6
JWW_DASHED1
 62
   120
370
     5
100
AcDbLine
 10
2259.799286434541
 20
1877.961624593795
 30
0.0
 11
2334.799286434536
 21
1952.96162459379
 31
0.0
  0
LINE
  5
17E
330
1F
100
AcDbEntity
  8
0-C_ハッチ
  6
JWW_DASHED1
 62
   120
370
     5
100
AcDbLine
 10
1872.372879563341
 20
1532.961624593796
 30
0.0
 11
1947.372879563338
 21
1607.961624593793
 31
0.0
  0
LINE
  5
17F
330
1F
100
AcDbEntity
  8
0-C_ハッチ
  6
JWW_DASHED1
 62
   120
370
     5
100
AcDbLine
 10
2217.372879563344
 20
1877.961624593798
 30
0.0
 11
2292.372879563339
 21
1952.961624593793
 31
0.0
  0
LINE
  5
180
330
1F
100
AcDbEntity
  8
0-C_ハッチ
  6
JWW_DASHED1
 62
   120
370
     5
100
AcDbLine
 10
1829.946472692134
 20
1532.961624593789
 30
0.0
 11
1904.94647269213
 21
1607.961624593785
 31
0.0
  0
LINE
  5
181
330
1F
100
AcDbEntity
  8
0-C_ハッチ
  6
JWW_DASHED1
 62
   120
370
     5
100
AcDbLine
 10
2174.946472692133
 20
1877.961624593789
 30
0.0
 11
2249.946472692128
 21
1952.961624593783
 31
0.0
  0
LINE
  5
182
330
1F
100
AcDbEntity
  8
0-C_ハッチ
  6
JWW_DASHED1
 62
   120
370
     5
100
AcDbLine
 10
1787.520065820938
 20
1532.961624593791
 30
0.0
 11
1862.520065820934
 21
1607.961624593789
 31
0.0
  0
LINE
  5
183
330
1F
100
AcDbEntity
  8
0-C_ハッチ
  6
JWW_DASHED1
 62
   120
370
     5
100
AcDbLine
 10
2132.520065820937
 20
1877.961624593791
 30
0.0
 11
2207.520065820931
 21
1952.961624593786
 31
0.0
  0
LINE
  5
184
330
1F
100
AcDbEntity
  8
0-C_ハッチ
  6
JWW_DASHED1
 62
   120
370
     5
100
AcDbLine
 10
1745.093658949742
 20
1532.961624593796
 30
0.0
 11
1820.093658949733
 21
1607.961624593787
 31
0.0
  0
LINE
  5
185
330
1F
100
AcDbEntity
  8
0-C_ハッチ
  6
JWW_DASHED1
 62
   120
370
     5
100
AcDbLine
 10
2090.093658949739
 20
1877.961624593793
 30
0.0
 11
2165.093658949735
 21
1952.96162459379
 31
0.0
  0
LINE
  5
186
330
1F
100
AcDbEntity
  8
0-C_ハッチ
  6
JWW_DASHED1
 62
   120
370
     5
100
AcDbLine
 10
1702.667252078545
 20
1532.9616245938
 30
0.0
 11
1777.667252078537
 21
1607.961624593791
 31
0.0
  0
LINE
  5
187
330
1F
100
AcDbEntity
  8
0-C_ハッチ
  6
JWW_DASHED1
 62
   120
370
     5
100
AcDbLine
 10
2047.667252078542
 20
1877.961624593796
 30
0.0
 11
2122.667252078539
 21
1952.961624593793
 31
0.0
  0
LINE
  5
188
330
1F
100
AcDbEntity
  8
0-C_ハッチ
  6
JWW_DASHED1
 62
   120
370
     5
100
AcDbLine
 10
1660.240845207386
 20
1532.961624593786
 30
0.0
 11
1735.240845207399
 21
1607.9616245938
 31
0.0
  0
LINE
  5
189
330
1F
100
AcDbEntity
  8
0-C_ハッチ
  6
JWW_DASHED1
 62
   120
370
     5
100
AcDbLine
 10
2005.240845207389
 20
1877.96162459379
 30
0.0
 11
2080.2408452074
 21
1952.9616245938
 31
0.0
  0
LINE
  5
18A
330
1F
100
AcDbEntity
  8
0-C_ハッチ
  6
JWW_DASHED1
 62
   120
370
     5
100
AcDbLine
 10
1617.81443833619
 20
1532.96162459379
 30
0.0
 11
1692.814438336203
 21
1607.961624593803
 31
0.0
  0
LINE
  5
18B
330
1F
100
AcDbEntity
  8
0-C_ハッチ
  6
JWW_DASHED1
 62
   120
370
     5
100
AcDbLine
 10
1962.814438336193
 20
1877.961624593793
 30
0.0
 11
2037.814438336187
 21
1952.961624593786
 31
0.0
  0
LINE
  5
18C
330
1F
100
AcDbEntity
  8
0-C_ハッチ
  6
JWW_DASHED1
 62
   120
370
     5
100
AcDbLine
 10
1575.388031464993
 20
1532.961624593793
 30
0.0
 11
1650.38803146499
 21
1607.96162459379
 31
0.0
  0
LINE
  5
18D
330
1F
100
AcDbEntity
  8
0-C_ハッチ
  6
JWW_DASHED1
 62
   120
370
     5
100
AcDbLine
 10
1920.388031464996
 20
1877.961624593796
 30
0.0
 11
1995.38803146499
 21
1952.96162459379
 31
0.0
  0
LINE
  5
18E
330
1F
100
AcDbEntity
  8
0-C_ハッチ
  6
JWW_DASHED1
 62
   120
370
     5
100
AcDbLine
 10
1877.961624593799
 20
1877.9616245938
 30
0.0
 11
1952.961624593794
 21
1952.961624593793
 31
0.0
  0
LINE
  5
18F
330
1F
100
AcDbEntity
  8
0-C_ハッチ
  6
JWW_DASHED1
 62
   120
370
     5
100
AcDbLine
 10
1835.535217722593
 20
1877.961624593793
 30
0.0
 11
1910.535217722585
 21
1952.961624593785
 31
0.0
  0
LINE
  5
190
330
1F
100
AcDbEntity
  8
0-C_ハッチ
  6
JWW_DASHED1
 62
   120
370
     5
100
AcDbLine
 10
1793.108810851397
 20
1877.961624593796
 30
0.0
 11
1868.10881085139
 21
1952.96162459379
 31
0.0
  0
LINE
  5
191
330
1F
100
AcDbEntity
  8
0-C_ハッチ
  6
JWW_DASHED1
 62
   120
370
     5
100
AcDbLine
 10
1750.682403980195
 20
1877.961624593795
 30
0.0
 11
1825.682403980194
 21
1952.961624593793
 31
0.0
  0
LINE
  5
192
330
1F
100
AcDbEntity
  8
0-C_ハッチ
  6
JWW_DASHED1
 62
   120
370
     5
100
AcDbLine
 10
1363.255997109037
 20
1532.961624593783
 30
0.0
 11
1438.255997109052
 21
1607.961624593796
 31
0.0
  0
LINE
  5
193
330
1F
100
AcDbEntity
  8
0-C_ハッチ
  6
JWW_DASHED1
 62
   120
370
     5
100
AcDbLine
 10
1708.255997109041
 20
1877.961624593786
 30
0.0
 11
1783.255997109051
 21
1952.961624593796
 31
0.0
  0
LINE
  5
194
330
1F
100
AcDbEntity
  8
0-C_ハッチ
  6
JWW_DASHED1
 62
   120
370
     5
100
AcDbLine
 10
1320.829590237841
 20
1532.961624593786
 30
0.0
 11
1395.829590237855
 21
1607.9616245938
 31
0.0
  0
LINE
  5
195
330
1F
100
AcDbEntity
  8
0-C_ハッチ
  6
JWW_DASHED1
 62
   120
370
     5
100
AcDbLine
 10
1665.829590237845
 20
1877.96162459379
 30
0.0
 11
1740.829590237854
 21
1952.9616245938
 31
0.0
  0
LINE
  5
196
330
1F
100
AcDbEntity
  8
0-C_ハッチ
  6
JWW_DASHED1
 62
   120
370
     5
100
AcDbLine
 10
1278.403183366645
 20
1532.96162459379
 30
0.0
 11
1353.403183366643
 21
1607.961624593789
 31
0.0
  0
LINE
  5
197
330
1F
100
AcDbEntity
  8
0-C_ハッチ
  6
JWW_DASHED1
 62
   120
370
     5
100
AcDbLine
 10
1623.403183366649
 20
1877.961624593794
 30
0.0
 11
1698.403183366642
 21
1952.961624593787
 31
0.0
  0
LINE
  5
198
330
1F
100
AcDbEntity
  8
0-C_ハッチ
  6
JWW_DASHED1
 62
   120
370
     5
100
AcDbLine
 10
1235.976776495448
 20
1532.961624593793
 30
0.0
 11
1310.976776495447
 21
1607.961624593791
 31
0.0
  0
LINE
  5
199
330
1F
100
AcDbEntity
  8
0-C_ハッチ
  6
JWW_DASHED1
 62
   120
370
     5
100
AcDbLine
 10
1580.976776495452
 20
1877.961624593797
 30
0.0
 11
1655.976776495446
 21
1952.961624593791
 31
0.0
  0
LINE
  5
19A
330
1F
100
AcDbEntity
  8
0-C_ハッチ
  6
JWW_DASHED1
 62
   120
370
     5
100
AcDbLine
 10
1193.550369624247
 20
1532.961624593791
 30
0.0
 11
1268.550369624245
 21
1607.96162459379
 31
0.0
  0
LINE
  5
19B
330
1F
100
AcDbEntity
  8
0-C_ハッチ
  6
JWW_DASHED1
 62
   120
370
     5
100
AcDbLine
 10
1151.12396275305
 20
1532.961624593796
 30
0.0
 11
1226.123962753049
 21
1607.961624593794
 31
0.0
  0
LINE
  5
19C
330
1F
100
AcDbEntity
  8
0-C_ハッチ
  6
JWW_DASHED1
 62
   120
370
     5
100
AcDbLine
 10
1108.697555881854
 20
1532.9616245938
 30
0.0
 11
1183.697555881841
 21
1607.961624593787
 31
0.0
  0
LINE
  5
19D
330
1F
100
AcDbEntity
  8
0-C_ハッチ
  6
JWW_DASHED1
 62
   120
370
     5
100
AcDbLine
 10
1066.271149010658
 20
1532.961624593803
 30
0.0
 11
1141.271149010645
 21
1607.96162459379
 31
0.0
  0
LINE
  5
19E
330
1F
100
AcDbEntity
  8
0-C_ハッチ
  6
JWW_DASHED1
 62
   120
370
     5
100
AcDbLine
 10
1023.844742139493
 20
1532.961624593784
 30
0.0
 11
1098.844742139508
 21
1607.961624593798
 31
0.0
  0
LINE
  5
19F
330
1F
100
AcDbEntity
  8
0-C_ハッチ
  6
JWW_DASHED1
 62
   120
370
     5
100
AcDbLine
 10
1368.844742139498
 20
1877.961624593789
 30
0.0
 11
1443.844742139506
 21
1952.961624593796
 31
0.0
  0
LINE
  5
1A0
330
1F
100
AcDbEntity
  8
0-C_ハッチ
  6
JWW_DASHED1
 62
   120
370
     5
100
AcDbLine
 10
981.4183352682962
 20
1532.961624593787
 30
0.0
 11
1056.418335268311
 21
1607.961624593802
 31
0.0
  0
LINE
  5
1A1
330
1F
100
AcDbEntity
  8
0-C_ハッチ
  6
JWW_DASHED1
 62
   120
370
     5
100
AcDbLine
 10
1326.418335268301
 20
1877.961624593791
 30
0.0
 11
1401.418335268294
 21
1952.961624593785
 31
0.0
  0
LINE
  5
1A2
330
1F
100
AcDbEntity
  8
0-C_ハッチ
  6
JWW_DASHED1
 62
   120
370
     5
100
AcDbLine
 10
938.9919283970999
 20
1532.96162459379
 30
0.0
 11
1013.991928397099
 21
1607.96162459379
 31
0.0
  0
LINE
  5
1A3
330
1F
100
AcDbEntity
  8
0-C_ハッチ
  6
JWW_DASHED1
 62
   120
370
     5
100
AcDbLine
 10
1283.991928397104
 20
1877.961624593795
 30
0.0
 11
1358.991928397098
 21
1952.961624593789
 31
0.0
  0
LINE
  5
1A4
330
1F
100
AcDbEntity
  8
0-C_ハッチ
  6
JWW_DASHED1
 62
   120
370
     5
100
AcDbLine
 10
896.565521525903
 20
1532.961624593794
 30
0.0
 11
971.5655215259026
 21
1607.961624593793
 31
0.0
  0
LINE
  5
1A5
330
1F
100
AcDbEntity
  8
0-C_ハッチ
  6
JWW_DASHED1
 62
   120
370
     5
100
AcDbLine
 10
1241.565521525908
 20
1877.9616245938
 30
0.0
 11
1316.565521525901
 21
1952.961624593791
 31
0.0
  0
LINE
  5
1A6
330
1F
100
AcDbEntity
  8
0-C_ハッチ
  6
JWW_DASHED1
 62
   120
370
     5
100
AcDbLine
 10
854.1391146547049
 20
1532.961624593796
 30
0.0
 11
929.1391146547041
 21
1607.961624593795
 31
0.0
  0
LINE
  5
1A7
330
1F
100
AcDbEntity
  8
0-C_ハッチ
  6
JWW_DASHED1
 62
   120
370
     5
100
AcDbLine
 10
1199.139114654707
 20
1877.961624593798
 30
0.0
 11
1274.139114654698
 21
1952.96162459379
 31
0.0
  0
LINE
  5
1A8
330
1F
100
AcDbEntity
  8
0-C_ハッチ
  6
JWW_DASHED1
 62
   120
370
     5
100
AcDbLine
 10
811.7127077835087
 20
1532.9616245938
 30
0.0
 11
886.7127077835081
 21
1607.9616245938
 31
0.0
  0
LINE
  5
1A9
330
1F
100
AcDbEntity
  8
0-C_ハッチ
  6
JWW_DASHED1
 62
   120
370
     5
100
AcDbLine
 10
1156.712707783511
 20
1877.961624593802
 30
0.0
 11
1231.712707783502
 21
1952.961624593793
 31
0.0
  0
LINE
  5
1AA
330
1F
100
AcDbEntity
  8
0-C_ハッチ
  6
JWW_DASHED1
 62
   120
370
     5
100
AcDbLine
 10
769.2863009123125
 20
1532.961624593803
 30
0.0
 11
844.2863009122975
 21
1607.961624593789
 31
0.0
  0
LINE
  5
1AB
330
1F
100
AcDbEntity
  8
0-C_ハッチ
  6
JWW_DASHED1
 62
   120
370
     5
100
AcDbLine
 10
1114.286300912303
 20
1877.961624593794
 30
0.0
 11
1189.286300912306
 21
1952.961624593796
 31
0.0
  0
LINE
  5
1AC
330
1F
100
AcDbEntity
  8
0-C_ハッチ
  6
JWW_DASHED1
 62
   120
370
     5
100
AcDbLine
 10
726.8598940411164
 20
1532.961624593808
 30
0.0
 11
801.859894041101
 21
1607.961624593793
 31
0.0
  0
LINE
  5
1AD
330
1F
100
AcDbEntity
  8
0-C_ハッチ
  6
JWW_DASHED1
 62
   120
370
     5
100
AcDbLine
 10
1071.859894041091
 20
1877.961624593783
 30
0.0
 11
1146.85989404111
 21
1952.961624593802
 31
0.0
  0
LINE
  5
1AE
330
1F
100
AcDbEntity
  8
0-C_ハッチ
  6
JWW_DASHED1
 62
   120
370
     5
100
AcDbLine
 10
684.4334871699479
 20
1532.961624593785
 30
0.0
 11
759.4334871699634
 21
1607.9616245938
 31
0.0
  0
LINE
  5
1AF
330
1F
100
AcDbEntity
  8
0-C_ハッチ
  6
JWW_DASHED1
 62
   120
370
     5
100
AcDbLine
 10
1029.433487169953
 20
1877.96162459379
 30
0.0
 11
1104.433487169961
 21
1952.961624593797
 31
0.0
  0
LINE
  5
1B0
330
1F
100
AcDbEntity
  8
0-C_ハッチ
  6
JWW_DASHED1
 62
   120
370
     5
100
AcDbLine
 10
663.918529779223
 20
1554.87307407426
 30
0.0
 11
738.9185297792224
 21
1629.873074074259
 31
0.0
  0
LINE
  5
1B1
330
1F
100
AcDbEntity
  8
0-C_ハッチ
  6
JWW_DASHED1
 62
   120
370
     5
100
AcDbLine
 10
987.0070802987566
 20
1877.961624593793
 30
0.0
 11
1062.007080298749
 21
1952.961624593786
 31
0.0
  0
LINE
  5
1B2
330
1F
100
AcDbEntity
  8
0-C_ハッチ
  6
JWW_DASHED1
 62
   120
370
     5
100
AcDbLine
 10
663.9185297792197
 20
1597.299480945456
 30
0.0
 11
738.9185297792178
 21
1672.299480945454
 31
0.0
  0
LINE
  5
1B3
330
1F
100
AcDbEntity
  8
0-C_ハッチ
  6
JWW_DASHED1
 62
   120
370
     5
100
AcDbLine
 10
944.5806734275606
 20
1877.961624593796
 30
0.0
 11
1019.580673427552
 21
1952.96162459379
 31
0.0
  0
LINE
  5
1B4
330
1F
100
AcDbEntity
  8
0-C_ハッチ
  6
JWW_DASHED1
 62
   120
370
     5
100
AcDbLine
 10
663.9185297792163
 20
1639.725887816654
 30
0.0
 11
738.9185297792135
 21
1714.725887816649
 31
0.0
  0
LINE
  5
1B5
330
1F
100
AcDbEntity
  8
0-C_ハッチ
  6
JWW_DASHED1
 62
   120
370
     5
100
AcDbLine
 10
902.1542665563626
 20
1877.9616245938
 30
0.0
 11
977.1542665563529
 21
1952.96162459379
 31
0.0
  0
LINE
  5
1B6
330
1F
100
AcDbEntity
  8
0-C_ハッチ
  6
JWW_DASHED1
 62
   120
370
     5
100
AcDbLine
 10
663.9185297792135
 20
1682.152294687849
 30
0.0
 11
738.9185297792089
 21
1757.152294687845
 31
0.0
  0
LINE
  5
1B7
330
1F
100
AcDbEntity
  8
0-C_ハッチ
  6
JWW_DASHED1
 62
   120
370
     5
100
AcDbLine
 10
859.7278596851665
 20
1877.961624593803
 30
0.0
 11
934.7278596851565
 21
1952.961624593793
 31
0.0
  0
LINE
  5
1B8
330
1F
100
AcDbEntity
  8
0-C_ハッチ
  6
JWW_DASHED1
 62
   120
370
     5
100
AcDbLine
 10
663.9185297792102
 20
1724.578701559048
 30
0.0
 11
738.9185297792203
 21
1799.578701559056
 31
0.0
  0
LINE
  5
1B9
330
1F
100
AcDbEntity
  8
0-C_ハッチ
  6
JWW_DASHED1
 62
   120
370
     5
100
AcDbLine
 10
817.3014528139555
 20
1877.961624593793
 30
0.0
 11
892.3014528139606
 21
1952.961624593797
 31
0.0
  0
LINE
  5
1BA
330
1F
100
AcDbEntity
  8
0-C_ハッチ
  6
JWW_DASHED1
 62
   120
370
     5
100
AcDbLine
 10
663.9185297792068
 20
1767.005108430244
 30
0.0
 11
738.9185297792158
 21
1842.005108430252
 31
0.0
  0
LINE
  5
1BB
330
1F
100
AcDbEntity
  8
0-C_ハッチ
  6
JWW_DASHED1
 62
   120
370
     5
100
AcDbLine
 10
774.8750459427589
 20
1877.961624593796
 30
0.0
 11
849.8750459427642
 21
1952.961624593801
 31
0.0
  0
LINE
  5
1BC
330
1F
100
AcDbEntity
  8
0-C_ハッチ
  6
JWW_DASHED1
 62
   120
370
     5
100
AcDbLine
 10
663.9185297792204
 20
1809.431515301403
 30
0.0
 11
807.4486390716127
 21
1952.961624593795
 31
0.0
  0
LINE
  5
1BD
330
1F
100
AcDbEntity
  8
0-C_ハッチ
  6
JWW_DASHED1
 62
   120
370
     5
100
AcDbLine
 10
663.9185297792277
 20
1851.85792217261
 30
0.0
 11
765.0222322004006
 21
1952.961624593783
 31
0.0
  0
LINE
  5
1BE
330
1F
100
AcDbEntity
  8
0-C_ハッチ
  6
JWW_DASHED1
 62
   120
370
     5
100
AcDbLine
 10
663.9185297792243
 20
1894.284329043807
 30
0.0
 11
722.595825329204
 21
1952.961624593786
 31
0.0
  0
LINE
  5
1BF
330
1F
100
AcDbEntity
  8
0-C_ハッチ
  6
JWW_DASHED1
 62
   120
370
     5
100
AcDbLine
 10
663.9185297792212
 20
1936.710735915003
 30
0.0
 11
680.1694184580074
 21
1952.96162459379
 31
0.0
  0
MTEXT
  5
1C0
330
1F
100
AcDbEntity
  8
0-B_寸法
  6
Continuous
 62
     7
370
     0
100
AcDbMText
 10
-1067.359256658423
 20
2259.684712642769
 30
0.0
 40
91.44
 41
120.0
 46
0.0
 71
     7
 72
     1
  1
{\fＭＳ ゴシック|b0|i0|c128|p49;30}
 11
6.123031769111886E-17
 21
1.0
 31
0.0
 73
     1
 44
1.0
  0
LINE
  5
1C1
330
1F
100
AcDbEntity
  8
0-0_補助線
  6
JWW_HOJO
 62
   120
370
     5
100
AcDbLine
 10
1566.918522653612
 20
1343.961624593791
 30
0.0
 11
1566.918522653612
 21
2741.961822545649
 31
0.0
  0
LINE
  5
1C2
330
1F
100
AcDbEntity
  8
0-0_補助線
  6
JWW_HOJO
 62
   120
370
     5
100
AcDbLine
 10
1446.918522653612
 20
1343.961624593791
 30
0.0
 11
1446.918522653612
 21
2741.961822545649
 31
0.0
  0
LINE
  5
1C3
330
1F
100
AcDbEntity
  8
0-6_扉
  6
JWW_DASHED2
 62
    40
370
    15
100
AcDbLine
 10
1566.918522653612
 20
2198.96162459379
 30
0.0
 11
2146.871082305429
 21
2198.96162459379
 31
0.0
  0
LINE
  5
1C4
330
1F
100
AcDbEntity
  8
0-6_扉
  6
JWW_DASHED2
 62
    40
370
    15
100
AcDbLine
 10
1566.918522653612
 20
2018.96162459379
 30
0.0
 11
2146.871082305429
 21
2018.96162459379
 31
0.0
  0
LINE
  5
1C5
330
1F
100
AcDbEntity
  8
0-6_扉
  6
JWW_DASHED2
 62
    40
370
    15
100
AcDbLine
 10
645.9185297792237
 20
2198.96162459379
 30
0.0
 11
1446.918522653612
 21
2198.96162459379
 31
0.0
  0
LINE
  5
1C6
330
1F
100
AcDbEntity
  8
0-6_扉
  6
JWW_DASHED2
 62
    40
370
    15
100
AcDbLine
 10
645.9185297792237
 20
2018.96162459379
 30
0.0
 11
1446.918522653612
 21
2018.96162459379
 31
0.0
  0
LINE
  5
1C7
330
1F
100
AcDbEntity
  8
0-0_補助線
  6
JWW_HOJO
 62
   120
370
     5
100
AcDbLine
 10
1566.918522653612
 20
2108.961624593793
 30
0.0
 11
2404.87108230543
 21
2108.961624593793
 31
0.0
  0
LINE
  5
1C8
330
1F
100
AcDbEntity
  8
0-0_補助線
  6
JWW_HOJO
 62
   120
370
     5
100
AcDbLine
 10
60.91853690483685
 20
2336.961624593788
 30
0.0
 11
1446.918522653612
 21
2336.961624593788
 31
0.0
  0
LINE
  5
1C9
330
1F
100
AcDbEntity
  8
0-0_補助線
  6
JWW_HOJO
 62
   120
370
     5
100
AcDbLine
 10
1566.918522653612
 20
2336.961624593788
 30
0.0
 11
2404.87108230543
 21
2336.961624593788
 31
0.0
  0
LINE
  5
1CA
330
1F
100
AcDbEntity
  8
0-1_通り芯
  6
JWW_CENTER1
 62
   120
370
     5
100
AcDbLine
 10
60.91853690483685
 20
2222.96162459379
 30
0.0
 11
1446.918522653612
 21
2222.96162459379
 31
0.0
  0
LINE
  5
1CB
330
1F
100
AcDbEntity
  8
0-1_通り芯
  6
JWW_CENTER1
 62
   120
370
     5
100
AcDbLine
 10
1566.918522653612
 20
2222.96162459379
 30
0.0
 11
2404.87108230543
 21
2222.96162459379
 31
0.0
  0
LINE
  5
1CC
330
1F
100
AcDbEntity
  8
0-3_仕上げ
  6
Continuous
 62
    40
370
    15
100
AcDbLine
 10
738.9185297792244
 20
1877.961624593786
 30
0.0
 11
1446.918522653612
 21
1877.961624593786
 31
0.0
  0
LINE
  5
1CD
330
1F
100
AcDbEntity
  8
0-3_仕上げ
  6
Continuous
 62
    40
370
    15
100
AcDbLine
 10
1566.918522653612
 20
1877.961624593786
 30
0.0
 11
2344.87108230543
 21
1877.961624593786
 31
0.0
  0
LINE
  5
1CE
330
1F
100
AcDbEntity
  8
0-3_仕上げ
  6
Continuous
 62
    40
370
    15
100
AcDbLine
 10
738.9185297792244
 20
1607.961624593786
 30
0.0
 11
1446.918522653612
 21
1607.961624593786
 31
0.0
  0
LINE
  5
1CF
330
1F
100
AcDbEntity
  8
0-3_仕上げ
  6
Continuous
 62
    40
370
    15
100
AcDbLine
 10
1566.918522653612
 20
1607.961624593786
 30
0.0
 11
2344.87108230543
 21
1607.961624593786
 31
0.0
  0
LINE
  5
1D0
330
1F
100
AcDbEntity
  8
0-3_仕上げ
  6
Continuous
 62
    40
370
    15
100
AcDbLine
 10
663.9185297792244
 20
1952.961624593786
 30
0.0
 11
1446.918522653612
 21
1952.961624593786
 31
0.0
  0
LINE
  5
1D1
330
1F
100
AcDbEntity
  8
0-3_仕上げ
  6
Continuous
 62
    40
370
    15
100
AcDbLine
 10
1566.918522653612
 20
1952.961624593786
 30
0.0
 11
2344.87108230543
 21
1952.961624593786
 31
0.0
  0
LINE
  5
1D2
330
1F
100
AcDbEntity
  8
0-3_仕上げ
  6
Continuous
 62
    40
370
    15
100
AcDbLine
 10
663.9185297792244
 20
1532.961624593786
 30
0.0
 11
1446.918522653612
 21
1532.961624593786
 31
0.0
  0
LINE
  5
1D3
330
1F
100
AcDbEntity
  8
0-3_仕上げ
  6
Continuous
 62
    40
370
    15
100
AcDbLine
 10
1566.918522653612
 20
1532.961624593786
 30
0.0
 11
2344.87108230543
 21
1532.961624593786
 31
0.0
  0
LINE
  5
1D4
330
1F
100
AcDbEntity
  8
0-C_ハッチ
  6
JWW_DASHED1
 62
   120
370
     5
100
AcDbLine
 10
1566.918522653612
 20
1566.918522653612
 30
0.0
 11
1607.961624593794
 21
1607.961624593794
 31
0.0
  0
LINE
  5
1D5
330
1F
100
AcDbEntity
  8
0-C_ハッチ
  6
JWW_DASHED1
 62
   120
370
     5
100
AcDbLine
 10
1405.6824039802
 20
1532.9616245938
 30
0.0
 11
1446.918522653612
 21
1574.197743267212
 31
0.0
  0
LINE
  5
1D6
330
1F
100
AcDbEntity
  8
0-C_ハッチ
  6
JWW_DASHED1
 62
   120
370
     5
100
AcDbLine
 10
1566.918522653612
 20
1906.329777623157
 30
0.0
 11
1613.55036962424
 21
1952.961624593786
 31
0.0
  0
LINE
  5
1D7
330
1F
100
AcDbEntity
  8
0-C_ハッチ
  6
JWW_DASHED1
 62
   120
370
     5
100
AcDbLine
 10
1566.918522653612
 20
1948.756184494357
 30
0.0
 11
1571.123962753044
 21
1952.96162459379
 31
0.0
  0
LINE
  5
1D8
330
1F
100
AcDbEntity
  8
0-C_ハッチ
  6
JWW_DASHED1
 62
   120
370
     5
100
AcDbLine
 10
1411.271149010651
 20
1877.961624593796
 30
0.0
 11
1446.918522653612
 21
1913.608998236757
 31
0.0
  0
LINE
  5
1D9
330
1F
100
AcDbEntity
  8
0-A_文字
  6
Continuous
 62
     7
370
     9
100
AcDbLine
 10
2489.732956030343
 20
2672.961624568169
 30
0.0
 11
2429.732956030343
 21
2672.961624568169
 31
0.0
  0
LINE
  5
1DA
330
1F
100
AcDbEntity
  8
0-A_文字
  6
Continuous
 62
     7
370
     9
100
AcDbLine
 10
2284.475337422498
 20
2421.368048952919
 30
0.0
 11
2429.732956030343
 21
2672.961624568169
 31
0.0
  0
MTEXT
  5
1DB
330
1F
100
AcDbEntity
  8
0-B_寸法
  6
Continuous
 62
     7
370
   211
100
AcDbMText
 10
-1067.359207170457
 20
2151.681550361835
 30
0.0
 40
91.44
 41
60.0
 46
0.0
 71
     7
 72
     1
  1
{\fＭＳ ゴシック|b0|i0|c128|p49;8}
 11
6.123031769111886E-17
 21
1.0
 31
0.0
 73
     1
 44
1.0
  0
MTEXT
  5
1DC
330
1F
100
AcDbEntity
  8
0-B_寸法
  6
Continuous
 62
     7
370
     0
100
AcDbMText
 10
-2036.551464242582
 20
2148.681624593789
 30
0.0
 40
91.44
 41
120.0
 46
0.0
 71
     7
 72
     1
  1
{\fＭＳ ゴシック|b0|i0|c128|p49;90}
 11
6.123031769111886E-17
 21
1.0
 31
0.0
 73
     1
 44
1.0
  0
MTEXT
  5
1DD
330
1F
100
AcDbEntity
  8
0-B_寸法
  6
Continuous
 62
     7
370
   211
100
AcDbMText
 10
438.6405558824715
 20
2033.789124593789
 30
0.0
 40
97.15499999999999
 41
127.5
 46
0.0
 71
     7
 72
     1
  1
{\fＭＳ ゴシック|b0|i0|c128|p49;30}
 11
6.123031769111886E-17
 21
1.0
 31
0.0
 73
     1
 44
1.0
  0
MTEXT
  5
1DE
330
1F
100
AcDbEntity
  8
0-B_寸法
  6
Continuous
 62
     7
370
   211
100
AcDbMText
 10
-2480.081453928652
 20
984.681624593791
 30
0.0
 40
91.44
 41
120.0
 46
0.0
 71
     7
 72
     1
  1
{\fＭＳ ゴシック|b0|i0|c128|p49;30}
 73
     1
 44
1.0
  0
MTEXT
  5
1DF
330
1F
100
AcDbEntity
  8
0-B_寸法
  6
Continuous
 62
     7
370
   211
100
AcDbMText
 10
2194.87108230543
 20
984.681624593791
 30
0.0
 40
91.44
 41
120.0
 46
0.0
 71
     7
 72
     1
  1
{\fＭＳ ゴシック|b0|i0|c128|p49;30}
 73
     1
 44
1.0
  0
MTEXT
  5
1E0
330
1F
100
AcDbEntity
  8
0-B_寸法
  6
Continuous
 62
     7
370
   211
100
AcDbMText
 10
1044.918491721642
 20
-724.021213373477
 30
0.0
 40
97.15499999999999
 41
127.5
 46
0.0
 71
     7
 72
     1
  1
{\fＭＳ ゴシック|b0|i0|c128|p49;30}
 11
6.123031769111886E-17
 21
1.0
 31
0.0
 73
     1
 44
1.0
  0
LINE
  5
1E1
330
1F
100
AcDbEntity
  8
0-B_寸法
  6
Continuous
 62
   120
370
     5
100
AcDbLine
 10
-194.0815082783595
 20
-1524.84904648413
 30
0.0
 11
213.9184917216377
 21
-1524.84904648413
 31
0.0
  0
LWPOLYLINE
  5
1E2
330
1F
100
AcDbEntity
  8
0-B_寸法
  6
Continuous
 62
     7
370
     9
100
AcDbPolyline
 90
        4
 70
     1
 43
3.0
 10
-192.5815082783595
 20
-1524.84904648413
 42
0.4142135623731
 10
-194.0815082783595
 20
-1523.34904648413
 42
0.4142135623731
 10
-195.5815082783595
 20
-1524.84904648413
 42
0.4142135623731
 10
-194.0815082783595
 20
-1526.34904648413
 42
0.4142135623731
  0
LWPOLYLINE
  5
1E3
330
1F
100
AcDbEntity
  8
0-B_寸法
  6
Continuous
 62
     7
370
     9
100
AcDbPolyline
 90
        4
 70
     1
 43
3.0
 10
-12.58150827835954
 20
-1524.84904648413
 42
0.4142135623731
 10
-14.08150827835954
 20
-1523.34904648413
 42
0.4142135623731
 10
-15.58150827835954
 20
-1524.84904648413
 42
0.4142135623731
 10
-14.08150827835954
 20
-1526.34904648413
 42
0.4142135623731
  0
LWPOLYLINE
  5
1E4
330
1F
100
AcDbEntity
  8
0-B_寸法
  6
Continuous
 62
     7
370
     9
100
AcDbPolyline
 90
        4
 70
     1
 43
3.0
 10
35.41849172163774
 20
-1524.84904648413
 42
0.4142135623731
 10
33.91849172163774
 20
-1523.34904648413
 42
0.4142135623731
 10
32.41849172163774
 20
-1524.84904648413
 42
0.4142135623731
 10
33.91849172163774
 20
-1526.34904648413
 42
0.4142135623731
  0
LWPOLYLINE
  5
1E5
330
1F
100
AcDbEntity
  8
0-B_寸法
  6
Continuous
 62
     7
370
     9
100
AcDbPolyline
 90
        4
 70
     1
 43
3.0
 10
215.4184917216377
 20
-1524.84904648413
 42
0.4142135623731
 10
213.9184917216377
 20
-1523.34904648413
 42
0.4142135623731
 10
212.4184917216377
 20
-1524.84904648413
 42
0.4142135623731
 10
213.9184917216377
 20
-1526.34904648413
 42
0.4142135623731
  0
LINE
  5
1E6
330
1F
100
AcDbEntity
  8
0-6_扉
  6
Continuous
 62
   200
370
    20
100
AcDbLine
 10
33.91849172163774
 20
-1506.84904648413
 30
0.0
 11
33.91849172163774
 21
-1884.848919635555
 31
0.0
  0
LINE
  5
1E7
330
1F
100
AcDbEntity
  8
0-6_扉
  6
Continuous
 62
   200
370
    20
100
AcDbLine
 10
-14.08150827835954
 20
-1506.84904648413
 30
0.0
 11
-14.08150827835954
 21
-1884.848919635555
 31
0.0
  0
LINE
  5
1E8
330
1F
100
AcDbEntity
  8
0-6_扉
  6
Continuous
 62
   200
370
    20
100
AcDbLine
 10
33.91849172163774
 20
-1224.277024952317
 30
0.0
 11
33.91849172163774
 21
-1386.84904648413
 31
0.0
  0
LINE
  5
1E9
330
1F
100
AcDbEntity
  8
0-6_扉
  6
Continuous
 62
   200
370
    20
100
AcDbLine
 10
-14.08150827835954
 20
-1224.277024952317
 30
0.0
 11
-14.08150827835954
 21
-1386.84904648413
 31
0.0
  0
LINE
  5
1EA
330
1F
100
AcDbEntity
  8
0-0_補助線
  6
JWW_HOJO
 62
   120
370
     5
100
AcDbLine
 10
-455.0815082783626
 20
-1884.848713373472
 30
0.0
 11
474.9184917216382
 21
-1884.848713373472
 31
0.0
  0
LINE
  5
1EB
330
1F
100
AcDbEntity
  8
0-0_補助線
  6
JWW_HOJO
 62
   120
370
     5
100
AcDbLine
 10
-455.0815082783626
 20
-2004.848713373472
 30
0.0
 11
474.9184917216382
 21
-2004.848713373472
 31
0.0
  0
LINE
  5
1EC
330
1F
100
AcDbEntity
  8
0-A_文字
  6
Continuous
 62
     7
370
     9
100
AcDbLine
 10
-646.6944042779483
 20
-3133.96742170295
 30
0.0
 11
-616.6944042779483
 21
-3185.928945930016
 31
0.0
  0
LINE
  5
1ED
330
1F
100
AcDbEntity
  8
0-A_文字
  6
Continuous
 62
     7
370
     9
100
AcDbLine
 10
-646.6944042779483
 20
-3133.96742170295
 30
0.0
 11
-586.6944042779483
 21
-3133.96742170295
 31
0.0
  0
LINE
  5
1EE
330
1F
100
AcDbEntity
  8
0-A_文字
  6
Continuous
 62
     7
370
     9
100
AcDbLine
 10
-586.6944042779483
 20
-3133.96742170295
 30
0.0
 11
-616.6944042779448
 21
-3185.928945930016
 31
0.0
  0
LINE
  5
1EF
330
1F
100
AcDbEntity
  8
0-3_仕上げ
  6
Continuous
 62
    40
370
    15
100
AcDbLine
 10
639.91849172164
 20
-3258.848919635538
 30
0.0
 11
-680.0815082783618
 21
-3258.848919635538
 31
0.0
  0
LINE
  5
1F0
330
1F
100
AcDbEntity
  8
0-3_仕上げ
  6
Continuous
 62
    40
370
    15
100
AcDbLine
 10
639.91849172164
 20
-3186.848919635537
 30
0.0
 11
-680.0815082783618
 21
-3186.848919635537
 31
0.0
  0
LINE
  5
1F1
330
1F
100
AcDbEntity
  8
0-3_仕上げ
  6
Continuous
 62
     7
370
     9
100
AcDbLine
 10
639.91849172164
 20
-3222.848919635535
 30
0.0
 11
-680.0815082783618
 21
-3222.848919635535
 31
0.0
  0
LINE
  5
1F2
330
1F
100
AcDbEntity
  8
0-3_仕上げ
  6
Continuous
 62
     7
370
     9
100
AcDbLine
 10
639.91849172164
 20
-3240.848919635538
 30
0.0
 11
-680.0815082783618
 21
-3240.848919635538
 31
0.0
  0
LINE
  5
1F3
330
1F
100
AcDbEntity
  8
0-3_仕上げ
  6
Continuous
 62
     7
370
     9
100
AcDbLine
 10
639.91849172164
 20
-3231.848919635537
 30
0.0
 11
-680.0815082783618
 21
-3231.848919635537
 31
0.0
  0
LINE
  5
1F4
330
1F
100
AcDbEntity
  8
0-3_仕上げ
  6
Continuous
 62
     7
370
     9
100
AcDbLine
 10
639.91849172164
 20
-3213.848919635535
 30
0.0
 11
-680.0815082783618
 21
-3213.848919635535
 31
0.0
  0
LINE
  5
1F5
330
1F
100
AcDbEntity
  8
0-3_仕上げ
  6
Continuous
 62
     7
370
     9
100
AcDbLine
 10
639.91849172164
 20
-3204.848919635537
 30
0.0
 11
-680.0815082783618
 21
-3204.848919635537
 31
0.0
  0
LINE
  5
1F6
330
1F
100
AcDbEntity
  8
0-3_仕上げ
  6
Continuous
 62
     7
370
     9
100
AcDbLine
 10
639.91849172164
 20
-3195.848919635538
 30
0.0
 11
-680.0815082783618
 21
-3195.848919635538
 31
0.0
  0
LINE
  5
1F7
330
1F
100
AcDbEntity
  8
0-3_仕上げ
  6
Continuous
 62
     7
370
     9
100
AcDbLine
 10
639.91849172164
 20
-3249.848919635537
 30
0.0
 11
-680.0815082783618
 21
-3249.848919635537
 31
0.0
  0
LINE
  5
1F8
330
1F
100
AcDbEntity
  8
0-C_ハッチ
  6
Continuous
 62
   120
370
     5
100
AcDbLine
 10
41.53060040556028
 20
-642.8487133734769
 30
0.0
 11
125.5306004055657
 21
-558.848713373477
 31
0.0
  0
LINE
  5
1F9
330
1F
100
AcDbEntity
  8
0-C_ハッチ
  6
Continuous
 62
   120
370
     5
100
AcDbLine
 10
100.9275700252621
 20
-642.8487133734769
 30
0.0
 11
184.9275700252676
 21
-558.848713373477
 31
0.0
  0
LINE
  5
1FA
330
1F
100
AcDbEntity
  8
0-C_ハッチ
  6
Continuous
 62
   120
370
     5
100
AcDbLine
 10
-136.6603084534302
 20
-642.8487133734769
 30
0.0
 11
-52.66030845343153
 21
-558.848713373477
 31
0.0
  0
LINE
  5
1FB
330
1F
100
AcDbEntity
  8
0-C_ハッチ
  6
Continuous
 62
   120
370
     5
100
AcDbLine
 10
-77.26333883372831
 20
-642.8487133734769
 30
0.0
 11
6.736661166267766
 21
-558.848713373477
 31
0.0
  0
LINE
  5
1FC
330
1F
100
AcDbEntity
  8
0-4_枠
  6
Continuous
 62
    92
370
    13
100
AcDbLine
 10
255.9184917216413
 20
-738.848713373477
 30
0.0
 11
255.9184917216413
 21
-558.848713373477
 31
0.0
  0
LINE
  5
1FD
330
1F
100
AcDbEntity
  8
0-4_枠
  6
Continuous
 62
    92
370
    13
100
AcDbLine
 10
252.9183315043548
 20
-735.8487133734798
 30
0.0
 11
252.9183315043548
 21
-561.8487133734756
 31
0.0
  0
LINE
  5
1FE
330
1F
100
AcDbEntity
  8
0-4_枠
  6
Continuous
 62
    92
370
    13
100
AcDbLine
 10
195.9184917216413
 20
-561.8487133734756
 30
0.0
 11
195.9184917216413
 21
-558.848713373477
 31
0.0
  0
LINE
  5
1FF
330
1F
100
AcDbEntity
  8
0-4_枠
  6
Continuous
 62
    92
370
    13
100
AcDbLine
 10
195.9184917216413
 20
-561.8487133734756
 30
0.0
 11
252.9183315043548
 21
-561.8487133734756
 31
0.0
  0
LINE
  5
200
330
1F
100
AcDbEntity
  8
0-4_枠
  6
Continuous
 62
    92
370
    13
100
AcDbLine
 10
-236.0815082783606
 20
-738.848713373477
 30
0.0
 11
-236.0815082783606
 21
-558.848713373477
 31
0.0
  0
LINE
  5
201
330
1F
100
AcDbEntity
  8
0-4_枠
  6
Continuous
 62
    92
370
    13
100
AcDbLine
 10
-233.0819431538495
 20
-735.8487133734798
 30
0.0
 11
-233.0819431538495
 21
-561.8487133734756
 31
0.0
  0
LINE
  5
202
330
1F
100
AcDbEntity
  8
0-4_枠
  6
Continuous
 62
    92
370
    13
100
AcDbLine
 10
-176.0815082783606
 20
-561.8487133734756
 30
0.0
 11
-233.0819431538495
 21
-561.8487133734756
 31
0.0
  0
LINE
  5
203
330
1F
100
AcDbEntity
  8
0-4_枠
  6
Continuous
 62
    92
370
    13
100
AcDbLine
 10
-176.0815082783606
 20
-561.8487133734756
 30
0.0
 11
-176.0815082783606
 21
-558.848713373477
 31
0.0
  0
LINE
  5
204
330
1F
100
AcDbEntity
  8
0-4_枠
  6
Continuous
 62
    92
370
    13
100
AcDbLine
 10
255.9184917216413
 20
-558.848713373477
 30
0.0
 11
-236.0815082783606
 21
-558.848713373477
 31
0.0
  0
LINE
  5
205
330
1F
100
AcDbEntity
  8
0-C_ハッチ
  6
Continuous
 62
   120
370
     5
100
AcDbLine
 10
-233.0819431538495
 20
-620.476408834545
 30
0.0
 11
-171.4542476927807
 21
-558.848713373477
 31
0.0
  0
LINE
  5
206
330
1F
100
AcDbEntity
  8
0-C_ハッチ
  6
Continuous
 62
   120
370
     5
100
AcDbLine
 10
-233.0819431538495
 20
-679.8733784542469
 30
0.0
 11
-112.0572780730788
 21
-558.848713373477
 31
0.0
  0
LINE
  5
207
330
1F
100
AcDbEntity
  8
0-C_ハッチ
  6
Continuous
 62
   120
370
     5
100
AcDbLine
 10
252.9183315043548
 20
-728.4458303730902
 30
0.0
 11
245.5154485039699
 21
-735.8487133734742
 31
0.0
  0
LINE
  5
208
330
1F
100
AcDbEntity
  8
0-C_ハッチ
  6
Continuous
 62
   120
370
     5
100
AcDbLine
 10
160.3245396449094
 20
-642.8487133734769
 30
0.0
 11
241.3245396449116
 21
-561.8487133734765
 31
0.0
  0
LINE
  5
209
330
1F
100
AcDbEntity
  8
0-4_枠
  6
Continuous
 62
   120
370
     5
100
AcDbLine
 10
-260.0815082783626
 20
-558.848713373477
 30
0.0
 11
-236.0815082783606
 21
-558.848713373477
 31
0.0
  0
LINE
  5
20A
330
1F
100
AcDbEntity
  8
0-4_枠
  6
Continuous
 62
   120
370
     5
100
AcDbLine
 10
-260.0815082783626
 20
-558.848713373477
 30
0.0
 11
-260.0815082783626
 21
-1884.848713373472
 31
0.0
  0
LINE
  5
20B
330
1F
100
AcDbEntity
  8
0-4_枠
  6
Continuous
 62
   120
370
     5
100
AcDbLine
 10
279.91849172164
 20
-558.848713373477
 30
0.0
 11
255.9184917216413
 21
-558.848713373477
 31
0.0
  0
LINE
  5
20C
330
1F
100
AcDbEntity
  8
0-4_枠
  6
Continuous
 62
   120
370
     5
100
AcDbLine
 10
279.91849172164
 20
-1884.848713373472
 30
0.0
 11
279.91849172164
 21
-558.848713373477
 31
0.0
  0
LINE
  5
20D
330
1F
100
AcDbEntity
  8
0-4_枠
  6
Continuous
 62
   120
370
     5
100
AcDbLine
 10
279.91849172164
 20
-2004.848713373472
 30
0.0
 11
279.91849172164
 21
-3186.848919635537
 31
0.0
  0
LINE
  5
20E
330
1F
100
AcDbEntity
  8
0-4_枠
  6
Continuous
 62
   120
370
     5
100
AcDbLine
 10
-260.0815082783626
 20
-2004.848713373472
 30
0.0
 11
-260.0815082783626
 21
-3186.848919635537
 31
0.0
  0
LINE
  5
20F
330
1F
100
AcDbEntity
  8
0-B_寸法
  6
Continuous
 62
   120
370
     5
100
AcDbLine
 10
-236.0815088317185
 20
-1271.673915628835
 30
0.0
 11
-236.0815088317185
 21
-1127.324482354358
 31
0.0
  0
LWPOLYLINE
  5
210
330
1F
100
AcDbEntity
  8
0-B_寸法
  6
Continuous
 62
     7
370
     9
100
AcDbPolyline
 90
        4
 70
     1
 43
3.0
 10
-234.5815088317185
 20
-1271.673915628835
 42
0.4142135623731
 10
-236.0815088317185
 20
-1270.173915628835
 42
0.4142135623731
 10
-237.5815088317185
 20
-1271.673915628835
 42
0.4142135623731
 10
-236.0815088317185
 20
-1273.173915628835
 42
0.4142135623731
  0
LINE
  5
211
330
1F
100
AcDbEntity
  8
0-B_寸法
  6
Continuous
 62
   120
370
     5
100
AcDbLine
 10
255.9184911682834
 20
-1271.673915628835
 30
0.0
 11
255.9184911682834
 21
-1148.324482354352
 31
0.0
  0
LWPOLYLINE
  5
212
330
1F
100
AcDbEntity
  8
0-B_寸法
  6
Continuous
 62
     7
370
     9
100
AcDbPolyline
 90
        4
 70
     1
 43
3.0
 10
257.4184911682834
 20
-1271.673915628835
 42
0.4142135623731
 10
255.9184911682834
 20
-1270.173915628835
 42
0.4142135623731
 10
254.4184911682834
 20
-1271.673915628835
 42
0.4142135623731
 10
255.9184911682834
 20
-1273.173915628835
 42
0.4142135623731
  0
LINE
  5
213
330
1F
100
AcDbEntity
  8
0-B_寸法
  6
Continuous
 62
   120
370
     5
100
AcDbLine
 10
-236.0815088317185
 20
-1271.673915628835
 30
0.0
 11
255.9184911682834
 21
-1271.673915628835
 31
0.0
  0
MTEXT
  5
214
330
1F
100
AcDbEntity
  8
0-B_寸法
  6
Continuous
 62
     7
370
   211
100
AcDbMText
 10
834.9184917216417
 20
-1111.264574256048
 30
0.0
 40
100.0125
 41
262.5
 46
0.0
 71
     7
 72
     1
  1
{\fＭＳ ゴシック|b0|i0|c128|p49;13.5}
 11
6.123031769111886E-17
 21
1.0
 31
0.0
 73
     1
 44
1.0
  0
LINE
  5
215
330
1F
100
AcDbEntity
  8
0-0_補助線
  6
JWW_HOJO
 62
   120
370
     5
100
AcDbLine
 10
-680.0815082783618
 20
-3258.848713373453
 30
0.0
 11
-680.0815082783618
 21
-498.848713373477
 31
0.0
  0
LINE
  5
216
330
1F
100
AcDbEntity
  8
0-0_補助線
  6
JWW_HOJO
 62
   120
370
     5
100
AcDbLine
 10
-104.0815082783595
 20
-3258.848713373453
 30
0.0
 11
-104.0815082783595
 21
-498.848713373477
 31
0.0
  0
LINE
  5
217
330
1F
100
AcDbEntity
  8
0-0_補助線
  6
JWW_HOJO
 62
   120
370
     5
100
AcDbLine
 10
123.918491721642
 20
-3258.848713373453
 30
0.0
 11
123.918491721642
 21
-498.848713373477
 31
0.0
  0
MTEXT
  5
218
330
1F
100
AcDbEntity
  8
0-B_寸法
  6
Continuous
 62
     7
370
     0
100
AcDbMText
 10
-50.08150883171794
 20
-1270.953915628835
 30
0.0
 40
91.44
 41
120.0
 46
0.0
 71
     7
 72
     1
  1
{\fＭＳ ゴシック|b0|i0|c128|p49;82}
 73
     1
 44
1.0
  0
LINE
  5
219
330
1F
100
AcDbEntity
  8
0-7_金物
  6
Continuous
 62
     7
370
     9
100
AcDbLine
 10
207.9184917612514
 20
-756.5470590546853
 30
0.0
 11
207.9184917612514
 21
-642.8487133542752
 31
0.0
  0
LINE
  5
21A
330
1F
100
AcDbEntity
  8
0-7_金物
  6
Continuous
 62
     7
370
     9
100
AcDbLine
 10
207.9184917612514
 20
-642.8487133542752
 30
0.0
 11
39.91849172765285
 21
-642.8487133542752
 31
0.0
  0
LINE
  5
21B
330
1F
100
AcDbEntity
  8
0-7_金物
  6
Continuous
 62
     7
370
     9
100
AcDbLine
 10
39.91849172765285
 20
-642.8487133542752
 30
0.0
 11
39.91849172765285
 21
-738.848713373477
 31
0.0
  0
LINE
  5
21C
330
1F
100
AcDbEntity
  8
0-7_金物
  6
Continuous
 62
     7
370
     9
100
AcDbLine
 10
48.91849172945228
 20
-651.8487133560734
 30
0.0
 11
48.91849172945228
 21
-762.8487133782744
 31
0.0
  0
LINE
  5
21D
330
1F
100
AcDbEntity
  8
0-7_金物
  6
Continuous
 62
     7
370
     9
100
AcDbLine
 10
198.918491759452
 20
-651.8487133560734
 30
0.0
 11
48.91849172945228
 21
-651.8487133560734
 31
0.0
  0
LINE
  5
21E
330
1F
100
AcDbEntity
  8
0-7_金物
  6
Continuous
 62
     7
370
     9
100
AcDbLine
 10
198.918491759452
 20
-762.8487133782744
 30
0.0
 11
198.918491759452
 21
-651.8487133560734
 31
0.0
  0
LINE
  5
21F
330
1F
100
AcDbEntity
  8
0-7_金物
  6
Continuous
 62
     7
370
     9
100
AcDbLine
 10
39.91849172765285
 20
-771.8487133800738
 30
0.0
 11
69.9184917336487
 21
-771.8487133800738
 31
0.0
  0
LINE
  5
220
330
1F
100
AcDbEntity
  8
0-7_金物
  6
Continuous
 62
     7
370
     9
100
AcDbLine
 10
207.9184917612514
 20
-771.8487133800738
 30
0.0
 11
177.9184917552487
 21
-771.8487133800738
 31
0.0
  0
LINE
  5
221
330
1F
100
AcDbEntity
  8
0-7_金物
  6
Continuous
 62
     7
370
     9
100
AcDbLine
 10
177.9184917552487
 20
-771.8487133800738
 30
0.0
 11
177.9184917552487
 21
-762.8487133782744
 31
0.0
  0
LINE
  5
222
330
1F
100
AcDbEntity
  8
0-7_金物
  6
Continuous
 62
     7
370
     9
100
AcDbLine
 10
69.9184917336487
 20
-771.8487133800738
 30
0.0
 11
69.9184917336487
 21
-762.8487133782744
 31
0.0
  0
LINE
  5
223
330
1F
100
AcDbEntity
  8
0-7_金物
  6
Continuous
 62
     7
370
     9
100
AcDbLine
 10
177.9184917552487
 20
-762.8487133782744
 30
0.0
 11
198.918491759452
 21
-762.8487133782744
 31
0.0
  0
LINE
  5
224
330
1F
100
AcDbEntity
  8
0-7_金物
  6
Continuous
 62
     7
370
     9
100
AcDbLine
 10
69.9184917336487
 20
-762.8487133782744
 30
0.0
 11
48.91849172945228
 21
-762.8487133782744
 31
0.0
  0
LINE
  5
225
330
1F
100
AcDbEntity
  8
0-7_金物
  6
Continuous
 62
     7
370
     9
100
AcDbLine
 10
207.9184917612514
 20
-771.8487133800738
 30
0.0
 11
231.9184917660522
 21
-738.848713373477
 31
0.0
  0
LINE
  5
226
330
1F
100
AcDbEntity
  8
0-7_金物
  6
Continuous
 62
     7
370
     9
100
AcDbLine
 10
207.9184917612514
 20
-756.5470590546853
 30
0.0
 11
220.7900158930414
 21
-738.848713373477
 31
0.0
  0
LINE
  5
227
330
1F
100
AcDbEntity
  8
0-7_金物
  6
Continuous
 62
     7
370
     9
100
AcDbLine
 10
168.1386167207546
 20
-744.5507440957817
 30
0.0
 11
75.28701555664327
 21
-744.5507440957817
 31
0.0
  0
LINE
  5
228
330
1F
100
AcDbEntity
  8
0-7_金物
  6
Continuous
 62
     7
370
     9
100
AcDbLine
 10
75.28701555664327
 20
-753.9900828115448
 30
0.0
 11
75.28701555664327
 21
-659.1702442088798
 31
0.0
  0
LINE
  5
229
330
1F
100
AcDbEntity
  8
0-7_金物
  6
Continuous
 62
     7
370
     9
100
AcDbLine
 10
75.28701555664327
 20
-673.5465784997031
 30
0.0
 11
168.1386167207546
 21
-673.5465784997031
 31
0.0
  0
LINE
  5
22A
330
1F
100
AcDbEntity
  8
0-7_金物
  6
Continuous
 62
     7
370
     9
100
AcDbLine
 10
168.1386167207546
 20
-753.9900828115448
 30
0.0
 11
168.1386167207546
 21
-659.1702442088798
 31
0.0
  0
LINE
  5
22B
330
1F
100
AcDbEntity
  8
0-7_金物
  6
Continuous
 62
     7
370
     9
100
AcDbLine
 10
75.28701555664327
 20
-659.1702442088798
 30
0.0
 11
55.03877290745265
 21
-659.1702442088798
 31
0.0
  0
LINE
  5
22C
330
1F
100
AcDbEntity
  8
0-7_金物
  6
Continuous
 62
     7
370
     9
100
AcDbLine
 10
55.03877290745265
 20
-659.1702442088798
 30
0.0
 11
55.03877290745265
 21
-753.9900828115448
 31
0.0
  0
LINE
  5
22D
330
1F
100
AcDbEntity
  8
0-7_金物
  6
Continuous
 62
     7
370
     9
100
AcDbLine
 10
55.03877290745265
 20
-753.9900828115448
 30
0.0
 11
75.28701555664327
 21
-753.9900828115448
 31
0.0
  0
LINE
  5
22E
330
1F
100
AcDbEntity
  8
0-7_金物
  6
Continuous
 62
     7
370
     9
100
AcDbLine
 10
168.1386167207546
 20
-753.9900828115448
 30
0.0
 11
189.1741543453639
 21
-753.9900828115448
 31
0.0
  0
LINE
  5
22F
330
1F
100
AcDbEntity
  8
0-7_金物
  6
Continuous
 62
     7
370
     9
100
AcDbLine
 10
189.1741543453639
 20
-753.9900828115448
 30
0.0
 11
189.1741543453639
 21
-659.1702442088798
 31
0.0
  0
LINE
  5
230
330
1F
100
AcDbEntity
  8
0-7_金物
  6
Continuous
 62
     7
370
     9
100
AcDbLine
 10
168.1386167207546
 20
-659.1702442088798
 30
0.0
 11
189.1741543453639
 21
-659.1702442088798
 31
0.0
  0
LINE
  5
231
330
1F
100
AcDbEntity
  8
0-7_金物
  6
Continuous
 62
     7
370
     9
100
AcDbLine
 10
-20.08150828435248
 20
-771.8487133800738
 30
0.0
 11
-20.08150828435248
 21
-642.8487133542752
 31
0.0
  0
LINE
  5
232
330
1F
100
AcDbEntity
  8
0-7_金物
  6
Continuous
 62
     7
370
     9
100
AcDbLine
 10
-20.08150828435248
 20
-642.8487133542752
 30
0.0
 11
-188.081508317951
 21
-642.8487133542752
 31
0.0
  0
LINE
  5
233
330
1F
100
AcDbEntity
  8
0-7_金物
  6
Continuous
 62
     7
370
     9
100
AcDbLine
 10
-188.081508317951
 20
-642.8487133542752
 30
0.0
 11
-188.081508317951
 21
-771.8487133800738
 31
0.0
  0
LINE
  5
234
330
1F
100
AcDbEntity
  8
0-7_金物
  6
Continuous
 62
     7
370
     9
100
AcDbLine
 10
-179.0815083161516
 20
-651.8487133560734
 30
0.0
 11
-179.0815083161516
 21
-762.8487133782744
 31
0.0
  0
LINE
  5
235
330
1F
100
AcDbEntity
  8
0-7_金物
  6
Continuous
 62
     7
370
     9
100
AcDbLine
 10
-29.08150828615192
 20
-651.8487133560734
 30
0.0
 11
-179.0815083161516
 21
-651.8487133560734
 31
0.0
  0
LINE
  5
236
330
1F
100
AcDbEntity
  8
0-7_金物
  6
Continuous
 62
     7
370
     9
100
AcDbLine
 10
-29.08150828615192
 20
-762.8487133782744
 30
0.0
 11
-29.08150828615192
 21
-651.8487133560734
 31
0.0
  0
LINE
  5
237
330
1F
100
AcDbEntity
  8
0-7_金物
  6
Continuous
 62
     7
370
     9
100
AcDbLine
 10
-188.081508317951
 20
-771.8487133800738
 30
0.0
 11
-158.0815083119484
 21
-771.8487133800738
 31
0.0
  0
LINE
  5
238
330
1F
100
AcDbEntity
  8
0-7_金物
  6
Continuous
 62
     7
370
     9
100
AcDbLine
 10
-50.08150829034832
 20
-771.8487133800738
 30
0.0
 11
-50.08150829034832
 21
-762.8487133782744
 31
0.0
  0
LINE
  5
239
330
1F
100
AcDbEntity
  8
0-7_金物
  6
Continuous
 62
     7
370
     9
100
AcDbLine
 10
-158.0815083119484
 20
-771.8487133800738
 30
0.0
 11
-158.0815083119484
 21
-762.8487133782744
 31
0.0
  0
LINE
  5
23A
330
1F
100
AcDbEntity
  8
0-7_金物
  6
Continuous
 62
     7
370
     9
100
AcDbLine
 10
-50.08150829034832
 20
-762.8487133782744
 30
0.0
 11
-29.08150828615192
 21
-762.8487133782744
 31
0.0
  0
LINE
  5
23B
330
1F
100
AcDbEntity
  8
0-7_金物
  6
Continuous
 62
     7
370
     9
100
AcDbLine
 10
-158.0815083119484
 20
-762.8487133782744
 30
0.0
 11
-179.0815083161516
 21
-762.8487133782744
 31
0.0
  0
LINE
  5
23C
330
1F
100
AcDbEntity
  8
0-7_金物
  6
Continuous
 62
     7
370
     9
100
AcDbLine
 10
-59.86138332484927
 20
-744.5507440957817
 30
0.0
 11
-152.7129844889538
 21
-744.5507440957817
 31
0.0
  0
LINE
  5
23D
330
1F
100
AcDbEntity
  8
0-7_金物
  6
Continuous
 62
     7
370
     9
100
AcDbLine
 10
-152.7129844889538
 20
-753.9900828115448
 30
0.0
 11
-152.7129844889538
 21
-659.1702442088798
 31
0.0
  0
LINE
  5
23E
330
1F
100
AcDbEntity
  8
0-7_金物
  6
Continuous
 62
     7
370
     9
100
AcDbLine
 10
-152.7129844889538
 20
-673.5465784997031
 30
0.0
 11
-59.86138332484927
 21
-673.5465784997031
 31
0.0
  0
LINE
  5
23F
330
1F
100
AcDbEntity
  8
0-7_金物
  6
Continuous
 62
     7
370
     9
100
AcDbLine
 10
-59.86138332484927
 20
-753.9900828115448
 30
0.0
 11
-59.86138332484927
 21
-659.1702442088798
 31
0.0
  0
LINE
  5
240
330
1F
100
AcDbEntity
  8
0-7_金物
  6
Continuous
 62
     7
370
     9
100
AcDbLine
 10
-152.7129844889538
 20
-659.1702442088798
 30
0.0
 11
-172.9612271381444
 21
-659.1702442088798
 31
0.0
  0
LINE
  5
241
330
1F
100
AcDbEntity
  8
0-7_金物
  6
Continuous
 62
     7
370
     9
100
AcDbLine
 10
-172.9612271381444
 20
-659.1702442088798
 30
0.0
 11
-172.9612271381444
 21
-753.9900828115448
 31
0.0
  0
LINE
  5
242
330
1F
100
AcDbEntity
  8
0-7_金物
  6
Continuous
 62
     7
370
     9
100
AcDbLine
 10
-172.9612271381444
 20
-753.9900828115448
 30
0.0
 11
-152.7129844889538
 21
-753.9900828115448
 31
0.0
  0
LINE
  5
243
330
1F
100
AcDbEntity
  8
0-7_金物
  6
Continuous
 62
     7
370
     9
100
AcDbLine
 10
-59.86138332484927
 20
-753.9900828115448
 30
0.0
 11
-38.8258457002263
 21
-753.9900828115448
 31
0.0
  0
LINE
  5
244
330
1F
100
AcDbEntity
  8
0-7_金物
  6
Continuous
 62
     7
370
     9
100
AcDbLine
 10
-38.8258457002263
 20
-753.9900828115448
 30
0.0
 11
-38.8258457002263
 21
-659.1702442088798
 31
0.0
  0
LINE
  5
245
330
1F
100
AcDbEntity
  8
0-7_金物
  6
Continuous
 62
     7
370
     9
100
AcDbLine
 10
-59.86138332484927
 20
-659.1702442088798
 30
0.0
 11
-38.8258457002263
 21
-659.1702442088798
 31
0.0
  0
LINE
  5
246
330
1F
100
AcDbEntity
  8
0-7_金物
  6
Continuous
 62
     7
370
     9
100
AcDbLine
 10
-20.08150828435248
 20
-771.8487133800738
 30
0.0
 11
-50.08150829034832
 21
-771.8487133800738
 31
0.0
  0
LINE
  5
247
330
1F
100
AcDbEntity
  8
0-7_金物
  6
Continuous
 62
     7
370
     9
100
AcDbLine
 10
39.91849172765285
 20
-771.8487133800738
 30
0.0
 11
39.91849172765285
 21
-747.8487133752743
 31
0.0
  0
LINE
  5
248
330
1F
100
AcDbEntity
  8
0-7_金物
  6
Continuous
 62
     7
370
     9
100
AcDbLine
 10
220.7900158930414
 20
-738.848713373477
 30
0.0
 11
231.9184917660522
 21
-738.848713373477
 31
0.0
  0
LINE
  5
249
330
1F
100
AcDbEntity
  8
0-7_金物
  6
Continuous
 62
     7
370
     9
100
AcDbLine
 10
-20.08150828435248
 20
-738.848713373477
 30
0.0
 11
39.91849172765285
 21
-738.848713373477
 31
0.0
  0
LINE
  5
24A
330
1F
100
AcDbEntity
  8
0-7_金物
  6
Continuous
 62
     7
370
     9
100
AcDbLine
 10
-188.081508317951
 20
-771.8487133800738
 30
0.0
 11
-212.081508322745
 21
-738.848713373477
 31
0.0
  0
LINE
  5
24B
330
1F
100
AcDbEntity
  8
0-7_金物
  6
Continuous
 62
     7
370
     9
100
AcDbLine
 10
-188.081508317951
 20
-756.5470590546853
 30
0.0
 11
-200.953032449741
 21
-738.848713373477
 31
0.0
  0
LINE
  5
24C
330
1F
100
AcDbEntity
  8
0-7_金物
  6
Continuous
 62
     7
370
     9
100
AcDbLine
 10
-200.953032449741
 20
-738.848713373477
 30
0.0
 11
-212.081508322745
 21
-738.848713373477
 31
0.0
  0
LINE
  5
24D
330
1F
100
AcDbEntity
  8
0-7_金物
  6
Continuous
 62
     7
370
     9
100
AcDbLine
 10
39.91849172765285
 20
-747.8487133752743
 30
0.0
 11
14.41849172253967
 21
-747.8487133752743
 31
0.0
  0
LINE
  5
24E
330
1F
100
AcDbEntity
  8
0-7_金物
  6
Continuous
 62
     7
370
     9
100
AcDbLine
 10
5.418491720740235
 20
-747.8487133752743
 30
0.0
 11
-20.08150828435248
 21
-747.8487133752743
 31
0.0
  0
LINE
  5
24F
330
1F
100
AcDbEntity
  8
0-7_金物
  6
Continuous
 62
     7
370
     9
100
AcDbLine
 10
5.418491720740235
 20
-747.8487133752743
 30
0.0
 11
5.418491720740235
 21
-849.8487133956759
 31
0.0
  0
LINE
  5
250
330
1F
100
AcDbEntity
  8
0-7_金物
  6
Continuous
 62
     7
370
     9
100
AcDbLine
 10
14.41849172253967
 20
-738.848713373477
 30
0.0
 11
14.41849172253967
 21
-849.8487133956759
 31
0.0
  0
LINE
  5
251
330
1F
100
AcDbEntity
  8
0-7_金物
  6
Continuous
 62
     7
370
     9
100
AcDbLine
 10
5.418491720740235
 20
-849.8487133956759
 30
0.0
 11
14.41849172253967
 21
-849.8487133956759
 31
0.0
  0
LINE
  5
252
330
1F
100
AcDbEntity
  8
0-4_枠
  6
Continuous
 62
    92
370
    13
100
AcDbLine
 10
-188.081508317951
 20
-738.848713373477
 30
0.0
 11
-188.081508317951
 21
-642.8487133734769
 31
0.0
  0
LINE
  5
253
330
1F
100
AcDbEntity
  8
0-4_枠
  6
Continuous
 62
    92
370
    13
100
AcDbLine
 10
-188.081508317951
 20
-738.848713373477
 30
0.0
 11
-236.0815082783606
 21
-738.848713373477
 31
0.0
  0
LINE
  5
254
330
1F
100
AcDbEntity
  8
0-4_枠
  6
Continuous
 62
    92
370
    13
100
AcDbLine
 10
-233.0819431538495
 20
-735.8487133734798
 30
0.0
 11
-188.081508317951
 21
-735.8487133734798
 31
0.0
  0
LINE
  5
255
330
1F
100
AcDbEntity
  8
0-4_枠
  6
Continuous
 62
    92
370
    13
100
AcDbLine
 10
-20.08150828435248
 20
-738.848713373477
 30
0.0
 11
-20.08150828435248
 21
-642.8487133734769
 31
0.0
  0
LINE
  5
256
330
1F
100
AcDbEntity
  8
0-4_枠
  6
Continuous
 62
    92
370
    13
100
AcDbLine
 10
-20.08150828435248
 20
-642.8487133734769
 30
0.0
 11
-188.081508317951
 21
-642.8487133734769
 31
0.0
  0
LINE
  5
257
330
1F
100
AcDbEntity
  8
0-4_枠
  6
Continuous
 62
    92
370
    13
100
AcDbLine
 10
39.91849172765285
 20
-738.848713373477
 30
0.0
 11
39.91849172765285
 21
-642.8487133734769
 31
0.0
  0
LINE
  5
258
330
1F
100
AcDbEntity
  8
0-4_枠
  6
Continuous
 62
    92
370
    13
100
AcDbLine
 10
39.91849172765285
 20
-735.8487133734798
 30
0.0
 11
-20.08150828435248
 21
-735.8487133734798
 31
0.0
  0
LINE
  5
259
330
1F
100
AcDbEntity
  8
0-4_枠
  6
Continuous
 62
    92
370
    13
100
AcDbLine
 10
39.91849172765285
 20
-738.848713373477
 30
0.0
 11
-20.08150828435248
 21
-738.848713373477
 31
0.0
  0
LINE
  5
25A
330
1F
100
AcDbEntity
  8
0-4_枠
  6
Continuous
 62
    92
370
    13
100
AcDbLine
 10
207.9184917612514
 20
-738.848713373477
 30
0.0
 11
207.9184917612514
 21
-642.8487133734769
 31
0.0
  0
LINE
  5
25B
330
1F
100
AcDbEntity
  8
0-4_枠
  6
Continuous
 62
    92
370
    13
100
AcDbLine
 10
252.9183315043548
 20
-735.8487133734798
 30
0.0
 11
207.9184917612514
 21
-735.8487133734798
 31
0.0
  0
LINE
  5
25C
330
1F
100
AcDbEntity
  8
0-4_枠
  6
Continuous
 62
    92
370
    13
100
AcDbLine
 10
255.9184917216413
 20
-738.848713373477
 30
0.0
 11
207.9184917612514
 21
-738.848713373477
 31
0.0
  0
LINE
  5
25D
330
1F
100
AcDbEntity
  8
0-4_枠
  6
Continuous
 62
    92
370
    13
100
AcDbLine
 10
207.9184917612514
 20
-642.8487133734769
 30
0.0
 11
39.91849172765285
 21
-642.8487133734769
 31
0.0
  0
LINE
  5
25E
330
1F
100
AcDbEntity
  8
0-C_ハッチ
  6
Continuous
 62
   120
370
     5
100
AcDbLine
 10
207.9184917612514
 20
-654.651730876842
 30
0.0
 11
252.9183315043548
 21
-609.6518911337364
 31
0.0
  0
LINE
  5
25F
330
1F
100
AcDbEntity
  8
0-C_ハッチ
  6
Continuous
 62
   120
370
     5
100
AcDbLine
 10
207.9184917612514
 20
-714.0487004964892
 30
0.0
 11
252.9183315043548
 21
-669.0488607533849
 31
0.0
  0
LINE
  5
260
330
1F
100
AcDbEntity
  8
0-C_ハッチ
  6
Continuous
 62
   120
370
     5
100
AcDbLine
 10
7.927570025261446
 20
-735.8487133734798
 30
0.0
 11
39.91849172765285
 21
-703.8577916710867
 31
0.0
  0
LINE
  5
261
330
1F
100
AcDbEntity
  8
0-C_ハッチ
  6
Continuous
 62
   120
370
     5
100
AcDbLine
 10
-20.08150828435248
 20
-645.0638524437429
 30
0.0
 11
66.13363078591505
 21
-558.848713373477
 31
0.0
  0
LINE
  5
262
330
1F
100
AcDbEntity
  8
0-C_ハッチ
  6
Continuous
 62
   120
370
     5
100
AcDbLine
 10
-20.08150828435248
 20
-704.460822063388
 30
0.0
 11
39.91849172765285
 21
-644.4608220513899
 31
0.0
  0
LINE
  5
263
330
1F
100
AcDbEntity
  8
0-C_ハッチ
  6
Continuous
 62
   120
370
     5
100
AcDbLine
 10
-188.081508317951
 20
-694.2699132379927
 30
0.0
 11
-229.6603084534377
 21
-735.848713373481
 31
0.0
  0
LINE
  5
264
330
1F
100
AcDbEntity
  8
0-B_寸法
  6
Continuous
 62
   120
370
     5
100
AcDbLine
 10
1059.918491721642
 20
-738.848713373477
 30
0.0
 11
639.91849172164
 21
-738.848713373477
 31
0.0
  0
LINE
  5
265
330
1F
100
AcDbEntity
  8
0-B_寸法
  6
Continuous
 62
   120
370
     5
100
AcDbLine
 10
1269.918491721642
 20
-3186.848713373453
 30
0.0
 11
639.91849172164
 21
-3186.848713373453
 31
0.0
  0
LWPOLYLINE
  5
266
330
1F
100
AcDbEntity
  8
0-B_寸法
  6
Continuous
 62
     7
370
     9
100
AcDbPolyline
 90
        4
 70
     1
 43
3.0
 10
1061.418491721642
 20
-738.848713373477
 42
0.4142135623731
 10
1059.918491721642
 20
-737.348713373477
 42
0.4142135623731
 10
1058.418491721642
 20
-738.848713373477
 42
0.4142135623731
 10
1059.918491721642
 20
-740.348713373477
 42
0.4142135623731
  0
LINE
  5
267
330
1F
100
AcDbEntity
  8
0-B_寸法
  6
Continuous
 62
   120
370
     5
100
AcDbLine
 10
1059.918491721642
 20
-558.848713373477
 30
0.0
 11
1059.918491721642
 21
-738.848713373477
 31
0.0
  0
LWPOLYLINE
  5
268
330
1F
100
AcDbEntity
  8
0-B_寸法
  6
Continuous
 62
     7
370
     9
100
AcDbPolyline
 90
        4
 70
     1
 43
3.0
 10
1061.418491721642
 20
-558.848713373477
 42
0.4142135623731
 10
1059.918491721642
 20
-557.348713373477
 42
0.4142135623731
 10
1058.418491721642
 20
-558.848713373477
 42
0.4142135623731
 10
1059.918491721642
 20
-560.348713373477
 42
0.4142135623731
  0
LINE
  5
269
330
1F
100
AcDbEntity
  8
0-B_寸法
  6
Continuous
 62
   120
370
     5
100
AcDbLine
 10
1269.918491721642
 20
-558.848713373477
 30
0.0
 11
639.91849172164
 21
-558.848713373477
 31
0.0
  0
LINE
  5
26A
330
1F
100
AcDbEntity
  8
0-B_寸法
  6
Continuous
 62
   120
370
     5
100
AcDbLine
 10
1269.918491721642
 20
-3258.848713373453
 30
0.0
 11
1269.918491721642
 21
-3186.848713373453
 31
0.0
  0
LWPOLYLINE
  5
26B
330
1F
100
AcDbEntity
  8
0-B_寸法
  6
Continuous
 62
     7
370
     9
100
AcDbPolyline
 90
        4
 70
     1
 43
3.0
 10
1271.418491721642
 20
-3258.848713373453
 42
0.4142135623731
 10
1269.918491721642
 20
-3257.348713373453
 42
0.4142135623731
 10
1268.418491721642
 20
-3258.848713373453
 42
0.4142135623731
 10
1269.918491721642
 20
-3260.348713373453
 42
0.4142135623731
  0
LWPOLYLINE
  5
26C
330
1F
100
AcDbEntity
  8
0-B_寸法
  6
Continuous
 62
     7
370
     9
100
AcDbPolyline
 90
        4
 70
     1
 43
3.0
 10
1271.418491721642
 20
-3186.848713373453
 42
0.4142135623731
 10
1269.918491721642
 20
-3185.348713373453
 42
0.4142135623731
 10
1268.418491721642
 20
-3186.848713373453
 42
0.4142135623731
 10
1269.918491721642
 20
-3188.348713373453
 42
0.4142135623731
  0
LINE
  5
26D
330
1F
100
AcDbEntity
  8
0-B_寸法
  6
Continuous
 62
   120
370
     5
100
AcDbLine
 10
1269.918491721642
 20
-3258.848713373453
 30
0.0
 11
639.91849172164
 21
-3258.848713373453
 31
0.0
  0
LINE
  5
26E
330
1F
100
AcDbEntity
  8
0-B_寸法
  6
Continuous
 62
   120
370
     5
100
AcDbLine
 10
1269.918491721642
 20
-3186.848713373453
 30
0.0
 11
1269.918491721642
 21
-558.848713373477
 31
0.0
  0
LWPOLYLINE
  5
26F
330
1F
100
AcDbEntity
  8
0-B_寸法
  6
Continuous
 62
     7
370
     9
100
AcDbPolyline
 90
        4
 70
     1
 43
3.0
 10
1271.418491721642
 20
-558.848713373477
 42
0.4142135623731
 10
1269.918491721642
 20
-557.348713373477
 42
0.4142135623731
 10
1268.418491721642
 20
-558.848713373477
 42
0.4142135623731
 10
1269.918491721642
 20
-560.348713373477
 42
0.4142135623731
  0
LINE
  5
270
330
1F
100
AcDbEntity
  8
0-1_通り芯
  6
JWW_CENTER1
 62
   120
370
     5
100
AcDbLine
 10
-680.0815082783618
 20
-3258.848713641883
 30
0.0
 11
1383.918491721642
 21
-3258.848713373453
 31
0.0
  0
LINE
  5
271
330
1F
100
AcDbEntity
  8
0-1_通り芯
  6
JWW_CENTER1
 62
   120
370
     5
100
AcDbLine
 10
-680.0815082783618
 20
-558.848713373477
 30
0.0
 11
1383.918491721642
 21
-558.848713373477
 31
0.0
  0
LINE
  5
272
330
1F
100
AcDbEntity
  8
0-0_補助線
  6
JWW_HOJO
 62
   120
370
     5
100
AcDbLine
 10
1269.918491721642
 20
-3258.848713373453
 30
0.0
 11
-680.0815082783618
 21
-3258.848713373453
 31
0.0
  0
MTEXT
  5
273
330
1F
100
AcDbEntity
  8
0-B_寸法
  6
Continuous
 62
     7
370
   211
100
AcDbMText
 10
-164.0815082783595
 20
-1524.12904648413
 30
0.0
 40
91.44
 41
120.0
 46
0.0
 71
     7
 72
     1
  1
{\fＭＳ ゴシック|b0|i0|c128|p49;30}
 73
     1
 44
1.0
  0
MTEXT
  5
274
330
1F
100
AcDbEntity
  8
0-B_寸法
  6
Continuous
 62
     7
370
   211
100
AcDbMText
 10
-20.0815082783609
 20
-1524.12904648413
 30
0.0
 40
91.44
 41
60.0
 46
0.0
 71
     7
 72
     1
  1
{\fＭＳ ゴシック|b0|i0|c128|p49;8}
 73
     1
 44
1.0
  0
LINE
  5
275
330
1F
100
AcDbEntity
  8
0-0_補助線
  6
JWW_HOJO
 62
   120
370
     5
100
AcDbLine
 10
639.9184917216417
 20
-3258.848713373452
 30
0.0
 11
639.9184917216417
 21
-498.848713373477
 31
0.0
  0
LINE
  5
276
330
1F
100
AcDbEntity
  8
0-0_補助線
  6
JWW_HOJO
 62
   120
370
     5
100
AcDbLine
 10
849.9184917216417
 20
-3258.848713641886
 30
0.0
 11
849.9184917216417
 21
-498.848713373477
 31
0.0
  0
LINE
  5
277
330
1F
100
AcDbEntity
  8
0-0_補助線
  6
JWW_HOJO
 62
   120
370
     5
100
AcDbLine
 10
1059.918491721642
 20
-3258.848713373452
 30
0.0
 11
1059.918491721642
 21
-498.848713373477
 31
0.0
  0
LINE
  5
278
330
1F
100
AcDbEntity
  8
0-0_補助線
  6
JWW_HOJO
 62
   120
370
     5
100
AcDbLine
 10
1269.918491721642
 20
-3258.848713373452
 30
0.0
 11
1269.918491721642
 21
-498.848713373477
 31
0.0
  0
LINE
  5
279
330
1F
100
AcDbEntity
  8
0-0_補助線
  6
JWW_HOJO
 62
   120
370
     5
100
AcDbLine
 10
-680.0815082783618
 20
-498.848713373477
 30
0.0
 11
1269.918491721642
 21
-498.848713373477
 31
0.0
  0
LWPOLYLINE
  5
27A
330
1F
100
AcDbEntity
  8
0-B_寸法
  6
Continuous
 62
     7
370
     9
100
AcDbPolyline
 90
        4
 70
     1
 43
3.0
 10
1061.418491721642
 20
-3186.848713373453
 42
0.4142135623731
 10
1059.918491721642
 20
-3185.348713373453
 42
0.4142135623731
 10
1058.418491721642
 20
-3186.848713373453
 42
0.4142135623731
 10
1059.918491721642
 20
-3188.348713373453
 42
0.4142135623731
  0
LINE
  5
27B
330
1F
100
AcDbEntity
  8
0-B_寸法
  6
Continuous
 62
   120
370
     5
100
AcDbLine
 10
1059.918491721642
 20
-3186.848713373453
 30
0.0
 11
1059.918491721642
 21
-738.848713373477
 31
0.0
  0
LWPOLYLINE
  5
27C
330
1F
100
AcDbEntity
  8
0-B_寸法
  6
Continuous
 62
     7
370
     9
100
AcDbPolyline
 90
        4
 70
     1
 43
3.0
 10
851.4184917216417
 20
-3186.848713373453
 42
0.4142135623731
 10
849.9184917216417
 20
-3185.348713373453
 42
0.4142135623731
 10
848.4184917216417
 20
-3186.848713373453
 42
0.4142135623731
 10
849.9184917216417
 20
-3188.348713373453
 42
0.4142135623731
  0
LWPOLYLINE
  5
27D
330
1F
100
AcDbEntity
  8
0-B_寸法
  6
Continuous
 62
     7
370
     9
100
AcDbPolyline
 90
        4
 70
     1
 43
3.0
 10
851.4184917216417
 20
-738.848713373477
 42
0.4142135623731
 10
849.9184917216417
 20
-737.348713373477
 42
0.4142135623731
 10
848.4184917216417
 20
-738.848713373477
 42
0.4142135623731
 10
849.9184917216417
 20
-740.348713373477
 42
0.4142135623731
  0
MTEXT
  5
27E
330
1F
100
AcDbEntity
  8
0-B_寸法
  6
Continuous
 62
     7
370
   211
100
AcDbMText
 10
63.91849172163774
 20
-1524.12904648413
 30
0.0
 40
91.44
 41
120.0
 46
0.0
 71
     7
 72
     1
  1
{\fＭＳ ゴシック|b0|i0|c128|p49;30}
 73
     1
 44
1.0
  0
ARC
  5
27F
330
1F
100
AcDbEntity
  8
0-7_金物
  6
Continuous
 62
     7
370
     9
100
AcDbCircle
 10
-81.58150828944997
 20
-3154.448919630016
 30
0.0
 40
6.0000000012
100
AcDbArc
 50
270.0
 51
0.0
  0
LINE
  5
280
330
1F
100
AcDbEntity
  8
0-7_金物
  6
Continuous
 62
     7
370
     9
100
AcDbLine
 10
-81.58150828944997
 20
-3160.448919631217
 30
0.0
 11
-126.581508298454
 21
-3160.448919631217
 31
0.0
  0
ARC
  5
281
330
1F
100
AcDbEntity
  8
0-7_金物
  6
Continuous
 62
     7
370
     9
100
AcDbCircle
 10
-126.581508298454
 20
-3154.448919630016
 30
0.0
 40
6.0000000012
100
AcDbArc
 50
180.0
 51
270.0
  0
LINE
  5
282
330
1F
100
AcDbEntity
  8
0-7_金物
  6
Continuous
 62
     7
370
     9
100
AcDbLine
 10
-113.0815082957514
 20
-3181.448919635419
 30
0.0
 11
-113.0815082957514
 21
-3160.448919631217
 31
0.0
  0
LINE
  5
283
330
1F
100
AcDbEntity
  8
0-7_金物
  6
Continuous
 62
     7
370
     9
100
AcDbLine
 10
-95.08150829214571
 20
-3181.448919635419
 30
0.0
 11
-95.08150829214571
 21
-3160.448919631217
 31
0.0
  0
LINE
  5
284
330
1F
100
AcDbEntity
  8
0-7_金物
  6
Continuous
 62
     7
370
     9
100
AcDbLine
 10
-122.0815082975508
 20
-3160.448919631217
 30
0.0
 11
-122.0815082975508
 21
-3166.033659759351
 31
0.0
  0
LINE
  5
285
330
1F
100
AcDbEntity
  8
0-7_金物
  6
Continuous
 62
     7
370
     9
100
AcDbLine
 10
-86.0815082903531
 20
-3160.448919631217
 30
0.0
 11
-86.0815082903531
 21
-3166.033659759351
 31
0.0
  0
LINE
  5
286
330
1F
100
AcDbEntity
  8
0-7_金物
  6
Continuous
 62
     7
370
     9
100
AcDbLine
 10
-95.08150829214571
 20
-3169.016464100898
 30
0.0
 11
-86.13309526751607
 21
-3166.033659759351
 31
0.0
  0
LINE
  5
287
330
1F
100
AcDbEntity
  8
0-7_金物
  6
Continuous
 62
     7
370
     9
100
AcDbLine
 10
-113.0815082957514
 20
-3169.016464100898
 30
0.0
 11
-122.029921320381
 21
-3166.033659759351
 31
0.0
  0
ARC
  5
288
330
1F
100
AcDbEntity
  8
0-7_金物
  6
Continuous
 62
     7
370
     9
100
AcDbCircle
 10
-95.68150829226795
 20
-3181.448919635419
 30
0.0
 40
0.6000000001200001
100
AcDbArc
 50
270.0
 51
0.0
  0
LINE
  5
289
330
1F
100
AcDbEntity
  8
0-7_金物
  6
Continuous
 62
     7
370
     9
100
AcDbLine
 10
-95.68150829226795
 20
-3182.048919635537
 30
0.0
 11
-112.4815082956292
 21
-3182.048919635537
 31
0.0
  0
ARC
  5
28A
330
1F
100
AcDbEntity
  8
0-7_金物
  6
Continuous
 62
     7
370
     9
100
AcDbCircle
 10
-112.4815082956292
 20
-3181.448919635419
 30
0.0
 40
0.6000000001200001
100
AcDbArc
 50
180.0
 51
270.0
  0
ARC
  5
28B
330
1F
100
AcDbEntity
  8
0-7_金物
  6
Continuous
 62
     7
370
     9
100
AcDbCircle
 10
146.4184917261406
 20
-3154.448919630016
 30
0.0
 40
6.0000000012
100
AcDbArc
 50
270.0
 51
0.0
  0
LINE
  5
28C
330
1F
100
AcDbEntity
  8
0-7_金物
  6
Continuous
 62
     7
370
     9
100
AcDbLine
 10
146.4184917261406
 20
-3160.448919631217
 30
0.0
 11
101.4184917171366
 21
-3160.448919631217
 31
0.0
  0
ARC
  5
28D
330
1F
100
AcDbEntity
  8
0-7_金物
  6
Continuous
 62
     7
370
     9
100
AcDbCircle
 10
101.4184917171366
 20
-3154.448919630016
 30
0.0
 40
6.0000000012
100
AcDbArc
 50
180.0
 51
270.0
  0
LINE
  5
28E
330
1F
100
AcDbEntity
  8
0-7_金物
  6
Continuous
 62
     7
370
     9
100
AcDbLine
 10
114.9184917198392
 20
-3181.448919635419
 30
0.0
 11
114.9184917198392
 21
-3160.448919631217
 31
0.0
  0
LINE
  5
28F
330
1F
100
AcDbEntity
  8
0-7_金物
  6
Continuous
 62
     7
370
     9
100
AcDbLine
 10
132.9184917234448
 20
-3181.448919635419
 30
0.0
 11
132.9184917234448
 21
-3160.448919631217
 31
0.0
  0
LINE
  5
290
330
1F
100
AcDbEntity
  8
0-7_金物
  6
Continuous
 62
     7
370
     9
100
AcDbLine
 10
105.9184917180397
 20
-3160.448919631217
 30
0.0
 11
105.9184917180397
 21
-3166.033659759351
 31
0.0
  0
LINE
  5
291
330
1F
100
AcDbEntity
  8
0-7_金物
  6
Continuous
 62
     7
370
     9
100
AcDbLine
 10
141.9184917252375
 20
-3160.448919631217
 30
0.0
 11
141.9184917252375
 21
-3166.033659759351
 31
0.0
  0
LINE
  5
292
330
1F
100
AcDbEntity
  8
0-7_金物
  6
Continuous
 62
     7
370
     9
100
AcDbLine
 10
132.9184917234448
 20
-3169.016464100898
 30
0.0
 11
141.8669047480745
 21
-3166.033659759351
 31
0.0
  0
LINE
  5
293
330
1F
100
AcDbEntity
  8
0-7_金物
  6
Continuous
 62
     7
370
     9
100
AcDbLine
 10
114.9184917198392
 20
-3169.016464100898
 30
0.0
 11
105.9700786952095
 21
-3166.033659759351
 31
0.0
  0
ARC
  5
294
330
1F
100
AcDbEntity
  8
0-7_金物
  6
Continuous
 62
     7
370
     9
100
AcDbCircle
 10
132.3184917233226
 20
-3181.448919635419
 30
0.0
 40
0.6000000001200001
100
AcDbArc
 50
270.0
 51
0.0
  0
LINE
  5
295
330
1F
100
AcDbEntity
  8
0-7_金物
  6
Continuous
 62
     7
370
     9
100
AcDbLine
 10
132.3184917233226
 20
-3182.048919635537
 30
0.0
 11
115.5184917199614
 21
-3182.048919635537
 31
0.0
  0
ARC
  5
296
330
1F
100
AcDbEntity
  8
0-7_金物
  6
Continuous
 62
     7
370
     9
100
AcDbCircle
 10
115.5184917199614
 20
-3181.448919635419
 30
0.0
 40
0.6000000001200001
100
AcDbArc
 50
180.0
 51
270.0
  0
LINE
  5
297
330
1F
100
AcDbEntity
  8
0-7_金物
  6
Continuous
 62
   200
370
    20
100
AcDbLine
 10
-14.0815082759508
 20
-3096.848919634936
 30
0.0
 11
-14.0815082759508
 21
-3090.848919633739
 31
0.0
  0
LINE
  5
298
330
1F
100
AcDbEntity
  8
0-7_金物
  6
Continuous
 62
   200
370
    20
100
AcDbLine
 10
-194.0815083119531
 20
-3096.848919634936
 30
0.0
 11
-194.0815083119531
 21
-3090.848919633739
 31
0.0
  0
ARC
  5
299
330
1F
100
AcDbEntity
  8
0-7_金物
  6
Continuous
 62
   200
370
    20
100
AcDbCircle
 10
-17.08150827654833
 20
-3096.848919634936
 30
0.0
 40
3.0000000006
100
AcDbArc
 50
270.0
 51
0.0
  0
LINE
  5
29A
330
1F
100
AcDbEntity
  8
0-7_金物
  6
Continuous
 62
   200
370
    20
100
AcDbLine
 10
-17.08150827654833
 20
-3099.848919635537
 30
0.0
 11
-191.0815083113488
 21
-3099.848919635537
 31
0.0
  0
ARC
  5
29B
330
1F
100
AcDbEntity
  8
0-7_金物
  6
Continuous
 62
   200
370
    20
100
AcDbCircle
 10
-191.0815083113488
 20
-3096.848919634936
 30
0.0
 40
3.0000000006
100
AcDbArc
 50
180.0
 51
270.0
  0
LINE
  5
29C
330
1F
100
AcDbEntity
  8
0-7_金物
  6
Continuous
 62
   200
370
    20
100
AcDbLine
 10
213.9184917396398
 20
-3096.848919634936
 30
0.0
 11
213.9184917396398
 21
-3090.848919633739
 31
0.0
  0
LINE
  5
29D
330
1F
100
AcDbEntity
  8
0-7_金物
  6
Continuous
 62
   200
370
    20
100
AcDbLine
 10
33.91849170363741
 20
-3096.848919634936
 30
0.0
 11
33.91849170363741
 21
-3090.848919633739
 31
0.0
  0
LINE
  5
29E
330
1F
100
AcDbEntity
  8
0-7_金物
  6
Continuous
 62
   200
370
    20
100
AcDbLine
 10
35.46960921375842
 20
-3090.848919633739
 30
0.0
 11
213.9184917396398
 21
-3090.848919633739
 31
0.0
  0
LINE
  5
29F
330
1F
100
AcDbEntity
  8
0-7_金物
  6
Continuous
 62
   200
370
    20
100
AcDbLine
 10
33.91849170363741
 20
-3090.848919633739
 30
0.0
 11
35.46960921375842
 21
-3090.848919633739
 31
0.0
  0
ARC
  5
2A0
330
1F
100
AcDbEntity
  8
0-7_金物
  6
Continuous
 62
   200
370
    20
100
AcDbCircle
 10
210.9184917390422
 20
-3096.848919634936
 30
0.0
 40
3.0000000006
100
AcDbArc
 50
270.0
 51
0.0
  0
LINE
  5
2A1
330
1F
100
AcDbEntity
  8
0-7_金物
  6
Continuous
 62
   200
370
    20
100
AcDbLine
 10
210.9184917390422
 20
-3099.848919635537
 30
0.0
 11
36.91849170424177
 21
-3099.848919635537
 31
0.0
  0
ARC
  5
2A2
330
1F
100
AcDbEntity
  8
0-7_金物
  6
Continuous
 62
   200
370
    20
100
AcDbCircle
 10
36.91849170424177
 20
-3096.848919634936
 30
0.0
 40
3.0000000006
100
AcDbArc
 50
180.0
 51
270.0
  0
LINE
  5
2A3
330
1F
100
AcDbEntity
  8
0-7_金物
  6
Continuous
 62
     7
370
     9
100
AcDbLine
 10
-75.58150828824807
 20
-3154.448919630016
 30
0.0
 11
-75.58150828824807
 21
-3099.848919635537
 31
0.0
  0
LINE
  5
2A4
330
1F
100
AcDbEntity
  8
0-7_金物
  6
Continuous
 62
     7
370
     9
100
AcDbLine
 10
-132.581508299649
 20
-3154.448919630016
 30
0.0
 11
-132.581508299649
 21
-3099.848919635537
 31
0.0
  0
LINE
  5
2A5
330
1F
100
AcDbEntity
  8
0-7_金物
  6
Continuous
 62
     7
370
     9
100
AcDbLine
 10
152.4184917273425
 20
-3154.448919630016
 30
0.0
 11
152.4184917273425
 21
-3099.848919635537
 31
0.0
  0
LINE
  5
2A6
330
1F
100
AcDbEntity
  8
0-7_金物
  6
Continuous
 62
     7
370
     9
100
AcDbLine
 10
95.41849171594151
 20
-3154.448919630016
 30
0.0
 11
95.41849171594151
 21
-3099.848919635537
 31
0.0
  0
LINE
  5
2A7
330
1F
100
AcDbEntity
  8
0-7_金物
  6
Continuous
 62
   200
370
    20
100
AcDbLine
 10
-194.0815083119489
 20
-3090.848919633739
 30
0.0
 11
-14.0815082759508
 21
-3090.848919633739
 31
0.0
  0
LINE
  5
2A8
330
1F
100
AcDbEntity
  8
0-6_扉
  6
Continuous
 62
   200
370
    20
100
AcDbLine
 10
-194.0815082783595
 20
-2004.848919635555
 30
0.0
 11
-194.0815082783595
 21
-3090.848919633739
 31
0.0
  0
LINE
  5
2A9
330
1F
100
AcDbEntity
  8
0-6_扉
  6
Continuous
 62
   200
370
    20
100
AcDbLine
 10
213.9184917216377
 20
-2004.848919635555
 30
0.0
 11
213.9184917216377
 21
-3090.848919633739
 31
0.0
  0
LINE
  5
2AA
330
1F
100
AcDbEntity
  8
0-6_扉
  6
Continuous
 62
   200
370
    20
100
AcDbLine
 10
33.91849172163774
 20
-2004.848919635555
 30
0.0
 11
33.91849172163774
 21
-3090.848919633739
 31
0.0
  0
LINE
  5
2AB
330
1F
100
AcDbEntity
  8
0-6_扉
  6
Continuous
 62
   200
370
    20
100
AcDbLine
 10
-14.08150827835954
 20
-2004.848919635555
 30
0.0
 11
-14.08150827835954
 21
-3090.848919633739
 31
0.0
  0
LWPOLYLINE
  5
2AC
330
1F
100
AcDbEntity
  8
0-B_寸法
  6
Continuous
 62
     7
370
     9
100
AcDbPolyline
 90
        4
 70
     1
 43
3.0
 10
851.4184917216417
 20
-3099.848713373453
 42
0.4142135623731
 10
849.9184917216417
 20
-3098.348713373453
 42
0.4142135623731
 10
848.4184917216417
 20
-3099.848713373453
 42
0.4142135623731
 10
849.9184917216417
 20
-3101.348713373453
 42
0.4142135623731
  0
LINE
  5
2AD
330
1F
100
AcDbEntity
  8
0-B_寸法
  6
Continuous
 62
   120
370
     5
100
AcDbLine
 10
849.9184917216417
 20
-3099.848713373453
 30
0.0
 11
639.91849172164
 21
-3099.848713373453
 31
0.0
  0
LINE
  5
2AE
330
1F
100
AcDbEntity
  8
0-7_金物
  6
Continuous
 62
   120
370
     5
100
AcDbLine
 10
-2330.081453928653
 20
2450.96162459379
 30
0.0
 11
-2330.081453928653
 21
2426.961624593788
 31
0.0
  0
LINE
  5
2AF
330
1F
100
AcDbEntity
  8
0-0_補助線
  6
JWW_HOJO
 62
   120
370
     5
100
AcDbLine
 10
-2510.081453928655
 20
2336.961624593788
 30
0.0
 11
-1565.081448843938
 21
2336.961624593788
 31
0.0
  0
LINE
  5
2B0
330
1F
100
AcDbEntity
  8
0-0_補助線
  6
JWW_HOJO
 62
   120
370
     5
100
AcDbLine
 10
-1445.081448843938
 20
2336.961624593788
 30
0.0
 11
-59.08146309516315
 21
2336.961624593788
 31
0.0
  0
LINE
  5
2B1
330
1F
100
AcDbEntity
  8
0-1_通り芯
  6
JWW_CENTER1
 62
   120
370
     5
100
AcDbLine
 10
-2510.081453928655
 20
2222.96162459379
 30
0.0
 11
-1565.081448843938
 21
2222.96162459379
 31
0.0
  0
LINE
  5
2B2
330
1F
100
AcDbEntity
  8
0-1_通り芯
  6
JWW_CENTER1
 62
   120
370
     5
100
AcDbLine
 10
-1445.081448843938
 20
2222.96162459379
 30
0.0
 11
-59.08146309516315
 21
2222.96162459379
 31
0.0
  0
LINE
  5
2B3
330
1F
100
AcDbEntity
  8
0-0_補助線
  6
JWW_HOJO
 62
   120
370
     5
100
AcDbLine
 10
-2510.081453928655
 20
2108.961624593793
 30
0.0
 11
-1565.081448843938
 21
2108.961624593793
 31
0.0
  0
LINE
  5
2B4
330
1F
100
AcDbEntity
  8
0-0_補助線
  6
JWW_HOJO
 62
   120
370
     5
100
AcDbLine
 10
-1445.081448843938
 20
2108.961624593793
 30
0.0
 11
1446.918522653612
 21
2108.961624593793
 31
0.0
  0
LINE
  5
2B5
330
1F
100
AcDbEntity
  8
0-7_金物
  6
Continuous
 62
   120
370
     5
100
AcDbLine
 10
-2330.081453928653
 20
2450.96162459379
 30
0.0
 11
-1565.081448843938
 21
2450.96162459379
 31
0.0
  0
LINE
  5
2B6
330
1F
100
AcDbEntity
  8
0-7_金物
  6
Continuous
 62
   120
370
     5
100
AcDbLine
 10
-2330.081453928653
 20
1994.96162459379
 30
0.0
 11
-1565.081448843938
 21
1994.96162459379
 31
0.0
  0
LINE
  5
2B7
330
1F
100
AcDbEntity
  8
0-7_金物
  6
Continuous
 62
   120
370
     5
100
AcDbLine
 10
-1445.081448843938
 20
2450.96162459379
 30
0.0
 11
-59.08146309516304
 21
2450.96162459379
 31
0.0
  0
LINE
  5
2B8
330
1F
100
AcDbEntity
  8
0-7_金物
  6
Continuous
 62
   120
370
     5
100
AcDbLine
 10
-1445.081448843938
 20
1994.96162459379
 30
0.0
 11
-59.08146309516304
 21
1994.96162459379
 31
0.0
  0
LINE
  5
2B9
330
1F
100
AcDbEntity
  8
0-7_金物
  6
Continuous
 62
   120
370
     5
100
AcDbLine
 10
60.91853690483696
 20
2450.96162459379
 30
0.0
 11
1446.918522653612
 21
2450.96162459379
 31
0.0
  0
LINE
  5
2BA
330
1F
100
AcDbEntity
  8
0-7_金物
  6
Continuous
 62
   120
370
     5
100
AcDbLine
 10
1566.918522653612
 20
2450.96162459379
 30
0.0
 11
2164.871082305429
 21
2450.96162459379
 31
0.0
  0
LINE
  5
2BB
330
1F
100
AcDbEntity
  8
0-7_金物
  6
Continuous
 62
   120
370
     5
100
AcDbLine
 10
60.91853690483696
 20
1994.96162459379
 30
0.0
 11
1446.918522653612
 21
1994.96162459379
 31
0.0
  0
LINE
  5
2BC
330
1F
100
AcDbEntity
  8
0-7_金物
  6
Continuous
 62
   120
370
     5
100
AcDbLine
 10
1566.918522653612
 20
1994.96162459379
 30
0.0
 11
2164.871082305429
 21
1994.96162459379
 31
0.0
  0
MTEXT
  5
2BD
330
1F
100
AcDbEntity
  8
0-B_寸法
  6
Continuous
 62
     7
370
   211
100
AcDbMText
 10
-167.8315082783585
 20
-2811.123482944537
 30
0.0
 40
97.15499999999999
 41
127.5
 46
0.0
 71
     7
 72
     1
  1
{\fＭＳ ゴシック|b0|i0|c128|p49;38}
 73
     1
 44
1.0
  0
LINE
  5
2BE
330
1F
100
AcDbEntity
  8
0-B_寸法
  6
Continuous
 62
   120
370
     5
100
AcDbLine
 10
849.9184917216417
 20
-3186.848713373453
 30
0.0
 11
849.9184917216417
 21
-819.8487133734772
 31
0.0
  0
LINE
  5
2BF
330
1F
100
AcDbEntity
  8
0-7_金物
  6
Continuous
 62
     7
370
     9
100
AcDbLine
 10
-116.0815083035487
 20
-744.5507440957817
 30
0.0
 11
-116.0815083035487
 21
-819.8487133734772
 31
0.0
  0
LINE
  5
2C0
330
1F
100
AcDbEntity
  8
0-7_金物
  6
Continuous
 62
     7
370
     9
100
AcDbLine
 10
-92.08150829874796
 20
-744.5507440957817
 30
0.0
 11
-92.08150829874796
 21
-819.8487133734772
 31
0.0
  0
LINE
  5
2C1
330
1F
100
AcDbEntity
  8
0-7_金物
  6
Continuous
 62
     7
370
     9
100
AcDbLine
 10
111.9184917420483
 20
-744.5507440957817
 30
0.0
 11
111.9184917420483
 21
-819.8487133734772
 31
0.0
  0
LINE
  5
2C2
330
1F
100
AcDbEntity
  8
0-7_金物
  6
Continuous
 62
     7
370
     9
100
AcDbLine
 10
135.9184917468491
 20
-744.5507440957817
 30
0.0
 11
135.9184917468491
 21
-819.8487133734772
 31
0.0
  0
LINE
  5
2C3
330
1F
100
AcDbEntity
  8
0-6_扉
  6
Continuous
 62
   200
370
    20
100
AcDbLine
 10
-194.0815082783595
 20
-819.8487133734772
 30
0.0
 11
-194.0815082783595
 21
-1884.848919635555
 31
0.0
  0
LINE
  5
2C4
330
1F
100
AcDbEntity
  8
0-6_扉
  6
Continuous
 62
   200
370
    20
100
AcDbLine
 10
213.9184917216377
 20
-819.8487133734772
 30
0.0
 11
213.9184917216377
 21
-1884.848919635555
 31
0.0
  0
LINE
  5
2C5
330
1F
100
AcDbEntity
  8
0-6_扉
  6
Continuous
 62
   200
370
    20
100
AcDbLine
 10
-14.08150827835954
 20
-819.8487133734772
 30
0.0
 11
-194.0815082783595
 21
-819.8487133734772
 31
0.0
  0
LINE
  5
2C6
330
1F
100
AcDbEntity
  8
0-6_扉
  6
Continuous
 62
   200
370
    20
100
AcDbLine
 10
213.9184917216377
 20
-819.8487133734772
 30
0.0
 11
33.91849172163774
 21
-819.8487133734772
 31
0.0
  0
LINE
  5
2C7
330
1F
100
AcDbEntity
  8
0-6_扉
  6
Continuous
 62
   200
370
    20
100
AcDbLine
 10
-14.08150827835954
 20
-819.8487133734772
 30
0.0
 11
-14.08150827835954
 21
-1134.70617441612
 31
0.0
  0
LINE
  5
2C8
330
1F
100
AcDbEntity
  8
0-6_扉
  6
Continuous
 62
   200
370
    20
100
AcDbLine
 10
33.91849172163774
 20
-819.8487133734772
 30
0.0
 11
33.91849172163774
 21
-1134.70617441612
 31
0.0
  0
LINE
  5
2C9
330
1F
100
AcDbEntity
  8
0-B_寸法
  6
Continuous
 62
   120
370
     5
100
AcDbLine
 10
849.9184917216417
 20
-819.8487133734772
 30
0.0
 11
849.9184917216417
 21
-738.848713373477
 31
0.0
  0
LWPOLYLINE
  5
2CA
330
1F
100
AcDbEntity
  8
0-B_寸法
  6
Continuous
 62
     7
370
     9
100
AcDbPolyline
 90
        4
 70
     1
 43
3.0
 10
851.4184917216417
 20
-819.8487133734772
 42
0.4142135623731
 10
849.9184917216417
 20
-818.3487133734772
 42
0.4142135623731
 10
848.4184917216417
 20
-819.8487133734772
 42
0.4142135623731
 10
849.9184917216417
 20
-821.3487133734772
 42
0.4142135623731
  0
LINE
  5
2CB
330
1F
100
AcDbEntity
  8
0-B_寸法
  6
Continuous
 62
   120
370
     5
100
AcDbLine
 10
849.9184917216417
 20
-819.8487133734772
 30
0.0
 11
639.91849172164
 21
-819.8487133734772
 31
0.0
  0
LINE
  5
2CC
330
1F
100
AcDbEntity
  8
0-0_補助線
  6
Continuous
 62
   120
370
     5
100
AcDbLine
 10
663.9185297792246
 20
2921.961822545649
 30
0.0
 11
2344.87108230543
 21
2921.961822545649
 31
0.0
  0
LWPOLYLINE
  5
2CD
330
1F
100
AcDbEntity
  8
0-0_補助線
  6
Continuous
 62
     7
370
     9
100
AcDbPolyline
 90
        4
 70
     1
 43
3.0
 10
665.4185297792246
 20
2921.961822545649
 42
0.4142135623731
 10
663.9185297792246
 20
2923.461822545648
 42
0.4142135623731
 10
662.4185297792245
 20
2921.961822545649
 42
0.4142135623731
 10
663.9185297792246
 20
2920.461822545649
 42
0.4142135623731
  0
LWPOLYLINE
  5
2CE
330
1F
100
AcDbEntity
  8
0-0_補助線
  6
Continuous
 62
     7
370
     9
100
AcDbPolyline
 90
        4
 70
     1
 43
3.0
 10
2346.371082305429
 20
2921.961822545649
 42
0.4142135623731
 10
2344.87108230543
 20
2923.461822545648
 42
0.4142135623731
 10
2343.37108230543
 20
2921.961822545649
 42
0.4142135623731
 10
2344.87108230543
 20
2920.461822545649
 42
0.4142135623731
  0
LINE
  5
2CF
330
1F
100
AcDbEntity
  8
0-0_補助線
  6
Continuous
 62
   120
370
     5
100
AcDbLine
 10
663.9185297792246
 20
2921.961822545649
 30
0.0
 11
663.9185297792246
 21
2561.961822545649
 31
0.0
  0
LINE
  5
2D0
330
1F
100
AcDbEntity
  8
0-0_補助線
  6
Continuous
 62
   120
370
     5
100
AcDbLine
 10
2344.87108230543
 20
2921.961822545649
 30
0.0
 11
2344.87108230543
 21
2561.961822545649
 31
0.0
  0
MTEXT
  5
2D1
330
1F
100
AcDbEntity
  8
0-B_寸法
  6
Continuous
 62
     7
370
   211
100
AcDbMText
 10
60.16849172164179
 20
-2811.123482944537
 30
0.0
 40
97.15499999999999
 41
127.5
 46
0.0
 71
     7
 72
     1
  1
{\fＭＳ ゴシック|b0|i0|c128|p49;38}
 73
     1
 44
1.0
  0
LINE
  5
2D2
330
1F
100
AcDbEntity
  8
0-0_補助線
  6
JWW_HOJO
 62
   120
370
     5
100
AcDbLine
 10
2344.87108230543
 20
2921.961822545649
 30
0.0
 11
2344.87108230543
 21
1343.961624593791
 31
0.0
  0
LINE
  5
2D3
330
1F
100
AcDbEntity
  8
0-0_補助線
  6
Continuous
 62
   120
370
     5
100
AcDbLine
 10
663.9185297792244
 20
2741.961822545649
 30
0.0
 11
843.9185297792244
 21
2741.961822545649
 31
0.0
  0
LWPOLYLINE
  5
2D4
330
1F
100
AcDbEntity
  8
0-0_補助線
  6
Continuous
 62
     7
370
     9
100
AcDbPolyline
 90
        4
 70
     1
 43
3.0
 10
665.4185297792244
 20
2741.961822545649
 42
0.4142135623731
 10
663.9185297792244
 20
2743.461822545648
 42
0.4142135623731
 10
662.4185297792244
 20
2741.961822545649
 42
0.4142135623731
 10
663.9185297792244
 20
2740.461822545649
 42
0.4142135623731
  0
LWPOLYLINE
  5
2D5
330
1F
100
AcDbEntity
  8
0-0_補助線
  6
Continuous
 62
     7
370
     9
100
AcDbPolyline
 90
        4
 70
     1
 43
3.0
 10
845.4185297792244
 20
2741.961822545649
 42
0.4142135623731
 10
843.9185297792244
 20
2743.461822545648
 42
0.4142135623731
 10
842.4185297792244
 20
2741.961822545649
 42
0.4142135623731
 10
843.9185297792244
 20
2740.461822545649
 42
0.4142135623731
  0
LINE
  5
2D6
330
1F
100
AcDbEntity
  8
0-0_補助線
  6
Continuous
 62
   120
370
     5
100
AcDbLine
 10
663.9185297792244
 20
2741.961822545649
 30
0.0
 11
663.9185297792244
 21
2561.961822545649
 31
0.0
  0
LINE
  5
2D7
330
1F
100
AcDbEntity
  8
0-0_補助線
  6
Continuous
 62
   120
370
     5
100
AcDbLine
 10
843.9185297792244
 20
2741.961822545649
 30
0.0
 11
843.9185297792244
 21
2561.961822545649
 31
0.0
  0
MTEXT
  5
2D8
330
1F
100
AcDbEntity
  8
0-B_寸法
  6
Continuous
 62
     7
370
   211
100
AcDbMText
 10
834.9184917216417
 20
-3087.887945306129
 30
0.0
 40
100.0125
 41
262.5
 46
0.0
 71
     7
 72
     1
  1
{\fＭＳ ゴシック|b0|i0|c128|p49;14.5}
 11
6.123031769111886E-17
 21
1.0
 31
0.0
 73
     1
 44
1.0
  0
MTEXT
  5
2D9
330
1F
100
AcDbEntity
  8
0-B_寸法
  6
Continuous
 62
     7
370
   211
100
AcDbMText
 10
1254.918491721642
 20
-3409.771213373454
 30
0.0
 40
97.15499999999999
 41
127.5
 46
0.0
 71
     7
 72
     1
  1
{\fＭＳ ゴシック|b0|i0|c128|p49;12}
 11
6.123031769111886E-17
 21
1.0
 31
0.0
 73
     1
 44
1.0
  0
MTEXT
  5
2DA
330
1F
100
AcDbEntity
  8
0-B_寸法
  6
Continuous
 62
     7
370
   211
100
AcDbMText
 10
834.9184917216417
 20
-2321.433258828018
 30
0.0
 40
101.8309090909091
 41
735.0
 46
0.0
 71
     7
 72
     1
  1
{\fＭＳ ゴシック|b0|i0|c128|p49;ＤＨ＝2,342}
 11
6.123031769111886E-17
 21
1.0
 31
0.0
 73
     1
 44
1.0
  0
MTEXT
  5
2DB
330
1F
100
AcDbEntity
  8
0-B_寸法
  6
Continuous
 62
     7
370
   211
100
AcDbMText
 10
1044.918491721642
 20
-2321.433258828018
 30
0.0
 40
101.8309090909091
 41
735.0
 46
0.0
 71
     7
 72
     1
  1
{\fＭＳ ゴシック|b0|i0|c128|p49;枠内＝2,370}
 11
6.123031769111886E-17
 21
1.0
 31
0.0
 73
     1
 44
1.0
  0
MTEXT
  5
2DC
330
1F
100
AcDbEntity
  8
0-B_寸法
  6
Continuous
 62
     7
370
   211
100
AcDbMText
 10
1254.918491721642
 20
-2321.433258828018
 30
0.0
 40
101.8309090909091
 41
735.0
 46
0.0
 71
     7
 72
     1
  1
{\fＭＳ ゴシック|b0|i0|c128|p49;枠外＝2,400}
 11
6.123031769111886E-17
 21
1.0
 31
0.0
 73
     1
 44
1.0
  0
MTEXT
  5
2DD
330
1F
100
AcDbEntity
  8
0-B_寸法
  6
Continuous
 62
     7
370
   211
100
AcDbMText
 10
-1870.551055589744
 20
2262.681624593788
 30
0.0
 40
91.43999999999998
 41
540.0
 46
0.0
 71
     7
 72
     1
  1
{\fＭＳ ゴシック|b0|i0|c128|p49;ＤＷ＝900}
 73
     1
 44
1.0
  0
MTEXT
  5
2DE
330
1F
100
AcDbEntity
  8
0-B_寸法
  6
Continuous
 62
     7
370
   211
100
AcDbMText
 10
-320.0814571566829
 20
984.681624593791
 30
0.0
 40
91.43999999999997
 41
660.0
 46
0.0
 71
     7
 72
     1
  1
{\fＭＳ ゴシック|b0|i0|c128|p49;枠内＝2,637}
 73
     1
 44
1.0
  0
MTEXT
  5
2DF
330
1F
100
AcDbEntity
  8
0-B_寸法
  6
Continuous
 62
     7
370
   211
100
AcDbMText
 10
-320.0814571566829
 20
774.681624593791
 30
0.0
 40
91.43999999999997
 41
660.0
 46
0.0
 71
     7
 72
     1
  1
{\fＭＳ ゴシック|b0|i0|c128|p49;枠外＝2,697}
 73
     1
 44
1.0
  0
MTEXT
  5
2E0
330
1F
100
AcDbEntity
  8
0-0_補助線
  6
Continuous
 62
     7
370
   211
100
AcDbMText
 10
1406.894806042327
 20
2926.491822545649
 30
0.0
 40
99.06
 41
195.0
 46
0.0
 71
     7
 72
     1
  1
{\fＭＳ ゴシック|b0|i0|c128|p49;930}
 73
     1
 44
1.0
  0
LINE
  5
2E1
330
1F
100
AcDbEntity
  8
0-7_金物
  6
Continuous
 62
    92
370
    13
100
AcDbLine
 10
-123.4534067633044
 20
-3168.849579021097
 30
0.0
 11
-156.2815082783649
 21
-3168.849579021097
 31
0.0
  0
LINE
  5
2E2
330
1F
100
AcDbEntity
  8
0-7_金物
  6
Continuous
 62
    92
370
    13
100
AcDbLine
 10
-158.0815082783633
 20
-3170.649579021097
 30
0.0
 11
-156.2815082783649
 21
-3168.849579021097
 31
0.0
  0
LINE
  5
2E3
330
1F
100
AcDbEntity
  8
0-7_金物
  6
Continuous
 62
    92
370
    13
100
AcDbLine
 10
-159.8815082783651
 20
-3168.849579021097
 30
0.0
 11
-158.0815082783633
 21
-3170.649579021097
 31
0.0
  0
LINE
  5
2E4
330
1F
100
AcDbEntity
  8
0-7_金物
  6
Continuous
 62
    92
370
    13
100
AcDbLine
 10
-199.2932831789741
 20
-3168.849579021097
 30
0.0
 11
-159.8815082783651
 21
-3168.849579021097
 31
0.0
  0
ARC
  5
2E5
330
1F
100
AcDbEntity
  8
0-7_金物
  6
Continuous
 62
    92
370
    13
100
AcDbCircle
 10
-199.2932831789741
 20
-3174.849579021097
 30
0.0
 40
6.0
100
AcDbArc
 50
90.0
 51
135.0
  0
LINE
  5
2E6
330
1F
100
AcDbEntity
  8
0-7_金物
  6
Continuous
 62
    92
370
    13
100
AcDbLine
 10
-203.5359238660928
 20
-3170.606938333977
 30
0.0
 11
-217.7300364157881
 21
-3184.801050883673
 31
0.0
  0
ARC
  5
2E7
330
1F
100
AcDbEntity
  8
0-7_金物
  6
Continuous
 62
    92
370
    13
100
AcDbCircle
 10
-216.8815082783644
 20
-3185.649579021097
 30
0.0
 40
1.2
100
AcDbArc
 50
135.0
 51
270.0
  0
LINE
  5
2E8
330
1F
100
AcDbEntity
  8
0-7_金物
  6
Continuous
 62
    92
370
    13
100
AcDbLine
 10
-207.2815082783663
 20
-3186.849579021096
 30
0.0
 11
-216.8815082783644
 21
-3186.849579021096
 31
0.0
  0
ARC
  5
2E9
330
1F
100
AcDbEntity
  8
0-7_金物
  6
Continuous
 62
    92
370
    13
100
AcDbCircle
 10
-207.2815082783663
 20
-3185.649579021097
 30
0.0
 40
1.2
100
AcDbArc
 50
270.0
 51
0.0
  0
LINE
  5
2EA
330
1F
100
AcDbEntity
  8
0-7_金物
  6
Continuous
 62
    92
370
    13
100
AcDbLine
 10
-206.081508278364
 20
-3185.649579021097
 30
0.0
 11
-206.081508278364
 21
-3183.334860395335
 31
0.0
  0
LINE
  5
2EB
330
1F
100
AcDbEntity
  8
0-7_金物
  6
Continuous
 62
    92
370
    13
100
AcDbLine
 10
-206.081508278364
 20
-3183.334860395335
 30
0.0
 11
-198.7962269041256
 21
-3176.049579021097
 31
0.0
  0
LINE
  5
2EC
330
1F
100
AcDbEntity
  8
0-7_金物
  6
Continuous
 62
    92
370
    13
100
AcDbLine
 10
-198.7962269041256
 20
-3176.049579021097
 30
0.0
 11
-176.0815082783657
 21
-3176.049579021097
 31
0.0
  0
LINE
  5
2ED
330
1F
100
AcDbEntity
  8
0-7_金物
  6
Continuous
 62
    92
370
    13
100
AcDbLine
 10
-176.0815082783657
 20
-3185.049579021096
 30
0.0
 11
-176.0815082783657
 21
-3176.049579021097
 31
0.0
  0
ARC
  5
2EE
330
1F
100
AcDbEntity
  8
0-7_金物
  6
Continuous
 62
    92
370
    13
100
AcDbCircle
 10
-174.2815082783622
 20
-3185.049579021096
 30
0.0
 40
1.8
100
AcDbArc
 50
180.0
 51
270.0
  0
LINE
  5
2EF
330
1F
100
AcDbEntity
  8
0-7_金物
  6
Continuous
 62
    92
370
    13
100
AcDbLine
 10
-174.2815082783622
 20
-3186.849579021096
 30
0.0
 11
-171.8815082783644
 21
-3186.849579021096
 31
0.0
  0
ARC
  5
2F0
330
1F
100
AcDbEntity
  8
0-7_金物
  6
Continuous
 62
    92
370
    13
100
AcDbCircle
 10
-171.8815082783644
 20
-3185.049579021096
 30
0.0
 40
1.8
100
AcDbArc
 50
270.0
 51
0.0
  0
LINE
  5
2F1
330
1F
100
AcDbEntity
  8
0-7_金物
  6
Continuous
 62
    92
370
    13
100
AcDbLine
 10
-170.0815082783643
 20
-3185.049579021096
 30
0.0
 11
-170.0815082783643
 21
-3176.049579021097
 31
0.0
  0
LINE
  5
2F2
330
1F
100
AcDbEntity
  8
0-7_金物
  6
Continuous
 62
    92
370
    13
100
AcDbLine
 10
-146.0815082783657
 20
-3176.049579021097
 30
0.0
 11
-170.0815082783643
 21
-3176.049579021097
 31
0.0
  0
LINE
  5
2F3
330
1F
100
AcDbEntity
  8
0-7_金物
  6
Continuous
 62
    92
370
    13
100
AcDbLine
 10
-146.0815082783657
 20
-3185.049579021096
 30
0.0
 11
-146.0815082783657
 21
-3176.049579021097
 31
0.0
  0
ARC
  5
2F4
330
1F
100
AcDbEntity
  8
0-7_金物
  6
Continuous
 62
    92
370
    13
100
AcDbCircle
 10
-144.2815082783622
 20
-3185.049579021096
 30
0.0
 40
1.8
100
AcDbArc
 50
180.0
 51
270.0
  0
LINE
  5
2F5
330
1F
100
AcDbEntity
  8
0-7_金物
  6
Continuous
 62
    92
370
    13
100
AcDbLine
 10
-136.4815082783625
 20
-3186.849579021096
 30
0.0
 11
-144.2815082783622
 21
-3186.849579021096
 31
0.0
  0
ARC
  5
2F6
330
1F
100
AcDbEntity
  8
0-7_金物
  6
Continuous
 62
    92
370
    13
100
AcDbCircle
 10
-136.4815082783625
 20
-3184.449579021097
 30
0.0
 40
2.4
100
AcDbArc
 50
270.0
 51
0.0
  0
ARC
  5
2F7
330
1F
100
AcDbEntity
  8
0-7_金物
  6
Continuous
 62
    92
370
    13
100
AcDbCircle
 10
-136.4815082783625
 20
-3184.449579021097
 30
0.0
 40
2.4
100
AcDbArc
 50
0.0
 51
90.0
  0
LINE
  5
2F8
330
1F
100
AcDbEntity
  8
0-7_金物
  6
Continuous
 62
    92
370
    13
100
AcDbLine
 10
-136.4815082783625
 20
-3182.049579021097
 30
0.0
 11
-140.0815082783643
 21
-3182.049579021097
 31
0.0
  0
LINE
  5
2F9
330
1F
100
AcDbEntity
  8
0-7_金物
  6
Continuous
 62
    92
370
    13
100
AcDbLine
 10
-140.0815082783643
 20
-3176.049579021097
 30
0.0
 11
-140.0815082783643
 21
-3182.049579021097
 31
0.0
  0
LINE
  5
2FA
330
1F
100
AcDbEntity
  8
0-7_金物
  6
Continuous
 62
    92
370
    13
100
AcDbLine
 10
-125.6815082783638
 20
-3176.049579021097
 30
0.0
 11
-140.0815082783643
 21
-3176.049579021097
 31
0.0
  0
ARC
  5
2FB
330
1F
100
AcDbEntity
  8
0-7_金物
  6
Continuous
 62
    92
370
    13
100
AcDbCircle
 10
-125.6815082783638
 20
-3179.049579021097
 30
0.0
 40
3.0
100
AcDbArc
 50
0.0
 51
90.00000000000001
  0
LINE
  5
2FC
330
1F
100
AcDbEntity
  8
0-7_金物
  6
Continuous
 62
    92
370
    13
100
AcDbLine
 10
-122.6815082783648
 20
-3179.049579021097
 30
0.0
 11
-122.6815082783648
 21
-3185.049579021096
 31
0.0
  0
ARC
  5
2FD
330
1F
100
AcDbEntity
  8
0-7_金物
  6
Continuous
 62
    92
370
    13
100
AcDbCircle
 10
-120.881508278363
 20
-3185.049579021096
 30
0.0
 40
1.8
100
AcDbArc
 50
180.0
 51
270.0
  0
LINE
  5
2FE
330
1F
100
AcDbEntity
  8
0-7_金物
  6
Continuous
 62
    92
370
    13
100
AcDbLine
 10
-87.28150827836458
 20
-3186.849579021096
 30
0.0
 11
-120.881508278363
 21
-3186.849579021096
 31
0.0
  0
ARC
  5
2FF
330
1F
100
AcDbEntity
  8
0-7_金物
  6
Continuous
 62
    92
370
    13
100
AcDbCircle
 10
-87.28150827836458
 20
-3185.049579021096
 30
0.0
 40
1.8
100
AcDbArc
 50
270.0
 51
0.0
  0
LINE
  5
300
330
1F
100
AcDbEntity
  8
0-7_金物
  6
Continuous
 62
    92
370
    13
100
AcDbLine
 10
-85.48150827836494
 20
-3179.049579021097
 30
0.0
 11
-85.48150827836494
 21
-3185.049579021096
 31
0.0
  0
ARC
  5
301
330
1F
100
AcDbEntity
  8
0-7_金物
  6
Continuous
 62
    92
370
    13
100
AcDbCircle
 10
-82.48150827836426
 20
-3179.049579021097
 30
0.0
 40
3.0
100
AcDbArc
 50
90.0
 51
180.0
  0
LINE
  5
302
330
1F
100
AcDbEntity
  8
0-7_金物
  6
Continuous
 62
    92
370
    13
100
AcDbLine
 10
-82.48150827836426
 20
-3176.049579021097
 30
0.0
 11
-68.08150827836371
 21
-3176.049579021097
 31
0.0
  0
LINE
  5
303
330
1F
100
AcDbEntity
  8
0-7_金物
  6
Continuous
 62
    92
370
    13
100
AcDbLine
 10
-68.08150827836371
 20
-3176.049579021097
 30
0.0
 11
-68.08150827836371
 21
-3182.049579021097
 31
0.0
  0
LINE
  5
304
330
1F
100
AcDbEntity
  8
0-7_金物
  6
Continuous
 62
    92
370
    13
100
AcDbLine
 10
-71.68150827836556
 20
-3182.049579021097
 30
0.0
 11
-68.08150827836371
 21
-3182.049579021097
 31
0.0
  0
ARC
  5
305
330
1F
100
AcDbEntity
  8
0-7_金物
  6
Continuous
 62
    92
370
    13
100
AcDbCircle
 10
-71.68150827836556
 20
-3184.449579021097
 30
0.0
 40
2.4
100
AcDbArc
 50
90.0
 51
180.0
  0
ARC
  5
306
330
1F
100
AcDbEntity
  8
0-7_金物
  6
Continuous
 62
    92
370
    13
100
AcDbCircle
 10
-71.68150827836556
 20
-3184.449579021097
 30
0.0
 40
2.4
100
AcDbArc
 50
180.0
 51
270.0
  0
LINE
  5
307
330
1F
100
AcDbEntity
  8
0-7_金物
  6
Continuous
 62
    92
370
    13
100
AcDbLine
 10
-71.68150827836556
 20
-3186.849579021096
 30
0.0
 11
-63.88150827836583
 21
-3186.849579021096
 31
0.0
  0
ARC
  5
308
330
1F
100
AcDbEntity
  8
0-7_金物
  6
Continuous
 62
    92
370
    13
100
AcDbCircle
 10
-63.8815082783654
 20
-3185.049579021096
 30
0.0
 40
1.8
100
AcDbArc
 50
270.0
 51
0.0
  0
LINE
  5
309
330
1F
100
AcDbEntity
  8
0-7_金物
  6
Continuous
 62
    92
370
    13
100
AcDbLine
 10
-62.08150827836192
 20
-3185.049579021096
 30
0.0
 11
-62.08150827836192
 21
-3176.049579021097
 31
0.0
  0
LINE
  5
30A
330
1F
100
AcDbEntity
  8
0-7_金物
  6
Continuous
 62
    92
370
    13
100
AcDbLine
 10
-62.08150827836192
 20
-3176.049579021097
 30
0.0
 11
-8.081508278361582
 21
-3176.049579021097
 31
0.0
  0
LINE
  5
30B
330
1F
100
AcDbEntity
  8
0-7_金物
  6
Continuous
 62
    92
370
    13
100
AcDbLine
 10
-8.081508278361582
 20
-3176.049579021097
 30
0.0
 11
-8.081508278361582
 21
-3182.049579021097
 31
0.0
  0
LINE
  5
30C
330
1F
100
AcDbEntity
  8
0-7_金物
  6
Continuous
 62
    92
370
    13
100
AcDbLine
 10
-11.68150827836342
 20
-3182.049579021097
 30
0.0
 11
-8.081508278361582
 21
-3182.049579021097
 31
0.0
  0
ARC
  5
30D
330
1F
100
AcDbEntity
  8
0-7_金物
  6
Continuous
 62
    92
370
    13
100
AcDbCircle
 10
-11.68150827836342
 20
-3184.449579021097
 30
0.0
 40
2.4
100
AcDbArc
 50
90.0
 51
180.0
  0
ARC
  5
30E
330
1F
100
AcDbEntity
  8
0-7_金物
  6
Continuous
 62
    92
370
    13
100
AcDbCircle
 10
-11.68150827836342
 20
-3184.449579021097
 30
0.0
 40
2.4
100
AcDbArc
 50
180.0
 51
270.0
  0
LINE
  5
30F
330
1F
100
AcDbEntity
  8
0-7_金物
  6
Continuous
 62
    92
370
    13
100
AcDbLine
 10
-11.68150827836342
 20
-3186.849579021096
 30
0.0
 11
-3.881508278363697
 21
-3186.849579021096
 31
0.0
  0
ARC
  5
310
330
1F
100
AcDbEntity
  8
0-7_金物
  6
Continuous
 62
    92
370
    13
100
AcDbCircle
 10
-3.881508278363697
 20
-3185.049579021096
 30
0.0
 40
1.8
100
AcDbArc
 50
270.0
 51
0.0
  0
LINE
  5
311
330
1F
100
AcDbEntity
  8
0-7_金物
  6
Continuous
 62
    92
370
    13
100
AcDbLine
 10
-2.081508278360218
 20
-3185.049579021096
 30
0.0
 11
-2.081508278360218
 21
-3176.049579021097
 31
0.0
  0
LINE
  5
312
330
1F
100
AcDbEntity
  8
0-7_金物
  6
Continuous
 62
    92
370
    13
100
AcDbLine
 10
-2.081508278360218
 20
-3176.049579021097
 30
0.0
 11
21.91849172164012
 21
-3176.049579021097
 31
0.0
  0
LINE
  5
313
330
1F
100
AcDbEntity
  8
0-7_金物
  6
Continuous
 62
    92
370
    13
100
AcDbLine
 10
21.91849172164012
 20
-3185.049579021096
 30
0.0
 11
21.91849172164012
 21
-3176.049579021097
 31
0.0
  0
ARC
  5
314
330
1F
100
AcDbEntity
  8
0-7_金物
  6
Continuous
 62
    92
370
    13
100
AcDbCircle
 10
23.7184917216419
 20
-3185.049579021096
 30
0.0
 40
1.8
100
AcDbArc
 50
180.0
 51
270.0
  0
LINE
  5
315
330
1F
100
AcDbEntity
  8
0-7_金物
  6
Continuous
 62
    92
370
    13
100
AcDbLine
 10
31.51849172164162
 20
-3186.849579021096
 30
0.0
 11
23.7184917216419
 21
-3186.849579021096
 31
0.0
  0
ARC
  5
316
330
1F
100
AcDbEntity
  8
0-7_金物
  6
Continuous
 62
    92
370
    13
100
AcDbCircle
 10
31.51849172164162
 20
-3184.449579021097
 30
0.0
 40
2.4
100
AcDbArc
 50
270.0
 51
0.0
  0
ARC
  5
317
330
1F
100
AcDbEntity
  8
0-7_金物
  6
Continuous
 62
    92
370
    13
100
AcDbCircle
 10
31.51849172164162
 20
-3184.449579021097
 30
0.0
 40
2.4
100
AcDbArc
 50
0.0
 51
90.0
  0
LINE
  5
318
330
1F
100
AcDbEntity
  8
0-7_金物
  6
Continuous
 62
    92
370
    13
100
AcDbLine
 10
31.51849172164162
 20
-3182.049579021097
 30
0.0
 11
27.91849172164149
 21
-3182.049579021097
 31
0.0
  0
LINE
  5
319
330
1F
100
AcDbEntity
  8
0-7_金物
  6
Continuous
 62
    92
370
    13
100
AcDbLine
 10
27.91849172164149
 20
-3176.049579021097
 30
0.0
 11
27.91849172164149
 21
-3182.049579021097
 31
0.0
  0
LINE
  5
31A
330
1F
100
AcDbEntity
  8
0-7_金物
  6
Continuous
 62
    92
370
    13
100
AcDbLine
 10
81.9184917216333
 20
-3176.049579021097
 30
0.0
 11
27.91849172164149
 21
-3176.049579021097
 31
0.0
  0
LINE
  5
31B
330
1F
100
AcDbEntity
  8
0-7_金物
  6
Continuous
 62
    92
370
    13
100
AcDbLine
 10
81.9184917216333
 20
-3185.049579021096
 30
0.0
 11
81.9184917216333
 21
-3176.049579021097
 31
0.0
  0
ARC
  5
31C
330
1F
100
AcDbEntity
  8
0-7_金物
  6
Continuous
 62
    92
370
    13
100
AcDbCircle
 10
83.71849172163508
 20
-3185.049579021096
 30
0.0
 40
1.8
100
AcDbArc
 50
180.0
 51
270.0
  0
LINE
  5
31D
330
1F
100
AcDbEntity
  8
0-7_金物
  6
Continuous
 62
    92
370
    13
100
AcDbLine
 10
91.5184917216348
 20
-3186.849579021096
 30
0.0
 11
83.71849172163508
 21
-3186.849579021096
 31
0.0
  0
ARC
  5
31E
330
1F
100
AcDbEntity
  8
0-7_金物
  6
Continuous
 62
    92
370
    13
100
AcDbCircle
 10
91.5184917216348
 20
-3184.449579021097
 30
0.0
 40
2.4
100
AcDbArc
 50
270.0
 51
0.0
  0
ARC
  5
31F
330
1F
100
AcDbEntity
  8
0-7_金物
  6
Continuous
 62
    92
370
    13
100
AcDbCircle
 10
91.5184917216348
 20
-3184.449579021097
 30
0.0
 40
2.4
100
AcDbArc
 50
0.0
 51
90.0
  0
LINE
  5
320
330
1F
100
AcDbEntity
  8
0-7_金物
  6
Continuous
 62
    92
370
    13
100
AcDbLine
 10
91.5184917216348
 20
-3182.049579021097
 30
0.0
 11
87.91849172163467
 21
-3182.049579021097
 31
0.0
  0
LINE
  5
321
330
1F
100
AcDbEntity
  8
0-7_金物
  6
Continuous
 62
    92
370
    13
100
AcDbLine
 10
87.91849172163467
 20
-3176.049579021097
 30
0.0
 11
87.91849172163467
 21
-3182.049579021097
 31
0.0
  0
LINE
  5
322
330
1F
100
AcDbEntity
  8
0-7_金物
  6
Continuous
 62
    92
370
    13
100
AcDbLine
 10
102.3184917216352
 20
-3176.049579021097
 30
0.0
 11
87.91849172163467
 21
-3176.049579021097
 31
0.0
  0
ARC
  5
323
330
1F
100
AcDbEntity
  8
0-7_金物
  6
Continuous
 62
    92
370
    13
100
AcDbCircle
 10
102.3184917216352
 20
-3179.049579021097
 30
0.0
 40
3.0
100
AcDbArc
 50
0.0
 51
90.00000000000001
  0
LINE
  5
324
330
1F
100
AcDbEntity
  8
0-7_金物
  6
Continuous
 62
    92
370
    13
100
AcDbLine
 10
105.3184917216359
 20
-3179.049579021097
 30
0.0
 11
105.3184917216359
 21
-3185.049579021096
 31
0.0
  0
ARC
  5
325
330
1F
100
AcDbEntity
  8
0-7_金物
  6
Continuous
 62
    92
370
    13
100
AcDbCircle
 10
107.1184917216343
 20
-3185.049579021096
 30
0.0
 40
1.8
100
AcDbArc
 50
180.0
 51
270.0
  0
LINE
  5
326
330
1F
100
AcDbEntity
  8
0-7_金物
  6
Continuous
 62
    92
370
    13
100
AcDbLine
 10
140.7184917216344
 20
-3186.849579021096
 30
0.0
 11
107.1184917216343
 21
-3186.849579021096
 31
0.0
  0
ARC
  5
327
330
1F
100
AcDbEntity
  8
0-7_金物
  6
Continuous
 62
    92
370
    13
100
AcDbCircle
 10
140.7184917216344
 20
-3185.049579021096
 30
0.0
 40
1.8
100
AcDbArc
 50
270.0
 51
0.0
  0
LINE
  5
328
330
1F
100
AcDbEntity
  8
0-7_金物
  6
Continuous
 62
    92
370
    13
100
AcDbLine
 10
142.5184917216362
 20
-3179.049579021097
 30
0.0
 11
142.5184917216362
 21
-3185.049579021096
 31
0.0
  0
ARC
  5
329
330
1F
100
AcDbEntity
  8
0-7_金物
  6
Continuous
 62
    92
370
    13
100
AcDbCircle
 10
145.5184917216334
 20
-3179.049579021097
 30
0.0
 40
3.0
100
AcDbArc
 50
90.0
 51
180.0
  0
LINE
  5
32A
330
1F
100
AcDbEntity
  8
0-7_金物
  6
Continuous
 62
    92
370
    13
100
AcDbLine
 10
145.5184917216334
 20
-3176.049579021097
 30
0.0
 11
159.9184917216338
 21
-3176.049579021097
 31
0.0
  0
LINE
  5
32B
330
1F
100
AcDbEntity
  8
0-7_金物
  6
Continuous
 62
    92
370
    13
100
AcDbLine
 10
159.9184917216338
 20
-3176.049579021097
 30
0.0
 11
159.9184917216338
 21
-3182.049579021097
 31
0.0
  0
LINE
  5
32C
330
1F
100
AcDbEntity
  8
0-7_金物
  6
Continuous
 62
    92
370
    13
100
AcDbLine
 10
156.3184917216336
 20
-3182.049579021097
 30
0.0
 11
159.9184917216338
 21
-3182.049579021097
 31
0.0
  0
ARC
  5
32D
330
1F
100
AcDbEntity
  8
0-7_金物
  6
Continuous
 62
    92
370
    13
100
AcDbCircle
 10
156.3184917216336
 20
-3184.449579021097
 30
0.0
 40
2.4
100
AcDbArc
 50
90.0
 51
180.0
  0
ARC
  5
32E
330
1F
100
AcDbEntity
  8
0-7_金物
  6
Continuous
 62
    92
370
    13
100
AcDbCircle
 10
156.3184917216336
 20
-3184.449579021097
 30
0.0
 40
2.4
100
AcDbArc
 50
180.0
 51
270.0
  0
LINE
  5
32F
330
1F
100
AcDbEntity
  8
0-7_金物
  6
Continuous
 62
    92
370
    13
100
AcDbLine
 10
156.3184917216336
 20
-3186.849579021096
 30
0.0
 11
164.1184917216333
 21
-3186.849579021096
 31
0.0
  0
ARC
  5
330
330
1F
100
AcDbEntity
  8
0-7_金物
  6
Continuous
 62
    92
370
    13
100
AcDbCircle
 10
164.1184917216333
 20
-3185.049579021096
 30
0.0
 40
1.8
100
AcDbArc
 50
270.0
 51
0.0
  0
LINE
  5
331
330
1F
100
AcDbEntity
  8
0-7_金物
  6
Continuous
 62
    92
370
    13
100
AcDbLine
 10
165.9184917216351
 20
-3185.049579021096
 30
0.0
 11
165.9184917216351
 21
-3176.049579021097
 31
0.0
  0
LINE
  5
332
330
1F
100
AcDbEntity
  8
0-7_金物
  6
Continuous
 62
    92
370
    13
100
AcDbLine
 10
165.9184917216351
 20
-3176.049579021097
 30
0.0
 11
189.9184917216338
 21
-3176.049579021097
 31
0.0
  0
LINE
  5
333
330
1F
100
AcDbEntity
  8
0-7_金物
  6
Continuous
 62
    92
370
    13
100
AcDbLine
 10
189.9184917216338
 20
-3185.049579021096
 30
0.0
 11
189.9184917216338
 21
-3176.049579021097
 31
0.0
  0
ARC
  5
334
330
1F
100
AcDbEntity
  8
0-7_金物
  6
Continuous
 62
    92
370
    13
100
AcDbCircle
 10
191.7184917216338
 20
-3185.049579021096
 30
0.0
 40
1.8
100
AcDbArc
 50
180.0
 51
270.0
  0
LINE
  5
335
330
1F
100
AcDbEntity
  8
0-7_金物
  6
Continuous
 62
    92
370
    13
100
AcDbLine
 10
194.1184917216333
 20
-3186.849579021096
 30
0.0
 11
191.7184917216338
 21
-3186.849579021096
 31
0.0
  0
ARC
  5
336
330
1F
100
AcDbEntity
  8
0-7_金物
  6
Continuous
 62
    92
370
    13
100
AcDbCircle
 10
194.1184917216333
 20
-3185.049579021096
 30
0.0
 40
1.8
100
AcDbArc
 50
270.0
 51
0.0
  0
LINE
  5
337
330
1F
100
AcDbEntity
  8
0-7_金物
  6
Continuous
 62
    92
370
    13
100
AcDbLine
 10
195.9184917216351
 20
-3185.049579021096
 30
0.0
 11
195.9184917216351
 21
-3176.049579021097
 31
0.0
  0
LINE
  5
338
330
1F
100
AcDbEntity
  8
0-7_金物
  6
Continuous
 62
    92
370
    13
100
AcDbLine
 10
195.9184917216351
 20
-3176.049579021097
 30
0.0
 11
218.6332103473968
 21
-3176.049579021097
 31
0.0
  0
LINE
  5
339
330
1F
100
AcDbEntity
  8
0-7_金物
  6
Continuous
 62
    92
370
    13
100
AcDbLine
 10
225.9184917216351
 20
-3183.334860395335
 30
0.0
 11
218.6332103473968
 21
-3176.049579021097
 31
0.0
  0
LINE
  5
33A
330
1F
100
AcDbEntity
  8
0-7_金物
  6
Continuous
 62
    92
370
    13
100
AcDbLine
 10
225.9184917216351
 20
-3185.649579021097
 30
0.0
 11
225.9184917216351
 21
-3183.334860395335
 31
0.0
  0
ARC
  5
33B
330
1F
100
AcDbEntity
  8
0-7_金物
  6
Continuous
 62
    92
370
    13
100
AcDbCircle
 10
227.118491721634
 20
-3185.649579021097
 30
0.0
 40
1.2
100
AcDbArc
 50
180.0
 51
270.0
  0
LINE
  5
33C
330
1F
100
AcDbEntity
  8
0-7_金物
  6
Continuous
 62
    92
370
    13
100
AcDbLine
 10
227.118491721634
 20
-3186.849579021096
 30
0.0
 11
236.7184917216355
 21
-3186.849579021096
 31
0.0
  0
ARC
  5
33D
330
1F
100
AcDbEntity
  8
0-7_金物
  6
Continuous
 62
    92
370
    13
100
AcDbCircle
 10
236.7184917216355
 20
-3185.649579021097
 30
0.0
 40
1.2
100
AcDbArc
 50
270.0
 51
45.00000000000003
  0
LINE
  5
33E
330
1F
100
AcDbEntity
  8
0-7_金物
  6
Continuous
 62
    92
370
    13
100
AcDbLine
 10
223.3729073093639
 20
-3170.606938333977
 30
0.0
 11
237.5670198590593
 21
-3184.801050883673
 31
0.0
  0
ARC
  5
33F
330
1F
100
AcDbEntity
  8
0-7_金物
  6
Continuous
 62
    92
370
    13
100
AcDbCircle
 10
219.1302666222453
 20
-3174.849579021097
 30
0.0
 40
6.0
100
AcDbArc
 50
45.00000000000005
 51
90.00000000000006
  0
LINE
  5
340
330
1F
100
AcDbEntity
  8
0-7_金物
  6
Continuous
 62
    92
370
    13
100
AcDbLine
 10
219.1302666222453
 20
-3168.849579021097
 30
0.0
 11
179.7184917216362
 21
-3168.849579021097
 31
0.0
  0
LINE
  5
341
330
1F
100
AcDbEntity
  8
0-7_金物
  6
Continuous
 62
    92
370
    13
100
AcDbLine
 10
179.7184917216362
 20
-3168.849579021097
 30
0.0
 11
177.9184917216344
 21
-3170.649579021097
 31
0.0
  0
LINE
  5
342
330
1F
100
AcDbEntity
  8
0-7_金物
  6
Continuous
 62
    92
370
    13
100
AcDbLine
 10
177.9184917216344
 20
-3170.649579021097
 30
0.0
 11
176.1184917216344
 21
-3168.849579021097
 31
0.0
  0
LINE
  5
343
330
1F
100
AcDbEntity
  8
0-7_金物
  6
Continuous
 62
    92
370
    13
100
AcDbLine
 10
143.2903902065758
 20
-3168.849579021097
 30
0.0
 11
176.1184917216344
 21
-3168.849579021097
 31
0.0
  0
ARC
  5
344
330
1F
100
AcDbEntity
  8
0-7_金物
  6
Continuous
 62
    92
370
    13
100
AcDbCircle
 10
143.2903902065758
 20
-3171.849579021096
 30
0.0
 40
3.0
100
AcDbArc
 50
90.0
 51
107.8786965958413
  0
LINE
  5
345
330
1F
100
AcDbEntity
  8
0-7_金物
  6
Continuous
 62
    92
370
    13
100
AcDbLine
 10
142.3693818668065
 20
-3168.994453167815
 30
0.0
 11
135.5974833818655
 21
-3171.178936550054
 31
0.0
  0
ARC
  5
346
330
1F
100
AcDbEntity
  8
0-7_金物
  6
Continuous
 62
    92
370
    13
100
AcDbCircle
 10
136.5184917216348
 20
-3174.034062403336
 30
0.0
 40
3.0
100
AcDbArc
 50
107.8786965958413
 51
180.0
  0
LINE
  5
347
330
1F
100
AcDbEntity
  8
0-7_金物
  6
Continuous
 62
    92
370
    13
100
AcDbLine
 10
133.5184917216341
 20
-3174.034062403336
 30
0.0
 11
133.5184917216341
 21
-3180.249579021097
 31
0.0
  0
ARC
  5
348
330
1F
100
AcDbEntity
  8
0-7_金物
  6
Continuous
 62
    92
370
    13
100
AcDbCircle
 10
131.7184917216341
 20
-3180.249579021097
 30
0.0
 40
1.8
100
AcDbArc
 50
270.0
 51
0.0
  0
LINE
  5
349
330
1F
100
AcDbEntity
  8
0-7_金物
  6
Continuous
 62
    92
370
    13
100
AcDbLine
 10
116.1184917216346
 20
-3182.049579021097
 30
0.0
 11
131.7184917216341
 21
-3182.049579021097
 31
0.0
  0
ARC
  5
34A
330
1F
100
AcDbEntity
  8
0-7_金物
  6
Continuous
 62
    92
370
    13
100
AcDbCircle
 10
116.1184917216346
 20
-3180.249579021097
 30
0.0
 40
1.8
100
AcDbArc
 50
180.0
 51
270.0
  0
LINE
  5
34B
330
1F
100
AcDbEntity
  8
0-7_金物
  6
Continuous
 62
    92
370
    13
100
AcDbLine
 10
114.3184917216345
 20
-3174.034062403336
 30
0.0
 11
114.3184917216345
 21
-3180.249579021097
 31
0.0
  0
ARC
  5
34C
330
1F
100
AcDbEntity
  8
0-7_金物
  6
Continuous
 62
    92
370
    13
100
AcDbCircle
 10
111.3184917216338
 20
-3174.034062403336
 30
0.0
 40
3.0
100
AcDbArc
 50
0.0
 51
72.12130340415868
  0
LINE
  5
34D
330
1F
100
AcDbEntity
  8
0-7_金物
  6
Continuous
 62
    92
370
    13
100
AcDbLine
 10
105.4676015764622
 20
-3168.994453167815
 30
0.0
 11
112.2395000614031
 21
-3171.178936550054
 31
0.0
  0
ARC
  5
34E
330
1F
100
AcDbEntity
  8
0-7_金物
  6
Continuous
 62
    92
370
    13
100
AcDbCircle
 10
104.5465932366929
 20
-3171.849579021096
 30
0.0
 40
3.0
100
AcDbArc
 50
72.12130340415871
 51
90.0
  0
LINE
  5
34F
330
1F
100
AcDbEntity
  8
0-7_金物
  6
Continuous
 62
    92
370
    13
100
AcDbLine
 10
104.5465932366929
 20
-3168.849579021097
 30
0.0
 11
11.71849172164002
 21
-3168.849579021097
 31
0.0
  0
LINE
  5
350
330
1F
100
AcDbEntity
  8
0-7_金物
  6
Continuous
 62
    92
370
    13
100
AcDbLine
 10
11.71849172164002
 20
-3168.849579021097
 30
0.0
 11
9.918491721639953
 21
-3170.649579021097
 31
0.0
  0
LINE
  5
351
330
1F
100
AcDbEntity
  8
0-7_金物
  6
Continuous
 62
    92
370
    13
100
AcDbLine
 10
9.918491721639953
 20
-3170.649579021097
 30
0.0
 11
8.118491721639884
 21
-3168.849579021097
 31
0.0
  0
LINE
  5
352
330
1F
100
AcDbEntity
  8
0-7_金物
  6
Continuous
 62
    92
370
    13
100
AcDbLine
 10
-84.70960979342365
 20
-3168.849579021097
 30
0.0
 11
8.118491721639884
 21
-3168.849579021097
 31
0.0
  0
ARC
  5
353
330
1F
100
AcDbEntity
  8
0-7_金物
  6
Continuous
 62
    92
370
    13
100
AcDbCircle
 10
-84.70960979342365
 20
-3171.849579021096
 30
0.0
 40
3.0
100
AcDbArc
 50
90.0
 51
107.8786965958413
  0
LINE
  5
354
330
1F
100
AcDbEntity
  8
0-7_金物
  6
Continuous
 62
    92
370
    13
100
AcDbLine
 10
-85.63061813319294
 20
-3168.994453167815
 30
0.0
 11
-92.40251661813176
 21
-3171.178936550054
 31
0.0
  0
ARC
  5
355
330
1F
100
AcDbEntity
  8
0-7_金物
  6
Continuous
 62
    92
370
    13
100
AcDbCircle
 10
-91.48150827836247
 20
-3174.034062403336
 30
0.0
 40
3.0
100
AcDbArc
 50
107.8786965958413
 51
180.0
  0
LINE
  5
356
330
1F
100
AcDbEntity
  8
0-7_金物
  6
Continuous
 62
    92
370
    13
100
AcDbLine
 10
-94.48150827836486
 20
-3174.034062403336
 30
0.0
 11
-94.48150827836486
 21
-3180.249579021097
 31
0.0
  0
ARC
  5
357
330
1F
100
AcDbEntity
  8
0-7_金物
  6
Continuous
 62
    92
370
    13
100
AcDbCircle
 10
-96.28150827836492
 20
-3180.249579021097
 30
0.0
 40
1.8
100
AcDbArc
 50
270.0
 51
0.0
  0
LINE
  5
358
330
1F
100
AcDbEntity
  8
0-7_金物
  6
Continuous
 62
    92
370
    13
100
AcDbLine
 10
-111.8815082783644
 20
-3182.049579021097
 30
0.0
 11
-96.28150827836492
 21
-3182.049579021097
 31
0.0
  0
ARC
  5
359
330
1F
100
AcDbEntity
  8
0-7_金物
  6
Continuous
 62
    92
370
    13
100
AcDbCircle
 10
-111.8815082783644
 20
-3180.249579021097
 30
0.0
 40
1.8
100
AcDbArc
 50
180.0
 51
270.0
  0
LINE
  5
35A
330
1F
100
AcDbEntity
  8
0-7_金物
  6
Continuous
 62
    92
370
    13
100
AcDbLine
 10
-113.6815082783627
 20
-3174.034062403336
 30
0.0
 11
-113.6815082783627
 21
-3180.249579021097
 31
0.0
  0
ARC
  5
35B
330
1F
100
AcDbEntity
  8
0-7_金物
  6
Continuous
 62
    92
370
    13
100
AcDbCircle
 10
-116.6815082783651
 20
-3174.034062403336
 30
0.0
 40
3.0
100
AcDbArc
 50
0.0
 51
72.12130340415868
  0
LINE
  5
35C
330
1F
100
AcDbEntity
  8
0-7_金物
  6
Continuous
 62
    92
370
    13
100
AcDbLine
 10
-122.5323984235351
 20
-3168.994453167815
 30
0.0
 11
-115.7604999385958
 21
-3171.178936550054
 31
0.0
  0
ARC
  5
35D
330
1F
100
AcDbEntity
  8
0-7_金物
  6
Continuous
 62
    92
370
    13
100
AcDbCircle
 10
-123.4534067633044
 20
-3171.849579021096
 30
0.0
 40
3.0
100
AcDbArc
 50
72.12130340415871
 51
90.0
  0
LINE
  5
35E
330
1F
100
AcDbEntity
  8
0-7_金物
  6
JWW_CENTER1
 62
   120
370
     5
100
AcDbLine
 10
9.918491721640805
 20
-210.8489196355387
 30
0.0
 11
9.918491721639953
 21
-3258.848919635538
 31
0.0
  0
MTEXT
  5
35F
330
1F
100
AcDbEntity
  8
F-A_文字
  6
Continuous
 62
     7
370
     9
100
AcDbMText
 10
3296.167643811961
 20
-4145.315618467413
 30
0.0
 40
79.37500000000004
 41
937.5000000000005
 46
0.0
 71
     7
 72
     1
  1
{\fＭＳ ゴシック|b0|i0|c128|p49;FA37(8)-II2697_S01}
 73
     1
 44
1.0
  0
MTEXT
  5
360
330
1F
100
AcDbEntity
  8
F-A_文字
  6
Continuous
 62
     7
370
     0
100
AcDbMText
 10
4938.667793092893
 20
-3938.213885139966
 30
0.0
 40
78.58125
 41
412.5
 46
0.0
 71
     7
 72
     1
  1
{\fＭＳ ゴシック|b0|i0|c128|p49;17.04.03}
 73
     1
 44
1.0
  0
ENDSEC
  0
SECTION
  2
OBJECTS
  0
DICTIONARY
  5
C
330
0
100
AcDbDictionary
281
     1
  3
ACAD_GROUP
350
D
  3
ACAD_LAYOUT
350
1A
  3
ACAD_MATERIAL
350
3B
  3
ACAD_MLEADERSTYLE
350
362
  3
ACAD_MLINESTYLE
350
17
  3
ACAD_PLOTSETTINGS
350
19
  3
ACAD_PLOTSTYLENAME
350
E
  3
ACAD_TABLESTYLE
350
361
  3
ACAD_VISUALSTYLE
350
2A
  0
DICTIONARY
  5
D
102
{ACAD_REACTORS
330
C
102
}
330
C
100
AcDbDictionary
281
     1
  0
DICTIONARY
  5
1A
102
{ACAD_REACTORS
330
C
102
}
330
C
100
AcDbDictionary
281
     1
  3
Layout1
350
1E
  3
Layout2
350
26
  3
Model
350
22
  0
DICTIONARY
  5
3B
102
{ACAD_REACTORS
330
C
102
}
330
C
100
AcDbDictionary
281
     1
  3
ByBlock
350
3D
  3
ByLayer
350
3C
  3
Global
350
3E
  0
DICTIONARY
  5
362
102
{ACAD_REACTORS
330
C
102
}
330
C
100
AcDbDictionary
281
     1
  0
DICTIONARY
  5
17
102
{ACAD_REACTORS
330
C
102
}
330
C
100
AcDbDictionary
281
     1
  3
Standard
350
18
  0
DICTIONARY
  5
19
102
{ACAD_REACTORS
330
C
102
}
330
C
100
AcDbDictionary
281
     1
  0
ACDBDICTIONARYWDFLT
  5
E
102
{ACAD_REACTORS
330
C
102
}
330
C
100
AcDbDictionary
281
     1
  3
Normal
350
F
100
AcDbDictionaryWithDefault
340
F
  0
DICTIONARY
  5
361
102
{ACAD_REACTORS
330
C
102
}
330
C
100
AcDbDictionary
281
     1
  0
DICTIONARY
  5
2A
102
{ACAD_REACTORS
330
C
102
}
330
C
100
AcDbDictionary
281
     1
  3
2dWireframe
350
2F
  3
3D Hidden
350
31
  3
3dWireframe
350
30
  3
Basic
350
32
  3
Brighten
350
36
  3
ColorChange
350
3A
  3
Conceptual
350
34
  3
Dim
350
35
  3
Facepattern
350
39
  3
Flat
350
2B
  3
FlatWithEdges
350
2C
  3
Gouraud
350
2D
  3
GouraudWithEdges
350
2E
  3
Linepattern
350
38
  3
Realistic
350
33
  3
Thicken
350
37
  0
LAYOUT
  5
1E
102
{ACAD_REACTORS
330
1A
102
}
330
1A
100
AcDbPlotSettings
  1

  2
none_device
  4

  6

 40
0.0
 41
0.0
 42
0.0
 43
0.0
 44
0.0
 45
0.0
 46
0.0
 47
0.0
 48
0.0
 49
0.0
140
0.0
141
0.0
142
1.0
143
1.0
 70
   688
 72
     0
 73
     0
 74
     5
  7

 75
    16
 76
     0
 77
     5
 78
   300
147
1.0
148
0.0
149
0.0
100
AcDbLayout
  1
Layout1
 70
     1
 71
     1
 10
0.0
 20
0.0
 11
420.0
 21
297.0
 12
0.0
 22
0.0
 32
0.0
 14
1.000000000000000E+20
 24
1.000000000000000E+20
 34
1.000000000000000E+20
 15
-1.000000000000000E+20
 25
-1.000000000000000E+20
 35
-1.000000000000000E+20
146
0.0
 13
0.0
 23
0.0
 33
0.0
 16
1.0
 26
0.0
 36
0.0
 17
0.0
 27
1.0
 37
0.0
 76
     0
330
1B
  0
LAYOUT
  5
26
102
{ACAD_REACTORS
330
1A
102
}
330
1A
100
AcDbPlotSettings
  1

  2
none_device
  4

  6

 40
0.0
 41
0.0
 42
0.0
 43
0.0
 44
0.0
 45
0.0
 46
0.0
 47
0.0
 48
0.0
 49
0.0
140
0.0
141
0.0
142
1.0
143
1.0
 70
   688
 72
     0
 73
     0
 74
     5
  7

 75
    16
 76
     0
 77
     5
 78
   300
147
1.0
148
0.0
149
0.0
100
AcDbLayout
  1
Layout2
 70
     1
 71
     2
 10
0.0
 20
0.0
 11
0.0
 21
0.0
 12
0.0
 22
0.0
 32
0.0
 14
0.0
 24
0.0
 34
0.0
 15
0.0
 25
0.0
 35
0.0
146
0.0
 13
0.0
 23
0.0
 33
0.0
 16
1.0
 26
0.0
 36
0.0
 17
0.0
 27
1.0
 37
0.0
 76
     0
330
23
  0
LAYOUT
  5
22
102
{ACAD_REACTORS
330
1A
102
}
330
1A
100
AcDbPlotSettings
  1

  2
none_device
  4

  6

 40
0.0
 41
0.0
 42
0.0
 43
0.0
 44
0.0
 45
0.0
 46
0.0
 47
0.0
 48
0.0
 49
0.0
140
0.0
141
0.0
142
1.0
143
1.0
 70
  1712
 72
     0
 73
     0
 74
     0
  7

 75
     0
 76
     0
 77
     5
 78
   300
147
1.0
148
0.0
149
0.0
100
AcDbLayout
  1
Model
 70
     1
 71
     0
 10
-6300.0
 20
-4455.0
 11
6300.0
 21
4455.0
 12
0.0
 22
0.0
 32
0.0
 14
-6300.0
 24
-4455.0
 34
0.0
 15
6300.0
 25
4455.0
 35
0.0
146
0.0
 13
0.0
 23
0.0
 33
0.0
 16
1.0
 26
0.0
 36
0.0
 17
0.0
 27
1.0
 37
0.0
 76
     0
330
1F
331
29
  0
MATERIAL
  5
3D
102
{ACAD_REACTORS
330
3B
102
}
330
3B
100
AcDbMaterial
  1
ByBlock
 72
     1
 94
      127
  0
MATERIAL
  5
3C
102
{ACAD_REACTORS
330
3B
102
}
330
3B
100
AcDbMaterial
  1
ByLayer
 72
     1
 94
      127
  0
MATERIAL
  5
3E
102
{ACAD_REACTORS
330
3B
102
}
330
3B
100
AcDbMaterial
  1
Global
 72
     1
 94
      127
  0
MLINESTYLE
  5
18
102
{ACAD_REACTORS
330
17
102
}
330
17
100
AcDbMlineStyle
  2
Standard
 70
     0
  3

 62
   256
 51
90.0
 52
90.0
 71
     2
 49
0.5
 62
   256
  6
BYLAYER
 49
-0.5
 62
   256
  6
BYLAYER
  0
ACDBPLACEHOLDER
  5
F
102
{ACAD_REACTORS
330
E
102
}
330
E
  0
VISUALSTYLE
  5
2F
102
{ACAD_REACTORS
330
2A
102
}
330
2A
100
AcDbVisualStyle
  2
2dWireframe
 70
     4
177
     2
291
     0
 71
     0
176
     1
 72
     2
176
     1
 73
     0
176
     1
 90
        0
176
     1
 40
-0.6
176
     1
 41
-30.0
176
     1
 62
     5
 63
     7
421
 16777215
176
     1
 74
     1
176
     1
 91
        4
176
     1
 64
     7
176
     1
 65
   257
176
     1
 75
     1
176
     1
175
     1
176
     1
 42
1.0
176
     1
 92
        0
176
     1
 66
   257
176
     1
 43
1.0
176
     1
 76
     1
176
     1
 77
     6
176
     1
 78
     2
176
     1
 67
     7
176
     1
 79
     5
176
     1
170
     0
176
     1
171
     0
176
     1
290
     0
176
     1
 93
        1
176
     1
 44
0.0
176
     1
173
     0
176
     1
  0
VISUALSTYLE
  5
31
102
{ACAD_REACTORS
330
2A
102
}
330
2A
100
AcDbVisualStyle
  2
3D Hidden
 70
     6
177
     2
291
     0
 71
     1
176
     1
 72
     2
176
     1
 73
     2
176
     1
 90
        0
176
     1
 40
-0.6
176
     1
 41
-30.0
176
     1
 62
     5
 63
     7
421
 16777215
176
     1
 74
     2
176
     1
 91
        2
176
     1
 64
     7
176
     1
 65
   257
176
     1
 75
     2
176
     1
175
     1
176
     1
 42
40.0
176
     1
 92
        0
176
     1
 66
   257
176
     1
 43
1.0
176
     1
 76
     1
176
     1
 77
     6
176
     1
 78
     2
176
     1
 67
     7
176
     1
 79
     3
176
     1
170
     0
176
     1
171
     0
176
     1
290
     0
176
     1
 93
        1
176
     1
 44
0.0
176
     1
173
     0
176
     1
  0
VISUALSTYLE
  5
30
102
{ACAD_REACTORS
330
2A
102
}
330
2A
100
AcDbVisualStyle
  2
3dWireframe
 70
     5
177
     2
291
     0
 71
     0
176
     1
 72
     2
176
     1
 73
     0
176
     1
 90
        0
176
     1
 40
-0.6
176
     1
 41
-30.0
176
     1
 62
     5
 63
     7
421
 16777215
176
     1
 74
     1
176
     1
 91
        4
176
     1
 64
     7
176
     1
 65
   257
176
     1
 75
     1
176
     1
175
     1
176
     1
 42
1.0
176
     1
 92
        0
176
     1
 66
   257
176
     1
 43
1.0
176
     1
 76
     1
176
     1
 77
     6
176
     1
 78
     2
176
     1
 67
     7
176
     1
 79
     5
176
     1
170
     0
176
     1
171
     0
176
     1
290
     0
176
     1
 93
        1
176
     1
 44
0.0
176
     1
173
     0
176
     1
  0
VISUALSTYLE
  5
32
102
{ACAD_REACTORS
330
2A
102
}
330
2A
100
AcDbVisualStyle
  2
Basic
 70
     7
177
     2
291
     1
 71
     1
176
     1
 72
     0
176
     1
 73
     1
176
     1
 90
        0
176
     1
 40
-0.6
176
     1
 41
-30.0
176
     1
 62
     5
 63
     7
421
 16777215
176
     1
 74
     0
176
     1
 91
        4
176
     1
 64
     7
176
     1
 65
   257
176
     1
 75
     1
176
     1
175
     1
176
     1
 42
1.0
176
     1
 92
        8
176
     1
 66
     7
176
     1
 43
1.0
176
     1
 76
     1
176
     1
 77
     6
176
     1
 78
     2
176
     1
 67
     7
176
     1
 79
     5
176
     1
170
     0
176
     1
171
     0
176
     1
290
     0
176
     1
 93
        1
176
     1
 44
0.0
176
     1
173
     0
176
     1
  0
VISUALSTYLE
  5
36
102
{ACAD_REACTORS
330
2A
102
}
330
2A
100
AcDbVisualStyle
  2
Brighten
 70
    12
177
     2
291
     1
 71
     2
176
     1
 72
     2
176
     1
 73
     0
176
     1
 90
        0
176
     1
 40
-0.6
176
     1
 41
-30.0
176
     1
 62
     5
 63
     7
421
 16777215
176
     1
 74
     1
176
     1
 91
        4
176
     1
 64
     7
176
     1
 65
   257
176
     1
 75
     1
176
     1
175
     1
176
     1
 42
1.0
176
     1
 92
        8
176
     1
 66
     7
176
     1
 43
1.0
176
     1
 76
     1
176
     1
 77
     6
176
     1
 78
     2
176
     1
 67
     7
176
     1
 79
     5
176
     1
170
     0
176
     1
171
     0
176
     1
290
     0
176
     1
 93
        1
176
     1
 44
50.0
176
     1
173
     0
176
     1
  0
VISUALSTYLE
  5
3A
102
{ACAD_REACTORS
330
2A
102
}
330
2A
100
AcDbVisualStyle
  2
ColorChange
 70
    16
177
     2
291
     1
 71
     2
176
     1
 72
     2
176
     1
 73
     3
176
     1
 90
        0
176
     1
 40
-0.6
176
     1
 41
-30.0
176
     1
 62
     5
 63
     8
421
  8421504
176
     1
 74
     1
176
     1
 91
        4
176
     1
 64
     7
176
     1
 65
   257
176
     1
 75
     1
176
     1
175
     1
176
     1
 42
1.0
176
     1
 92
        8
176
     1
 66
     8
424
  8421504
176
     1
 43
1.0
176
     1
 76
     1
176
     1
 77
     6
176
     1
 78
     2
176
     1
 67
     7
176
     1
 79
     5
176
     1
170
     0
176
     1
171
     0
176
     1
290
     0
176
     1
 93
        1
176
     1
 44
0.0
176
     1
173
     0
176
     1
  0
VISUALSTYLE
  5
34
102
{ACAD_REACTORS
330
2A
102
}
330
2A
100
AcDbVisualStyle
  2
Conceptual
 70
     9
177
     2
291
     0
 71
     3
176
     1
 72
     2
176
     1
 73
     0
176
     1
 90
        0
176
     1
 40
-0.6
176
     1
 41
-30.0
176
     1
 62
     5
 63
     7
421
 16777215
176
     1
 74
     2
176
     1
 91
        2
176
     1
 64
     7
176
     1
 65
   257
176
     1
 75
     1
176
     1
175
     1
176
     1
 42
40.0
176
     1
 92
        8
176
     1
 66
     7
176
     1
 43
1.0
176
     1
 76
     1
176
     1
 77
     6
176
     1
 78
     2
176
     1
 67
     7
176
     1
 79
     3
176
     1
170
     0
176
     1
171
     0
176
     1
290
     0
176
     1
 93
        1
176
     1
 44
0.0
176
     1
173
     0
176
     1
  0
VISUALSTYLE
  5
35
102
{ACAD_REACTORS
330
2A
102
}
330
2A
100
AcDbVisualStyle
  2
Dim
 70
    11
177
     2
291
     1
 71
     2
176
     1
 72
     2
176
     1
 73
     0
176
     1
 90
        0
176
     1
 40
-0.6
176
     1
 41
-30.0
176
     1
 62
     5
 63
     7
421
 16777215
176
     1
 74
     1
176
     1
 91
        4
176
     1
 64
     7
176
     1
 65
   257
176
     1
 75
     1
176
     1
175
     1
176
     1
 42
1.0
176
     1
 92
        8
176
     1
 66
     7
176
     1
 43
1.0
176
     1
 76
     1
176
     1
 77
     6
176
     1
 78
     2
176
     1
 67
     7
176
     1
 79
     5
176
     1
170
     0
176
     1
171
     0
176
     1
290
     0
176
     1
 93
        1
176
     1
 44
-50.0
176
     1
173
     0
176
     1
  0
VISUALSTYLE
  5
39
102
{ACAD_REACTORS
330
2A
102
}
330
2A
100
AcDbVisualStyle
  2
Facepattern
 70
    15
177
     2
291
     1
 71
     2
176
     1
 72
     2
176
     1
 73
     0
176
     1
 90
        0
176
     1
 40
-0.6
176
     1
 41
-30.0
176
     1
 62
     5
 63
     7
421
 16777215
176
     1
 74
     1
176
     1
 91
        4
176
     1
 64
     7
176
     1
 65
   257
176
     1
 75
     1
176
     1
175
     1
176
     1
 42
1.0
176
     1
 92
        8
176
     1
 66
     7
176
     1
 43
1.0
176
     1
 76
     1
176
     1
 77
     6
176
     1
 78
     2
176
     1
 67
     7
176
     1
 79
     5
176
     1
170
     0
176
     1
171
     0
176
     1
290
     0
176
     1
 93
        1
176
     1
 44
0.0
176
     1
173
     0
176
     1
  0
VISUALSTYLE
  5
2B
102
{ACAD_REACTORS
330
2A
102
}
330
2A
100
AcDbVisualStyle
  2
Flat
 70
     0
177
     2
291
     1
 71
     2
176
     1
 72
     1
176
     1
 73
     1
176
     1
 90
        2
176
     1
 40
-0.6
176
     1
 41
30.0
176
     1
 62
     5
 63
     7
421
 16777215
176
     1
 74
     0
176
     1
 91
        4
176
     1
 64
     7
176
     1
 65
   257
176
     1
 75
     1
176
     1
175
     1
176
     1
 42
1.0
176
     1
 92
        8
176
     1
 66
     7
176
     1
 43
1.0
176
     1
 76
     1
176
     1
 77
     6
176
     1
 78
     2
176
     1
 67
     7
176
     1
 79
     5
176
     1
170
     0
176
     1
171
     0
176
     1
290
     0
176
     1
 93
       13
176
     1
 44
0.0
176
     1
173
     0
176
     1
  0
VISUALSTYLE
  5
2C
102
{ACAD_REACTORS
330
2A
102
}
330
2A
100
AcDbVisualStyle
  2
FlatWithEdges
 70
     1
177
     2
291
     1
 71
     2
176
     1
 72
     1
176
     1
 73
     1
176
     1
 90
        2
176
     1
 40
-0.6
176
     1
 41
30.0
176
     1
 62
     5
 63
     7
421
 16777215
176
     1
 74
     1
176
     1
 91
        4
176
     1
 64
     7
176
     1
 65
   257
176
     1
 75
     1
176
     1
175
     1
176
     1
 42
1.0
176
     1
 92
        0
176
     1
 66
   257
176
     1
 43
1.0
176
     1
 76
     1
176
     1
 77
     6
176
     1
 78
     2
176
     1
 67
     7
176
     1
 79
     5
176
     1
170
     0
176
     1
171
     0
176
     1
290
     0
176
     1
 93
       13
176
     1
 44
0.0
176
     1
173
     0
176
     1
  0
VISUALSTYLE
  5
2D
102
{ACAD_REACTORS
330
2A
102
}
330
2A
100
AcDbVisualStyle
  2
Gouraud
 70
     2
177
     2
291
     1
 71
     2
176
     1
 72
     2
176
     1
 73
     1
176
     1
 90
        2
176
     1
 40
-0.6
176
     1
 41
30.0
176
     1
 62
     5
 63
     7
421
 16777215
176
     1
 74
     0
176
     1
 91
        4
176
     1
 64
     7
176
     1
 65
   257
176
     1
 75
     1
176
     1
175
     1
176
     1
 42
1.0
176
     1
 92
        0
176
     1
 66
     7
176
     1
 43
1.0
176
     1
 76
     1
176
     1
 77
     6
176
     1
 78
     2
176
     1
 67
     7
176
     1
 79
     5
176
     1
170
     0
176
     1
171
     0
176
     1
290
     0
176
     1
 93
       13
176
     1
 44
0.0
176
     1
173
     0
176
     1
  0
VISUALSTYLE
  5
2E
102
{ACAD_REACTORS
330
2A
102
}
330
2A
100
AcDbVisualStyle
  2
GouraudWithEdges
 70
     3
177
     2
291
     1
 71
     2
176
     1
 72
     2
176
     1
 73
     1
176
     1
 90
        2
176
     1
 40
-0.6
176
     1
 41
30.0
176
     1
 62
     5
 63
     7
421
 16777215
176
     1
 74
     1
176
     1
 91
        4
176
     1
 64
     7
176
     1
 65
   257
176
     1
 75
     1
176
     1
175
     1
176
     1
 42
1.0
176
     1
 92
        0
176
     1
 66
   257
176
     1
 43
1.0
176
     1
 76
     1
176
     1
 77
     6
176
     1
 78
     2
176
     1
 67
     7
176
     1
 79
     5
176
     1
170
     0
176
     1
171
     0
176
     1
290
     0
176
     1
 93
       13
176
     1
 44
0.0
176
     1
173
     0
176
     1
  0
VISUALSTYLE
  5
38
102
{ACAD_REACTORS
330
2A
102
}
330
2A
100
AcDbVisualStyle
  2
Linepattern
 70
    14
177
     2
291
     1
 71
     2
176
     1
 72
     2
176
     1
 73
     0
176
     1
 90
        0
176
     1
 40
-0.6
176
     1
 41
-30.0
176
     1
 62
     5
 63
     7
421
 16777215
176
     1
 74
     1
176
     1
 91
        4
176
     1
 64
     7
176
     1
 65
   257
176
     1
 75
     7
176
     1
175
     7
176
     1
 42
1.0
176
     1
 92
        8
176
     1
 66
     7
176
     1
 43
1.0
176
     1
 76
     1
176
     1
 77
     6
176
     1
 78
     2
176
     1
 67
     7
176
     1
 79
     5
176
     1
170
     0
176
     1
171
     0
176
     1
290
     0
176
     1
 93
        1
176
     1
 44
0.0
176
     1
173
     0
176
     1
  0
VISUALSTYLE
  5
33
102
{ACAD_REACTORS
330
2A
102
}
330
2A
100
AcDbVisualStyle
  2
Realistic
 70
     8
177
     2
291
     0
 71
     2
176
     1
 72
     2
176
     1
 73
     0
176
     1
 90
        0
176
     1
 40
-0.6
176
     1
 41
-30.0
176
     1
 62
     5
 63
     7
421
 16777215
176
     1
 74
     1
176
     1
 91
        0
176
     1
 64
     7
176
     1
 65
   257
176
     1
 75
     1
176
     1
175
     1
176
     1
 42
1.0
176
     1
 92
        8
176
     1
 66
     8
424
  7895160
176
     1
 43
1.0
176
     1
 76
     1
176
     1
 77
     6
176
     1
 78
     2
176
     1
 67
     7
176
     1
 79
     5
176
     1
170
     0
176
     1
171
     0
176
     1
290
     0
176
     1
 93
       13
176
     1
 44
0.0
176
     1
173
     0
176
     1
  0
VISUALSTYLE
  5
37
102
{ACAD_REACTORS
330
2A
102
}
330
2A
100
AcDbVisualStyle
  2
Thicken
 70
    13
177
     2
291
     1
 71
     2
176
     1
 72
     2
176
     1
 73
     0
176
     1
 90
        0
176
     1
 40
-0.6
176
     1
 41
-30.0
176
     1
 62
     5
 63
     7
421
 16777215
176
     1
 74
     1
176
     1
 91
        4
176
     1
 64
     7
176
     1
 65
   257
176
     1
 75
     1
176
     1
175
     1
176
     1
 42
1.0
176
     1
 92
       12
176
     1
 66
     7
176
     1
 43
1.0
176
     1
 76
     1
176
     1
 77
     6
176
     1
 78
     2
176
     1
 67
     7
176
     1
 79
     5
176
     1
170
     0
176
     1
171
     0
176
     1
290
     0
176
     1
 93
        1
176
     1
 44
0.0
176
     1
173
     0
176
     1
  0
ENDSEC
  0
EOF
