  0
SECTION
  2
HEADER
  9
$ACADVER
  1
AC1024
  9
$ACADMAINTVER
 70
     6
  9
$DWGCODEPAGE
  3
ANSI_932
  9
$INSBASE
 10
0.0
 20
0.0
 30
0.0
  9
$EXTMIN
 10
-6300.0
 20
-4455.0
 30
0.0
  9
$EXTMAX
 10
6300.0
 20
4455.0
 30
0.0
  9
$LIMMIN
 10
-6300.0
 20
-4455.0
  9
$LIMMAX
 10
6300.0
 20
4455.0
  9
$ORTHOMODE
 70
     0
  9
$REGENMODE
 70
     1
  9
$FILLMODE
 70
     1
  9
$QTEXTMODE
 70
     0
  9
$MIRRTEXT
 70
     1
  9
$LTSCALE
 40
30.0
  9
$ATTMODE
 70
     1
  9
$TEXTSIZE
 40
2.5
  9
$TRACEWID
 40
1.0
  9
$TEXTSTYLE
  7
Standard
  9
$CLAYER
  8
0
  9
$CELTYPE
  6
ByLayer
  9
$CECOLOR
 62
   256
  9
$CELTSCALE
 40
1.0
  9
$DISPSILH
 70
     0
  9
$DIMSCALE
 40
1.0
  9
$DIMASZ
 40
2.5
  9
$DIMEXO
 40
0.625
  9
$DIMDLI
 40
3.75
  9
$DIMRND
 40
0.0
  9
$DIMDLE
 40
0.0
  9
$DIMEXE
 40
1.25
  9
$DIMTP
 40
0.0
  9
$DIMTM
 40
0.0
  9
$DIMTXT
 40
2.5
  9
$DIMCEN
 40
2.5
  9
$DIMTSZ
 40
0.0
  9
$DIMTOL
 70
     0
  9
$DIMLIM
 70
     0
  9
$DIMTIH
 70
     0
  9
$DIMTOH
 70
     0
  9
$DIMSE1
 70
     0
  9
$DIMSE2
 70
     0
  9
$DIMTAD
 70
     1
  9
$DIMZIN
 70
     8
  9
$DIMBLK
  1

  9
$DIMASO
 70
     1
  9
$DIMSHO
 70
     1
  9
$DIMPOST
  1

  9
$DIMAPOST
  1

  9
$DIMALT
 70
     0
  9
$DIMALTD
 70
     3
  9
$DIMALTF
 40
0.03937007874016
  9
$DIMLFAC
 40
1.0
  9
$DIMTOFL
 70
     1
  9
$DIMTVP
 40
0.0
  9
$DIMTIX
 70
     0
  9
$DIMSOXD
 70
     0
  9
$DIMSAH
 70
     0
  9
$DIMBLK1
  1

  9
$DIMBLK2
  1

  9
$DIMSTYLE
  2
ISO-25
  9
$DIMCLRD
 70
     0
  9
$DIMCLRE
 70
     0
  9
$DIMCLRT
 70
     0
  9
$DIMTFAC
 40
1.0
  9
$DIMGAP
 40
0.625
  9
$DIMJUST
 70
     0
  9
$DIMSD1
 70
     0
  9
$DIMSD2
 70
     0
  9
$DIMTOLJ
 70
     0
  9
$DIMTZIN
 70
     8
  9
$DIMALTZ
 70
     0
  9
$DIMALTTZ
 70
     0
  9
$DIMUPT
 70
     0
  9
$DIMDEC
 70
     2
  9
$DIMTDEC
 70
     2
  9
$DIMALTU
 70
     2
  9
$DIMALTTD
 70
     3
  9
$DIMTXSTY
  7
Standard
  9
$DIMAUNIT
 70
     0
  9
$DIMADEC
 70
     0
  9
$DIMALTRND
 40
0.0
  9
$DIMAZIN
 70
     0
  9
$DIMDSEP
 70
    44
  9
$DIMATFIT
 70
     3
  9
$DIMFRAC
 70
     0
  9
$DIMLDRBLK
  1

  9
$DIMLUNIT
 70
     2
  9
$DIMLWD
 70
    -2
  9
$DIMLWE
 70
    -2
  9
$DIMTMOVE
 70
     0
  9
$DIMFXL
 40
1.0
  9
$DIMFXLON
 70
     0
  9
$DIMJOGANG
 40
0.7853981633974483
  9
$DIMTFILL
 70
     0
  9
$DIMTFILLCLR
 70
     0
  9
$DIMARCSYM
 70
     0
  9
$DIMLTYPE
  6

  9
$DIMLTEX1
  6

  9
$DIMLTEX2
  6

  9
$DIMTXTDIRECTION
 70
     0
  9
$LUNITS
 70
     2
  9
$LUPREC
 70
     4
  9
$SKETCHINC
 40
1.0
  9
$FILLETRAD
 40
10.0
  9
$AUNITS
 70
     0
  9
$AUPREC
 70
     0
  9
$MENU
  1
.
  9
$ELEVATION
 40
0.0
  9
$PELEVATION
 40
0.0
  9
$THICKNESS
 40
0.0
  9
$LIMCHECK
 70
     0
  9
$CHAMFERA
 40
10.0
  9
$CHAMFERB
 40
10.0
  9
$CHAMFERC
 40
20.0
  9
$CHAMFERD
 40
0.0
  9
$SKPOLY
 70
     0
  9
$TDCREATE
 40
2457914.530722141
  9
$TDUCREATE
 40
2457914.155722141
  9
$TDUPDATE
 40
2457914.530722153
  9
$TDUUPDATE
 40
2457914.155722153
  9
$TDINDWG
 40
0.0000000116
  9
$TDUSRTIMER
 40
0.0000000116
  9
$USRTIMER
 70
     1
  9
$ANGBASE
 50
0.0
  9
$ANGDIR
 70
     0
  9
$PDMODE
 70
     0
  9
$PDSIZE
 40
0.0
  9
$PLINEWID
 40
0.0
  9
$SPLFRAME
 70
     0
  9
$SPLINETYPE
 70
     6
  9
$SPLINESEGS
 70
     8
  9
$HANDSEED
  5
2A4
  9
$SURFTAB1
 70
     6
  9
$SURFTAB2
 70
     6
  9
$SURFTYPE
 70
     6
  9
$SURFU
 70
     6
  9
$SURFV
 70
     6
  9
$UCSBASE
  2

  9
$UCSNAME
  2

  9
$UCSORG
 10
0.0
 20
0.0
 30
0.0
  9
$UCSXDIR
 10
1.0
 20
0.0
 30
0.0
  9
$UCSYDIR
 10
0.0
 20
1.0
 30
0.0
  9
$UCSORTHOREF
  2

  9
$UCSORTHOVIEW
 70
     0
  9
$UCSORGTOP
 10
0.0
 20
0.0
 30
0.0
  9
$UCSORGBOTTOM
 10
0.0
 20
0.0
 30
0.0
  9
$UCSORGLEFT
 10
0.0
 20
0.0
 30
0.0
  9
$UCSORGRIGHT
 10
0.0
 20
0.0
 30
0.0
  9
$UCSORGFRONT
 10
0.0
 20
0.0
 30
0.0
  9
$UCSORGBACK
 10
0.0
 20
0.0
 30
0.0
  9
$PUCSBASE
  2

  9
$PUCSNAME
  2

  9
$PUCSORG
 10
0.0
 20
0.0
 30
0.0
  9
$PUCSXDIR
 10
1.0
 20
0.0
 30
0.0
  9
$PUCSYDIR
 10
0.0
 20
1.0
 30
0.0
  9
$PUCSORTHOREF
  2

  9
$PUCSORTHOVIEW
 70
     0
  9
$PUCSORGTOP
 10
0.0
 20
0.0
 30
0.0
  9
$PUCSORGBOTTOM
 10
0.0
 20
0.0
 30
0.0
  9
$PUCSORGLEFT
 10
0.0
 20
0.0
 30
0.0
  9
$PUCSORGRIGHT
 10
0.0
 20
0.0
 30
0.0
  9
$PUCSORGFRONT
 10
0.0
 20
0.0
 30
0.0
  9
$PUCSORGBACK
 10
0.0
 20
0.0
 30
0.0
  9
$USERI1
 70
     0
  9
$USERI2
 70
     0
  9
$USERI3
 70
     0
  9
$USERI4
 70
     0
  9
$USERI5
 70
     0
  9
$USERR1
 40
0.0
  9
$USERR2
 40
0.0
  9
$USERR3
 40
0.0
  9
$USERR4
 40
0.0
  9
$USERR5
 40
0.0
  9
$WORLDVIEW
 70
     1
  9
$SHADEDGE
 70
     3
  9
$SHADEDIF
 70
    70
  9
$TILEMODE
 70
     1
  9
$MAXACTVP
 70
    64
  9
$PINSBASE
 10
0.0
 20
0.0
 30
0.0
  9
$PLIMCHECK
 70
     0
  9
$PEXTMIN
 10
1.000000000000000E+20
 20
1.000000000000000E+20
 30
1.000000000000000E+20
  9
$PEXTMAX
 10
-1.000000000000000E+20
 20
-1.000000000000000E+20
 30
-1.000000000000000E+20
  9
$PLIMMIN
 10
0.0
 20
0.0
  9
$PLIMMAX
 10
420.0
 20
297.0
  9
$UNITMODE
 70
     0
  9
$VISRETAIN
 70
     1
  9
$PLINEGEN
 70
     0
  9
$PSLTSCALE
 70
     1
  9
$TREEDEPTH
 70
  3020
  9
$CMLSTYLE
  2
Standard
  9
$CMLJUST
 70
     0
  9
$CMLSCALE
 40
20.0
  9
$PROXYGRAPHICS
 70
     1
  9
$MEASUREMENT
 70
     1
  9
$CELWEIGHT
370
    -1
  9
$ENDCAPS
280
     0
  9
$JOINSTYLE
280
     0
  9
$LWDISPLAY
290
     0
  9
$INSUNITS
 70
     4
  9
$HYPERLINKBASE
  1

  9
$STYLESHEET
  1

  9
$XEDIT
290
     1
  9
$CEPSNTYPE
380
     0
  9
$PSTYLEMODE
290
     1
  9
$FINGERPRINTGUID
  2
{13F23616-C437-4FBE-BF0E-FDAB455A7455}
  9
$VERSIONGUID
  2
{FAEB1C32-E019-11D5-929B-00C0DF256EC4}
  9
$EXTNAMES
290
     1
  9
$PSVPSCALE
 40
0.0
  9
$OLESTARTUP
290
     0
  9
$SORTENTS
280
   127
  9
$INDEXCTL
280
     0
  9
$HIDETEXT
280
     1
  9
$XCLIPFRAME
280
     2
  9
$HALOGAP
280
     0
  9
$OBSCOLOR
 70
   257
  9
$OBSLTYPE
280
     0
  9
$INTERSECTIONDISPLAY
280
     0
  9
$INTERSECTIONCOLOR
 70
   257
  9
$DIMASSOC
280
     2
  9
$PROJECTNAME
  1

  9
$CAMERADISPLAY
290
     0
  9
$LENSLENGTH
 40
50.0
  9
$CAMERAHEIGHT
 40
0.0
  9
$STEPSPERSEC
 40
2.0
  9
$STEPSIZE
 40
6.0
  9
$3DDWFPREC
 40
2.0
  9
$PSOLWIDTH
 40
5.0
  9
$PSOLHEIGHT
 40
80.0
  9
$LOFTANG1
 40
1.570796326794897
  9
$LOFTANG2
 40
1.570796326794897
  9
$LOFTMAG1
 40
0.0
  9
$LOFTMAG2
 40
0.0
  9
$LOFTPARAM
 70
     7
  9
$LOFTNORMALS
280
     1
  9
$LATITUDE
 40
37.795
  9
$LONGITUDE
 40
-122.394
  9
$NORTHDIRECTION
 40
0.0
  9
$TIMEZONE
 70
 -8000
  9
$LIGHTGLYPHDISPLAY
280
     1
  9
$TILEMODELIGHTSYNCH
280
     1
  9
$SOLIDHIST
280
     1
  9
$SHOWHIST
280
     1
  9
$DWFFRAME
280
     2
  9
$DGNFRAME
280
     2
  9
$REALWORLDSCALE
290
     1
  9
$INTERFERECOLOR
 62
   256
  9
$CSHADOW
280
     0
  9
$SHADOWPLANELOCATION
 40
0.0
  0
ENDSEC
  0
SECTION
  2
CLASSES
  0
CLASS
  1
ACDBDICTIONARYWDFLT
  2
AcDbDictionaryWithDefault
  3
ObjectDBX Classes
 90
        0
 91
        4
280
     0
281
     0
  0
CLASS
  1
VISUALSTYLE
  2
AcDbVisualStyle
  3
ObjectDBX Classes
 90
     4095
 91
        4
280
     0
281
     0
  0
CLASS
  1
MATERIAL
  2
AcDbMaterial
  3
ObjectDBX Classes
 90
     1153
 91
        4
280
     0
281
     0
  0
ENDSEC
  0
SECTION
  2
TABLES
  0
TABLE
  2
VPORT
  5
8
330
0
100
AcDbSymbolTable
 70
     1
  0
VPORT
  5
29
330
8
100
AcDbSymbolTableRecord
100
AcDbViewportTableRecord
  2
*Active
 70
     0
 10
0.0
 20
0.0
 11
1.0
 21
1.0
 12
0.0
 22
0.0
 13
0.0
 23
0.0
 14
10.0
 24
10.0
 15
10.0
 25
10.0
 16
0.0
 26
0.0
 36
1.0
 17
0.0
 27
0.0
 37
0.0
 40
9801.0
 41
1.414141414141414
 42
50.0
 43
0.0
 44
0.0
 50
0.0
 51
0.0
 71
     0
 72
 10000
 73
     1
 74
     3
 75
     0
 76
     0
 77
     0
 78
     0
281
     0
 65
     1
110
0.0
120
0.0
130
0.0
111
1.0
121
0.0
131
0.0
112
0.0
122
1.0
132
0.0
 79
     0
146
0.0
 60
     3
 61
     5
292
     1
282
     1
141
0.0
142
0.0
 63
   250
  0
ENDTAB
  0
TABLE
  2
LTYPE
  5
5
330
0
100
AcDbSymbolTable
 70
     4
  0
LTYPE
  5
14
330
5
100
AcDbSymbolTableRecord
100
AcDbLinetypeTableRecord
  2
ByBlock
 70
     0
  3

 72
    65
 73
     0
 40
0.0
  0
LTYPE
  5
15
330
5
100
AcDbSymbolTableRecord
100
AcDbLinetypeTableRecord
  2
ByLayer
 70
     0
  3

 72
    65
 73
     0
 40
0.0
  0
LTYPE
  5
16
330
5
100
AcDbSymbolTableRecord
100
AcDbLinetypeTableRecord
  2
Continuous
 70
     0
  3
Solid line
 72
    65
 73
     0
 40
0.0
  0
LTYPE
  5
3F
330
5
100
AcDbSymbolTableRecord
100
AcDbLinetypeTableRecord
  2
JWW_HOJO
 70
     0
  3
  -   -   -   -   -   -   -   - 
 72
    65
 73
     2
 40
1.693333333333333
 49
-1.27
 74
     0
 49
0.4233333333333333
 74
     0
  0
LTYPE
  5
40
330
5
100
AcDbSymbolTableRecord
100
AcDbLinetypeTableRecord
  2
JWW_CENTER1
 70
     0
  3
-----  --  ----------  --  -----
 72
    65
 73
     4
 40
6.773333333333333
 49
4.233333333333333
 74
     0
 49
-0.8466666666666667
 74
     0
 49
0.8466666666666667
 74
     0
 49
-0.8466666666666667
 74
     0
  0
LTYPE
  5
41
330
5
100
AcDbSymbolTableRecord
100
AcDbLinetypeTableRecord
  2
JWW_DASHED2
 70
     0
  3
--    ----    ----    ----    --
 72
    65
 73
     2
 40
3.386666666666667
 49
1.693333333333333
 74
     0
 49
-1.693333333333333
 74
     0
  0
ENDTAB
  0
TABLE
  2
LAYER
  5
2
330
0
100
AcDbSymbolTable
 70
    13
  0
LAYER
  5
10
330
2
100
AcDbSymbolTableRecord
100
AcDbLayerTableRecord
  2
0
 70
     0
 62
     7
  6
Continuous
370
    -3
390
F
347
3E
  0
LAYER
  5
42
330
2
100
AcDbSymbolTableRecord
100
AcDbLayerTableRecord
  2
F-0_補助線
 70
     0
 62
     7
  6
Continuous
370
    -3
390
F
347
3E
  0
LAYER
  5
43
330
2
100
AcDbSymbolTableRecord
100
AcDbLayerTableRecord
  2
F-1_枠
 70
     0
 62
     7
  6
Continuous
370
    -3
390
F
347
3E
  0
LAYER
  5
44
330
2
100
AcDbSymbolTableRecord
100
AcDbLayerTableRecord
  2
0-A_文字
 70
     0
 62
     7
  6
Continuous
370
    -3
390
F
347
3E
  0
LAYER
  5
45
330
2
100
AcDbSymbolTableRecord
100
AcDbLayerTableRecord
  2
F-A_文字
 70
     0
 62
     7
  6
Continuous
370
    -3
390
F
347
3E
  0
LAYER
  5
46
330
2
100
AcDbSymbolTableRecord
100
AcDbLayerTableRecord
  2
0-0_補助線
 70
     0
 62
     7
  6
Continuous
370
    -3
390
F
347
3E
  0
LAYER
  5
47
330
2
100
AcDbSymbolTableRecord
100
AcDbLayerTableRecord
  2
0-1_通り芯
 70
     0
 62
     7
  6
Continuous
370
    -3
390
F
347
3E
  0
LAYER
  5
48
330
2
100
AcDbSymbolTableRecord
100
AcDbLayerTableRecord
  2
0-7_金物
 70
     0
 62
     7
  6
Continuous
370
    -3
390
F
347
3E
  0
LAYER
  5
49
330
2
100
AcDbSymbolTableRecord
100
AcDbLayerTableRecord
  2
0-B_寸法
 70
     0
 62
     7
  6
Continuous
370
    -3
390
F
347
3E
  0
LAYER
  5
4A
330
2
100
AcDbSymbolTableRecord
100
AcDbLayerTableRecord
  2
0-6_扉
 70
     0
 62
     7
  6
Continuous
370
    -3
390
F
347
3E
  0
LAYER
  5
4B
330
2
100
AcDbSymbolTableRecord
100
AcDbLayerTableRecord
  2
0-C_ハッチ
 70
     0
 62
     7
  6
Continuous
370
    -3
390
F
347
3E
  0
LAYER
  5
4C
330
2
100
AcDbSymbolTableRecord
100
AcDbLayerTableRecord
  2
0-4_枠
 70
     0
 62
     7
  6
Continuous
370
    -3
390
F
347
3E
  0
LAYER
  5
4D
330
2
100
AcDbSymbolTableRecord
100
AcDbLayerTableRecord
  2
0-3_仕上げ
 70
     0
 62
     7
  6
Continuous
370
    -3
390
F
347
3E
  0
ENDTAB
  0
TABLE
  2
STYLE
  5
3
330
0
100
AcDbSymbolTable
 70
     1
  0
STYLE
  5
11
330
3
100
AcDbSymbolTableRecord
100
AcDbTextStyleTableRecord
  2
Standard
 70
     0
 40
0.0
 41
1.0
 50
0.0
 71
     0
 42
2.5
  3
txt
  4

  0
ENDTAB
  0
TABLE
  2
VIEW
  5
6
330
0
100
AcDbSymbolTable
 70
     0
  0
ENDTAB
  0
TABLE
  2
UCS
  5
7
330
0
100
AcDbSymbolTable
 70
     0
  0
ENDTAB
  0
TABLE
  2
APPID
  5
9
330
0
100
AcDbSymbolTable
 70
     1
  0
APPID
  5
12
330
9
100
AcDbSymbolTableRecord
100
AcDbRegAppTableRecord
  2
ACAD
 70
     0
  0
ENDTAB
  0
TABLE
  2
DIMSTYLE
  5
A
330
0
100
AcDbSymbolTable
 70
     1
100
AcDbDimStyleTable
  0
DIMSTYLE
105
27
330
A
100
AcDbSymbolTableRecord
100
AcDbDimStyleTableRecord
  2
ISO-25
 70
     0
 41
2.5
 42
0.625
 43
3.75
 44
1.25
 73
     0
 74
     0
 77
     1
 78
     8
140
2.5
141
2.5
143
0.03937007874016
147
0.625
171
     3
172
     1
178
     0
271
     2
272
     2
274
     3
278
    44
283
     0
284
     8
340
11
  0
ENDTAB
  0
TABLE
  2
BLOCK_RECORD
  5
1
330
0
100
AcDbSymbolTable
 70
     1
  0
BLOCK_RECORD
  5
1F
330
1
100
AcDbSymbolTableRecord
100
AcDbBlockTableRecord
  2
*Model_Space
340
22
 70
     0
280
     1
281
     0
  0
BLOCK_RECORD
  5
1B
330
1
100
AcDbSymbolTableRecord
100
AcDbBlockTableRecord
  2
*Paper_Space
340
1E
 70
     0
280
     1
281
     0
  0
BLOCK_RECORD
  5
23
330
1
100
AcDbSymbolTableRecord
100
AcDbBlockTableRecord
  2
*Paper_Space0
340
26
 70
     0
280
     1
281
     0
  0
ENDTAB
  0
ENDSEC
  0
SECTION
  2
BLOCKS
  0
BLOCK
  5
20
330
1F
100
AcDbEntity
  8
0
100
AcDbBlockBegin
  2
*Model_Space
 70
     0
 10
0.0
 20
0.0
 30
0.0
  3
*Model_Space
  1

  0
ENDBLK
  5
21
330
1F
100
AcDbEntity
  8
0
100
AcDbBlockEnd
  0
BLOCK
  5
1C
330
1B
100
AcDbEntity
 67
     1
  8
0
100
AcDbBlockBegin
  2
*Paper_Space
 70
     0
 10
0.0
 20
0.0
 30
0.0
  3
*Paper_Space
  1

  0
ENDBLK
  5
1D
330
1B
100
AcDbEntity
 67
     1
  8
0
100
AcDbBlockEnd
  0
BLOCK
  5
24
330
23
100
AcDbEntity
  8
0
100
AcDbBlockBegin
  2
*Paper_Space0
 70
     0
 10
0.0
 20
0.0
 30
0.0
  3
*Paper_Space0
  1

  0
ENDBLK
  5
25
330
23
100
AcDbEntity
  8
0
100
AcDbBlockEnd
  0
ENDSEC
  0
SECTION
  2
ENTITIES
  0
LINE
  5
4E
330
1F
100
AcDbEntity
  8
F-0_補助線
  6
JWW_HOJO
 62
   120
370
     5
100
AcDbLine
 10
-6140.081333436773
 20
-4455.0
 30
0.0
 11
-6140.081333436773
 21
4424.999604096284
 31
0.0
  0
LINE
  5
4F
330
1F
100
AcDbEntity
  8
F-0_補助線
  6
JWW_HOJO
 62
   120
370
     5
100
AcDbLine
 10
-6140.081333436773
 20
4424.999604096284
 30
0.0
 11
6159.917676803936
 21
4424.999604096284
 31
0.0
  0
LINE
  5
50
330
1F
100
AcDbEntity
  8
F-0_補助線
  6
JWW_HOJO
 62
   120
370
     5
100
AcDbLine
 10
6159.917676803936
 20
4424.999604096284
 30
0.0
 11
6159.917676803936
 21
-4455.0
 31
0.0
  0
LINE
  5
51
330
1F
100
AcDbEntity
  8
F-0_補助線
  6
JWW_HOJO
 62
   120
370
     5
100
AcDbLine
 10
6159.917676803936
 20
-4455.0
 30
0.0
 11
-6140.081333436773
 21
-4455.0
 31
0.0
  0
LINE
  5
52
330
1F
100
AcDbEntity
  8
F-0_補助線
  6
JWW_HOJO
 62
     7
370
     9
100
AcDbLine
 10
1009.918254163523
 20
-3795.000003092998
 30
0.0
 11
1009.918254163523
 21
-4195.000008247994
 31
0.0
  0
LINE
  5
53
330
1F
100
AcDbEntity
  8
F-0_補助線
  6
JWW_HOJO
 62
     7
370
     9
100
AcDbLine
 10
509.9185840832865
 20
-3795.000003092998
 30
0.0
 11
509.9185840832865
 21
-4195.000008247994
 31
0.0
  0
LINE
  5
54
330
1F
100
AcDbEntity
  8
F-1_枠
  6
Continuous
 62
   200
370
    20
100
AcDbLine
 10
5859.917429364114
 20
4174.999769056166
 30
0.0
 11
5859.917429364114
 21
-4205.000164959882
 31
0.0
  0
LINE
  5
55
330
1F
100
AcDbEntity
  8
F-1_枠
  6
Continuous
 62
   200
370
    20
100
AcDbLine
 10
-5840.081317971782
 20
4174.999769056166
 30
0.0
 11
-5840.081317971782
 21
-4205.000164959882
 31
0.0
  0
LINE
  5
56
330
1F
100
AcDbEntity
  8
F-1_枠
  6
Continuous
 62
   200
370
    20
100
AcDbLine
 10
5859.917429364114
 20
-4205.000002577498
 30
0.0
 11
-5840.081085996952
 21
-4205.000002577498
 31
0.0
  0
LINE
  5
57
330
1F
100
AcDbEntity
  8
F-1_枠
  6
Continuous
 62
   200
370
    20
100
AcDbLine
 10
-5830.081323642279
 20
4174.999769056166
 30
0.0
 11
-5830.081323642279
 21
-4205.000164959882
 31
0.0
  0
LINE
  5
58
330
1F
100
AcDbEntity
  8
F-1_枠
  6
Continuous
 62
   200
370
    20
100
AcDbLine
 10
-5835.081309208291
 20
4174.999769056166
 30
0.0
 11
-5835.081309208291
 21
-4205.000164959882
 31
0.0
  0
LINE
  5
59
330
1F
100
AcDbEntity
  8
F-1_枠
  6
Continuous
 62
   200
370
    20
100
AcDbLine
 10
5854.917165428304
 20
4174.999769056166
 30
0.0
 11
5854.917165428304
 21
-4205.000164959882
 31
0.0
  0
LINE
  5
5A
330
1F
100
AcDbEntity
  8
F-1_枠
  6
Continuous
 62
   200
370
    20
100
AcDbLine
 10
5849.917643811961
 20
4174.999769056166
 30
0.0
 11
5849.917643811961
 21
-4205.000164959882
 31
0.0
  0
LINE
  5
5B
330
1F
100
AcDbEntity
  8
F-1_枠
  6
Continuous
 62
   200
370
    20
100
AcDbLine
 10
5859.917429364114
 20
-4199.999993814004
 30
0.0
 11
-5840.081085996952
 21
-4199.999993814004
 31
0.0
  0
LINE
  5
5C
330
1F
100
AcDbEntity
  8
F-1_枠
  6
Continuous
 62
   200
370
    20
100
AcDbLine
 10
5859.917429364114
 20
-4195.000008247994
 30
0.0
 11
-5840.081085996952
 21
-4195.000008247994
 31
0.0
  0
LINE
  5
5D
330
1F
100
AcDbEntity
  8
F-1_枠
  6
Continuous
 62
   200
370
    20
100
AcDbLine
 10
4349.917891251784
 20
-3795.000003092998
 30
0.0
 11
4349.917891251784
 21
-4195.000008247994
 31
0.0
  0
LINE
  5
5E
330
1F
100
AcDbEntity
  8
F-1_枠
  6
Continuous
 62
   200
370
    20
100
AcDbLine
 10
2849.917396372139
 20
-3795.000003092998
 30
0.0
 11
2849.917396372139
 21
-4195.000008247994
 31
0.0
  0
LINE
  5
5F
330
1F
100
AcDbEntity
  8
F-1_枠
  6
Continuous
 62
   200
370
    20
100
AcDbLine
 10
9.918542843316231
 20
-3795.000003092998
 30
0.0
 11
9.918542843316231
 21
-4195.000008247994
 31
0.0
  0
LINE
  5
60
330
1F
100
AcDbEntity
  8
F-1_枠
  6
Continuous
 62
   200
370
    20
100
AcDbLine
 10
9.918542843316231
 20
-3994.999936078046
 30
0.0
 11
5849.917643811961
 21
-3995.005364289155
 31
0.0
  0
LINE
  5
61
330
1F
100
AcDbEntity
  8
F-1_枠
  6
Continuous
 62
   200
370
    20
100
AcDbLine
 10
-5840.081085996952
 20
4174.999769056166
 30
0.0
 11
5859.917429364114
 21
4174.999769056166
 31
0.0
  0
LINE
  5
62
330
1F
100
AcDbEntity
  8
F-1_枠
  6
Continuous
 62
   200
370
    20
100
AcDbLine
 10
-5840.081085996952
 20
4164.999983504013
 30
0.0
 11
5859.917429364114
 21
4164.999983504013
 31
0.0
  0
LINE
  5
63
330
1F
100
AcDbEntity
  8
F-1_枠
  6
Continuous
 62
   200
370
    20
100
AcDbLine
 10
-5840.081085996952
 20
4169.999505120355
 30
0.0
 11
5859.917429364114
 21
4169.999505120355
 31
0.0
  0
LINE
  5
64
330
1F
100
AcDbEntity
  8
F-0_補助線
  6
JWW_HOJO
 62
     7
370
     9
100
AcDbLine
 10
-5830.081323642279
 20
-3994.99993607839
 30
0.0
 11
9.918542843316231
 21
-3994.99993607839
 31
0.0
  0
LINE
  5
65
330
1F
100
AcDbEntity
  8
F-0_補助線
  6
JWW_HOJO
 62
     7
370
     9
100
AcDbLine
 10
-5830.081323642279
 20
-3904.99993607839
 30
0.0
 11
9.918542843316231
 21
-3904.99993607839
 31
0.0
  0
LINE
  5
66
330
1F
100
AcDbEntity
  8
F-0_補助線
  6
JWW_HOJO
 62
     7
370
     9
100
AcDbLine
 10
-5830.081323642279
 20
-4084.99993607839
 30
0.0
 11
9.918542843316231
 21
-4084.99993607839
 31
0.0
  0
LINE
  5
67
330
1F
100
AcDbEntity
  8
F-0_補助線
  6
JWW_HOJO
 62
     7
370
     9
100
AcDbLine
 10
9.918408067688347
 20
-4139.999739777983
 30
0.0
 11
5849.917509036332
 21
-4140.005167989091
 31
0.0
  0
LINE
  5
68
330
1F
100
AcDbEntity
  8
F-0_補助線
  6
JWW_HOJO
 62
     7
370
     9
100
AcDbLine
 10
9.918491721639953
 20
-4049.999739778022
 30
0.0
 11
5849.917592690284
 21
-4050.005167989131
 31
0.0
  0
LINE
  5
69
330
1F
100
AcDbEntity
  8
F-0_補助線
  6
JWW_HOJO
 62
     7
370
     9
100
AcDbLine
 10
9.918593965360003
 20
-3939.99973721807
 30
0.0
 11
5849.917694934004
 21
-3940.005165429179
 31
0.0
  0
LINE
  5
6A
330
1F
100
AcDbEntity
  8
F-0_補助線
  6
JWW_HOJO
 62
     7
370
     9
100
AcDbLine
 10
9.918677619311609
 20
-3849.999737218109
 30
0.0
 11
5849.917778587956
 21
-3850.005165429218
 31
0.0
  0
LINE
  5
6B
330
1F
100
AcDbEntity
  8
F-0_補助線
  6
JWW_HOJO
 62
     7
370
     9
100
AcDbLine
 10
2939.917396372139
 20
-3795.000003092998
 30
0.0
 11
2939.917396372139
 21
-4195.000008247994
 31
0.0
  0
LINE
  5
6C
330
1F
100
AcDbEntity
  8
F-0_補助線
  6
JWW_HOJO
 62
     7
370
     9
100
AcDbLine
 10
99.91854284331623
 20
-3795.000003092998
 30
0.0
 11
99.91854284331623
 21
-4195.000008247994
 31
0.0
  0
LINE
  5
6D
330
1F
100
AcDbEntity
  8
F-0_補助線
  6
JWW_HOJO
 62
     7
370
     9
100
AcDbLine
 10
4439.917891251784
 20
-3795.000003092998
 30
0.0
 11
4439.917891251784
 21
-4195.000008247994
 31
0.0
  0
LINE
  5
6E
330
1F
100
AcDbEntity
  8
F-1_枠
  6
Continuous
 62
   200
370
    20
100
AcDbLine
 10
5859.917429364114
 20
-3795.000003092998
 30
0.0
 11
-5840.081085996952
 21
-3795.000003092998
 31
0.0
  0
LINE
  5
6F
330
1F
100
AcDbEntity
  8
F-1_枠
  6
Continuous
 62
   200
370
    20
100
AcDbLine
 10
5859.917429364114
 20
-3790.000017526987
 30
0.0
 11
-5840.081085996952
 21
-3790.000017526987
 31
0.0
  0
LINE
  5
70
330
1F
100
AcDbEntity
  8
F-0_補助線
  6
JWW_HOJO
 62
     7
370
     9
100
AcDbLine
 10
-5087.628710189611
 20
-3795.000003092999
 30
0.0
 11
-5087.628710189611
 21
-4205.000164959882
 31
0.0
  0
LINE
  5
71
330
1F
100
AcDbEntity
  8
F-0_補助線
  6
JWW_HOJO
 62
     7
370
     9
100
AcDbLine
 10
-50.08145715668377
 20
-3795.000003092998
 30
0.0
 11
-50.08145715668377
 21
-4195.000008247994
 31
0.0
  0
LINE
  5
72
330
1F
100
AcDbEntity
  8
0-A_文字
  6
Continuous
 62
    92
370
    13
100
AcDbLine
 10
-5659.999495325861
 20
4000.00018145587
 30
0.0
 11
-5659.999495325861
 21
3730.00018145587
 31
0.0
  0
MTEXT
  5
73
330
1F
100
AcDbEntity
  8
F-0_補助線
  6
Continuous
 62
     7
370
     0
100
AcDbMText
 10
509.9185840832865
 20
-3950.199002252999
 30
0.0
 40
71.17657923900997
 41
525.0
 46
0.0
 71
     7
 72
     1
  1
{\fHGP明朝B|b1|i0|c128|p18;ＳＯＦＴＡＲＴ}
 73
     1
 44
1.0
  0
MTEXT
  5
74
330
1F
100
AcDbEntity
  8
F-0_補助線
  6
Continuous
 62
     7
370
     0
100
AcDbMText
 10
1110.209427605311
 20
-3946.734791872504
 30
0.0
 40
78.105
 41
615.0
 46
0.0
 71
     7
 72
     1
  1
{\fＭＳ ゴシック|b0|i0|c128|p49;建具納まり図}
 73
     1
 44
1.0
  0
MTEXT
  5
75
330
1F
100
AcDbEntity
  8
F-A_文字
  6
Continuous
 62
     7
370
     0
100
AcDbMText
 10
99.91854284331623
 20
-3887.139820871936
 30
0.0
 40
45.72
 41
180.0
 46
0.0
 71
     7
 72
     1
  1
{\fＭＳ ゴシック|b0|i0|c128|p49;図面名}
 73
     1
 44
1.0
  0
MTEXT
  5
76
330
1F
100
AcDbEntity
  8
F-A_文字
  6
Continuous
 62
     7
370
     0
100
AcDbMText
 10
2939.917396372139
 20
-3887.142460617774
 30
0.0
 40
45.72
 41
300.0
 46
0.0
 71
     7
 72
     1
  1
{\fＭＳ ゴシック|b0|i0|c128|p49;ＳＣＡＬＥ}
 73
     1
 44
1.0
  0
MTEXT
  5
77
330
1F
100
AcDbEntity
  8
F-A_文字
  6
Continuous
 62
     7
370
     0
100
AcDbMText
 10
4439.917891251784
 20
-3887.143854850754
 30
0.0
 40
45.72
 41
240.0
 46
0.0
 71
     7
 72
     1
  1
{\fＭＳ ゴシック|b0|i0|c128|p49;ＤＡＴＥ}
 73
     1
 44
1.0
  0
MTEXT
  5
78
330
1F
100
AcDbEntity
  8
F-A_文字
  6
Continuous
 62
     7
370
     0
100
AcDbMText
 10
2939.917396372139
 20
-4087.14246317786
 30
0.0
 40
45.72
 41
240.0
 46
0.0
 71
     7
 72
     1
  1
{\fＭＳ ゴシック|b0|i0|c128|p49;ＦＩＬＥ}
 73
     1
 44
1.0
  0
MTEXT
  5
79
330
1F
100
AcDbEntity
  8
F-A_文字
  6
Continuous
 62
     7
370
     0
100
AcDbMText
 10
4439.917891251784
 20
-4087.143857410839
 30
0.0
 40
45.72
 41
180.0
 46
0.0
 71
     7
 72
     1
  1
{\fＭＳ ゴシック|b0|i0|c128|p49;ＮＯ．}
 73
     1
 44
1.0
  0
MTEXT
  5
7A
330
1F
100
AcDbEntity
  8
F-A_文字
  6
Continuous
 62
     7
370
     0
100
AcDbMText
 10
1394.917396372138
 20
-4096.140669266149
 30
0.0
 40
45.72
 41
120.0
 46
0.0
 71
     7
 72
     1
  1
{\fＭＳ ゴシック|b0|i0|c128|p49;株式}
 73
     1
 44
1.0
  0
MTEXT
  5
7B
330
1F
100
AcDbEntity
  8
F-A_文字
  6
Continuous
 62
     7
370
     0
100
AcDbMText
 10
1604.917396372138
 20
-4164.281754523929
 30
0.0
 40
101.44125
 41
1065.0
 46
0.0
 71
     7
 72
     1
  1
{\fＭＳ ゴシック|b0|i0|c128|p49;ウッドワン・・・}
 73
     1
 44
1.0
  0
MTEXT
  5
7C
330
1F
100
AcDbEntity
  8
F-A_文字
  6
Continuous
 62
     7
370
     0
100
AcDbMText
 10
1394.917396372138
 20
-4168.140669266187
 30
0.0
 40
45.72
 41
120.0
 46
0.0
 71
     7
 72
     1
  1
{\fＭＳ ゴシック|b0|i0|c128|p49;会社}
 73
     1
 44
1.0
  0
MTEXT
  5
7D
330
1F
100
AcDbEntity
  8
F-A_文字
  6
Continuous
 62
     7
370
     0
100
AcDbMText
 10
5768.321977672939
 20
-4314.841419020919
 30
0.0
 40
68.58
 41
90.0
 46
0.0
 71
     7
 72
     1
  1
{\fＭＳ ゴシック|b0|i0|c128|p49;）}
 73
     1
 44
1.0
  0
MTEXT
  5
7E
330
1F
100
AcDbEntity
  8
F-A_文字
  6
Continuous
 62
     7
370
     0
100
AcDbMText
 10
5350.114617405298
 20
-4316.235443869856
 30
0.0
 40
68.58
 41
45.0
 46
0.0
 71
     7
 72
     1
  1
{\fＭＳ ゴシック|b0|i0|c128|p49;,}
 73
     1
 44
1.0
  0
MTEXT
  5
7F
330
1F
100
AcDbEntity
  8
F-A_文字
  6
Continuous
 62
     7
370
     0
100
AcDbMText
 10
5083.855928478601
 20
-4314.771967288282
 30
0.0
 40
74.295
 41
97.5
 46
0.0
 71
     7
 72
     1
  1
{\fＭＳ ゴシック|b0|i0|c128|p49;$y}
 73
     1
 44
1.0
  0
MTEXT
  5
80
330
1F
100
AcDbEntity
  8
F-A_文字
  6
Continuous
 62
     7
370
     0
100
AcDbMText
 10
5238.592649517422
 20
-4314.771967288282
 30
0.0
 40
74.295
 41
97.5
 46
0.0
 71
     7
 72
     1
  1
{\fＭＳ ゴシック|b0|i0|c128|p49;$m}
 73
     1
 44
1.0
  0
MTEXT
  5
81
330
1F
100
AcDbEntity
  8
F-A_文字
  6
Continuous
 62
     7
370
     0
100
AcDbMText
 10
5393.32938200033
 20
-4314.771967288282
 30
0.0
 40
74.295
 41
97.5
 46
0.0
 71
     7
 72
     1
  1
{\fＭＳ ゴシック|b0|i0|c128|p49;$d}
 73
     1
 44
1.0
  0
MTEXT
  5
82
330
1F
100
AcDbEntity
  8
F-A_文字
  6
Continuous
 62
     7
370
     0
100
AcDbMText
 10
5548.066114483239
 20
-4314.771967288282
 30
0.0
 40
74.295
 41
195.0
 46
0.0
 71
     7
 72
     1
  1
{\fＭＳ ゴシック|b0|i0|c128|p49;印刷}
 73
     1
 44
1.0
  0
MTEXT
  5
83
330
1F
100
AcDbEntity
  8
F-A_文字
  6
Continuous
 62
     7
370
     0
100
AcDbMText
 10
4943.952040816226
 20
-4319.023493567732
 30
0.0
 40
68.58
 41
90.0
 46
0.0
 71
     7
 72
     1
  1
{\fＭＳ ゴシック|b0|i0|c128|p49;（}
 73
     1
 44
1.0
  0
MTEXT
  5
84
330
1F
100
AcDbEntity
  8
F-A_文字
  6
Continuous
 62
     7
370
     0
100
AcDbMText
 10
5191.195810375571
 20
-4319.023493567732
 30
0.0
 40
68.58
 41
45.0
 46
0.0
 71
     7
 72
     1
  1
{\fＭＳ ゴシック|b0|i0|c128|p49;,}
 73
     1
 44
1.0
  0
LINE
  5
85
330
1F
100
AcDbEntity
  8
0-A_文字
  6
Continuous
 62
    92
370
    13
100
AcDbLine
 10
-5659.999495325861
 20
4000.00018145587
 30
0.0
 11
-2828.749495325865
 21
4000.00018145587
 31
0.0
  0
LINE
  5
86
330
1F
100
AcDbEntity
  8
0-A_文字
  6
Continuous
 62
    92
370
    13
100
AcDbLine
 10
-5659.999495325861
 20
3730.00018145587
 30
0.0
 11
-2828.749495325865
 21
3730.00018145587
 31
0.0
  0
LINE
  5
87
330
1F
100
AcDbEntity
  8
0-A_文字
  6
Continuous
 62
    92
370
    13
100
AcDbLine
 10
-2828.749495325865
 20
4000.00018145587
 30
0.0
 11
-2828.749495325865
 21
3730.00018145587
 31
0.0
  0
MTEXT
  5
88
330
1F
100
AcDbEntity
  8
0-A_文字
  6
Continuous
 62
    92
370
    13
100
AcDbMText
 10
-5626.249495325865
 20
3758.886967170156
 30
0.0
 40
147.7735714285714
 41
2715.0
 46
0.0
 71
     7
 72
     1
  1
{\fＭＳ ゴシック|b0|i0|c128|p49;アルシャルル　２枚引き違い戸}
 73
     1
 44
1.0
  0
LINE
  5
89
330
1F
100
AcDbEntity
  8
F-0_補助線
  6
JWW_HOJO
 62
     7
370
     9
100
AcDbLine
 10
3764.917643811961
 20
-3795.000003092998
 30
0.0
 11
3764.917643811961
 21
-4195.000008247994
 31
0.0
  0
MTEXT
  5
8A
330
1F
100
AcDbEntity
  8
F-A_文字
  6
Continuous
 62
     7
370
     0
100
AcDbMText
 10
3689.917643811961
 20
-3946.903115907308
 30
0.0
 40
76.19999999999999
 41
150.0
 46
0.0
 71
     7
 72
     1
  1
{\fＭＳ ゴシック|b0|i0|c128|p49;1/5}
 73
     1
 44
1.0
  0
MTEXT
  5
8B
330
1F
100
AcDbEntity
  8
F-A_文字
  6
Continuous
 62
     7
370
     9
100
AcDbMText
 10
5096.167700144058
 20
-4147.857012699985
 30
0.0
 40
74.295
 41
97.5
 46
0.0
 71
     7
 72
     1
  1
{\fＭＳ ゴシック|b0|i0|c128|p49;01}
 73
     1
 44
1.0
  0
MTEXT
  5
8C
330
1F
100
AcDbEntity
  8
0-A_文字
  6
Continuous
 62
     7
370
     9
100
AcDbMText
 10
-2486.19811266107
 20
2847.681822545304
 30
0.0
 40
91.44
 41
600.0
 46
0.0
 71
     7
 72
     1
  1
{\fＭＳ ゴシック|b0|i0|c128|p49;■横断面図}
 73
     1
 44
1.0
  0
LINE
  5
8D
330
1F
100
AcDbEntity
  8
0-0_補助線
  6
JWW_HOJO
 62
   120
370
     5
100
AcDbLine
 10
-2426.19811266107
 20
2336.961624593443
 30
0.0
 11
2506.034456028228
 21
2336.961624593443
 31
0.0
  0
LINE
  5
8E
330
1F
100
AcDbEntity
  8
0-0_補助線
  6
JWW_HOJO
 62
   120
370
     5
100
AcDbLine
 10
-2426.19811266107
 20
2108.961624593447
 30
0.0
 11
2506.034456028228
 21
2108.961624593447
 31
0.0
  0
LINE
  5
8F
330
1F
100
AcDbEntity
  8
0-1_通り芯
  6
JWW_CENTER1
 62
   120
370
     5
100
AcDbLine
 10
-2426.19811266107
 20
2222.961624593445
 30
0.0
 11
2506.034456028228
 21
2222.961624593445
 31
0.0
  0
LINE
  5
90
330
1F
100
AcDbEntity
  8
0-0_補助線
  6
JWW_HOJO
 62
   120
370
     5
100
AcDbLine
 10
2506.034456028228
 20
2741.961822545304
 30
0.0
 11
2506.034456028228
 21
983.9616245934465
 31
0.0
  0
LINE
  5
91
330
1F
100
AcDbEntity
  8
0-0_補助線
  6
JWW_HOJO
 62
   120
370
     5
100
AcDbLine
 10
-2426.19811266107
 20
2741.961822545304
 30
0.0
 11
-2426.19811266107
 21
1763.961624593446
 31
0.0
  0
ARC
  5
92
330
1F
100
AcDbEntity
  8
0-7_金物
  6
Continuous
 62
     7
370
     9
100
AcDbCircle
 10
-2216.948112651622
 20
2336.961624593443
 30
0.0
 40
65.25000001305268
100
AcDbArc
 50
136.3971810272986
 51
223.6028189727014
  0
ARC
  5
93
330
1F
100
AcDbEntity
  8
0-7_金物
  6
Continuous
 62
     7
370
     9
100
AcDbCircle
 10
-32.83145714723503
 20
2108.961624593447
 30
0.0
 40
65.25000001305268
100
AcDbArc
 50
136.3971810272986
 51
223.6028189727014
  0
ARC
  5
94
330
1F
100
AcDbEntity
  8
0-7_金物
  6
Continuous
 62
     7
370
     9
100
AcDbCircle
 10
52.66854283386579
 20
2336.961624593443
 30
0.0
 40
65.25000001305268
100
AcDbArc
 50
316.3971810272986
 51
43.60281897270136
  0
ARC
  5
95
330
1F
100
AcDbEntity
  8
0-7_金物
  6
Continuous
 62
     7
370
     9
100
AcDbCircle
 10
2236.78445601878
 20
2108.961624593447
 30
0.0
 40
65.25000001305268
100
AcDbArc
 50
316.3971810272986
 51
43.60281897270136
  0
MTEXT
  5
96
330
1F
100
AcDbEntity
  8
0-B_寸法
  6
Continuous
 62
     7
370
   211
100
AcDbMText
 10
831.9764994357721
 20
2034.681854391673
 30
0.0
 40
91.44000000000001
 41
540.0000000000001
 46
0.0
 71
     7
 72
     1
  1
{\fＭＳ ゴシック|b0|i0|c128|p49;ＤＷ＝810}
 73
     1
 44
1.0
  0
MTEXT
  5
97
330
1F
100
AcDbEntity
  8
0-B_寸法
  6
Continuous
 62
     7
370
   211
100
AcDbMText
 10
-1402.848406992077
 20
2262.680982673845
 30
0.0
 40
91.44000000000001
 41
540.0000000000001
 46
0.0
 71
     7
 72
     1
  1
{\fＭＳ ゴシック|b0|i0|c128|p49;ＤＷ＝810}
 73
     1
 44
1.0
  0
MTEXT
  5
98
330
1F
100
AcDbEntity
  8
0-B_寸法
  6
Continuous
 62
     7
370
   211
100
AcDbMText
 10
-305.3592083575899
 20
2033.787209563868
 30
0.0
 40
97.15499999999999
 41
127.5
 46
0.0
 71
     7
 72
     1
  1
{\fＭＳ ゴシック|b0|i0|c128|p49;30}
 11
6.123031769111886E-17
 21
1.0
 31
0.0
 73
     1
 44
1.0
  0
MTEXT
  5
99
330
1F
100
AcDbEntity
  8
0-B_寸法
  6
Continuous
 62
     7
370
   211
100
AcDbMText
 10
-491.0940795155318
 20
2080.275628438535
 30
0.0
 40
91.44
 41
60.0
 46
0.0
 71
     7
 72
     1
  1
{\fＭＳ ゴシック|b0|i0|c128|p49;8}
 11
6.123031769111886E-17
 21
1.0
 31
0.0
 73
     1
 44
1.0
  0
MTEXT
  5
9A
330
1F
100
AcDbEntity
  8
0-B_寸法
  6
Continuous
 62
     7
370
     0
100
AcDbMText
 10
-1952.668122974997
 20
2148.681624593445
 30
0.0
 40
91.44
 41
120.0
 46
0.0
 71
     7
 72
     1
  1
{\fＭＳ ゴシック|b0|i0|c128|p49;90}
 11
6.123031769111886E-17
 21
1.0
 31
0.0
 73
     1
 44
1.0
  0
MTEXT
  5
9B
330
1F
100
AcDbEntity
  8
0-B_寸法
  6
Continuous
 62
     7
370
     0
100
AcDbMText
 10
-305.3592578455539
 20
2261.790297612851
 30
0.0
 40
97.15499999999999
 41
127.5
 46
0.0
 71
     7
 72
     1
  1
{\fＭＳ ゴシック|b0|i0|c128|p49;30}
 11
6.123031769111886E-17
 21
1.0
 31
0.0
 73
     1
 44
1.0
  0
MTEXT
  5
9C
330
1F
100
AcDbEntity
  8
0-B_寸法
  6
Continuous
 62
     7
370
   211
100
AcDbMText
 10
-50.08145715668803
 20
2742.681822545304
 30
0.0
 40
91.44
 41
120.0
 46
0.0
 71
     7
 72
     1
  1
{\fＭＳ ゴシック|b0|i0|c128|p49;30}
 73
     1
 44
1.0
  0
LINE
  5
9D
330
1F
100
AcDbEntity
  8
0-6_扉
  6
Continuous
 62
   200
370
    20
100
AcDbLine
 10
-2264.19811266107
 20
2426.961624593445
 30
0.0
 11
-1192.848406992077
 21
2426.961624593445
 31
0.0
  0
LINE
  5
9E
330
1F
100
AcDbEntity
  8
0-6_扉
  6
Continuous
 62
   200
370
    20
100
AcDbLine
 10
-1072.848406992077
 20
2246.961624593445
 30
0.0
 11
99.91854284331453
 21
2246.961624593445
 31
0.0
  0
LINE
  5
9F
330
1F
100
AcDbEntity
  8
0-6_扉
  6
Continuous
 62
   200
370
    20
100
AcDbLine
 10
-1072.848406992077
 20
2426.961624593445
 30
0.0
 11
99.91854284331453
 21
2426.961624593445
 31
0.0
  0
LINE
  5
A0
330
1F
100
AcDbEntity
  8
0-0_補助線
  6
JWW_HOJO
 62
   120
370
     5
100
AcDbLine
 10
-1072.848406992077
 20
1763.961624593446
 30
0.0
 11
-1072.848406992077
 21
2741.961822545304
 31
0.0
  0
LINE
  5
A1
330
1F
100
AcDbEntity
  8
0-0_補助線
  6
JWW_HOJO
 62
   120
370
     5
100
AcDbLine
 10
-1192.848406992077
 20
1763.961624593446
 30
0.0
 11
-1192.848406992077
 21
2741.961822545304
 31
0.0
  0
LINE
  5
A2
330
1F
100
AcDbEntity
  8
0-6_扉
  6
JWW_DASHED2
 62
    40
370
    15
100
AcDbLine
 10
1161.976499435772
 20
2246.961624593445
 30
0.0
 11
2266.034456028228
 21
2246.961624593445
 31
0.0
  0
LINE
  5
A3
330
1F
100
AcDbEntity
  8
0-6_扉
  6
JWW_DASHED2
 62
    40
370
    15
100
AcDbLine
 10
1161.976499435772
 20
2426.961624593445
 30
0.0
 11
2266.034456028228
 21
2426.961624593445
 31
0.0
  0
LINE
  5
A4
330
1F
100
AcDbEntity
  8
0-6_扉
  6
Continuous
 62
   200
370
    20
100
AcDbLine
 10
1161.976499435772
 20
2018.961624593446
 30
0.0
 11
2284.034456028228
 21
2018.961624593446
 31
0.0
  0
LINE
  5
A5
330
1F
100
AcDbEntity
  8
0-6_扉
  6
Continuous
 62
   200
370
    20
100
AcDbLine
 10
1161.976499435772
 20
2198.961624593447
 30
0.0
 11
2284.034456028228
 21
2198.961624593447
 31
0.0
  0
LINE
  5
A6
330
1F
100
AcDbEntity
  8
0-6_扉
  6
JWW_DASHED2
 62
    40
370
    15
100
AcDbLine
 10
-98.0814571566836
 20
2246.961624593445
 30
0.0
 11
1041.976499435772
 21
2246.961624593445
 31
0.0
  0
LINE
  5
A7
330
1F
100
AcDbEntity
  8
0-6_扉
  6
JWW_DASHED2
 62
    40
370
    15
100
AcDbLine
 10
-98.0814571566836
 20
2426.961624593445
 30
0.0
 11
1041.976499435772
 21
2426.961624593445
 31
0.0
  0
LINE
  5
A8
330
1F
100
AcDbEntity
  8
0-6_扉
  6
Continuous
 62
   200
370
    20
100
AcDbLine
 10
-80.08145715668377
 20
2018.961624593446
 30
0.0
 11
1041.976499435772
 21
2018.961624593446
 31
0.0
  0
LINE
  5
A9
330
1F
100
AcDbEntity
  8
0-6_扉
  6
Continuous
 62
   200
370
    20
100
AcDbLine
 10
-80.08145715668377
 20
2198.961624593447
 30
0.0
 11
1041.976499435772
 21
2198.961624593447
 31
0.0
  0
LINE
  5
AA
330
1F
100
AcDbEntity
  8
0-0_補助線
  6
JWW_HOJO
 62
   120
370
     5
100
AcDbLine
 10
1161.976499435772
 20
1763.961624593446
 30
0.0
 11
1161.976499435772
 21
2741.961822545304
 31
0.0
  0
LINE
  5
AB
330
1F
100
AcDbEntity
  8
0-0_補助線
  6
JWW_HOJO
 62
   120
370
     5
100
AcDbLine
 10
1041.976499435772
 20
1763.961624593446
 30
0.0
 11
1041.976499435772
 21
2741.961822545304
 31
0.0
  0
LINE
  5
AC
330
1F
100
AcDbEntity
  8
0-C_ハッチ
  6
Continuous
 62
   120
370
     5
100
AcDbLine
 10
2443.034456028231
 20
2456.233979415448
 30
0.0
 11
2269.034021152741
 21
2282.233544539956
 31
0.0
  0
LINE
  5
AD
330
1F
100
AcDbEntity
  8
0-C_ハッチ
  6
Continuous
 62
   120
370
     5
100
AcDbLine
 10
2357.968596842426
 20
2489.962059468938
 30
0.0
 11
2269.034021152741
 21
2401.027483779253
 31
0.0
  0
LINE
  5
AE
330
1F
100
AcDbEntity
  8
0-C_ハッチ
  6
Continuous
 62
   120
370
     5
100
AcDbLine
 10
2298.571627222724
 20
2489.962059468938
 30
0.0
 11
2269.034021152741
 21
2460.424453398954
 31
0.0
  0
LINE
  5
AF
330
1F
100
AcDbEntity
  8
0-C_ハッチ
  6
Continuous
 62
   120
370
     5
100
AcDbLine
 10
2417.365566462072
 20
2489.962059468938
 30
0.0
 11
2269.034021152741
 21
2341.630514159605
 31
0.0
  0
LINE
  5
B0
330
1F
100
AcDbEntity
  8
0-C_ハッチ
  6
Continuous
 62
   120
370
     5
100
AcDbLine
 10
2446.03445602823
 20
2399.837009795746
 30
0.0
 11
2281.159070825933
 21
2234.961624593448
 31
0.0
  0
LINE
  5
B1
330
1F
100
AcDbEntity
  8
0-C_ハッチ
  6
Continuous
 62
   120
370
     5
100
AcDbLine
 10
2446.034456028242
 20
2162.249131317057
 30
0.0
 11
2305.034456028228
 21
2021.249131317044
 31
0.0
  0
LINE
  5
B2
330
1F
100
AcDbEntity
  8
0-4_枠
  6
Continuous
 62
    92
370
    13
100
AcDbLine
 10
2269.034021152741
 20
2481.4767780947
 30
0.0
 11
2269.034021152741
 21
2234.961624593448
 31
0.0
  0
LINE
  5
B3
330
1F
100
AcDbEntity
  8
0-4_枠
  6
Continuous
 62
    92
370
    13
100
AcDbLine
 10
2266.034456028227
 20
2484.476343219212
 30
0.0
 11
2266.034456028227
 21
2231.961624593448
 31
0.0
  0
LINE
  5
B4
330
1F
100
AcDbEntity
  8
0-4_枠
  6
Continuous
 62
    92
370
    13
100
AcDbLine
 10
2446.034456028228
 20
2492.961624593449
 30
0.0
 11
2446.034456028228
 21
1952.961624593449
 31
0.0
  0
LINE
  5
B5
330
1F
100
AcDbEntity
  8
0-4_枠
  6
Continuous
 62
    92
370
    13
100
AcDbLine
 10
2443.034456028231
 20
2402.961624593449
 30
0.0
 11
2443.034456028231
 21
2489.962059468938
 31
0.0
  0
LINE
  5
B6
330
1F
100
AcDbEntity
  8
0-4_枠
  6
Continuous
 62
    92
370
    13
100
AcDbLine
 10
2277.519302526978
 20
2489.962059468938
 30
0.0
 11
2443.034456028231
 21
2489.962059468938
 31
0.0
  0
LINE
  5
B7
330
1F
100
AcDbEntity
  8
0-4_枠
  6
Continuous
 62
    92
370
    13
100
AcDbLine
 10
2274.519737402469
 20
2492.961624593449
 30
0.0
 11
2446.034456028228
 21
2492.961624593449
 31
0.0
  0
LINE
  5
B8
330
1F
100
AcDbEntity
  8
0-4_枠
  6
Continuous
 62
    92
370
    13
100
AcDbLine
 10
2443.034456028231
 20
2402.961624593449
 30
0.0
 11
2446.034456028228
 21
2402.961624593449
 31
0.0
  0
LINE
  5
B9
330
1F
100
AcDbEntity
  8
0-4_枠
  6
Continuous
 62
    92
370
    13
100
AcDbLine
 10
2269.034021152741
 20
2481.4767780947
 30
0.0
 11
2277.519302526978
 21
2489.962059468938
 31
0.0
  0
LINE
  5
BA
330
1F
100
AcDbEntity
  8
0-4_枠
  6
Continuous
 62
    92
370
    13
100
AcDbLine
 10
2274.519737402469
 20
2492.961624593449
 30
0.0
 11
2266.034456028227
 21
2484.476343219212
 31
0.0
  0
LINE
  5
BB
330
1F
100
AcDbEntity
  8
0-4_枠
  6
Continuous
 62
    92
370
    13
100
AcDbLine
 10
2305.034456028228
 20
2234.961624593448
 30
0.0
 11
2305.034456028228
 21
1982.961624593449
 31
0.0
  0
LINE
  5
BC
330
1F
100
AcDbEntity
  8
0-4_枠
  6
Continuous
 62
    92
370
    13
100
AcDbLine
 10
2302.034456028228
 20
2231.961624593448
 30
0.0
 11
2302.034456028228
 21
1985.961624593449
 31
0.0
  0
LINE
  5
BD
330
1F
100
AcDbEntity
  8
0-4_枠
  6
Continuous
 62
    92
370
    13
100
AcDbLine
 10
2305.034456028228
 20
2234.961624593448
 30
0.0
 11
2269.034021152741
 21
2234.961624593448
 31
0.0
  0
LINE
  5
BE
330
1F
100
AcDbEntity
  8
0-4_枠
  6
Continuous
 62
    92
370
    13
100
AcDbLine
 10
2302.034456028228
 20
2231.961624593448
 30
0.0
 11
2266.034456028227
 21
2231.961624593448
 31
0.0
  0
LINE
  5
BF
330
1F
100
AcDbEntity
  8
0-4_枠
  6
Continuous
 62
    92
370
    13
100
AcDbLine
 10
2305.034456028228
 20
1982.961624593449
 30
0.0
 11
2269.034021152741
 21
1982.961624593449
 31
0.0
  0
LINE
  5
C0
330
1F
100
AcDbEntity
  8
0-4_枠
  6
Continuous
 62
    92
370
    13
100
AcDbLine
 10
2302.034456028228
 20
1985.961624593449
 30
0.0
 11
2266.034456028227
 21
1985.961624593449
 31
0.0
  0
LINE
  5
C1
330
1F
100
AcDbEntity
  8
0-4_枠
  6
Continuous
 62
    92
370
    13
100
AcDbLine
 10
2269.034021152741
 20
1962.689981530294
 30
0.0
 11
2269.034021152741
 21
1982.961624593449
 31
0.0
  0
LINE
  5
C2
330
1F
100
AcDbEntity
  8
0-4_枠
  6
Continuous
 62
    92
370
    13
100
AcDbLine
 10
2266.034456028227
 20
1961.446905967689
 30
0.0
 11
2266.034456028227
 21
1985.961624593449
 31
0.0
  0
LINE
  5
C3
330
1F
100
AcDbEntity
  8
0-C_ハッチ
  6
Continuous
 62
   120
370
     5
100
AcDbLine
 10
2443.034456028231
 20
1981.05822245805
 30
0.0
 11
2417.938018380916
 21
1955.961784810738
 31
0.0
  0
LINE
  5
C4
330
1F
100
AcDbEntity
  8
0-C_ハッチ
  6
Continuous
 62
   120
370
     5
100
AcDbLine
 10
2443.03445602824
 20
2040.455192077763
 30
0.0
 11
2358.541048761204
 21
1955.961784810726
 31
0.0
  0
LINE
  5
C5
330
1F
100
AcDbEntity
  8
0-C_ハッチ
  6
Continuous
 62
   120
370
     5
100
AcDbLine
 10
2446.03445602823
 20
2102.852161697402
 30
0.0
 11
2299.144079141578
 21
1955.961784810749
 31
0.0
  0
LINE
  5
C6
330
1F
100
AcDbEntity
  8
0-C_ハッチ
  6
Continuous
 62
   120
370
     5
100
AcDbLine
 10
2446.034456028223
 20
2221.646100936743
 30
0.0
 11
2305.034456028246
 21
2080.646100936764
 31
0.0
  0
LINE
  5
C7
330
1F
100
AcDbEntity
  8
0-C_ハッチ
  6
Continuous
 62
   120
370
     5
100
AcDbLine
 10
2446.034456028237
 20
2281.043070556402
 30
0.0
 11
2305.034456028225
 21
2140.04307055639
 31
0.0
  0
LINE
  5
C8
330
1F
100
AcDbEntity
  8
0-C_ハッチ
  6
Continuous
 62
   120
370
     5
100
AcDbLine
 10
2446.03445602822
 20
2340.440040176088
 30
0.0
 11
2305.034456028239
 21
2199.440040176107
 31
0.0
  0
LINE
  5
C9
330
1F
100
AcDbEntity
  8
0-4_枠
  6
Continuous
 62
    92
370
    13
100
AcDbLine
 10
2443.034456028231
 20
2042.961624593449
 30
0.0
 11
2443.034456028231
 21
1955.961784810735
 31
0.0
  0
LINE
  5
CA
330
1F
100
AcDbEntity
  8
0-4_枠
  6
Continuous
 62
    92
370
    13
100
AcDbLine
 10
2443.034456028231
 20
2042.961624593449
 30
0.0
 11
2446.034456028228
 21
2042.961624593449
 31
0.0
  0
LINE
  5
CB
330
1F
100
AcDbEntity
  8
0-4_枠
  6
Continuous
 62
    92
370
    13
100
AcDbLine
 10
2275.762217872301
 20
1955.961784810735
 30
0.0
 11
2443.034456028231
 21
1955.961784810735
 31
0.0
  0
LINE
  5
CC
330
1F
100
AcDbEntity
  8
0-4_枠
  6
Continuous
 62
    92
370
    13
100
AcDbLine
 10
2274.519737402469
 20
1952.961624593449
 30
0.0
 11
2446.034456028228
 21
1952.961624593449
 31
0.0
  0
LINE
  5
CD
330
1F
100
AcDbEntity
  8
0-4_枠
  6
Continuous
 62
    92
370
    13
100
AcDbLine
 10
2275.762217872301
 20
1955.961784810735
 30
0.0
 11
2269.034021152741
 21
1962.689981530294
 31
0.0
  0
LINE
  5
CE
330
1F
100
AcDbEntity
  8
0-4_枠
  6
Continuous
 62
    92
370
    13
100
AcDbLine
 10
2266.034456028227
 20
1961.446905967689
 30
0.0
 11
2274.519737402469
 21
1952.961624593449
 31
0.0
  0
LINE
  5
CF
330
1F
100
AcDbEntity
  8
0-6_扉
  6
JWW_DASHED2
 62
    40
370
    15
100
AcDbLine
 10
2266.034456028228
 20
2426.961624593445
 30
0.0
 11
2266.034456028228
 21
2246.961624593445
 31
0.0
  0
LINE
  5
D0
330
1F
100
AcDbEntity
  8
0-6_扉
  6
Continuous
 62
   200
370
    20
100
AcDbLine
 10
2284.034456028228
 20
2198.961624593447
 30
0.0
 11
2284.034456028228
 21
2018.961624593446
 31
0.0
  0
LINE
  5
D1
330
1F
100
AcDbEntity
  8
0-B_寸法
  6
Continuous
 62
   120
370
     5
100
AcDbLine
 10
-1937.668122974997
 20
1952.961624593442
 30
0.0
 11
-1937.668122974992
 21
2492.961624593442
 31
0.0
  0
LINE
  5
D2
330
1F
100
AcDbEntity
  8
0-B_寸法
  6
Continuous
 62
   120
370
     5
100
AcDbLine
 10
-1937.668122974997
 20
1952.961624593442
 30
0.0
 11
-2144.800261798595
 21
1952.961624593442
 31
0.0
  0
LWPOLYLINE
  5
D3
330
1F
100
AcDbEntity
  8
0-B_寸法
  6
Continuous
 62
     7
370
     9
100
AcDbPolyline
 90
        4
 70
     1
 43
3.0
 10
-1936.168122974997
 20
1952.961624593442
 42
0.4142135623731
 10
-1937.668122974997
 20
1954.461624593442
 42
0.4142135623731
 10
-1939.168122974997
 20
1952.961624593442
 42
0.4142135623731
 10
-1937.668122974997
 20
1951.461624593442
 42
0.4142135623731
  0
LINE
  5
D4
330
1F
100
AcDbEntity
  8
0-B_寸法
  6
Continuous
 62
   120
370
     5
100
AcDbLine
 10
-1937.668122974992
 20
2492.961624593442
 30
0.0
 11
-2144.800261798595
 21
2492.961624593442
 31
0.0
  0
LWPOLYLINE
  5
D5
330
1F
100
AcDbEntity
  8
0-B_寸法
  6
Continuous
 62
     7
370
     9
100
AcDbPolyline
 90
        4
 70
     1
 43
3.0
 10
-1936.168122974992
 20
2492.961624593442
 42
0.4142135623731
 10
-1937.668122974992
 20
2494.461624593442
 42
0.4142135623731
 10
-1939.168122974992
 20
2492.961624593442
 42
0.4142135623731
 10
-1937.668122974992
 20
2491.461624593442
 42
0.4142135623731
  0
LINE
  5
D6
330
1F
100
AcDbEntity
  8
0-C_ハッチ
  6
Continuous
 62
   120
370
     5
100
AcDbLine
 10
-2423.198112661073
 20
1989.689269771442
 30
0.0
 11
-2249.197677785582
 21
2163.689704646935
 31
0.0
  0
LINE
  5
D7
330
1F
100
AcDbEntity
  8
0-C_ハッチ
  6
Continuous
 62
   120
370
     5
100
AcDbLine
 10
-2338.132253475267
 20
1955.961189717953
 30
0.0
 11
-2249.197677785582
 21
2044.895765407639
 31
0.0
  0
LINE
  5
D8
330
1F
100
AcDbEntity
  8
0-C_ハッチ
  6
Continuous
 62
   120
370
     5
100
AcDbLine
 10
-2278.735283855565
 20
1955.961189717953
 30
0.0
 11
-2249.197677785582
 21
1985.498795787937
 31
0.0
  0
LINE
  5
D9
330
1F
100
AcDbEntity
  8
0-C_ハッチ
  6
Continuous
 62
   120
370
     5
100
AcDbLine
 10
-2397.529223094913
 20
1955.961189717953
 30
0.0
 11
-2249.197677785582
 21
2104.292735027286
 31
0.0
  0
LINE
  5
DA
330
1F
100
AcDbEntity
  8
0-C_ハッチ
  6
Continuous
 62
   120
370
     5
100
AcDbLine
 10
-2426.198112661071
 20
2046.086239391144
 30
0.0
 11
-2261.322727458774
 21
2210.961624593443
 31
0.0
  0
LINE
  5
DB
330
1F
100
AcDbEntity
  8
0-C_ハッチ
  6
Continuous
 62
   120
370
     5
100
AcDbLine
 10
-2426.198112661084
 20
2283.674117869834
 30
0.0
 11
-2285.198112661069
 21
2424.674117869846
 31
0.0
  0
LINE
  5
DC
330
1F
100
AcDbEntity
  8
0-4_枠
  6
Continuous
 62
    92
370
    13
100
AcDbLine
 10
-2249.197677785582
 20
1964.44647109219
 30
0.0
 11
-2249.197677785582
 21
2210.961624593443
 31
0.0
  0
LINE
  5
DD
330
1F
100
AcDbEntity
  8
0-4_枠
  6
Continuous
 62
    92
370
    13
100
AcDbLine
 10
-2246.198112661068
 20
1961.446905967679
 30
0.0
 11
-2246.198112661068
 21
2213.961624593443
 31
0.0
  0
LINE
  5
DE
330
1F
100
AcDbEntity
  8
0-4_枠
  6
Continuous
 62
    92
370
    13
100
AcDbLine
 10
-2426.19811266107
 20
1952.961624593442
 30
0.0
 11
-2426.19811266107
 21
2492.961624593442
 31
0.0
  0
LINE
  5
DF
330
1F
100
AcDbEntity
  8
0-4_枠
  6
Continuous
 62
    92
370
    13
100
AcDbLine
 10
-2423.198112661073
 20
2042.961624593442
 30
0.0
 11
-2423.198112661073
 21
1955.961189717953
 31
0.0
  0
LINE
  5
E0
330
1F
100
AcDbEntity
  8
0-4_枠
  6
Continuous
 62
    92
370
    13
100
AcDbLine
 10
-2257.682959159819
 20
1955.961189717953
 30
0.0
 11
-2423.198112661073
 21
1955.961189717953
 31
0.0
  0
LINE
  5
E1
330
1F
100
AcDbEntity
  8
0-4_枠
  6
Continuous
 62
    92
370
    13
100
AcDbLine
 10
-2254.68339403531
 20
1952.961624593442
 30
0.0
 11
-2426.19811266107
 21
1952.961624593442
 31
0.0
  0
LINE
  5
E2
330
1F
100
AcDbEntity
  8
0-4_枠
  6
Continuous
 62
    92
370
    13
100
AcDbLine
 10
-2423.198112661073
 20
2042.961624593442
 30
0.0
 11
-2426.19811266107
 21
2042.961624593442
 31
0.0
  0
LINE
  5
E3
330
1F
100
AcDbEntity
  8
0-4_枠
  6
Continuous
 62
    92
370
    13
100
AcDbLine
 10
-2249.197677785582
 20
1964.44647109219
 30
0.0
 11
-2257.682959159819
 21
1955.961189717953
 31
0.0
  0
LINE
  5
E4
330
1F
100
AcDbEntity
  8
0-4_枠
  6
Continuous
 62
    92
370
    13
100
AcDbLine
 10
-2254.68339403531
 20
1952.961624593442
 30
0.0
 11
-2246.198112661068
 21
1961.446905967679
 31
0.0
  0
LINE
  5
E5
330
1F
100
AcDbEntity
  8
0-4_枠
  6
Continuous
 62
    92
370
    13
100
AcDbLine
 10
-2285.198112661069
 20
2210.961624593443
 30
0.0
 11
-2285.198112661069
 21
2462.961624593442
 31
0.0
  0
LINE
  5
E6
330
1F
100
AcDbEntity
  8
0-4_枠
  6
Continuous
 62
    92
370
    13
100
AcDbLine
 10
-2282.198112661069
 20
2213.961624593443
 30
0.0
 11
-2282.198112661069
 21
2459.961624593443
 31
0.0
  0
LINE
  5
E7
330
1F
100
AcDbEntity
  8
0-4_枠
  6
Continuous
 62
    92
370
    13
100
AcDbLine
 10
-2285.198112661069
 20
2210.961624593443
 30
0.0
 11
-2249.197677785582
 21
2210.961624593443
 31
0.0
  0
LINE
  5
E8
330
1F
100
AcDbEntity
  8
0-4_枠
  6
Continuous
 62
    92
370
    13
100
AcDbLine
 10
-2282.198112661069
 20
2213.961624593443
 30
0.0
 11
-2246.198112661068
 21
2213.961624593443
 31
0.0
  0
LINE
  5
E9
330
1F
100
AcDbEntity
  8
0-4_枠
  6
Continuous
 62
    92
370
    13
100
AcDbLine
 10
-2285.198112661069
 20
2462.961624593442
 30
0.0
 11
-2249.197677785582
 21
2462.961624593442
 31
0.0
  0
LINE
  5
EA
330
1F
100
AcDbEntity
  8
0-4_枠
  6
Continuous
 62
    92
370
    13
100
AcDbLine
 10
-2282.198112661069
 20
2459.961624593443
 30
0.0
 11
-2246.198112661068
 21
2459.961624593443
 31
0.0
  0
LINE
  5
EB
330
1F
100
AcDbEntity
  8
0-4_枠
  6
Continuous
 62
    92
370
    13
100
AcDbLine
 10
-2249.197677785582
 20
2483.233267656596
 30
0.0
 11
-2249.197677785582
 21
2462.961624593442
 31
0.0
  0
LINE
  5
EC
330
1F
100
AcDbEntity
  8
0-4_枠
  6
Continuous
 62
    92
370
    13
100
AcDbLine
 10
-2246.198112661068
 20
2484.476343219203
 30
0.0
 11
-2246.198112661068
 21
2459.961624593443
 31
0.0
  0
LINE
  5
ED
330
1F
100
AcDbEntity
  8
0-C_ハッチ
  6
Continuous
 62
   120
370
     5
100
AcDbLine
 10
-2423.198112661073
 20
2464.865026728841
 30
0.0
 11
-2398.101675013757
 21
2489.961464376153
 31
0.0
  0
LINE
  5
EE
330
1F
100
AcDbEntity
  8
0-C_ハッチ
  6
Continuous
 62
   120
370
     5
100
AcDbLine
 10
-2423.19811266108
 20
2405.468057109128
 30
0.0
 11
-2338.704705394045
 21
2489.961464376165
 31
0.0
  0
LINE
  5
EF
330
1F
100
AcDbEntity
  8
0-C_ハッチ
  6
Continuous
 62
   120
370
     5
100
AcDbLine
 10
-2426.198112661071
 20
2343.07108748949
 30
0.0
 11
-2279.307735774419
 21
2489.961464376142
 31
0.0
  0
LINE
  5
F0
330
1F
100
AcDbEntity
  8
0-C_ハッチ
  6
Continuous
 62
   120
370
     5
100
AcDbLine
 10
-2426.198112661064
 20
2224.277148250148
 30
0.0
 11
-2285.198112661086
 21
2365.277148250127
 31
0.0
  0
LINE
  5
F1
330
1F
100
AcDbEntity
  8
0-C_ハッチ
  6
Continuous
 62
   120
370
     5
100
AcDbLine
 10
-2426.198112661078
 20
2164.880178630489
 30
0.0
 11
-2285.198112661066
 21
2305.8801786305
 31
0.0
  0
LINE
  5
F2
330
1F
100
AcDbEntity
  8
0-C_ハッチ
  6
Continuous
 62
   120
370
     5
100
AcDbLine
 10
-2426.19811266106
 20
2105.483209010804
 30
0.0
 11
-2285.198112661079
 21
2246.483209010784
 31
0.0
  0
LINE
  5
F3
330
1F
100
AcDbEntity
  8
0-4_枠
  6
Continuous
 62
    92
370
    13
100
AcDbLine
 10
-2423.198112661073
 20
2402.961624593442
 30
0.0
 11
-2423.198112661073
 21
2489.961464376156
 31
0.0
  0
LINE
  5
F4
330
1F
100
AcDbEntity
  8
0-4_枠
  6
Continuous
 62
    92
370
    13
100
AcDbLine
 10
-2423.198112661073
 20
2402.961624593442
 30
0.0
 11
-2426.19811266107
 21
2402.961624593442
 31
0.0
  0
LINE
  5
F5
330
1F
100
AcDbEntity
  8
0-4_枠
  6
Continuous
 62
    92
370
    13
100
AcDbLine
 10
-2255.925874505142
 20
2489.961464376156
 30
0.0
 11
-2423.198112661073
 21
2489.961464376156
 31
0.0
  0
LINE
  5
F6
330
1F
100
AcDbEntity
  8
0-4_枠
  6
Continuous
 62
    92
370
    13
100
AcDbLine
 10
-2254.68339403531
 20
2492.961624593442
 30
0.0
 11
-2426.19811266107
 21
2492.961624593442
 31
0.0
  0
LINE
  5
F7
330
1F
100
AcDbEntity
  8
0-4_枠
  6
Continuous
 62
    92
370
    13
100
AcDbLine
 10
-2255.925874505142
 20
2489.961464376156
 30
0.0
 11
-2249.197677785582
 21
2483.233267656596
 31
0.0
  0
LINE
  5
F8
330
1F
100
AcDbEntity
  8
0-4_枠
  6
Continuous
 62
    92
370
    13
100
AcDbLine
 10
-2246.198112661068
 20
2484.476343219203
 30
0.0
 11
-2254.68339403531
 21
2492.961624593442
 31
0.0
  0
LINE
  5
F9
330
1F
100
AcDbEntity
  8
0-6_扉
  6
Continuous
 62
   200
370
    20
100
AcDbLine
 10
-2264.19811266107
 20
2246.961624593445
 30
0.0
 11
-2264.19811266107
 21
2426.961624593445
 31
0.0
  0
LINE
  5
FA
330
1F
100
AcDbEntity
  8
0-B_寸法
  6
Continuous
 62
   120
370
     5
100
AcDbLine
 10
-290.3592083575899
 20
2222.960140109158
 30
0.0
 11
-491.0940795155318
 21
2161.826843080798
 31
0.0
  0
LINE
  5
FB
330
1F
100
AcDbEntity
  8
0-B_寸法
  6
Continuous
 62
   120
370
     5
100
AcDbLine
 10
-491.0940795155318
 20
2095.566905938997
 30
0.0
 11
-491.0940795155318
 21
2161.826843080798
 31
0.0
  0
LINE
  5
FC
330
1F
100
AcDbEntity
  8
0-B_寸法
  6
Continuous
 62
   120
370
     5
100
AcDbLine
 10
-290.3592083575899
 20
2246.960140109157
 30
0.0
 11
-290.3592083575899
 21
2018.960140109159
 31
0.0
  0
LWPOLYLINE
  5
FD
330
1F
100
AcDbEntity
  8
0-B_寸法
  6
Continuous
 62
     7
370
     9
100
AcDbPolyline
 90
        4
 70
     1
 43
3.0
 10
-288.8592083575899
 20
2018.960140109159
 42
0.4142135623731
 10
-290.3592083575899
 20
2020.460140109159
 42
0.4142135623731
 10
-291.8592083575899
 20
2018.960140109159
 42
0.4142135623731
 10
-290.3592083575899
 20
2017.46014010916
 42
0.4142135623731
  0
LINE
  5
FE
330
1F
100
AcDbEntity
  8
0-B_寸法
  6
Continuous
 62
   120
370
     5
100
AcDbLine
 10
-290.3592083575899
 20
2018.960140109159
 30
0.0
 11
-140.0814571566838
 21
2018.960140109159
 31
0.0
  0
LWPOLYLINE
  5
FF
330
1F
100
AcDbEntity
  8
0-B_寸法
  6
Continuous
 62
     7
370
     9
100
AcDbPolyline
 90
        4
 70
     1
 43
3.0
 10
-288.8592083575899
 20
2198.96014010916
 42
0.4142135623731
 10
-290.3592083575899
 20
2200.460140109159
 42
0.4142135623731
 10
-291.8592083575899
 20
2198.96014010916
 42
0.4142135623731
 10
-290.3592083575899
 20
2197.46014010916
 42
0.4142135623731
  0
LINE
  5
100
330
1F
100
AcDbEntity
  8
0-B_寸法
  6
Continuous
 62
   120
370
     5
100
AcDbLine
 10
-290.3592083575899
 20
2198.96014010916
 30
0.0
 11
-140.0814571566838
 21
2198.96014010916
 31
0.0
  0
LINE
  5
101
330
1F
100
AcDbEntity
  8
0-B_寸法
  6
Continuous
 62
   120
370
     5
100
AcDbLine
 10
-290.3592083575899
 20
2426.962367067561
 30
0.0
 11
-290.3592083575899
 21
2246.961624748092
 31
0.0
  0
LWPOLYLINE
  5
102
330
1F
100
AcDbEntity
  8
0-B_寸法
  6
Continuous
 62
     7
370
     9
100
AcDbPolyline
 90
        4
 70
     1
 43
3.0
 10
-288.8592083575899
 20
2246.960140109157
 42
0.4142135623731
 10
-290.3592083575899
 20
2248.460140109156
 42
0.4142135623731
 10
-291.8592083575899
 20
2246.960140109157
 42
0.4142135623731
 10
-290.3592083575899
 20
2245.460140109157
 42
0.4142135623731
  0
LWPOLYLINE
  5
103
330
1F
100
AcDbEntity
  8
0-B_寸法
  6
Continuous
 62
     7
370
     9
100
AcDbPolyline
 90
        4
 70
     1
 43
3.0
 10
-288.8592083575899
 20
2246.961624748092
 42
0.4142135623731
 10
-290.3592083575899
 20
2248.461624748092
 42
0.4142135623731
 10
-291.8592083575899
 20
2246.961624748092
 42
0.4142135623731
 10
-290.3592083575899
 20
2245.461624748092
 42
0.4142135623731
  0
LINE
  5
104
330
1F
100
AcDbEntity
  8
0-B_寸法
  6
Continuous
 62
   120
370
     5
100
AcDbLine
 10
-290.3592083575899
 20
2246.960140109157
 30
0.0
 11
-140.0814571566838
 21
2246.960140109157
 31
0.0
  0
LINE
  5
105
330
1F
100
AcDbEntity
  8
0-B_寸法
  6
Continuous
 62
   120
370
     5
100
AcDbLine
 10
-140.0814571566838
 20
2246.961624748092
 30
0.0
 11
-290.3592083575899
 21
2246.961624748092
 31
0.0
  0
LWPOLYLINE
  5
106
330
1F
100
AcDbEntity
  8
0-B_寸法
  6
Continuous
 62
     7
370
     9
100
AcDbPolyline
 90
        4
 70
     1
 43
3.0
 10
-288.8592083575899
 20
2426.962367067561
 42
0.4142135623731
 10
-290.3592083575899
 20
2428.462367067561
 42
0.4142135623731
 10
-291.8592083575899
 20
2426.962367067561
 42
0.4142135623731
 10
-290.3592083575899
 20
2425.462367067561
 42
0.4142135623731
  0
LINE
  5
107
330
1F
100
AcDbEntity
  8
0-B_寸法
  6
Continuous
 62
   120
370
     5
100
AcDbLine
 10
-140.0814571566838
 20
2426.962367067561
 30
0.0
 11
-290.3592083575899
 21
2426.962367067561
 31
0.0
  0
LINE
  5
108
330
1F
100
AcDbEntity
  8
0-6_扉
  6
JWW_DASHED2
 62
    40
370
    15
100
AcDbLine
 10
-98.0814571566836
 20
2426.961624593445
 30
0.0
 11
-98.0814571566836
 21
2246.961624593445
 31
0.0
  0
LINE
  5
109
330
1F
100
AcDbEntity
  8
0-B_寸法
  6
Continuous
 62
   120
370
     5
100
AcDbLine
 10
-80.08145715668462
 20
2741.961822545304
 30
0.0
 11
99.91854284331197
 21
2741.961822545304
 31
0.0
  0
LWPOLYLINE
  5
10A
330
1F
100
AcDbEntity
  8
0-B_寸法
  6
Continuous
 62
     7
370
     9
100
AcDbPolyline
 90
        4
 70
     1
 43
3.0
 10
-78.58145715668462
 20
2741.961822545304
 42
0.4142135623731
 10
-80.08145715668462
 20
2743.461822545304
 42
0.4142135623731
 10
-81.58145715668462
 20
2741.961822545304
 42
0.4142135623731
 10
-80.08145715668462
 20
2740.461822545304
 42
0.4142135623731
  0
LWPOLYLINE
  5
10B
330
1F
100
AcDbEntity
  8
0-B_寸法
  6
Continuous
 62
     7
370
     9
100
AcDbPolyline
 90
        4
 70
     1
 43
3.0
 10
101.418542843312
 20
2741.961822545304
 42
0.4142135623731
 10
99.91854284331197
 20
2743.461822545304
 42
0.4142135623731
 10
98.41854284331197
 20
2741.961822545304
 42
0.4142135623731
 10
99.91854284331197
 20
2740.461822545304
 42
0.4142135623731
  0
LINE
  5
10C
330
1F
100
AcDbEntity
  8
0-B_寸法
  6
Continuous
 62
   120
370
     5
100
AcDbLine
 10
-80.08145715668462
 20
2741.961822545304
 30
0.0
 11
-80.08145715668462
 21
2561.961822545304
 31
0.0
  0
LINE
  5
10D
330
1F
100
AcDbEntity
  8
0-B_寸法
  6
Continuous
 62
   120
370
     5
100
AcDbLine
 10
99.91854284331197
 20
2741.961822545304
 30
0.0
 11
99.91854284331197
 21
2561.961822545304
 31
0.0
  0
LINE
  5
10E
330
1F
100
AcDbEntity
  8
0-6_扉
  6
Continuous
 62
   200
370
    20
100
AcDbLine
 10
-80.08145715668377
 20
2198.961624593447
 30
0.0
 11
-80.08145715668377
 21
2018.961624593446
 31
0.0
  0
LINE
  5
10F
330
1F
100
AcDbEntity
  8
0-6_扉
  6
Continuous
 62
   200
370
    20
100
AcDbLine
 10
99.91854284331453
 20
2426.961624593445
 30
0.0
 11
99.91854284331453
 21
2246.961624593445
 31
0.0
  0
LINE
  5
110
330
1F
100
AcDbEntity
  8
0-4_枠
  6
Continuous
 62
    92
370
    13
100
AcDbLine
 10
9.918542843316231
 20
2582.961624593445
 30
0.0
 11
9.918542843316231
 21
1862.961624593445
 31
0.0
  0
LINE
  5
111
330
1F
100
AcDbEntity
  8
0-6_扉
  6
Continuous
 62
   200
370
    20
100
AcDbLine
 10
-1949.418486615041
 20
2246.961624593445
 30
0.0
 11
-1192.848406992077
 21
2246.961624593445
 31
0.0
  0
LINE
  5
112
330
1F
100
AcDbEntity
  8
0-6_扉
  6
Continuous
 62
   200
370
    20
100
AcDbLine
 10
-2264.19811266107
 20
2246.961624593445
 30
0.0
 11
-2079.352649438789
 21
2246.961624593445
 31
0.0
  0
LINE
  5
113
330
1F
100
AcDbEntity
  8
0-0_補助線
  6
JWW_HOJO
 62
   120
370
     5
100
AcDbLine
 10
-2486.19811266107
 20
2741.961822545304
 30
0.0
 11
-2486.19811266107
 21
983.9616245934465
 31
0.0
  0
LINE
  5
114
330
1F
100
AcDbEntity
  8
0-0_補助線
  6
JWW_HOJO
 62
   120
370
     5
100
AcDbLine
 10
2506.034456028228
 20
2741.961822545304
 30
0.0
 11
-2486.19811266107
 21
2741.961822545304
 31
0.0
  0
LINE
  5
115
330
1F
100
AcDbEntity
  8
0-0_補助線
  6
JWW_HOJO
 62
   120
370
     5
100
AcDbLine
 10
2506.034456028228
 20
983.9616245934465
 30
0.0
 11
-2486.19811266107
 21
983.9616245934465
 31
0.0
  0
LINE
  5
116
330
1F
100
AcDbEntity
  8
0-0_補助線
  6
JWW_HOJO
 62
   120
370
     5
100
AcDbLine
 10
2506.034456028228
 20
1763.961624593446
 30
0.0
 11
-2486.19811266107
 21
1763.961624593446
 31
0.0
  0
LINE
  5
117
330
1F
100
AcDbEntity
  8
0-0_補助線
  6
JWW_HOJO
 62
   120
370
     5
100
AcDbLine
 10
2506.034456028228
 20
1403.961624593446
 30
0.0
 11
-2486.19811266107
 21
1403.961624593446
 31
0.0
  0
LINE
  5
118
330
1F
100
AcDbEntity
  8
0-0_補助線
  6
JWW_HOJO
 62
   120
370
     5
100
AcDbLine
 10
2506.034456028228
 20
1193.961624593446
 30
0.0
 11
-2486.19811266107
 21
1193.961624593446
 31
0.0
  0
LINE
  5
119
330
1F
100
AcDbEntity
  8
0-7_金物
  6
Continuous
 62
   120
370
     5
100
AcDbLine
 10
-1072.848406992077
 20
2450.961624593446
 30
0.0
 11
1041.976499435772
 21
2450.961624593446
 31
0.0
  0
LINE
  5
11A
330
1F
100
AcDbEntity
  8
0-7_金物
  6
Continuous
 62
   120
370
     5
100
AcDbLine
 10
1158.746111800979
 20
2450.961624593446
 30
0.0
 11
2266.034456028227
 21
2450.961624593446
 31
0.0
  0
LINE
  5
11B
330
1F
100
AcDbEntity
  8
0-7_金物
  6
Continuous
 62
   120
370
     5
100
AcDbLine
 10
-2246.198112661068
 20
2450.961624593446
 30
0.0
 11
-1192.848406992077
 21
2450.961624593446
 31
0.0
  0
LINE
  5
11C
330
1F
100
AcDbEntity
  8
0-7_金物
  6
Continuous
 62
   120
370
     5
100
AcDbLine
 10
-2246.198112661068
 20
2450.961624593446
 30
0.0
 11
-2246.198112661068
 21
2426.961624593445
 31
0.0
  0
LINE
  5
11D
330
1F
100
AcDbEntity
  8
0-7_金物
  6
Continuous
 62
   120
370
     5
100
AcDbLine
 10
-1072.848406992077
 20
1994.961624593445
 30
0.0
 11
1041.976499435772
 21
1994.961624593445
 31
0.0
  0
LINE
  5
11E
330
1F
100
AcDbEntity
  8
0-7_金物
  6
Continuous
 62
   120
370
     5
100
AcDbLine
 10
1158.746111800979
 20
1994.961624593445
 30
0.0
 11
2266.034456028227
 21
1994.961624593445
 31
0.0
  0
LINE
  5
11F
330
1F
100
AcDbEntity
  8
0-7_金物
  6
Continuous
 62
   120
370
     5
100
AcDbLine
 10
2266.034456028227
 20
1994.961624593445
 30
0.0
 11
2266.034456028227
 21
2018.961624593446
 31
0.0
  0
LINE
  5
120
330
1F
100
AcDbEntity
  8
0-7_金物
  6
Continuous
 62
   120
370
     5
100
AcDbLine
 10
-2246.198112661068
 20
1994.961624593445
 30
0.0
 11
-1192.848406992077
 21
1994.961624593445
 31
0.0
  0
LINE
  5
121
330
1F
100
AcDbEntity
  8
0-7_金物
  6
Continuous
 62
   120
370
     5
100
AcDbLine
 10
-2246.198112661068
 20
2246.961624593445
 30
0.0
 11
-2246.198112661068
 21
2213.961624593443
 31
0.0
  0
LINE
  5
122
330
1F
100
AcDbEntity
  8
0-7_金物
  6
Continuous
 62
   120
370
     5
100
AcDbLine
 10
2266.034456028227
 20
2198.961624593447
 30
0.0
 11
2266.034456028227
 21
2231.961624593448
 31
0.0
  0
MTEXT
  5
123
330
1F
100
AcDbEntity
  8
0-B_寸法
  6
Continuous
 62
     7
370
   211
100
AcDbMText
 10
63.91854284331401
 20
-1524.129046484475
 30
0.0
 40
91.44
 41
120.0
 46
0.0
 71
     7
 72
     1
  1
{\fＭＳ ゴシック|b0|i0|c128|p49;30}
 73
     1
 44
1.0
  0
MTEXT
  5
124
330
1F
100
AcDbEntity
  8
0-B_寸法
  6
Continuous
 62
     7
370
   211
100
AcDbMText
 10
-20.08145715668462
 20
-1524.129046484475
 30
0.0
 40
91.44
 41
60.0
 46
0.0
 71
     7
 72
     1
  1
{\fＭＳ ゴシック|b0|i0|c128|p49;8}
 73
     1
 44
1.0
  0
MTEXT
  5
125
330
1F
100
AcDbEntity
  8
0-B_寸法
  6
Continuous
 62
     7
370
   211
100
AcDbMText
 10
-164.0814571566833
 20
-1524.129046484475
 30
0.0
 40
91.44
 41
120.0
 46
0.0
 71
     7
 72
     1
  1
{\fＭＳ ゴシック|b0|i0|c128|p49;30}
 73
     1
 44
1.0
  0
LINE
  5
126
330
1F
100
AcDbEntity
  8
0-B_寸法
  6
Continuous
 62
   120
370
     5
100
AcDbLine
 10
-194.0814571566833
 20
-1524.849046484475
 30
0.0
 11
213.918542843314
 21
-1524.849046484475
 31
0.0
  0
LWPOLYLINE
  5
127
330
1F
100
AcDbEntity
  8
0-B_寸法
  6
Continuous
 62
     7
370
     9
100
AcDbPolyline
 90
        4
 70
     1
 43
3.0
 10
-192.5814571566833
 20
-1524.849046484475
 42
0.4142135623731
 10
-194.0814571566833
 20
-1523.349046484475
 42
0.4142135623731
 10
-195.5814571566833
 20
-1524.849046484475
 42
0.4142135623731
 10
-194.0814571566833
 20
-1526.349046484475
 42
0.4142135623731
  0
LWPOLYLINE
  5
128
330
1F
100
AcDbEntity
  8
0-B_寸法
  6
Continuous
 62
     7
370
     9
100
AcDbPolyline
 90
        4
 70
     1
 43
3.0
 10
-12.58145715668326
 20
-1524.849046484475
 42
0.4142135623731
 10
-14.08145715668326
 20
-1523.349046484475
 42
0.4142135623731
 10
-15.58145715668326
 20
-1524.849046484475
 42
0.4142135623731
 10
-14.08145715668326
 20
-1526.349046484475
 42
0.4142135623731
  0
LWPOLYLINE
  5
129
330
1F
100
AcDbEntity
  8
0-B_寸法
  6
Continuous
 62
     7
370
     9
100
AcDbPolyline
 90
        4
 70
     1
 43
3.0
 10
35.41854284331401
 20
-1524.849046484475
 42
0.4142135623731
 10
33.91854284331401
 20
-1523.349046484475
 42
0.4142135623731
 10
32.41854284331401
 20
-1524.849046484475
 42
0.4142135623731
 10
33.91854284331401
 20
-1526.349046484475
 42
0.4142135623731
  0
LWPOLYLINE
  5
12A
330
1F
100
AcDbEntity
  8
0-B_寸法
  6
Continuous
 62
     7
370
     9
100
AcDbPolyline
 90
        4
 70
     1
 43
3.0
 10
215.418542843314
 20
-1524.849046484475
 42
0.4142135623731
 10
213.918542843314
 20
-1523.349046484475
 42
0.4142135623731
 10
212.418542843314
 20
-1524.849046484475
 42
0.4142135623731
 10
213.918542843314
 20
-1526.349046484475
 42
0.4142135623731
  0
LINE
  5
12B
330
1F
100
AcDbEntity
  8
0-6_扉
  6
Continuous
 62
   200
370
    20
100
AcDbLine
 10
33.91854284331401
 20
-1506.849046484474
 30
0.0
 11
33.91854284331401
 21
-1884.848919635899
 31
0.0
  0
LINE
  5
12C
330
1F
100
AcDbEntity
  8
0-6_扉
  6
Continuous
 62
   200
370
    20
100
AcDbLine
 10
-14.08145715668326
 20
-1506.849046484474
 30
0.0
 11
-14.08145715668326
 21
-1884.848919635899
 31
0.0
  0
LINE
  5
12D
330
1F
100
AcDbEntity
  8
0-6_扉
  6
Continuous
 62
   200
370
    20
100
AcDbLine
 10
33.91854284331401
 20
-1224.277024952662
 30
0.0
 11
33.91854284331401
 21
-1386.849046484475
 31
0.0
  0
LINE
  5
12E
330
1F
100
AcDbEntity
  8
0-6_扉
  6
Continuous
 62
   200
370
    20
100
AcDbLine
 10
-14.08145715668326
 20
-1224.277024952662
 30
0.0
 11
-14.08145715668326
 21
-1386.849046484475
 31
0.0
  0
LINE
  5
12F
330
1F
100
AcDbEntity
  8
0-0_補助線
  6
JWW_HOJO
 62
   120
370
     5
100
AcDbLine
 10
-455.0814571566863
 20
-1884.848713373816
 30
0.0
 11
474.9185428433145
 21
-1884.848713373816
 31
0.0
  0
LINE
  5
130
330
1F
100
AcDbEntity
  8
0-0_補助線
  6
JWW_HOJO
 62
   120
370
     5
100
AcDbLine
 10
-455.0814571566863
 20
-2004.848713373816
 30
0.0
 11
474.9185428433145
 21
-2004.848713373816
 31
0.0
  0
LINE
  5
131
330
1F
100
AcDbEntity
  8
0-A_文字
  6
Continuous
 62
     7
370
     9
100
AcDbLine
 10
-646.694353156272
 20
-3133.967421703294
 30
0.0
 11
-616.694353156272
 21
-3185.92894593036
 31
0.0
  0
LINE
  5
132
330
1F
100
AcDbEntity
  8
0-A_文字
  6
Continuous
 62
     7
370
     9
100
AcDbLine
 10
-646.694353156272
 20
-3133.967421703294
 30
0.0
 11
-586.694353156272
 21
-3133.967421703294
 31
0.0
  0
LINE
  5
133
330
1F
100
AcDbEntity
  8
0-A_文字
  6
Continuous
 62
     7
370
     9
100
AcDbLine
 10
-586.694353156272
 20
-3133.967421703294
 30
0.0
 11
-616.6943531562686
 21
-3185.92894593036
 31
0.0
  0
LINE
  5
134
330
1F
100
AcDbEntity
  8
0-3_仕上げ
  6
Continuous
 62
    40
370
    15
100
AcDbLine
 10
639.9185428433162
 20
-3258.848919635882
 30
0.0
 11
-680.0814571566855
 21
-3258.848919635882
 31
0.0
  0
LINE
  5
135
330
1F
100
AcDbEntity
  8
0-3_仕上げ
  6
Continuous
 62
    40
370
    15
100
AcDbLine
 10
639.9185428433162
 20
-3186.848919635881
 30
0.0
 11
-680.0814571566855
 21
-3186.848919635881
 31
0.0
  0
LINE
  5
136
330
1F
100
AcDbEntity
  8
0-3_仕上げ
  6
Continuous
 62
     7
370
     9
100
AcDbLine
 10
639.9185428433162
 20
-3222.84891963588
 30
0.0
 11
-680.0814571566855
 21
-3222.84891963588
 31
0.0
  0
LINE
  5
137
330
1F
100
AcDbEntity
  8
0-3_仕上げ
  6
Continuous
 62
     7
370
     9
100
AcDbLine
 10
639.9185428433162
 20
-3240.848919635882
 30
0.0
 11
-680.0814571566855
 21
-3240.848919635882
 31
0.0
  0
LINE
  5
138
330
1F
100
AcDbEntity
  8
0-3_仕上げ
  6
Continuous
 62
     7
370
     9
100
AcDbLine
 10
639.9185428433162
 20
-3231.848919635881
 30
0.0
 11
-680.0814571566855
 21
-3231.848919635881
 31
0.0
  0
LINE
  5
139
330
1F
100
AcDbEntity
  8
0-3_仕上げ
  6
Continuous
 62
     7
370
     9
100
AcDbLine
 10
639.9185428433162
 20
-3213.84891963588
 30
0.0
 11
-680.0814571566855
 21
-3213.84891963588
 31
0.0
  0
LINE
  5
13A
330
1F
100
AcDbEntity
  8
0-3_仕上げ
  6
Continuous
 62
     7
370
     9
100
AcDbLine
 10
639.9185428433162
 20
-3204.848919635881
 30
0.0
 11
-680.0814571566855
 21
-3204.848919635881
 31
0.0
  0
LINE
  5
13B
330
1F
100
AcDbEntity
  8
0-3_仕上げ
  6
Continuous
 62
     7
370
     9
100
AcDbLine
 10
639.9185428433162
 20
-3195.848919635882
 30
0.0
 11
-680.0814571566855
 21
-3195.848919635882
 31
0.0
  0
LINE
  5
13C
330
1F
100
AcDbEntity
  8
0-3_仕上げ
  6
Continuous
 62
     7
370
     9
100
AcDbLine
 10
639.9185428433162
 20
-3249.848919635881
 30
0.0
 11
-680.0814571566855
 21
-3249.848919635881
 31
0.0
  0
LINE
  5
13D
330
1F
100
AcDbEntity
  8
0-C_ハッチ
  6
Continuous
 62
   120
370
     5
100
AcDbLine
 10
41.53065152723656
 20
-642.8487133738214
 30
0.0
 11
125.530651527242
 21
-558.8487133738215
 31
0.0
  0
LINE
  5
13E
330
1F
100
AcDbEntity
  8
0-C_ハッチ
  6
Continuous
 62
   120
370
     5
100
AcDbLine
 10
100.9276211469384
 20
-642.8487133738214
 30
0.0
 11
184.9276211469439
 21
-558.8487133738215
 31
0.0
  0
LINE
  5
13F
330
1F
100
AcDbEntity
  8
0-C_ハッチ
  6
Continuous
 62
   120
370
     5
100
AcDbLine
 10
-136.6602573317539
 20
-642.8487133738214
 30
0.0
 11
-52.66025733175525
 21
-558.8487133738215
 31
0.0
  0
LINE
  5
140
330
1F
100
AcDbEntity
  8
0-C_ハッチ
  6
Continuous
 62
   120
370
     5
100
AcDbLine
 10
-77.26328771205203
 20
-642.8487133738214
 30
0.0
 11
6.736712287944044
 21
-558.8487133738215
 31
0.0
  0
LINE
  5
141
330
1F
100
AcDbEntity
  8
0-4_枠
  6
Continuous
 62
    92
370
    13
100
AcDbLine
 10
255.9185428433176
 20
-738.8487133738215
 30
0.0
 11
255.9185428433176
 21
-558.8487133738215
 31
0.0
  0
LINE
  5
142
330
1F
100
AcDbEntity
  8
0-4_枠
  6
Continuous
 62
    92
370
    13
100
AcDbLine
 10
252.9183826260311
 20
-735.8487133738242
 30
0.0
 11
252.9183826260311
 21
-561.84871337382
 31
0.0
  0
LINE
  5
143
330
1F
100
AcDbEntity
  8
0-4_枠
  6
Continuous
 62
    92
370
    13
100
AcDbLine
 10
195.9185428433176
 20
-561.84871337382
 30
0.0
 11
195.9185428433176
 21
-558.8487133738215
 31
0.0
  0
LINE
  5
144
330
1F
100
AcDbEntity
  8
0-4_枠
  6
Continuous
 62
    92
370
    13
100
AcDbLine
 10
195.9185428433176
 20
-561.84871337382
 30
0.0
 11
252.9183826260311
 21
-561.84871337382
 31
0.0
  0
LINE
  5
145
330
1F
100
AcDbEntity
  8
0-4_枠
  6
Continuous
 62
    92
370
    13
100
AcDbLine
 10
-236.0814571566843
 20
-738.8487133738215
 30
0.0
 11
-236.0814571566843
 21
-558.8487133738215
 31
0.0
  0
LINE
  5
146
330
1F
100
AcDbEntity
  8
0-4_枠
  6
Continuous
 62
    92
370
    13
100
AcDbLine
 10
-233.0818920321732
 20
-735.8487133738242
 30
0.0
 11
-233.0818920321732
 21
-561.84871337382
 31
0.0
  0
LINE
  5
147
330
1F
100
AcDbEntity
  8
0-4_枠
  6
Continuous
 62
    92
370
    13
100
AcDbLine
 10
-176.0814571566843
 20
-561.84871337382
 30
0.0
 11
-233.0818920321732
 21
-561.84871337382
 31
0.0
  0
LINE
  5
148
330
1F
100
AcDbEntity
  8
0-4_枠
  6
Continuous
 62
    92
370
    13
100
AcDbLine
 10
-176.0814571566843
 20
-561.84871337382
 30
0.0
 11
-176.0814571566843
 21
-558.8487133738215
 31
0.0
  0
LINE
  5
149
330
1F
100
AcDbEntity
  8
0-4_枠
  6
Continuous
 62
    92
370
    13
100
AcDbLine
 10
255.9185428433176
 20
-558.8487133738215
 30
0.0
 11
-236.0814571566843
 21
-558.8487133738215
 31
0.0
  0
LINE
  5
14A
330
1F
100
AcDbEntity
  8
0-C_ハッチ
  6
Continuous
 62
   120
370
     5
100
AcDbLine
 10
-233.0818920321732
 20
-620.4764088348895
 30
0.0
 11
-171.4541965711044
 21
-558.8487133738215
 31
0.0
  0
LINE
  5
14B
330
1F
100
AcDbEntity
  8
0-C_ハッチ
  6
Continuous
 62
   120
370
     5
100
AcDbLine
 10
-233.0818920321732
 20
-679.8733784545914
 30
0.0
 11
-112.0572269514025
 21
-558.8487133738215
 31
0.0
  0
LINE
  5
14C
330
1F
100
AcDbEntity
  8
0-C_ハッチ
  6
Continuous
 62
   120
370
     5
100
AcDbLine
 10
252.9183826260311
 20
-728.4458303734347
 30
0.0
 11
245.5154996256462
 21
-735.8487133738187
 31
0.0
  0
LINE
  5
14D
330
1F
100
AcDbEntity
  8
0-C_ハッチ
  6
Continuous
 62
   120
370
     5
100
AcDbLine
 10
160.3245907665857
 20
-642.8487133738214
 30
0.0
 11
241.3245907665879
 21
-561.8487133738209
 31
0.0
  0
LINE
  5
14E
330
1F
100
AcDbEntity
  8
0-4_枠
  6
Continuous
 62
   120
370
     5
100
AcDbLine
 10
-260.0814571566863
 20
-558.8487133738215
 30
0.0
 11
-236.0814571566843
 21
-558.8487133738215
 31
0.0
  0
LINE
  5
14F
330
1F
100
AcDbEntity
  8
0-4_枠
  6
Continuous
 62
   120
370
     5
100
AcDbLine
 10
-260.0814571566863
 20
-558.8487133738215
 30
0.0
 11
-260.0814571566863
 21
-1884.848713373816
 31
0.0
  0
LINE
  5
150
330
1F
100
AcDbEntity
  8
0-4_枠
  6
Continuous
 62
   120
370
     5
100
AcDbLine
 10
279.9185428433162
 20
-558.8487133738215
 30
0.0
 11
255.9185428433176
 21
-558.8487133738215
 31
0.0
  0
LINE
  5
151
330
1F
100
AcDbEntity
  8
0-4_枠
  6
Continuous
 62
   120
370
     5
100
AcDbLine
 10
279.9185428433162
 20
-1884.848713373816
 30
0.0
 11
279.9185428433162
 21
-558.8487133738215
 31
0.0
  0
LINE
  5
152
330
1F
100
AcDbEntity
  8
0-4_枠
  6
Continuous
 62
   120
370
     5
100
AcDbLine
 10
279.9185428433162
 20
-2004.848713373816
 30
0.0
 11
279.9185428433162
 21
-3186.848919635881
 31
0.0
  0
LINE
  5
153
330
1F
100
AcDbEntity
  8
0-4_枠
  6
Continuous
 62
   120
370
     5
100
AcDbLine
 10
-260.0814571566863
 20
-2004.848713373816
 30
0.0
 11
-260.0814571566863
 21
-3186.848919635881
 31
0.0
  0
LINE
  5
154
330
1F
100
AcDbEntity
  8
0-B_寸法
  6
Continuous
 62
   120
370
     5
100
AcDbLine
 10
-236.0814577100422
 20
-1271.67391562918
 30
0.0
 11
-236.0814577100422
 21
-1127.324482354702
 31
0.0
  0
LWPOLYLINE
  5
155
330
1F
100
AcDbEntity
  8
0-B_寸法
  6
Continuous
 62
     7
370
     9
100
AcDbPolyline
 90
        4
 70
     1
 43
3.0
 10
-234.5814577100422
 20
-1271.67391562918
 42
0.4142135623731
 10
-236.0814577100422
 20
-1270.17391562918
 42
0.4142135623731
 10
-237.5814577100422
 20
-1271.67391562918
 42
0.4142135623731
 10
-236.0814577100422
 20
-1273.17391562918
 42
0.4142135623731
  0
LINE
  5
156
330
1F
100
AcDbEntity
  8
0-B_寸法
  6
Continuous
 62
   120
370
     5
100
AcDbLine
 10
255.9185422899597
 20
-1271.67391562918
 30
0.0
 11
255.9185422899597
 21
-1148.324482354697
 31
0.0
  0
LWPOLYLINE
  5
157
330
1F
100
AcDbEntity
  8
0-B_寸法
  6
Continuous
 62
     7
370
     9
100
AcDbPolyline
 90
        4
 70
     1
 43
3.0
 10
257.4185422899597
 20
-1271.67391562918
 42
0.4142135623731
 10
255.9185422899597
 20
-1270.17391562918
 42
0.4142135623731
 10
254.4185422899597
 20
-1271.67391562918
 42
0.4142135623731
 10
255.9185422899597
 20
-1273.17391562918
 42
0.4142135623731
  0
LINE
  5
158
330
1F
100
AcDbEntity
  8
0-B_寸法
  6
Continuous
 62
   120
370
     5
100
AcDbLine
 10
-236.0814577100422
 20
-1271.67391562918
 30
0.0
 11
255.9185422899597
 21
-1271.67391562918
 31
0.0
  0
MTEXT
  5
159
330
1F
100
AcDbEntity
  8
0-B_寸法
  6
Continuous
 62
     7
370
     0
100
AcDbMText
 10
-50.08145771004166
 20
-1270.95391562918
 30
0.0
 40
91.44
 41
120.0
 46
0.0
 71
     7
 72
     1
  1
{\fＭＳ ゴシック|b0|i0|c128|p49;82}
 73
     1
 44
1.0
  0
LINE
  5
15A
330
1F
100
AcDbEntity
  8
0-0_補助線
  6
JWW_HOJO
 62
   120
370
     5
100
AcDbLine
 10
-680.0814571566855
 20
-3258.848713373798
 30
0.0
 11
-680.0814571566855
 21
-498.8487133738215
 31
0.0
  0
LINE
  5
15B
330
1F
100
AcDbEntity
  8
0-0_補助線
  6
JWW_HOJO
 62
   120
370
     5
100
AcDbLine
 10
-104.0814571566833
 20
-3258.848713373798
 30
0.0
 11
-104.0814571566833
 21
-498.8487133738215
 31
0.0
  0
LINE
  5
15C
330
1F
100
AcDbEntity
  8
0-0_補助線
  6
JWW_HOJO
 62
   120
370
     5
100
AcDbLine
 10
123.9185428433183
 20
-3258.848713373798
 30
0.0
 11
123.9185428433183
 21
-498.8487133738215
 31
0.0
  0
MTEXT
  5
15D
330
1F
100
AcDbEntity
  8
0-A_文字
  6
Continuous
 62
     7
370
     9
100
AcDbMText
 10
-682.2514215941715
 20
-352.2120577840903
 30
0.0
 40
91.44
 41
600.0
 46
0.0
 71
     7
 72
     1
  1
{\fＭＳ ゴシック|b0|i0|c128|p49;■縦断面図}
 73
     1
 44
1.0
  0
LINE
  5
15E
330
1F
100
AcDbEntity
  8
0-7_金物
  6
Continuous
 62
     7
370
     9
100
AcDbLine
 10
207.9185428829277
 20
-756.5470590550298
 30
0.0
 11
207.9185428829277
 21
-642.8487133546197
 31
0.0
  0
LINE
  5
15F
330
1F
100
AcDbEntity
  8
0-7_金物
  6
Continuous
 62
     7
370
     9
100
AcDbLine
 10
207.9185428829277
 20
-642.8487133546197
 30
0.0
 11
39.91854284932913
 21
-642.8487133546197
 31
0.0
  0
LINE
  5
160
330
1F
100
AcDbEntity
  8
0-7_金物
  6
Continuous
 62
     7
370
     9
100
AcDbLine
 10
39.91854284932913
 20
-642.8487133546197
 30
0.0
 11
39.91854284932913
 21
-738.8487133738215
 31
0.0
  0
LINE
  5
161
330
1F
100
AcDbEntity
  8
0-7_金物
  6
Continuous
 62
     7
370
     9
100
AcDbLine
 10
48.91854285112856
 20
-651.8487133564179
 30
0.0
 11
48.91854285112856
 21
-762.8487133786189
 31
0.0
  0
LINE
  5
162
330
1F
100
AcDbEntity
  8
0-7_金物
  6
Continuous
 62
     7
370
     9
100
AcDbLine
 10
198.9185428811282
 20
-651.8487133564179
 30
0.0
 11
48.91854285112856
 21
-651.8487133564179
 31
0.0
  0
LINE
  5
163
330
1F
100
AcDbEntity
  8
0-7_金物
  6
Continuous
 62
     7
370
     9
100
AcDbLine
 10
198.9185428811282
 20
-762.8487133786189
 30
0.0
 11
198.9185428811282
 21
-651.8487133564179
 31
0.0
  0
LINE
  5
164
330
1F
100
AcDbEntity
  8
0-7_金物
  6
Continuous
 62
     7
370
     9
100
AcDbLine
 10
39.91854284932913
 20
-771.8487133804183
 30
0.0
 11
69.91854285532497
 21
-771.8487133804183
 31
0.0
  0
LINE
  5
165
330
1F
100
AcDbEntity
  8
0-7_金物
  6
Continuous
 62
     7
370
     9
100
AcDbLine
 10
207.9185428829277
 20
-771.8487133804183
 30
0.0
 11
177.918542876925
 21
-771.8487133804183
 31
0.0
  0
LINE
  5
166
330
1F
100
AcDbEntity
  8
0-7_金物
  6
Continuous
 62
     7
370
     9
100
AcDbLine
 10
177.918542876925
 20
-771.8487133804183
 30
0.0
 11
177.918542876925
 21
-762.8487133786189
 31
0.0
  0
LINE
  5
167
330
1F
100
AcDbEntity
  8
0-7_金物
  6
Continuous
 62
     7
370
     9
100
AcDbLine
 10
69.91854285532497
 20
-771.8487133804183
 30
0.0
 11
69.91854285532497
 21
-762.8487133786189
 31
0.0
  0
LINE
  5
168
330
1F
100
AcDbEntity
  8
0-7_金物
  6
Continuous
 62
     7
370
     9
100
AcDbLine
 10
177.918542876925
 20
-762.8487133786189
 30
0.0
 11
198.9185428811282
 21
-762.8487133786189
 31
0.0
  0
LINE
  5
169
330
1F
100
AcDbEntity
  8
0-7_金物
  6
Continuous
 62
     7
370
     9
100
AcDbLine
 10
69.91854285532497
 20
-762.8487133786189
 30
0.0
 11
48.91854285112856
 21
-762.8487133786189
 31
0.0
  0
LINE
  5
16A
330
1F
100
AcDbEntity
  8
0-7_金物
  6
Continuous
 62
     7
370
     9
100
AcDbLine
 10
207.9185428829277
 20
-771.8487133804183
 30
0.0
 11
231.9185428877284
 21
-738.8487133738215
 31
0.0
  0
LINE
  5
16B
330
1F
100
AcDbEntity
  8
0-7_金物
  6
Continuous
 62
     7
370
     9
100
AcDbLine
 10
207.9185428829277
 20
-756.5470590550298
 30
0.0
 11
220.7900670147177
 21
-738.8487133738215
 31
0.0
  0
LINE
  5
16C
330
1F
100
AcDbEntity
  8
0-7_金物
  6
Continuous
 62
     7
370
     9
100
AcDbLine
 10
168.1386678424309
 20
-744.5507440961262
 30
0.0
 11
75.28706667831955
 21
-744.5507440961262
 31
0.0
  0
LINE
  5
16D
330
1F
100
AcDbEntity
  8
0-7_金物
  6
Continuous
 62
     7
370
     9
100
AcDbLine
 10
75.28706667831955
 20
-753.9900828118892
 30
0.0
 11
75.28706667831955
 21
-659.1702442092243
 31
0.0
  0
LINE
  5
16E
330
1F
100
AcDbEntity
  8
0-7_金物
  6
Continuous
 62
     7
370
     9
100
AcDbLine
 10
75.28706667831955
 20
-673.5465785000475
 30
0.0
 11
168.1386678424309
 21
-673.5465785000475
 31
0.0
  0
LINE
  5
16F
330
1F
100
AcDbEntity
  8
0-7_金物
  6
Continuous
 62
     7
370
     9
100
AcDbLine
 10
168.1386678424309
 20
-753.9900828118892
 30
0.0
 11
168.1386678424309
 21
-659.1702442092243
 31
0.0
  0
LINE
  5
170
330
1F
100
AcDbEntity
  8
0-7_金物
  6
Continuous
 62
     7
370
     9
100
AcDbLine
 10
75.28706667831955
 20
-659.1702442092243
 30
0.0
 11
55.03882402912893
 21
-659.1702442092243
 31
0.0
  0
LINE
  5
171
330
1F
100
AcDbEntity
  8
0-7_金物
  6
Continuous
 62
     7
370
     9
100
AcDbLine
 10
55.03882402912893
 20
-659.1702442092243
 30
0.0
 11
55.03882402912893
 21
-753.9900828118892
 31
0.0
  0
LINE
  5
172
330
1F
100
AcDbEntity
  8
0-7_金物
  6
Continuous
 62
     7
370
     9
100
AcDbLine
 10
55.03882402912893
 20
-753.9900828118892
 30
0.0
 11
75.28706667831955
 21
-753.9900828118892
 31
0.0
  0
LINE
  5
173
330
1F
100
AcDbEntity
  8
0-7_金物
  6
Continuous
 62
     7
370
     9
100
AcDbLine
 10
168.1386678424309
 20
-753.9900828118892
 30
0.0
 11
189.1742054670402
 21
-753.9900828118892
 31
0.0
  0
LINE
  5
174
330
1F
100
AcDbEntity
  8
0-7_金物
  6
Continuous
 62
     7
370
     9
100
AcDbLine
 10
189.1742054670402
 20
-753.9900828118892
 30
0.0
 11
189.1742054670402
 21
-659.1702442092243
 31
0.0
  0
LINE
  5
175
330
1F
100
AcDbEntity
  8
0-7_金物
  6
Continuous
 62
     7
370
     9
100
AcDbLine
 10
168.1386678424309
 20
-659.1702442092243
 30
0.0
 11
189.1742054670402
 21
-659.1702442092243
 31
0.0
  0
LINE
  5
176
330
1F
100
AcDbEntity
  8
0-7_金物
  6
Continuous
 62
     7
370
     9
100
AcDbLine
 10
-20.0814571626762
 20
-771.8487133804183
 30
0.0
 11
-20.0814571626762
 21
-642.8487133546197
 31
0.0
  0
LINE
  5
177
330
1F
100
AcDbEntity
  8
0-7_金物
  6
Continuous
 62
     7
370
     9
100
AcDbLine
 10
-20.0814571626762
 20
-642.8487133546197
 30
0.0
 11
-188.0814571962748
 21
-642.8487133546197
 31
0.0
  0
LINE
  5
178
330
1F
100
AcDbEntity
  8
0-7_金物
  6
Continuous
 62
     7
370
     9
100
AcDbLine
 10
-188.0814571962748
 20
-642.8487133546197
 30
0.0
 11
-188.0814571962748
 21
-771.8487133804183
 31
0.0
  0
LINE
  5
179
330
1F
100
AcDbEntity
  8
0-7_金物
  6
Continuous
 62
     7
370
     9
100
AcDbLine
 10
-179.0814571944753
 20
-651.8487133564179
 30
0.0
 11
-179.0814571944753
 21
-762.8487133786189
 31
0.0
  0
LINE
  5
17A
330
1F
100
AcDbEntity
  8
0-7_金物
  6
Continuous
 62
     7
370
     9
100
AcDbLine
 10
-29.08145716447564
 20
-651.8487133564179
 30
0.0
 11
-179.0814571944753
 21
-651.8487133564179
 31
0.0
  0
LINE
  5
17B
330
1F
100
AcDbEntity
  8
0-7_金物
  6
Continuous
 62
     7
370
     9
100
AcDbLine
 10
-29.08145716447564
 20
-762.8487133786189
 30
0.0
 11
-29.08145716447564
 21
-651.8487133564179
 31
0.0
  0
LINE
  5
17C
330
1F
100
AcDbEntity
  8
0-7_金物
  6
Continuous
 62
     7
370
     9
100
AcDbLine
 10
-188.0814571962748
 20
-771.8487133804183
 30
0.0
 11
-158.0814571902721
 21
-771.8487133804183
 31
0.0
  0
LINE
  5
17D
330
1F
100
AcDbEntity
  8
0-7_金物
  6
Continuous
 62
     7
370
     9
100
AcDbLine
 10
-50.08145716867205
 20
-771.8487133804183
 30
0.0
 11
-50.08145716867205
 21
-762.8487133786189
 31
0.0
  0
LINE
  5
17E
330
1F
100
AcDbEntity
  8
0-7_金物
  6
Continuous
 62
     7
370
     9
100
AcDbLine
 10
-158.0814571902721
 20
-771.8487133804183
 30
0.0
 11
-158.0814571902721
 21
-762.8487133786189
 31
0.0
  0
LINE
  5
17F
330
1F
100
AcDbEntity
  8
0-7_金物
  6
Continuous
 62
     7
370
     9
100
AcDbLine
 10
-50.08145716867205
 20
-762.8487133786189
 30
0.0
 11
-29.08145716447564
 21
-762.8487133786189
 31
0.0
  0
LINE
  5
180
330
1F
100
AcDbEntity
  8
0-7_金物
  6
Continuous
 62
     7
370
     9
100
AcDbLine
 10
-158.0814571902721
 20
-762.8487133786189
 30
0.0
 11
-179.0814571944753
 21
-762.8487133786189
 31
0.0
  0
LINE
  5
181
330
1F
100
AcDbEntity
  8
0-7_金物
  6
Continuous
 62
     7
370
     9
100
AcDbLine
 10
-59.86133220317299
 20
-744.5507440961262
 30
0.0
 11
-152.7129333672775
 21
-744.5507440961262
 31
0.0
  0
LINE
  5
182
330
1F
100
AcDbEntity
  8
0-7_金物
  6
Continuous
 62
     7
370
     9
100
AcDbLine
 10
-152.7129333672775
 20
-753.9900828118892
 30
0.0
 11
-152.7129333672775
 21
-659.1702442092243
 31
0.0
  0
LINE
  5
183
330
1F
100
AcDbEntity
  8
0-7_金物
  6
Continuous
 62
     7
370
     9
100
AcDbLine
 10
-152.7129333672775
 20
-673.5465785000475
 30
0.0
 11
-59.86133220317299
 21
-673.5465785000475
 31
0.0
  0
LINE
  5
184
330
1F
100
AcDbEntity
  8
0-7_金物
  6
Continuous
 62
     7
370
     9
100
AcDbLine
 10
-59.86133220317299
 20
-753.9900828118892
 30
0.0
 11
-59.86133220317299
 21
-659.1702442092243
 31
0.0
  0
LINE
  5
185
330
1F
100
AcDbEntity
  8
0-7_金物
  6
Continuous
 62
     7
370
     9
100
AcDbLine
 10
-152.7129333672775
 20
-659.1702442092243
 30
0.0
 11
-172.9611760164681
 21
-659.1702442092243
 31
0.0
  0
LINE
  5
186
330
1F
100
AcDbEntity
  8
0-7_金物
  6
Continuous
 62
     7
370
     9
100
AcDbLine
 10
-172.9611760164681
 20
-659.1702442092243
 30
0.0
 11
-172.9611760164681
 21
-753.9900828118892
 31
0.0
  0
LINE
  5
187
330
1F
100
AcDbEntity
  8
0-7_金物
  6
Continuous
 62
     7
370
     9
100
AcDbLine
 10
-172.9611760164681
 20
-753.9900828118892
 30
0.0
 11
-152.7129333672775
 21
-753.9900828118892
 31
0.0
  0
LINE
  5
188
330
1F
100
AcDbEntity
  8
0-7_金物
  6
Continuous
 62
     7
370
     9
100
AcDbLine
 10
-59.86133220317299
 20
-753.9900828118892
 30
0.0
 11
-38.82579457855002
 21
-753.9900828118892
 31
0.0
  0
LINE
  5
189
330
1F
100
AcDbEntity
  8
0-7_金物
  6
Continuous
 62
     7
370
     9
100
AcDbLine
 10
-38.82579457855002
 20
-753.9900828118892
 30
0.0
 11
-38.82579457855002
 21
-659.1702442092243
 31
0.0
  0
LINE
  5
18A
330
1F
100
AcDbEntity
  8
0-7_金物
  6
Continuous
 62
     7
370
     9
100
AcDbLine
 10
-59.86133220317299
 20
-659.1702442092243
 30
0.0
 11
-38.82579457855002
 21
-659.1702442092243
 31
0.0
  0
LINE
  5
18B
330
1F
100
AcDbEntity
  8
0-7_金物
  6
Continuous
 62
     7
370
     9
100
AcDbLine
 10
-20.0814571626762
 20
-771.8487133804183
 30
0.0
 11
-50.08145716867205
 21
-771.8487133804183
 31
0.0
  0
LINE
  5
18C
330
1F
100
AcDbEntity
  8
0-7_金物
  6
Continuous
 62
     7
370
     9
100
AcDbLine
 10
39.91854284932913
 20
-771.8487133804183
 30
0.0
 11
39.91854284932913
 21
-747.8487133756188
 31
0.0
  0
LINE
  5
18D
330
1F
100
AcDbEntity
  8
0-7_金物
  6
Continuous
 62
     7
370
     9
100
AcDbLine
 10
220.7900670147177
 20
-738.8487133738215
 30
0.0
 11
231.9185428877284
 21
-738.8487133738215
 31
0.0
  0
LINE
  5
18E
330
1F
100
AcDbEntity
  8
0-7_金物
  6
Continuous
 62
     7
370
     9
100
AcDbLine
 10
-20.0814571626762
 20
-738.8487133738215
 30
0.0
 11
39.91854284932913
 21
-738.8487133738215
 31
0.0
  0
LINE
  5
18F
330
1F
100
AcDbEntity
  8
0-7_金物
  6
Continuous
 62
     7
370
     9
100
AcDbLine
 10
-188.0814571962748
 20
-771.8487133804183
 30
0.0
 11
-212.0814572010687
 21
-738.8487133738215
 31
0.0
  0
LINE
  5
190
330
1F
100
AcDbEntity
  8
0-7_金物
  6
Continuous
 62
     7
370
     9
100
AcDbLine
 10
-188.0814571962748
 20
-756.5470590550298
 30
0.0
 11
-200.9529813280648
 21
-738.8487133738215
 31
0.0
  0
LINE
  5
191
330
1F
100
AcDbEntity
  8
0-7_金物
  6
Continuous
 62
     7
370
     9
100
AcDbLine
 10
-200.9529813280648
 20
-738.8487133738215
 30
0.0
 11
-212.0814572010687
 21
-738.8487133738215
 31
0.0
  0
LINE
  5
192
330
1F
100
AcDbEntity
  8
0-7_金物
  6
Continuous
 62
     7
370
     9
100
AcDbLine
 10
39.91854284932913
 20
-747.8487133756188
 30
0.0
 11
14.41854284421595
 21
-747.8487133756188
 31
0.0
  0
LINE
  5
193
330
1F
100
AcDbEntity
  8
0-7_金物
  6
Continuous
 62
     7
370
     9
100
AcDbLine
 10
5.418542842416514
 20
-747.8487133756188
 30
0.0
 11
-20.0814571626762
 21
-747.8487133756188
 31
0.0
  0
LINE
  5
194
330
1F
100
AcDbEntity
  8
0-7_金物
  6
Continuous
 62
     7
370
     9
100
AcDbLine
 10
5.418542842416514
 20
-747.8487133756188
 30
0.0
 11
5.418542842416514
 21
-849.8487133960203
 31
0.0
  0
LINE
  5
195
330
1F
100
AcDbEntity
  8
0-7_金物
  6
Continuous
 62
     7
370
     9
100
AcDbLine
 10
14.41854284421595
 20
-738.8487133738215
 30
0.0
 11
14.41854284421595
 21
-849.8487133960203
 31
0.0
  0
LINE
  5
196
330
1F
100
AcDbEntity
  8
0-7_金物
  6
Continuous
 62
     7
370
     9
100
AcDbLine
 10
5.418542842416514
 20
-849.8487133960203
 30
0.0
 11
14.41854284421595
 21
-849.8487133960203
 31
0.0
  0
LINE
  5
197
330
1F
100
AcDbEntity
  8
0-4_枠
  6
Continuous
 62
    92
370
    13
100
AcDbLine
 10
-188.0814571962748
 20
-738.8487133738215
 30
0.0
 11
-188.0814571962748
 21
-642.8487133738214
 31
0.0
  0
LINE
  5
198
330
1F
100
AcDbEntity
  8
0-4_枠
  6
Continuous
 62
    92
370
    13
100
AcDbLine
 10
-188.0814571962748
 20
-738.8487133738215
 30
0.0
 11
-236.0814571566843
 21
-738.8487133738215
 31
0.0
  0
LINE
  5
199
330
1F
100
AcDbEntity
  8
0-4_枠
  6
Continuous
 62
    92
370
    13
100
AcDbLine
 10
-233.0818920321732
 20
-735.8487133738242
 30
0.0
 11
-188.0814571962748
 21
-735.8487133738242
 31
0.0
  0
LINE
  5
19A
330
1F
100
AcDbEntity
  8
0-4_枠
  6
Continuous
 62
    92
370
    13
100
AcDbLine
 10
-20.0814571626762
 20
-738.8487133738215
 30
0.0
 11
-20.0814571626762
 21
-642.8487133738214
 31
0.0
  0
LINE
  5
19B
330
1F
100
AcDbEntity
  8
0-4_枠
  6
Continuous
 62
    92
370
    13
100
AcDbLine
 10
-20.0814571626762
 20
-642.8487133738214
 30
0.0
 11
-188.0814571962748
 21
-642.8487133738214
 31
0.0
  0
LINE
  5
19C
330
1F
100
AcDbEntity
  8
0-4_枠
  6
Continuous
 62
    92
370
    13
100
AcDbLine
 10
39.91854284932913
 20
-738.8487133738215
 30
0.0
 11
39.91854284932913
 21
-642.8487133738214
 31
0.0
  0
LINE
  5
19D
330
1F
100
AcDbEntity
  8
0-4_枠
  6
Continuous
 62
    92
370
    13
100
AcDbLine
 10
39.91854284932913
 20
-735.8487133738242
 30
0.0
 11
-20.0814571626762
 21
-735.8487133738242
 31
0.0
  0
LINE
  5
19E
330
1F
100
AcDbEntity
  8
0-4_枠
  6
Continuous
 62
    92
370
    13
100
AcDbLine
 10
39.91854284932913
 20
-738.8487133738215
 30
0.0
 11
-20.0814571626762
 21
-738.8487133738215
 31
0.0
  0
LINE
  5
19F
330
1F
100
AcDbEntity
  8
0-4_枠
  6
Continuous
 62
    92
370
    13
100
AcDbLine
 10
207.9185428829277
 20
-738.8487133738215
 30
0.0
 11
207.9185428829277
 21
-642.8487133738214
 31
0.0
  0
LINE
  5
1A0
330
1F
100
AcDbEntity
  8
0-4_枠
  6
Continuous
 62
    92
370
    13
100
AcDbLine
 10
252.9183826260311
 20
-735.8487133738242
 30
0.0
 11
207.9185428829277
 21
-735.8487133738242
 31
0.0
  0
LINE
  5
1A1
330
1F
100
AcDbEntity
  8
0-4_枠
  6
Continuous
 62
    92
370
    13
100
AcDbLine
 10
255.9185428433176
 20
-738.8487133738215
 30
0.0
 11
207.9185428829277
 21
-738.8487133738215
 31
0.0
  0
LINE
  5
1A2
330
1F
100
AcDbEntity
  8
0-4_枠
  6
Continuous
 62
    92
370
    13
100
AcDbLine
 10
207.9185428829277
 20
-642.8487133738214
 30
0.0
 11
39.91854284932913
 21
-642.8487133738214
 31
0.0
  0
LINE
  5
1A3
330
1F
100
AcDbEntity
  8
0-C_ハッチ
  6
Continuous
 62
   120
370
     5
100
AcDbLine
 10
207.9185428829277
 20
-654.6517308771864
 30
0.0
 11
252.9183826260311
 21
-609.6518911340809
 31
0.0
  0
LINE
  5
1A4
330
1F
100
AcDbEntity
  8
0-C_ハッチ
  6
Continuous
 62
   120
370
     5
100
AcDbLine
 10
207.9185428829277
 20
-714.0487004968337
 30
0.0
 11
252.9183826260311
 21
-669.0488607537294
 31
0.0
  0
LINE
  5
1A5
330
1F
100
AcDbEntity
  8
0-C_ハッチ
  6
Continuous
 62
   120
370
     5
100
AcDbLine
 10
7.927621146937724
 20
-735.8487133738242
 30
0.0
 11
39.91854284932913
 21
-703.8577916714312
 31
0.0
  0
LINE
  5
1A6
330
1F
100
AcDbEntity
  8
0-C_ハッチ
  6
Continuous
 62
   120
370
     5
100
AcDbLine
 10
-20.0814571626762
 20
-645.0638524440874
 30
0.0
 11
66.13368190759132
 21
-558.8487133738215
 31
0.0
  0
LINE
  5
1A7
330
1F
100
AcDbEntity
  8
0-C_ハッチ
  6
Continuous
 62
   120
370
     5
100
AcDbLine
 10
-20.0814571626762
 20
-704.4608220637325
 30
0.0
 11
39.91854284932913
 21
-644.460822051734
 31
0.0
  0
LINE
  5
1A8
330
1F
100
AcDbEntity
  8
0-C_ハッチ
  6
Continuous
 62
   120
370
     5
100
AcDbLine
 10
-188.0814571962748
 20
-694.2699132383372
 30
0.0
 11
-229.6602573317614
 21
-735.8487133738255
 31
0.0
  0
LINE
  5
1A9
330
1F
100
AcDbEntity
  8
0-B_寸法
  6
Continuous
 62
   120
370
     5
100
AcDbLine
 10
1059.918542843318
 20
-738.8487133738215
 30
0.0
 11
639.9185428433162
 21
-738.8487133738215
 31
0.0
  0
LINE
  5
1AA
330
1F
100
AcDbEntity
  8
0-B_寸法
  6
Continuous
 62
   120
370
     5
100
AcDbLine
 10
1269.918542843318
 20
-3186.848713373798
 30
0.0
 11
639.9185428433162
 21
-3186.848713373798
 31
0.0
  0
LWPOLYLINE
  5
1AB
330
1F
100
AcDbEntity
  8
0-B_寸法
  6
Continuous
 62
     7
370
     9
100
AcDbPolyline
 90
        4
 70
     1
 43
3.0
 10
1061.418542843318
 20
-738.8487133738215
 42
0.4142135623731
 10
1059.918542843318
 20
-737.3487133738215
 42
0.4142135623731
 10
1058.418542843318
 20
-738.8487133738215
 42
0.4142135623731
 10
1059.918542843318
 20
-740.3487133738215
 42
0.4142135623731
  0
LINE
  5
1AC
330
1F
100
AcDbEntity
  8
0-B_寸法
  6
Continuous
 62
   120
370
     5
100
AcDbLine
 10
1059.918542843318
 20
-558.8487133738215
 30
0.0
 11
1059.918542843318
 21
-738.8487133738215
 31
0.0
  0
LWPOLYLINE
  5
1AD
330
1F
100
AcDbEntity
  8
0-B_寸法
  6
Continuous
 62
     7
370
     9
100
AcDbPolyline
 90
        4
 70
     1
 43
3.0
 10
1061.418542843318
 20
-558.8487133738215
 42
0.4142135623731
 10
1059.918542843318
 20
-557.3487133738215
 42
0.4142135623731
 10
1058.418542843318
 20
-558.8487133738215
 42
0.4142135623731
 10
1059.918542843318
 20
-560.3487133738215
 42
0.4142135623731
  0
LINE
  5
1AE
330
1F
100
AcDbEntity
  8
0-B_寸法
  6
Continuous
 62
   120
370
     5
100
AcDbLine
 10
1269.918542843318
 20
-558.8487133738215
 30
0.0
 11
639.9185428433162
 21
-558.8487133738215
 31
0.0
  0
LINE
  5
1AF
330
1F
100
AcDbEntity
  8
0-B_寸法
  6
Continuous
 62
   120
370
     5
100
AcDbLine
 10
1269.918542843318
 20
-3258.848713373798
 30
0.0
 11
1269.918542843318
 21
-3186.848713373798
 31
0.0
  0
LWPOLYLINE
  5
1B0
330
1F
100
AcDbEntity
  8
0-B_寸法
  6
Continuous
 62
     7
370
     9
100
AcDbPolyline
 90
        4
 70
     1
 43
3.0
 10
1271.418542843318
 20
-3258.848713373798
 42
0.4142135623731
 10
1269.918542843318
 20
-3257.348713373798
 42
0.4142135623731
 10
1268.418542843318
 20
-3258.848713373798
 42
0.4142135623731
 10
1269.918542843318
 20
-3260.348713373798
 42
0.4142135623731
  0
LWPOLYLINE
  5
1B1
330
1F
100
AcDbEntity
  8
0-B_寸法
  6
Continuous
 62
     7
370
     9
100
AcDbPolyline
 90
        4
 70
     1
 43
3.0
 10
1271.418542843318
 20
-3186.848713373798
 42
0.4142135623731
 10
1269.918542843318
 20
-3185.348713373798
 42
0.4142135623731
 10
1268.418542843318
 20
-3186.848713373798
 42
0.4142135623731
 10
1269.918542843318
 20
-3188.348713373797
 42
0.4142135623731
  0
LINE
  5
1B2
330
1F
100
AcDbEntity
  8
0-B_寸法
  6
Continuous
 62
   120
370
     5
100
AcDbLine
 10
1269.918542843318
 20
-3258.848713373798
 30
0.0
 11
639.9185428433162
 21
-3258.848713373798
 31
0.0
  0
LINE
  5
1B3
330
1F
100
AcDbEntity
  8
0-B_寸法
  6
Continuous
 62
   120
370
     5
100
AcDbLine
 10
1269.918542843318
 20
-3186.848713373798
 30
0.0
 11
1269.918542843318
 21
-558.8487133738215
 31
0.0
  0
LWPOLYLINE
  5
1B4
330
1F
100
AcDbEntity
  8
0-B_寸法
  6
Continuous
 62
     7
370
     9
100
AcDbPolyline
 90
        4
 70
     1
 43
3.0
 10
1271.418542843318
 20
-558.8487133738215
 42
0.4142135623731
 10
1269.918542843318
 20
-557.3487133738215
 42
0.4142135623731
 10
1268.418542843318
 20
-558.8487133738215
 42
0.4142135623731
 10
1269.918542843318
 20
-560.3487133738215
 42
0.4142135623731
  0
LINE
  5
1B5
330
1F
100
AcDbEntity
  8
0-1_通り芯
  6
JWW_CENTER1
 62
   120
370
     5
100
AcDbLine
 10
-680.0814571566855
 20
-3258.848713642228
 30
0.0
 11
1383.918542843318
 21
-3258.848713373798
 31
0.0
  0
LINE
  5
1B6
330
1F
100
AcDbEntity
  8
0-1_通り芯
  6
JWW_CENTER1
 62
   120
370
     5
100
AcDbLine
 10
-680.0814571566855
 20
-558.8487133738215
 30
0.0
 11
1383.918542843318
 21
-558.8487133738215
 31
0.0
  0
LINE
  5
1B7
330
1F
100
AcDbEntity
  8
0-0_補助線
  6
JWW_HOJO
 62
   120
370
     5
100
AcDbLine
 10
1269.918542843318
 20
-3258.848713373798
 30
0.0
 11
-680.0814571566855
 21
-3258.848713373798
 31
0.0
  0
MTEXT
  5
1B8
330
1F
100
AcDbEntity
  8
0-B_寸法
  6
Continuous
 62
     7
370
   211
100
AcDbMText
 10
1044.918542843318
 20
-724.0212133738215
 30
0.0
 40
97.15499999999999
 41
127.5
 46
0.0
 71
     7
 72
     1
  1
{\fＭＳ ゴシック|b0|i0|c128|p49;30}
 11
6.123031769111886E-17
 21
1.0
 31
0.0
 73
     1
 44
1.0
  0
MTEXT
  5
1B9
330
1F
100
AcDbEntity
  8
0-B_寸法
  6
Continuous
 62
     7
370
   211
100
AcDbMText
 10
1254.918542843318
 20
-3409.771213373798
 30
0.0
 40
97.15499999999999
 41
127.5
 46
0.0
 71
     7
 72
     1
  1
{\fＭＳ ゴシック|b0|i0|c128|p49;12}
 11
6.123031769111886E-17
 21
1.0
 31
0.0
 73
     1
 44
1.0
  0
LINE
  5
1BA
330
1F
100
AcDbEntity
  8
0-0_補助線
  6
JWW_HOJO
 62
   120
370
     5
100
AcDbLine
 10
639.9185428433179
 20
-3258.848713373796
 30
0.0
 11
639.9185428433179
 21
-498.8487133738215
 31
0.0
  0
LINE
  5
1BB
330
1F
100
AcDbEntity
  8
0-0_補助線
  6
JWW_HOJO
 62
   120
370
     5
100
AcDbLine
 10
849.9185428433179
 20
-3258.84871364223
 30
0.0
 11
849.9185428433179
 21
-498.8487133738215
 31
0.0
  0
LINE
  5
1BC
330
1F
100
AcDbEntity
  8
0-0_補助線
  6
JWW_HOJO
 62
   120
370
     5
100
AcDbLine
 10
1059.918542843318
 20
-3258.848713373796
 30
0.0
 11
1059.918542843318
 21
-498.8487133738215
 31
0.0
  0
LINE
  5
1BD
330
1F
100
AcDbEntity
  8
0-0_補助線
  6
JWW_HOJO
 62
   120
370
     5
100
AcDbLine
 10
1269.918542843318
 20
-3258.848713373796
 30
0.0
 11
1269.918542843318
 21
-498.8487133738215
 31
0.0
  0
LINE
  5
1BE
330
1F
100
AcDbEntity
  8
0-0_補助線
  6
JWW_HOJO
 62
   120
370
     5
100
AcDbLine
 10
-680.0814571566855
 20
-498.8487133738215
 30
0.0
 11
1269.918542843318
 21
-498.8487133738215
 31
0.0
  0
LWPOLYLINE
  5
1BF
330
1F
100
AcDbEntity
  8
0-B_寸法
  6
Continuous
 62
     7
370
     9
100
AcDbPolyline
 90
        4
 70
     1
 43
3.0
 10
1061.418542843318
 20
-3186.848713373798
 42
0.4142135623731
 10
1059.918542843318
 20
-3185.348713373798
 42
0.4142135623731
 10
1058.418542843318
 20
-3186.848713373798
 42
0.4142135623731
 10
1059.918542843318
 20
-3188.348713373797
 42
0.4142135623731
  0
LINE
  5
1C0
330
1F
100
AcDbEntity
  8
0-B_寸法
  6
Continuous
 62
   120
370
     5
100
AcDbLine
 10
1059.918542843318
 20
-3186.848713373798
 30
0.0
 11
1059.918542843318
 21
-738.8487133738215
 31
0.0
  0
LWPOLYLINE
  5
1C1
330
1F
100
AcDbEntity
  8
0-B_寸法
  6
Continuous
 62
     7
370
     9
100
AcDbPolyline
 90
        4
 70
     1
 43
3.0
 10
851.4185428433179
 20
-3186.848713373798
 42
0.4142135623731
 10
849.9185428433179
 20
-3185.348713373798
 42
0.4142135623731
 10
848.4185428433179
 20
-3186.848713373798
 42
0.4142135623731
 10
849.9185428433179
 20
-3188.348713373797
 42
0.4142135623731
  0
LWPOLYLINE
  5
1C2
330
1F
100
AcDbEntity
  8
0-B_寸法
  6
Continuous
 62
     7
370
     9
100
AcDbPolyline
 90
        4
 70
     1
 43
3.0
 10
851.4185428433179
 20
-738.8487133738215
 42
0.4142135623731
 10
849.9185428433179
 20
-737.3487133738215
 42
0.4142135623731
 10
848.4185428433179
 20
-738.8487133738215
 42
0.4142135623731
 10
849.9185428433179
 20
-740.3487133738215
 42
0.4142135623731
  0
LINE
  5
1C3
330
1F
100
AcDbEntity
  8
0-7_金物
  6
Continuous
 62
   200
370
    20
100
AcDbLine
 10
-14.08145715427452
 20
-3096.84891963528
 30
0.0
 11
-14.08145715427452
 21
-3090.848919634083
 31
0.0
  0
LINE
  5
1C4
330
1F
100
AcDbEntity
  8
0-7_金物
  6
Continuous
 62
   200
370
    20
100
AcDbLine
 10
-194.0814571902769
 20
-3096.84891963528
 30
0.0
 11
-194.0814571902769
 21
-3090.848919634083
 31
0.0
  0
ARC
  5
1C5
330
1F
100
AcDbEntity
  8
0-7_金物
  6
Continuous
 62
   200
370
    20
100
AcDbCircle
 10
-17.08145715487206
 20
-3096.84891963528
 30
0.0
 40
3.0000000006
100
AcDbArc
 50
270.0
 51
0.0
  0
LINE
  5
1C6
330
1F
100
AcDbEntity
  8
0-7_金物
  6
Continuous
 62
   200
370
    20
100
AcDbLine
 10
-17.08145715487206
 20
-3099.848919635881
 30
0.0
 11
-191.0814571896725
 21
-3099.848919635881
 31
0.0
  0
ARC
  5
1C7
330
1F
100
AcDbEntity
  8
0-7_金物
  6
Continuous
 62
   200
370
    20
100
AcDbCircle
 10
-191.0814571896725
 20
-3096.84891963528
 30
0.0
 40
3.0000000006
100
AcDbArc
 50
180.0
 51
270.0
  0
LINE
  5
1C8
330
1F
100
AcDbEntity
  8
0-7_金物
  6
Continuous
 62
   200
370
    20
100
AcDbLine
 10
213.918542861316
 20
-3096.84891963528
 30
0.0
 11
213.918542861316
 21
-3090.848919634083
 31
0.0
  0
LINE
  5
1C9
330
1F
100
AcDbEntity
  8
0-7_金物
  6
Continuous
 62
   200
370
    20
100
AcDbLine
 10
33.91854282531369
 20
-3096.84891963528
 30
0.0
 11
33.91854282531369
 21
-3090.848919634083
 31
0.0
  0
LINE
  5
1CA
330
1F
100
AcDbEntity
  8
0-7_金物
  6
Continuous
 62
   200
370
    20
100
AcDbLine
 10
35.4696603354347
 20
-3090.848919634083
 30
0.0
 11
213.918542861316
 21
-3090.848919634083
 31
0.0
  0
LINE
  5
1CB
330
1F
100
AcDbEntity
  8
0-7_金物
  6
Continuous
 62
   200
370
    20
100
AcDbLine
 10
33.91854282531369
 20
-3090.848919634083
 30
0.0
 11
35.4696603354347
 21
-3090.848919634083
 31
0.0
  0
ARC
  5
1CC
330
1F
100
AcDbEntity
  8
0-7_金物
  6
Continuous
 62
   200
370
    20
100
AcDbCircle
 10
210.9185428607185
 20
-3096.84891963528
 30
0.0
 40
3.0000000006
100
AcDbArc
 50
270.0
 51
0.0
  0
LINE
  5
1CD
330
1F
100
AcDbEntity
  8
0-7_金物
  6
Continuous
 62
   200
370
    20
100
AcDbLine
 10
210.9185428607185
 20
-3099.848919635881
 30
0.0
 11
36.91854282591805
 21
-3099.848919635881
 31
0.0
  0
ARC
  5
1CE
330
1F
100
AcDbEntity
  8
0-7_金物
  6
Continuous
 62
   200
370
    20
100
AcDbCircle
 10
36.91854282591805
 20
-3096.84891963528
 30
0.0
 40
3.0000000006
100
AcDbArc
 50
180.0
 51
270.0
  0
LINE
  5
1CF
330
1F
100
AcDbEntity
  8
0-7_金物
  6
Continuous
 62
   200
370
    20
100
AcDbLine
 10
-194.0814571902726
 20
-3090.848919634083
 30
0.0
 11
-14.08145715427452
 21
-3090.848919634083
 31
0.0
  0
LINE
  5
1D0
330
1F
100
AcDbEntity
  8
0-6_扉
  6
Continuous
 62
   200
370
    20
100
AcDbLine
 10
-194.0814571566833
 20
-2004.848919635899
 30
0.0
 11
-194.0814571566833
 21
-3090.848919634083
 31
0.0
  0
LINE
  5
1D1
330
1F
100
AcDbEntity
  8
0-6_扉
  6
Continuous
 62
   200
370
    20
100
AcDbLine
 10
213.918542843314
 20
-2004.848919635899
 30
0.0
 11
213.918542843314
 21
-3090.848919634083
 31
0.0
  0
LINE
  5
1D2
330
1F
100
AcDbEntity
  8
0-6_扉
  6
Continuous
 62
   200
370
    20
100
AcDbLine
 10
33.91854284331401
 20
-2004.848919635899
 30
0.0
 11
33.91854284331401
 21
-3090.848919634083
 31
0.0
  0
LINE
  5
1D3
330
1F
100
AcDbEntity
  8
0-6_扉
  6
Continuous
 62
   200
370
    20
100
AcDbLine
 10
-14.08145715668326
 20
-2004.848919635899
 30
0.0
 11
-14.08145715668326
 21
-3090.848919634083
 31
0.0
  0
LWPOLYLINE
  5
1D4
330
1F
100
AcDbEntity
  8
0-B_寸法
  6
Continuous
 62
     7
370
     9
100
AcDbPolyline
 90
        4
 70
     1
 43
3.0
 10
851.4185428433179
 20
-3099.848713373797
 42
0.4142135623731
 10
849.9185428433179
 20
-3098.348713373797
 42
0.4142135623731
 10
848.4185428433179
 20
-3099.848713373797
 42
0.4142135623731
 10
849.9185428433179
 20
-3101.348713373797
 42
0.4142135623731
  0
LINE
  5
1D5
330
1F
100
AcDbEntity
  8
0-B_寸法
  6
Continuous
 62
   120
370
     5
100
AcDbLine
 10
849.9185428433179
 20
-3099.848713373797
 30
0.0
 11
639.9185428433162
 21
-3099.848713373797
 31
0.0
  0
MTEXT
  5
1D6
330
1F
100
AcDbEntity
  8
0-B_寸法
  6
Continuous
 62
     7
370
   211
100
AcDbMText
 10
834.9185428433179
 20
-3087.887945306473
 30
0.0
 40
100.0125
 41
262.5
 46
0.0
 71
     7
 72
     1
  1
{\fＭＳ ゴシック|b0|i0|c128|p49;14.5}
 11
6.123031769111886E-17
 21
1.0
 31
0.0
 73
     1
 44
1.0
  0
ARC
  5
1D7
330
1F
100
AcDbEntity
  8
0-7_金物
  6
Continuous
 62
     7
370
     9
100
AcDbCircle
 10
-81.58145716777369
 20
-3154.44891963036
 30
0.0
 40
6.0000000012
100
AcDbArc
 50
270.0
 51
0.0
  0
LINE
  5
1D8
330
1F
100
AcDbEntity
  8
0-7_金物
  6
Continuous
 62
     7
370
     9
100
AcDbLine
 10
-81.58145716777369
 20
-3160.448919631562
 30
0.0
 11
-126.5814571767777
 21
-3160.448919631562
 31
0.0
  0
ARC
  5
1D9
330
1F
100
AcDbEntity
  8
0-7_金物
  6
Continuous
 62
     7
370
     9
100
AcDbCircle
 10
-126.5814571767777
 20
-3154.44891963036
 30
0.0
 40
6.0000000012
100
AcDbArc
 50
180.0
 51
270.0
  0
LINE
  5
1DA
330
1F
100
AcDbEntity
  8
0-7_金物
  6
Continuous
 62
     7
370
     9
100
AcDbLine
 10
-113.0814571740751
 20
-3181.448919635763
 30
0.0
 11
-113.0814571740751
 21
-3160.448919631562
 31
0.0
  0
LINE
  5
1DB
330
1F
100
AcDbEntity
  8
0-7_金物
  6
Continuous
 62
     7
370
     9
100
AcDbLine
 10
-95.08145717046943
 20
-3181.448919635763
 30
0.0
 11
-95.08145717046943
 21
-3160.448919631562
 31
0.0
  0
LINE
  5
1DC
330
1F
100
AcDbEntity
  8
0-7_金物
  6
Continuous
 62
     7
370
     9
100
AcDbLine
 10
-122.0814571758746
 20
-3160.448919631562
 30
0.0
 11
-122.0814571758746
 21
-3166.033659759696
 31
0.0
  0
LINE
  5
1DD
330
1F
100
AcDbEntity
  8
0-7_金物
  6
Continuous
 62
     7
370
     9
100
AcDbLine
 10
-86.08145716867682
 20
-3160.448919631562
 30
0.0
 11
-86.08145716867682
 21
-3166.033659759696
 31
0.0
  0
LINE
  5
1DE
330
1F
100
AcDbEntity
  8
0-7_金物
  6
Continuous
 62
     7
370
     9
100
AcDbLine
 10
-95.08145717046943
 20
-3169.016464101242
 30
0.0
 11
-86.13304414583979
 21
-3166.033659759696
 31
0.0
  0
LINE
  5
1DF
330
1F
100
AcDbEntity
  8
0-7_金物
  6
Continuous
 62
     7
370
     9
100
AcDbLine
 10
-113.0814571740751
 20
-3169.016464101242
 30
0.0
 11
-122.0298701987048
 21
-3166.033659759696
 31
0.0
  0
ARC
  5
1E0
330
1F
100
AcDbEntity
  8
0-7_金物
  6
Continuous
 62
     7
370
     9
100
AcDbCircle
 10
-95.68145717059167
 20
-3181.448919635763
 30
0.0
 40
0.6000000001200001
100
AcDbArc
 50
270.0
 51
0.0
  0
LINE
  5
1E1
330
1F
100
AcDbEntity
  8
0-7_金物
  6
Continuous
 62
     7
370
     9
100
AcDbLine
 10
-95.68145717059167
 20
-3182.048919635882
 30
0.0
 11
-112.4814571739529
 21
-3182.048919635882
 31
0.0
  0
ARC
  5
1E2
330
1F
100
AcDbEntity
  8
0-7_金物
  6
Continuous
 62
     7
370
     9
100
AcDbCircle
 10
-112.4814571739529
 20
-3181.448919635763
 30
0.0
 40
0.6000000001200001
100
AcDbArc
 50
180.0
 51
270.0
  0
ARC
  5
1E3
330
1F
100
AcDbEntity
  8
0-7_金物
  6
Continuous
 62
     7
370
     9
100
AcDbCircle
 10
146.4185428478169
 20
-3154.44891963036
 30
0.0
 40
6.0000000012
100
AcDbArc
 50
270.0
 51
0.0
  0
LINE
  5
1E4
330
1F
100
AcDbEntity
  8
0-7_金物
  6
Continuous
 62
     7
370
     9
100
AcDbLine
 10
146.4185428478169
 20
-3160.448919631562
 30
0.0
 11
101.4185428388129
 21
-3160.448919631562
 31
0.0
  0
ARC
  5
1E5
330
1F
100
AcDbEntity
  8
0-7_金物
  6
Continuous
 62
     7
370
     9
100
AcDbCircle
 10
101.4185428388129
 20
-3154.44891963036
 30
0.0
 40
6.0000000012
100
AcDbArc
 50
180.0
 51
270.0
  0
LINE
  5
1E6
330
1F
100
AcDbEntity
  8
0-7_金物
  6
Continuous
 62
     7
370
     9
100
AcDbLine
 10
114.9185428415154
 20
-3181.448919635763
 30
0.0
 11
114.9185428415154
 21
-3160.448919631562
 31
0.0
  0
LINE
  5
1E7
330
1F
100
AcDbEntity
  8
0-7_金物
  6
Continuous
 62
     7
370
     9
100
AcDbLine
 10
132.9185428451211
 20
-3181.448919635763
 30
0.0
 11
132.9185428451211
 21
-3160.448919631562
 31
0.0
  0
LINE
  5
1E8
330
1F
100
AcDbEntity
  8
0-7_金物
  6
Continuous
 62
     7
370
     9
100
AcDbLine
 10
105.918542839716
 20
-3160.448919631562
 30
0.0
 11
105.918542839716
 21
-3166.033659759696
 31
0.0
  0
LINE
  5
1E9
330
1F
100
AcDbEntity
  8
0-7_金物
  6
Continuous
 62
     7
370
     9
100
AcDbLine
 10
141.9185428469137
 20
-3160.448919631562
 30
0.0
 11
141.9185428469137
 21
-3166.033659759696
 31
0.0
  0
LINE
  5
1EA
330
1F
100
AcDbEntity
  8
0-7_金物
  6
Continuous
 62
     7
370
     9
100
AcDbLine
 10
132.9185428451211
 20
-3169.016464101242
 30
0.0
 11
141.8669558697508
 21
-3166.033659759696
 31
0.0
  0
LINE
  5
1EB
330
1F
100
AcDbEntity
  8
0-7_金物
  6
Continuous
 62
     7
370
     9
100
AcDbLine
 10
114.9185428415154
 20
-3169.016464101242
 30
0.0
 11
105.9701298168858
 21
-3166.033659759696
 31
0.0
  0
ARC
  5
1EC
330
1F
100
AcDbEntity
  8
0-7_金物
  6
Continuous
 62
     7
370
     9
100
AcDbCircle
 10
132.3185428449989
 20
-3181.448919635763
 30
0.0
 40
0.6000000001200001
100
AcDbArc
 50
270.0
 51
0.0
  0
LINE
  5
1ED
330
1F
100
AcDbEntity
  8
0-7_金物
  6
Continuous
 62
     7
370
     9
100
AcDbLine
 10
132.3185428449989
 20
-3182.048919635882
 30
0.0
 11
115.5185428416377
 21
-3182.048919635882
 31
0.0
  0
ARC
  5
1EE
330
1F
100
AcDbEntity
  8
0-7_金物
  6
Continuous
 62
     7
370
     9
100
AcDbCircle
 10
115.5185428416377
 20
-3181.448919635763
 30
0.0
 40
0.6000000001200001
100
AcDbArc
 50
180.0
 51
270.0
  0
LINE
  5
1EF
330
1F
100
AcDbEntity
  8
0-7_金物
  6
Continuous
 62
     7
370
     9
100
AcDbLine
 10
-75.5814571665718
 20
-3154.44891963036
 30
0.0
 11
-75.5814571665718
 21
-3099.848919635881
 31
0.0
  0
LINE
  5
1F0
330
1F
100
AcDbEntity
  8
0-7_金物
  6
Continuous
 62
     7
370
     9
100
AcDbLine
 10
-132.5814571779728
 20
-3154.44891963036
 30
0.0
 11
-132.5814571779728
 21
-3099.848919635881
 31
0.0
  0
LINE
  5
1F1
330
1F
100
AcDbEntity
  8
0-7_金物
  6
Continuous
 62
     7
370
     9
100
AcDbLine
 10
152.4185428490188
 20
-3154.44891963036
 30
0.0
 11
152.4185428490188
 21
-3099.848919635881
 31
0.0
  0
LINE
  5
1F2
330
1F
100
AcDbEntity
  8
0-7_金物
  6
Continuous
 62
     7
370
     9
100
AcDbLine
 10
95.41854283761779
 20
-3154.44891963036
 30
0.0
 11
95.41854283761779
 21
-3099.848919635881
 31
0.0
  0
LINE
  5
1F3
330
1F
100
AcDbEntity
  8
0-B_寸法
  6
Continuous
 62
   120
370
     5
100
AcDbLine
 10
-218.0814571566806
 20
-2814.700982944882
 30
0.0
 11
9.918542843316231
 21
-2814.700982944882
 31
0.0
  0
LWPOLYLINE
  5
1F4
330
1F
100
AcDbEntity
  8
0-B_寸法
  6
Continuous
 62
     7
370
     9
100
AcDbPolyline
 90
        4
 70
     1
 43
3.0
 10
-216.5814571566806
 20
-2814.700982944882
 42
0.4142135623731
 10
-218.0814571566806
 20
-2813.200982944882
 42
0.4142135623731
 10
-219.5814571566806
 20
-2814.700982944882
 42
0.4142135623731
 10
-218.0814571566806
 20
-2816.200982944882
 42
0.4142135623731
  0
LWPOLYLINE
  5
1F5
330
1F
100
AcDbEntity
  8
0-B_寸法
  6
Continuous
 62
     7
370
     9
100
AcDbPolyline
 90
        4
 70
     1
 43
3.0
 10
11.41854284331623
 20
-2814.700982944882
 42
0.4142135623731
 10
9.918542843316231
 20
-2813.200982944882
 42
0.4142135623731
 10
8.418542843316231
 20
-2814.700982944882
 42
0.4142135623731
 10
9.918542843316231
 20
-2816.200982944882
 42
0.4142135623731
  0
LINE
  5
1F6
330
1F
100
AcDbEntity
  8
0-B_寸法
  6
Continuous
 62
   120
370
     5
100
AcDbLine
 10
-218.0814571566806
 20
-2814.700982944882
 30
0.0
 11
-218.0814571566806
 21
-2958.848616367447
 31
0.0
  0
LINE
  5
1F7
330
1F
100
AcDbEntity
  8
0-B_寸法
  6
Continuous
 62
   120
370
     5
100
AcDbLine
 10
9.918542843316231
 20
-2814.700982944882
 30
0.0
 11
9.918542843316231
 21
-2958.848616367447
 31
0.0
  0
MTEXT
  5
1F8
330
1F
100
AcDbEntity
  8
0-B_寸法
  6
Continuous
 62
     7
370
   211
100
AcDbMText
 10
-167.8314571566822
 20
-2811.123482944882
 30
0.0
 40
97.15499999999999
 41
127.5
 46
0.0
 71
     7
 72
     1
  1
{\fＭＳ ゴシック|b0|i0|c128|p49;38}
 73
     1
 44
1.0
  0
LINE
  5
1F9
330
1F
100
AcDbEntity
  8
0-B_寸法
  6
Continuous
 62
   120
370
     5
100
AcDbLine
 10
9.918542843316231
 20
-2814.700982944882
 30
0.0
 11
237.9185428433199
 21
-2814.700982944882
 31
0.0
  0
LWPOLYLINE
  5
1FA
330
1F
100
AcDbEntity
  8
0-B_寸法
  6
Continuous
 62
     7
370
     9
100
AcDbPolyline
 90
        4
 70
     1
 43
3.0
 10
239.4185428433199
 20
-2814.700982944882
 42
0.4142135623731
 10
237.9185428433199
 20
-2813.200982944882
 42
0.4142135623731
 10
236.4185428433199
 20
-2814.700982944882
 42
0.4142135623731
 10
237.9185428433199
 20
-2816.200982944882
 42
0.4142135623731
  0
LINE
  5
1FB
330
1F
100
AcDbEntity
  8
0-B_寸法
  6
Continuous
 62
   120
370
     5
100
AcDbLine
 10
237.9185428433199
 20
-2814.700982944882
 30
0.0
 11
237.9185428433199
 21
-2958.848616367447
 31
0.0
  0
MTEXT
  5
1FC
330
1F
100
AcDbEntity
  8
0-B_寸法
  6
Continuous
 62
     7
370
   211
100
AcDbMText
 10
60.16854284331806
 20
-2811.123482944882
 30
0.0
 40
97.15499999999999
 41
127.5
 46
0.0
 71
     7
 72
     1
  1
{\fＭＳ ゴシック|b0|i0|c128|p49;38}
 73
     1
 44
1.0
  0
MTEXT
  5
1FD
330
1F
100
AcDbEntity
  8
0-B_寸法
  6
Continuous
 62
     7
370
   211
100
AcDbMText
 10
-320.0818283164199
 20
1194.681624593446
 30
0.0
 40
91.43999999999997
 41
660.0
 46
0.0
 71
     7
 72
     1
  1
{\fＭＳ ゴシック|b0|i0|c128|p49;枠外＝1,644}
 73
     1
 44
1.0
  0
MTEXT
  5
1FE
330
1F
100
AcDbEntity
  8
0-B_寸法
  6
Continuous
 62
     7
370
   211
100
AcDbMText
 10
-320.0818283164199
 20
1404.681624593446
 30
0.0
 40
91.43999999999997
 41
660.0
 46
0.0
 71
     7
 72
     1
  1
{\fＭＳ ゴシック|b0|i0|c128|p49;枠内＝1,584}
 73
     1
 44
1.0
  0
MTEXT
  5
1FF
330
1F
100
AcDbEntity
  8
0-B_寸法
  6
Continuous
 62
     7
370
   211
100
AcDbMText
 10
2296.034456028228
 20
1404.681624593446
 30
0.0
 40
91.44
 41
120.0
 46
0.0
 71
     7
 72
     1
  1
{\fＭＳ ゴシック|b0|i0|c128|p49;30}
 73
     1
 44
1.0
  0
MTEXT
  5
200
330
1F
100
AcDbEntity
  8
0-B_寸法
  6
Continuous
 62
     7
370
   211
100
AcDbMText
 10
-2396.198112661067
 20
1404.681624593446
 30
0.0
 40
91.44
 41
120.0
 46
0.0
 71
     7
 72
     1
  1
{\fＭＳ ゴシック|b0|i0|c128|p49;30}
 73
     1
 44
1.0
  0
LINE
  5
201
330
1F
100
AcDbEntity
  8
0-B_寸法
  6
Continuous
 62
   120
370
     5
100
AcDbLine
 10
-2426.19811266107
 20
1193.961624593446
 30
0.0
 11
2446.034456028228
 21
1193.961624593446
 31
0.0
  0
LINE
  5
202
330
1F
100
AcDbEntity
  8
0-B_寸法
  6
Continuous
 62
   120
370
     5
100
AcDbLine
 10
2266.034456028228
 20
1403.961624593446
 30
0.0
 11
-2246.198112661068
 21
1403.961624593446
 31
0.0
  0
LINE
  5
203
330
1F
100
AcDbEntity
  8
0-B_寸法
  6
Continuous
 62
   120
370
     5
100
AcDbLine
 10
2446.034456028228
 20
1193.961624593446
 30
0.0
 11
2446.034456028228
 21
1763.961624593446
 31
0.0
  0
LWPOLYLINE
  5
204
330
1F
100
AcDbEntity
  8
0-B_寸法
  6
Continuous
 62
     7
370
     9
100
AcDbPolyline
 90
        4
 70
     1
 43
3.0
 10
2447.534456028228
 20
1403.961624593446
 42
0.4142135623731
 10
2446.034456028228
 20
1405.461624593446
 42
0.4142135623731
 10
2444.534456028228
 20
1403.961624593446
 42
0.4142135623731
 10
2446.034456028228
 20
1402.461624593447
 42
0.4142135623731
  0
LINE
  5
205
330
1F
100
AcDbEntity
  8
0-B_寸法
  6
Continuous
 62
   120
370
     5
100
AcDbLine
 10
2266.034456028228
 20
1403.961624593446
 30
0.0
 11
2446.034456028228
 21
1403.961624593446
 31
0.0
  0
LINE
  5
206
330
1F
100
AcDbEntity
  8
0-B_寸法
  6
Continuous
 62
   120
370
     5
100
AcDbLine
 10
2266.034456028228
 20
1403.961624593446
 30
0.0
 11
2266.034456028228
 21
1763.961624593446
 31
0.0
  0
LWPOLYLINE
  5
207
330
1F
100
AcDbEntity
  8
0-B_寸法
  6
Continuous
 62
     7
370
     9
100
AcDbPolyline
 90
        4
 70
     1
 43
3.0
 10
2447.534456028228
 20
1193.961624593446
 42
0.4142135623731
 10
2446.034456028228
 20
1195.461624593446
 42
0.4142135623731
 10
2444.534456028228
 20
1193.961624593446
 42
0.4142135623731
 10
2446.034456028228
 20
1192.461624593447
 42
0.4142135623731
  0
LWPOLYLINE
  5
208
330
1F
100
AcDbEntity
  8
0-B_寸法
  6
Continuous
 62
     7
370
     9
100
AcDbPolyline
 90
        4
 70
     1
 43
3.0
 10
2267.534456028228
 20
1403.961624593446
 42
0.4142135623731
 10
2266.034456028228
 20
1405.461624593446
 42
0.4142135623731
 10
2264.534456028228
 20
1403.961624593446
 42
0.4142135623731
 10
2266.034456028228
 20
1402.461624593447
 42
0.4142135623731
  0
LINE
  5
209
330
1F
100
AcDbEntity
  8
0-B_寸法
  6
Continuous
 62
   120
370
     5
100
AcDbLine
 10
-2426.19811266107
 20
1193.961624593446
 30
0.0
 11
-2426.19811266107
 21
1763.961624593446
 31
0.0
  0
LWPOLYLINE
  5
20A
330
1F
100
AcDbEntity
  8
0-B_寸法
  6
Continuous
 62
     7
370
     9
100
AcDbPolyline
 90
        4
 70
     1
 43
3.0
 10
-2424.69811266107
 20
1403.961624593446
 42
0.4142135623731
 10
-2426.19811266107
 20
1405.461624593446
 42
0.4142135623731
 10
-2427.69811266107
 20
1403.961624593446
 42
0.4142135623731
 10
-2426.19811266107
 20
1402.461624593447
 42
0.4142135623731
  0
LINE
  5
20B
330
1F
100
AcDbEntity
  8
0-B_寸法
  6
Continuous
 62
   120
370
     5
100
AcDbLine
 10
-2426.19811266107
 20
1403.961624593446
 30
0.0
 11
-2246.198112661068
 21
1403.961624593446
 31
0.0
  0
LINE
  5
20C
330
1F
100
AcDbEntity
  8
0-B_寸法
  6
Continuous
 62
   120
370
     5
100
AcDbLine
 10
-2246.198112661068
 20
1403.961624593446
 30
0.0
 11
-2246.198112661068
 21
1763.961624593446
 31
0.0
  0
LWPOLYLINE
  5
20D
330
1F
100
AcDbEntity
  8
0-B_寸法
  6
Continuous
 62
     7
370
     9
100
AcDbPolyline
 90
        4
 70
     1
 43
3.0
 10
-2424.69811266107
 20
1193.961624593446
 42
0.4142135623731
 10
-2426.19811266107
 20
1195.461624593446
 42
0.4142135623731
 10
-2427.69811266107
 20
1193.961624593446
 42
0.4142135623731
 10
-2426.19811266107
 20
1192.461624593447
 42
0.4142135623731
  0
LWPOLYLINE
  5
20E
330
1F
100
AcDbEntity
  8
0-B_寸法
  6
Continuous
 62
     7
370
     9
100
AcDbPolyline
 90
        4
 70
     1
 43
3.0
 10
-2244.698112661068
 20
1403.961624593446
 42
0.4142135623731
 10
-2246.198112661068
 20
1405.461624593446
 42
0.4142135623731
 10
-2247.698112661068
 20
1403.961624593446
 42
0.4142135623731
 10
-2246.198112661068
 20
1402.461624593447
 42
0.4142135623731
  0
LINE
  5
20F
330
1F
100
AcDbEntity
  8
0-B_寸法
  6
Continuous
 62
   120
370
     5
100
AcDbLine
 10
849.9185428433179
 20
-3186.848713373798
 30
0.0
 11
849.9185428433179
 21
-819.8487133738216
 31
0.0
  0
LINE
  5
210
330
1F
100
AcDbEntity
  8
0-7_金物
  6
Continuous
 62
     7
370
     9
100
AcDbLine
 10
-116.0814571818725
 20
-744.5507440961262
 30
0.0
 11
-116.0814571818725
 21
-819.8487133738216
 31
0.0
  0
LINE
  5
211
330
1F
100
AcDbEntity
  8
0-7_金物
  6
Continuous
 62
     7
370
     9
100
AcDbLine
 10
-92.08145717707168
 20
-744.5507440961262
 30
0.0
 11
-92.08145717707168
 21
-819.8487133738216
 31
0.0
  0
LINE
  5
212
330
1F
100
AcDbEntity
  8
0-7_金物
  6
Continuous
 62
     7
370
     9
100
AcDbLine
 10
111.9185428637246
 20
-744.5507440961262
 30
0.0
 11
111.9185428637246
 21
-819.8487133738216
 31
0.0
  0
LINE
  5
213
330
1F
100
AcDbEntity
  8
0-7_金物
  6
Continuous
 62
     7
370
     9
100
AcDbLine
 10
135.9185428685254
 20
-744.5507440961262
 30
0.0
 11
135.9185428685254
 21
-819.8487133738216
 31
0.0
  0
LINE
  5
214
330
1F
100
AcDbEntity
  8
0-6_扉
  6
Continuous
 62
   200
370
    20
100
AcDbLine
 10
-194.0814571566833
 20
-819.8487133738216
 30
0.0
 11
-194.0814571566833
 21
-1884.848919635899
 31
0.0
  0
LINE
  5
215
330
1F
100
AcDbEntity
  8
0-6_扉
  6
Continuous
 62
   200
370
    20
100
AcDbLine
 10
213.918542843314
 20
-819.8487133738216
 30
0.0
 11
213.918542843314
 21
-1884.848919635899
 31
0.0
  0
LINE
  5
216
330
1F
100
AcDbEntity
  8
0-6_扉
  6
Continuous
 62
   200
370
    20
100
AcDbLine
 10
-14.08145715668326
 20
-819.8487133738216
 30
0.0
 11
-194.0814571566833
 21
-819.8487133738216
 31
0.0
  0
LINE
  5
217
330
1F
100
AcDbEntity
  8
0-6_扉
  6
Continuous
 62
   200
370
    20
100
AcDbLine
 10
213.918542843314
 20
-819.8487133738216
 30
0.0
 11
33.91854284331401
 21
-819.8487133738216
 31
0.0
  0
LINE
  5
218
330
1F
100
AcDbEntity
  8
0-6_扉
  6
Continuous
 62
   200
370
    20
100
AcDbLine
 10
-14.08145715668326
 20
-819.8487133738216
 30
0.0
 11
-14.08145715668326
 21
-1134.706174416465
 31
0.0
  0
LINE
  5
219
330
1F
100
AcDbEntity
  8
0-6_扉
  6
Continuous
 62
   200
370
    20
100
AcDbLine
 10
33.91854284331401
 20
-819.8487133738216
 30
0.0
 11
33.91854284331401
 21
-1134.706174416465
 31
0.0
  0
LINE
  5
21A
330
1F
100
AcDbEntity
  8
0-B_寸法
  6
Continuous
 62
   120
370
     5
100
AcDbLine
 10
849.9185428433179
 20
-819.8487133738216
 30
0.0
 11
849.9185428433179
 21
-738.8487133738215
 31
0.0
  0
LWPOLYLINE
  5
21B
330
1F
100
AcDbEntity
  8
0-B_寸法
  6
Continuous
 62
     7
370
     9
100
AcDbPolyline
 90
        4
 70
     1
 43
3.0
 10
851.4185428433179
 20
-819.8487133738216
 42
0.4142135623731
 10
849.9185428433179
 20
-818.3487133738216
 42
0.4142135623731
 10
848.4185428433179
 20
-819.8487133738216
 42
0.4142135623731
 10
849.9185428433179
 20
-821.3487133738216
 42
0.4142135623731
  0
LINE
  5
21C
330
1F
100
AcDbEntity
  8
0-B_寸法
  6
Continuous
 62
   120
370
     5
100
AcDbLine
 10
849.9185428433179
 20
-819.8487133738216
 30
0.0
 11
639.9185428433162
 21
-819.8487133738216
 31
0.0
  0
MTEXT
  5
21D
330
1F
100
AcDbEntity
  8
0-B_寸法
  6
Continuous
 62
     7
370
   211
100
AcDbMText
 10
834.9185428433179
 20
-1111.264574256392
 30
0.0
 40
100.0125
 41
262.5
 46
0.0
 71
     7
 72
     1
  1
{\fＭＳ ゴシック|b0|i0|c128|p49;13.5}
 11
6.123031769111886E-17
 21
1.0
 31
0.0
 73
     1
 44
1.0
  0
MTEXT
  5
21E
330
1F
100
AcDbEntity
  8
0-B_寸法
  6
Continuous
 62
     7
370
   211
100
AcDbMText
 10
834.9185428433179
 20
-2321.433258828362
 30
0.0
 40
101.8309090909091
 41
735.0
 46
0.0
 71
     7
 72
     1
  1
{\fＭＳ ゴシック|b0|i0|c128|p49;ＤＨ＝2,342}
 11
6.123031769111886E-17
 21
1.0
 31
0.0
 73
     1
 44
1.0
  0
MTEXT
  5
21F
330
1F
100
AcDbEntity
  8
0-B_寸法
  6
Continuous
 62
     7
370
   211
100
AcDbMText
 10
1044.918542843318
 20
-2321.433258828362
 30
0.0
 40
101.8309090909091
 41
735.0
 46
0.0
 71
     7
 72
     1
  1
{\fＭＳ ゴシック|b0|i0|c128|p49;枠内＝2,370}
 11
6.123031769111886E-17
 21
1.0
 31
0.0
 73
     1
 44
1.0
  0
MTEXT
  5
220
330
1F
100
AcDbEntity
  8
0-B_寸法
  6
Continuous
 62
     7
370
   211
100
AcDbMText
 10
1254.918542843318
 20
-2321.433258828362
 30
0.0
 40
101.8309090909091
 41
735.0
 46
0.0
 71
     7
 72
     1
  1
{\fＭＳ ゴシック|b0|i0|c128|p49;枠外＝2,400}
 11
6.123031769111886E-17
 21
1.0
 31
0.0
 73
     1
 44
1.0
  0
MTEXT
  5
221
330
1F
100
AcDbEntity
  8
F-A_文字
  6
Continuous
 62
     7
370
     0
100
AcDbMText
 10
-5080.081323642279
 20
-4045.058436078391
 30
0.0
 40
79.88299999999994
 41
4717.5
 46
0.0
 71
     7
 72
     1
  1
{\fＭＳ ゴシック|b0|i0|c128|p49;ソフトアート　アルシャルル　２枚引き違い戸　下荷重（レールタイプ）ドアＨ2,342　枠外Ｗ1,644}
 73
     1
 44
1.0
  0
LINE
  5
222
330
1F
100
AcDbEntity
  8
0-7_金物
  6
Continuous
 62
    92
370
    13
100
AcDbLine
 10
-123.4533556416281
 20
-3168.849579021442
 30
0.0
 11
-156.2814571566886
 21
-3168.849579021442
 31
0.0
  0
LINE
  5
223
330
1F
100
AcDbEntity
  8
0-7_金物
  6
Continuous
 62
    92
370
    13
100
AcDbLine
 10
-158.081457156687
 20
-3170.649579021441
 30
0.0
 11
-156.2814571566886
 21
-3168.849579021442
 31
0.0
  0
LINE
  5
224
330
1F
100
AcDbEntity
  8
0-7_金物
  6
Continuous
 62
    92
370
    13
100
AcDbLine
 10
-159.8814571566888
 20
-3168.849579021442
 30
0.0
 11
-158.081457156687
 21
-3170.649579021441
 31
0.0
  0
LINE
  5
225
330
1F
100
AcDbEntity
  8
0-7_金物
  6
Continuous
 62
    92
370
    13
100
AcDbLine
 10
-199.2932320572979
 20
-3168.849579021442
 30
0.0
 11
-159.8814571566888
 21
-3168.849579021442
 31
0.0
  0
ARC
  5
226
330
1F
100
AcDbEntity
  8
0-7_金物
  6
Continuous
 62
    92
370
    13
100
AcDbCircle
 10
-199.2932320572979
 20
-3174.849579021442
 30
0.0
 40
6.0
100
AcDbArc
 50
90.0
 51
135.0
  0
LINE
  5
227
330
1F
100
AcDbEntity
  8
0-7_金物
  6
Continuous
 62
    92
370
    13
100
AcDbLine
 10
-203.5358727444165
 20
-3170.606938334322
 30
0.0
 11
-217.7299852941118
 21
-3184.801050884017
 31
0.0
  0
ARC
  5
228
330
1F
100
AcDbEntity
  8
0-7_金物
  6
Continuous
 62
    92
370
    13
100
AcDbCircle
 10
-216.8814571566881
 20
-3185.649579021441
 30
0.0
 40
1.2
100
AcDbArc
 50
135.0
 51
270.0
  0
LINE
  5
229
330
1F
100
AcDbEntity
  8
0-7_金物
  6
Continuous
 62
    92
370
    13
100
AcDbLine
 10
-207.28145715669
 20
-3186.849579021441
 30
0.0
 11
-216.8814571566881
 21
-3186.849579021441
 31
0.0
  0
ARC
  5
22A
330
1F
100
AcDbEntity
  8
0-7_金物
  6
Continuous
 62
    92
370
    13
100
AcDbCircle
 10
-207.28145715669
 20
-3185.649579021441
 30
0.0
 40
1.2
100
AcDbArc
 50
270.0
 51
0.0
  0
LINE
  5
22B
330
1F
100
AcDbEntity
  8
0-7_金物
  6
Continuous
 62
    92
370
    13
100
AcDbLine
 10
-206.0814571566877
 20
-3185.649579021441
 30
0.0
 11
-206.0814571566877
 21
-3183.334860395679
 31
0.0
  0
LINE
  5
22C
330
1F
100
AcDbEntity
  8
0-7_金物
  6
Continuous
 62
    92
370
    13
100
AcDbLine
 10
-206.0814571566877
 20
-3183.334860395679
 30
0.0
 11
-198.7961757824493
 21
-3176.049579021441
 31
0.0
  0
LINE
  5
22D
330
1F
100
AcDbEntity
  8
0-7_金物
  6
Continuous
 62
    92
370
    13
100
AcDbLine
 10
-198.7961757824493
 20
-3176.049579021441
 30
0.0
 11
-176.0814571566894
 21
-3176.049579021441
 31
0.0
  0
LINE
  5
22E
330
1F
100
AcDbEntity
  8
0-7_金物
  6
Continuous
 62
    92
370
    13
100
AcDbLine
 10
-176.0814571566894
 20
-3185.04957902144
 30
0.0
 11
-176.0814571566894
 21
-3176.049579021441
 31
0.0
  0
ARC
  5
22F
330
1F
100
AcDbEntity
  8
0-7_金物
  6
Continuous
 62
    92
370
    13
100
AcDbCircle
 10
-174.2814571566859
 20
-3185.04957902144
 30
0.0
 40
1.8
100
AcDbArc
 50
180.0
 51
270.0
  0
LINE
  5
230
330
1F
100
AcDbEntity
  8
0-7_金物
  6
Continuous
 62
    92
370
    13
100
AcDbLine
 10
-174.2814571566859
 20
-3186.849579021441
 30
0.0
 11
-171.8814571566881
 21
-3186.849579021441
 31
0.0
  0
ARC
  5
231
330
1F
100
AcDbEntity
  8
0-7_金物
  6
Continuous
 62
    92
370
    13
100
AcDbCircle
 10
-171.8814571566881
 20
-3185.04957902144
 30
0.0
 40
1.8
100
AcDbArc
 50
270.0
 51
0.0
  0
LINE
  5
232
330
1F
100
AcDbEntity
  8
0-7_金物
  6
Continuous
 62
    92
370
    13
100
AcDbLine
 10
-170.081457156688
 20
-3185.04957902144
 30
0.0
 11
-170.081457156688
 21
-3176.049579021441
 31
0.0
  0
LINE
  5
233
330
1F
100
AcDbEntity
  8
0-7_金物
  6
Continuous
 62
    92
370
    13
100
AcDbLine
 10
-146.0814571566894
 20
-3176.049579021441
 30
0.0
 11
-170.081457156688
 21
-3176.049579021441
 31
0.0
  0
LINE
  5
234
330
1F
100
AcDbEntity
  8
0-7_金物
  6
Continuous
 62
    92
370
    13
100
AcDbLine
 10
-146.0814571566894
 20
-3185.04957902144
 30
0.0
 11
-146.0814571566894
 21
-3176.049579021441
 31
0.0
  0
ARC
  5
235
330
1F
100
AcDbEntity
  8
0-7_金物
  6
Continuous
 62
    92
370
    13
100
AcDbCircle
 10
-144.2814571566859
 20
-3185.04957902144
 30
0.0
 40
1.8
100
AcDbArc
 50
180.0
 51
270.0
  0
LINE
  5
236
330
1F
100
AcDbEntity
  8
0-7_金物
  6
Continuous
 62
    92
370
    13
100
AcDbLine
 10
-136.4814571566862
 20
-3186.849579021441
 30
0.0
 11
-144.2814571566859
 21
-3186.849579021441
 31
0.0
  0
ARC
  5
237
330
1F
100
AcDbEntity
  8
0-7_金物
  6
Continuous
 62
    92
370
    13
100
AcDbCircle
 10
-136.4814571566862
 20
-3184.449579021441
 30
0.0
 40
2.4
100
AcDbArc
 50
270.0
 51
0.0
  0
ARC
  5
238
330
1F
100
AcDbEntity
  8
0-7_金物
  6
Continuous
 62
    92
370
    13
100
AcDbCircle
 10
-136.4814571566862
 20
-3184.449579021441
 30
0.0
 40
2.4
100
AcDbArc
 50
0.0
 51
90.0
  0
LINE
  5
239
330
1F
100
AcDbEntity
  8
0-7_金物
  6
Continuous
 62
    92
370
    13
100
AcDbLine
 10
-136.4814571566862
 20
-3182.049579021442
 30
0.0
 11
-140.081457156688
 21
-3182.049579021442
 31
0.0
  0
LINE
  5
23A
330
1F
100
AcDbEntity
  8
0-7_金物
  6
Continuous
 62
    92
370
    13
100
AcDbLine
 10
-140.081457156688
 20
-3176.049579021441
 30
0.0
 11
-140.081457156688
 21
-3182.049579021442
 31
0.0
  0
LINE
  5
23B
330
1F
100
AcDbEntity
  8
0-7_金物
  6
Continuous
 62
    92
370
    13
100
AcDbLine
 10
-125.6814571566875
 20
-3176.049579021441
 30
0.0
 11
-140.081457156688
 21
-3176.049579021441
 31
0.0
  0
ARC
  5
23C
330
1F
100
AcDbEntity
  8
0-7_金物
  6
Continuous
 62
    92
370
    13
100
AcDbCircle
 10
-125.6814571566875
 20
-3179.049579021441
 30
0.0
 40
3.0
100
AcDbArc
 50
0.0
 51
90.00000000000001
  0
LINE
  5
23D
330
1F
100
AcDbEntity
  8
0-7_金物
  6
Continuous
 62
    92
370
    13
100
AcDbLine
 10
-122.6814571566885
 20
-3179.049579021441
 30
0.0
 11
-122.6814571566885
 21
-3185.04957902144
 31
0.0
  0
ARC
  5
23E
330
1F
100
AcDbEntity
  8
0-7_金物
  6
Continuous
 62
    92
370
    13
100
AcDbCircle
 10
-120.8814571566867
 20
-3185.04957902144
 30
0.0
 40
1.8
100
AcDbArc
 50
180.0
 51
270.0
  0
LINE
  5
23F
330
1F
100
AcDbEntity
  8
0-7_金物
  6
Continuous
 62
    92
370
    13
100
AcDbLine
 10
-87.2814571566883
 20
-3186.849579021441
 30
0.0
 11
-120.8814571566867
 21
-3186.849579021441
 31
0.0
  0
ARC
  5
240
330
1F
100
AcDbEntity
  8
0-7_金物
  6
Continuous
 62
    92
370
    13
100
AcDbCircle
 10
-87.2814571566883
 20
-3185.04957902144
 30
0.0
 40
1.8
100
AcDbArc
 50
270.0
 51
0.0
  0
LINE
  5
241
330
1F
100
AcDbEntity
  8
0-7_金物
  6
Continuous
 62
    92
370
    13
100
AcDbLine
 10
-85.48145715668866
 20
-3179.049579021441
 30
0.0
 11
-85.48145715668866
 21
-3185.04957902144
 31
0.0
  0
ARC
  5
242
330
1F
100
AcDbEntity
  8
0-7_金物
  6
Continuous
 62
    92
370
    13
100
AcDbCircle
 10
-82.48145715668798
 20
-3179.049579021441
 30
0.0
 40
3.0
100
AcDbArc
 50
90.0
 51
180.0
  0
LINE
  5
243
330
1F
100
AcDbEntity
  8
0-7_金物
  6
Continuous
 62
    92
370
    13
100
AcDbLine
 10
-82.48145715668798
 20
-3176.049579021441
 30
0.0
 11
-68.08145715668743
 21
-3176.049579021441
 31
0.0
  0
LINE
  5
244
330
1F
100
AcDbEntity
  8
0-7_金物
  6
Continuous
 62
    92
370
    13
100
AcDbLine
 10
-68.08145715668743
 20
-3176.049579021441
 30
0.0
 11
-68.08145715668743
 21
-3182.049579021442
 31
0.0
  0
LINE
  5
245
330
1F
100
AcDbEntity
  8
0-7_金物
  6
Continuous
 62
    92
370
    13
100
AcDbLine
 10
-71.68145715668928
 20
-3182.049579021442
 30
0.0
 11
-68.08145715668743
 21
-3182.049579021442
 31
0.0
  0
ARC
  5
246
330
1F
100
AcDbEntity
  8
0-7_金物
  6
Continuous
 62
    92
370
    13
100
AcDbCircle
 10
-71.68145715668928
 20
-3184.449579021441
 30
0.0
 40
2.4
100
AcDbArc
 50
90.0
 51
180.0
  0
ARC
  5
247
330
1F
100
AcDbEntity
  8
0-7_金物
  6
Continuous
 62
    92
370
    13
100
AcDbCircle
 10
-71.68145715668928
 20
-3184.449579021441
 30
0.0
 40
2.4
100
AcDbArc
 50
180.0
 51
270.0
  0
LINE
  5
248
330
1F
100
AcDbEntity
  8
0-7_金物
  6
Continuous
 62
    92
370
    13
100
AcDbLine
 10
-71.68145715668928
 20
-3186.849579021441
 30
0.0
 11
-63.88145715668955
 21
-3186.849579021441
 31
0.0
  0
ARC
  5
249
330
1F
100
AcDbEntity
  8
0-7_金物
  6
Continuous
 62
    92
370
    13
100
AcDbCircle
 10
-63.88145715668912
 20
-3185.04957902144
 30
0.0
 40
1.8
100
AcDbArc
 50
270.0
 51
0.0
  0
LINE
  5
24A
330
1F
100
AcDbEntity
  8
0-7_金物
  6
Continuous
 62
    92
370
    13
100
AcDbLine
 10
-62.08145715668564
 20
-3185.04957902144
 30
0.0
 11
-62.08145715668564
 21
-3176.049579021441
 31
0.0
  0
LINE
  5
24B
330
1F
100
AcDbEntity
  8
0-7_金物
  6
Continuous
 62
    92
370
    13
100
AcDbLine
 10
-62.08145715668564
 20
-3176.049579021441
 30
0.0
 11
-8.081457156685303
 21
-3176.049579021441
 31
0.0
  0
LINE
  5
24C
330
1F
100
AcDbEntity
  8
0-7_金物
  6
Continuous
 62
    92
370
    13
100
AcDbLine
 10
-8.081457156685303
 20
-3176.049579021441
 30
0.0
 11
-8.081457156685303
 21
-3182.049579021442
 31
0.0
  0
LINE
  5
24D
330
1F
100
AcDbEntity
  8
0-7_金物
  6
Continuous
 62
    92
370
    13
100
AcDbLine
 10
-11.68145715668715
 20
-3182.049579021442
 30
0.0
 11
-8.081457156685303
 21
-3182.049579021442
 31
0.0
  0
ARC
  5
24E
330
1F
100
AcDbEntity
  8
0-7_金物
  6
Continuous
 62
    92
370
    13
100
AcDbCircle
 10
-11.68145715668715
 20
-3184.449579021441
 30
0.0
 40
2.4
100
AcDbArc
 50
90.0
 51
180.0
  0
ARC
  5
24F
330
1F
100
AcDbEntity
  8
0-7_金物
  6
Continuous
 62
    92
370
    13
100
AcDbCircle
 10
-11.68145715668715
 20
-3184.449579021441
 30
0.0
 40
2.4
100
AcDbArc
 50
180.0
 51
270.0
  0
LINE
  5
250
330
1F
100
AcDbEntity
  8
0-7_金物
  6
Continuous
 62
    92
370
    13
100
AcDbLine
 10
-11.68145715668715
 20
-3186.849579021441
 30
0.0
 11
-3.881457156687418
 21
-3186.849579021441
 31
0.0
  0
ARC
  5
251
330
1F
100
AcDbEntity
  8
0-7_金物
  6
Continuous
 62
    92
370
    13
100
AcDbCircle
 10
-3.881457156687418
 20
-3185.04957902144
 30
0.0
 40
1.8
100
AcDbArc
 50
270.0
 51
0.0
  0
LINE
  5
252
330
1F
100
AcDbEntity
  8
0-7_金物
  6
Continuous
 62
    92
370
    13
100
AcDbLine
 10
-2.081457156683939
 20
-3185.04957902144
 30
0.0
 11
-2.081457156683939
 21
-3176.049579021441
 31
0.0
  0
LINE
  5
253
330
1F
100
AcDbEntity
  8
0-7_金物
  6
Continuous
 62
    92
370
    13
100
AcDbLine
 10
-2.081457156683939
 20
-3176.049579021441
 30
0.0
 11
21.9185428433164
 21
-3176.049579021441
 31
0.0
  0
LINE
  5
254
330
1F
100
AcDbEntity
  8
0-7_金物
  6
Continuous
 62
    92
370
    13
100
AcDbLine
 10
21.9185428433164
 20
-3185.04957902144
 30
0.0
 11
21.9185428433164
 21
-3176.049579021441
 31
0.0
  0
ARC
  5
255
330
1F
100
AcDbEntity
  8
0-7_金物
  6
Continuous
 62
    92
370
    13
100
AcDbCircle
 10
23.71854284331818
 20
-3185.04957902144
 30
0.0
 40
1.8
100
AcDbArc
 50
180.0
 51
270.0
  0
LINE
  5
256
330
1F
100
AcDbEntity
  8
0-7_金物
  6
Continuous
 62
    92
370
    13
100
AcDbLine
 10
31.5185428433179
 20
-3186.849579021441
 30
0.0
 11
23.71854284331818
 21
-3186.849579021441
 31
0.0
  0
ARC
  5
257
330
1F
100
AcDbEntity
  8
0-7_金物
  6
Continuous
 62
    92
370
    13
100
AcDbCircle
 10
31.5185428433179
 20
-3184.449579021441
 30
0.0
 40
2.4
100
AcDbArc
 50
270.0
 51
0.0
  0
ARC
  5
258
330
1F
100
AcDbEntity
  8
0-7_金物
  6
Continuous
 62
    92
370
    13
100
AcDbCircle
 10
31.5185428433179
 20
-3184.449579021441
 30
0.0
 40
2.4
100
AcDbArc
 50
0.0
 51
90.0
  0
LINE
  5
259
330
1F
100
AcDbEntity
  8
0-7_金物
  6
Continuous
 62
    92
370
    13
100
AcDbLine
 10
31.5185428433179
 20
-3182.049579021442
 30
0.0
 11
27.91854284331777
 21
-3182.049579021442
 31
0.0
  0
LINE
  5
25A
330
1F
100
AcDbEntity
  8
0-7_金物
  6
Continuous
 62
    92
370
    13
100
AcDbLine
 10
27.91854284331777
 20
-3176.049579021441
 30
0.0
 11
27.91854284331777
 21
-3182.049579021442
 31
0.0
  0
LINE
  5
25B
330
1F
100
AcDbEntity
  8
0-7_金物
  6
Continuous
 62
    92
370
    13
100
AcDbLine
 10
81.91854284330958
 20
-3176.049579021441
 30
0.0
 11
27.91854284331777
 21
-3176.049579021441
 31
0.0
  0
LINE
  5
25C
330
1F
100
AcDbEntity
  8
0-7_金物
  6
Continuous
 62
    92
370
    13
100
AcDbLine
 10
81.91854284330958
 20
-3185.04957902144
 30
0.0
 11
81.91854284330958
 21
-3176.049579021441
 31
0.0
  0
ARC
  5
25D
330
1F
100
AcDbEntity
  8
0-7_金物
  6
Continuous
 62
    92
370
    13
100
AcDbCircle
 10
83.71854284331135
 20
-3185.04957902144
 30
0.0
 40
1.8
100
AcDbArc
 50
180.0
 51
270.0
  0
LINE
  5
25E
330
1F
100
AcDbEntity
  8
0-7_金物
  6
Continuous
 62
    92
370
    13
100
AcDbLine
 10
91.51854284331108
 20
-3186.849579021441
 30
0.0
 11
83.71854284331135
 21
-3186.849579021441
 31
0.0
  0
ARC
  5
25F
330
1F
100
AcDbEntity
  8
0-7_金物
  6
Continuous
 62
    92
370
    13
100
AcDbCircle
 10
91.51854284331108
 20
-3184.449579021441
 30
0.0
 40
2.4
100
AcDbArc
 50
270.0
 51
0.0
  0
ARC
  5
260
330
1F
100
AcDbEntity
  8
0-7_金物
  6
Continuous
 62
    92
370
    13
100
AcDbCircle
 10
91.51854284331108
 20
-3184.449579021441
 30
0.0
 40
2.4
100
AcDbArc
 50
0.0
 51
90.0
  0
LINE
  5
261
330
1F
100
AcDbEntity
  8
0-7_金物
  6
Continuous
 62
    92
370
    13
100
AcDbLine
 10
91.51854284331108
 20
-3182.049579021442
 30
0.0
 11
87.91854284331095
 21
-3182.049579021442
 31
0.0
  0
LINE
  5
262
330
1F
100
AcDbEntity
  8
0-7_金物
  6
Continuous
 62
    92
370
    13
100
AcDbLine
 10
87.91854284331095
 20
-3176.049579021441
 30
0.0
 11
87.91854284331095
 21
-3182.049579021442
 31
0.0
  0
LINE
  5
263
330
1F
100
AcDbEntity
  8
0-7_金物
  6
Continuous
 62
    92
370
    13
100
AcDbLine
 10
102.3185428433115
 20
-3176.049579021441
 30
0.0
 11
87.91854284331095
 21
-3176.049579021441
 31
0.0
  0
ARC
  5
264
330
1F
100
AcDbEntity
  8
0-7_金物
  6
Continuous
 62
    92
370
    13
100
AcDbCircle
 10
102.3185428433115
 20
-3179.049579021441
 30
0.0
 40
3.0
100
AcDbArc
 50
0.0
 51
90.00000000000001
  0
LINE
  5
265
330
1F
100
AcDbEntity
  8
0-7_金物
  6
Continuous
 62
    92
370
    13
100
AcDbLine
 10
105.3185428433122
 20
-3179.049579021441
 30
0.0
 11
105.3185428433122
 21
-3185.04957902144
 31
0.0
  0
ARC
  5
266
330
1F
100
AcDbEntity
  8
0-7_金物
  6
Continuous
 62
    92
370
    13
100
AcDbCircle
 10
107.1185428433105
 20
-3185.04957902144
 30
0.0
 40
1.8
100
AcDbArc
 50
180.0
 51
270.0
  0
LINE
  5
267
330
1F
100
AcDbEntity
  8
0-7_金物
  6
Continuous
 62
    92
370
    13
100
AcDbLine
 10
140.7185428433107
 20
-3186.849579021441
 30
0.0
 11
107.1185428433105
 21
-3186.849579021441
 31
0.0
  0
ARC
  5
268
330
1F
100
AcDbEntity
  8
0-7_金物
  6
Continuous
 62
    92
370
    13
100
AcDbCircle
 10
140.7185428433107
 20
-3185.04957902144
 30
0.0
 40
1.8
100
AcDbArc
 50
270.0
 51
0.0
  0
LINE
  5
269
330
1F
100
AcDbEntity
  8
0-7_金物
  6
Continuous
 62
    92
370
    13
100
AcDbLine
 10
142.5185428433124
 20
-3179.049579021441
 30
0.0
 11
142.5185428433124
 21
-3185.04957902144
 31
0.0
  0
ARC
  5
26A
330
1F
100
AcDbEntity
  8
0-7_金物
  6
Continuous
 62
    92
370
    13
100
AcDbCircle
 10
145.5185428433097
 20
-3179.049579021441
 30
0.0
 40
3.0
100
AcDbArc
 50
90.0
 51
180.0
  0
LINE
  5
26B
330
1F
100
AcDbEntity
  8
0-7_金物
  6
Continuous
 62
    92
370
    13
100
AcDbLine
 10
145.5185428433097
 20
-3176.049579021441
 30
0.0
 11
159.91854284331
 21
-3176.049579021441
 31
0.0
  0
LINE
  5
26C
330
1F
100
AcDbEntity
  8
0-7_金物
  6
Continuous
 62
    92
370
    13
100
AcDbLine
 10
159.91854284331
 20
-3176.049579021441
 30
0.0
 11
159.91854284331
 21
-3182.049579021442
 31
0.0
  0
LINE
  5
26D
330
1F
100
AcDbEntity
  8
0-7_金物
  6
Continuous
 62
    92
370
    13
100
AcDbLine
 10
156.3185428433099
 20
-3182.049579021442
 30
0.0
 11
159.91854284331
 21
-3182.049579021442
 31
0.0
  0
ARC
  5
26E
330
1F
100
AcDbEntity
  8
0-7_金物
  6
Continuous
 62
    92
370
    13
100
AcDbCircle
 10
156.3185428433099
 20
-3184.449579021441
 30
0.0
 40
2.4
100
AcDbArc
 50
90.0
 51
180.0
  0
ARC
  5
26F
330
1F
100
AcDbEntity
  8
0-7_金物
  6
Continuous
 62
    92
370
    13
100
AcDbCircle
 10
156.3185428433099
 20
-3184.449579021441
 30
0.0
 40
2.4
100
AcDbArc
 50
180.0
 51
270.0
  0
LINE
  5
270
330
1F
100
AcDbEntity
  8
0-7_金物
  6
Continuous
 62
    92
370
    13
100
AcDbLine
 10
156.3185428433099
 20
-3186.849579021441
 30
0.0
 11
164.1185428433096
 21
-3186.849579021441
 31
0.0
  0
ARC
  5
271
330
1F
100
AcDbEntity
  8
0-7_金物
  6
Continuous
 62
    92
370
    13
100
AcDbCircle
 10
164.1185428433096
 20
-3185.04957902144
 30
0.0
 40
1.8
100
AcDbArc
 50
270.0
 51
0.0
  0
LINE
  5
272
330
1F
100
AcDbEntity
  8
0-7_金物
  6
Continuous
 62
    92
370
    13
100
AcDbLine
 10
165.9185428433114
 20
-3185.04957902144
 30
0.0
 11
165.9185428433114
 21
-3176.049579021441
 31
0.0
  0
LINE
  5
273
330
1F
100
AcDbEntity
  8
0-7_金物
  6
Continuous
 62
    92
370
    13
100
AcDbLine
 10
165.9185428433114
 20
-3176.049579021441
 30
0.0
 11
189.91854284331
 21
-3176.049579021441
 31
0.0
  0
LINE
  5
274
330
1F
100
AcDbEntity
  8
0-7_金物
  6
Continuous
 62
    92
370
    13
100
AcDbLine
 10
189.91854284331
 20
-3185.04957902144
 30
0.0
 11
189.91854284331
 21
-3176.049579021441
 31
0.0
  0
ARC
  5
275
330
1F
100
AcDbEntity
  8
0-7_金物
  6
Continuous
 62
    92
370
    13
100
AcDbCircle
 10
191.7185428433101
 20
-3185.04957902144
 30
0.0
 40
1.8
100
AcDbArc
 50
180.0
 51
270.0
  0
LINE
  5
276
330
1F
100
AcDbEntity
  8
0-7_金物
  6
Continuous
 62
    92
370
    13
100
AcDbLine
 10
194.1185428433096
 20
-3186.849579021441
 30
0.0
 11
191.7185428433101
 21
-3186.849579021441
 31
0.0
  0
ARC
  5
277
330
1F
100
AcDbEntity
  8
0-7_金物
  6
Continuous
 62
    92
370
    13
100
AcDbCircle
 10
194.1185428433096
 20
-3185.04957902144
 30
0.0
 40
1.8
100
AcDbArc
 50
270.0
 51
0.0
  0
LINE
  5
278
330
1F
100
AcDbEntity
  8
0-7_金物
  6
Continuous
 62
    92
370
    13
100
AcDbLine
 10
195.9185428433114
 20
-3185.04957902144
 30
0.0
 11
195.9185428433114
 21
-3176.049579021441
 31
0.0
  0
LINE
  5
279
330
1F
100
AcDbEntity
  8
0-7_金物
  6
Continuous
 62
    92
370
    13
100
AcDbLine
 10
195.9185428433114
 20
-3176.049579021441
 30
0.0
 11
218.633261469073
 21
-3176.049579021441
 31
0.0
  0
LINE
  5
27A
330
1F
100
AcDbEntity
  8
0-7_金物
  6
Continuous
 62
    92
370
    13
100
AcDbLine
 10
225.9185428433114
 20
-3183.334860395679
 30
0.0
 11
218.633261469073
 21
-3176.049579021441
 31
0.0
  0
LINE
  5
27B
330
1F
100
AcDbEntity
  8
0-7_金物
  6
Continuous
 62
    92
370
    13
100
AcDbLine
 10
225.9185428433114
 20
-3185.649579021441
 30
0.0
 11
225.9185428433114
 21
-3183.334860395679
 31
0.0
  0
ARC
  5
27C
330
1F
100
AcDbEntity
  8
0-7_金物
  6
Continuous
 62
    92
370
    13
100
AcDbCircle
 10
227.1185428433103
 20
-3185.649579021441
 30
0.0
 40
1.2
100
AcDbArc
 50
180.0
 51
270.0
  0
LINE
  5
27D
330
1F
100
AcDbEntity
  8
0-7_金物
  6
Continuous
 62
    92
370
    13
100
AcDbLine
 10
227.1185428433103
 20
-3186.849579021441
 30
0.0
 11
236.7185428433118
 21
-3186.849579021441
 31
0.0
  0
ARC
  5
27E
330
1F
100
AcDbEntity
  8
0-7_金物
  6
Continuous
 62
    92
370
    13
100
AcDbCircle
 10
236.7185428433118
 20
-3185.649579021441
 30
0.0
 40
1.2
100
AcDbArc
 50
270.0
 51
45.00000000000003
  0
LINE
  5
27F
330
1F
100
AcDbEntity
  8
0-7_金物
  6
Continuous
 62
    92
370
    13
100
AcDbLine
 10
223.3729584310402
 20
-3170.606938334322
 30
0.0
 11
237.5670709807355
 21
-3184.801050884017
 31
0.0
  0
ARC
  5
280
330
1F
100
AcDbEntity
  8
0-7_金物
  6
Continuous
 62
    92
370
    13
100
AcDbCircle
 10
219.1303177439216
 20
-3174.849579021442
 30
0.0
 40
6.0
100
AcDbArc
 50
45.00000000000005
 51
90.00000000000006
  0
LINE
  5
281
330
1F
100
AcDbEntity
  8
0-7_金物
  6
Continuous
 62
    92
370
    13
100
AcDbLine
 10
219.1303177439216
 20
-3168.849579021442
 30
0.0
 11
179.7185428433125
 21
-3168.849579021442
 31
0.0
  0
LINE
  5
282
330
1F
100
AcDbEntity
  8
0-7_金物
  6
Continuous
 62
    92
370
    13
100
AcDbLine
 10
179.7185428433125
 20
-3168.849579021442
 30
0.0
 11
177.9185428433107
 21
-3170.649579021441
 31
0.0
  0
LINE
  5
283
330
1F
100
AcDbEntity
  8
0-7_金物
  6
Continuous
 62
    92
370
    13
100
AcDbLine
 10
177.9185428433107
 20
-3170.649579021441
 30
0.0
 11
176.1185428433106
 21
-3168.849579021442
 31
0.0
  0
LINE
  5
284
330
1F
100
AcDbEntity
  8
0-7_金物
  6
Continuous
 62
    92
370
    13
100
AcDbLine
 10
143.290441328252
 20
-3168.849579021442
 30
0.0
 11
176.1185428433106
 21
-3168.849579021442
 31
0.0
  0
ARC
  5
285
330
1F
100
AcDbEntity
  8
0-7_金物
  6
Continuous
 62
    92
370
    13
100
AcDbCircle
 10
143.290441328252
 20
-3171.849579021441
 30
0.0
 40
3.0
100
AcDbArc
 50
90.0
 51
107.8786965958413
  0
LINE
  5
286
330
1F
100
AcDbEntity
  8
0-7_金物
  6
Continuous
 62
    92
370
    13
100
AcDbLine
 10
142.3694329884827
 20
-3168.994453168159
 30
0.0
 11
135.5975345035418
 21
-3171.178936550399
 31
0.0
  0
ARC
  5
287
330
1F
100
AcDbEntity
  8
0-7_金物
  6
Continuous
 62
    92
370
    13
100
AcDbCircle
 10
136.5185428433111
 20
-3174.03406240368
 30
0.0
 40
3.0
100
AcDbArc
 50
107.8786965958413
 51
180.0
  0
LINE
  5
288
330
1F
100
AcDbEntity
  8
0-7_金物
  6
Continuous
 62
    92
370
    13
100
AcDbLine
 10
133.5185428433104
 20
-3174.03406240368
 30
0.0
 11
133.5185428433104
 21
-3180.249579021442
 31
0.0
  0
ARC
  5
289
330
1F
100
AcDbEntity
  8
0-7_金物
  6
Continuous
 62
    92
370
    13
100
AcDbCircle
 10
131.7185428433103
 20
-3180.249579021442
 30
0.0
 40
1.8
100
AcDbArc
 50
270.0
 51
0.0
  0
LINE
  5
28A
330
1F
100
AcDbEntity
  8
0-7_金物
  6
Continuous
 62
    92
370
    13
100
AcDbLine
 10
116.1185428433109
 20
-3182.049579021442
 30
0.0
 11
131.7185428433103
 21
-3182.049579021442
 31
0.0
  0
ARC
  5
28B
330
1F
100
AcDbEntity
  8
0-7_金物
  6
Continuous
 62
    92
370
    13
100
AcDbCircle
 10
116.1185428433109
 20
-3180.249579021442
 30
0.0
 40
1.8
100
AcDbArc
 50
180.0
 51
270.0
  0
LINE
  5
28C
330
1F
100
AcDbEntity
  8
0-7_金物
  6
Continuous
 62
    92
370
    13
100
AcDbLine
 10
114.3185428433108
 20
-3174.03406240368
 30
0.0
 11
114.3185428433108
 21
-3180.249579021442
 31
0.0
  0
ARC
  5
28D
330
1F
100
AcDbEntity
  8
0-7_金物
  6
Continuous
 62
    92
370
    13
100
AcDbCircle
 10
111.3185428433101
 20
-3174.03406240368
 30
0.0
 40
3.0
100
AcDbArc
 50
0.0
 51
72.12130340415868
  0
LINE
  5
28E
330
1F
100
AcDbEntity
  8
0-7_金物
  6
Continuous
 62
    92
370
    13
100
AcDbLine
 10
105.4676526981385
 20
-3168.994453168159
 30
0.0
 11
112.2395511830794
 21
-3171.178936550399
 31
0.0
  0
ARC
  5
28F
330
1F
100
AcDbEntity
  8
0-7_金物
  6
Continuous
 62
    92
370
    13
100
AcDbCircle
 10
104.5466443583692
 20
-3171.849579021441
 30
0.0
 40
3.0
100
AcDbArc
 50
72.12130340415871
 51
90.0
  0
LINE
  5
290
330
1F
100
AcDbEntity
  8
0-7_金物
  6
Continuous
 62
    92
370
    13
100
AcDbLine
 10
104.5466443583692
 20
-3168.849579021442
 30
0.0
 11
11.7185428433163
 21
-3168.849579021442
 31
0.0
  0
LINE
  5
291
330
1F
100
AcDbEntity
  8
0-7_金物
  6
Continuous
 62
    92
370
    13
100
AcDbLine
 10
11.7185428433163
 20
-3168.849579021442
 30
0.0
 11
9.918542843316231
 21
-3170.649579021441
 31
0.0
  0
LINE
  5
292
330
1F
100
AcDbEntity
  8
0-7_金物
  6
Continuous
 62
    92
370
    13
100
AcDbLine
 10
9.918542843316231
 20
-3170.649579021441
 30
0.0
 11
8.118542843316163
 21
-3168.849579021442
 31
0.0
  0
LINE
  5
293
330
1F
100
AcDbEntity
  8
0-7_金物
  6
Continuous
 62
    92
370
    13
100
AcDbLine
 10
-84.70955867174737
 20
-3168.849579021442
 30
0.0
 11
8.118542843316163
 21
-3168.849579021442
 31
0.0
  0
ARC
  5
294
330
1F
100
AcDbEntity
  8
0-7_金物
  6
Continuous
 62
    92
370
    13
100
AcDbCircle
 10
-84.70955867174737
 20
-3171.849579021441
 30
0.0
 40
3.0
100
AcDbArc
 50
90.0
 51
107.8786965958413
  0
LINE
  5
295
330
1F
100
AcDbEntity
  8
0-7_金物
  6
Continuous
 62
    92
370
    13
100
AcDbLine
 10
-85.63056701151666
 20
-3168.994453168159
 30
0.0
 11
-92.40246549645548
 21
-3171.178936550399
 31
0.0
  0
ARC
  5
296
330
1F
100
AcDbEntity
  8
0-7_金物
  6
Continuous
 62
    92
370
    13
100
AcDbCircle
 10
-91.48145715668619
 20
-3174.03406240368
 30
0.0
 40
3.0
100
AcDbArc
 50
107.8786965958413
 51
180.0
  0
LINE
  5
297
330
1F
100
AcDbEntity
  8
0-7_金物
  6
Continuous
 62
    92
370
    13
100
AcDbLine
 10
-94.48145715668858
 20
-3174.03406240368
 30
0.0
 11
-94.48145715668858
 21
-3180.249579021442
 31
0.0
  0
ARC
  5
298
330
1F
100
AcDbEntity
  8
0-7_金物
  6
Continuous
 62
    92
370
    13
100
AcDbCircle
 10
-96.28145715668865
 20
-3180.249579021442
 30
0.0
 40
1.8
100
AcDbArc
 50
270.0
 51
0.0
  0
LINE
  5
299
330
1F
100
AcDbEntity
  8
0-7_金物
  6
Continuous
 62
    92
370
    13
100
AcDbLine
 10
-111.8814571566881
 20
-3182.049579021442
 30
0.0
 11
-96.28145715668865
 21
-3182.049579021442
 31
0.0
  0
ARC
  5
29A
330
1F
100
AcDbEntity
  8
0-7_金物
  6
Continuous
 62
    92
370
    13
100
AcDbCircle
 10
-111.8814571566881
 20
-3180.249579021442
 30
0.0
 40
1.8
100
AcDbArc
 50
180.0
 51
270.0
  0
LINE
  5
29B
330
1F
100
AcDbEntity
  8
0-7_金物
  6
Continuous
 62
    92
370
    13
100
AcDbLine
 10
-113.6814571566865
 20
-3174.03406240368
 30
0.0
 11
-113.6814571566865
 21
-3180.249579021442
 31
0.0
  0
ARC
  5
29C
330
1F
100
AcDbEntity
  8
0-7_金物
  6
Continuous
 62
    92
370
    13
100
AcDbCircle
 10
-116.6814571566889
 20
-3174.03406240368
 30
0.0
 40
3.0
100
AcDbArc
 50
0.0
 51
72.12130340415868
  0
LINE
  5
29D
330
1F
100
AcDbEntity
  8
0-7_金物
  6
Continuous
 62
    92
370
    13
100
AcDbLine
 10
-122.5323473018588
 20
-3168.994453168159
 30
0.0
 11
-115.7604488169196
 21
-3171.178936550399
 31
0.0
  0
ARC
  5
29E
330
1F
100
AcDbEntity
  8
0-7_金物
  6
Continuous
 62
    92
370
    13
100
AcDbCircle
 10
-123.4533556416281
 20
-3171.849579021441
 30
0.0
 40
3.0
100
AcDbArc
 50
72.12130340415871
 51
90.0
  0
LINE
  5
29F
330
1F
100
AcDbEntity
  8
0-7_金物
  6
JWW_CENTER1
 62
   120
370
     5
100
AcDbLine
 10
9.918542843317084
 20
-210.8489196358832
 30
0.0
 11
9.918542843316231
 21
-3258.848919635882
 31
0.0
  0
MTEXT
  5
2A0
330
1F
100
AcDbEntity
  8
F-A_文字
  6
Continuous
 62
     7
370
     9
100
AcDbMText
 10
3296.167643811961
 20
-4145.315618467413
 30
0.0
 40
79.37500000000004
 41
937.5000000000005
 46
0.0
 71
     7
 72
     1
  1
{\fＭＳ ゴシック|b0|i0|c128|p49;FA04(8)-II1644_S01}
 73
     1
 44
1.0
  0
MTEXT
  5
2A1
330
1F
100
AcDbEntity
  8
F-A_文字
  6
Continuous
 62
     7
370
     0
100
AcDbMText
 10
4938.667793092893
 20
-3938.213885139966
 30
0.0
 40
78.58125
 41
412.5
 46
0.0
 71
     7
 72
     1
  1
{\fＭＳ ゴシック|b0|i0|c128|p49;17.04.03}
 73
     1
 44
1.0
  0
ENDSEC
  0
SECTION
  2
OBJECTS
  0
DICTIONARY
  5
C
330
0
100
AcDbDictionary
281
     1
  3
ACAD_GROUP
350
D
  3
ACAD_LAYOUT
350
1A
  3
ACAD_MATERIAL
350
3B
  3
ACAD_MLEADERSTYLE
350
2A3
  3
ACAD_MLINESTYLE
350
17
  3
ACAD_PLOTSETTINGS
350
19
  3
ACAD_PLOTSTYLENAME
350
E
  3
ACAD_TABLESTYLE
350
2A2
  3
ACAD_VISUALSTYLE
350
2A
  0
DICTIONARY
  5
D
102
{ACAD_REACTORS
330
C
102
}
330
C
100
AcDbDictionary
281
     1
  0
DICTIONARY
  5
1A
102
{ACAD_REACTORS
330
C
102
}
330
C
100
AcDbDictionary
281
     1
  3
Layout1
350
1E
  3
Layout2
350
26
  3
Model
350
22
  0
DICTIONARY
  5
3B
102
{ACAD_REACTORS
330
C
102
}
330
C
100
AcDbDictionary
281
     1
  3
ByBlock
350
3D
  3
ByLayer
350
3C
  3
Global
350
3E
  0
DICTIONARY
  5
2A3
102
{ACAD_REACTORS
330
C
102
}
330
C
100
AcDbDictionary
281
     1
  0
DICTIONARY
  5
17
102
{ACAD_REACTORS
330
C
102
}
330
C
100
AcDbDictionary
281
     1
  3
Standard
350
18
  0
DICTIONARY
  5
19
102
{ACAD_REACTORS
330
C
102
}
330
C
100
AcDbDictionary
281
     1
  0
ACDBDICTIONARYWDFLT
  5
E
102
{ACAD_REACTORS
330
C
102
}
330
C
100
AcDbDictionary
281
     1
  3
Normal
350
F
100
AcDbDictionaryWithDefault
340
F
  0
DICTIONARY
  5
2A2
102
{ACAD_REACTORS
330
C
102
}
330
C
100
AcDbDictionary
281
     1
  0
DICTIONARY
  5
2A
102
{ACAD_REACTORS
330
C
102
}
330
C
100
AcDbDictionary
281
     1
  3
2dWireframe
350
2F
  3
3D Hidden
350
31
  3
3dWireframe
350
30
  3
Basic
350
32
  3
Brighten
350
36
  3
ColorChange
350
3A
  3
Conceptual
350
34
  3
Dim
350
35
  3
Facepattern
350
39
  3
Flat
350
2B
  3
FlatWithEdges
350
2C
  3
Gouraud
350
2D
  3
GouraudWithEdges
350
2E
  3
Linepattern
350
38
  3
Realistic
350
33
  3
Thicken
350
37
  0
LAYOUT
  5
1E
102
{ACAD_REACTORS
330
1A
102
}
330
1A
100
AcDbPlotSettings
  1

  2
none_device
  4

  6

 40
0.0
 41
0.0
 42
0.0
 43
0.0
 44
0.0
 45
0.0
 46
0.0
 47
0.0
 48
0.0
 49
0.0
140
0.0
141
0.0
142
1.0
143
1.0
 70
   688
 72
     0
 73
     0
 74
     5
  7

 75
    16
 76
     0
 77
     5
 78
   300
147
1.0
148
0.0
149
0.0
100
AcDbLayout
  1
Layout1
 70
     1
 71
     1
 10
0.0
 20
0.0
 11
420.0
 21
297.0
 12
0.0
 22
0.0
 32
0.0
 14
1.000000000000000E+20
 24
1.000000000000000E+20
 34
1.000000000000000E+20
 15
-1.000000000000000E+20
 25
-1.000000000000000E+20
 35
-1.000000000000000E+20
146
0.0
 13
0.0
 23
0.0
 33
0.0
 16
1.0
 26
0.0
 36
0.0
 17
0.0
 27
1.0
 37
0.0
 76
     0
330
1B
  0
LAYOUT
  5
26
102
{ACAD_REACTORS
330
1A
102
}
330
1A
100
AcDbPlotSettings
  1

  2
none_device
  4

  6

 40
0.0
 41
0.0
 42
0.0
 43
0.0
 44
0.0
 45
0.0
 46
0.0
 47
0.0
 48
0.0
 49
0.0
140
0.0
141
0.0
142
1.0
143
1.0
 70
   688
 72
     0
 73
     0
 74
     5
  7

 75
    16
 76
     0
 77
     5
 78
   300
147
1.0
148
0.0
149
0.0
100
AcDbLayout
  1
Layout2
 70
     1
 71
     2
 10
0.0
 20
0.0
 11
0.0
 21
0.0
 12
0.0
 22
0.0
 32
0.0
 14
0.0
 24
0.0
 34
0.0
 15
0.0
 25
0.0
 35
0.0
146
0.0
 13
0.0
 23
0.0
 33
0.0
 16
1.0
 26
0.0
 36
0.0
 17
0.0
 27
1.0
 37
0.0
 76
     0
330
23
  0
LAYOUT
  5
22
102
{ACAD_REACTORS
330
1A
102
}
330
1A
100
AcDbPlotSettings
  1

  2
none_device
  4

  6

 40
0.0
 41
0.0
 42
0.0
 43
0.0
 44
0.0
 45
0.0
 46
0.0
 47
0.0
 48
0.0
 49
0.0
140
0.0
141
0.0
142
1.0
143
1.0
 70
  1712
 72
     0
 73
     0
 74
     0
  7

 75
     0
 76
     0
 77
     5
 78
   300
147
1.0
148
0.0
149
0.0
100
AcDbLayout
  1
Model
 70
     1
 71
     0
 10
-6300.0
 20
-4455.0
 11
6300.0
 21
4455.0
 12
0.0
 22
0.0
 32
0.0
 14
-6300.0
 24
-4455.0
 34
0.0
 15
6300.0
 25
4455.0
 35
0.0
146
0.0
 13
0.0
 23
0.0
 33
0.0
 16
1.0
 26
0.0
 36
0.0
 17
0.0
 27
1.0
 37
0.0
 76
     0
330
1F
331
29
  0
MATERIAL
  5
3D
102
{ACAD_REACTORS
330
3B
102
}
330
3B
100
AcDbMaterial
  1
ByBlock
 72
     1
 94
      127
  0
MATERIAL
  5
3C
102
{ACAD_REACTORS
330
3B
102
}
330
3B
100
AcDbMaterial
  1
ByLayer
 72
     1
 94
      127
  0
MATERIAL
  5
3E
102
{ACAD_REACTORS
330
3B
102
}
330
3B
100
AcDbMaterial
  1
Global
 72
     1
 94
      127
  0
MLINESTYLE
  5
18
102
{ACAD_REACTORS
330
17
102
}
330
17
100
AcDbMlineStyle
  2
Standard
 70
     0
  3

 62
   256
 51
90.0
 52
90.0
 71
     2
 49
0.5
 62
   256
  6
BYLAYER
 49
-0.5
 62
   256
  6
BYLAYER
  0
ACDBPLACEHOLDER
  5
F
102
{ACAD_REACTORS
330
E
102
}
330
E
  0
VISUALSTYLE
  5
2F
102
{ACAD_REACTORS
330
2A
102
}
330
2A
100
AcDbVisualStyle
  2
2dWireframe
 70
     4
177
     2
291
     0
 71
     0
176
     1
 72
     2
176
     1
 73
     0
176
     1
 90
        0
176
     1
 40
-0.6
176
     1
 41
-30.0
176
     1
 62
     5
 63
     7
421
 16777215
176
     1
 74
     1
176
     1
 91
        4
176
     1
 64
     7
176
     1
 65
   257
176
     1
 75
     1
176
     1
175
     1
176
     1
 42
1.0
176
     1
 92
        0
176
     1
 66
   257
176
     1
 43
1.0
176
     1
 76
     1
176
     1
 77
     6
176
     1
 78
     2
176
     1
 67
     7
176
     1
 79
     5
176
     1
170
     0
176
     1
171
     0
176
     1
290
     0
176
     1
 93
        1
176
     1
 44
0.0
176
     1
173
     0
176
     1
  0
VISUALSTYLE
  5
31
102
{ACAD_REACTORS
330
2A
102
}
330
2A
100
AcDbVisualStyle
  2
3D Hidden
 70
     6
177
     2
291
     0
 71
     1
176
     1
 72
     2
176
     1
 73
     2
176
     1
 90
        0
176
     1
 40
-0.6
176
     1
 41
-30.0
176
     1
 62
     5
 63
     7
421
 16777215
176
     1
 74
     2
176
     1
 91
        2
176
     1
 64
     7
176
     1
 65
   257
176
     1
 75
     2
176
     1
175
     1
176
     1
 42
40.0
176
     1
 92
        0
176
     1
 66
   257
176
     1
 43
1.0
176
     1
 76
     1
176
     1
 77
     6
176
     1
 78
     2
176
     1
 67
     7
176
     1
 79
     3
176
     1
170
     0
176
     1
171
     0
176
     1
290
     0
176
     1
 93
        1
176
     1
 44
0.0
176
     1
173
     0
176
     1
  0
VISUALSTYLE
  5
30
102
{ACAD_REACTORS
330
2A
102
}
330
2A
100
AcDbVisualStyle
  2
3dWireframe
 70
     5
177
     2
291
     0
 71
     0
176
     1
 72
     2
176
     1
 73
     0
176
     1
 90
        0
176
     1
 40
-0.6
176
     1
 41
-30.0
176
     1
 62
     5
 63
     7
421
 16777215
176
     1
 74
     1
176
     1
 91
        4
176
     1
 64
     7
176
     1
 65
   257
176
     1
 75
     1
176
     1
175
     1
176
     1
 42
1.0
176
     1
 92
        0
176
     1
 66
   257
176
     1
 43
1.0
176
     1
 76
     1
176
     1
 77
     6
176
     1
 78
     2
176
     1
 67
     7
176
     1
 79
     5
176
     1
170
     0
176
     1
171
     0
176
     1
290
     0
176
     1
 93
        1
176
     1
 44
0.0
176
     1
173
     0
176
     1
  0
VISUALSTYLE
  5
32
102
{ACAD_REACTORS
330
2A
102
}
330
2A
100
AcDbVisualStyle
  2
Basic
 70
     7
177
     2
291
     1
 71
     1
176
     1
 72
     0
176
     1
 73
     1
176
     1
 90
        0
176
     1
 40
-0.6
176
     1
 41
-30.0
176
     1
 62
     5
 63
     7
421
 16777215
176
     1
 74
     0
176
     1
 91
        4
176
     1
 64
     7
176
     1
 65
   257
176
     1
 75
     1
176
     1
175
     1
176
     1
 42
1.0
176
     1
 92
        8
176
     1
 66
     7
176
     1
 43
1.0
176
     1
 76
     1
176
     1
 77
     6
176
     1
 78
     2
176
     1
 67
     7
176
     1
 79
     5
176
     1
170
     0
176
     1
171
     0
176
     1
290
     0
176
     1
 93
        1
176
     1
 44
0.0
176
     1
173
     0
176
     1
  0
VISUALSTYLE
  5
36
102
{ACAD_REACTORS
330
2A
102
}
330
2A
100
AcDbVisualStyle
  2
Brighten
 70
    12
177
     2
291
     1
 71
     2
176
     1
 72
     2
176
     1
 73
     0
176
     1
 90
        0
176
     1
 40
-0.6
176
     1
 41
-30.0
176
     1
 62
     5
 63
     7
421
 16777215
176
     1
 74
     1
176
     1
 91
        4
176
     1
 64
     7
176
     1
 65
   257
176
     1
 75
     1
176
     1
175
     1
176
     1
 42
1.0
176
     1
 92
        8
176
     1
 66
     7
176
     1
 43
1.0
176
     1
 76
     1
176
     1
 77
     6
176
     1
 78
     2
176
     1
 67
     7
176
     1
 79
     5
176
     1
170
     0
176
     1
171
     0
176
     1
290
     0
176
     1
 93
        1
176
     1
 44
50.0
176
     1
173
     0
176
     1
  0
VISUALSTYLE
  5
3A
102
{ACAD_REACTORS
330
2A
102
}
330
2A
100
AcDbVisualStyle
  2
ColorChange
 70
    16
177
     2
291
     1
 71
     2
176
     1
 72
     2
176
     1
 73
     3
176
     1
 90
        0
176
     1
 40
-0.6
176
     1
 41
-30.0
176
     1
 62
     5
 63
     8
421
  8421504
176
     1
 74
     1
176
     1
 91
        4
176
     1
 64
     7
176
     1
 65
   257
176
     1
 75
     1
176
     1
175
     1
176
     1
 42
1.0
176
     1
 92
        8
176
     1
 66
     8
424
  8421504
176
     1
 43
1.0
176
     1
 76
     1
176
     1
 77
     6
176
     1
 78
     2
176
     1
 67
     7
176
     1
 79
     5
176
     1
170
     0
176
     1
171
     0
176
     1
290
     0
176
     1
 93
        1
176
     1
 44
0.0
176
     1
173
     0
176
     1
  0
VISUALSTYLE
  5
34
102
{ACAD_REACTORS
330
2A
102
}
330
2A
100
AcDbVisualStyle
  2
Conceptual
 70
     9
177
     2
291
     0
 71
     3
176
     1
 72
     2
176
     1
 73
     0
176
     1
 90
        0
176
     1
 40
-0.6
176
     1
 41
-30.0
176
     1
 62
     5
 63
     7
421
 16777215
176
     1
 74
     2
176
     1
 91
        2
176
     1
 64
     7
176
     1
 65
   257
176
     1
 75
     1
176
     1
175
     1
176
     1
 42
40.0
176
     1
 92
        8
176
     1
 66
     7
176
     1
 43
1.0
176
     1
 76
     1
176
     1
 77
     6
176
     1
 78
     2
176
     1
 67
     7
176
     1
 79
     3
176
     1
170
     0
176
     1
171
     0
176
     1
290
     0
176
     1
 93
        1
176
     1
 44
0.0
176
     1
173
     0
176
     1
  0
VISUALSTYLE
  5
35
102
{ACAD_REACTORS
330
2A
102
}
330
2A
100
AcDbVisualStyle
  2
Dim
 70
    11
177
     2
291
     1
 71
     2
176
     1
 72
     2
176
     1
 73
     0
176
     1
 90
        0
176
     1
 40
-0.6
176
     1
 41
-30.0
176
     1
 62
     5
 63
     7
421
 16777215
176
     1
 74
     1
176
     1
 91
        4
176
     1
 64
     7
176
     1
 65
   257
176
     1
 75
     1
176
     1
175
     1
176
     1
 42
1.0
176
     1
 92
        8
176
     1
 66
     7
176
     1
 43
1.0
176
     1
 76
     1
176
     1
 77
     6
176
     1
 78
     2
176
     1
 67
     7
176
     1
 79
     5
176
     1
170
     0
176
     1
171
     0
176
     1
290
     0
176
     1
 93
        1
176
     1
 44
-50.0
176
     1
173
     0
176
     1
  0
VISUALSTYLE
  5
39
102
{ACAD_REACTORS
330
2A
102
}
330
2A
100
AcDbVisualStyle
  2
Facepattern
 70
    15
177
     2
291
     1
 71
     2
176
     1
 72
     2
176
     1
 73
     0
176
     1
 90
        0
176
     1
 40
-0.6
176
     1
 41
-30.0
176
     1
 62
     5
 63
     7
421
 16777215
176
     1
 74
     1
176
     1
 91
        4
176
     1
 64
     7
176
     1
 65
   257
176
     1
 75
     1
176
     1
175
     1
176
     1
 42
1.0
176
     1
 92
        8
176
     1
 66
     7
176
     1
 43
1.0
176
     1
 76
     1
176
     1
 77
     6
176
     1
 78
     2
176
     1
 67
     7
176
     1
 79
     5
176
     1
170
     0
176
     1
171
     0
176
     1
290
     0
176
     1
 93
        1
176
     1
 44
0.0
176
     1
173
     0
176
     1
  0
VISUALSTYLE
  5
2B
102
{ACAD_REACTORS
330
2A
102
}
330
2A
100
AcDbVisualStyle
  2
Flat
 70
     0
177
     2
291
     1
 71
     2
176
     1
 72
     1
176
     1
 73
     1
176
     1
 90
        2
176
     1
 40
-0.6
176
     1
 41
30.0
176
     1
 62
     5
 63
     7
421
 16777215
176
     1
 74
     0
176
     1
 91
        4
176
     1
 64
     7
176
     1
 65
   257
176
     1
 75
     1
176
     1
175
     1
176
     1
 42
1.0
176
     1
 92
        8
176
     1
 66
     7
176
     1
 43
1.0
176
     1
 76
     1
176
     1
 77
     6
176
     1
 78
     2
176
     1
 67
     7
176
     1
 79
     5
176
     1
170
     0
176
     1
171
     0
176
     1
290
     0
176
     1
 93
       13
176
     1
 44
0.0
176
     1
173
     0
176
     1
  0
VISUALSTYLE
  5
2C
102
{ACAD_REACTORS
330
2A
102
}
330
2A
100
AcDbVisualStyle
  2
FlatWithEdges
 70
     1
177
     2
291
     1
 71
     2
176
     1
 72
     1
176
     1
 73
     1
176
     1
 90
        2
176
     1
 40
-0.6
176
     1
 41
30.0
176
     1
 62
     5
 63
     7
421
 16777215
176
     1
 74
     1
176
     1
 91
        4
176
     1
 64
     7
176
     1
 65
   257
176
     1
 75
     1
176
     1
175
     1
176
     1
 42
1.0
176
     1
 92
        0
176
     1
 66
   257
176
     1
 43
1.0
176
     1
 76
     1
176
     1
 77
     6
176
     1
 78
     2
176
     1
 67
     7
176
     1
 79
     5
176
     1
170
     0
176
     1
171
     0
176
     1
290
     0
176
     1
 93
       13
176
     1
 44
0.0
176
     1
173
     0
176
     1
  0
VISUALSTYLE
  5
2D
102
{ACAD_REACTORS
330
2A
102
}
330
2A
100
AcDbVisualStyle
  2
Gouraud
 70
     2
177
     2
291
     1
 71
     2
176
     1
 72
     2
176
     1
 73
     1
176
     1
 90
        2
176
     1
 40
-0.6
176
     1
 41
30.0
176
     1
 62
     5
 63
     7
421
 16777215
176
     1
 74
     0
176
     1
 91
        4
176
     1
 64
     7
176
     1
 65
   257
176
     1
 75
     1
176
     1
175
     1
176
     1
 42
1.0
176
     1
 92
        0
176
     1
 66
     7
176
     1
 43
1.0
176
     1
 76
     1
176
     1
 77
     6
176
     1
 78
     2
176
     1
 67
     7
176
     1
 79
     5
176
     1
170
     0
176
     1
171
     0
176
     1
290
     0
176
     1
 93
       13
176
     1
 44
0.0
176
     1
173
     0
176
     1
  0
VISUALSTYLE
  5
2E
102
{ACAD_REACTORS
330
2A
102
}
330
2A
100
AcDbVisualStyle
  2
GouraudWithEdges
 70
     3
177
     2
291
     1
 71
     2
176
     1
 72
     2
176
     1
 73
     1
176
     1
 90
        2
176
     1
 40
-0.6
176
     1
 41
30.0
176
     1
 62
     5
 63
     7
421
 16777215
176
     1
 74
     1
176
     1
 91
        4
176
     1
 64
     7
176
     1
 65
   257
176
     1
 75
     1
176
     1
175
     1
176
     1
 42
1.0
176
     1
 92
        0
176
     1
 66
   257
176
     1
 43
1.0
176
     1
 76
     1
176
     1
 77
     6
176
     1
 78
     2
176
     1
 67
     7
176
     1
 79
     5
176
     1
170
     0
176
     1
171
     0
176
     1
290
     0
176
     1
 93
       13
176
     1
 44
0.0
176
     1
173
     0
176
     1
  0
VISUALSTYLE
  5
38
102
{ACAD_REACTORS
330
2A
102
}
330
2A
100
AcDbVisualStyle
  2
Linepattern
 70
    14
177
     2
291
     1
 71
     2
176
     1
 72
     2
176
     1
 73
     0
176
     1
 90
        0
176
     1
 40
-0.6
176
     1
 41
-30.0
176
     1
 62
     5
 63
     7
421
 16777215
176
     1
 74
     1
176
     1
 91
        4
176
     1
 64
     7
176
     1
 65
   257
176
     1
 75
     7
176
     1
175
     7
176
     1
 42
1.0
176
     1
 92
        8
176
     1
 66
     7
176
     1
 43
1.0
176
     1
 76
     1
176
     1
 77
     6
176
     1
 78
     2
176
     1
 67
     7
176
     1
 79
     5
176
     1
170
     0
176
     1
171
     0
176
     1
290
     0
176
     1
 93
        1
176
     1
 44
0.0
176
     1
173
     0
176
     1
  0
VISUALSTYLE
  5
33
102
{ACAD_REACTORS
330
2A
102
}
330
2A
100
AcDbVisualStyle
  2
Realistic
 70
     8
177
     2
291
     0
 71
     2
176
     1
 72
     2
176
     1
 73
     0
176
     1
 90
        0
176
     1
 40
-0.6
176
     1
 41
-30.0
176
     1
 62
     5
 63
     7
421
 16777215
176
     1
 74
     1
176
     1
 91
        0
176
     1
 64
     7
176
     1
 65
   257
176
     1
 75
     1
176
     1
175
     1
176
     1
 42
1.0
176
     1
 92
        8
176
     1
 66
     8
424
  7895160
176
     1
 43
1.0
176
     1
 76
     1
176
     1
 77
     6
176
     1
 78
     2
176
     1
 67
     7
176
     1
 79
     5
176
     1
170
     0
176
     1
171
     0
176
     1
290
     0
176
     1
 93
       13
176
     1
 44
0.0
176
     1
173
     0
176
     1
  0
VISUALSTYLE
  5
37
102
{ACAD_REACTORS
330
2A
102
}
330
2A
100
AcDbVisualStyle
  2
Thicken
 70
    13
177
     2
291
     1
 71
     2
176
     1
 72
     2
176
     1
 73
     0
176
     1
 90
        0
176
     1
 40
-0.6
176
     1
 41
-30.0
176
     1
 62
     5
 63
     7
421
 16777215
176
     1
 74
     1
176
     1
 91
        4
176
     1
 64
     7
176
     1
 65
   257
176
     1
 75
     1
176
     1
175
     1
176
     1
 42
1.0
176
     1
 92
       12
176
     1
 66
     7
176
     1
 43
1.0
176
     1
 76
     1
176
     1
 77
     6
176
     1
 78
     2
176
     1
 67
     7
176
     1
 79
     5
176
     1
170
     0
176
     1
171
     0
176
     1
290
     0
176
     1
 93
        1
176
     1
 44
0.0
176
     1
173
     0
176
     1
  0
ENDSEC
  0
EOF
