  0
SECTION
  2
HEADER
  9
$ACADVER
  1
AC1024
  9
$ACADMAINTVER
 70
     6
  9
$DWGCODEPAGE
  3
ANSI_932
  9
$INSBASE
 10
0.0
 20
0.0
 30
0.0
  9
$EXTMIN
 10
-4455.0
 20
-3150.0
 30
0.0
  9
$EXTMAX
 10
4455.0
 20
3150.0
 30
0.0
  9
$LIMMIN
 10
-4455.0
 20
-3150.0
  9
$LIMMAX
 10
4455.0
 20
3150.0
  9
$ORTHOMODE
 70
     0
  9
$REGENMODE
 70
     1
  9
$FILLMODE
 70
     1
  9
$QTEXTMODE
 70
     0
  9
$MIRRTEXT
 70
     1
  9
$LTSCALE
 40
30.0
  9
$ATTMODE
 70
     1
  9
$TEXTSIZE
 40
2.5
  9
$TRACEWID
 40
1.0
  9
$TEXTSTYLE
  7
Standard
  9
$CLAYER
  8
0
  9
$CELTYPE
  6
ByLayer
  9
$CECOLOR
 62
   256
  9
$CELTSCALE
 40
1.0
  9
$DISPSILH
 70
     0
  9
$DIMSCALE
 40
1.0
  9
$DIMASZ
 40
2.5
  9
$DIMEXO
 40
0.625
  9
$DIMDLI
 40
3.75
  9
$DIMRND
 40
0.0
  9
$DIMDLE
 40
0.0
  9
$DIMEXE
 40
1.25
  9
$DIMTP
 40
0.0
  9
$DIMTM
 40
0.0
  9
$DIMTXT
 40
2.5
  9
$DIMCEN
 40
2.5
  9
$DIMTSZ
 40
0.0
  9
$DIMTOL
 70
     0
  9
$DIMLIM
 70
     0
  9
$DIMTIH
 70
     0
  9
$DIMTOH
 70
     0
  9
$DIMSE1
 70
     0
  9
$DIMSE2
 70
     0
  9
$DIMTAD
 70
     1
  9
$DIMZIN
 70
     8
  9
$DIMBLK
  1

  9
$DIMASO
 70
     1
  9
$DIMSHO
 70
     1
  9
$DIMPOST
  1

  9
$DIMAPOST
  1

  9
$DIMALT
 70
     0
  9
$DIMALTD
 70
     3
  9
$DIMALTF
 40
0.03937007874016
  9
$DIMLFAC
 40
1.0
  9
$DIMTOFL
 70
     1
  9
$DIMTVP
 40
0.0
  9
$DIMTIX
 70
     0
  9
$DIMSOXD
 70
     0
  9
$DIMSAH
 70
     0
  9
$DIMBLK1
  1

  9
$DIMBLK2
  1

  9
$DIMSTYLE
  2
ISO-25
  9
$DIMCLRD
 70
     0
  9
$DIMCLRE
 70
     0
  9
$DIMCLRT
 70
     0
  9
$DIMTFAC
 40
1.0
  9
$DIMGAP
 40
0.625
  9
$DIMJUST
 70
     0
  9
$DIMSD1
 70
     0
  9
$DIMSD2
 70
     0
  9
$DIMTOLJ
 70
     0
  9
$DIMTZIN
 70
     8
  9
$DIMALTZ
 70
     0
  9
$DIMALTTZ
 70
     0
  9
$DIMUPT
 70
     0
  9
$DIMDEC
 70
     2
  9
$DIMTDEC
 70
     2
  9
$DIMALTU
 70
     2
  9
$DIMALTTD
 70
     3
  9
$DIMTXSTY
  7
Standard
  9
$DIMAUNIT
 70
     0
  9
$DIMADEC
 70
     0
  9
$DIMALTRND
 40
0.0
  9
$DIMAZIN
 70
     0
  9
$DIMDSEP
 70
    44
  9
$DIMATFIT
 70
     3
  9
$DIMFRAC
 70
     0
  9
$DIMLDRBLK
  1

  9
$DIMLUNIT
 70
     2
  9
$DIMLWD
 70
    -2
  9
$DIMLWE
 70
    -2
  9
$DIMTMOVE
 70
     0
  9
$DIMFXL
 40
1.0
  9
$DIMFXLON
 70
     0
  9
$DIMJOGANG
 40
0.7853981633974483
  9
$DIMTFILL
 70
     0
  9
$DIMTFILLCLR
 70
     0
  9
$DIMARCSYM
 70
     0
  9
$DIMLTYPE
  6

  9
$DIMLTEX1
  6

  9
$DIMLTEX2
  6

  9
$DIMTXTDIRECTION
 70
     0
  9
$LUNITS
 70
     2
  9
$LUPREC
 70
     4
  9
$SKETCHINC
 40
1.0
  9
$FILLETRAD
 40
10.0
  9
$AUNITS
 70
     0
  9
$AUPREC
 70
     0
  9
$MENU
  1
.
  9
$ELEVATION
 40
0.0
  9
$PELEVATION
 40
0.0
  9
$THICKNESS
 40
0.0
  9
$LIMCHECK
 70
     0
  9
$CHAMFERA
 40
10.0
  9
$CHAMFERB
 40
10.0
  9
$CHAMFERC
 40
20.0
  9
$CHAMFERD
 40
0.0
  9
$SKPOLY
 70
     0
  9
$TDCREATE
 40
2457953.402001412
  9
$TDUCREATE
 40
2457953.027001412
  9
$TDUPDATE
 40
2457953.402001424
  9
$TDUUPDATE
 40
2457953.027001424
  9
$TDINDWG
 40
0.0000000116
  9
$TDUSRTIMER
 40
0.0000000116
  9
$USRTIMER
 70
     1
  9
$ANGBASE
 50
0.0
  9
$ANGDIR
 70
     0
  9
$PDMODE
 70
     0
  9
$PDSIZE
 40
0.0
  9
$PLINEWID
 40
0.0
  9
$SPLFRAME
 70
     0
  9
$SPLINETYPE
 70
     6
  9
$SPLINESEGS
 70
     8
  9
$HANDSEED
  5
2EA
  9
$SURFTAB1
 70
     6
  9
$SURFTAB2
 70
     6
  9
$SURFTYPE
 70
     6
  9
$SURFU
 70
     6
  9
$SURFV
 70
     6
  9
$UCSBASE
  2

  9
$UCSNAME
  2

  9
$UCSORG
 10
0.0
 20
0.0
 30
0.0
  9
$UCSXDIR
 10
1.0
 20
0.0
 30
0.0
  9
$UCSYDIR
 10
0.0
 20
1.0
 30
0.0
  9
$UCSORTHOREF
  2

  9
$UCSORTHOVIEW
 70
     0
  9
$UCSORGTOP
 10
0.0
 20
0.0
 30
0.0
  9
$UCSORGBOTTOM
 10
0.0
 20
0.0
 30
0.0
  9
$UCSORGLEFT
 10
0.0
 20
0.0
 30
0.0
  9
$UCSORGRIGHT
 10
0.0
 20
0.0
 30
0.0
  9
$UCSORGFRONT
 10
0.0
 20
0.0
 30
0.0
  9
$UCSORGBACK
 10
0.0
 20
0.0
 30
0.0
  9
$PUCSBASE
  2

  9
$PUCSNAME
  2

  9
$PUCSORG
 10
0.0
 20
0.0
 30
0.0
  9
$PUCSXDIR
 10
1.0
 20
0.0
 30
0.0
  9
$PUCSYDIR
 10
0.0
 20
1.0
 30
0.0
  9
$PUCSORTHOREF
  2

  9
$PUCSORTHOVIEW
 70
     0
  9
$PUCSORGTOP
 10
0.0
 20
0.0
 30
0.0
  9
$PUCSORGBOTTOM
 10
0.0
 20
0.0
 30
0.0
  9
$PUCSORGLEFT
 10
0.0
 20
0.0
 30
0.0
  9
$PUCSORGRIGHT
 10
0.0
 20
0.0
 30
0.0
  9
$PUCSORGFRONT
 10
0.0
 20
0.0
 30
0.0
  9
$PUCSORGBACK
 10
0.0
 20
0.0
 30
0.0
  9
$USERI1
 70
     0
  9
$USERI2
 70
     0
  9
$USERI3
 70
     0
  9
$USERI4
 70
     0
  9
$USERI5
 70
     0
  9
$USERR1
 40
0.0
  9
$USERR2
 40
0.0
  9
$USERR3
 40
0.0
  9
$USERR4
 40
0.0
  9
$USERR5
 40
0.0
  9
$WORLDVIEW
 70
     1
  9
$SHADEDGE
 70
     3
  9
$SHADEDIF
 70
    70
  9
$TILEMODE
 70
     1
  9
$MAXACTVP
 70
    64
  9
$PINSBASE
 10
0.0
 20
0.0
 30
0.0
  9
$PLIMCHECK
 70
     0
  9
$PEXTMIN
 10
1.000000000000000E+20
 20
1.000000000000000E+20
 30
1.000000000000000E+20
  9
$PEXTMAX
 10
-1.000000000000000E+20
 20
-1.000000000000000E+20
 30
-1.000000000000000E+20
  9
$PLIMMIN
 10
0.0
 20
0.0
  9
$PLIMMAX
 10
420.0
 20
297.0
  9
$UNITMODE
 70
     0
  9
$VISRETAIN
 70
     1
  9
$PLINEGEN
 70
     0
  9
$PSLTSCALE
 70
     1
  9
$TREEDEPTH
 70
  3020
  9
$CMLSTYLE
  2
Standard
  9
$CMLJUST
 70
     0
  9
$CMLSCALE
 40
20.0
  9
$PROXYGRAPHICS
 70
     1
  9
$MEASUREMENT
 70
     1
  9
$CELWEIGHT
370
    -1
  9
$ENDCAPS
280
     0
  9
$JOINSTYLE
280
     0
  9
$LWDISPLAY
290
     0
  9
$INSUNITS
 70
     4
  9
$HYPERLINKBASE
  1

  9
$STYLESHEET
  1

  9
$XEDIT
290
     1
  9
$CEPSNTYPE
380
     0
  9
$PSTYLEMODE
290
     1
  9
$FINGERPRINTGUID
  2
{9FF79B57-FB7B-4A35-81CC-3FD7D4645919}
  9
$VERSIONGUID
  2
{FAEB1C32-E019-11D5-929B-00C0DF256EC4}
  9
$EXTNAMES
290
     1
  9
$PSVPSCALE
 40
0.0
  9
$OLESTARTUP
290
     0
  9
$SORTENTS
280
   127
  9
$INDEXCTL
280
     0
  9
$HIDETEXT
280
     1
  9
$XCLIPFRAME
280
     2
  9
$HALOGAP
280
     0
  9
$OBSCOLOR
 70
   257
  9
$OBSLTYPE
280
     0
  9
$INTERSECTIONDISPLAY
280
     0
  9
$INTERSECTIONCOLOR
 70
   257
  9
$DIMASSOC
280
     2
  9
$PROJECTNAME
  1

  9
$CAMERADISPLAY
290
     0
  9
$LENSLENGTH
 40
50.0
  9
$CAMERAHEIGHT
 40
0.0
  9
$STEPSPERSEC
 40
2.0
  9
$STEPSIZE
 40
6.0
  9
$3DDWFPREC
 40
2.0
  9
$PSOLWIDTH
 40
5.0
  9
$PSOLHEIGHT
 40
80.0
  9
$LOFTANG1
 40
1.570796326794897
  9
$LOFTANG2
 40
1.570796326794897
  9
$LOFTMAG1
 40
0.0
  9
$LOFTMAG2
 40
0.0
  9
$LOFTPARAM
 70
     7
  9
$LOFTNORMALS
280
     1
  9
$LATITUDE
 40
37.795
  9
$LONGITUDE
 40
-122.394
  9
$NORTHDIRECTION
 40
0.0
  9
$TIMEZONE
 70
 -8000
  9
$LIGHTGLYPHDISPLAY
280
     1
  9
$TILEMODELIGHTSYNCH
280
     1
  9
$SOLIDHIST
280
     1
  9
$SHOWHIST
280
     1
  9
$DWFFRAME
280
     2
  9
$DGNFRAME
280
     2
  9
$REALWORLDSCALE
290
     1
  9
$INTERFERECOLOR
 62
   256
  9
$CSHADOW
280
     0
  9
$SHADOWPLANELOCATION
 40
0.0
  0
ENDSEC
  0
SECTION
  2
CLASSES
  0
CLASS
  1
ACDBDICTIONARYWDFLT
  2
AcDbDictionaryWithDefault
  3
ObjectDBX Classes
 90
        0
 91
        4
280
     0
281
     0
  0
CLASS
  1
VISUALSTYLE
  2
AcDbVisualStyle
  3
ObjectDBX Classes
 90
     4095
 91
        4
280
     0
281
     0
  0
CLASS
  1
MATERIAL
  2
AcDbMaterial
  3
ObjectDBX Classes
 90
     1153
 91
        4
280
     0
281
     0
  0
ENDSEC
  0
SECTION
  2
TABLES
  0
TABLE
  2
VPORT
  5
8
330
0
100
AcDbSymbolTable
 70
     1
  0
VPORT
  5
29
330
8
100
AcDbSymbolTableRecord
100
AcDbViewportTableRecord
  2
*Active
 70
     0
 10
0.0
 20
0.0
 11
1.0
 21
1.0
 12
0.0
 22
0.0
 13
0.0
 23
0.0
 14
10.0
 24
10.0
 15
10.0
 25
10.0
 16
0.0
 26
0.0
 36
1.0
 17
0.0
 27
0.0
 37
0.0
 40
6930.000000000001
 41
1.414285714285714
 42
50.0
 43
0.0
 44
0.0
 50
0.0
 51
0.0
 71
     0
 72
 10000
 73
     1
 74
     3
 75
     0
 76
     0
 77
     0
 78
     0
281
     0
 65
     1
110
0.0
120
0.0
130
0.0
111
1.0
121
0.0
131
0.0
112
0.0
122
1.0
132
0.0
 79
     0
146
0.0
 60
     3
 61
     5
292
     1
282
     1
141
0.0
142
0.0
 63
   250
  0
ENDTAB
  0
TABLE
  2
LTYPE
  5
5
330
0
100
AcDbSymbolTable
 70
     2
  0
LTYPE
  5
14
330
5
100
AcDbSymbolTableRecord
100
AcDbLinetypeTableRecord
  2
ByBlock
 70
     0
  3

 72
    65
 73
     0
 40
0.0
  0
LTYPE
  5
15
330
5
100
AcDbSymbolTableRecord
100
AcDbLinetypeTableRecord
  2
ByLayer
 70
     0
  3

 72
    65
 73
     0
 40
0.0
  0
LTYPE
  5
16
330
5
100
AcDbSymbolTableRecord
100
AcDbLinetypeTableRecord
  2
Continuous
 70
     0
  3
Solid line
 72
    65
 73
     0
 40
0.0
  0
LTYPE
  5
3F
330
5
100
AcDbSymbolTableRecord
100
AcDbLinetypeTableRecord
  2
JWW_DASHED1
 70
     0
  3
-  --  --  --  --  --  --  --  -
 72
    65
 73
     2
 40
1.693333333333333
 49
0.8466666666666667
 74
     0
 49
-0.8466666666666667
 74
     0
  0
ENDTAB
  0
TABLE
  2
LAYER
  5
2
330
0
100
AcDbSymbolTable
 70
     3
  0
LAYER
  5
10
330
2
100
AcDbSymbolTableRecord
100
AcDbLayerTableRecord
  2
0
 70
     0
 62
     7
  6
Continuous
370
    -3
390
F
347
3E
  0
LAYER
  5
40
330
2
100
AcDbSymbolTableRecord
100
AcDbLayerTableRecord
  2
寸法
 70
     0
 62
     7
  6
Continuous
370
    -3
390
F
347
3E
  0
LAYER
  5
41
330
2
100
AcDbSymbolTableRecord
100
AcDbLayerTableRecord
  2
0-0
 70
     0
 62
     7
  6
Continuous
370
    -3
390
F
347
3E
  0
ENDTAB
  0
TABLE
  2
STYLE
  5
3
330
0
100
AcDbSymbolTable
 70
     1
  0
STYLE
  5
11
330
3
100
AcDbSymbolTableRecord
100
AcDbTextStyleTableRecord
  2
Standard
 70
     0
 40
0.0
 41
1.0
 50
0.0
 71
     0
 42
2.5
  3
txt
  4

  0
ENDTAB
  0
TABLE
  2
VIEW
  5
6
330
0
100
AcDbSymbolTable
 70
     0
  0
ENDTAB
  0
TABLE
  2
UCS
  5
7
330
0
100
AcDbSymbolTable
 70
     0
  0
ENDTAB
  0
TABLE
  2
APPID
  5
9
330
0
100
AcDbSymbolTable
 70
     1
  0
APPID
  5
12
330
9
100
AcDbSymbolTableRecord
100
AcDbRegAppTableRecord
  2
ACAD
 70
     0
  0
ENDTAB
  0
TABLE
  2
DIMSTYLE
  5
A
330
0
100
AcDbSymbolTable
 70
     1
100
AcDbDimStyleTable
  0
DIMSTYLE
105
27
330
A
100
AcDbSymbolTableRecord
100
AcDbDimStyleTableRecord
  2
ISO-25
 70
     0
 41
2.5
 42
0.625
 43
3.75
 44
1.25
 73
     0
 74
     0
 77
     1
 78
     8
140
2.5
141
2.5
143
0.03937007874016
147
0.625
171
     3
172
     1
178
     0
271
     2
272
     2
274
     3
278
    44
283
     0
284
     8
340
11
  0
ENDTAB
  0
TABLE
  2
BLOCK_RECORD
  5
1
330
0
100
AcDbSymbolTable
 70
     1
  0
BLOCK_RECORD
  5
1F
330
1
100
AcDbSymbolTableRecord
100
AcDbBlockTableRecord
  2
*Model_Space
340
22
 70
     0
280
     1
281
     0
  0
BLOCK_RECORD
  5
1B
330
1
100
AcDbSymbolTableRecord
100
AcDbBlockTableRecord
  2
*Paper_Space
340
1E
 70
     0
280
     1
281
     0
  0
BLOCK_RECORD
  5
23
330
1
100
AcDbSymbolTableRecord
100
AcDbBlockTableRecord
  2
*Paper_Space0
340
26
 70
     0
280
     1
281
     0
  0
ENDTAB
  0
ENDSEC
  0
SECTION
  2
BLOCKS
  0
BLOCK
  5
20
330
1F
100
AcDbEntity
  8
0
100
AcDbBlockBegin
  2
*Model_Space
 70
     0
 10
0.0
 20
0.0
 30
0.0
  3
*Model_Space
  1

  0
ENDBLK
  5
21
330
1F
100
AcDbEntity
  8
0
100
AcDbBlockEnd
  0
BLOCK
  5
1C
330
1B
100
AcDbEntity
 67
     1
  8
0
100
AcDbBlockBegin
  2
*Paper_Space
 70
     0
 10
0.0
 20
0.0
 30
0.0
  3
*Paper_Space
  1

  0
ENDBLK
  5
1D
330
1B
100
AcDbEntity
 67
     1
  8
0
100
AcDbBlockEnd
  0
BLOCK
  5
24
330
23
100
AcDbEntity
  8
0
100
AcDbBlockBegin
  2
*Paper_Space0
 70
     0
 10
0.0
 20
0.0
 30
0.0
  3
*Paper_Space0
  1

  0
ENDBLK
  5
25
330
23
100
AcDbEntity
  8
0
100
AcDbBlockEnd
  0
ENDSEC
  0
SECTION
  2
ENTITIES
  0
LWPOLYLINE
  5
42
330
1F
100
AcDbEntity
  8
寸法
  6
Continuous
 62
     7
370
     9
100
AcDbPolyline
 90
        4
 70
     1
 43
3.0
 10
845.3735294117807
 20
-1498.61985294118
 42
0.4142135623731
 10
843.8735294117807
 20
-1497.11985294118
 42
0.4142135623731
 10
842.3735294117806
 20
-1498.61985294118
 42
0.4142135623731
 10
843.8735294117807
 20
-1500.11985294118
 42
0.4142135623731
  0
LWPOLYLINE
  5
43
330
1F
100
AcDbEntity
  8
寸法
  6
Continuous
 62
     7
370
     9
100
AcDbPolyline
 90
        4
 70
     1
 43
3.0
 10
1652.373529411782
 20
-1898.61985294118
 42
0.4142135623731
 10
1650.873529411782
 20
-1897.11985294118
 42
0.4142135623731
 10
1649.373529411782
 20
-1898.61985294118
 42
0.4142135623731
 10
1650.873529411782
 20
-1900.11985294118
 42
0.4142135623731
  0
LWPOLYLINE
  5
44
330
1F
100
AcDbEntity
  8
寸法
  6
Continuous
 62
     7
370
     9
100
AcDbPolyline
 90
        4
 70
     1
 43
3.0
 10
1622.373529411782
 20
-1698.61985294118
 42
0.4142135623731
 10
1620.873529411782
 20
-1697.11985294118
 42
0.4142135623731
 10
1619.373529411782
 20
-1698.61985294118
 42
0.4142135623731
 10
1620.873529411782
 20
-1700.11985294118
 42
0.4142135623731
  0
LWPOLYLINE
  5
45
330
1F
100
AcDbEntity
  8
寸法
  6
Continuous
 62
     7
370
     9
100
AcDbPolyline
 90
        4
 70
     1
 43
3.0
 10
-774.6264705882191
 20
-1498.61985294118
 42
0.4142135623731
 10
-776.1264705882193
 20
-1497.11985294118
 42
0.4142135623731
 10
-777.6264705882193
 20
-1498.61985294118
 42
0.4142135623731
 10
-776.1264705882193
 20
-1500.11985294118
 42
0.4142135623731
  0
LWPOLYLINE
  5
46
330
1F
100
AcDbEntity
  8
寸法
  6
Continuous
 62
     7
370
     9
100
AcDbPolyline
 90
        4
 70
     1
 43
3.0
 10
35.37352941178079
 20
-1498.61985294118
 42
0.4142135623731
 10
33.87352941178079
 20
-1497.11985294118
 42
0.4142135623731
 10
32.37352941178079
 20
-1498.61985294118
 42
0.4142135623731
 10
33.87352941178079
 20
-1500.11985294118
 42
0.4142135623731
  0
LWPOLYLINE
  5
47
330
1F
100
AcDbEntity
  8
寸法
  6
Continuous
 62
     7
370
     9
100
AcDbPolyline
 90
        4
 70
     1
 43
3.0
 10
-1581.626470588219
 20
-1898.619852941181
 42
0.4142135623731
 10
-1583.126470588219
 20
-1897.119852941181
 42
0.4142135623731
 10
-1584.626470588218
 20
-1898.619852941181
 42
0.4142135623731
 10
-1583.126470588219
 20
-1900.119852941181
 42
0.4142135623731
  0
LWPOLYLINE
  5
48
330
1F
100
AcDbEntity
  8
寸法
  6
Continuous
 62
     7
370
     9
100
AcDbPolyline
 90
        4
 70
     1
 43
3.0
 10
-1551.626470588219
 20
-1698.61985294118
 42
0.4142135623731
 10
-1553.126470588219
 20
-1697.11985294118
 42
0.4142135623731
 10
-1554.626470588218
 20
-1698.61985294118
 42
0.4142135623731
 10
-1553.126470588219
 20
-1700.11985294118
 42
0.4142135623731
  0
LINE
  5
49
330
1F
100
AcDbEntity
  8
寸法
  6
Continuous
 62
   120
370
     5
100
AcDbLine
 10
843.8735294117807
 20
-1498.61985294118
 30
0.0
 11
843.8735294117807
 21
-1298.619852941181
 31
0.0
  0
LINE
  5
4A
330
1F
100
AcDbEntity
  8
寸法
  6
Continuous
 62
   120
370
     5
100
AcDbLine
 10
1650.873529411782
 20
-1898.61985294118
 30
0.0
 11
1650.873529411782
 21
-1298.619852941181
 31
0.0
  0
LINE
  5
4B
330
1F
100
AcDbEntity
  8
寸法
  6
Continuous
 62
   120
370
     5
100
AcDbLine
 10
-1583.126470588219
 20
-1898.619852941181
 30
0.0
 11
1650.873529411782
 21
-1898.61985294118
 31
0.0
  0
LINE
  5
4C
330
1F
100
AcDbEntity
  8
寸法
  6
Continuous
 62
   120
370
     5
100
AcDbLine
 10
1620.873529411782
 20
-1698.61985294118
 30
0.0
 11
1620.873529411782
 21
-1298.619852941181
 31
0.0
  0
LINE
  5
4D
330
1F
100
AcDbEntity
  8
寸法
  6
Continuous
 62
   120
370
     5
100
AcDbLine
 10
-1553.126470588219
 20
-1698.61985294118
 30
0.0
 11
1620.873529411782
 21
-1698.61985294118
 31
0.0
  0
LINE
  5
4E
330
1F
100
AcDbEntity
  8
寸法
  6
Continuous
 62
   120
370
     5
100
AcDbLine
 10
-776.1264705882193
 20
-1498.61985294118
 30
0.0
 11
843.8735294117807
 21
-1498.61985294118
 31
0.0
  0
LINE
  5
4F
330
1F
100
AcDbEntity
  8
寸法
  6
Continuous
 62
   120
370
     5
100
AcDbLine
 10
-776.1264705882193
 20
-1498.61985294118
 30
0.0
 11
-776.1264705882193
 21
-1298.619852941181
 31
0.0
  0
LINE
  5
50
330
1F
100
AcDbEntity
  8
寸法
  6
Continuous
 62
   120
370
     5
100
AcDbLine
 10
33.87352941178079
 20
-1498.61985294118
 30
0.0
 11
33.87352941178079
 21
-1298.619852941181
 31
0.0
  0
LINE
  5
51
330
1F
100
AcDbEntity
  8
寸法
  6
Continuous
 62
   120
370
     5
100
AcDbLine
 10
-1583.126470588219
 20
-1898.619852941181
 30
0.0
 11
-1583.126470588219
 21
-1298.619852941181
 31
0.0
  0
LINE
  5
52
330
1F
100
AcDbEntity
  8
寸法
  6
Continuous
 62
   120
370
     5
100
AcDbLine
 10
-1553.126470588219
 20
-1698.61985294118
 30
0.0
 11
-1553.126470588219
 21
-1298.619852941181
 31
0.0
  0
LWPOLYLINE
  5
53
330
1F
100
AcDbEntity
  8
寸法
  6
Continuous
 62
     7
370
     9
100
AcDbPolyline
 90
        4
 70
     1
 43
3.0
 10
-2031.626470588219
 20
-1248.61985294118
 42
0.4142135623731
 10
-2033.126470588219
 20
-1247.11985294118
 42
0.4142135623731
 10
-2034.626470588218
 20
-1248.61985294118
 42
0.4142135623731
 10
-2033.126470588219
 20
-1250.11985294118
 42
0.4142135623731
  0
LINE
  5
54
330
1F
100
AcDbEntity
  8
寸法
  6
Continuous
 62
   120
370
     5
100
AcDbLine
 10
-2033.126470588219
 20
-1248.61985294118
 30
0.0
 11
-1633.126470588219
 21
-1248.61985294118
 31
0.0
  0
LWPOLYLINE
  5
55
330
1F
100
AcDbEntity
  8
寸法
  6
Continuous
 62
     7
370
     9
100
AcDbPolyline
 90
        4
 70
     1
 43
3.0
 10
-1831.626470588218
 20
-1240.619852941182
 42
0.4142135623731
 10
-1833.126470588218
 20
-1239.119852941182
 42
0.4142135623731
 10
-1834.626470588218
 20
-1240.619852941182
 42
0.4142135623731
 10
-1833.126470588218
 20
-1242.119852941182
 42
0.4142135623731
  0
LINE
  5
56
330
1F
100
AcDbEntity
  8
寸法
  6
Continuous
 62
   120
370
     5
100
AcDbLine
 10
-1833.126470588218
 20
-1240.619852941182
 30
0.0
 11
-1633.126470588219
 21
-1240.619852941182
 31
0.0
  0
LINE
  5
57
330
1F
100
AcDbEntity
  8
寸法
  6
Continuous
 62
   120
370
     5
100
AcDbLine
 10
-2033.126470588219
 20
986.3801470588196
 30
0.0
 11
-2033.126470588219
 21
-1248.61985294118
 31
0.0
  0
LINE
  5
58
330
1F
100
AcDbEntity
  8
寸法
  6
Continuous
 62
   120
370
     5
100
AcDbLine
 10
-2033.126470588219
 20
986.3801470588196
 30
0.0
 11
-1633.126470588219
 21
986.3801470588196
 31
0.0
  0
LWPOLYLINE
  5
59
330
1F
100
AcDbEntity
  8
寸法
  6
Continuous
 62
     7
370
     9
100
AcDbPolyline
 90
        4
 70
     1
 43
3.0
 10
-2031.626470588219
 20
986.3801470588196
 42
0.4142135623731
 10
-2033.126470588219
 20
987.8801470588195
 42
0.4142135623731
 10
-2034.626470588218
 20
986.3801470588196
 42
0.4142135623731
 10
-2033.126470588219
 20
984.8801470588196
 42
0.4142135623731
  0
LINE
  5
5A
330
1F
100
AcDbEntity
  8
寸法
  6
Continuous
 62
   120
370
     5
100
AcDbLine
 10
-1833.126470588218
 20
942.3801470588187
 30
0.0
 11
-1633.126470588219
 21
942.3801470588187
 31
0.0
  0
LINE
  5
5B
330
1F
100
AcDbEntity
  8
寸法
  6
Continuous
 62
   120
370
     5
100
AcDbLine
 10
-1833.126470588218
 20
942.3801470588187
 30
0.0
 11
-1833.126470588218
 21
-1240.619852941182
 31
0.0
  0
LWPOLYLINE
  5
5C
330
1F
100
AcDbEntity
  8
寸法
  6
Continuous
 62
     7
370
     9
100
AcDbPolyline
 90
        4
 70
     1
 43
3.0
 10
-1831.626470588218
 20
942.3801470588187
 42
0.4142135623731
 10
-1833.126470588218
 20
943.8801470588187
 42
0.4142135623731
 10
-1834.626470588218
 20
942.3801470588187
 42
0.4142135623731
 10
-1833.126470588218
 20
940.8801470588187
 42
0.4142135623731
  0
MTEXT
  5
5D
330
1F
100
AcDbEntity
  8
寸法
  6
Continuous
 62
     7
370
   211
100
AcDbMText
 10
-539.8764705882193
 20
-1492.54485294118
 30
0.0
 40
57.14999999999998
 41
337.4999999999999
 46
0.0
 71
     7
 72
     1
  1
{\fＭＳ ゴシック|b0|i0|c128|p49;ＤＷ＝810}
 73
     1
 44
1.0
  0
MTEXT
  5
5E
330
1F
100
AcDbEntity
  8
寸法
  6
Continuous
 62
     7
370
   211
100
AcDbMText
 10
270.1235294117807
 20
-1492.54485294118
 30
0.0
 40
57.15000000000001
 41
337.5000000000001
 46
0.0
 71
     7
 72
     1
  1
{\fＭＳ ゴシック|b0|i0|c128|p49;ＤＷ＝810}
 73
     1
 44
1.0
  0
MTEXT
  5
5F
330
1F
100
AcDbEntity
  8
寸法
  6
Continuous
 62
     7
370
   211
100
AcDbMText
 10
-172.3764705882192
 20
-1692.54485294118
 30
0.0
 40
57.14999999999999
 41
412.5
 46
0.0
 71
     7
 72
     1
  1
{\fＭＳ ゴシック|b0|i0|c128|p49;枠内＝3,174}
 73
     1
 44
1.0
  0
MTEXT
  5
60
330
1F
100
AcDbEntity
  8
寸法
  6
Continuous
 62
     7
370
   211
100
AcDbMText
 10
-172.3764705882192
 20
-1892.544852941181
 30
0.0
 40
57.14999999999999
 41
412.5
 46
0.0
 71
     7
 72
     1
  1
{\fＭＳ ゴシック|b0|i0|c128|p49;枠外＝3,234}
 73
     1
 44
1.0
  0
MTEXT
  5
61
330
1F
100
AcDbEntity
  8
寸法
  6
Continuous
 62
     7
370
    70
100
AcDbMText
 10
-2048.126470588219
 20
-364.2948529411815
 30
0.0
 40
57.14999999999999
 41
412.5
 46
0.0
 71
     7
 72
     1
  1
{\fＭＳ ゴシック|b0|i0|c128|p49;枠外＝2,235}
 11
6.123031769111886E-17
 21
1.0
 31
0.0
 73
     1
 44
1.0
  0
MTEXT
  5
62
330
1F
100
AcDbEntity
  8
寸法
  6
Continuous
 62
     7
370
    70
100
AcDbMText
 10
-1848.126470588218
 20
-364.2948529411815
 30
0.0
 40
57.14999999999999
 41
412.5
 46
0.0
 71
     7
 72
     1
  1
{\fＭＳ ゴシック|b0|i0|c128|p49;ＤＨ＝2,183}
 11
6.123031769111886E-17
 21
1.0
 31
0.0
 73
     1
 44
1.0
  0
LINE
  5
63
330
1F
100
AcDbEntity
  8
0-0
  6
Continuous
 62
    92
370
    13
100
AcDbLine
 10
-1553.126470588219
 20
-1248.61985294118
 30
0.0
 11
-1583.126470588219
 21
-1248.61985294118
 31
0.0
  0
LINE
  5
64
330
1F
100
AcDbEntity
  8
0-0
  6
Continuous
 62
    92
370
    13
100
AcDbLine
 10
1650.873529411782
 20
-1248.61985294118
 30
0.0
 11
1620.873529411782
 21
-1248.61985294118
 31
0.0
  0
LINE
  5
65
330
1F
100
AcDbEntity
  8
0-0
  6
Continuous
 62
    92
370
    13
100
AcDbLine
 10
813.8735294117826
 20
-1248.619852941182
 30
0.0
 11
843.8735294117826
 21
-1248.619852941182
 31
0.0
  0
LINE
  5
66
330
1F
100
AcDbEntity
  8
0-0
  6
Continuous
 62
    92
370
    13
100
AcDbLine
 10
-776.1264705882193
 20
-1248.619852941182
 30
0.0
 11
-746.1264705882193
 21
-1248.619852941182
 31
0.0
  0
LINE
  5
67
330
1F
100
AcDbEntity
  8
0-0
  6
Continuous
 62
    92
370
    13
100
AcDbLine
 10
843.8735294117807
 20
-1240.619852941183
 30
0.0
 11
33.87352941178079
 21
-1240.619852941183
 31
0.0
  0
LINE
  5
68
330
1F
100
AcDbEntity
  8
0-0
  6
Continuous
 62
    92
370
    13
100
AcDbLine
 10
-776.1264705882193
 20
-1240.619852941183
 30
0.0
 11
33.87352941178079
 21
-1240.619852941183
 31
0.0
  0
LINE
  5
69
330
1F
100
AcDbEntity
  8
0-0
  6
Continuous
 62
     7
370
     9
100
AcDbLine
 10
69.87352941178045
 20
-253.5198529411817
 30
0.0
 11
69.87352941178045
 21
-312.7198529411806
 31
0.0
  0
LINE
  5
6A
330
1F
100
AcDbEntity
  8
0-0
  6
Continuous
 62
     7
370
     9
100
AcDbLine
 10
99.87352941178045
 20
-312.7198529411806
 30
0.0
 11
99.87352941178045
 21
-253.5198529411817
 31
0.0
  0
ARC
  5
6B
330
1F
100
AcDbEntity
  8
0-0
  6
Continuous
 62
     7
370
     9
100
AcDbCircle
 10
84.87352941178045
 20
-253.5198529411817
 30
0.0
 40
15.0
100
AcDbArc
 50
0.0
 51
180.0
  0
ARC
  5
6C
330
1F
100
AcDbEntity
  8
0-0
  6
Continuous
 62
     7
370
     9
100
AcDbCircle
 10
84.87352941178045
 20
-312.7198529411806
 30
0.0
 40
15.0
100
AcDbArc
 50
180.0
 51
0.0
  0
ARC
  5
6D
330
1F
100
AcDbEntity
  8
0-0
  6
Continuous
 62
    92
370
    13
100
AcDbCircle
 10
65.37352941177943
 20
-342.6198529411807
 30
0.0
 40
1.5
100
AcDbArc
 50
180.0
 51
270.0
  0
LINE
  5
6E
330
1F
100
AcDbEntity
  8
0-0
  6
Continuous
 62
    92
370
    13
100
AcDbLine
 10
63.87352941178079
 20
-342.6198529411807
 30
0.0
 11
63.87352941178079
 21
-223.6198529411816
 31
0.0
  0
LINE
  5
6F
330
1F
100
AcDbEntity
  8
0-0
  6
Continuous
 62
    92
370
    13
100
AcDbLine
 10
65.37352941177943
 20
-344.1198529411837
 30
0.0
 11
104.3735294117815
 21
-344.1198529411837
 31
0.0
  0
ARC
  5
70
330
1F
100
AcDbEntity
  8
0-0
  6
Continuous
 62
    92
370
    13
100
AcDbCircle
 10
104.3735294117815
 20
-342.6198529411807
 30
0.0
 40
1.5
100
AcDbArc
 50
270.0
 51
0.0
  0
LINE
  5
71
330
1F
100
AcDbEntity
  8
0-0
  6
Continuous
 62
    92
370
    13
100
AcDbLine
 10
105.8735294117818
 20
-342.6198529411807
 30
0.0
 11
105.8735294117818
 21
-223.6198529411816
 31
0.0
  0
ARC
  5
72
330
1F
100
AcDbEntity
  8
0-0
  6
Continuous
 62
    92
370
    13
100
AcDbCircle
 10
104.3735294117815
 20
-223.6198529411816
 30
0.0
 40
1.5
100
AcDbArc
 50
0.0
 51
90.00000000000001
  0
LINE
  5
73
330
1F
100
AcDbEntity
  8
0-0
  6
Continuous
 62
    92
370
    13
100
AcDbLine
 10
104.3735294117815
 20
-222.1198529411812
 30
0.0
 11
65.37352941177943
 21
-222.1198529411812
 31
0.0
  0
ARC
  5
74
330
1F
100
AcDbEntity
  8
0-0
  6
Continuous
 62
    92
370
    13
100
AcDbCircle
 10
65.37352941177943
 20
-223.6198529411816
 30
0.0
 40
1.5
100
AcDbArc
 50
90.0
 51
180.0
  0
LINE
  5
75
330
1F
100
AcDbEntity
  8
0-0
  6
Continuous
 62
     7
370
     9
100
AcDbLine
 10
-32.12647058821716
 20
-253.5198529411817
 30
0.0
 11
-32.12647058821716
 21
-312.7198529411806
 31
0.0
  0
LINE
  5
76
330
1F
100
AcDbEntity
  8
0-0
  6
Continuous
 62
     7
370
     9
100
AcDbLine
 10
-2.12647058821716
 20
-312.7198529411806
 30
0.0
 11
-2.12647058821716
 21
-253.5198529411817
 31
0.0
  0
ARC
  5
77
330
1F
100
AcDbEntity
  8
0-0
  6
Continuous
 62
     7
370
     9
100
AcDbCircle
 10
-17.12647058821716
 20
-253.5198529411817
 30
0.0
 40
15.0
100
AcDbArc
 50
0.0
 51
180.0
  0
ARC
  5
78
330
1F
100
AcDbEntity
  8
0-0
  6
Continuous
 62
     7
370
     9
100
AcDbCircle
 10
-17.12647058821716
 20
-312.7198529411806
 30
0.0
 40
15.0
100
AcDbArc
 50
180.0
 51
0.0
  0
ARC
  5
79
330
1F
100
AcDbEntity
  8
0-0
  6
Continuous
 62
    92
370
    13
100
AcDbCircle
 10
-36.62647058821648
 20
-342.6198529411807
 30
0.0
 40
1.5
100
AcDbArc
 50
180.0
 51
270.0
  0
LINE
  5
7A
330
1F
100
AcDbEntity
  8
0-0
  6
Continuous
 62
    92
370
    13
100
AcDbLine
 10
-38.12647058821682
 20
-342.6198529411807
 30
0.0
 11
-38.12647058821682
 21
-223.6198529411816
 31
0.0
  0
LINE
  5
7B
330
1F
100
AcDbEntity
  8
0-0
  6
Continuous
 62
    92
370
    13
100
AcDbLine
 10
-36.62647058821648
 20
-344.1198529411837
 30
0.0
 11
2.373529411782158
 21
-344.1198529411837
 31
0.0
  0
ARC
  5
7C
330
1F
100
AcDbEntity
  8
0-0
  6
Continuous
 62
    92
370
    13
100
AcDbCircle
 10
2.373529411782158
 20
-342.6198529411807
 30
0.0
 40
1.5
100
AcDbArc
 50
270.0
 51
0.0
  0
LINE
  5
7D
330
1F
100
AcDbEntity
  8
0-0
  6
Continuous
 62
    92
370
    13
100
AcDbLine
 10
3.873529411782499
 20
-342.6198529411807
 30
0.0
 11
3.873529411782499
 21
-223.6198529411816
 31
0.0
  0
ARC
  5
7E
330
1F
100
AcDbEntity
  8
0-0
  6
Continuous
 62
    92
370
    13
100
AcDbCircle
 10
2.373529411782158
 20
-223.6198529411816
 30
0.0
 40
1.5
100
AcDbArc
 50
0.0
 51
90.00000000000001
  0
LINE
  5
7F
330
1F
100
AcDbEntity
  8
0-0
  6
Continuous
 62
    92
370
    13
100
AcDbLine
 10
2.373529411782158
 20
-222.1198529411812
 30
0.0
 11
-36.62647058821648
 21
-222.1198529411812
 31
0.0
  0
ARC
  5
80
330
1F
100
AcDbEntity
  8
0-0
  6
Continuous
 62
    92
370
    13
100
AcDbCircle
 10
-36.62647058821648
 20
-223.6198529411816
 30
0.0
 40
1.5
100
AcDbArc
 50
90.0
 51
180.0
  0
LINE
  5
81
330
1F
100
AcDbEntity
  8
0-0
  6
Continuous
 62
    92
370
    13
100
AcDbLine
 10
843.8735294117826
 20
-1240.619852941183
 30
0.0
 11
843.8735294117826
 21
-1248.619852941182
 31
0.0
  0
LINE
  5
82
330
1F
100
AcDbEntity
  8
0-0
  6
Continuous
 62
    92
370
    13
100
AcDbLine
 10
813.8735294117826
 20
-1240.619852941183
 30
0.0
 11
813.8735294117826
 21
-1248.619852941182
 31
0.0
  0
LINE
  5
83
330
1F
100
AcDbEntity
  8
0-0
  6
Continuous
 62
    92
370
    13
100
AcDbLine
 10
-746.1264705882193
 20
-1240.619852941183
 30
0.0
 11
-746.1264705882193
 21
-1248.619852941182
 31
0.0
  0
LINE
  5
84
330
1F
100
AcDbEntity
  8
0-0
  6
Continuous
 62
    92
370
    13
100
AcDbLine
 10
-776.1264705882193
 20
-1240.619852941183
 30
0.0
 11
-776.1264705882193
 21
-1248.619852941182
 31
0.0
  0
LINE
  5
85
330
1F
100
AcDbEntity
  8
0-0
  6
Continuous
 62
     7
370
     9
100
AcDbLine
 10
-657.6264705882187
 20
-1090.619852941183
 30
0.0
 11
-672.6264705882187
 21
-1105.619852941183
 31
0.0
  0
LINE
  5
86
330
1F
100
AcDbEntity
  8
0-0
  6
Continuous
 62
     7
370
     9
100
AcDbLine
 10
-84.62647058822014
 20
-1090.619852941183
 30
0.0
 11
-69.62647058822014
 21
-1105.619852941183
 31
0.0
  0
LINE
  5
87
330
1F
100
AcDbEntity
  8
0-0
  6
Continuous
 62
     7
370
     9
100
AcDbLine
 10
-672.6264705882187
 20
-1105.619852941183
 30
0.0
 11
-69.62647058822014
 21
-1105.619852941183
 31
0.0
  0
LINE
  5
88
330
1F
100
AcDbEntity
  8
0-0
  6
Continuous
 62
     7
370
     9
100
AcDbLine
 10
-627.6264705882187
 20
-1060.619852941183
 30
0.0
 11
-642.6264705882187
 21
-1075.619852941183
 31
0.0
  0
LINE
  5
89
330
1F
100
AcDbEntity
  8
0-0
  6
Continuous
 62
     7
370
     9
100
AcDbLine
 10
-114.6264705882201
 20
-1060.619852941183
 30
0.0
 11
-99.62647058822014
 21
-1075.619852941183
 31
0.0
  0
LINE
  5
8A
330
1F
100
AcDbEntity
  8
0-0
  6
Continuous
 62
     7
370
     9
100
AcDbLine
 10
-627.6264705882187
 20
-1060.619852941183
 30
0.0
 11
-114.6264705882201
 21
-1060.619852941183
 31
0.0
  0
LINE
  5
8B
330
1F
100
AcDbEntity
  8
0-0
  6
Continuous
 62
    92
370
    13
100
AcDbLine
 10
-657.6264705882187
 20
-1090.619852941183
 30
0.0
 11
-84.62647058822014
 21
-1090.619852941183
 31
0.0
  0
LINE
  5
8C
330
1F
100
AcDbEntity
  8
0-0
  6
Continuous
 62
     7
370
     9
100
AcDbLine
 10
152.3735294117813
 20
-1090.619852941183
 30
0.0
 11
137.3735294117813
 21
-1105.619852941183
 31
0.0
  0
LINE
  5
8D
330
1F
100
AcDbEntity
  8
0-0
  6
Continuous
 62
     7
370
     9
100
AcDbLine
 10
725.3735294117798
 20
-1090.619852941183
 30
0.0
 11
740.3735294117798
 21
-1105.619852941183
 31
0.0
  0
LINE
  5
8E
330
1F
100
AcDbEntity
  8
0-0
  6
Continuous
 62
     7
370
     9
100
AcDbLine
 10
137.3735294117813
 20
-1105.619852941183
 30
0.0
 11
740.3735294117798
 21
-1105.619852941183
 31
0.0
  0
LINE
  5
8F
330
1F
100
AcDbEntity
  8
0-0
  6
Continuous
 62
     7
370
     9
100
AcDbLine
 10
182.3735294117813
 20
-1060.619852941183
 30
0.0
 11
167.3735294117813
 21
-1075.619852941183
 31
0.0
  0
LINE
  5
90
330
1F
100
AcDbEntity
  8
0-0
  6
Continuous
 62
     7
370
     9
100
AcDbLine
 10
695.3735294117798
 20
-1060.619852941183
 30
0.0
 11
710.3735294117798
 21
-1075.619852941183
 31
0.0
  0
LINE
  5
91
330
1F
100
AcDbEntity
  8
0-0
  6
Continuous
 62
     7
370
     9
100
AcDbLine
 10
182.3735294117813
 20
-1060.619852941183
 30
0.0
 11
695.3735294117798
 21
-1060.619852941183
 31
0.0
  0
LINE
  5
92
330
1F
100
AcDbEntity
  8
0-0
  6
Continuous
 62
    92
370
    13
100
AcDbLine
 10
152.3735294117813
 20
-1090.619852941183
 30
0.0
 11
725.3735294117798
 21
-1090.619852941183
 31
0.0
  0
LINE
  5
93
330
1F
100
AcDbEntity
  8
0-0
  6
Continuous
 62
    92
370
    13
100
AcDbLine
 10
-1553.126470588219
 20
956.3801470588196
 30
0.0
 11
1620.873529411782
 21
956.3801470588196
 31
0.0
  0
LINE
  5
94
330
1F
100
AcDbEntity
  8
0-0
  6
Continuous
 62
    92
370
    13
100
AcDbLine
 10
-1583.126470588219
 20
-1248.61985294118
 30
0.0
 11
-1583.126470588219
 21
986.3801470588196
 31
0.0
  0
LINE
  5
95
330
1F
100
AcDbEntity
  8
0-0
  6
Continuous
 62
    92
370
    13
100
AcDbLine
 10
1650.873529411782
 20
-1248.61985294118
 30
0.0
 11
1650.873529411782
 21
986.3801470588196
 31
0.0
  0
LINE
  5
96
330
1F
100
AcDbEntity
  8
0-0
  6
Continuous
 62
    92
370
    13
100
AcDbLine
 10
-1583.126470588219
 20
986.3801470588196
 30
0.0
 11
1650.873529411782
 21
986.3801470588196
 31
0.0
  0
LINE
  5
97
330
1F
100
AcDbEntity
  8
0-0
  6
Continuous
 62
    92
370
    13
100
AcDbLine
 10
-1553.126470588219
 20
-1248.61985294118
 30
0.0
 11
-1553.126470588219
 21
986.3801470588196
 31
0.0
  0
LINE
  5
98
330
1F
100
AcDbEntity
  8
0-0
  6
Continuous
 62
    92
370
    13
100
AcDbLine
 10
1620.873529411782
 20
-1248.61985294118
 30
0.0
 11
1620.873529411782
 21
986.3801470588196
 31
0.0
  0
LINE
  5
99
330
1F
100
AcDbEntity
  8
0-0
  6
Continuous
 62
    92
370
    13
100
AcDbLine
 10
843.8735294117807
 20
942.3801470588187
 30
0.0
 11
33.87352941178079
 21
942.3801470588187
 31
0.0
  0
LINE
  5
9A
330
1F
100
AcDbEntity
  8
0-0
  6
JWW_DASHED1
 62
   120
370
     5
100
AcDbLine
 10
813.8735294117807
 20
-1240.619852941183
 30
0.0
 11
813.8735294117826
 21
956.3801470588196
 31
0.0
  0
LINE
  5
9B
330
1F
100
AcDbEntity
  8
0-0
  6
Continuous
 62
    92
370
    13
100
AcDbLine
 10
843.8735294117807
 20
-1240.619852941183
 30
0.0
 11
843.8735294117807
 21
942.3801470588187
 31
0.0
  0
LINE
  5
9C
330
1F
100
AcDbEntity
  8
0-0
  6
Continuous
 62
    92
370
    13
100
AcDbLine
 10
33.87352941178079
 20
-1240.619852941183
 30
0.0
 11
33.87352941178079
 21
942.3801470588187
 31
0.0
  0
LINE
  5
9D
330
1F
100
AcDbEntity
  8
0-0
  6
Continuous
 62
    92
370
    13
100
AcDbLine
 10
-776.1264705882193
 20
942.3801470588187
 30
0.0
 11
33.87352941178079
 21
942.3801470588187
 31
0.0
  0
LINE
  5
9E
330
1F
100
AcDbEntity
  8
0-0
  6
JWW_DASHED1
 62
   120
370
     5
100
AcDbLine
 10
-746.1264705882193
 20
-1240.619852941183
 30
0.0
 11
-746.1264705882174
 21
956.3801470588196
 31
0.0
  0
LINE
  5
9F
330
1F
100
AcDbEntity
  8
0-0
  6
Continuous
 62
    92
370
    13
100
AcDbLine
 10
-776.1264705882193
 20
-1240.619852941183
 30
0.0
 11
-776.1264705882193
 21
942.3801470588187
 31
0.0
  0
LINE
  5
A0
330
1F
100
AcDbEntity
  8
0-0
  6
JWW_DASHED1
 62
   120
370
     5
100
AcDbLine
 10
-776.1264705882174
 20
-1240.619852941183
 30
0.0
 11
-776.1264705882174
 21
956.3801470588196
 31
0.0
  0
LINE
  5
A1
330
1F
100
AcDbEntity
  8
0-0
  6
JWW_DASHED1
 62
   120
370
     5
100
AcDbLine
 10
843.8735294117826
 20
-1240.619852941183
 30
0.0
 11
843.8735294117826
 21
956.3801470588196
 31
0.0
  0
LINE
  5
A2
330
1F
100
AcDbEntity
  8
0-0
  6
Continuous
 62
     7
370
     9
100
AcDbLine
 10
-672.6264705882187
 20
822.3801470588182
 30
0.0
 11
-657.6264705882187
 21
807.3801470588182
 31
0.0
  0
LINE
  5
A3
330
1F
100
AcDbEntity
  8
0-0
  6
Continuous
 62
     7
370
     9
100
AcDbLine
 10
-672.6264705882187
 20
-1240.619852941183
 30
0.0
 11
-672.6264705882187
 21
942.3801470588182
 31
0.0
  0
LINE
  5
A4
330
1F
100
AcDbEntity
  8
0-0
  6
Continuous
 62
     7
370
     9
100
AcDbLine
 10
-69.62647058822014
 20
822.3801470588182
 30
0.0
 11
-84.62647058822014
 21
807.3801470588182
 31
0.0
  0
LINE
  5
A5
330
1F
100
AcDbEntity
  8
0-0
  6
Continuous
 62
     7
370
     9
100
AcDbLine
 10
-69.62647058822014
 20
-1240.619852941183
 30
0.0
 11
-69.62647058822014
 21
942.3801470588182
 31
0.0
  0
LINE
  5
A6
330
1F
100
AcDbEntity
  8
0-0
  6
Continuous
 62
     7
370
     9
100
AcDbLine
 10
-672.6264705882187
 20
822.3801470588182
 30
0.0
 11
-69.62647058822014
 21
822.3801470588182
 31
0.0
  0
LINE
  5
A7
330
1F
100
AcDbEntity
  8
0-0
  6
Continuous
 62
    92
370
    13
100
AcDbLine
 10
-657.6264705882187
 20
807.3801470588182
 30
0.0
 11
-84.62647058822014
 21
807.3801470588182
 31
0.0
  0
LINE
  5
A8
330
1F
100
AcDbEntity
  8
0-0
  6
Continuous
 62
     7
370
     9
100
AcDbLine
 10
137.3735294117813
 20
822.3801470588182
 30
0.0
 11
152.3735294117813
 21
807.3801470588182
 31
0.0
  0
LINE
  5
A9
330
1F
100
AcDbEntity
  8
0-0
  6
Continuous
 62
     7
370
     9
100
AcDbLine
 10
137.3735294117813
 20
-1240.619852941183
 30
0.0
 11
137.3735294117813
 21
942.3801470588182
 31
0.0
  0
LINE
  5
AA
330
1F
100
AcDbEntity
  8
0-0
  6
Continuous
 62
     7
370
     9
100
AcDbLine
 10
740.3735294117798
 20
822.3801470588182
 30
0.0
 11
725.3735294117798
 21
807.3801470588182
 31
0.0
  0
LINE
  5
AB
330
1F
100
AcDbEntity
  8
0-0
  6
Continuous
 62
     7
370
     9
100
AcDbLine
 10
740.3735294117798
 20
-1240.619852941183
 30
0.0
 11
740.3735294117798
 21
942.3801470588182
 31
0.0
  0
LINE
  5
AC
330
1F
100
AcDbEntity
  8
0-0
  6
Continuous
 62
     7
370
     9
100
AcDbLine
 10
137.3735294117813
 20
822.3801470588182
 30
0.0
 11
740.3735294117798
 21
822.3801470588182
 31
0.0
  0
LINE
  5
AD
330
1F
100
AcDbEntity
  8
0-0
  6
Continuous
 62
    92
370
    13
100
AcDbLine
 10
152.3735294117813
 20
807.3801470588182
 30
0.0
 11
725.3735294117798
 21
807.3801470588182
 31
0.0
  0
LINE
  5
AE
330
1F
100
AcDbEntity
  8
0-0
  6
Continuous
 62
     7
370
     9
100
AcDbLine
 10
-657.6264705882187
 20
-505.6198529411826
 30
0.0
 11
-672.6264705882187
 21
-520.6198529411826
 31
0.0
  0
LINE
  5
AF
330
1F
100
AcDbEntity
  8
0-0
  6
Continuous
 62
     7
370
     9
100
AcDbLine
 10
-672.6264705882187
 20
-595.6198529411826
 30
0.0
 11
-657.6264705882187
 21
-610.6198529411826
 31
0.0
  0
LINE
  5
B0
330
1F
100
AcDbEntity
  8
0-0
  6
Continuous
 62
     7
370
     9
100
AcDbLine
 10
-84.62647058822014
 20
-505.6198529411826
 30
0.0
 11
-69.62647058822014
 21
-520.6198529411826
 31
0.0
  0
LINE
  5
B1
330
1F
100
AcDbEntity
  8
0-0
  6
Continuous
 62
     7
370
     9
100
AcDbLine
 10
-69.62647058822014
 20
-595.6198529411826
 30
0.0
 11
-84.62647058822014
 21
-610.6198529411826
 31
0.0
  0
LINE
  5
B2
330
1F
100
AcDbEntity
  8
0-0
  6
Continuous
 62
     7
370
     9
100
AcDbLine
 10
-672.6264705882187
 20
-520.6198529411826
 30
0.0
 11
-69.62647058822014
 21
-520.6198529411826
 31
0.0
  0
LINE
  5
B3
330
1F
100
AcDbEntity
  8
0-0
  6
Continuous
 62
     7
370
     9
100
AcDbLine
 10
-672.6264705882187
 20
-595.6198529411826
 30
0.0
 11
-69.62647058822014
 21
-595.6198529411826
 31
0.0
  0
LINE
  5
B4
330
1F
100
AcDbEntity
  8
0-0
  6
Continuous
 62
     7
370
     9
100
AcDbLine
 10
-627.6264705882187
 20
-1060.619852941183
 30
0.0
 11
-627.6264705882187
 21
-640.6198529411826
 31
0.0
  0
LINE
  5
B5
330
1F
100
AcDbEntity
  8
0-0
  6
Continuous
 62
     7
370
     9
100
AcDbLine
 10
-642.6264705882187
 20
-625.6198529411826
 30
0.0
 11
-627.6264705882187
 21
-640.6198529411826
 31
0.0
  0
LINE
  5
B6
330
1F
100
AcDbEntity
  8
0-0
  6
Continuous
 62
     7
370
     9
100
AcDbLine
 10
-99.62647058822014
 20
-625.6198529411826
 30
0.0
 11
-114.6264705882201
 21
-640.6198529411826
 31
0.0
  0
LINE
  5
B7
330
1F
100
AcDbEntity
  8
0-0
  6
Continuous
 62
     7
370
     9
100
AcDbLine
 10
-627.6264705882187
 20
-640.6198529411826
 30
0.0
 11
-114.6264705882201
 21
-640.6198529411826
 31
0.0
  0
LINE
  5
B8
330
1F
100
AcDbEntity
  8
0-0
  6
Continuous
 62
     7
370
     9
100
AcDbLine
 10
-114.6264705882201
 20
-1060.619852941183
 30
0.0
 11
-114.6264705882201
 21
-640.6198529411826
 31
0.0
  0
LINE
  5
B9
330
1F
100
AcDbEntity
  8
0-0
  6
Continuous
 62
    92
370
    13
100
AcDbLine
 10
-657.6264705882187
 20
-505.6198529411826
 30
0.0
 11
-84.62647058822014
 21
-505.6198529411826
 31
0.0
  0
LINE
  5
BA
330
1F
100
AcDbEntity
  8
0-0
  6
Continuous
 62
    92
370
    13
100
AcDbLine
 10
-657.6264705882187
 20
-610.6198529411826
 30
0.0
 11
-84.62647058822014
 21
-610.6198529411826
 31
0.0
  0
LINE
  5
BB
330
1F
100
AcDbEntity
  8
0-0
  6
Continuous
 62
    92
370
    13
100
AcDbLine
 10
-657.6264705882187
 20
-505.6198529411826
 30
0.0
 11
-657.6264705882187
 21
807.3801470588182
 31
0.0
  0
LINE
  5
BC
330
1F
100
AcDbEntity
  8
0-0
  6
Continuous
 62
    92
370
    13
100
AcDbLine
 10
-657.6264705882187
 20
-1090.619852941183
 30
0.0
 11
-657.6264705882187
 21
-610.6198529411826
 31
0.0
  0
LINE
  5
BD
330
1F
100
AcDbEntity
  8
0-0
  6
Continuous
 62
    92
370
    13
100
AcDbLine
 10
-84.62647058822014
 20
-505.6198529411826
 30
0.0
 11
-84.62647058822014
 21
807.3801470588182
 31
0.0
  0
LINE
  5
BE
330
1F
100
AcDbEntity
  8
0-0
  6
Continuous
 62
    92
370
    13
100
AcDbLine
 10
-84.62647058822014
 20
-1090.619852941183
 30
0.0
 11
-84.62647058822014
 21
-610.6198529411826
 31
0.0
  0
LINE
  5
BF
330
1F
100
AcDbEntity
  8
0-0
  6
Continuous
 62
     7
370
     9
100
AcDbLine
 10
152.3735294117813
 20
-505.6198529411826
 30
0.0
 11
137.3735294117813
 21
-520.6198529411826
 31
0.0
  0
LINE
  5
C0
330
1F
100
AcDbEntity
  8
0-0
  6
Continuous
 62
     7
370
     9
100
AcDbLine
 10
137.3735294117813
 20
-595.6198529411826
 30
0.0
 11
152.3735294117813
 21
-610.6198529411826
 31
0.0
  0
LINE
  5
C1
330
1F
100
AcDbEntity
  8
0-0
  6
Continuous
 62
     7
370
     9
100
AcDbLine
 10
725.3735294117798
 20
-505.6198529411826
 30
0.0
 11
740.3735294117798
 21
-520.6198529411826
 31
0.0
  0
LINE
  5
C2
330
1F
100
AcDbEntity
  8
0-0
  6
Continuous
 62
     7
370
     9
100
AcDbLine
 10
740.3735294117798
 20
-595.6198529411826
 30
0.0
 11
725.3735294117798
 21
-610.6198529411826
 31
0.0
  0
LINE
  5
C3
330
1F
100
AcDbEntity
  8
0-0
  6
Continuous
 62
     7
370
     9
100
AcDbLine
 10
137.3735294117813
 20
-520.6198529411826
 30
0.0
 11
740.3735294117798
 21
-520.6198529411826
 31
0.0
  0
LINE
  5
C4
330
1F
100
AcDbEntity
  8
0-0
  6
Continuous
 62
     7
370
     9
100
AcDbLine
 10
137.3735294117813
 20
-595.6198529411826
 30
0.0
 11
740.3735294117798
 21
-595.6198529411826
 31
0.0
  0
LINE
  5
C5
330
1F
100
AcDbEntity
  8
0-0
  6
Continuous
 62
     7
370
     9
100
AcDbLine
 10
182.3735294117813
 20
-1060.619852941183
 30
0.0
 11
182.3735294117813
 21
-640.6198529411826
 31
0.0
  0
LINE
  5
C6
330
1F
100
AcDbEntity
  8
0-0
  6
Continuous
 62
     7
370
     9
100
AcDbLine
 10
167.3735294117813
 20
-625.6198529411826
 30
0.0
 11
182.3735294117813
 21
-640.6198529411826
 31
0.0
  0
LINE
  5
C7
330
1F
100
AcDbEntity
  8
0-0
  6
Continuous
 62
     7
370
     9
100
AcDbLine
 10
710.3735294117798
 20
-625.6198529411826
 30
0.0
 11
695.3735294117798
 21
-640.6198529411826
 31
0.0
  0
LINE
  5
C8
330
1F
100
AcDbEntity
  8
0-0
  6
Continuous
 62
     7
370
     9
100
AcDbLine
 10
182.3735294117813
 20
-640.6198529411826
 30
0.0
 11
695.3735294117798
 21
-640.6198529411826
 31
0.0
  0
LINE
  5
C9
330
1F
100
AcDbEntity
  8
0-0
  6
Continuous
 62
     7
370
     9
100
AcDbLine
 10
695.3735294117798
 20
-1060.619852941183
 30
0.0
 11
695.3735294117798
 21
-640.6198529411826
 31
0.0
  0
LINE
  5
CA
330
1F
100
AcDbEntity
  8
0-0
  6
Continuous
 62
    92
370
    13
100
AcDbLine
 10
152.3735294117813
 20
-505.6198529411826
 30
0.0
 11
725.3735294117798
 21
-505.6198529411826
 31
0.0
  0
LINE
  5
CB
330
1F
100
AcDbEntity
  8
0-0
  6
Continuous
 62
    92
370
    13
100
AcDbLine
 10
152.3735294117813
 20
-610.6198529411826
 30
0.0
 11
725.3735294117798
 21
-610.6198529411826
 31
0.0
  0
LINE
  5
CC
330
1F
100
AcDbEntity
  8
0-0
  6
Continuous
 62
    92
370
    13
100
AcDbLine
 10
152.3735294117813
 20
-505.6198529411826
 30
0.0
 11
152.3735294117813
 21
807.3801470588182
 31
0.0
  0
LINE
  5
CD
330
1F
100
AcDbEntity
  8
0-0
  6
Continuous
 62
    92
370
    13
100
AcDbLine
 10
152.3735294117813
 20
-1090.619852941183
 30
0.0
 11
152.3735294117813
 21
-610.6198529411826
 31
0.0
  0
LINE
  5
CE
330
1F
100
AcDbEntity
  8
0-0
  6
Continuous
 62
    92
370
    13
100
AcDbLine
 10
725.3735294117798
 20
-505.6198529411826
 30
0.0
 11
725.3735294117798
 21
807.3801470588182
 31
0.0
  0
LINE
  5
CF
330
1F
100
AcDbEntity
  8
0-0
  6
Continuous
 62
    92
370
    13
100
AcDbLine
 10
725.3735294117798
 20
-1090.619852941183
 30
0.0
 11
725.3735294117798
 21
-610.6198529411826
 31
0.0
  0
LINE
  5
D0
330
1F
100
AcDbEntity
  8
0-0
  6
JWW_DASHED1
 62
   120
370
     5
100
AcDbLine
 10
-657.6264705882187
 20
-493.6198529871318
 30
0.0
 11
-84.62647058822014
 21
-493.6198529871318
 31
0.0
  0
LINE
  5
D1
330
1F
100
AcDbEntity
  8
0-0
  6
JWW_DASHED1
 62
   120
370
     5
100
AcDbLine
 10
-657.6264705882187
 20
-492.619852987232
 30
0.0
 11
-84.62647058822014
 21
-492.619852987232
 31
0.0
  0
LINE
  5
D2
330
1F
100
AcDbEntity
  8
0-0
  6
JWW_DASHED1
 62
   120
370
     5
100
AcDbLine
 10
-657.6264705882187
 20
-479.619852986132
 30
0.0
 11
-84.62647058822014
 21
-479.619852986132
 31
0.0
  0
LINE
  5
D3
330
1F
100
AcDbEntity
  8
0-0
  6
JWW_DASHED1
 62
   120
370
     5
100
AcDbLine
 10
-657.6264705882187
 20
-478.6198529862322
 30
0.0
 11
-84.62647058822014
 21
-478.6198529862322
 31
0.0
  0
LINE
  5
D4
330
1F
100
AcDbEntity
  8
0-0
  6
JWW_DASHED1
 62
   120
370
     5
100
AcDbLine
 10
-657.6264705882187
 20
-465.6198529851322
 30
0.0
 11
-84.62647058822014
 21
-465.6198529851322
 31
0.0
  0
LINE
  5
D5
330
1F
100
AcDbEntity
  8
0-0
  6
JWW_DASHED1
 62
   120
370
     5
100
AcDbLine
 10
-657.6264705882187
 20
-464.619852985232
 30
0.0
 11
-84.62647058822014
 21
-464.619852985232
 31
0.0
  0
LINE
  5
D6
330
1F
100
AcDbEntity
  8
0-0
  6
JWW_DASHED1
 62
   120
370
     5
100
AcDbLine
 10
-657.6264705882187
 20
-451.619852984132
 30
0.0
 11
-84.62647058822014
 21
-451.619852984132
 31
0.0
  0
LINE
  5
D7
330
1F
100
AcDbEntity
  8
0-0
  6
JWW_DASHED1
 62
   120
370
     5
100
AcDbLine
 10
-657.6264705882187
 20
-450.6198529842318
 30
0.0
 11
-84.62647058822014
 21
-450.6198529842318
 31
0.0
  0
LINE
  5
D8
330
1F
100
AcDbEntity
  8
0-0
  6
JWW_DASHED1
 62
   120
370
     5
100
AcDbLine
 10
-657.6264705882187
 20
-437.6198529831318
 30
0.0
 11
-84.62647058822014
 21
-437.6198529831318
 31
0.0
  0
LINE
  5
D9
330
1F
100
AcDbEntity
  8
0-0
  6
JWW_DASHED1
 62
   120
370
     5
100
AcDbLine
 10
-657.6264705882187
 20
-436.619852983232
 30
0.0
 11
-84.62647058822014
 21
-436.619852983232
 31
0.0
  0
LINE
  5
DA
330
1F
100
AcDbEntity
  8
0-0
  6
JWW_DASHED1
 62
   120
370
     5
100
AcDbLine
 10
-657.6264705882187
 20
-423.619852982132
 30
0.0
 11
-84.62647058822014
 21
-423.619852982132
 31
0.0
  0
LINE
  5
DB
330
1F
100
AcDbEntity
  8
0-0
  6
JWW_DASHED1
 62
   120
370
     5
100
AcDbLine
 10
-657.6264705882187
 20
-422.6198529822323
 30
0.0
 11
-84.62647058822014
 21
-422.6198529822323
 31
0.0
  0
LINE
  5
DC
330
1F
100
AcDbEntity
  8
0-0
  6
JWW_DASHED1
 62
   120
370
     5
100
AcDbLine
 10
-657.6264705882187
 20
-409.6198529811322
 30
0.0
 11
-84.62647058822014
 21
-409.6198529811322
 31
0.0
  0
LINE
  5
DD
330
1F
100
AcDbEntity
  8
0-0
  6
JWW_DASHED1
 62
   120
370
     5
100
AcDbLine
 10
-657.6264705882187
 20
-408.619852981232
 30
0.0
 11
-84.62647058822014
 21
-408.619852981232
 31
0.0
  0
LINE
  5
DE
330
1F
100
AcDbEntity
  8
0-0
  6
JWW_DASHED1
 62
   120
370
     5
100
AcDbLine
 10
-657.6264705882187
 20
-395.619852980132
 30
0.0
 11
-84.62647058822014
 21
-395.619852980132
 31
0.0
  0
LINE
  5
DF
330
1F
100
AcDbEntity
  8
0-0
  6
JWW_DASHED1
 62
   120
370
     5
100
AcDbLine
 10
-657.6264705882187
 20
-394.6198529802318
 30
0.0
 11
-84.62647058822014
 21
-394.6198529802318
 31
0.0
  0
LINE
  5
E0
330
1F
100
AcDbEntity
  8
0-0
  6
JWW_DASHED1
 62
   120
370
     5
100
AcDbLine
 10
-657.6264705882187
 20
-381.6198529791318
 30
0.0
 11
-84.62647058822014
 21
-381.6198529791318
 31
0.0
  0
LINE
  5
E1
330
1F
100
AcDbEntity
  8
0-0
  6
JWW_DASHED1
 62
   120
370
     5
100
AcDbLine
 10
-657.6264705882187
 20
-380.619852979232
 30
0.0
 11
-84.62647058822014
 21
-380.619852979232
 31
0.0
  0
LINE
  5
E2
330
1F
100
AcDbEntity
  8
0-0
  6
JWW_DASHED1
 62
   120
370
     5
100
AcDbLine
 10
-657.6264705882187
 20
-367.619852978132
 30
0.0
 11
-84.62647058822014
 21
-367.619852978132
 31
0.0
  0
LINE
  5
E3
330
1F
100
AcDbEntity
  8
0-0
  6
JWW_DASHED1
 62
   120
370
     5
100
AcDbLine
 10
-657.6264705882187
 20
-366.6198529782322
 30
0.0
 11
-84.62647058822014
 21
-366.6198529782322
 31
0.0
  0
LINE
  5
E4
330
1F
100
AcDbEntity
  8
0-0
  6
JWW_DASHED1
 62
   120
370
     5
100
AcDbLine
 10
-657.6264705882187
 20
-353.6198529771322
 30
0.0
 11
-84.62647058822014
 21
-353.6198529771322
 31
0.0
  0
LINE
  5
E5
330
1F
100
AcDbEntity
  8
0-0
  6
JWW_DASHED1
 62
   120
370
     5
100
AcDbLine
 10
-657.6264705882187
 20
-352.619852977232
 30
0.0
 11
-84.62647058822014
 21
-352.619852977232
 31
0.0
  0
LINE
  5
E6
330
1F
100
AcDbEntity
  8
0-0
  6
JWW_DASHED1
 62
   120
370
     5
100
AcDbLine
 10
-657.6264705882187
 20
-339.6198529761319
 30
0.0
 11
-84.62647058822014
 21
-339.6198529761319
 31
0.0
  0
LINE
  5
E7
330
1F
100
AcDbEntity
  8
0-0
  6
JWW_DASHED1
 62
   120
370
     5
100
AcDbLine
 10
-657.6264705882187
 20
-338.6198529762318
 30
0.0
 11
-84.62647058822014
 21
-338.6198529762318
 31
0.0
  0
LINE
  5
E8
330
1F
100
AcDbEntity
  8
0-0
  6
JWW_DASHED1
 62
   120
370
     5
100
AcDbLine
 10
-657.6264705882187
 20
-325.6198529751317
 30
0.0
 11
-84.62647058822014
 21
-325.6198529751317
 31
0.0
  0
LINE
  5
E9
330
1F
100
AcDbEntity
  8
0-0
  6
JWW_DASHED1
 62
   120
370
     5
100
AcDbLine
 10
-657.6264705882187
 20
-324.619852975232
 30
0.0
 11
-84.62647058822014
 21
-324.619852975232
 31
0.0
  0
LINE
  5
EA
330
1F
100
AcDbEntity
  8
0-0
  6
JWW_DASHED1
 62
   120
370
     5
100
AcDbLine
 10
-657.6264705882187
 20
-311.619852974132
 30
0.0
 11
-84.62647058822014
 21
-311.619852974132
 31
0.0
  0
LINE
  5
EB
330
1F
100
AcDbEntity
  8
0-0
  6
JWW_DASHED1
 62
   120
370
     5
100
AcDbLine
 10
-657.6264705882187
 20
-310.6198529742322
 30
0.0
 11
-84.62647058822014
 21
-310.6198529742322
 31
0.0
  0
LINE
  5
EC
330
1F
100
AcDbEntity
  8
0-0
  6
JWW_DASHED1
 62
   120
370
     5
100
AcDbLine
 10
-657.6264705882187
 20
-297.6198529731322
 30
0.0
 11
-84.62647058822014
 21
-297.6198529731322
 31
0.0
  0
LINE
  5
ED
330
1F
100
AcDbEntity
  8
0-0
  6
JWW_DASHED1
 62
   120
370
     5
100
AcDbLine
 10
-657.6264705882187
 20
-296.619852973232
 30
0.0
 11
-84.62647058822014
 21
-296.619852973232
 31
0.0
  0
LINE
  5
EE
330
1F
100
AcDbEntity
  8
0-0
  6
JWW_DASHED1
 62
   120
370
     5
100
AcDbLine
 10
-657.6264705882187
 20
-283.619852972132
 30
0.0
 11
-84.62647058822014
 21
-283.619852972132
 31
0.0
  0
LINE
  5
EF
330
1F
100
AcDbEntity
  8
0-0
  6
JWW_DASHED1
 62
   120
370
     5
100
AcDbLine
 10
-657.6264705882187
 20
-282.6198529722318
 30
0.0
 11
-84.62647058822014
 21
-282.6198529722318
 31
0.0
  0
LINE
  5
F0
330
1F
100
AcDbEntity
  8
0-0
  6
JWW_DASHED1
 62
   120
370
     5
100
AcDbLine
 10
-657.6264705882187
 20
-269.6198529711318
 30
0.0
 11
-84.62647058822014
 21
-269.6198529711318
 31
0.0
  0
LINE
  5
F1
330
1F
100
AcDbEntity
  8
0-0
  6
JWW_DASHED1
 62
   120
370
     5
100
AcDbLine
 10
-657.6264705882187
 20
-268.619852971232
 30
0.0
 11
-84.62647058822014
 21
-268.619852971232
 31
0.0
  0
LINE
  5
F2
330
1F
100
AcDbEntity
  8
0-0
  6
JWW_DASHED1
 62
   120
370
     5
100
AcDbLine
 10
-657.6264705882187
 20
-255.6198529701319
 30
0.0
 11
-84.62647058822014
 21
-255.6198529701319
 31
0.0
  0
LINE
  5
F3
330
1F
100
AcDbEntity
  8
0-0
  6
JWW_DASHED1
 62
   120
370
     5
100
AcDbLine
 10
-657.6264705882187
 20
-254.6198529702322
 30
0.0
 11
-84.62647058822014
 21
-254.6198529702322
 31
0.0
  0
LINE
  5
F4
330
1F
100
AcDbEntity
  8
0-0
  6
JWW_DASHED1
 62
   120
370
     5
100
AcDbLine
 10
-657.6264705882187
 20
-241.6198529691322
 30
0.0
 11
-84.62647058822014
 21
-241.6198529691322
 31
0.0
  0
LINE
  5
F5
330
1F
100
AcDbEntity
  8
0-0
  6
JWW_DASHED1
 62
   120
370
     5
100
AcDbLine
 10
-657.6264705882187
 20
-240.619852969232
 30
0.0
 11
-84.62647058822014
 21
-240.619852969232
 31
0.0
  0
LINE
  5
F6
330
1F
100
AcDbEntity
  8
0-0
  6
JWW_DASHED1
 62
   120
370
     5
100
AcDbLine
 10
-657.6264705882187
 20
-227.6198529681319
 30
0.0
 11
-84.62647058822014
 21
-227.6198529681319
 31
0.0
  0
LINE
  5
F7
330
1F
100
AcDbEntity
  8
0-0
  6
JWW_DASHED1
 62
   120
370
     5
100
AcDbLine
 10
-657.6264705882187
 20
-226.6198529682318
 30
0.0
 11
-84.62647058822014
 21
-226.6198529682318
 31
0.0
  0
LINE
  5
F8
330
1F
100
AcDbEntity
  8
0-0
  6
JWW_DASHED1
 62
   120
370
     5
100
AcDbLine
 10
-657.6264705882187
 20
-213.6198529671317
 30
0.0
 11
-84.62647058822014
 21
-213.6198529671317
 31
0.0
  0
LINE
  5
F9
330
1F
100
AcDbEntity
  8
0-0
  6
JWW_DASHED1
 62
   120
370
     5
100
AcDbLine
 10
-657.6264705882187
 20
-212.619852967232
 30
0.0
 11
-84.62647058822014
 21
-212.619852967232
 31
0.0
  0
LINE
  5
FA
330
1F
100
AcDbEntity
  8
0-0
  6
JWW_DASHED1
 62
   120
370
     5
100
AcDbLine
 10
-657.6264705882187
 20
-199.6198529661319
 30
0.0
 11
-84.62647058822014
 21
-199.6198529661319
 31
0.0
  0
LINE
  5
FB
330
1F
100
AcDbEntity
  8
0-0
  6
JWW_DASHED1
 62
   120
370
     5
100
AcDbLine
 10
-657.6264705882187
 20
-198.6198529662322
 30
0.0
 11
-84.62647058822014
 21
-198.6198529662322
 31
0.0
  0
LINE
  5
FC
330
1F
100
AcDbEntity
  8
0-0
  6
JWW_DASHED1
 62
   120
370
     5
100
AcDbLine
 10
-657.6264705882187
 20
-185.6198529651321
 30
0.0
 11
-84.62647058822014
 21
-185.6198529651321
 31
0.0
  0
LINE
  5
FD
330
1F
100
AcDbEntity
  8
0-0
  6
JWW_DASHED1
 62
   120
370
     5
100
AcDbLine
 10
-657.6264705882187
 20
-184.619852965232
 30
0.0
 11
-84.62647058822014
 21
-184.619852965232
 31
0.0
  0
LINE
  5
FE
330
1F
100
AcDbEntity
  8
0-0
  6
JWW_DASHED1
 62
   120
370
     5
100
AcDbLine
 10
-657.6264705882187
 20
-171.6198529641319
 30
0.0
 11
-84.62647058822014
 21
-171.6198529641319
 31
0.0
  0
LINE
  5
FF
330
1F
100
AcDbEntity
  8
0-0
  6
JWW_DASHED1
 62
   120
370
     5
100
AcDbLine
 10
-657.6264705882187
 20
-170.6198529642317
 30
0.0
 11
-84.62647058822014
 21
-170.6198529642317
 31
0.0
  0
LINE
  5
100
330
1F
100
AcDbEntity
  8
0-0
  6
JWW_DASHED1
 62
   120
370
     5
100
AcDbLine
 10
-657.6264705882187
 20
-157.6198529631317
 30
0.0
 11
-84.62647058822014
 21
-157.6198529631317
 31
0.0
  0
LINE
  5
101
330
1F
100
AcDbEntity
  8
0-0
  6
JWW_DASHED1
 62
   120
370
     5
100
AcDbLine
 10
-657.6264705882187
 20
-156.6198529632319
 30
0.0
 11
-84.62647058822014
 21
-156.6198529632319
 31
0.0
  0
LINE
  5
102
330
1F
100
AcDbEntity
  8
0-0
  6
JWW_DASHED1
 62
   120
370
     5
100
AcDbLine
 10
-657.6264705882187
 20
-143.6198529621319
 30
0.0
 11
-84.62647058822014
 21
-143.6198529621319
 31
0.0
  0
LINE
  5
103
330
1F
100
AcDbEntity
  8
0-0
  6
JWW_DASHED1
 62
   120
370
     5
100
AcDbLine
 10
-657.6264705882187
 20
-142.6198529622322
 30
0.0
 11
-84.62647058822014
 21
-142.6198529622322
 31
0.0
  0
LINE
  5
104
330
1F
100
AcDbEntity
  8
0-0
  6
JWW_DASHED1
 62
   120
370
     5
100
AcDbLine
 10
-657.6264705882187
 20
-129.6198529611321
 30
0.0
 11
-84.62647058822014
 21
-129.6198529611321
 31
0.0
  0
LINE
  5
105
330
1F
100
AcDbEntity
  8
0-0
  6
JWW_DASHED1
 62
   120
370
     5
100
AcDbLine
 10
-657.6264705882187
 20
-128.6198529612319
 30
0.0
 11
-84.62647058822014
 21
-128.6198529612319
 31
0.0
  0
LINE
  5
106
330
1F
100
AcDbEntity
  8
0-0
  6
JWW_DASHED1
 62
   120
370
     5
100
AcDbLine
 10
-657.6264705882187
 20
-115.6198529601319
 30
0.0
 11
-84.62647058822014
 21
-115.6198529601319
 31
0.0
  0
LINE
  5
107
330
1F
100
AcDbEntity
  8
0-0
  6
JWW_DASHED1
 62
   120
370
     5
100
AcDbLine
 10
-657.6264705882187
 20
-114.6198529602317
 30
0.0
 11
-84.62647058822014
 21
-114.6198529602317
 31
0.0
  0
LINE
  5
108
330
1F
100
AcDbEntity
  8
0-0
  6
JWW_DASHED1
 62
   120
370
     5
100
AcDbLine
 10
-657.6264705882187
 20
-101.6198529591317
 30
0.0
 11
-84.62647058822014
 21
-101.6198529591317
 31
0.0
  0
LINE
  5
109
330
1F
100
AcDbEntity
  8
0-0
  6
JWW_DASHED1
 62
   120
370
     5
100
AcDbLine
 10
-657.6264705882187
 20
-100.6198529592319
 30
0.0
 11
-84.62647058822014
 21
-100.6198529592319
 31
0.0
  0
LINE
  5
10A
330
1F
100
AcDbEntity
  8
0-0
  6
JWW_DASHED1
 62
   120
370
     5
100
AcDbLine
 10
-657.6264705882187
 20
-87.6198529581319
 30
0.0
 11
-84.62647058822014
 21
-87.6198529581319
 31
0.0
  0
LINE
  5
10B
330
1F
100
AcDbEntity
  8
0-0
  6
JWW_DASHED1
 62
   120
370
     5
100
AcDbLine
 10
-657.6264705882187
 20
-86.61985295823172
 30
0.0
 11
-84.62647058822014
 21
-86.61985295823172
 31
0.0
  0
LINE
  5
10C
330
1F
100
AcDbEntity
  8
0-0
  6
JWW_DASHED1
 62
   120
370
     5
100
AcDbLine
 10
-657.6264705882187
 20
-73.61985295713211
 30
0.0
 11
-84.62647058822014
 21
-73.61985295713211
 31
0.0
  0
LINE
  5
10D
330
1F
100
AcDbEntity
  8
0-0
  6
JWW_DASHED1
 62
   120
370
     5
100
AcDbLine
 10
-657.6264705882187
 20
-72.61985295723193
 30
0.0
 11
-84.62647058822014
 21
-72.61985295723193
 31
0.0
  0
LINE
  5
10E
330
1F
100
AcDbEntity
  8
0-0
  6
JWW_DASHED1
 62
   120
370
     5
100
AcDbLine
 10
-657.6264705882187
 20
-59.61985295613189
 30
0.0
 11
-84.62647058822014
 21
-59.61985295613189
 31
0.0
  0
LINE
  5
10F
330
1F
100
AcDbEntity
  8
0-0
  6
JWW_DASHED1
 62
   120
370
     5
100
AcDbLine
 10
-657.6264705882187
 20
-58.61985295623171
 30
0.0
 11
-84.62647058822014
 21
-58.61985295623171
 31
0.0
  0
LINE
  5
110
330
1F
100
AcDbEntity
  8
0-0
  6
JWW_DASHED1
 62
   120
370
     5
100
AcDbLine
 10
-657.6264705882187
 20
-45.6198529551321
 30
0.0
 11
-84.62647058822014
 21
-45.6198529551321
 31
0.0
  0
LINE
  5
111
330
1F
100
AcDbEntity
  8
0-0
  6
JWW_DASHED1
 62
   120
370
     5
100
AcDbLine
 10
-657.6264705882187
 20
-44.61985295523192
 30
0.0
 11
-84.62647058822014
 21
-44.61985295523192
 31
0.0
  0
LINE
  5
112
330
1F
100
AcDbEntity
  8
0-0
  6
JWW_DASHED1
 62
   120
370
     5
100
AcDbLine
 10
-657.6264705882187
 20
-31.61985295413189
 30
0.0
 11
-84.62647058822014
 21
-31.61985295413189
 31
0.0
  0
LINE
  5
113
330
1F
100
AcDbEntity
  8
0-0
  6
JWW_DASHED1
 62
   120
370
     5
100
AcDbLine
 10
-657.6264705882187
 20
-30.6198529542317
 30
0.0
 11
-84.62647058822014
 21
-30.6198529542317
 31
0.0
  0
LINE
  5
114
330
1F
100
AcDbEntity
  8
0-0
  6
JWW_DASHED1
 62
   120
370
     5
100
AcDbLine
 10
-657.6264705882187
 20
-17.6198529531321
 30
0.0
 11
-84.62647058822014
 21
-17.6198529531321
 31
0.0
  0
LINE
  5
115
330
1F
100
AcDbEntity
  8
0-0
  6
JWW_DASHED1
 62
   120
370
     5
100
AcDbLine
 10
-657.6264705882187
 20
-16.61985295323191
 30
0.0
 11
-84.62647058822014
 21
-16.61985295323191
 31
0.0
  0
LINE
  5
116
330
1F
100
AcDbEntity
  8
0-0
  6
JWW_DASHED1
 62
   120
370
     5
100
AcDbLine
 10
-657.6264705882187
 20
-3.619852952131879
 30
0.0
 11
-84.62647058822014
 21
-3.619852952131879
 31
0.0
  0
LINE
  5
117
330
1F
100
AcDbEntity
  8
0-0
  6
JWW_DASHED1
 62
   120
370
     5
100
AcDbLine
 10
-657.6264705882187
 20
-2.619852952231696
 30
0.0
 11
-84.62647058822014
 21
-2.619852952231696
 31
0.0
  0
LINE
  5
118
330
1F
100
AcDbEntity
  8
0-0
  6
JWW_DASHED1
 62
   120
370
     5
100
AcDbLine
 10
-657.6264705882187
 20
10.38014704886791
 30
0.0
 11
-84.62647058822014
 21
10.38014704886791
 31
0.0
  0
LINE
  5
119
330
1F
100
AcDbEntity
  8
0-0
  6
JWW_DASHED1
 62
   120
370
     5
100
AcDbLine
 10
-657.6264705882187
 20
11.38014704876809
 30
0.0
 11
-84.62647058822014
 21
11.38014704876809
 31
0.0
  0
LINE
  5
11A
330
1F
100
AcDbEntity
  8
0-0
  6
JWW_DASHED1
 62
   120
370
     5
100
AcDbLine
 10
-657.6264705882187
 20
24.38014704986813
 30
0.0
 11
-84.62647058822014
 21
24.38014704986813
 31
0.0
  0
LINE
  5
11B
330
1F
100
AcDbEntity
  8
0-0
  6
JWW_DASHED1
 62
   120
370
     5
100
AcDbLine
 10
-657.6264705882187
 20
25.38014704976831
 30
0.0
 11
-84.62647058822014
 21
25.38014704976831
 31
0.0
  0
LINE
  5
11C
330
1F
100
AcDbEntity
  8
0-0
  6
JWW_DASHED1
 62
   120
370
     5
100
AcDbLine
 10
-657.6264705882187
 20
38.38014705086792
 30
0.0
 11
-84.62647058822014
 21
38.38014705086792
 31
0.0
  0
LINE
  5
11D
330
1F
100
AcDbEntity
  8
0-0
  6
JWW_DASHED1
 62
   120
370
     5
100
AcDbLine
 10
-657.6264705882187
 20
39.3801470507681
 30
0.0
 11
-84.62647058822014
 21
39.3801470507681
 31
0.0
  0
LINE
  5
11E
330
1F
100
AcDbEntity
  8
0-0
  6
JWW_DASHED1
 62
   120
370
     5
100
AcDbLine
 10
-657.6264705882187
 20
52.38014705186814
 30
0.0
 11
-84.62647058822014
 21
52.38014705186814
 31
0.0
  0
LINE
  5
11F
330
1F
100
AcDbEntity
  8
0-0
  6
JWW_DASHED1
 62
   120
370
     5
100
AcDbLine
 10
-657.6264705882187
 20
53.38014705176832
 30
0.0
 11
-84.62647058822014
 21
53.38014705176832
 31
0.0
  0
LINE
  5
120
330
1F
100
AcDbEntity
  8
0-0
  6
JWW_DASHED1
 62
   120
370
     5
100
AcDbLine
 10
-657.6264705882187
 20
66.38014705286793
 30
0.0
 11
-84.62647058822014
 21
66.38014705286793
 31
0.0
  0
LINE
  5
121
330
1F
100
AcDbEntity
  8
0-0
  6
JWW_DASHED1
 62
   120
370
     5
100
AcDbLine
 10
-657.6264705882187
 20
67.38014705276811
 30
0.0
 11
-84.62647058822014
 21
67.38014705276811
 31
0.0
  0
LINE
  5
122
330
1F
100
AcDbEntity
  8
0-0
  6
JWW_DASHED1
 62
   120
370
     5
100
AcDbLine
 10
-657.6264705882187
 20
80.38014705386814
 30
0.0
 11
-84.62647058822014
 21
80.38014705386814
 31
0.0
  0
LINE
  5
123
330
1F
100
AcDbEntity
  8
0-0
  6
JWW_DASHED1
 62
   120
370
     5
100
AcDbLine
 10
-657.6264705882187
 20
81.38014705376833
 30
0.0
 11
-84.62647058822014
 21
81.38014705376833
 31
0.0
  0
LINE
  5
124
330
1F
100
AcDbEntity
  8
0-0
  6
JWW_DASHED1
 62
   120
370
     5
100
AcDbLine
 10
-657.6264705882187
 20
94.38014705486793
 30
0.0
 11
-84.62647058822014
 21
94.38014705486793
 31
0.0
  0
LINE
  5
125
330
1F
100
AcDbEntity
  8
0-0
  6
JWW_DASHED1
 62
   120
370
     5
100
AcDbLine
 10
-657.6264705882187
 20
95.38014705476812
 30
0.0
 11
-84.62647058822014
 21
95.38014705476812
 31
0.0
  0
LINE
  5
126
330
1F
100
AcDbEntity
  8
0-0
  6
JWW_DASHED1
 62
   120
370
     5
100
AcDbLine
 10
-657.6264705882187
 20
108.3801470558682
 30
0.0
 11
-84.62647058822014
 21
108.3801470558682
 31
0.0
  0
LINE
  5
127
330
1F
100
AcDbEntity
  8
0-0
  6
JWW_DASHED1
 62
   120
370
     5
100
AcDbLine
 10
-657.6264705882187
 20
109.3801470557683
 30
0.0
 11
-84.62647058822014
 21
109.3801470557683
 31
0.0
  0
LINE
  5
128
330
1F
100
AcDbEntity
  8
0-0
  6
JWW_DASHED1
 62
   120
370
     5
100
AcDbLine
 10
-657.6264705882187
 20
122.3801470568679
 30
0.0
 11
-84.62647058822014
 21
122.3801470568679
 31
0.0
  0
LINE
  5
129
330
1F
100
AcDbEntity
  8
0-0
  6
JWW_DASHED1
 62
   120
370
     5
100
AcDbLine
 10
-657.6264705882187
 20
123.3801470567681
 30
0.0
 11
-84.62647058822014
 21
123.3801470567681
 31
0.0
  0
LINE
  5
12A
330
1F
100
AcDbEntity
  8
0-0
  6
JWW_DASHED1
 62
   120
370
     5
100
AcDbLine
 10
-657.6264705882187
 20
136.3801470578682
 30
0.0
 11
-84.62647058822014
 21
136.3801470578682
 31
0.0
  0
LINE
  5
12B
330
1F
100
AcDbEntity
  8
0-0
  6
JWW_DASHED1
 62
   120
370
     5
100
AcDbLine
 10
-657.6264705882187
 20
137.3801470577683
 30
0.0
 11
-84.62647058822014
 21
137.3801470577683
 31
0.0
  0
LINE
  5
12C
330
1F
100
AcDbEntity
  8
0-0
  6
JWW_DASHED1
 62
   120
370
     5
100
AcDbLine
 10
-657.6264705882187
 20
150.3801470588679
 30
0.0
 11
-84.62647058822014
 21
150.3801470588679
 31
0.0
  0
LINE
  5
12D
330
1F
100
AcDbEntity
  8
0-0
  6
JWW_DASHED1
 62
   120
370
     5
100
AcDbLine
 10
-657.6264705882187
 20
151.3801470587681
 30
0.0
 11
-84.62647058822014
 21
151.3801470587681
 31
0.0
  0
LINE
  5
12E
330
1F
100
AcDbEntity
  8
0-0
  6
JWW_DASHED1
 62
   120
370
     5
100
AcDbLine
 10
-657.6264705882187
 20
164.3801470598682
 30
0.0
 11
-84.62647058822014
 21
164.3801470598682
 31
0.0
  0
LINE
  5
12F
330
1F
100
AcDbEntity
  8
0-0
  6
JWW_DASHED1
 62
   120
370
     5
100
AcDbLine
 10
-657.6264705882187
 20
165.3801470597683
 30
0.0
 11
-84.62647058822014
 21
165.3801470597683
 31
0.0
  0
LINE
  5
130
330
1F
100
AcDbEntity
  8
0-0
  6
JWW_DASHED1
 62
   120
370
     5
100
AcDbLine
 10
-657.6264705882187
 20
178.380147060868
 30
0.0
 11
-84.62647058822014
 21
178.380147060868
 31
0.0
  0
LINE
  5
131
330
1F
100
AcDbEntity
  8
0-0
  6
JWW_DASHED1
 62
   120
370
     5
100
AcDbLine
 10
-657.6264705882187
 20
179.3801470607681
 30
0.0
 11
-84.62647058822014
 21
179.3801470607681
 31
0.0
  0
LINE
  5
132
330
1F
100
AcDbEntity
  8
0-0
  6
JWW_DASHED1
 62
   120
370
     5
100
AcDbLine
 10
-657.6264705882187
 20
192.3801470618682
 30
0.0
 11
-84.62647058822014
 21
192.3801470618682
 31
0.0
  0
LINE
  5
133
330
1F
100
AcDbEntity
  8
0-0
  6
JWW_DASHED1
 62
   120
370
     5
100
AcDbLine
 10
-657.6264705882187
 20
193.3801470617684
 30
0.0
 11
-84.62647058822014
 21
193.3801470617684
 31
0.0
  0
LINE
  5
134
330
1F
100
AcDbEntity
  8
0-0
  6
JWW_DASHED1
 62
   120
370
     5
100
AcDbLine
 10
-657.6264705882187
 20
206.380147062868
 30
0.0
 11
-84.62647058822014
 21
206.380147062868
 31
0.0
  0
LINE
  5
135
330
1F
100
AcDbEntity
  8
0-0
  6
JWW_DASHED1
 62
   120
370
     5
100
AcDbLine
 10
-657.6264705882187
 20
207.3801470627681
 30
0.0
 11
-84.62647058822014
 21
207.3801470627681
 31
0.0
  0
LINE
  5
136
330
1F
100
AcDbEntity
  8
0-0
  6
JWW_DASHED1
 62
   120
370
     5
100
AcDbLine
 10
-657.6264705882187
 20
220.3801470638682
 30
0.0
 11
-84.62647058822014
 21
220.3801470638682
 31
0.0
  0
LINE
  5
137
330
1F
100
AcDbEntity
  8
0-0
  6
JWW_DASHED1
 62
   120
370
     5
100
AcDbLine
 10
-657.6264705882187
 20
221.3801470637684
 30
0.0
 11
-84.62647058822014
 21
221.3801470637684
 31
0.0
  0
LINE
  5
138
330
1F
100
AcDbEntity
  8
0-0
  6
JWW_DASHED1
 62
   120
370
     5
100
AcDbLine
 10
-657.6264705882187
 20
234.380147064868
 30
0.0
 11
-84.62647058822014
 21
234.380147064868
 31
0.0
  0
LINE
  5
139
330
1F
100
AcDbEntity
  8
0-0
  6
JWW_DASHED1
 62
   120
370
     5
100
AcDbLine
 10
-657.6264705882187
 20
235.3801470647682
 30
0.0
 11
-84.62647058822014
 21
235.3801470647682
 31
0.0
  0
LINE
  5
13A
330
1F
100
AcDbEntity
  8
0-0
  6
JWW_DASHED1
 62
   120
370
     5
100
AcDbLine
 10
-657.6264705882187
 20
248.3801470658682
 30
0.0
 11
-84.62647058822014
 21
248.3801470658682
 31
0.0
  0
LINE
  5
13B
330
1F
100
AcDbEntity
  8
0-0
  6
JWW_DASHED1
 62
   120
370
     5
100
AcDbLine
 10
-657.6264705882187
 20
249.3801470657679
 30
0.0
 11
-84.62647058822014
 21
249.3801470657679
 31
0.0
  0
LINE
  5
13C
330
1F
100
AcDbEntity
  8
0-0
  6
JWW_DASHED1
 62
   120
370
     5
100
AcDbLine
 10
-657.6264705882187
 20
262.3801470668679
 30
0.0
 11
-84.62647058822014
 21
262.3801470668679
 31
0.0
  0
LINE
  5
13D
330
1F
100
AcDbEntity
  8
0-0
  6
JWW_DASHED1
 62
   120
370
     5
100
AcDbLine
 10
-657.6264705882187
 20
263.3801470667681
 30
0.0
 11
-84.62647058822014
 21
263.3801470667681
 31
0.0
  0
LINE
  5
13E
330
1F
100
AcDbEntity
  8
0-0
  6
JWW_DASHED1
 62
   120
370
     5
100
AcDbLine
 10
-657.6264705882187
 20
276.3801470678682
 30
0.0
 11
-84.62647058822014
 21
276.3801470678682
 31
0.0
  0
LINE
  5
13F
330
1F
100
AcDbEntity
  8
0-0
  6
JWW_DASHED1
 62
   120
370
     5
100
AcDbLine
 10
-657.6264705882187
 20
277.3801470677683
 30
0.0
 11
-84.62647058822014
 21
277.3801470677683
 31
0.0
  0
LINE
  5
140
330
1F
100
AcDbEntity
  8
0-0
  6
JWW_DASHED1
 62
   120
370
     5
100
AcDbLine
 10
-657.6264705882187
 20
290.380147068868
 30
0.0
 11
-84.62647058822014
 21
290.380147068868
 31
0.0
  0
LINE
  5
141
330
1F
100
AcDbEntity
  8
0-0
  6
JWW_DASHED1
 62
   120
370
     5
100
AcDbLine
 10
-657.6264705882187
 20
291.3801470687682
 30
0.0
 11
-84.62647058822014
 21
291.3801470687682
 31
0.0
  0
LINE
  5
142
330
1F
100
AcDbEntity
  8
0-0
  6
JWW_DASHED1
 62
   120
370
     5
100
AcDbLine
 10
-657.6264705882187
 20
304.3801470698682
 30
0.0
 11
-84.62647058822014
 21
304.3801470698682
 31
0.0
  0
LINE
  5
143
330
1F
100
AcDbEntity
  8
0-0
  6
JWW_DASHED1
 62
   120
370
     5
100
AcDbLine
 10
-657.6264705882187
 20
305.380147069768
 30
0.0
 11
-84.62647058822014
 21
305.380147069768
 31
0.0
  0
LINE
  5
144
330
1F
100
AcDbEntity
  8
0-0
  6
JWW_DASHED1
 62
   120
370
     5
100
AcDbLine
 10
-657.6264705882187
 20
318.380147070868
 30
0.0
 11
-84.62647058822014
 21
318.380147070868
 31
0.0
  0
LINE
  5
145
330
1F
100
AcDbEntity
  8
0-0
  6
JWW_DASHED1
 62
   120
370
     5
100
AcDbLine
 10
-657.6264705882187
 20
319.3801470707682
 30
0.0
 11
-84.62647058822014
 21
319.3801470707682
 31
0.0
  0
LINE
  5
146
330
1F
100
AcDbEntity
  8
0-0
  6
JWW_DASHED1
 62
   120
370
     5
100
AcDbLine
 10
-657.6264705882187
 20
332.3801470718682
 30
0.0
 11
-84.62647058822014
 21
332.3801470718682
 31
0.0
  0
LINE
  5
147
330
1F
100
AcDbEntity
  8
0-0
  6
JWW_DASHED1
 62
   120
370
     5
100
AcDbLine
 10
-657.6264705882187
 20
333.3801470717684
 30
0.0
 11
-84.62647058822014
 21
333.3801470717684
 31
0.0
  0
LINE
  5
148
330
1F
100
AcDbEntity
  8
0-0
  6
JWW_DASHED1
 62
   120
370
     5
100
AcDbLine
 10
-657.6264705882187
 20
346.380147072868
 30
0.0
 11
-84.62647058822014
 21
346.380147072868
 31
0.0
  0
LINE
  5
149
330
1F
100
AcDbEntity
  8
0-0
  6
JWW_DASHED1
 62
   120
370
     5
100
AcDbLine
 10
-657.6264705882187
 20
347.3801470727682
 30
0.0
 11
-84.62647058822014
 21
347.3801470727682
 31
0.0
  0
LINE
  5
14A
330
1F
100
AcDbEntity
  8
0-0
  6
JWW_DASHED1
 62
   120
370
     5
100
AcDbLine
 10
-657.6264705882187
 20
360.3801470738682
 30
0.0
 11
-84.62647058822014
 21
360.3801470738682
 31
0.0
  0
LINE
  5
14B
330
1F
100
AcDbEntity
  8
0-0
  6
JWW_DASHED1
 62
   120
370
     5
100
AcDbLine
 10
-657.6264705882187
 20
361.3801470737679
 30
0.0
 11
-84.62647058822014
 21
361.3801470737679
 31
0.0
  0
LINE
  5
14C
330
1F
100
AcDbEntity
  8
0-0
  6
JWW_DASHED1
 62
   120
370
     5
100
AcDbLine
 10
-657.6264705882187
 20
374.380147074868
 30
0.0
 11
-84.62647058822014
 21
374.380147074868
 31
0.0
  0
LINE
  5
14D
330
1F
100
AcDbEntity
  8
0-0
  6
JWW_DASHED1
 62
   120
370
     5
100
AcDbLine
 10
-657.6264705882187
 20
375.3801470747682
 30
0.0
 11
-84.62647058822014
 21
375.3801470747682
 31
0.0
  0
LINE
  5
14E
330
1F
100
AcDbEntity
  8
0-0
  6
JWW_DASHED1
 62
   120
370
     5
100
AcDbLine
 10
-657.6264705882187
 20
388.3801470758682
 30
0.0
 11
-84.62647058822014
 21
388.3801470758682
 31
0.0
  0
LINE
  5
14F
330
1F
100
AcDbEntity
  8
0-0
  6
JWW_DASHED1
 62
   120
370
     5
100
AcDbLine
 10
-657.6264705882187
 20
389.3801470757684
 30
0.0
 11
-84.62647058822014
 21
389.3801470757684
 31
0.0
  0
LINE
  5
150
330
1F
100
AcDbEntity
  8
0-0
  6
JWW_DASHED1
 62
   120
370
     5
100
AcDbLine
 10
-657.6264705882187
 20
402.380147076868
 30
0.0
 11
-84.62647058822014
 21
402.380147076868
 31
0.0
  0
LINE
  5
151
330
1F
100
AcDbEntity
  8
0-0
  6
JWW_DASHED1
 62
   120
370
     5
100
AcDbLine
 10
-657.6264705882187
 20
403.3801470767682
 30
0.0
 11
-84.62647058822014
 21
403.3801470767682
 31
0.0
  0
LINE
  5
152
330
1F
100
AcDbEntity
  8
0-0
  6
JWW_DASHED1
 62
   120
370
     5
100
AcDbLine
 10
-657.6264705882187
 20
416.3801470778682
 30
0.0
 11
-84.62647058822014
 21
416.3801470778682
 31
0.0
  0
LINE
  5
153
330
1F
100
AcDbEntity
  8
0-0
  6
JWW_DASHED1
 62
   120
370
     5
100
AcDbLine
 10
-657.6264705882187
 20
417.380147077768
 30
0.0
 11
-84.62647058822014
 21
417.380147077768
 31
0.0
  0
LINE
  5
154
330
1F
100
AcDbEntity
  8
0-0
  6
JWW_DASHED1
 62
   120
370
     5
100
AcDbLine
 10
-657.6264705882187
 20
430.380147078868
 30
0.0
 11
-84.62647058822014
 21
430.380147078868
 31
0.0
  0
LINE
  5
155
330
1F
100
AcDbEntity
  8
0-0
  6
JWW_DASHED1
 62
   120
370
     5
100
AcDbLine
 10
-657.6264705882187
 20
431.3801470787682
 30
0.0
 11
-84.62647058822014
 21
431.3801470787682
 31
0.0
  0
LINE
  5
156
330
1F
100
AcDbEntity
  8
0-0
  6
JWW_DASHED1
 62
   120
370
     5
100
AcDbLine
 10
-657.6264705882187
 20
444.3801470798683
 30
0.0
 11
-84.62647058822014
 21
444.3801470798683
 31
0.0
  0
LINE
  5
157
330
1F
100
AcDbEntity
  8
0-0
  6
JWW_DASHED1
 62
   120
370
     5
100
AcDbLine
 10
-657.6264705882187
 20
445.380147079768
 30
0.0
 11
-84.62647058822014
 21
445.380147079768
 31
0.0
  0
LINE
  5
158
330
1F
100
AcDbEntity
  8
0-0
  6
JWW_DASHED1
 62
   120
370
     5
100
AcDbLine
 10
-657.6264705882187
 20
458.380147080868
 30
0.0
 11
-84.62647058822014
 21
458.380147080868
 31
0.0
  0
LINE
  5
159
330
1F
100
AcDbEntity
  8
0-0
  6
JWW_DASHED1
 62
   120
370
     5
100
AcDbLine
 10
-657.6264705882187
 20
459.3801470807682
 30
0.0
 11
-84.62647058822014
 21
459.3801470807682
 31
0.0
  0
LINE
  5
15A
330
1F
100
AcDbEntity
  8
0-0
  6
JWW_DASHED1
 62
   120
370
     5
100
AcDbLine
 10
-657.6264705882187
 20
472.3801470818682
 30
0.0
 11
-84.62647058822014
 21
472.3801470818682
 31
0.0
  0
LINE
  5
15B
330
1F
100
AcDbEntity
  8
0-0
  6
JWW_DASHED1
 62
   120
370
     5
100
AcDbLine
 10
-657.6264705882187
 20
473.380147081768
 30
0.0
 11
-84.62647058822014
 21
473.380147081768
 31
0.0
  0
LINE
  5
15C
330
1F
100
AcDbEntity
  8
0-0
  6
JWW_DASHED1
 62
   120
370
     5
100
AcDbLine
 10
-657.6264705882187
 20
486.380147082868
 30
0.0
 11
-84.62647058822014
 21
486.380147082868
 31
0.0
  0
LINE
  5
15D
330
1F
100
AcDbEntity
  8
0-0
  6
JWW_DASHED1
 62
   120
370
     5
100
AcDbLine
 10
-657.6264705882187
 20
487.3801470827682
 30
0.0
 11
-84.62647058822014
 21
487.3801470827682
 31
0.0
  0
LINE
  5
15E
330
1F
100
AcDbEntity
  8
0-0
  6
JWW_DASHED1
 62
   120
370
     5
100
AcDbLine
 10
-657.6264705882187
 20
500.3801470838682
 30
0.0
 11
-84.62647058822014
 21
500.3801470838682
 31
0.0
  0
LINE
  5
15F
330
1F
100
AcDbEntity
  8
0-0
  6
JWW_DASHED1
 62
   120
370
     5
100
AcDbLine
 10
-657.6264705882187
 20
501.380147083768
 30
0.0
 11
-84.62647058822014
 21
501.380147083768
 31
0.0
  0
LINE
  5
160
330
1F
100
AcDbEntity
  8
0-0
  6
JWW_DASHED1
 62
   120
370
     5
100
AcDbLine
 10
-657.6264705882187
 20
514.380147084868
 30
0.0
 11
-84.62647058822014
 21
514.380147084868
 31
0.0
  0
LINE
  5
161
330
1F
100
AcDbEntity
  8
0-0
  6
JWW_DASHED1
 62
   120
370
     5
100
AcDbLine
 10
-657.6264705882187
 20
515.3801470847682
 30
0.0
 11
-84.62647058822014
 21
515.3801470847682
 31
0.0
  0
LINE
  5
162
330
1F
100
AcDbEntity
  8
0-0
  6
JWW_DASHED1
 62
   120
370
     5
100
AcDbLine
 10
-657.6264705882187
 20
528.3801470858682
 30
0.0
 11
-84.62647058822014
 21
528.3801470858682
 31
0.0
  0
LINE
  5
163
330
1F
100
AcDbEntity
  8
0-0
  6
JWW_DASHED1
 62
   120
370
     5
100
AcDbLine
 10
-657.6264705882187
 20
529.380147085768
 30
0.0
 11
-84.62647058822014
 21
529.380147085768
 31
0.0
  0
LINE
  5
164
330
1F
100
AcDbEntity
  8
0-0
  6
JWW_DASHED1
 62
   120
370
     5
100
AcDbLine
 10
-657.6264705882187
 20
542.3801470868681
 30
0.0
 11
-84.62647058822014
 21
542.3801470868681
 31
0.0
  0
LINE
  5
165
330
1F
100
AcDbEntity
  8
0-0
  6
JWW_DASHED1
 62
   120
370
     5
100
AcDbLine
 10
-657.6264705882187
 20
543.3801470867683
 30
0.0
 11
-84.62647058822014
 21
543.3801470867683
 31
0.0
  0
LINE
  5
166
330
1F
100
AcDbEntity
  8
0-0
  6
JWW_DASHED1
 62
   120
370
     5
100
AcDbLine
 10
-657.6264705882187
 20
556.3801470878683
 30
0.0
 11
-84.62647058822014
 21
556.3801470878683
 31
0.0
  0
LINE
  5
167
330
1F
100
AcDbEntity
  8
0-0
  6
JWW_DASHED1
 62
   120
370
     5
100
AcDbLine
 10
-657.6264705882187
 20
557.380147087768
 30
0.0
 11
-84.62647058822014
 21
557.380147087768
 31
0.0
  0
LINE
  5
168
330
1F
100
AcDbEntity
  8
0-0
  6
JWW_DASHED1
 62
   120
370
     5
100
AcDbLine
 10
-657.6264705882187
 20
570.3801470888681
 30
0.0
 11
-84.62647058822014
 21
570.3801470888681
 31
0.0
  0
LINE
  5
169
330
1F
100
AcDbEntity
  8
0-0
  6
JWW_DASHED1
 62
   120
370
     5
100
AcDbLine
 10
-657.6264705882187
 20
571.3801470887682
 30
0.0
 11
-84.62647058822014
 21
571.3801470887682
 31
0.0
  0
LINE
  5
16A
330
1F
100
AcDbEntity
  8
0-0
  6
JWW_DASHED1
 62
   120
370
     5
100
AcDbLine
 10
-657.6264705882187
 20
584.3801470898683
 30
0.0
 11
-84.62647058822014
 21
584.3801470898683
 31
0.0
  0
LINE
  5
16B
330
1F
100
AcDbEntity
  8
0-0
  6
JWW_DASHED1
 62
   120
370
     5
100
AcDbLine
 10
-657.6264705882187
 20
585.380147089768
 30
0.0
 11
-84.62647058822014
 21
585.380147089768
 31
0.0
  0
LINE
  5
16C
330
1F
100
AcDbEntity
  8
0-0
  6
JWW_DASHED1
 62
   120
370
     5
100
AcDbLine
 10
-657.6264705882187
 20
598.380147090868
 30
0.0
 11
-84.62647058822014
 21
598.380147090868
 31
0.0
  0
LINE
  5
16D
330
1F
100
AcDbEntity
  8
0-0
  6
JWW_DASHED1
 62
   120
370
     5
100
AcDbLine
 10
-657.6264705882187
 20
599.3801470907682
 30
0.0
 11
-84.62647058822014
 21
599.3801470907682
 31
0.0
  0
LINE
  5
16E
330
1F
100
AcDbEntity
  8
0-0
  6
JWW_DASHED1
 62
   120
370
     5
100
AcDbLine
 10
-657.6264705882187
 20
612.3801470918683
 30
0.0
 11
-84.62647058822014
 21
612.3801470918683
 31
0.0
  0
LINE
  5
16F
330
1F
100
AcDbEntity
  8
0-0
  6
JWW_DASHED1
 62
   120
370
     5
100
AcDbLine
 10
-657.6264705882187
 20
613.3801470917681
 30
0.0
 11
-84.62647058822014
 21
613.3801470917681
 31
0.0
  0
LINE
  5
170
330
1F
100
AcDbEntity
  8
0-0
  6
JWW_DASHED1
 62
   120
370
     5
100
AcDbLine
 10
-657.6264705882187
 20
626.3801470928681
 30
0.0
 11
-84.62647058822014
 21
626.3801470928681
 31
0.0
  0
LINE
  5
171
330
1F
100
AcDbEntity
  8
0-0
  6
JWW_DASHED1
 62
   120
370
     5
100
AcDbLine
 10
-657.6264705882187
 20
627.3801470927683
 30
0.0
 11
-84.62647058822014
 21
627.3801470927683
 31
0.0
  0
LINE
  5
172
330
1F
100
AcDbEntity
  8
0-0
  6
JWW_DASHED1
 62
   120
370
     5
100
AcDbLine
 10
-657.6264705882187
 20
640.3801470938683
 30
0.0
 11
-84.62647058822014
 21
640.3801470938683
 31
0.0
  0
LINE
  5
173
330
1F
100
AcDbEntity
  8
0-0
  6
JWW_DASHED1
 62
   120
370
     5
100
AcDbLine
 10
-657.6264705882187
 20
641.3801470937681
 30
0.0
 11
-84.62647058822014
 21
641.3801470937681
 31
0.0
  0
LINE
  5
174
330
1F
100
AcDbEntity
  8
0-0
  6
JWW_DASHED1
 62
   120
370
     5
100
AcDbLine
 10
-657.6264705882187
 20
654.3801470948681
 30
0.0
 11
-84.62647058822014
 21
654.3801470948681
 31
0.0
  0
LINE
  5
175
330
1F
100
AcDbEntity
  8
0-0
  6
JWW_DASHED1
 62
   120
370
     5
100
AcDbLine
 10
-657.6264705882187
 20
655.3801470947683
 30
0.0
 11
-84.62647058822014
 21
655.3801470947683
 31
0.0
  0
LINE
  5
176
330
1F
100
AcDbEntity
  8
0-0
  6
JWW_DASHED1
 62
   120
370
     5
100
AcDbLine
 10
-657.6264705882187
 20
668.3801470958683
 30
0.0
 11
-84.62647058822014
 21
668.3801470958683
 31
0.0
  0
LINE
  5
177
330
1F
100
AcDbEntity
  8
0-0
  6
JWW_DASHED1
 62
   120
370
     5
100
AcDbLine
 10
-657.6264705882187
 20
669.380147095768
 30
0.0
 11
-84.62647058822014
 21
669.380147095768
 31
0.0
  0
LINE
  5
178
330
1F
100
AcDbEntity
  8
0-0
  6
JWW_DASHED1
 62
   120
370
     5
100
AcDbLine
 10
-657.6264705882187
 20
682.3801470968681
 30
0.0
 11
-84.62647058822014
 21
682.3801470968681
 31
0.0
  0
LINE
  5
179
330
1F
100
AcDbEntity
  8
0-0
  6
JWW_DASHED1
 62
   120
370
     5
100
AcDbLine
 10
-657.6264705882187
 20
683.3801470967683
 30
0.0
 11
-84.62647058822014
 21
683.3801470967683
 31
0.0
  0
LINE
  5
17A
330
1F
100
AcDbEntity
  8
0-0
  6
JWW_DASHED1
 62
   120
370
     5
100
AcDbLine
 10
-657.6264705882187
 20
696.3801470978683
 30
0.0
 11
-84.62647058822014
 21
696.3801470978683
 31
0.0
  0
LINE
  5
17B
330
1F
100
AcDbEntity
  8
0-0
  6
JWW_DASHED1
 62
   120
370
     5
100
AcDbLine
 10
-657.6264705882187
 20
697.380147097768
 30
0.0
 11
-84.62647058822014
 21
697.380147097768
 31
0.0
  0
LINE
  5
17C
330
1F
100
AcDbEntity
  8
0-0
  6
JWW_DASHED1
 62
   120
370
     5
100
AcDbLine
 10
-657.6264705882187
 20
710.3801470988681
 30
0.0
 11
-84.62647058822014
 21
710.3801470988681
 31
0.0
  0
LINE
  5
17D
330
1F
100
AcDbEntity
  8
0-0
  6
JWW_DASHED1
 62
   120
370
     5
100
AcDbLine
 10
-657.6264705882187
 20
711.3801470987682
 30
0.0
 11
-84.62647058822014
 21
711.3801470987682
 31
0.0
  0
LINE
  5
17E
330
1F
100
AcDbEntity
  8
0-0
  6
JWW_DASHED1
 62
   120
370
     5
100
AcDbLine
 10
-657.6264705882187
 20
724.3801470998683
 30
0.0
 11
-84.62647058822014
 21
724.3801470998683
 31
0.0
  0
LINE
  5
17F
330
1F
100
AcDbEntity
  8
0-0
  6
JWW_DASHED1
 62
   120
370
     5
100
AcDbLine
 10
-657.6264705882187
 20
725.380147099768
 30
0.0
 11
-84.62647058822014
 21
725.380147099768
 31
0.0
  0
LINE
  5
180
330
1F
100
AcDbEntity
  8
0-0
  6
JWW_DASHED1
 62
   120
370
     5
100
AcDbLine
 10
-657.6264705882187
 20
738.380147100868
 30
0.0
 11
-84.62647058822014
 21
738.380147100868
 31
0.0
  0
LINE
  5
181
330
1F
100
AcDbEntity
  8
0-0
  6
JWW_DASHED1
 62
   120
370
     5
100
AcDbLine
 10
-657.6264705882187
 20
739.3801471007682
 30
0.0
 11
-84.62647058822014
 21
739.3801471007682
 31
0.0
  0
LINE
  5
182
330
1F
100
AcDbEntity
  8
0-0
  6
JWW_DASHED1
 62
   120
370
     5
100
AcDbLine
 10
-657.6264705882187
 20
752.3801471018683
 30
0.0
 11
-84.62647058822014
 21
752.3801471018683
 31
0.0
  0
LINE
  5
183
330
1F
100
AcDbEntity
  8
0-0
  6
JWW_DASHED1
 62
   120
370
     5
100
AcDbLine
 10
-657.6264705882187
 20
753.3801471017681
 30
0.0
 11
-84.62647058822014
 21
753.3801471017681
 31
0.0
  0
LINE
  5
184
330
1F
100
AcDbEntity
  8
0-0
  6
JWW_DASHED1
 62
   120
370
     5
100
AcDbLine
 10
-657.6264705882187
 20
766.3801471028681
 30
0.0
 11
-84.62647058822014
 21
766.3801471028681
 31
0.0
  0
LINE
  5
185
330
1F
100
AcDbEntity
  8
0-0
  6
JWW_DASHED1
 62
   120
370
     5
100
AcDbLine
 10
-657.6264705882187
 20
767.3801471027683
 30
0.0
 11
-84.62647058822014
 21
767.3801471027683
 31
0.0
  0
LINE
  5
186
330
1F
100
AcDbEntity
  8
0-0
  6
JWW_DASHED1
 62
   120
370
     5
100
AcDbLine
 10
-657.6264705882187
 20
780.3801471038684
 30
0.0
 11
-84.62647058822014
 21
780.3801471038684
 31
0.0
  0
LINE
  5
187
330
1F
100
AcDbEntity
  8
0-0
  6
JWW_DASHED1
 62
   120
370
     5
100
AcDbLine
 10
-657.6264705882187
 20
781.3801471037681
 30
0.0
 11
-84.62647058822014
 21
781.3801471037681
 31
0.0
  0
LINE
  5
188
330
1F
100
AcDbEntity
  8
0-0
  6
JWW_DASHED1
 62
   120
370
     5
100
AcDbLine
 10
-657.6264705882187
 20
794.3801471048681
 30
0.0
 11
-84.62647058822014
 21
794.3801471048681
 31
0.0
  0
LINE
  5
189
330
1F
100
AcDbEntity
  8
0-0
  6
JWW_DASHED1
 62
   120
370
     5
100
AcDbLine
 10
-657.6264705882187
 20
795.3801471047683
 30
0.0
 11
-84.62647058822014
 21
795.3801471047683
 31
0.0
  0
LINE
  5
18A
330
1F
100
AcDbEntity
  8
0-0
  6
JWW_DASHED1
 62
   120
370
     5
100
AcDbLine
 10
-90.62647056826904
 20
-505.6198529411826
 30
0.0
 11
-90.62647056826904
 21
807.3801470588182
 31
0.0
  0
LINE
  5
18B
330
1F
100
AcDbEntity
  8
0-0
  6
JWW_DASHED1
 62
   120
370
     5
100
AcDbLine
 10
-91.62647056816922
 20
-505.6198529411826
 30
0.0
 11
-91.62647056816922
 21
807.3801470588182
 31
0.0
  0
LINE
  5
18C
330
1F
100
AcDbEntity
  8
0-0
  6
JWW_DASHED1
 62
   120
370
     5
100
AcDbLine
 10
-104.6264705692693
 20
-505.6198529411826
 30
0.0
 11
-104.6264705692693
 21
807.3801470588182
 31
0.0
  0
LINE
  5
18D
330
1F
100
AcDbEntity
  8
0-0
  6
JWW_DASHED1
 62
   120
370
     5
100
AcDbLine
 10
-105.626470569169
 20
-505.6198529411826
 30
0.0
 11
-105.626470569169
 21
807.3801470588182
 31
0.0
  0
LINE
  5
18E
330
1F
100
AcDbEntity
  8
0-0
  6
JWW_DASHED1
 62
   120
370
     5
100
AcDbLine
 10
-118.626470570269
 20
-505.6198529411826
 30
0.0
 11
-118.626470570269
 21
807.3801470588182
 31
0.0
  0
LINE
  5
18F
330
1F
100
AcDbEntity
  8
0-0
  6
JWW_DASHED1
 62
   120
370
     5
100
AcDbLine
 10
-119.6264705701692
 20
-505.6198529411826
 30
0.0
 11
-119.6264705701692
 21
807.3801470588182
 31
0.0
  0
LINE
  5
190
330
1F
100
AcDbEntity
  8
0-0
  6
JWW_DASHED1
 62
   120
370
     5
100
AcDbLine
 10
-132.6264705712693
 20
-505.6198529411826
 30
0.0
 11
-132.6264705712693
 21
807.3801470588182
 31
0.0
  0
LINE
  5
191
330
1F
100
AcDbEntity
  8
0-0
  6
JWW_DASHED1
 62
   120
370
     5
100
AcDbLine
 10
-133.626470571169
 20
-505.6198529411826
 30
0.0
 11
-133.626470571169
 21
807.3801470588182
 31
0.0
  0
LINE
  5
192
330
1F
100
AcDbEntity
  8
0-0
  6
JWW_DASHED1
 62
   120
370
     5
100
AcDbLine
 10
-146.6264705722691
 20
-505.6198529411826
 30
0.0
 11
-146.6264705722691
 21
807.3801470588182
 31
0.0
  0
LINE
  5
193
330
1F
100
AcDbEntity
  8
0-0
  6
JWW_DASHED1
 62
   120
370
     5
100
AcDbLine
 10
-147.6264705721692
 20
-505.6198529411826
 30
0.0
 11
-147.6264705721692
 21
807.3801470588182
 31
0.0
  0
LINE
  5
194
330
1F
100
AcDbEntity
  8
0-0
  6
JWW_DASHED1
 62
   120
370
     5
100
AcDbLine
 10
-160.6264705732693
 20
-505.6198529411826
 30
0.0
 11
-160.6264705732693
 21
807.3801470588182
 31
0.0
  0
LINE
  5
195
330
1F
100
AcDbEntity
  8
0-0
  6
JWW_DASHED1
 62
   120
370
     5
100
AcDbLine
 10
-161.626470573169
 20
-505.6198529411826
 30
0.0
 11
-161.626470573169
 21
807.3801470588182
 31
0.0
  0
LINE
  5
196
330
1F
100
AcDbEntity
  8
0-0
  6
JWW_DASHED1
 62
   120
370
     5
100
AcDbLine
 10
-174.6264705742691
 20
-505.6198529411826
 30
0.0
 11
-174.6264705742691
 21
807.3801470588182
 31
0.0
  0
LINE
  5
197
330
1F
100
AcDbEntity
  8
0-0
  6
JWW_DASHED1
 62
   120
370
     5
100
AcDbLine
 10
-175.6264705741692
 20
-505.6198529411826
 30
0.0
 11
-175.6264705741692
 21
807.3801470588182
 31
0.0
  0
LINE
  5
198
330
1F
100
AcDbEntity
  8
0-0
  6
JWW_DASHED1
 62
   120
370
     5
100
AcDbLine
 10
-188.6264705752693
 20
-505.6198529411826
 30
0.0
 11
-188.6264705752693
 21
807.3801470588182
 31
0.0
  0
LINE
  5
199
330
1F
100
AcDbEntity
  8
0-0
  6
JWW_DASHED1
 62
   120
370
     5
100
AcDbLine
 10
-189.626470575169
 20
-505.6198529411826
 30
0.0
 11
-189.626470575169
 21
807.3801470588182
 31
0.0
  0
LINE
  5
19A
330
1F
100
AcDbEntity
  8
0-0
  6
JWW_DASHED1
 62
   120
370
     5
100
AcDbLine
 10
-202.6264705762691
 20
-505.6198529411826
 30
0.0
 11
-202.6264705762691
 21
807.3801470588182
 31
0.0
  0
LINE
  5
19B
330
1F
100
AcDbEntity
  8
0-0
  6
JWW_DASHED1
 62
   120
370
     5
100
AcDbLine
 10
-203.6264705761693
 20
-505.6198529411826
 30
0.0
 11
-203.6264705761693
 21
807.3801470588182
 31
0.0
  0
LINE
  5
19C
330
1F
100
AcDbEntity
  8
0-0
  6
JWW_DASHED1
 62
   120
370
     5
100
AcDbLine
 10
-216.6264705772693
 20
-505.6198529411826
 30
0.0
 11
-216.6264705772693
 21
807.3801470588182
 31
0.0
  0
LINE
  5
19D
330
1F
100
AcDbEntity
  8
0-0
  6
JWW_DASHED1
 62
   120
370
     5
100
AcDbLine
 10
-217.626470577169
 20
-505.6198529411826
 30
0.0
 11
-217.626470577169
 21
807.3801470588182
 31
0.0
  0
LINE
  5
19E
330
1F
100
AcDbEntity
  8
0-0
  6
JWW_DASHED1
 62
   120
370
     5
100
AcDbLine
 10
-230.6264705782691
 20
-505.6198529411826
 30
0.0
 11
-230.6264705782691
 21
807.3801470588182
 31
0.0
  0
LINE
  5
19F
330
1F
100
AcDbEntity
  8
0-0
  6
JWW_DASHED1
 62
   120
370
     5
100
AcDbLine
 10
-231.6264705781693
 20
-505.6198529411826
 30
0.0
 11
-231.6264705781693
 21
807.3801470588182
 31
0.0
  0
LINE
  5
1A0
330
1F
100
AcDbEntity
  8
0-0
  6
JWW_DASHED1
 62
   120
370
     5
100
AcDbLine
 10
-244.6264705792693
 20
-505.6198529411826
 30
0.0
 11
-244.6264705792693
 21
807.3801470588182
 31
0.0
  0
LINE
  5
1A1
330
1F
100
AcDbEntity
  8
0-0
  6
JWW_DASHED1
 62
   120
370
     5
100
AcDbLine
 10
-245.6264705791691
 20
-505.6198529411826
 30
0.0
 11
-245.6264705791691
 21
807.3801470588182
 31
0.0
  0
LINE
  5
1A2
330
1F
100
AcDbEntity
  8
0-0
  6
JWW_DASHED1
 62
   120
370
     5
100
AcDbLine
 10
-258.6264705802691
 20
-505.6198529411826
 30
0.0
 11
-258.6264705802691
 21
807.3801470588182
 31
0.0
  0
LINE
  5
1A3
330
1F
100
AcDbEntity
  8
0-0
  6
JWW_DASHED1
 62
   120
370
     5
100
AcDbLine
 10
-259.6264705801693
 20
-505.6198529411826
 30
0.0
 11
-259.6264705801693
 21
807.3801470588182
 31
0.0
  0
LINE
  5
1A4
330
1F
100
AcDbEntity
  8
0-0
  6
JWW_DASHED1
 62
   120
370
     5
100
AcDbLine
 10
-272.6264705812693
 20
-505.6198529411826
 30
0.0
 11
-272.6264705812693
 21
807.3801470588182
 31
0.0
  0
LINE
  5
1A5
330
1F
100
AcDbEntity
  8
0-0
  6
JWW_DASHED1
 62
   120
370
     5
100
AcDbLine
 10
-273.6264705811691
 20
-505.6198529411826
 30
0.0
 11
-273.6264705811691
 21
807.3801470588182
 31
0.0
  0
LINE
  5
1A6
330
1F
100
AcDbEntity
  8
0-0
  6
JWW_DASHED1
 62
   120
370
     5
100
AcDbLine
 10
-286.6264705822691
 20
-505.6198529411826
 30
0.0
 11
-286.6264705822691
 21
807.3801470588182
 31
0.0
  0
LINE
  5
1A7
330
1F
100
AcDbEntity
  8
0-0
  6
JWW_DASHED1
 62
   120
370
     5
100
AcDbLine
 10
-287.6264705821693
 20
-505.6198529411826
 30
0.0
 11
-287.6264705821693
 21
807.3801470588182
 31
0.0
  0
LINE
  5
1A8
330
1F
100
AcDbEntity
  8
0-0
  6
JWW_DASHED1
 62
   120
370
     5
100
AcDbLine
 10
-300.6264705832693
 20
-505.6198529411826
 30
0.0
 11
-300.6264705832693
 21
807.3801470588182
 31
0.0
  0
LINE
  5
1A9
330
1F
100
AcDbEntity
  8
0-0
  6
JWW_DASHED1
 62
   120
370
     5
100
AcDbLine
 10
-301.6264705831691
 20
-505.6198529411826
 30
0.0
 11
-301.6264705831691
 21
807.3801470588182
 31
0.0
  0
LINE
  5
1AA
330
1F
100
AcDbEntity
  8
0-0
  6
JWW_DASHED1
 62
   120
370
     5
100
AcDbLine
 10
-314.6264705842691
 20
-505.6198529411826
 30
0.0
 11
-314.6264705842691
 21
807.3801470588182
 31
0.0
  0
LINE
  5
1AB
330
1F
100
AcDbEntity
  8
0-0
  6
JWW_DASHED1
 62
   120
370
     5
100
AcDbLine
 10
-315.6264705841693
 20
-505.6198529411826
 30
0.0
 11
-315.6264705841693
 21
807.3801470588182
 31
0.0
  0
LINE
  5
1AC
330
1F
100
AcDbEntity
  8
0-0
  6
JWW_DASHED1
 62
   120
370
     5
100
AcDbLine
 10
-328.6264705852693
 20
-505.6198529411826
 30
0.0
 11
-328.6264705852693
 21
807.3801470588182
 31
0.0
  0
LINE
  5
1AD
330
1F
100
AcDbEntity
  8
0-0
  6
JWW_DASHED1
 62
   120
370
     5
100
AcDbLine
 10
-329.626470585169
 20
-505.6198529411826
 30
0.0
 11
-329.626470585169
 21
807.3801470588182
 31
0.0
  0
LINE
  5
1AE
330
1F
100
AcDbEntity
  8
0-0
  6
JWW_DASHED1
 62
   120
370
     5
100
AcDbLine
 10
-342.6264705862691
 20
-505.6198529411826
 30
0.0
 11
-342.6264705862691
 21
807.3801470588182
 31
0.0
  0
LINE
  5
1AF
330
1F
100
AcDbEntity
  8
0-0
  6
JWW_DASHED1
 62
   120
370
     5
100
AcDbLine
 10
-343.6264705861693
 20
-505.6198529411826
 30
0.0
 11
-343.6264705861693
 21
807.3801470588182
 31
0.0
  0
LINE
  5
1B0
330
1F
100
AcDbEntity
  8
0-0
  6
JWW_DASHED1
 62
   120
370
     5
100
AcDbLine
 10
-356.6264705872693
 20
-505.6198529411826
 30
0.0
 11
-356.6264705872693
 21
807.3801470588182
 31
0.0
  0
LINE
  5
1B1
330
1F
100
AcDbEntity
  8
0-0
  6
JWW_DASHED1
 62
   120
370
     5
100
AcDbLine
 10
-357.6264705871691
 20
-505.6198529411826
 30
0.0
 11
-357.6264705871691
 21
807.3801470588182
 31
0.0
  0
LINE
  5
1B2
330
1F
100
AcDbEntity
  8
0-0
  6
JWW_DASHED1
 62
   120
370
     5
100
AcDbLine
 10
-370.6264705882691
 20
-505.6198529411826
 30
0.0
 11
-370.6264705882691
 21
807.3801470588182
 31
0.0
  0
LINE
  5
1B3
330
1F
100
AcDbEntity
  8
0-0
  6
JWW_DASHED1
 62
   120
370
     5
100
AcDbLine
 10
-371.6264705881693
 20
-505.6198529411826
 30
0.0
 11
-371.6264705881693
 21
807.3801470588182
 31
0.0
  0
LINE
  5
1B4
330
1F
100
AcDbEntity
  8
0-0
  6
JWW_DASHED1
 62
   120
370
     5
100
AcDbLine
 10
-384.6264705892693
 20
-505.6198529411826
 30
0.0
 11
-384.6264705892693
 21
807.3801470588182
 31
0.0
  0
LINE
  5
1B5
330
1F
100
AcDbEntity
  8
0-0
  6
JWW_DASHED1
 62
   120
370
     5
100
AcDbLine
 10
-385.6264705891691
 20
-505.6198529411826
 30
0.0
 11
-385.6264705891691
 21
807.3801470588182
 31
0.0
  0
LINE
  5
1B6
330
1F
100
AcDbEntity
  8
0-0
  6
JWW_DASHED1
 62
   120
370
     5
100
AcDbLine
 10
-398.6264705902692
 20
-505.6198529411826
 30
0.0
 11
-398.6264705902692
 21
807.3801470588182
 31
0.0
  0
LINE
  5
1B7
330
1F
100
AcDbEntity
  8
0-0
  6
JWW_DASHED1
 62
   120
370
     5
100
AcDbLine
 10
-399.6264705901693
 20
-505.6198529411826
 30
0.0
 11
-399.6264705901693
 21
807.3801470588182
 31
0.0
  0
LINE
  5
1B8
330
1F
100
AcDbEntity
  8
0-0
  6
JWW_DASHED1
 62
   120
370
     5
100
AcDbLine
 10
-412.6264705912694
 20
-505.6198529411826
 30
0.0
 11
-412.6264705912694
 21
807.3801470588182
 31
0.0
  0
LINE
  5
1B9
330
1F
100
AcDbEntity
  8
0-0
  6
JWW_DASHED1
 62
   120
370
     5
100
AcDbLine
 10
-413.6264705911691
 20
-505.6198529411826
 30
0.0
 11
-413.6264705911691
 21
807.3801470588182
 31
0.0
  0
LINE
  5
1BA
330
1F
100
AcDbEntity
  8
0-0
  6
JWW_DASHED1
 62
   120
370
     5
100
AcDbLine
 10
-426.6264705922691
 20
-505.6198529411826
 30
0.0
 11
-426.6264705922691
 21
807.3801470588182
 31
0.0
  0
LINE
  5
1BB
330
1F
100
AcDbEntity
  8
0-0
  6
JWW_DASHED1
 62
   120
370
     5
100
AcDbLine
 10
-427.6264705921693
 20
-505.6198529411826
 30
0.0
 11
-427.6264705921693
 21
807.3801470588182
 31
0.0
  0
LINE
  5
1BC
330
1F
100
AcDbEntity
  8
0-0
  6
JWW_DASHED1
 62
   120
370
     5
100
AcDbLine
 10
-440.6264705932693
 20
-505.6198529411826
 30
0.0
 11
-440.6264705932693
 21
807.3801470588182
 31
0.0
  0
LINE
  5
1BD
330
1F
100
AcDbEntity
  8
0-0
  6
JWW_DASHED1
 62
   120
370
     5
100
AcDbLine
 10
-441.6264705931691
 20
-505.6198529411826
 30
0.0
 11
-441.6264705931691
 21
807.3801470588182
 31
0.0
  0
LINE
  5
1BE
330
1F
100
AcDbEntity
  8
0-0
  6
JWW_DASHED1
 62
   120
370
     5
100
AcDbLine
 10
-454.6264705942691
 20
-505.6198529411826
 30
0.0
 11
-454.6264705942691
 21
807.3801470588182
 31
0.0
  0
LINE
  5
1BF
330
1F
100
AcDbEntity
  8
0-0
  6
JWW_DASHED1
 62
   120
370
     5
100
AcDbLine
 10
-455.6264705941693
 20
-505.6198529411826
 30
0.0
 11
-455.6264705941693
 21
807.3801470588182
 31
0.0
  0
LINE
  5
1C0
330
1F
100
AcDbEntity
  8
0-0
  6
JWW_DASHED1
 62
   120
370
     5
100
AcDbLine
 10
-468.6264705952693
 20
-505.6198529411826
 30
0.0
 11
-468.6264705952693
 21
807.3801470588182
 31
0.0
  0
LINE
  5
1C1
330
1F
100
AcDbEntity
  8
0-0
  6
JWW_DASHED1
 62
   120
370
     5
100
AcDbLine
 10
-469.6264705951691
 20
-505.6198529411826
 30
0.0
 11
-469.6264705951691
 21
807.3801470588182
 31
0.0
  0
LINE
  5
1C2
330
1F
100
AcDbEntity
  8
0-0
  6
JWW_DASHED1
 62
   120
370
     5
100
AcDbLine
 10
-482.6264705962691
 20
-505.6198529411826
 30
0.0
 11
-482.6264705962691
 21
807.3801470588182
 31
0.0
  0
LINE
  5
1C3
330
1F
100
AcDbEntity
  8
0-0
  6
JWW_DASHED1
 62
   120
370
     5
100
AcDbLine
 10
-483.6264705961693
 20
-505.6198529411826
 30
0.0
 11
-483.6264705961693
 21
807.3801470588182
 31
0.0
  0
LINE
  5
1C4
330
1F
100
AcDbEntity
  8
0-0
  6
JWW_DASHED1
 62
   120
370
     5
100
AcDbLine
 10
-496.6264705972694
 20
-505.6198529411826
 30
0.0
 11
-496.6264705972694
 21
807.3801470588182
 31
0.0
  0
LINE
  5
1C5
330
1F
100
AcDbEntity
  8
0-0
  6
JWW_DASHED1
 62
   120
370
     5
100
AcDbLine
 10
-497.6264705971691
 20
-505.6198529411826
 30
0.0
 11
-497.6264705971691
 21
807.3801470588182
 31
0.0
  0
LINE
  5
1C6
330
1F
100
AcDbEntity
  8
0-0
  6
JWW_DASHED1
 62
   120
370
     5
100
AcDbLine
 10
-510.6264705982692
 20
-505.6198529411826
 30
0.0
 11
-510.6264705982692
 21
807.3801470588182
 31
0.0
  0
LINE
  5
1C7
330
1F
100
AcDbEntity
  8
0-0
  6
JWW_DASHED1
 62
   120
370
     5
100
AcDbLine
 10
-511.6264705981694
 20
-505.6198529411826
 30
0.0
 11
-511.6264705981694
 21
807.3801470588182
 31
0.0
  0
LINE
  5
1C8
330
1F
100
AcDbEntity
  8
0-0
  6
JWW_DASHED1
 62
   120
370
     5
100
AcDbLine
 10
-524.6264705992694
 20
-505.6198529411826
 30
0.0
 11
-524.6264705992694
 21
807.3801470588182
 31
0.0
  0
LINE
  5
1C9
330
1F
100
AcDbEntity
  8
0-0
  6
JWW_DASHED1
 62
   120
370
     5
100
AcDbLine
 10
-525.6264705991691
 20
-505.6198529411826
 30
0.0
 11
-525.6264705991691
 21
807.3801470588182
 31
0.0
  0
LINE
  5
1CA
330
1F
100
AcDbEntity
  8
0-0
  6
JWW_DASHED1
 62
   120
370
     5
100
AcDbLine
 10
-538.6264706002692
 20
-505.6198529411826
 30
0.0
 11
-538.6264706002692
 21
807.3801470588182
 31
0.0
  0
LINE
  5
1CB
330
1F
100
AcDbEntity
  8
0-0
  6
JWW_DASHED1
 62
   120
370
     5
100
AcDbLine
 10
-539.6264706001693
 20
-505.6198529411826
 30
0.0
 11
-539.6264706001693
 21
807.3801470588182
 31
0.0
  0
LINE
  5
1CC
330
1F
100
AcDbEntity
  8
0-0
  6
JWW_DASHED1
 62
   120
370
     5
100
AcDbLine
 10
-552.6264706012694
 20
-505.6198529411826
 30
0.0
 11
-552.6264706012694
 21
807.3801470588182
 31
0.0
  0
LINE
  5
1CD
330
1F
100
AcDbEntity
  8
0-0
  6
JWW_DASHED1
 62
   120
370
     5
100
AcDbLine
 10
-553.6264706011691
 20
-505.6198529411826
 30
0.0
 11
-553.6264706011691
 21
807.3801470588182
 31
0.0
  0
LINE
  5
1CE
330
1F
100
AcDbEntity
  8
0-0
  6
JWW_DASHED1
 62
   120
370
     5
100
AcDbLine
 10
-566.6264706022691
 20
-505.6198529411826
 30
0.0
 11
-566.6264706022691
 21
807.3801470588182
 31
0.0
  0
LINE
  5
1CF
330
1F
100
AcDbEntity
  8
0-0
  6
JWW_DASHED1
 62
   120
370
     5
100
AcDbLine
 10
-567.6264706021693
 20
-505.6198529411826
 30
0.0
 11
-567.6264706021693
 21
807.3801470588182
 31
0.0
  0
LINE
  5
1D0
330
1F
100
AcDbEntity
  8
0-0
  6
JWW_DASHED1
 62
   120
370
     5
100
AcDbLine
 10
-580.6264706032694
 20
-505.6198529411826
 30
0.0
 11
-580.6264706032694
 21
807.3801470588182
 31
0.0
  0
LINE
  5
1D1
330
1F
100
AcDbEntity
  8
0-0
  6
JWW_DASHED1
 62
   120
370
     5
100
AcDbLine
 10
-581.6264706031691
 20
-505.6198529411826
 30
0.0
 11
-581.6264706031691
 21
807.3801470588182
 31
0.0
  0
LINE
  5
1D2
330
1F
100
AcDbEntity
  8
0-0
  6
JWW_DASHED1
 62
   120
370
     5
100
AcDbLine
 10
-594.6264706042691
 20
-505.6198529411826
 30
0.0
 11
-594.6264706042691
 21
807.3801470588182
 31
0.0
  0
LINE
  5
1D3
330
1F
100
AcDbEntity
  8
0-0
  6
JWW_DASHED1
 62
   120
370
     5
100
AcDbLine
 10
-595.6264706041693
 20
-505.6198529411826
 30
0.0
 11
-595.6264706041693
 21
807.3801470588182
 31
0.0
  0
LINE
  5
1D4
330
1F
100
AcDbEntity
  8
0-0
  6
JWW_DASHED1
 62
   120
370
     5
100
AcDbLine
 10
-608.6264706052693
 20
-505.6198529411826
 30
0.0
 11
-608.6264706052693
 21
807.3801470588182
 31
0.0
  0
LINE
  5
1D5
330
1F
100
AcDbEntity
  8
0-0
  6
JWW_DASHED1
 62
   120
370
     5
100
AcDbLine
 10
-609.6264706051692
 20
-505.6198529411826
 30
0.0
 11
-609.6264706051692
 21
807.3801470588182
 31
0.0
  0
LINE
  5
1D6
330
1F
100
AcDbEntity
  8
0-0
  6
JWW_DASHED1
 62
   120
370
     5
100
AcDbLine
 10
-622.6264706062692
 20
-505.6198529411826
 30
0.0
 11
-622.6264706062692
 21
807.3801470588182
 31
0.0
  0
LINE
  5
1D7
330
1F
100
AcDbEntity
  8
0-0
  6
JWW_DASHED1
 62
   120
370
     5
100
AcDbLine
 10
-623.6264706061694
 20
-505.6198529411826
 30
0.0
 11
-623.6264706061694
 21
807.3801470588182
 31
0.0
  0
LINE
  5
1D8
330
1F
100
AcDbEntity
  8
0-0
  6
JWW_DASHED1
 62
   120
370
     5
100
AcDbLine
 10
-636.6264706072694
 20
-505.6198529411826
 30
0.0
 11
-636.6264706072694
 21
807.3801470588182
 31
0.0
  0
LINE
  5
1D9
330
1F
100
AcDbEntity
  8
0-0
  6
JWW_DASHED1
 62
   120
370
     5
100
AcDbLine
 10
-637.6264706071692
 20
-505.6198529411826
 30
0.0
 11
-637.6264706071692
 21
807.3801470588182
 31
0.0
  0
LINE
  5
1DA
330
1F
100
AcDbEntity
  8
0-0
  6
JWW_DASHED1
 62
   120
370
     5
100
AcDbLine
 10
-650.6264706082692
 20
-505.6198529411826
 30
0.0
 11
-650.6264706082692
 21
807.3801470588182
 31
0.0
  0
LINE
  5
1DB
330
1F
100
AcDbEntity
  8
0-0
  6
JWW_DASHED1
 62
   120
370
     5
100
AcDbLine
 10
-651.6264706081694
 20
-505.6198529411826
 30
0.0
 11
-651.6264706081694
 21
807.3801470588182
 31
0.0
  0
LINE
  5
1DC
330
1F
100
AcDbEntity
  8
0-0
  6
JWW_DASHED1
 62
   120
370
     5
100
AcDbLine
 10
152.3735294117813
 20
-493.6198529871318
 30
0.0
 11
725.3735294117798
 21
-493.6198529871318
 31
0.0
  0
LINE
  5
1DD
330
1F
100
AcDbEntity
  8
0-0
  6
JWW_DASHED1
 62
   120
370
     5
100
AcDbLine
 10
152.3735294117813
 20
-492.619852987232
 30
0.0
 11
725.3735294117798
 21
-492.619852987232
 31
0.0
  0
LINE
  5
1DE
330
1F
100
AcDbEntity
  8
0-0
  6
JWW_DASHED1
 62
   120
370
     5
100
AcDbLine
 10
152.3735294117813
 20
-479.619852986132
 30
0.0
 11
725.3735294117798
 21
-479.619852986132
 31
0.0
  0
LINE
  5
1DF
330
1F
100
AcDbEntity
  8
0-0
  6
JWW_DASHED1
 62
   120
370
     5
100
AcDbLine
 10
152.3735294117813
 20
-478.6198529862322
 30
0.0
 11
725.3735294117798
 21
-478.6198529862322
 31
0.0
  0
LINE
  5
1E0
330
1F
100
AcDbEntity
  8
0-0
  6
JWW_DASHED1
 62
   120
370
     5
100
AcDbLine
 10
152.3735294117813
 20
-465.6198529851322
 30
0.0
 11
725.3735294117798
 21
-465.6198529851322
 31
0.0
  0
LINE
  5
1E1
330
1F
100
AcDbEntity
  8
0-0
  6
JWW_DASHED1
 62
   120
370
     5
100
AcDbLine
 10
152.3735294117813
 20
-464.619852985232
 30
0.0
 11
725.3735294117798
 21
-464.619852985232
 31
0.0
  0
LINE
  5
1E2
330
1F
100
AcDbEntity
  8
0-0
  6
JWW_DASHED1
 62
   120
370
     5
100
AcDbLine
 10
152.3735294117813
 20
-451.619852984132
 30
0.0
 11
725.3735294117798
 21
-451.619852984132
 31
0.0
  0
LINE
  5
1E3
330
1F
100
AcDbEntity
  8
0-0
  6
JWW_DASHED1
 62
   120
370
     5
100
AcDbLine
 10
152.3735294117813
 20
-450.6198529842318
 30
0.0
 11
725.3735294117798
 21
-450.6198529842318
 31
0.0
  0
LINE
  5
1E4
330
1F
100
AcDbEntity
  8
0-0
  6
JWW_DASHED1
 62
   120
370
     5
100
AcDbLine
 10
152.3735294117813
 20
-437.6198529831318
 30
0.0
 11
725.3735294117798
 21
-437.6198529831318
 31
0.0
  0
LINE
  5
1E5
330
1F
100
AcDbEntity
  8
0-0
  6
JWW_DASHED1
 62
   120
370
     5
100
AcDbLine
 10
152.3735294117813
 20
-436.619852983232
 30
0.0
 11
725.3735294117798
 21
-436.619852983232
 31
0.0
  0
LINE
  5
1E6
330
1F
100
AcDbEntity
  8
0-0
  6
JWW_DASHED1
 62
   120
370
     5
100
AcDbLine
 10
152.3735294117813
 20
-423.619852982132
 30
0.0
 11
725.3735294117798
 21
-423.619852982132
 31
0.0
  0
LINE
  5
1E7
330
1F
100
AcDbEntity
  8
0-0
  6
JWW_DASHED1
 62
   120
370
     5
100
AcDbLine
 10
152.3735294117813
 20
-422.6198529822323
 30
0.0
 11
725.3735294117798
 21
-422.6198529822323
 31
0.0
  0
LINE
  5
1E8
330
1F
100
AcDbEntity
  8
0-0
  6
JWW_DASHED1
 62
   120
370
     5
100
AcDbLine
 10
152.3735294117813
 20
-409.6198529811322
 30
0.0
 11
725.3735294117798
 21
-409.6198529811322
 31
0.0
  0
LINE
  5
1E9
330
1F
100
AcDbEntity
  8
0-0
  6
JWW_DASHED1
 62
   120
370
     5
100
AcDbLine
 10
152.3735294117813
 20
-408.619852981232
 30
0.0
 11
725.3735294117798
 21
-408.619852981232
 31
0.0
  0
LINE
  5
1EA
330
1F
100
AcDbEntity
  8
0-0
  6
JWW_DASHED1
 62
   120
370
     5
100
AcDbLine
 10
152.3735294117813
 20
-395.619852980132
 30
0.0
 11
725.3735294117798
 21
-395.619852980132
 31
0.0
  0
LINE
  5
1EB
330
1F
100
AcDbEntity
  8
0-0
  6
JWW_DASHED1
 62
   120
370
     5
100
AcDbLine
 10
152.3735294117813
 20
-394.6198529802318
 30
0.0
 11
725.3735294117798
 21
-394.6198529802318
 31
0.0
  0
LINE
  5
1EC
330
1F
100
AcDbEntity
  8
0-0
  6
JWW_DASHED1
 62
   120
370
     5
100
AcDbLine
 10
152.3735294117813
 20
-381.6198529791318
 30
0.0
 11
725.3735294117798
 21
-381.6198529791318
 31
0.0
  0
LINE
  5
1ED
330
1F
100
AcDbEntity
  8
0-0
  6
JWW_DASHED1
 62
   120
370
     5
100
AcDbLine
 10
152.3735294117813
 20
-380.619852979232
 30
0.0
 11
725.3735294117798
 21
-380.619852979232
 31
0.0
  0
LINE
  5
1EE
330
1F
100
AcDbEntity
  8
0-0
  6
JWW_DASHED1
 62
   120
370
     5
100
AcDbLine
 10
152.3735294117813
 20
-367.619852978132
 30
0.0
 11
725.3735294117798
 21
-367.619852978132
 31
0.0
  0
LINE
  5
1EF
330
1F
100
AcDbEntity
  8
0-0
  6
JWW_DASHED1
 62
   120
370
     5
100
AcDbLine
 10
152.3735294117813
 20
-366.6198529782322
 30
0.0
 11
725.3735294117798
 21
-366.6198529782322
 31
0.0
  0
LINE
  5
1F0
330
1F
100
AcDbEntity
  8
0-0
  6
JWW_DASHED1
 62
   120
370
     5
100
AcDbLine
 10
152.3735294117813
 20
-353.6198529771322
 30
0.0
 11
725.3735294117798
 21
-353.6198529771322
 31
0.0
  0
LINE
  5
1F1
330
1F
100
AcDbEntity
  8
0-0
  6
JWW_DASHED1
 62
   120
370
     5
100
AcDbLine
 10
152.3735294117813
 20
-352.619852977232
 30
0.0
 11
725.3735294117798
 21
-352.619852977232
 31
0.0
  0
LINE
  5
1F2
330
1F
100
AcDbEntity
  8
0-0
  6
JWW_DASHED1
 62
   120
370
     5
100
AcDbLine
 10
152.3735294117813
 20
-339.6198529761319
 30
0.0
 11
725.3735294117798
 21
-339.6198529761319
 31
0.0
  0
LINE
  5
1F3
330
1F
100
AcDbEntity
  8
0-0
  6
JWW_DASHED1
 62
   120
370
     5
100
AcDbLine
 10
152.3735294117813
 20
-338.6198529762318
 30
0.0
 11
725.3735294117798
 21
-338.6198529762318
 31
0.0
  0
LINE
  5
1F4
330
1F
100
AcDbEntity
  8
0-0
  6
JWW_DASHED1
 62
   120
370
     5
100
AcDbLine
 10
152.3735294117813
 20
-325.6198529751317
 30
0.0
 11
725.3735294117798
 21
-325.6198529751317
 31
0.0
  0
LINE
  5
1F5
330
1F
100
AcDbEntity
  8
0-0
  6
JWW_DASHED1
 62
   120
370
     5
100
AcDbLine
 10
152.3735294117813
 20
-324.619852975232
 30
0.0
 11
725.3735294117798
 21
-324.619852975232
 31
0.0
  0
LINE
  5
1F6
330
1F
100
AcDbEntity
  8
0-0
  6
JWW_DASHED1
 62
   120
370
     5
100
AcDbLine
 10
152.3735294117813
 20
-311.619852974132
 30
0.0
 11
725.3735294117798
 21
-311.619852974132
 31
0.0
  0
LINE
  5
1F7
330
1F
100
AcDbEntity
  8
0-0
  6
JWW_DASHED1
 62
   120
370
     5
100
AcDbLine
 10
152.3735294117813
 20
-310.6198529742322
 30
0.0
 11
725.3735294117798
 21
-310.6198529742322
 31
0.0
  0
LINE
  5
1F8
330
1F
100
AcDbEntity
  8
0-0
  6
JWW_DASHED1
 62
   120
370
     5
100
AcDbLine
 10
152.3735294117813
 20
-297.6198529731322
 30
0.0
 11
725.3735294117798
 21
-297.6198529731322
 31
0.0
  0
LINE
  5
1F9
330
1F
100
AcDbEntity
  8
0-0
  6
JWW_DASHED1
 62
   120
370
     5
100
AcDbLine
 10
152.3735294117813
 20
-296.619852973232
 30
0.0
 11
725.3735294117798
 21
-296.619852973232
 31
0.0
  0
LINE
  5
1FA
330
1F
100
AcDbEntity
  8
0-0
  6
JWW_DASHED1
 62
   120
370
     5
100
AcDbLine
 10
152.3735294117813
 20
-283.619852972132
 30
0.0
 11
725.3735294117798
 21
-283.619852972132
 31
0.0
  0
LINE
  5
1FB
330
1F
100
AcDbEntity
  8
0-0
  6
JWW_DASHED1
 62
   120
370
     5
100
AcDbLine
 10
152.3735294117813
 20
-282.6198529722318
 30
0.0
 11
725.3735294117798
 21
-282.6198529722318
 31
0.0
  0
LINE
  5
1FC
330
1F
100
AcDbEntity
  8
0-0
  6
JWW_DASHED1
 62
   120
370
     5
100
AcDbLine
 10
152.3735294117813
 20
-269.6198529711318
 30
0.0
 11
725.3735294117798
 21
-269.6198529711318
 31
0.0
  0
LINE
  5
1FD
330
1F
100
AcDbEntity
  8
0-0
  6
JWW_DASHED1
 62
   120
370
     5
100
AcDbLine
 10
152.3735294117813
 20
-268.619852971232
 30
0.0
 11
725.3735294117798
 21
-268.619852971232
 31
0.0
  0
LINE
  5
1FE
330
1F
100
AcDbEntity
  8
0-0
  6
JWW_DASHED1
 62
   120
370
     5
100
AcDbLine
 10
152.3735294117813
 20
-255.6198529701319
 30
0.0
 11
725.3735294117798
 21
-255.6198529701319
 31
0.0
  0
LINE
  5
1FF
330
1F
100
AcDbEntity
  8
0-0
  6
JWW_DASHED1
 62
   120
370
     5
100
AcDbLine
 10
152.3735294117813
 20
-254.6198529702322
 30
0.0
 11
725.3735294117798
 21
-254.6198529702322
 31
0.0
  0
LINE
  5
200
330
1F
100
AcDbEntity
  8
0-0
  6
JWW_DASHED1
 62
   120
370
     5
100
AcDbLine
 10
152.3735294117813
 20
-241.6198529691322
 30
0.0
 11
725.3735294117798
 21
-241.6198529691322
 31
0.0
  0
LINE
  5
201
330
1F
100
AcDbEntity
  8
0-0
  6
JWW_DASHED1
 62
   120
370
     5
100
AcDbLine
 10
152.3735294117813
 20
-240.619852969232
 30
0.0
 11
725.3735294117798
 21
-240.619852969232
 31
0.0
  0
LINE
  5
202
330
1F
100
AcDbEntity
  8
0-0
  6
JWW_DASHED1
 62
   120
370
     5
100
AcDbLine
 10
152.3735294117813
 20
-227.6198529681319
 30
0.0
 11
725.3735294117798
 21
-227.6198529681319
 31
0.0
  0
LINE
  5
203
330
1F
100
AcDbEntity
  8
0-0
  6
JWW_DASHED1
 62
   120
370
     5
100
AcDbLine
 10
152.3735294117813
 20
-226.6198529682318
 30
0.0
 11
725.3735294117798
 21
-226.6198529682318
 31
0.0
  0
LINE
  5
204
330
1F
100
AcDbEntity
  8
0-0
  6
JWW_DASHED1
 62
   120
370
     5
100
AcDbLine
 10
152.3735294117813
 20
-213.6198529671317
 30
0.0
 11
725.3735294117798
 21
-213.6198529671317
 31
0.0
  0
LINE
  5
205
330
1F
100
AcDbEntity
  8
0-0
  6
JWW_DASHED1
 62
   120
370
     5
100
AcDbLine
 10
152.3735294117813
 20
-212.619852967232
 30
0.0
 11
725.3735294117798
 21
-212.619852967232
 31
0.0
  0
LINE
  5
206
330
1F
100
AcDbEntity
  8
0-0
  6
JWW_DASHED1
 62
   120
370
     5
100
AcDbLine
 10
152.3735294117813
 20
-199.6198529661319
 30
0.0
 11
725.3735294117798
 21
-199.6198529661319
 31
0.0
  0
LINE
  5
207
330
1F
100
AcDbEntity
  8
0-0
  6
JWW_DASHED1
 62
   120
370
     5
100
AcDbLine
 10
152.3735294117813
 20
-198.6198529662322
 30
0.0
 11
725.3735294117798
 21
-198.6198529662322
 31
0.0
  0
LINE
  5
208
330
1F
100
AcDbEntity
  8
0-0
  6
JWW_DASHED1
 62
   120
370
     5
100
AcDbLine
 10
152.3735294117813
 20
-185.6198529651321
 30
0.0
 11
725.3735294117798
 21
-185.6198529651321
 31
0.0
  0
LINE
  5
209
330
1F
100
AcDbEntity
  8
0-0
  6
JWW_DASHED1
 62
   120
370
     5
100
AcDbLine
 10
152.3735294117813
 20
-184.619852965232
 30
0.0
 11
725.3735294117798
 21
-184.619852965232
 31
0.0
  0
LINE
  5
20A
330
1F
100
AcDbEntity
  8
0-0
  6
JWW_DASHED1
 62
   120
370
     5
100
AcDbLine
 10
152.3735294117813
 20
-171.6198529641319
 30
0.0
 11
725.3735294117798
 21
-171.6198529641319
 31
0.0
  0
LINE
  5
20B
330
1F
100
AcDbEntity
  8
0-0
  6
JWW_DASHED1
 62
   120
370
     5
100
AcDbLine
 10
152.3735294117813
 20
-170.6198529642317
 30
0.0
 11
725.3735294117798
 21
-170.6198529642317
 31
0.0
  0
LINE
  5
20C
330
1F
100
AcDbEntity
  8
0-0
  6
JWW_DASHED1
 62
   120
370
     5
100
AcDbLine
 10
152.3735294117813
 20
-157.6198529631317
 30
0.0
 11
725.3735294117798
 21
-157.6198529631317
 31
0.0
  0
LINE
  5
20D
330
1F
100
AcDbEntity
  8
0-0
  6
JWW_DASHED1
 62
   120
370
     5
100
AcDbLine
 10
152.3735294117813
 20
-156.6198529632319
 30
0.0
 11
725.3735294117798
 21
-156.6198529632319
 31
0.0
  0
LINE
  5
20E
330
1F
100
AcDbEntity
  8
0-0
  6
JWW_DASHED1
 62
   120
370
     5
100
AcDbLine
 10
152.3735294117813
 20
-143.6198529621319
 30
0.0
 11
725.3735294117798
 21
-143.6198529621319
 31
0.0
  0
LINE
  5
20F
330
1F
100
AcDbEntity
  8
0-0
  6
JWW_DASHED1
 62
   120
370
     5
100
AcDbLine
 10
152.3735294117813
 20
-142.6198529622322
 30
0.0
 11
725.3735294117798
 21
-142.6198529622322
 31
0.0
  0
LINE
  5
210
330
1F
100
AcDbEntity
  8
0-0
  6
JWW_DASHED1
 62
   120
370
     5
100
AcDbLine
 10
152.3735294117813
 20
-129.6198529611321
 30
0.0
 11
725.3735294117798
 21
-129.6198529611321
 31
0.0
  0
LINE
  5
211
330
1F
100
AcDbEntity
  8
0-0
  6
JWW_DASHED1
 62
   120
370
     5
100
AcDbLine
 10
152.3735294117813
 20
-128.6198529612319
 30
0.0
 11
725.3735294117798
 21
-128.6198529612319
 31
0.0
  0
LINE
  5
212
330
1F
100
AcDbEntity
  8
0-0
  6
JWW_DASHED1
 62
   120
370
     5
100
AcDbLine
 10
152.3735294117813
 20
-115.6198529601319
 30
0.0
 11
725.3735294117798
 21
-115.6198529601319
 31
0.0
  0
LINE
  5
213
330
1F
100
AcDbEntity
  8
0-0
  6
JWW_DASHED1
 62
   120
370
     5
100
AcDbLine
 10
152.3735294117813
 20
-114.6198529602317
 30
0.0
 11
725.3735294117798
 21
-114.6198529602317
 31
0.0
  0
LINE
  5
214
330
1F
100
AcDbEntity
  8
0-0
  6
JWW_DASHED1
 62
   120
370
     5
100
AcDbLine
 10
152.3735294117813
 20
-101.6198529591317
 30
0.0
 11
725.3735294117798
 21
-101.6198529591317
 31
0.0
  0
LINE
  5
215
330
1F
100
AcDbEntity
  8
0-0
  6
JWW_DASHED1
 62
   120
370
     5
100
AcDbLine
 10
152.3735294117813
 20
-100.6198529592319
 30
0.0
 11
725.3735294117798
 21
-100.6198529592319
 31
0.0
  0
LINE
  5
216
330
1F
100
AcDbEntity
  8
0-0
  6
JWW_DASHED1
 62
   120
370
     5
100
AcDbLine
 10
152.3735294117813
 20
-87.6198529581319
 30
0.0
 11
725.3735294117798
 21
-87.6198529581319
 31
0.0
  0
LINE
  5
217
330
1F
100
AcDbEntity
  8
0-0
  6
JWW_DASHED1
 62
   120
370
     5
100
AcDbLine
 10
152.3735294117813
 20
-86.61985295823172
 30
0.0
 11
725.3735294117798
 21
-86.61985295823172
 31
0.0
  0
LINE
  5
218
330
1F
100
AcDbEntity
  8
0-0
  6
JWW_DASHED1
 62
   120
370
     5
100
AcDbLine
 10
152.3735294117813
 20
-73.61985295713211
 30
0.0
 11
725.3735294117798
 21
-73.61985295713211
 31
0.0
  0
LINE
  5
219
330
1F
100
AcDbEntity
  8
0-0
  6
JWW_DASHED1
 62
   120
370
     5
100
AcDbLine
 10
152.3735294117813
 20
-72.61985295723193
 30
0.0
 11
725.3735294117798
 21
-72.61985295723193
 31
0.0
  0
LINE
  5
21A
330
1F
100
AcDbEntity
  8
0-0
  6
JWW_DASHED1
 62
   120
370
     5
100
AcDbLine
 10
152.3735294117813
 20
-59.61985295613189
 30
0.0
 11
725.3735294117798
 21
-59.61985295613189
 31
0.0
  0
LINE
  5
21B
330
1F
100
AcDbEntity
  8
0-0
  6
JWW_DASHED1
 62
   120
370
     5
100
AcDbLine
 10
152.3735294117813
 20
-58.61985295623171
 30
0.0
 11
725.3735294117798
 21
-58.61985295623171
 31
0.0
  0
LINE
  5
21C
330
1F
100
AcDbEntity
  8
0-0
  6
JWW_DASHED1
 62
   120
370
     5
100
AcDbLine
 10
152.3735294117813
 20
-45.6198529551321
 30
0.0
 11
725.3735294117798
 21
-45.6198529551321
 31
0.0
  0
LINE
  5
21D
330
1F
100
AcDbEntity
  8
0-0
  6
JWW_DASHED1
 62
   120
370
     5
100
AcDbLine
 10
152.3735294117813
 20
-44.61985295523192
 30
0.0
 11
725.3735294117798
 21
-44.61985295523192
 31
0.0
  0
LINE
  5
21E
330
1F
100
AcDbEntity
  8
0-0
  6
JWW_DASHED1
 62
   120
370
     5
100
AcDbLine
 10
152.3735294117813
 20
-31.61985295413189
 30
0.0
 11
725.3735294117798
 21
-31.61985295413189
 31
0.0
  0
LINE
  5
21F
330
1F
100
AcDbEntity
  8
0-0
  6
JWW_DASHED1
 62
   120
370
     5
100
AcDbLine
 10
152.3735294117813
 20
-30.6198529542317
 30
0.0
 11
725.3735294117798
 21
-30.6198529542317
 31
0.0
  0
LINE
  5
220
330
1F
100
AcDbEntity
  8
0-0
  6
JWW_DASHED1
 62
   120
370
     5
100
AcDbLine
 10
152.3735294117813
 20
-17.6198529531321
 30
0.0
 11
725.3735294117798
 21
-17.6198529531321
 31
0.0
  0
LINE
  5
221
330
1F
100
AcDbEntity
  8
0-0
  6
JWW_DASHED1
 62
   120
370
     5
100
AcDbLine
 10
152.3735294117813
 20
-16.61985295323191
 30
0.0
 11
725.3735294117798
 21
-16.61985295323191
 31
0.0
  0
LINE
  5
222
330
1F
100
AcDbEntity
  8
0-0
  6
JWW_DASHED1
 62
   120
370
     5
100
AcDbLine
 10
152.3735294117813
 20
-3.619852952131879
 30
0.0
 11
725.3735294117798
 21
-3.619852952131879
 31
0.0
  0
LINE
  5
223
330
1F
100
AcDbEntity
  8
0-0
  6
JWW_DASHED1
 62
   120
370
     5
100
AcDbLine
 10
152.3735294117813
 20
-2.619852952231696
 30
0.0
 11
725.3735294117798
 21
-2.619852952231696
 31
0.0
  0
LINE
  5
224
330
1F
100
AcDbEntity
  8
0-0
  6
JWW_DASHED1
 62
   120
370
     5
100
AcDbLine
 10
152.3735294117813
 20
10.38014704886791
 30
0.0
 11
725.3735294117798
 21
10.38014704886791
 31
0.0
  0
LINE
  5
225
330
1F
100
AcDbEntity
  8
0-0
  6
JWW_DASHED1
 62
   120
370
     5
100
AcDbLine
 10
152.3735294117813
 20
11.38014704876809
 30
0.0
 11
725.3735294117798
 21
11.38014704876809
 31
0.0
  0
LINE
  5
226
330
1F
100
AcDbEntity
  8
0-0
  6
JWW_DASHED1
 62
   120
370
     5
100
AcDbLine
 10
152.3735294117813
 20
24.38014704986813
 30
0.0
 11
725.3735294117798
 21
24.38014704986813
 31
0.0
  0
LINE
  5
227
330
1F
100
AcDbEntity
  8
0-0
  6
JWW_DASHED1
 62
   120
370
     5
100
AcDbLine
 10
152.3735294117813
 20
25.38014704976831
 30
0.0
 11
725.3735294117798
 21
25.38014704976831
 31
0.0
  0
LINE
  5
228
330
1F
100
AcDbEntity
  8
0-0
  6
JWW_DASHED1
 62
   120
370
     5
100
AcDbLine
 10
152.3735294117813
 20
38.38014705086792
 30
0.0
 11
725.3735294117798
 21
38.38014705086792
 31
0.0
  0
LINE
  5
229
330
1F
100
AcDbEntity
  8
0-0
  6
JWW_DASHED1
 62
   120
370
     5
100
AcDbLine
 10
152.3735294117813
 20
39.3801470507681
 30
0.0
 11
725.3735294117798
 21
39.3801470507681
 31
0.0
  0
LINE
  5
22A
330
1F
100
AcDbEntity
  8
0-0
  6
JWW_DASHED1
 62
   120
370
     5
100
AcDbLine
 10
152.3735294117813
 20
52.38014705186814
 30
0.0
 11
725.3735294117798
 21
52.38014705186814
 31
0.0
  0
LINE
  5
22B
330
1F
100
AcDbEntity
  8
0-0
  6
JWW_DASHED1
 62
   120
370
     5
100
AcDbLine
 10
152.3735294117813
 20
53.38014705176832
 30
0.0
 11
725.3735294117798
 21
53.38014705176832
 31
0.0
  0
LINE
  5
22C
330
1F
100
AcDbEntity
  8
0-0
  6
JWW_DASHED1
 62
   120
370
     5
100
AcDbLine
 10
152.3735294117813
 20
66.38014705286793
 30
0.0
 11
725.3735294117798
 21
66.38014705286793
 31
0.0
  0
LINE
  5
22D
330
1F
100
AcDbEntity
  8
0-0
  6
JWW_DASHED1
 62
   120
370
     5
100
AcDbLine
 10
152.3735294117813
 20
67.38014705276811
 30
0.0
 11
725.3735294117798
 21
67.38014705276811
 31
0.0
  0
LINE
  5
22E
330
1F
100
AcDbEntity
  8
0-0
  6
JWW_DASHED1
 62
   120
370
     5
100
AcDbLine
 10
152.3735294117813
 20
80.38014705386814
 30
0.0
 11
725.3735294117798
 21
80.38014705386814
 31
0.0
  0
LINE
  5
22F
330
1F
100
AcDbEntity
  8
0-0
  6
JWW_DASHED1
 62
   120
370
     5
100
AcDbLine
 10
152.3735294117813
 20
81.38014705376833
 30
0.0
 11
725.3735294117798
 21
81.38014705376833
 31
0.0
  0
LINE
  5
230
330
1F
100
AcDbEntity
  8
0-0
  6
JWW_DASHED1
 62
   120
370
     5
100
AcDbLine
 10
152.3735294117813
 20
94.38014705486793
 30
0.0
 11
725.3735294117798
 21
94.38014705486793
 31
0.0
  0
LINE
  5
231
330
1F
100
AcDbEntity
  8
0-0
  6
JWW_DASHED1
 62
   120
370
     5
100
AcDbLine
 10
152.3735294117813
 20
95.38014705476812
 30
0.0
 11
725.3735294117798
 21
95.38014705476812
 31
0.0
  0
LINE
  5
232
330
1F
100
AcDbEntity
  8
0-0
  6
JWW_DASHED1
 62
   120
370
     5
100
AcDbLine
 10
152.3735294117813
 20
108.3801470558682
 30
0.0
 11
725.3735294117798
 21
108.3801470558682
 31
0.0
  0
LINE
  5
233
330
1F
100
AcDbEntity
  8
0-0
  6
JWW_DASHED1
 62
   120
370
     5
100
AcDbLine
 10
152.3735294117813
 20
109.3801470557683
 30
0.0
 11
725.3735294117798
 21
109.3801470557683
 31
0.0
  0
LINE
  5
234
330
1F
100
AcDbEntity
  8
0-0
  6
JWW_DASHED1
 62
   120
370
     5
100
AcDbLine
 10
152.3735294117813
 20
122.3801470568679
 30
0.0
 11
725.3735294117798
 21
122.3801470568679
 31
0.0
  0
LINE
  5
235
330
1F
100
AcDbEntity
  8
0-0
  6
JWW_DASHED1
 62
   120
370
     5
100
AcDbLine
 10
152.3735294117813
 20
123.3801470567681
 30
0.0
 11
725.3735294117798
 21
123.3801470567681
 31
0.0
  0
LINE
  5
236
330
1F
100
AcDbEntity
  8
0-0
  6
JWW_DASHED1
 62
   120
370
     5
100
AcDbLine
 10
152.3735294117813
 20
136.3801470578682
 30
0.0
 11
725.3735294117798
 21
136.3801470578682
 31
0.0
  0
LINE
  5
237
330
1F
100
AcDbEntity
  8
0-0
  6
JWW_DASHED1
 62
   120
370
     5
100
AcDbLine
 10
152.3735294117813
 20
137.3801470577683
 30
0.0
 11
725.3735294117798
 21
137.3801470577683
 31
0.0
  0
LINE
  5
238
330
1F
100
AcDbEntity
  8
0-0
  6
JWW_DASHED1
 62
   120
370
     5
100
AcDbLine
 10
152.3735294117813
 20
150.3801470588679
 30
0.0
 11
725.3735294117798
 21
150.3801470588679
 31
0.0
  0
LINE
  5
239
330
1F
100
AcDbEntity
  8
0-0
  6
JWW_DASHED1
 62
   120
370
     5
100
AcDbLine
 10
152.3735294117813
 20
151.3801470587681
 30
0.0
 11
725.3735294117798
 21
151.3801470587681
 31
0.0
  0
LINE
  5
23A
330
1F
100
AcDbEntity
  8
0-0
  6
JWW_DASHED1
 62
   120
370
     5
100
AcDbLine
 10
152.3735294117813
 20
164.3801470598682
 30
0.0
 11
725.3735294117798
 21
164.3801470598682
 31
0.0
  0
LINE
  5
23B
330
1F
100
AcDbEntity
  8
0-0
  6
JWW_DASHED1
 62
   120
370
     5
100
AcDbLine
 10
152.3735294117813
 20
165.3801470597683
 30
0.0
 11
725.3735294117798
 21
165.3801470597683
 31
0.0
  0
LINE
  5
23C
330
1F
100
AcDbEntity
  8
0-0
  6
JWW_DASHED1
 62
   120
370
     5
100
AcDbLine
 10
152.3735294117813
 20
178.380147060868
 30
0.0
 11
725.3735294117798
 21
178.380147060868
 31
0.0
  0
LINE
  5
23D
330
1F
100
AcDbEntity
  8
0-0
  6
JWW_DASHED1
 62
   120
370
     5
100
AcDbLine
 10
152.3735294117813
 20
179.3801470607681
 30
0.0
 11
725.3735294117798
 21
179.3801470607681
 31
0.0
  0
LINE
  5
23E
330
1F
100
AcDbEntity
  8
0-0
  6
JWW_DASHED1
 62
   120
370
     5
100
AcDbLine
 10
152.3735294117813
 20
192.3801470618682
 30
0.0
 11
725.3735294117798
 21
192.3801470618682
 31
0.0
  0
LINE
  5
23F
330
1F
100
AcDbEntity
  8
0-0
  6
JWW_DASHED1
 62
   120
370
     5
100
AcDbLine
 10
152.3735294117813
 20
193.3801470617684
 30
0.0
 11
725.3735294117798
 21
193.3801470617684
 31
0.0
  0
LINE
  5
240
330
1F
100
AcDbEntity
  8
0-0
  6
JWW_DASHED1
 62
   120
370
     5
100
AcDbLine
 10
152.3735294117813
 20
206.380147062868
 30
0.0
 11
725.3735294117798
 21
206.380147062868
 31
0.0
  0
LINE
  5
241
330
1F
100
AcDbEntity
  8
0-0
  6
JWW_DASHED1
 62
   120
370
     5
100
AcDbLine
 10
152.3735294117813
 20
207.3801470627681
 30
0.0
 11
725.3735294117798
 21
207.3801470627681
 31
0.0
  0
LINE
  5
242
330
1F
100
AcDbEntity
  8
0-0
  6
JWW_DASHED1
 62
   120
370
     5
100
AcDbLine
 10
152.3735294117813
 20
220.3801470638682
 30
0.0
 11
725.3735294117798
 21
220.3801470638682
 31
0.0
  0
LINE
  5
243
330
1F
100
AcDbEntity
  8
0-0
  6
JWW_DASHED1
 62
   120
370
     5
100
AcDbLine
 10
152.3735294117813
 20
221.3801470637684
 30
0.0
 11
725.3735294117798
 21
221.3801470637684
 31
0.0
  0
LINE
  5
244
330
1F
100
AcDbEntity
  8
0-0
  6
JWW_DASHED1
 62
   120
370
     5
100
AcDbLine
 10
152.3735294117813
 20
234.380147064868
 30
0.0
 11
725.3735294117798
 21
234.380147064868
 31
0.0
  0
LINE
  5
245
330
1F
100
AcDbEntity
  8
0-0
  6
JWW_DASHED1
 62
   120
370
     5
100
AcDbLine
 10
152.3735294117813
 20
235.3801470647682
 30
0.0
 11
725.3735294117798
 21
235.3801470647682
 31
0.0
  0
LINE
  5
246
330
1F
100
AcDbEntity
  8
0-0
  6
JWW_DASHED1
 62
   120
370
     5
100
AcDbLine
 10
152.3735294117813
 20
248.3801470658682
 30
0.0
 11
725.3735294117798
 21
248.3801470658682
 31
0.0
  0
LINE
  5
247
330
1F
100
AcDbEntity
  8
0-0
  6
JWW_DASHED1
 62
   120
370
     5
100
AcDbLine
 10
152.3735294117813
 20
249.3801470657679
 30
0.0
 11
725.3735294117798
 21
249.3801470657679
 31
0.0
  0
LINE
  5
248
330
1F
100
AcDbEntity
  8
0-0
  6
JWW_DASHED1
 62
   120
370
     5
100
AcDbLine
 10
152.3735294117813
 20
262.3801470668679
 30
0.0
 11
725.3735294117798
 21
262.3801470668679
 31
0.0
  0
LINE
  5
249
330
1F
100
AcDbEntity
  8
0-0
  6
JWW_DASHED1
 62
   120
370
     5
100
AcDbLine
 10
152.3735294117813
 20
263.3801470667681
 30
0.0
 11
725.3735294117798
 21
263.3801470667681
 31
0.0
  0
LINE
  5
24A
330
1F
100
AcDbEntity
  8
0-0
  6
JWW_DASHED1
 62
   120
370
     5
100
AcDbLine
 10
152.3735294117813
 20
276.3801470678682
 30
0.0
 11
725.3735294117798
 21
276.3801470678682
 31
0.0
  0
LINE
  5
24B
330
1F
100
AcDbEntity
  8
0-0
  6
JWW_DASHED1
 62
   120
370
     5
100
AcDbLine
 10
152.3735294117813
 20
277.3801470677683
 30
0.0
 11
725.3735294117798
 21
277.3801470677683
 31
0.0
  0
LINE
  5
24C
330
1F
100
AcDbEntity
  8
0-0
  6
JWW_DASHED1
 62
   120
370
     5
100
AcDbLine
 10
152.3735294117813
 20
290.380147068868
 30
0.0
 11
725.3735294117798
 21
290.380147068868
 31
0.0
  0
LINE
  5
24D
330
1F
100
AcDbEntity
  8
0-0
  6
JWW_DASHED1
 62
   120
370
     5
100
AcDbLine
 10
152.3735294117813
 20
291.3801470687682
 30
0.0
 11
725.3735294117798
 21
291.3801470687682
 31
0.0
  0
LINE
  5
24E
330
1F
100
AcDbEntity
  8
0-0
  6
JWW_DASHED1
 62
   120
370
     5
100
AcDbLine
 10
152.3735294117813
 20
304.3801470698682
 30
0.0
 11
725.3735294117798
 21
304.3801470698682
 31
0.0
  0
LINE
  5
24F
330
1F
100
AcDbEntity
  8
0-0
  6
JWW_DASHED1
 62
   120
370
     5
100
AcDbLine
 10
152.3735294117813
 20
305.380147069768
 30
0.0
 11
725.3735294117798
 21
305.380147069768
 31
0.0
  0
LINE
  5
250
330
1F
100
AcDbEntity
  8
0-0
  6
JWW_DASHED1
 62
   120
370
     5
100
AcDbLine
 10
152.3735294117813
 20
318.380147070868
 30
0.0
 11
725.3735294117798
 21
318.380147070868
 31
0.0
  0
LINE
  5
251
330
1F
100
AcDbEntity
  8
0-0
  6
JWW_DASHED1
 62
   120
370
     5
100
AcDbLine
 10
152.3735294117813
 20
319.3801470707682
 30
0.0
 11
725.3735294117798
 21
319.3801470707682
 31
0.0
  0
LINE
  5
252
330
1F
100
AcDbEntity
  8
0-0
  6
JWW_DASHED1
 62
   120
370
     5
100
AcDbLine
 10
152.3735294117813
 20
332.3801470718682
 30
0.0
 11
725.3735294117798
 21
332.3801470718682
 31
0.0
  0
LINE
  5
253
330
1F
100
AcDbEntity
  8
0-0
  6
JWW_DASHED1
 62
   120
370
     5
100
AcDbLine
 10
152.3735294117813
 20
333.3801470717684
 30
0.0
 11
725.3735294117798
 21
333.3801470717684
 31
0.0
  0
LINE
  5
254
330
1F
100
AcDbEntity
  8
0-0
  6
JWW_DASHED1
 62
   120
370
     5
100
AcDbLine
 10
152.3735294117813
 20
346.380147072868
 30
0.0
 11
725.3735294117798
 21
346.380147072868
 31
0.0
  0
LINE
  5
255
330
1F
100
AcDbEntity
  8
0-0
  6
JWW_DASHED1
 62
   120
370
     5
100
AcDbLine
 10
152.3735294117813
 20
347.3801470727682
 30
0.0
 11
725.3735294117798
 21
347.3801470727682
 31
0.0
  0
LINE
  5
256
330
1F
100
AcDbEntity
  8
0-0
  6
JWW_DASHED1
 62
   120
370
     5
100
AcDbLine
 10
152.3735294117813
 20
360.3801470738682
 30
0.0
 11
725.3735294117798
 21
360.3801470738682
 31
0.0
  0
LINE
  5
257
330
1F
100
AcDbEntity
  8
0-0
  6
JWW_DASHED1
 62
   120
370
     5
100
AcDbLine
 10
152.3735294117813
 20
361.3801470737679
 30
0.0
 11
725.3735294117798
 21
361.3801470737679
 31
0.0
  0
LINE
  5
258
330
1F
100
AcDbEntity
  8
0-0
  6
JWW_DASHED1
 62
   120
370
     5
100
AcDbLine
 10
152.3735294117813
 20
374.380147074868
 30
0.0
 11
725.3735294117798
 21
374.380147074868
 31
0.0
  0
LINE
  5
259
330
1F
100
AcDbEntity
  8
0-0
  6
JWW_DASHED1
 62
   120
370
     5
100
AcDbLine
 10
152.3735294117813
 20
375.3801470747682
 30
0.0
 11
725.3735294117798
 21
375.3801470747682
 31
0.0
  0
LINE
  5
25A
330
1F
100
AcDbEntity
  8
0-0
  6
JWW_DASHED1
 62
   120
370
     5
100
AcDbLine
 10
152.3735294117813
 20
388.3801470758682
 30
0.0
 11
725.3735294117798
 21
388.3801470758682
 31
0.0
  0
LINE
  5
25B
330
1F
100
AcDbEntity
  8
0-0
  6
JWW_DASHED1
 62
   120
370
     5
100
AcDbLine
 10
152.3735294117813
 20
389.3801470757684
 30
0.0
 11
725.3735294117798
 21
389.3801470757684
 31
0.0
  0
LINE
  5
25C
330
1F
100
AcDbEntity
  8
0-0
  6
JWW_DASHED1
 62
   120
370
     5
100
AcDbLine
 10
152.3735294117813
 20
402.380147076868
 30
0.0
 11
725.3735294117798
 21
402.380147076868
 31
0.0
  0
LINE
  5
25D
330
1F
100
AcDbEntity
  8
0-0
  6
JWW_DASHED1
 62
   120
370
     5
100
AcDbLine
 10
152.3735294117813
 20
403.3801470767682
 30
0.0
 11
725.3735294117798
 21
403.3801470767682
 31
0.0
  0
LINE
  5
25E
330
1F
100
AcDbEntity
  8
0-0
  6
JWW_DASHED1
 62
   120
370
     5
100
AcDbLine
 10
152.3735294117813
 20
416.3801470778682
 30
0.0
 11
725.3735294117798
 21
416.3801470778682
 31
0.0
  0
LINE
  5
25F
330
1F
100
AcDbEntity
  8
0-0
  6
JWW_DASHED1
 62
   120
370
     5
100
AcDbLine
 10
152.3735294117813
 20
417.380147077768
 30
0.0
 11
725.3735294117798
 21
417.380147077768
 31
0.0
  0
LINE
  5
260
330
1F
100
AcDbEntity
  8
0-0
  6
JWW_DASHED1
 62
   120
370
     5
100
AcDbLine
 10
152.3735294117813
 20
430.380147078868
 30
0.0
 11
725.3735294117798
 21
430.380147078868
 31
0.0
  0
LINE
  5
261
330
1F
100
AcDbEntity
  8
0-0
  6
JWW_DASHED1
 62
   120
370
     5
100
AcDbLine
 10
152.3735294117813
 20
431.3801470787682
 30
0.0
 11
725.3735294117798
 21
431.3801470787682
 31
0.0
  0
LINE
  5
262
330
1F
100
AcDbEntity
  8
0-0
  6
JWW_DASHED1
 62
   120
370
     5
100
AcDbLine
 10
152.3735294117813
 20
444.3801470798683
 30
0.0
 11
725.3735294117798
 21
444.3801470798683
 31
0.0
  0
LINE
  5
263
330
1F
100
AcDbEntity
  8
0-0
  6
JWW_DASHED1
 62
   120
370
     5
100
AcDbLine
 10
152.3735294117813
 20
445.380147079768
 30
0.0
 11
725.3735294117798
 21
445.380147079768
 31
0.0
  0
LINE
  5
264
330
1F
100
AcDbEntity
  8
0-0
  6
JWW_DASHED1
 62
   120
370
     5
100
AcDbLine
 10
152.3735294117813
 20
458.380147080868
 30
0.0
 11
725.3735294117798
 21
458.380147080868
 31
0.0
  0
LINE
  5
265
330
1F
100
AcDbEntity
  8
0-0
  6
JWW_DASHED1
 62
   120
370
     5
100
AcDbLine
 10
152.3735294117813
 20
459.3801470807682
 30
0.0
 11
725.3735294117798
 21
459.3801470807682
 31
0.0
  0
LINE
  5
266
330
1F
100
AcDbEntity
  8
0-0
  6
JWW_DASHED1
 62
   120
370
     5
100
AcDbLine
 10
152.3735294117813
 20
472.3801470818682
 30
0.0
 11
725.3735294117798
 21
472.3801470818682
 31
0.0
  0
LINE
  5
267
330
1F
100
AcDbEntity
  8
0-0
  6
JWW_DASHED1
 62
   120
370
     5
100
AcDbLine
 10
152.3735294117813
 20
473.380147081768
 30
0.0
 11
725.3735294117798
 21
473.380147081768
 31
0.0
  0
LINE
  5
268
330
1F
100
AcDbEntity
  8
0-0
  6
JWW_DASHED1
 62
   120
370
     5
100
AcDbLine
 10
152.3735294117813
 20
486.380147082868
 30
0.0
 11
725.3735294117798
 21
486.380147082868
 31
0.0
  0
LINE
  5
269
330
1F
100
AcDbEntity
  8
0-0
  6
JWW_DASHED1
 62
   120
370
     5
100
AcDbLine
 10
152.3735294117813
 20
487.3801470827682
 30
0.0
 11
725.3735294117798
 21
487.3801470827682
 31
0.0
  0
LINE
  5
26A
330
1F
100
AcDbEntity
  8
0-0
  6
JWW_DASHED1
 62
   120
370
     5
100
AcDbLine
 10
152.3735294117813
 20
500.3801470838682
 30
0.0
 11
725.3735294117798
 21
500.3801470838682
 31
0.0
  0
LINE
  5
26B
330
1F
100
AcDbEntity
  8
0-0
  6
JWW_DASHED1
 62
   120
370
     5
100
AcDbLine
 10
152.3735294117813
 20
501.380147083768
 30
0.0
 11
725.3735294117798
 21
501.380147083768
 31
0.0
  0
LINE
  5
26C
330
1F
100
AcDbEntity
  8
0-0
  6
JWW_DASHED1
 62
   120
370
     5
100
AcDbLine
 10
152.3735294117813
 20
514.380147084868
 30
0.0
 11
725.3735294117798
 21
514.380147084868
 31
0.0
  0
LINE
  5
26D
330
1F
100
AcDbEntity
  8
0-0
  6
JWW_DASHED1
 62
   120
370
     5
100
AcDbLine
 10
152.3735294117813
 20
515.3801470847682
 30
0.0
 11
725.3735294117798
 21
515.3801470847682
 31
0.0
  0
LINE
  5
26E
330
1F
100
AcDbEntity
  8
0-0
  6
JWW_DASHED1
 62
   120
370
     5
100
AcDbLine
 10
152.3735294117813
 20
528.3801470858682
 30
0.0
 11
725.3735294117798
 21
528.3801470858682
 31
0.0
  0
LINE
  5
26F
330
1F
100
AcDbEntity
  8
0-0
  6
JWW_DASHED1
 62
   120
370
     5
100
AcDbLine
 10
152.3735294117813
 20
529.380147085768
 30
0.0
 11
725.3735294117798
 21
529.380147085768
 31
0.0
  0
LINE
  5
270
330
1F
100
AcDbEntity
  8
0-0
  6
JWW_DASHED1
 62
   120
370
     5
100
AcDbLine
 10
152.3735294117813
 20
542.3801470868681
 30
0.0
 11
725.3735294117798
 21
542.3801470868681
 31
0.0
  0
LINE
  5
271
330
1F
100
AcDbEntity
  8
0-0
  6
JWW_DASHED1
 62
   120
370
     5
100
AcDbLine
 10
152.3735294117813
 20
543.3801470867683
 30
0.0
 11
725.3735294117798
 21
543.3801470867683
 31
0.0
  0
LINE
  5
272
330
1F
100
AcDbEntity
  8
0-0
  6
JWW_DASHED1
 62
   120
370
     5
100
AcDbLine
 10
152.3735294117813
 20
556.3801470878683
 30
0.0
 11
725.3735294117798
 21
556.3801470878683
 31
0.0
  0
LINE
  5
273
330
1F
100
AcDbEntity
  8
0-0
  6
JWW_DASHED1
 62
   120
370
     5
100
AcDbLine
 10
152.3735294117813
 20
557.380147087768
 30
0.0
 11
725.3735294117798
 21
557.380147087768
 31
0.0
  0
LINE
  5
274
330
1F
100
AcDbEntity
  8
0-0
  6
JWW_DASHED1
 62
   120
370
     5
100
AcDbLine
 10
152.3735294117813
 20
570.3801470888681
 30
0.0
 11
725.3735294117798
 21
570.3801470888681
 31
0.0
  0
LINE
  5
275
330
1F
100
AcDbEntity
  8
0-0
  6
JWW_DASHED1
 62
   120
370
     5
100
AcDbLine
 10
152.3735294117813
 20
571.3801470887682
 30
0.0
 11
725.3735294117798
 21
571.3801470887682
 31
0.0
  0
LINE
  5
276
330
1F
100
AcDbEntity
  8
0-0
  6
JWW_DASHED1
 62
   120
370
     5
100
AcDbLine
 10
152.3735294117813
 20
584.3801470898683
 30
0.0
 11
725.3735294117798
 21
584.3801470898683
 31
0.0
  0
LINE
  5
277
330
1F
100
AcDbEntity
  8
0-0
  6
JWW_DASHED1
 62
   120
370
     5
100
AcDbLine
 10
152.3735294117813
 20
585.380147089768
 30
0.0
 11
725.3735294117798
 21
585.380147089768
 31
0.0
  0
LINE
  5
278
330
1F
100
AcDbEntity
  8
0-0
  6
JWW_DASHED1
 62
   120
370
     5
100
AcDbLine
 10
152.3735294117813
 20
598.380147090868
 30
0.0
 11
725.3735294117798
 21
598.380147090868
 31
0.0
  0
LINE
  5
279
330
1F
100
AcDbEntity
  8
0-0
  6
JWW_DASHED1
 62
   120
370
     5
100
AcDbLine
 10
152.3735294117813
 20
599.3801470907682
 30
0.0
 11
725.3735294117798
 21
599.3801470907682
 31
0.0
  0
LINE
  5
27A
330
1F
100
AcDbEntity
  8
0-0
  6
JWW_DASHED1
 62
   120
370
     5
100
AcDbLine
 10
152.3735294117813
 20
612.3801470918683
 30
0.0
 11
725.3735294117798
 21
612.3801470918683
 31
0.0
  0
LINE
  5
27B
330
1F
100
AcDbEntity
  8
0-0
  6
JWW_DASHED1
 62
   120
370
     5
100
AcDbLine
 10
152.3735294117813
 20
613.3801470917681
 30
0.0
 11
725.3735294117798
 21
613.3801470917681
 31
0.0
  0
LINE
  5
27C
330
1F
100
AcDbEntity
  8
0-0
  6
JWW_DASHED1
 62
   120
370
     5
100
AcDbLine
 10
152.3735294117813
 20
626.3801470928681
 30
0.0
 11
725.3735294117798
 21
626.3801470928681
 31
0.0
  0
LINE
  5
27D
330
1F
100
AcDbEntity
  8
0-0
  6
JWW_DASHED1
 62
   120
370
     5
100
AcDbLine
 10
152.3735294117813
 20
627.3801470927683
 30
0.0
 11
725.3735294117798
 21
627.3801470927683
 31
0.0
  0
LINE
  5
27E
330
1F
100
AcDbEntity
  8
0-0
  6
JWW_DASHED1
 62
   120
370
     5
100
AcDbLine
 10
152.3735294117813
 20
640.3801470938683
 30
0.0
 11
725.3735294117798
 21
640.3801470938683
 31
0.0
  0
LINE
  5
27F
330
1F
100
AcDbEntity
  8
0-0
  6
JWW_DASHED1
 62
   120
370
     5
100
AcDbLine
 10
152.3735294117813
 20
641.3801470937681
 30
0.0
 11
725.3735294117798
 21
641.3801470937681
 31
0.0
  0
LINE
  5
280
330
1F
100
AcDbEntity
  8
0-0
  6
JWW_DASHED1
 62
   120
370
     5
100
AcDbLine
 10
152.3735294117813
 20
654.3801470948681
 30
0.0
 11
725.3735294117798
 21
654.3801470948681
 31
0.0
  0
LINE
  5
281
330
1F
100
AcDbEntity
  8
0-0
  6
JWW_DASHED1
 62
   120
370
     5
100
AcDbLine
 10
152.3735294117813
 20
655.3801470947683
 30
0.0
 11
725.3735294117798
 21
655.3801470947683
 31
0.0
  0
LINE
  5
282
330
1F
100
AcDbEntity
  8
0-0
  6
JWW_DASHED1
 62
   120
370
     5
100
AcDbLine
 10
152.3735294117813
 20
668.3801470958683
 30
0.0
 11
725.3735294117798
 21
668.3801470958683
 31
0.0
  0
LINE
  5
283
330
1F
100
AcDbEntity
  8
0-0
  6
JWW_DASHED1
 62
   120
370
     5
100
AcDbLine
 10
152.3735294117813
 20
669.380147095768
 30
0.0
 11
725.3735294117798
 21
669.380147095768
 31
0.0
  0
LINE
  5
284
330
1F
100
AcDbEntity
  8
0-0
  6
JWW_DASHED1
 62
   120
370
     5
100
AcDbLine
 10
152.3735294117813
 20
682.3801470968681
 30
0.0
 11
725.3735294117798
 21
682.3801470968681
 31
0.0
  0
LINE
  5
285
330
1F
100
AcDbEntity
  8
0-0
  6
JWW_DASHED1
 62
   120
370
     5
100
AcDbLine
 10
152.3735294117813
 20
683.3801470967683
 30
0.0
 11
725.3735294117798
 21
683.3801470967683
 31
0.0
  0
LINE
  5
286
330
1F
100
AcDbEntity
  8
0-0
  6
JWW_DASHED1
 62
   120
370
     5
100
AcDbLine
 10
152.3735294117813
 20
696.3801470978683
 30
0.0
 11
725.3735294117798
 21
696.3801470978683
 31
0.0
  0
LINE
  5
287
330
1F
100
AcDbEntity
  8
0-0
  6
JWW_DASHED1
 62
   120
370
     5
100
AcDbLine
 10
152.3735294117813
 20
697.380147097768
 30
0.0
 11
725.3735294117798
 21
697.380147097768
 31
0.0
  0
LINE
  5
288
330
1F
100
AcDbEntity
  8
0-0
  6
JWW_DASHED1
 62
   120
370
     5
100
AcDbLine
 10
152.3735294117813
 20
710.3801470988681
 30
0.0
 11
725.3735294117798
 21
710.3801470988681
 31
0.0
  0
LINE
  5
289
330
1F
100
AcDbEntity
  8
0-0
  6
JWW_DASHED1
 62
   120
370
     5
100
AcDbLine
 10
152.3735294117813
 20
711.3801470987682
 30
0.0
 11
725.3735294117798
 21
711.3801470987682
 31
0.0
  0
LINE
  5
28A
330
1F
100
AcDbEntity
  8
0-0
  6
JWW_DASHED1
 62
   120
370
     5
100
AcDbLine
 10
152.3735294117813
 20
724.3801470998683
 30
0.0
 11
725.3735294117798
 21
724.3801470998683
 31
0.0
  0
LINE
  5
28B
330
1F
100
AcDbEntity
  8
0-0
  6
JWW_DASHED1
 62
   120
370
     5
100
AcDbLine
 10
152.3735294117813
 20
725.380147099768
 30
0.0
 11
725.3735294117798
 21
725.380147099768
 31
0.0
  0
LINE
  5
28C
330
1F
100
AcDbEntity
  8
0-0
  6
JWW_DASHED1
 62
   120
370
     5
100
AcDbLine
 10
152.3735294117813
 20
738.380147100868
 30
0.0
 11
725.3735294117798
 21
738.380147100868
 31
0.0
  0
LINE
  5
28D
330
1F
100
AcDbEntity
  8
0-0
  6
JWW_DASHED1
 62
   120
370
     5
100
AcDbLine
 10
152.3735294117813
 20
739.3801471007682
 30
0.0
 11
725.3735294117798
 21
739.3801471007682
 31
0.0
  0
LINE
  5
28E
330
1F
100
AcDbEntity
  8
0-0
  6
JWW_DASHED1
 62
   120
370
     5
100
AcDbLine
 10
152.3735294117813
 20
752.3801471018683
 30
0.0
 11
725.3735294117798
 21
752.3801471018683
 31
0.0
  0
LINE
  5
28F
330
1F
100
AcDbEntity
  8
0-0
  6
JWW_DASHED1
 62
   120
370
     5
100
AcDbLine
 10
152.3735294117813
 20
753.3801471017681
 30
0.0
 11
725.3735294117798
 21
753.3801471017681
 31
0.0
  0
LINE
  5
290
330
1F
100
AcDbEntity
  8
0-0
  6
JWW_DASHED1
 62
   120
370
     5
100
AcDbLine
 10
152.3735294117813
 20
766.3801471028681
 30
0.0
 11
725.3735294117798
 21
766.3801471028681
 31
0.0
  0
LINE
  5
291
330
1F
100
AcDbEntity
  8
0-0
  6
JWW_DASHED1
 62
   120
370
     5
100
AcDbLine
 10
152.3735294117813
 20
767.3801471027683
 30
0.0
 11
725.3735294117798
 21
767.3801471027683
 31
0.0
  0
LINE
  5
292
330
1F
100
AcDbEntity
  8
0-0
  6
JWW_DASHED1
 62
   120
370
     5
100
AcDbLine
 10
152.3735294117813
 20
780.3801471038684
 30
0.0
 11
725.3735294117798
 21
780.3801471038684
 31
0.0
  0
LINE
  5
293
330
1F
100
AcDbEntity
  8
0-0
  6
JWW_DASHED1
 62
   120
370
     5
100
AcDbLine
 10
152.3735294117813
 20
781.3801471037681
 30
0.0
 11
725.3735294117798
 21
781.3801471037681
 31
0.0
  0
LINE
  5
294
330
1F
100
AcDbEntity
  8
0-0
  6
JWW_DASHED1
 62
   120
370
     5
100
AcDbLine
 10
152.3735294117813
 20
794.3801471048681
 30
0.0
 11
725.3735294117798
 21
794.3801471048681
 31
0.0
  0
LINE
  5
295
330
1F
100
AcDbEntity
  8
0-0
  6
JWW_DASHED1
 62
   120
370
     5
100
AcDbLine
 10
152.3735294117813
 20
795.3801471047683
 30
0.0
 11
725.3735294117798
 21
795.3801471047683
 31
0.0
  0
LINE
  5
296
330
1F
100
AcDbEntity
  8
0-0
  6
JWW_DASHED1
 62
   120
370
     5
100
AcDbLine
 10
719.373529431731
 20
-505.6198529411826
 30
0.0
 11
719.373529431731
 21
807.3801470588182
 31
0.0
  0
LINE
  5
297
330
1F
100
AcDbEntity
  8
0-0
  6
JWW_DASHED1
 62
   120
370
     5
100
AcDbLine
 10
718.3735294318308
 20
-505.6198529411826
 30
0.0
 11
718.3735294318308
 21
807.3801470588182
 31
0.0
  0
LINE
  5
298
330
1F
100
AcDbEntity
  8
0-0
  6
JWW_DASHED1
 62
   120
370
     5
100
AcDbLine
 10
705.3735294307307
 20
-505.6198529411826
 30
0.0
 11
705.3735294307307
 21
807.3801470588182
 31
0.0
  0
LINE
  5
299
330
1F
100
AcDbEntity
  8
0-0
  6
JWW_DASHED1
 62
   120
370
     5
100
AcDbLine
 10
704.373529430831
 20
-505.6198529411826
 30
0.0
 11
704.373529430831
 21
807.3801470588182
 31
0.0
  0
LINE
  5
29A
330
1F
100
AcDbEntity
  8
0-0
  6
JWW_DASHED1
 62
   120
370
     5
100
AcDbLine
 10
691.373529429731
 20
-505.6198529411826
 30
0.0
 11
691.373529429731
 21
807.3801470588182
 31
0.0
  0
LINE
  5
29B
330
1F
100
AcDbEntity
  8
0-0
  6
JWW_DASHED1
 62
   120
370
     5
100
AcDbLine
 10
690.3735294298308
 20
-505.6198529411826
 30
0.0
 11
690.3735294298308
 21
807.3801470588182
 31
0.0
  0
LINE
  5
29C
330
1F
100
AcDbEntity
  8
0-0
  6
JWW_DASHED1
 62
   120
370
     5
100
AcDbLine
 10
677.3735294287308
 20
-505.6198529411826
 30
0.0
 11
677.3735294287308
 21
807.3801470588182
 31
0.0
  0
LINE
  5
29D
330
1F
100
AcDbEntity
  8
0-0
  6
JWW_DASHED1
 62
   120
370
     5
100
AcDbLine
 10
676.373529428831
 20
-505.6198529411826
 30
0.0
 11
676.373529428831
 21
807.3801470588182
 31
0.0
  0
LINE
  5
29E
330
1F
100
AcDbEntity
  8
0-0
  6
JWW_DASHED1
 62
   120
370
     5
100
AcDbLine
 10
663.373529427731
 20
-505.6198529411826
 30
0.0
 11
663.373529427731
 21
807.3801470588182
 31
0.0
  0
LINE
  5
29F
330
1F
100
AcDbEntity
  8
0-0
  6
JWW_DASHED1
 62
   120
370
     5
100
AcDbLine
 10
662.3735294278308
 20
-505.6198529411826
 30
0.0
 11
662.3735294278308
 21
807.3801470588182
 31
0.0
  0
LINE
  5
2A0
330
1F
100
AcDbEntity
  8
0-0
  6
JWW_DASHED1
 62
   120
370
     5
100
AcDbLine
 10
649.3735294267308
 20
-505.6198529411826
 30
0.0
 11
649.3735294267308
 21
807.3801470588182
 31
0.0
  0
LINE
  5
2A1
330
1F
100
AcDbEntity
  8
0-0
  6
JWW_DASHED1
 62
   120
370
     5
100
AcDbLine
 10
648.3735294268309
 20
-505.6198529411826
 30
0.0
 11
648.3735294268309
 21
807.3801470588182
 31
0.0
  0
LINE
  5
2A2
330
1F
100
AcDbEntity
  8
0-0
  6
JWW_DASHED1
 62
   120
370
     5
100
AcDbLine
 10
635.3735294257309
 20
-505.6198529411826
 30
0.0
 11
635.3735294257309
 21
807.3801470588182
 31
0.0
  0
LINE
  5
2A3
330
1F
100
AcDbEntity
  8
0-0
  6
JWW_DASHED1
 62
   120
370
     5
100
AcDbLine
 10
634.3735294258307
 20
-505.6198529411826
 30
0.0
 11
634.3735294258307
 21
807.3801470588182
 31
0.0
  0
LINE
  5
2A4
330
1F
100
AcDbEntity
  8
0-0
  6
JWW_DASHED1
 62
   120
370
     5
100
AcDbLine
 10
621.3735294247307
 20
-505.6198529411826
 30
0.0
 11
621.3735294247307
 21
807.3801470588182
 31
0.0
  0
LINE
  5
2A5
330
1F
100
AcDbEntity
  8
0-0
  6
JWW_DASHED1
 62
   120
370
     5
100
AcDbLine
 10
620.373529424831
 20
-505.6198529411826
 30
0.0
 11
620.373529424831
 21
807.3801470588182
 31
0.0
  0
LINE
  5
2A6
330
1F
100
AcDbEntity
  8
0-0
  6
JWW_DASHED1
 62
   120
370
     5
100
AcDbLine
 10
607.3735294237309
 20
-505.6198529411826
 30
0.0
 11
607.3735294237309
 21
807.3801470588182
 31
0.0
  0
LINE
  5
2A7
330
1F
100
AcDbEntity
  8
0-0
  6
JWW_DASHED1
 62
   120
370
     5
100
AcDbLine
 10
606.3735294238307
 20
-505.6198529411826
 30
0.0
 11
606.3735294238307
 21
807.3801470588182
 31
0.0
  0
LINE
  5
2A8
330
1F
100
AcDbEntity
  8
0-0
  6
JWW_DASHED1
 62
   120
370
     5
100
AcDbLine
 10
593.3735294227307
 20
-505.6198529411826
 30
0.0
 11
593.3735294227307
 21
807.3801470588182
 31
0.0
  0
LINE
  5
2A9
330
1F
100
AcDbEntity
  8
0-0
  6
JWW_DASHED1
 62
   120
370
     5
100
AcDbLine
 10
592.373529422831
 20
-505.6198529411826
 30
0.0
 11
592.373529422831
 21
807.3801470588182
 31
0.0
  0
LINE
  5
2AA
330
1F
100
AcDbEntity
  8
0-0
  6
JWW_DASHED1
 62
   120
370
     5
100
AcDbLine
 10
579.373529421731
 20
-505.6198529411826
 30
0.0
 11
579.373529421731
 21
807.3801470588182
 31
0.0
  0
LINE
  5
2AB
330
1F
100
AcDbEntity
  8
0-0
  6
JWW_DASHED1
 62
   120
370
     5
100
AcDbLine
 10
578.3735294218308
 20
-505.6198529411826
 30
0.0
 11
578.3735294218308
 21
807.3801470588182
 31
0.0
  0
LINE
  5
2AC
330
1F
100
AcDbEntity
  8
0-0
  6
JWW_DASHED1
 62
   120
370
     5
100
AcDbLine
 10
565.3735294207307
 20
-505.6198529411826
 30
0.0
 11
565.3735294207307
 21
807.3801470588182
 31
0.0
  0
LINE
  5
2AD
330
1F
100
AcDbEntity
  8
0-0
  6
JWW_DASHED1
 62
   120
370
     5
100
AcDbLine
 10
564.3735294208309
 20
-505.6198529411826
 30
0.0
 11
564.3735294208309
 21
807.3801470588182
 31
0.0
  0
LINE
  5
2AE
330
1F
100
AcDbEntity
  8
0-0
  6
JWW_DASHED1
 62
   120
370
     5
100
AcDbLine
 10
551.3735294197309
 20
-505.6198529411826
 30
0.0
 11
551.3735294197309
 21
807.3801470588182
 31
0.0
  0
LINE
  5
2AF
330
1F
100
AcDbEntity
  8
0-0
  6
JWW_DASHED1
 62
   120
370
     5
100
AcDbLine
 10
550.3735294198307
 20
-505.6198529411826
 30
0.0
 11
550.3735294198307
 21
807.3801470588182
 31
0.0
  0
LINE
  5
2B0
330
1F
100
AcDbEntity
  8
0-0
  6
JWW_DASHED1
 62
   120
370
     5
100
AcDbLine
 10
537.3735294187306
 20
-505.6198529411826
 30
0.0
 11
537.3735294187306
 21
807.3801470588182
 31
0.0
  0
LINE
  5
2B1
330
1F
100
AcDbEntity
  8
0-0
  6
JWW_DASHED1
 62
   120
370
     5
100
AcDbLine
 10
536.3735294188309
 20
-505.6198529411826
 30
0.0
 11
536.3735294188309
 21
807.3801470588182
 31
0.0
  0
LINE
  5
2B2
330
1F
100
AcDbEntity
  8
0-0
  6
JWW_DASHED1
 62
   120
370
     5
100
AcDbLine
 10
523.3735294177309
 20
-505.6198529411826
 30
0.0
 11
523.3735294177309
 21
807.3801470588182
 31
0.0
  0
LINE
  5
2B3
330
1F
100
AcDbEntity
  8
0-0
  6
JWW_DASHED1
 62
   120
370
     5
100
AcDbLine
 10
522.3735294178307
 20
-505.6198529411826
 30
0.0
 11
522.3735294178307
 21
807.3801470588182
 31
0.0
  0
LINE
  5
2B4
330
1F
100
AcDbEntity
  8
0-0
  6
JWW_DASHED1
 62
   120
370
     5
100
AcDbLine
 10
509.3735294167307
 20
-505.6198529411826
 30
0.0
 11
509.3735294167307
 21
807.3801470588182
 31
0.0
  0
LINE
  5
2B5
330
1F
100
AcDbEntity
  8
0-0
  6
JWW_DASHED1
 62
   120
370
     5
100
AcDbLine
 10
508.3735294168309
 20
-505.6198529411826
 30
0.0
 11
508.3735294168309
 21
807.3801470588182
 31
0.0
  0
LINE
  5
2B6
330
1F
100
AcDbEntity
  8
0-0
  6
JWW_DASHED1
 62
   120
370
     5
100
AcDbLine
 10
495.3735294157309
 20
-505.6198529411826
 30
0.0
 11
495.3735294157309
 21
807.3801470588182
 31
0.0
  0
LINE
  5
2B7
330
1F
100
AcDbEntity
  8
0-0
  6
JWW_DASHED1
 62
   120
370
     5
100
AcDbLine
 10
494.3735294158307
 20
-505.6198529411826
 30
0.0
 11
494.3735294158307
 21
807.3801470588182
 31
0.0
  0
LINE
  5
2B8
330
1F
100
AcDbEntity
  8
0-0
  6
JWW_DASHED1
 62
   120
370
     5
100
AcDbLine
 10
481.3735294147307
 20
-505.6198529411826
 30
0.0
 11
481.3735294147307
 21
807.3801470588182
 31
0.0
  0
LINE
  5
2B9
330
1F
100
AcDbEntity
  8
0-0
  6
JWW_DASHED1
 62
   120
370
     5
100
AcDbLine
 10
480.373529414831
 20
-505.6198529411826
 30
0.0
 11
480.373529414831
 21
807.3801470588182
 31
0.0
  0
LINE
  5
2BA
330
1F
100
AcDbEntity
  8
0-0
  6
JWW_DASHED1
 62
   120
370
     5
100
AcDbLine
 10
467.3735294137309
 20
-505.6198529411826
 30
0.0
 11
467.3735294137309
 21
807.3801470588182
 31
0.0
  0
LINE
  5
2BB
330
1F
100
AcDbEntity
  8
0-0
  6
JWW_DASHED1
 62
   120
370
     5
100
AcDbLine
 10
466.3735294138307
 20
-505.6198529411826
 30
0.0
 11
466.3735294138307
 21
807.3801470588182
 31
0.0
  0
LINE
  5
2BC
330
1F
100
AcDbEntity
  8
0-0
  6
JWW_DASHED1
 62
   120
370
     5
100
AcDbLine
 10
453.3735294127307
 20
-505.6198529411826
 30
0.0
 11
453.3735294127307
 21
807.3801470588182
 31
0.0
  0
LINE
  5
2BD
330
1F
100
AcDbEntity
  8
0-0
  6
JWW_DASHED1
 62
   120
370
     5
100
AcDbLine
 10
452.3735294128309
 20
-505.6198529411826
 30
0.0
 11
452.3735294128309
 21
807.3801470588182
 31
0.0
  0
LINE
  5
2BE
330
1F
100
AcDbEntity
  8
0-0
  6
JWW_DASHED1
 62
   120
370
     5
100
AcDbLine
 10
439.3735294117309
 20
-505.6198529411826
 30
0.0
 11
439.3735294117309
 21
807.3801470588182
 31
0.0
  0
LINE
  5
2BF
330
1F
100
AcDbEntity
  8
0-0
  6
JWW_DASHED1
 62
   120
370
     5
100
AcDbLine
 10
438.3735294118307
 20
-505.6198529411826
 30
0.0
 11
438.3735294118307
 21
807.3801470588182
 31
0.0
  0
LINE
  5
2C0
330
1F
100
AcDbEntity
  8
0-0
  6
JWW_DASHED1
 62
   120
370
     5
100
AcDbLine
 10
425.3735294107307
 20
-505.6198529411826
 30
0.0
 11
425.3735294107307
 21
807.3801470588182
 31
0.0
  0
LINE
  5
2C1
330
1F
100
AcDbEntity
  8
0-0
  6
JWW_DASHED1
 62
   120
370
     5
100
AcDbLine
 10
424.3735294108309
 20
-505.6198529411826
 30
0.0
 11
424.3735294108309
 21
807.3801470588182
 31
0.0
  0
LINE
  5
2C2
330
1F
100
AcDbEntity
  8
0-0
  6
JWW_DASHED1
 62
   120
370
     5
100
AcDbLine
 10
411.3735294097308
 20
-505.6198529411826
 30
0.0
 11
411.3735294097308
 21
807.3801470588182
 31
0.0
  0
LINE
  5
2C3
330
1F
100
AcDbEntity
  8
0-0
  6
JWW_DASHED1
 62
   120
370
     5
100
AcDbLine
 10
410.3735294098307
 20
-505.6198529411826
 30
0.0
 11
410.3735294098307
 21
807.3801470588182
 31
0.0
  0
LINE
  5
2C4
330
1F
100
AcDbEntity
  8
0-0
  6
JWW_DASHED1
 62
   120
370
     5
100
AcDbLine
 10
397.3735294087306
 20
-505.6198529411826
 30
0.0
 11
397.3735294087306
 21
807.3801470588182
 31
0.0
  0
LINE
  5
2C5
330
1F
100
AcDbEntity
  8
0-0
  6
JWW_DASHED1
 62
   120
370
     5
100
AcDbLine
 10
396.3735294088309
 20
-505.6198529411826
 30
0.0
 11
396.3735294088309
 21
807.3801470588182
 31
0.0
  0
LINE
  5
2C6
330
1F
100
AcDbEntity
  8
0-0
  6
JWW_DASHED1
 62
   120
370
     5
100
AcDbLine
 10
383.3735294077309
 20
-505.6198529411826
 30
0.0
 11
383.3735294077309
 21
807.3801470588182
 31
0.0
  0
LINE
  5
2C7
330
1F
100
AcDbEntity
  8
0-0
  6
JWW_DASHED1
 62
   120
370
     5
100
AcDbLine
 10
382.3735294078307
 20
-505.6198529411826
 30
0.0
 11
382.3735294078307
 21
807.3801470588182
 31
0.0
  0
LINE
  5
2C8
330
1F
100
AcDbEntity
  8
0-0
  6
JWW_DASHED1
 62
   120
370
     5
100
AcDbLine
 10
369.3735294067307
 20
-505.6198529411826
 30
0.0
 11
369.3735294067307
 21
807.3801470588182
 31
0.0
  0
LINE
  5
2C9
330
1F
100
AcDbEntity
  8
0-0
  6
JWW_DASHED1
 62
   120
370
     5
100
AcDbLine
 10
368.3735294068309
 20
-505.6198529411826
 30
0.0
 11
368.3735294068309
 21
807.3801470588182
 31
0.0
  0
LINE
  5
2CA
330
1F
100
AcDbEntity
  8
0-0
  6
JWW_DASHED1
 62
   120
370
     5
100
AcDbLine
 10
355.3735294057309
 20
-505.6198529411826
 30
0.0
 11
355.3735294057309
 21
807.3801470588182
 31
0.0
  0
LINE
  5
2CB
330
1F
100
AcDbEntity
  8
0-0
  6
JWW_DASHED1
 62
   120
370
     5
100
AcDbLine
 10
354.3735294058307
 20
-505.6198529411826
 30
0.0
 11
354.3735294058307
 21
807.3801470588182
 31
0.0
  0
LINE
  5
2CC
330
1F
100
AcDbEntity
  8
0-0
  6
JWW_DASHED1
 62
   120
370
     5
100
AcDbLine
 10
341.3735294047307
 20
-505.6198529411826
 30
0.0
 11
341.3735294047307
 21
807.3801470588182
 31
0.0
  0
LINE
  5
2CD
330
1F
100
AcDbEntity
  8
0-0
  6
JWW_DASHED1
 62
   120
370
     5
100
AcDbLine
 10
340.3735294048309
 20
-505.6198529411826
 30
0.0
 11
340.3735294048309
 21
807.3801470588182
 31
0.0
  0
LINE
  5
2CE
330
1F
100
AcDbEntity
  8
0-0
  6
JWW_DASHED1
 62
   120
370
     5
100
AcDbLine
 10
327.3735294037309
 20
-505.6198529411826
 30
0.0
 11
327.3735294037309
 21
807.3801470588182
 31
0.0
  0
LINE
  5
2CF
330
1F
100
AcDbEntity
  8
0-0
  6
JWW_DASHED1
 62
   120
370
     5
100
AcDbLine
 10
326.3735294038307
 20
-505.6198529411826
 30
0.0
 11
326.3735294038307
 21
807.3801470588182
 31
0.0
  0
LINE
  5
2D0
330
1F
100
AcDbEntity
  8
0-0
  6
JWW_DASHED1
 62
   120
370
     5
100
AcDbLine
 10
313.3735294027306
 20
-505.6198529411826
 30
0.0
 11
313.3735294027306
 21
807.3801470588182
 31
0.0
  0
LINE
  5
2D1
330
1F
100
AcDbEntity
  8
0-0
  6
JWW_DASHED1
 62
   120
370
     5
100
AcDbLine
 10
312.3735294028309
 20
-505.6198529411826
 30
0.0
 11
312.3735294028309
 21
807.3801470588182
 31
0.0
  0
LINE
  5
2D2
330
1F
100
AcDbEntity
  8
0-0
  6
JWW_DASHED1
 62
   120
370
     5
100
AcDbLine
 10
299.3735294017308
 20
-505.6198529411826
 30
0.0
 11
299.3735294017308
 21
807.3801470588182
 31
0.0
  0
LINE
  5
2D3
330
1F
100
AcDbEntity
  8
0-0
  6
JWW_DASHED1
 62
   120
370
     5
100
AcDbLine
 10
298.3735294018306
 20
-505.6198529411826
 30
0.0
 11
298.3735294018306
 21
807.3801470588182
 31
0.0
  0
LINE
  5
2D4
330
1F
100
AcDbEntity
  8
0-0
  6
JWW_DASHED1
 62
   120
370
     5
100
AcDbLine
 10
285.3735294007306
 20
-505.6198529411826
 30
0.0
 11
285.3735294007306
 21
807.3801470588182
 31
0.0
  0
LINE
  5
2D5
330
1F
100
AcDbEntity
  8
0-0
  6
JWW_DASHED1
 62
   120
370
     5
100
AcDbLine
 10
284.3735294008309
 20
-505.6198529411826
 30
0.0
 11
284.3735294008309
 21
807.3801470588182
 31
0.0
  0
LINE
  5
2D6
330
1F
100
AcDbEntity
  8
0-0
  6
JWW_DASHED1
 62
   120
370
     5
100
AcDbLine
 10
271.3735293997308
 20
-505.6198529411826
 30
0.0
 11
271.3735293997308
 21
807.3801470588182
 31
0.0
  0
LINE
  5
2D7
330
1F
100
AcDbEntity
  8
0-0
  6
JWW_DASHED1
 62
   120
370
     5
100
AcDbLine
 10
270.3735293998307
 20
-505.6198529411826
 30
0.0
 11
270.3735293998307
 21
807.3801470588182
 31
0.0
  0
LINE
  5
2D8
330
1F
100
AcDbEntity
  8
0-0
  6
JWW_DASHED1
 62
   120
370
     5
100
AcDbLine
 10
257.3735293987306
 20
-505.6198529411826
 30
0.0
 11
257.3735293987306
 21
807.3801470588182
 31
0.0
  0
LINE
  5
2D9
330
1F
100
AcDbEntity
  8
0-0
  6
JWW_DASHED1
 62
   120
370
     5
100
AcDbLine
 10
256.3735293988309
 20
-505.6198529411826
 30
0.0
 11
256.3735293988309
 21
807.3801470588182
 31
0.0
  0
LINE
  5
2DA
330
1F
100
AcDbEntity
  8
0-0
  6
JWW_DASHED1
 62
   120
370
     5
100
AcDbLine
 10
243.3735293977308
 20
-505.6198529411826
 30
0.0
 11
243.3735293977308
 21
807.3801470588182
 31
0.0
  0
LINE
  5
2DB
330
1F
100
AcDbEntity
  8
0-0
  6
JWW_DASHED1
 62
   120
370
     5
100
AcDbLine
 10
242.3735293978307
 20
-505.6198529411826
 30
0.0
 11
242.3735293978307
 21
807.3801470588182
 31
0.0
  0
LINE
  5
2DC
330
1F
100
AcDbEntity
  8
0-0
  6
JWW_DASHED1
 62
   120
370
     5
100
AcDbLine
 10
229.3735293967306
 20
-505.6198529411826
 30
0.0
 11
229.3735293967306
 21
807.3801470588182
 31
0.0
  0
LINE
  5
2DD
330
1F
100
AcDbEntity
  8
0-0
  6
JWW_DASHED1
 62
   120
370
     5
100
AcDbLine
 10
228.3735293968309
 20
-505.6198529411826
 30
0.0
 11
228.3735293968309
 21
807.3801470588182
 31
0.0
  0
LINE
  5
2DE
330
1F
100
AcDbEntity
  8
0-0
  6
JWW_DASHED1
 62
   120
370
     5
100
AcDbLine
 10
215.3735293957308
 20
-505.6198529411826
 30
0.0
 11
215.3735293957308
 21
807.3801470588182
 31
0.0
  0
LINE
  5
2DF
330
1F
100
AcDbEntity
  8
0-0
  6
JWW_DASHED1
 62
   120
370
     5
100
AcDbLine
 10
214.3735293958306
 20
-505.6198529411826
 30
0.0
 11
214.3735293958306
 21
807.3801470588182
 31
0.0
  0
LINE
  5
2E0
330
1F
100
AcDbEntity
  8
0-0
  6
JWW_DASHED1
 62
   120
370
     5
100
AcDbLine
 10
201.3735293947306
 20
-505.6198529411826
 30
0.0
 11
201.3735293947306
 21
807.3801470588182
 31
0.0
  0
LINE
  5
2E1
330
1F
100
AcDbEntity
  8
0-0
  6
JWW_DASHED1
 62
   120
370
     5
100
AcDbLine
 10
200.3735293948309
 20
-505.6198529411826
 30
0.0
 11
200.3735293948309
 21
807.3801470588182
 31
0.0
  0
LINE
  5
2E2
330
1F
100
AcDbEntity
  8
0-0
  6
JWW_DASHED1
 62
   120
370
     5
100
AcDbLine
 10
187.3735293937308
 20
-505.6198529411826
 30
0.0
 11
187.3735293937308
 21
807.3801470588182
 31
0.0
  0
LINE
  5
2E3
330
1F
100
AcDbEntity
  8
0-0
  6
JWW_DASHED1
 62
   120
370
     5
100
AcDbLine
 10
186.3735293938306
 20
-505.6198529411826
 30
0.0
 11
186.3735293938306
 21
807.3801470588182
 31
0.0
  0
LINE
  5
2E4
330
1F
100
AcDbEntity
  8
0-0
  6
JWW_DASHED1
 62
   120
370
     5
100
AcDbLine
 10
173.3735293927306
 20
-505.6198529411826
 30
0.0
 11
173.3735293927306
 21
807.3801470588182
 31
0.0
  0
LINE
  5
2E5
330
1F
100
AcDbEntity
  8
0-0
  6
JWW_DASHED1
 62
   120
370
     5
100
AcDbLine
 10
172.3735293928308
 20
-505.6198529411826
 30
0.0
 11
172.3735293928308
 21
807.3801470588182
 31
0.0
  0
LINE
  5
2E6
330
1F
100
AcDbEntity
  8
0-0
  6
JWW_DASHED1
 62
   120
370
     5
100
AcDbLine
 10
159.3735293917308
 20
-505.6198529411826
 30
0.0
 11
159.3735293917308
 21
807.3801470588182
 31
0.0
  0
LINE
  5
2E7
330
1F
100
AcDbEntity
  8
0-0
  6
JWW_DASHED1
 62
   120
370
     5
100
AcDbLine
 10
158.3735293918306
 20
-505.6198529411826
 30
0.0
 11
158.3735293918306
 21
807.3801470588182
 31
0.0
  0
ENDSEC
  0
SECTION
  2
OBJECTS
  0
DICTIONARY
  5
C
330
0
100
AcDbDictionary
281
     1
  3
ACAD_GROUP
350
D
  3
ACAD_LAYOUT
350
1A
  3
ACAD_MATERIAL
350
3B
  3
ACAD_MLEADERSTYLE
350
2E9
  3
ACAD_MLINESTYLE
350
17
  3
ACAD_PLOTSETTINGS
350
19
  3
ACAD_PLOTSTYLENAME
350
E
  3
ACAD_TABLESTYLE
350
2E8
  3
ACAD_VISUALSTYLE
350
2A
  0
DICTIONARY
  5
D
102
{ACAD_REACTORS
330
C
102
}
330
C
100
AcDbDictionary
281
     1
  0
DICTIONARY
  5
1A
102
{ACAD_REACTORS
330
C
102
}
330
C
100
AcDbDictionary
281
     1
  3
Layout1
350
1E
  3
Layout2
350
26
  3
Model
350
22
  0
DICTIONARY
  5
3B
102
{ACAD_REACTORS
330
C
102
}
330
C
100
AcDbDictionary
281
     1
  3
ByBlock
350
3D
  3
ByLayer
350
3C
  3
Global
350
3E
  0
DICTIONARY
  5
2E9
102
{ACAD_REACTORS
330
C
102
}
330
C
100
AcDbDictionary
281
     1
  0
DICTIONARY
  5
17
102
{ACAD_REACTORS
330
C
102
}
330
C
100
AcDbDictionary
281
     1
  3
Standard
350
18
  0
DICTIONARY
  5
19
102
{ACAD_REACTORS
330
C
102
}
330
C
100
AcDbDictionary
281
     1
  0
ACDBDICTIONARYWDFLT
  5
E
102
{ACAD_REACTORS
330
C
102
}
330
C
100
AcDbDictionary
281
     1
  3
Normal
350
F
100
AcDbDictionaryWithDefault
340
F
  0
DICTIONARY
  5
2E8
102
{ACAD_REACTORS
330
C
102
}
330
C
100
AcDbDictionary
281
     1
  0
DICTIONARY
  5
2A
102
{ACAD_REACTORS
330
C
102
}
330
C
100
AcDbDictionary
281
     1
  3
2dWireframe
350
2F
  3
3D Hidden
350
31
  3
3dWireframe
350
30
  3
Basic
350
32
  3
Brighten
350
36
  3
ColorChange
350
3A
  3
Conceptual
350
34
  3
Dim
350
35
  3
Facepattern
350
39
  3
Flat
350
2B
  3
FlatWithEdges
350
2C
  3
Gouraud
350
2D
  3
GouraudWithEdges
350
2E
  3
Linepattern
350
38
  3
Realistic
350
33
  3
Thicken
350
37
  0
LAYOUT
  5
1E
102
{ACAD_REACTORS
330
1A
102
}
330
1A
100
AcDbPlotSettings
  1

  2
none_device
  4

  6

 40
0.0
 41
0.0
 42
0.0
 43
0.0
 44
0.0
 45
0.0
 46
0.0
 47
0.0
 48
0.0
 49
0.0
140
0.0
141
0.0
142
1.0
143
1.0
 70
   688
 72
     0
 73
     0
 74
     5
  7

 75
    16
 76
     0
 77
     5
 78
   300
147
1.0
148
0.0
149
0.0
100
AcDbLayout
  1
Layout1
 70
     1
 71
     1
 10
0.0
 20
0.0
 11
420.0
 21
297.0
 12
0.0
 22
0.0
 32
0.0
 14
1.000000000000000E+20
 24
1.000000000000000E+20
 34
1.000000000000000E+20
 15
-1.000000000000000E+20
 25
-1.000000000000000E+20
 35
-1.000000000000000E+20
146
0.0
 13
0.0
 23
0.0
 33
0.0
 16
1.0
 26
0.0
 36
0.0
 17
0.0
 27
1.0
 37
0.0
 76
     0
330
1B
  0
LAYOUT
  5
26
102
{ACAD_REACTORS
330
1A
102
}
330
1A
100
AcDbPlotSettings
  1

  2
none_device
  4

  6

 40
0.0
 41
0.0
 42
0.0
 43
0.0
 44
0.0
 45
0.0
 46
0.0
 47
0.0
 48
0.0
 49
0.0
140
0.0
141
0.0
142
1.0
143
1.0
 70
   688
 72
     0
 73
     0
 74
     5
  7

 75
    16
 76
     0
 77
     5
 78
   300
147
1.0
148
0.0
149
0.0
100
AcDbLayout
  1
Layout2
 70
     1
 71
     2
 10
0.0
 20
0.0
 11
0.0
 21
0.0
 12
0.0
 22
0.0
 32
0.0
 14
0.0
 24
0.0
 34
0.0
 15
0.0
 25
0.0
 35
0.0
146
0.0
 13
0.0
 23
0.0
 33
0.0
 16
1.0
 26
0.0
 36
0.0
 17
0.0
 27
1.0
 37
0.0
 76
     0
330
23
  0
LAYOUT
  5
22
102
{ACAD_REACTORS
330
1A
102
}
330
1A
100
AcDbPlotSettings
  1

  2
none_device
  4

  6

 40
0.0
 41
0.0
 42
0.0
 43
0.0
 44
0.0
 45
0.0
 46
0.0
 47
0.0
 48
0.0
 49
0.0
140
0.0
141
0.0
142
1.0
143
1.0
 70
  1712
 72
     0
 73
     0
 74
     0
  7

 75
     0
 76
     0
 77
     5
 78
   300
147
1.0
148
0.0
149
0.0
100
AcDbLayout
  1
Model
 70
     1
 71
     0
 10
-4455.0
 20
-3150.0
 11
4455.0
 21
3150.0
 12
0.0
 22
0.0
 32
0.0
 14
-4455.0
 24
-3150.0
 34
0.0
 15
4455.0
 25
3150.0
 35
0.0
146
0.0
 13
0.0
 23
0.0
 33
0.0
 16
1.0
 26
0.0
 36
0.0
 17
0.0
 27
1.0
 37
0.0
 76
     0
330
1F
331
29
  0
MATERIAL
  5
3D
102
{ACAD_REACTORS
330
3B
102
}
330
3B
100
AcDbMaterial
  1
ByBlock
 72
     1
 94
      127
  0
MATERIAL
  5
3C
102
{ACAD_REACTORS
330
3B
102
}
330
3B
100
AcDbMaterial
  1
ByLayer
 72
     1
 94
      127
  0
MATERIAL
  5
3E
102
{ACAD_REACTORS
330
3B
102
}
330
3B
100
AcDbMaterial
  1
Global
 72
     1
 94
      127
  0
MLINESTYLE
  5
18
102
{ACAD_REACTORS
330
17
102
}
330
17
100
AcDbMlineStyle
  2
Standard
 70
     0
  3

 62
   256
 51
90.0
 52
90.0
 71
     2
 49
0.5
 62
   256
  6
BYLAYER
 49
-0.5
 62
   256
  6
BYLAYER
  0
ACDBPLACEHOLDER
  5
F
102
{ACAD_REACTORS
330
E
102
}
330
E
  0
VISUALSTYLE
  5
2F
102
{ACAD_REACTORS
330
2A
102
}
330
2A
100
AcDbVisualStyle
  2
2dWireframe
 70
     4
177
     2
291
     0
 71
     0
176
     1
 72
     2
176
     1
 73
     0
176
     1
 90
        0
176
     1
 40
-0.6
176
     1
 41
-30.0
176
     1
 62
     5
 63
     7
421
 16777215
176
     1
 74
     1
176
     1
 91
        4
176
     1
 64
     7
176
     1
 65
   257
176
     1
 75
     1
176
     1
175
     1
176
     1
 42
1.0
176
     1
 92
        0
176
     1
 66
   257
176
     1
 43
1.0
176
     1
 76
     1
176
     1
 77
     6
176
     1
 78
     2
176
     1
 67
     7
176
     1
 79
     5
176
     1
170
     0
176
     1
171
     0
176
     1
290
     0
176
     1
 93
        1
176
     1
 44
0.0
176
     1
173
     0
176
     1
  0
VISUALSTYLE
  5
31
102
{ACAD_REACTORS
330
2A
102
}
330
2A
100
AcDbVisualStyle
  2
3D Hidden
 70
     6
177
     2
291
     0
 71
     1
176
     1
 72
     2
176
     1
 73
     2
176
     1
 90
        0
176
     1
 40
-0.6
176
     1
 41
-30.0
176
     1
 62
     5
 63
     7
421
 16777215
176
     1
 74
     2
176
     1
 91
        2
176
     1
 64
     7
176
     1
 65
   257
176
     1
 75
     2
176
     1
175
     1
176
     1
 42
40.0
176
     1
 92
        0
176
     1
 66
   257
176
     1
 43
1.0
176
     1
 76
     1
176
     1
 77
     6
176
     1
 78
     2
176
     1
 67
     7
176
     1
 79
     3
176
     1
170
     0
176
     1
171
     0
176
     1
290
     0
176
     1
 93
        1
176
     1
 44
0.0
176
     1
173
     0
176
     1
  0
VISUALSTYLE
  5
30
102
{ACAD_REACTORS
330
2A
102
}
330
2A
100
AcDbVisualStyle
  2
3dWireframe
 70
     5
177
     2
291
     0
 71
     0
176
     1
 72
     2
176
     1
 73
     0
176
     1
 90
        0
176
     1
 40
-0.6
176
     1
 41
-30.0
176
     1
 62
     5
 63
     7
421
 16777215
176
     1
 74
     1
176
     1
 91
        4
176
     1
 64
     7
176
     1
 65
   257
176
     1
 75
     1
176
     1
175
     1
176
     1
 42
1.0
176
     1
 92
        0
176
     1
 66
   257
176
     1
 43
1.0
176
     1
 76
     1
176
     1
 77
     6
176
     1
 78
     2
176
     1
 67
     7
176
     1
 79
     5
176
     1
170
     0
176
     1
171
     0
176
     1
290
     0
176
     1
 93
        1
176
     1
 44
0.0
176
     1
173
     0
176
     1
  0
VISUALSTYLE
  5
32
102
{ACAD_REACTORS
330
2A
102
}
330
2A
100
AcDbVisualStyle
  2
Basic
 70
     7
177
     2
291
     1
 71
     1
176
     1
 72
     0
176
     1
 73
     1
176
     1
 90
        0
176
     1
 40
-0.6
176
     1
 41
-30.0
176
     1
 62
     5
 63
     7
421
 16777215
176
     1
 74
     0
176
     1
 91
        4
176
     1
 64
     7
176
     1
 65
   257
176
     1
 75
     1
176
     1
175
     1
176
     1
 42
1.0
176
     1
 92
        8
176
     1
 66
     7
176
     1
 43
1.0
176
     1
 76
     1
176
     1
 77
     6
176
     1
 78
     2
176
     1
 67
     7
176
     1
 79
     5
176
     1
170
     0
176
     1
171
     0
176
     1
290
     0
176
     1
 93
        1
176
     1
 44
0.0
176
     1
173
     0
176
     1
  0
VISUALSTYLE
  5
36
102
{ACAD_REACTORS
330
2A
102
}
330
2A
100
AcDbVisualStyle
  2
Brighten
 70
    12
177
     2
291
     1
 71
     2
176
     1
 72
     2
176
     1
 73
     0
176
     1
 90
        0
176
     1
 40
-0.6
176
     1
 41
-30.0
176
     1
 62
     5
 63
     7
421
 16777215
176
     1
 74
     1
176
     1
 91
        4
176
     1
 64
     7
176
     1
 65
   257
176
     1
 75
     1
176
     1
175
     1
176
     1
 42
1.0
176
     1
 92
        8
176
     1
 66
     7
176
     1
 43
1.0
176
     1
 76
     1
176
     1
 77
     6
176
     1
 78
     2
176
     1
 67
     7
176
     1
 79
     5
176
     1
170
     0
176
     1
171
     0
176
     1
290
     0
176
     1
 93
        1
176
     1
 44
50.0
176
     1
173
     0
176
     1
  0
VISUALSTYLE
  5
3A
102
{ACAD_REACTORS
330
2A
102
}
330
2A
100
AcDbVisualStyle
  2
ColorChange
 70
    16
177
     2
291
     1
 71
     2
176
     1
 72
     2
176
     1
 73
     3
176
     1
 90
        0
176
     1
 40
-0.6
176
     1
 41
-30.0
176
     1
 62
     5
 63
     8
421
  8421504
176
     1
 74
     1
176
     1
 91
        4
176
     1
 64
     7
176
     1
 65
   257
176
     1
 75
     1
176
     1
175
     1
176
     1
 42
1.0
176
     1
 92
        8
176
     1
 66
     8
424
  8421504
176
     1
 43
1.0
176
     1
 76
     1
176
     1
 77
     6
176
     1
 78
     2
176
     1
 67
     7
176
     1
 79
     5
176
     1
170
     0
176
     1
171
     0
176
     1
290
     0
176
     1
 93
        1
176
     1
 44
0.0
176
     1
173
     0
176
     1
  0
VISUALSTYLE
  5
34
102
{ACAD_REACTORS
330
2A
102
}
330
2A
100
AcDbVisualStyle
  2
Conceptual
 70
     9
177
     2
291
     0
 71
     3
176
     1
 72
     2
176
     1
 73
     0
176
     1
 90
        0
176
     1
 40
-0.6
176
     1
 41
-30.0
176
     1
 62
     5
 63
     7
421
 16777215
176
     1
 74
     2
176
     1
 91
        2
176
     1
 64
     7
176
     1
 65
   257
176
     1
 75
     1
176
     1
175
     1
176
     1
 42
40.0
176
     1
 92
        8
176
     1
 66
     7
176
     1
 43
1.0
176
     1
 76
     1
176
     1
 77
     6
176
     1
 78
     2
176
     1
 67
     7
176
     1
 79
     3
176
     1
170
     0
176
     1
171
     0
176
     1
290
     0
176
     1
 93
        1
176
     1
 44
0.0
176
     1
173
     0
176
     1
  0
VISUALSTYLE
  5
35
102
{ACAD_REACTORS
330
2A
102
}
330
2A
100
AcDbVisualStyle
  2
Dim
 70
    11
177
     2
291
     1
 71
     2
176
     1
 72
     2
176
     1
 73
     0
176
     1
 90
        0
176
     1
 40
-0.6
176
     1
 41
-30.0
176
     1
 62
     5
 63
     7
421
 16777215
176
     1
 74
     1
176
     1
 91
        4
176
     1
 64
     7
176
     1
 65
   257
176
     1
 75
     1
176
     1
175
     1
176
     1
 42
1.0
176
     1
 92
        8
176
     1
 66
     7
176
     1
 43
1.0
176
     1
 76
     1
176
     1
 77
     6
176
     1
 78
     2
176
     1
 67
     7
176
     1
 79
     5
176
     1
170
     0
176
     1
171
     0
176
     1
290
     0
176
     1
 93
        1
176
     1
 44
-50.0
176
     1
173
     0
176
     1
  0
VISUALSTYLE
  5
39
102
{ACAD_REACTORS
330
2A
102
}
330
2A
100
AcDbVisualStyle
  2
Facepattern
 70
    15
177
     2
291
     1
 71
     2
176
     1
 72
     2
176
     1
 73
     0
176
     1
 90
        0
176
     1
 40
-0.6
176
     1
 41
-30.0
176
     1
 62
     5
 63
     7
421
 16777215
176
     1
 74
     1
176
     1
 91
        4
176
     1
 64
     7
176
     1
 65
   257
176
     1
 75
     1
176
     1
175
     1
176
     1
 42
1.0
176
     1
 92
        8
176
     1
 66
     7
176
     1
 43
1.0
176
     1
 76
     1
176
     1
 77
     6
176
     1
 78
     2
176
     1
 67
     7
176
     1
 79
     5
176
     1
170
     0
176
     1
171
     0
176
     1
290
     0
176
     1
 93
        1
176
     1
 44
0.0
176
     1
173
     0
176
     1
  0
VISUALSTYLE
  5
2B
102
{ACAD_REACTORS
330
2A
102
}
330
2A
100
AcDbVisualStyle
  2
Flat
 70
     0
177
     2
291
     1
 71
     2
176
     1
 72
     1
176
     1
 73
     1
176
     1
 90
        2
176
     1
 40
-0.6
176
     1
 41
30.0
176
     1
 62
     5
 63
     7
421
 16777215
176
     1
 74
     0
176
     1
 91
        4
176
     1
 64
     7
176
     1
 65
   257
176
     1
 75
     1
176
     1
175
     1
176
     1
 42
1.0
176
     1
 92
        8
176
     1
 66
     7
176
     1
 43
1.0
176
     1
 76
     1
176
     1
 77
     6
176
     1
 78
     2
176
     1
 67
     7
176
     1
 79
     5
176
     1
170
     0
176
     1
171
     0
176
     1
290
     0
176
     1
 93
       13
176
     1
 44
0.0
176
     1
173
     0
176
     1
  0
VISUALSTYLE
  5
2C
102
{ACAD_REACTORS
330
2A
102
}
330
2A
100
AcDbVisualStyle
  2
FlatWithEdges
 70
     1
177
     2
291
     1
 71
     2
176
     1
 72
     1
176
     1
 73
     1
176
     1
 90
        2
176
     1
 40
-0.6
176
     1
 41
30.0
176
     1
 62
     5
 63
     7
421
 16777215
176
     1
 74
     1
176
     1
 91
        4
176
     1
 64
     7
176
     1
 65
   257
176
     1
 75
     1
176
     1
175
     1
176
     1
 42
1.0
176
     1
 92
        0
176
     1
 66
   257
176
     1
 43
1.0
176
     1
 76
     1
176
     1
 77
     6
176
     1
 78
     2
176
     1
 67
     7
176
     1
 79
     5
176
     1
170
     0
176
     1
171
     0
176
     1
290
     0
176
     1
 93
       13
176
     1
 44
0.0
176
     1
173
     0
176
     1
  0
VISUALSTYLE
  5
2D
102
{ACAD_REACTORS
330
2A
102
}
330
2A
100
AcDbVisualStyle
  2
Gouraud
 70
     2
177
     2
291
     1
 71
     2
176
     1
 72
     2
176
     1
 73
     1
176
     1
 90
        2
176
     1
 40
-0.6
176
     1
 41
30.0
176
     1
 62
     5
 63
     7
421
 16777215
176
     1
 74
     0
176
     1
 91
        4
176
     1
 64
     7
176
     1
 65
   257
176
     1
 75
     1
176
     1
175
     1
176
     1
 42
1.0
176
     1
 92
        0
176
     1
 66
     7
176
     1
 43
1.0
176
     1
 76
     1
176
     1
 77
     6
176
     1
 78
     2
176
     1
 67
     7
176
     1
 79
     5
176
     1
170
     0
176
     1
171
     0
176
     1
290
     0
176
     1
 93
       13
176
     1
 44
0.0
176
     1
173
     0
176
     1
  0
VISUALSTYLE
  5
2E
102
{ACAD_REACTORS
330
2A
102
}
330
2A
100
AcDbVisualStyle
  2
GouraudWithEdges
 70
     3
177
     2
291
     1
 71
     2
176
     1
 72
     2
176
     1
 73
     1
176
     1
 90
        2
176
     1
 40
-0.6
176
     1
 41
30.0
176
     1
 62
     5
 63
     7
421
 16777215
176
     1
 74
     1
176
     1
 91
        4
176
     1
 64
     7
176
     1
 65
   257
176
     1
 75
     1
176
     1
175
     1
176
     1
 42
1.0
176
     1
 92
        0
176
     1
 66
   257
176
     1
 43
1.0
176
     1
 76
     1
176
     1
 77
     6
176
     1
 78
     2
176
     1
 67
     7
176
     1
 79
     5
176
     1
170
     0
176
     1
171
     0
176
     1
290
     0
176
     1
 93
       13
176
     1
 44
0.0
176
     1
173
     0
176
     1
  0
VISUALSTYLE
  5
38
102
{ACAD_REACTORS
330
2A
102
}
330
2A
100
AcDbVisualStyle
  2
Linepattern
 70
    14
177
     2
291
     1
 71
     2
176
     1
 72
     2
176
     1
 73
     0
176
     1
 90
        0
176
     1
 40
-0.6
176
     1
 41
-30.0
176
     1
 62
     5
 63
     7
421
 16777215
176
     1
 74
     1
176
     1
 91
        4
176
     1
 64
     7
176
     1
 65
   257
176
     1
 75
     7
176
     1
175
     7
176
     1
 42
1.0
176
     1
 92
        8
176
     1
 66
     7
176
     1
 43
1.0
176
     1
 76
     1
176
     1
 77
     6
176
     1
 78
     2
176
     1
 67
     7
176
     1
 79
     5
176
     1
170
     0
176
     1
171
     0
176
     1
290
     0
176
     1
 93
        1
176
     1
 44
0.0
176
     1
173
     0
176
     1
  0
VISUALSTYLE
  5
33
102
{ACAD_REACTORS
330
2A
102
}
330
2A
100
AcDbVisualStyle
  2
Realistic
 70
     8
177
     2
291
     0
 71
     2
176
     1
 72
     2
176
     1
 73
     0
176
     1
 90
        0
176
     1
 40
-0.6
176
     1
 41
-30.0
176
     1
 62
     5
 63
     7
421
 16777215
176
     1
 74
     1
176
     1
 91
        0
176
     1
 64
     7
176
     1
 65
   257
176
     1
 75
     1
176
     1
175
     1
176
     1
 42
1.0
176
     1
 92
        8
176
     1
 66
     8
424
  7895160
176
     1
 43
1.0
176
     1
 76
     1
176
     1
 77
     6
176
     1
 78
     2
176
     1
 67
     7
176
     1
 79
     5
176
     1
170
     0
176
     1
171
     0
176
     1
290
     0
176
     1
 93
       13
176
     1
 44
0.0
176
     1
173
     0
176
     1
  0
VISUALSTYLE
  5
37
102
{ACAD_REACTORS
330
2A
102
}
330
2A
100
AcDbVisualStyle
  2
Thicken
 70
    13
177
     2
291
     1
 71
     2
176
     1
 72
     2
176
     1
 73
     0
176
     1
 90
        0
176
     1
 40
-0.6
176
     1
 41
-30.0
176
     1
 62
     5
 63
     7
421
 16777215
176
     1
 74
     1
176
     1
 91
        4
176
     1
 64
     7
176
     1
 65
   257
176
     1
 75
     1
176
     1
175
     1
176
     1
 42
1.0
176
     1
 92
       12
176
     1
 66
     7
176
     1
 43
1.0
176
     1
 76
     1
176
     1
 77
     6
176
     1
 78
     2
176
     1
 67
     7
176
     1
 79
     5
176
     1
170
     0
176
     1
171
     0
176
     1
290
     0
176
     1
 93
        1
176
     1
 44
0.0
176
     1
173
     0
176
     1
  0
ENDSEC
  0
EOF
