  0
SECTION
  2
HEADER
  9
$ACADVER
  1
AC1024
  9
$ACADMAINTVER
 70
     6
  9
$DWGCODEPAGE
  3
ANSI_932
  9
$INSBASE
 10
0.0
 20
0.0
 30
0.0
  9
$EXTMIN
 10
-4455.0
 20
-3150.0
 30
0.0
  9
$EXTMAX
 10
4455.0
 20
3150.0
 30
0.0
  9
$LIMMIN
 10
-4455.0
 20
-3150.0
  9
$LIMMAX
 10
4455.0
 20
3150.0
  9
$ORTHOMODE
 70
     0
  9
$REGENMODE
 70
     1
  9
$FILLMODE
 70
     1
  9
$QTEXTMODE
 70
     0
  9
$MIRRTEXT
 70
     1
  9
$LTSCALE
 40
30.0
  9
$ATTMODE
 70
     1
  9
$TEXTSIZE
 40
2.5
  9
$TRACEWID
 40
1.0
  9
$TEXTSTYLE
  7
Standard
  9
$CLAYER
  8
0
  9
$CELTYPE
  6
ByLayer
  9
$CECOLOR
 62
   256
  9
$CELTSCALE
 40
1.0
  9
$DISPSILH
 70
     0
  9
$DIMSCALE
 40
1.0
  9
$DIMASZ
 40
2.5
  9
$DIMEXO
 40
0.625
  9
$DIMDLI
 40
3.75
  9
$DIMRND
 40
0.0
  9
$DIMDLE
 40
0.0
  9
$DIMEXE
 40
1.25
  9
$DIMTP
 40
0.0
  9
$DIMTM
 40
0.0
  9
$DIMTXT
 40
2.5
  9
$DIMCEN
 40
2.5
  9
$DIMTSZ
 40
0.0
  9
$DIMTOL
 70
     0
  9
$DIMLIM
 70
     0
  9
$DIMTIH
 70
     0
  9
$DIMTOH
 70
     0
  9
$DIMSE1
 70
     0
  9
$DIMSE2
 70
     0
  9
$DIMTAD
 70
     1
  9
$DIMZIN
 70
     8
  9
$DIMBLK
  1

  9
$DIMASO
 70
     1
  9
$DIMSHO
 70
     1
  9
$DIMPOST
  1

  9
$DIMAPOST
  1

  9
$DIMALT
 70
     0
  9
$DIMALTD
 70
     3
  9
$DIMALTF
 40
0.03937007874016
  9
$DIMLFAC
 40
1.0
  9
$DIMTOFL
 70
     1
  9
$DIMTVP
 40
0.0
  9
$DIMTIX
 70
     0
  9
$DIMSOXD
 70
     0
  9
$DIMSAH
 70
     0
  9
$DIMBLK1
  1

  9
$DIMBLK2
  1

  9
$DIMSTYLE
  2
ISO-25
  9
$DIMCLRD
 70
     0
  9
$DIMCLRE
 70
     0
  9
$DIMCLRT
 70
     0
  9
$DIMTFAC
 40
1.0
  9
$DIMGAP
 40
0.625
  9
$DIMJUST
 70
     0
  9
$DIMSD1
 70
     0
  9
$DIMSD2
 70
     0
  9
$DIMTOLJ
 70
     0
  9
$DIMTZIN
 70
     8
  9
$DIMALTZ
 70
     0
  9
$DIMALTTZ
 70
     0
  9
$DIMUPT
 70
     0
  9
$DIMDEC
 70
     2
  9
$DIMTDEC
 70
     2
  9
$DIMALTU
 70
     2
  9
$DIMALTTD
 70
     3
  9
$DIMTXSTY
  7
Standard
  9
$DIMAUNIT
 70
     0
  9
$DIMADEC
 70
     0
  9
$DIMALTRND
 40
0.0
  9
$DIMAZIN
 70
     0
  9
$DIMDSEP
 70
    44
  9
$DIMATFIT
 70
     3
  9
$DIMFRAC
 70
     0
  9
$DIMLDRBLK
  1

  9
$DIMLUNIT
 70
     2
  9
$DIMLWD
 70
    -2
  9
$DIMLWE
 70
    -2
  9
$DIMTMOVE
 70
     0
  9
$DIMFXL
 40
1.0
  9
$DIMFXLON
 70
     0
  9
$DIMJOGANG
 40
0.7853981633974483
  9
$DIMTFILL
 70
     0
  9
$DIMTFILLCLR
 70
     0
  9
$DIMARCSYM
 70
     0
  9
$DIMLTYPE
  6

  9
$DIMLTEX1
  6

  9
$DIMLTEX2
  6

  9
$DIMTXTDIRECTION
 70
     0
  9
$LUNITS
 70
     2
  9
$LUPREC
 70
     4
  9
$SKETCHINC
 40
1.0
  9
$FILLETRAD
 40
10.0
  9
$AUNITS
 70
     0
  9
$AUPREC
 70
     0
  9
$MENU
  1
.
  9
$ELEVATION
 40
0.0
  9
$PELEVATION
 40
0.0
  9
$THICKNESS
 40
0.0
  9
$LIMCHECK
 70
     0
  9
$CHAMFERA
 40
10.0
  9
$CHAMFERB
 40
10.0
  9
$CHAMFERC
 40
20.0
  9
$CHAMFERD
 40
0.0
  9
$SKPOLY
 70
     0
  9
$TDCREATE
 40
2457953.401980069
  9
$TDUCREATE
 40
2457953.026980069
  9
$TDUPDATE
 40
2457953.401980081
  9
$TDUUPDATE
 40
2457953.026980081
  9
$TDINDWG
 40
0.0000000116
  9
$TDUSRTIMER
 40
0.0000000116
  9
$USRTIMER
 70
     1
  9
$ANGBASE
 50
0.0
  9
$ANGDIR
 70
     0
  9
$PDMODE
 70
     0
  9
$PDSIZE
 40
0.0
  9
$PLINEWID
 40
0.0
  9
$SPLFRAME
 70
     0
  9
$SPLINETYPE
 70
     6
  9
$SPLINESEGS
 70
     8
  9
$HANDSEED
  5
25C
  9
$SURFTAB1
 70
     6
  9
$SURFTAB2
 70
     6
  9
$SURFTYPE
 70
     6
  9
$SURFU
 70
     6
  9
$SURFV
 70
     6
  9
$UCSBASE
  2

  9
$UCSNAME
  2

  9
$UCSORG
 10
0.0
 20
0.0
 30
0.0
  9
$UCSXDIR
 10
1.0
 20
0.0
 30
0.0
  9
$UCSYDIR
 10
0.0
 20
1.0
 30
0.0
  9
$UCSORTHOREF
  2

  9
$UCSORTHOVIEW
 70
     0
  9
$UCSORGTOP
 10
0.0
 20
0.0
 30
0.0
  9
$UCSORGBOTTOM
 10
0.0
 20
0.0
 30
0.0
  9
$UCSORGLEFT
 10
0.0
 20
0.0
 30
0.0
  9
$UCSORGRIGHT
 10
0.0
 20
0.0
 30
0.0
  9
$UCSORGFRONT
 10
0.0
 20
0.0
 30
0.0
  9
$UCSORGBACK
 10
0.0
 20
0.0
 30
0.0
  9
$PUCSBASE
  2

  9
$PUCSNAME
  2

  9
$PUCSORG
 10
0.0
 20
0.0
 30
0.0
  9
$PUCSXDIR
 10
1.0
 20
0.0
 30
0.0
  9
$PUCSYDIR
 10
0.0
 20
1.0
 30
0.0
  9
$PUCSORTHOREF
  2

  9
$PUCSORTHOVIEW
 70
     0
  9
$PUCSORGTOP
 10
0.0
 20
0.0
 30
0.0
  9
$PUCSORGBOTTOM
 10
0.0
 20
0.0
 30
0.0
  9
$PUCSORGLEFT
 10
0.0
 20
0.0
 30
0.0
  9
$PUCSORGRIGHT
 10
0.0
 20
0.0
 30
0.0
  9
$PUCSORGFRONT
 10
0.0
 20
0.0
 30
0.0
  9
$PUCSORGBACK
 10
0.0
 20
0.0
 30
0.0
  9
$USERI1
 70
     0
  9
$USERI2
 70
     0
  9
$USERI3
 70
     0
  9
$USERI4
 70
     0
  9
$USERI5
 70
     0
  9
$USERR1
 40
0.0
  9
$USERR2
 40
0.0
  9
$USERR3
 40
0.0
  9
$USERR4
 40
0.0
  9
$USERR5
 40
0.0
  9
$WORLDVIEW
 70
     1
  9
$SHADEDGE
 70
     3
  9
$SHADEDIF
 70
    70
  9
$TILEMODE
 70
     1
  9
$MAXACTVP
 70
    64
  9
$PINSBASE
 10
0.0
 20
0.0
 30
0.0
  9
$PLIMCHECK
 70
     0
  9
$PEXTMIN
 10
1.000000000000000E+20
 20
1.000000000000000E+20
 30
1.000000000000000E+20
  9
$PEXTMAX
 10
-1.000000000000000E+20
 20
-1.000000000000000E+20
 30
-1.000000000000000E+20
  9
$PLIMMIN
 10
0.0
 20
0.0
  9
$PLIMMAX
 10
420.0
 20
297.0
  9
$UNITMODE
 70
     0
  9
$VISRETAIN
 70
     1
  9
$PLINEGEN
 70
     0
  9
$PSLTSCALE
 70
     1
  9
$TREEDEPTH
 70
  3020
  9
$CMLSTYLE
  2
Standard
  9
$CMLJUST
 70
     0
  9
$CMLSCALE
 40
20.0
  9
$PROXYGRAPHICS
 70
     1
  9
$MEASUREMENT
 70
     1
  9
$CELWEIGHT
370
    -1
  9
$ENDCAPS
280
     0
  9
$JOINSTYLE
280
     0
  9
$LWDISPLAY
290
     0
  9
$INSUNITS
 70
     4
  9
$HYPERLINKBASE
  1

  9
$STYLESHEET
  1

  9
$XEDIT
290
     1
  9
$CEPSNTYPE
380
     0
  9
$PSTYLEMODE
290
     1
  9
$FINGERPRINTGUID
  2
{094C3EEE-47C9-4CAE-9B79-64E9AADB85E8}
  9
$VERSIONGUID
  2
{FAEB1C32-E019-11D5-929B-00C0DF256EC4}
  9
$EXTNAMES
290
     1
  9
$PSVPSCALE
 40
0.0
  9
$OLESTARTUP
290
     0
  9
$SORTENTS
280
   127
  9
$INDEXCTL
280
     0
  9
$HIDETEXT
280
     1
  9
$XCLIPFRAME
280
     2
  9
$HALOGAP
280
     0
  9
$OBSCOLOR
 70
   257
  9
$OBSLTYPE
280
     0
  9
$INTERSECTIONDISPLAY
280
     0
  9
$INTERSECTIONCOLOR
 70
   257
  9
$DIMASSOC
280
     2
  9
$PROJECTNAME
  1

  9
$CAMERADISPLAY
290
     0
  9
$LENSLENGTH
 40
50.0
  9
$CAMERAHEIGHT
 40
0.0
  9
$STEPSPERSEC
 40
2.0
  9
$STEPSIZE
 40
6.0
  9
$3DDWFPREC
 40
2.0
  9
$PSOLWIDTH
 40
5.0
  9
$PSOLHEIGHT
 40
80.0
  9
$LOFTANG1
 40
1.570796326794897
  9
$LOFTANG2
 40
1.570796326794897
  9
$LOFTMAG1
 40
0.0
  9
$LOFTMAG2
 40
0.0
  9
$LOFTPARAM
 70
     7
  9
$LOFTNORMALS
280
     1
  9
$LATITUDE
 40
37.795
  9
$LONGITUDE
 40
-122.394
  9
$NORTHDIRECTION
 40
0.0
  9
$TIMEZONE
 70
 -8000
  9
$LIGHTGLYPHDISPLAY
280
     1
  9
$TILEMODELIGHTSYNCH
280
     1
  9
$SOLIDHIST
280
     1
  9
$SHOWHIST
280
     1
  9
$DWFFRAME
280
     2
  9
$DGNFRAME
280
     2
  9
$REALWORLDSCALE
290
     1
  9
$INTERFERECOLOR
 62
   256
  9
$CSHADOW
280
     0
  9
$SHADOWPLANELOCATION
 40
0.0
  0
ENDSEC
  0
SECTION
  2
CLASSES
  0
CLASS
  1
ACDBDICTIONARYWDFLT
  2
AcDbDictionaryWithDefault
  3
ObjectDBX Classes
 90
        0
 91
        4
280
     0
281
     0
  0
CLASS
  1
VISUALSTYLE
  2
AcDbVisualStyle
  3
ObjectDBX Classes
 90
     4095
 91
        4
280
     0
281
     0
  0
CLASS
  1
MATERIAL
  2
AcDbMaterial
  3
ObjectDBX Classes
 90
     1153
 91
        4
280
     0
281
     0
  0
ENDSEC
  0
SECTION
  2
TABLES
  0
TABLE
  2
VPORT
  5
8
330
0
100
AcDbSymbolTable
 70
     1
  0
VPORT
  5
29
330
8
100
AcDbSymbolTableRecord
100
AcDbViewportTableRecord
  2
*Active
 70
     0
 10
0.0
 20
0.0
 11
1.0
 21
1.0
 12
0.0
 22
0.0
 13
0.0
 23
0.0
 14
10.0
 24
10.0
 15
10.0
 25
10.0
 16
0.0
 26
0.0
 36
1.0
 17
0.0
 27
0.0
 37
0.0
 40
6930.000000000001
 41
1.414285714285714
 42
50.0
 43
0.0
 44
0.0
 50
0.0
 51
0.0
 71
     0
 72
 10000
 73
     1
 74
     3
 75
     0
 76
     0
 77
     0
 78
     0
281
     0
 65
     1
110
0.0
120
0.0
130
0.0
111
1.0
121
0.0
131
0.0
112
0.0
122
1.0
132
0.0
 79
     0
146
0.0
 60
     3
 61
     5
292
     1
282
     1
141
0.0
142
0.0
 63
   250
  0
ENDTAB
  0
TABLE
  2
LTYPE
  5
5
330
0
100
AcDbSymbolTable
 70
     2
  0
LTYPE
  5
14
330
5
100
AcDbSymbolTableRecord
100
AcDbLinetypeTableRecord
  2
ByBlock
 70
     0
  3

 72
    65
 73
     0
 40
0.0
  0
LTYPE
  5
15
330
5
100
AcDbSymbolTableRecord
100
AcDbLinetypeTableRecord
  2
ByLayer
 70
     0
  3

 72
    65
 73
     0
 40
0.0
  0
LTYPE
  5
16
330
5
100
AcDbSymbolTableRecord
100
AcDbLinetypeTableRecord
  2
Continuous
 70
     0
  3
Solid line
 72
    65
 73
     0
 40
0.0
  0
LTYPE
  5
3F
330
5
100
AcDbSymbolTableRecord
100
AcDbLinetypeTableRecord
  2
JWW_DASHED1
 70
     0
  3
-  --  --  --  --  --  --  --  -
 72
    65
 73
     2
 40
1.693333333333333
 49
0.8466666666666667
 74
     0
 49
-0.8466666666666667
 74
     0
  0
ENDTAB
  0
TABLE
  2
LAYER
  5
2
330
0
100
AcDbSymbolTable
 70
     3
  0
LAYER
  5
10
330
2
100
AcDbSymbolTableRecord
100
AcDbLayerTableRecord
  2
0
 70
     0
 62
     7
  6
Continuous
370
    -3
390
F
347
3E
  0
LAYER
  5
40
330
2
100
AcDbSymbolTableRecord
100
AcDbLayerTableRecord
  2
0-0
 70
     0
 62
     7
  6
Continuous
370
    -3
390
F
347
3E
  0
LAYER
  5
41
330
2
100
AcDbSymbolTableRecord
100
AcDbLayerTableRecord
  2
寸法
 70
     0
 62
     7
  6
Continuous
370
    -3
390
F
347
3E
  0
ENDTAB
  0
TABLE
  2
STYLE
  5
3
330
0
100
AcDbSymbolTable
 70
     1
  0
STYLE
  5
11
330
3
100
AcDbSymbolTableRecord
100
AcDbTextStyleTableRecord
  2
Standard
 70
     0
 40
0.0
 41
1.0
 50
0.0
 71
     0
 42
2.5
  3
txt
  4

  0
ENDTAB
  0
TABLE
  2
VIEW
  5
6
330
0
100
AcDbSymbolTable
 70
     0
  0
ENDTAB
  0
TABLE
  2
UCS
  5
7
330
0
100
AcDbSymbolTable
 70
     0
  0
ENDTAB
  0
TABLE
  2
APPID
  5
9
330
0
100
AcDbSymbolTable
 70
     1
  0
APPID
  5
12
330
9
100
AcDbSymbolTableRecord
100
AcDbRegAppTableRecord
  2
ACAD
 70
     0
  0
ENDTAB
  0
TABLE
  2
DIMSTYLE
  5
A
330
0
100
AcDbSymbolTable
 70
     1
100
AcDbDimStyleTable
  0
DIMSTYLE
105
27
330
A
100
AcDbSymbolTableRecord
100
AcDbDimStyleTableRecord
  2
ISO-25
 70
     0
 41
2.5
 42
0.625
 43
3.75
 44
1.25
 73
     0
 74
     0
 77
     1
 78
     8
140
2.5
141
2.5
143
0.03937007874016
147
0.625
171
     3
172
     1
178
     0
271
     2
272
     2
274
     3
278
    44
283
     0
284
     8
340
11
  0
ENDTAB
  0
TABLE
  2
BLOCK_RECORD
  5
1
330
0
100
AcDbSymbolTable
 70
     1
  0
BLOCK_RECORD
  5
1F
330
1
100
AcDbSymbolTableRecord
100
AcDbBlockTableRecord
  2
*Model_Space
340
22
 70
     0
280
     1
281
     0
  0
BLOCK_RECORD
  5
1B
330
1
100
AcDbSymbolTableRecord
100
AcDbBlockTableRecord
  2
*Paper_Space
340
1E
 70
     0
280
     1
281
     0
  0
BLOCK_RECORD
  5
23
330
1
100
AcDbSymbolTableRecord
100
AcDbBlockTableRecord
  2
*Paper_Space0
340
26
 70
     0
280
     1
281
     0
  0
ENDTAB
  0
ENDSEC
  0
SECTION
  2
BLOCKS
  0
BLOCK
  5
20
330
1F
100
AcDbEntity
  8
0
100
AcDbBlockBegin
  2
*Model_Space
 70
     0
 10
0.0
 20
0.0
 30
0.0
  3
*Model_Space
  1

  0
ENDBLK
  5
21
330
1F
100
AcDbEntity
  8
0
100
AcDbBlockEnd
  0
BLOCK
  5
1C
330
1B
100
AcDbEntity
 67
     1
  8
0
100
AcDbBlockBegin
  2
*Paper_Space
 70
     0
 10
0.0
 20
0.0
 30
0.0
  3
*Paper_Space
  1

  0
ENDBLK
  5
1D
330
1B
100
AcDbEntity
 67
     1
  8
0
100
AcDbBlockEnd
  0
BLOCK
  5
24
330
23
100
AcDbEntity
  8
0
100
AcDbBlockBegin
  2
*Paper_Space0
 70
     0
 10
0.0
 20
0.0
 30
0.0
  3
*Paper_Space0
  1

  0
ENDBLK
  5
25
330
23
100
AcDbEntity
  8
0
100
AcDbBlockEnd
  0
ENDSEC
  0
SECTION
  2
ENTITIES
  0
LINE
  5
42
330
1F
100
AcDbEntity
  8
0-0
  6
Continuous
 62
    92
370
    13
100
AcDbLine
 10
-1544.066101736635
 20
-1022.07149554219
 30
0.0
 11
-1574.066101736635
 21
-1022.07149554219
 31
0.0
  0
LINE
  5
43
330
1F
100
AcDbEntity
  8
0-0
  6
Continuous
 62
    92
370
    13
100
AcDbLine
 10
1659.933898263365
 20
-1022.07149554219
 30
0.0
 11
1629.933898263365
 21
-1022.07149554219
 31
0.0
  0
LINE
  5
44
330
1F
100
AcDbEntity
  8
0-0
  6
Continuous
 62
    92
370
    13
100
AcDbLine
 10
822.9338982633653
 20
-1022.071495542191
 30
0.0
 11
852.9338982633653
 21
-1022.071495542191
 31
0.0
  0
LINE
  5
45
330
1F
100
AcDbEntity
  8
0-0
  6
Continuous
 62
    92
370
    13
100
AcDbLine
 10
-767.0661017366364
 20
-1022.071495542191
 30
0.0
 11
-737.0661017366364
 21
-1022.071495542191
 31
0.0
  0
LINE
  5
46
330
1F
100
AcDbEntity
  8
0-0
  6
Continuous
 62
    92
370
    13
100
AcDbLine
 10
852.9338982633636
 20
-1014.071495542192
 30
0.0
 11
42.93389826336366
 21
-1014.071495542192
 31
0.0
  0
LINE
  5
47
330
1F
100
AcDbEntity
  8
0-0
  6
Continuous
 62
    92
370
    13
100
AcDbLine
 10
-767.0661017366364
 20
-1014.071495542192
 30
0.0
 11
42.93389826336366
 21
-1014.071495542192
 31
0.0
  0
LINE
  5
48
330
1F
100
AcDbEntity
  8
0-0
  6
Continuous
 62
     7
370
     9
100
AcDbLine
 10
78.93389826336374
 20
-26.97149554219081
 30
0.0
 11
78.93389826336374
 21
-86.17149554218983
 31
0.0
  0
LINE
  5
49
330
1F
100
AcDbEntity
  8
0-0
  6
Continuous
 62
     7
370
     9
100
AcDbLine
 10
108.9338982633637
 20
-86.17149554218983
 30
0.0
 11
108.9338982633637
 21
-26.97149554219081
 31
0.0
  0
ARC
  5
4A
330
1F
100
AcDbEntity
  8
0-0
  6
Continuous
 62
     7
370
     9
100
AcDbCircle
 10
93.93389826336374
 20
-26.97149554219081
 30
0.0
 40
15.0
100
AcDbArc
 50
0.0
 51
180.0
  0
ARC
  5
4B
330
1F
100
AcDbEntity
  8
0-0
  6
Continuous
 62
     7
370
     9
100
AcDbCircle
 10
93.93389826336374
 20
-86.17149554218983
 30
0.0
 40
15.0
100
AcDbArc
 50
180.0
 51
0.0
  0
ARC
  5
4C
330
1F
100
AcDbEntity
  8
0-0
  6
Continuous
 62
    92
370
    13
100
AcDbCircle
 10
74.4338982633623
 20
-116.0714955421899
 30
0.0
 40
1.5
100
AcDbArc
 50
180.0
 51
270.0
  0
LINE
  5
4D
330
1F
100
AcDbEntity
  8
0-0
  6
Continuous
 62
    92
370
    13
100
AcDbLine
 10
72.93389826336366
 20
-116.0714955421899
 30
0.0
 11
72.93389826336366
 21
2.928504457809282
 31
0.0
  0
LINE
  5
4E
330
1F
100
AcDbEntity
  8
0-0
  6
Continuous
 62
    92
370
    13
100
AcDbLine
 10
74.4338982633623
 20
-117.5714955421928
 30
0.0
 11
113.4338982633643
 21
-117.5714955421928
 31
0.0
  0
ARC
  5
4F
330
1F
100
AcDbEntity
  8
0-0
  6
Continuous
 62
    92
370
    13
100
AcDbCircle
 10
113.4338982633643
 20
-116.0714955421899
 30
0.0
 40
1.5
100
AcDbArc
 50
270.0
 51
0.0
  0
LINE
  5
50
330
1F
100
AcDbEntity
  8
0-0
  6
Continuous
 62
    92
370
    13
100
AcDbLine
 10
114.9338982633647
 20
-116.0714955421899
 30
0.0
 11
114.9338982633647
 21
2.928504457809282
 31
0.0
  0
ARC
  5
51
330
1F
100
AcDbEntity
  8
0-0
  6
Continuous
 62
    92
370
    13
100
AcDbCircle
 10
113.4338982633643
 20
2.928504457809282
 30
0.0
 40
1.5
100
AcDbArc
 50
0.0
 51
90.00000000000001
  0
LINE
  5
52
330
1F
100
AcDbEntity
  8
0-0
  6
Continuous
 62
    92
370
    13
100
AcDbLine
 10
113.4338982633643
 20
4.428504457809623
 30
0.0
 11
74.4338982633623
 21
4.428504457809623
 31
0.0
  0
ARC
  5
53
330
1F
100
AcDbEntity
  8
0-0
  6
Continuous
 62
    92
370
    13
100
AcDbCircle
 10
74.4338982633623
 20
2.928504457809282
 30
0.0
 40
1.5
100
AcDbArc
 50
90.0
 51
180.0
  0
LINE
  5
54
330
1F
100
AcDbEntity
  8
0-0
  6
Continuous
 62
     7
370
     9
100
AcDbLine
 10
-23.06610173663429
 20
-26.97149554219081
 30
0.0
 11
-23.06610173663429
 21
-86.17149554218983
 31
0.0
  0
LINE
  5
55
330
1F
100
AcDbEntity
  8
0-0
  6
Continuous
 62
     7
370
     9
100
AcDbLine
 10
6.933898263365705
 20
-86.17149554218983
 30
0.0
 11
6.933898263365705
 21
-26.97149554219081
 31
0.0
  0
ARC
  5
56
330
1F
100
AcDbEntity
  8
0-0
  6
Continuous
 62
     7
370
     9
100
AcDbCircle
 10
-8.066101736634295
 20
-26.97149554219081
 30
0.0
 40
15.0
100
AcDbArc
 50
0.0
 51
180.0
  0
ARC
  5
57
330
1F
100
AcDbEntity
  8
0-0
  6
Continuous
 62
     7
370
     9
100
AcDbCircle
 10
-8.066101736634295
 20
-86.17149554218983
 30
0.0
 40
15.0
100
AcDbArc
 50
180.0
 51
0.0
  0
ARC
  5
58
330
1F
100
AcDbEntity
  8
0-0
  6
Continuous
 62
    92
370
    13
100
AcDbCircle
 10
-27.56610173663361
 20
-116.0714955421899
 30
0.0
 40
1.5
100
AcDbArc
 50
180.0
 51
270.0
  0
LINE
  5
59
330
1F
100
AcDbEntity
  8
0-0
  6
Continuous
 62
    92
370
    13
100
AcDbLine
 10
-29.06610173663353
 20
-116.0714955421899
 30
0.0
 11
-29.06610173663353
 21
2.928504457809282
 31
0.0
  0
LINE
  5
5A
330
1F
100
AcDbEntity
  8
0-0
  6
Continuous
 62
    92
370
    13
100
AcDbLine
 10
-27.56610173663361
 20
-117.5714955421928
 30
0.0
 11
11.43389826336502
 21
-117.5714955421928
 31
0.0
  0
ARC
  5
5B
330
1F
100
AcDbEntity
  8
0-0
  6
Continuous
 62
    92
370
    13
100
AcDbCircle
 10
11.43389826336502
 20
-116.0714955421899
 30
0.0
 40
1.5
100
AcDbArc
 50
270.0
 51
0.0
  0
LINE
  5
5C
330
1F
100
AcDbEntity
  8
0-0
  6
Continuous
 62
    92
370
    13
100
AcDbLine
 10
12.93389826336536
 20
-116.0714955421899
 30
0.0
 11
12.93389826336536
 21
2.928504457809282
 31
0.0
  0
ARC
  5
5D
330
1F
100
AcDbEntity
  8
0-0
  6
Continuous
 62
    92
370
    13
100
AcDbCircle
 10
11.43389826336502
 20
2.928504457809282
 30
0.0
 40
1.5
100
AcDbArc
 50
0.0
 51
90.00000000000001
  0
LINE
  5
5E
330
1F
100
AcDbEntity
  8
0-0
  6
Continuous
 62
    92
370
    13
100
AcDbLine
 10
11.43389826336502
 20
4.428504457809623
 30
0.0
 11
-27.56610173663361
 21
4.428504457809623
 31
0.0
  0
ARC
  5
5F
330
1F
100
AcDbEntity
  8
0-0
  6
Continuous
 62
    92
370
    13
100
AcDbCircle
 10
-27.56610173663361
 20
2.928504457809282
 30
0.0
 40
1.5
100
AcDbArc
 50
90.0
 51
180.0
  0
LINE
  5
60
330
1F
100
AcDbEntity
  8
0-0
  6
Continuous
 62
    92
370
    13
100
AcDbLine
 10
852.9338982633653
 20
-1014.071495542192
 30
0.0
 11
852.9338982633653
 21
-1022.071495542191
 31
0.0
  0
LINE
  5
61
330
1F
100
AcDbEntity
  8
0-0
  6
Continuous
 62
    92
370
    13
100
AcDbLine
 10
822.9338982633653
 20
-1014.071495542192
 30
0.0
 11
822.9338982633653
 21
-1022.071495542191
 31
0.0
  0
LINE
  5
62
330
1F
100
AcDbEntity
  8
0-0
  6
Continuous
 62
    92
370
    13
100
AcDbLine
 10
-737.0661017366364
 20
-1014.071495542192
 30
0.0
 11
-737.0661017366364
 21
-1022.071495542191
 31
0.0
  0
LINE
  5
63
330
1F
100
AcDbEntity
  8
0-0
  6
Continuous
 62
    92
370
    13
100
AcDbLine
 10
-767.0661017366364
 20
-1014.071495542192
 30
0.0
 11
-767.0661017366364
 21
-1022.071495542191
 31
0.0
  0
LINE
  5
64
330
1F
100
AcDbEntity
  8
0-0
  6
Continuous
 62
    92
370
    13
100
AcDbLine
 10
-1544.066101736635
 20
1182.928504457811
 30
0.0
 11
1629.933898263365
 21
1182.928504457811
 31
0.0
  0
LINE
  5
65
330
1F
100
AcDbEntity
  8
0-0
  6
Continuous
 62
    92
370
    13
100
AcDbLine
 10
-1574.066101736635
 20
-1022.07149554219
 30
0.0
 11
-1574.066101736635
 21
1212.928504457811
 31
0.0
  0
LINE
  5
66
330
1F
100
AcDbEntity
  8
0-0
  6
Continuous
 62
    92
370
    13
100
AcDbLine
 10
1659.933898263365
 20
-1022.07149554219
 30
0.0
 11
1659.933898263365
 21
1212.928504457811
 31
0.0
  0
LINE
  5
67
330
1F
100
AcDbEntity
  8
0-0
  6
Continuous
 62
    92
370
    13
100
AcDbLine
 10
-1574.066101736635
 20
1212.928504457811
 30
0.0
 11
1659.933898263365
 21
1212.928504457811
 31
0.0
  0
LINE
  5
68
330
1F
100
AcDbEntity
  8
0-0
  6
Continuous
 62
    92
370
    13
100
AcDbLine
 10
-1544.066101736635
 20
-1022.07149554219
 30
0.0
 11
-1544.066101736635
 21
1212.928504457811
 31
0.0
  0
LINE
  5
69
330
1F
100
AcDbEntity
  8
0-0
  6
Continuous
 62
    92
370
    13
100
AcDbLine
 10
1629.933898263365
 20
-1022.07149554219
 30
0.0
 11
1629.933898263365
 21
1212.928504457811
 31
0.0
  0
LINE
  5
6A
330
1F
100
AcDbEntity
  8
0-0
  6
Continuous
 62
    92
370
    13
100
AcDbLine
 10
852.9338982633636
 20
1168.92850445781
 30
0.0
 11
42.93389826336366
 21
1168.92850445781
 31
0.0
  0
LINE
  5
6B
330
1F
100
AcDbEntity
  8
0-0
  6
JWW_DASHED1
 62
   120
370
     5
100
AcDbLine
 10
822.9338982633636
 20
-1014.071495542192
 30
0.0
 11
822.9338982633636
 21
1168.92850445781
 31
0.0
  0
LINE
  5
6C
330
1F
100
AcDbEntity
  8
0-0
  6
Continuous
 62
    92
370
    13
100
AcDbLine
 10
852.9338982633636
 20
-1014.071495542192
 30
0.0
 11
852.9338982633636
 21
1168.92850445781
 31
0.0
  0
LINE
  5
6D
330
1F
100
AcDbEntity
  8
0-0
  6
Continuous
 62
    92
370
    13
100
AcDbLine
 10
42.93389826336366
 20
-1014.071495542192
 30
0.0
 11
42.93389826336366
 21
1168.92850445781
 31
0.0
  0
LINE
  5
6E
330
1F
100
AcDbEntity
  8
0-0
  6
Continuous
 62
    92
370
    13
100
AcDbLine
 10
-767.0661017366364
 20
1168.92850445781
 30
0.0
 11
42.93389826336366
 21
1168.92850445781
 31
0.0
  0
LINE
  5
6F
330
1F
100
AcDbEntity
  8
0-0
  6
JWW_DASHED1
 62
   120
370
     5
100
AcDbLine
 10
-737.0661017366364
 20
-1014.071495542192
 30
0.0
 11
-737.0661017366364
 21
1168.92850445781
 31
0.0
  0
LINE
  5
70
330
1F
100
AcDbEntity
  8
0-0
  6
Continuous
 62
    92
370
    13
100
AcDbLine
 10
-767.0661017366364
 20
-1014.071495542192
 30
0.0
 11
-767.0661017366364
 21
1168.92850445781
 31
0.0
  0
LINE
  5
71
330
1F
100
AcDbEntity
  8
0-0
  6
JWW_DASHED1
 62
   120
370
     5
100
AcDbLine
 10
-737.0661017366347
 20
-1014.071495542192
 30
0.0
 11
-737.0661017366347
 21
1182.928504457811
 31
0.0
  0
LINE
  5
72
330
1F
100
AcDbEntity
  8
0-0
  6
JWW_DASHED1
 62
   120
370
     5
100
AcDbLine
 10
-767.0661017366347
 20
-1014.071495542192
 30
0.0
 11
-767.0661017366347
 21
1182.928504457811
 31
0.0
  0
LINE
  5
73
330
1F
100
AcDbEntity
  8
0-0
  6
JWW_DASHED1
 62
   120
370
     5
100
AcDbLine
 10
852.9338982633653
 20
-1014.071495542192
 30
0.0
 11
852.9338982633653
 21
1182.928504457811
 31
0.0
  0
LINE
  5
74
330
1F
100
AcDbEntity
  8
0-0
  6
JWW_DASHED1
 62
   120
370
     5
100
AcDbLine
 10
822.9338982633653
 20
-1014.071495542192
 30
0.0
 11
822.9338982633653
 21
1182.928504457811
 31
0.0
  0
LINE
  5
75
330
1F
100
AcDbEntity
  8
0-0
  6
Continuous
 62
     7
370
     9
100
AcDbLine
 10
-381.0661017366386
 20
-1006.071495542192
 30
0.0
 11
-343.0661017366383
 21
-1006.071495542192
 31
0.0
  0
LINE
  5
76
330
1F
100
AcDbEntity
  8
0-0
  6
JWW_DASHED1
 62
   120
370
     5
100
AcDbLine
 10
-381.0661017366386
 20
-969.2741963807786
 30
0.0
 11
-343.0661017366417
 21
-931.2741963807784
 31
0.0
  0
LINE
  5
77
330
1F
100
AcDbEntity
  8
0-0
  6
JWW_DASHED1
 62
   120
370
     5
100
AcDbLine
 10
-381.0661017366386
 20
-959.3747014456168
 30
0.0
 11
-343.0661017366383
 21
-921.3747014456138
 31
0.0
  0
LINE
  5
78
330
1F
100
AcDbEntity
  8
0-0
  6
JWW_DASHED1
 62
   120
370
     5
100
AcDbLine
 10
-381.0661017366386
 20
-949.4752065103982
 30
0.0
 11
-343.0661017366315
 21
-911.4752065103899
 31
0.0
  0
LINE
  5
79
330
1F
100
AcDbEntity
  8
0-0
  6
JWW_DASHED1
 62
   120
370
     5
100
AcDbLine
 10
-381.0661017366386
 20
-939.575711575186
 30
0.0
 11
-343.0661017366383
 21
-901.5757115751816
 31
0.0
  0
LINE
  5
7A
330
1F
100
AcDbEntity
  8
0-0
  6
JWW_DASHED1
 62
   120
370
     5
100
AcDbLine
 10
-381.0661017366386
 20
-929.6762166400174
 30
0.0
 11
-343.0661017366349
 21
-891.6762166400168
 31
0.0
  0
LINE
  5
7B
330
1F
100
AcDbEntity
  8
0-0
  6
JWW_DASHED1
 62
   120
370
     5
100
AcDbLine
 10
-381.0661017366386
 20
-919.7767217048034
 30
0.0
 11
-343.0661017366451
 21
-881.7767217048086
 31
0.0
  0
LINE
  5
7C
330
1F
100
AcDbEntity
  8
0-0
  6
JWW_DASHED1
 62
   120
370
     5
100
AcDbLine
 10
-381.0661017366386
 20
-909.8772267695849
 30
0.0
 11
-343.0661017366349
 21
-871.8772267695847
 31
0.0
  0
LINE
  5
7D
330
1F
100
AcDbEntity
  8
0-0
  6
JWW_DASHED1
 62
   120
370
     5
100
AcDbLine
 10
-381.0661017366386
 20
-899.9777318344238
 30
0.0
 11
-343.0661017366315
 21
-861.9777318344197
 31
0.0
  0
LINE
  5
7E
330
1F
100
AcDbEntity
  8
0-0
  6
JWW_DASHED1
 62
   120
370
     5
100
AcDbLine
 10
-381.0661017366386
 20
-890.07823689921
 30
0.0
 11
-343.0661017366417
 21
-852.0782368992117
 31
0.0
  0
LINE
  5
7F
330
1F
100
AcDbEntity
  8
0-0
  6
JWW_DASHED1
 62
   120
370
     5
100
AcDbLine
 10
-381.0661017366386
 20
-880.1787419639926
 30
0.0
 11
-343.0661017366315
 21
-842.1787419639877
 31
0.0
  0
LINE
  5
80
330
1F
100
AcDbEntity
  8
0-0
  6
JWW_DASHED1
 62
   120
370
     5
100
AcDbLine
 10
-381.0661017366386
 20
-870.2792470288299
 30
0.0
 11
-343.0661017366451
 21
-832.2792470288387
 31
0.0
  0
LINE
  5
81
330
1F
100
AcDbEntity
  8
0-0
  6
JWW_DASHED1
 62
   120
370
     5
100
AcDbLine
 10
-381.0661017366386
 20
-860.3797520936164
 30
0.0
 11
-343.0661017366383
 21
-822.379752093615
 31
0.0
  0
LINE
  5
82
330
1F
100
AcDbEntity
  8
0-0
  6
JWW_DASHED1
 62
   120
370
     5
100
AcDbLine
 10
-381.0661017366386
 20
-850.4802571584023
 30
0.0
 11
-343.0661017366315
 21
-812.480257158391
 31
0.0
  0
LINE
  5
83
330
1F
100
AcDbEntity
  8
0-0
  6
JWW_DASHED1
 62
   120
370
     5
100
AcDbLine
 10
-381.0661017366386
 20
-840.580762223239
 30
0.0
 11
-343.0661017366451
 21
-802.5807622232419
 31
0.0
  0
LINE
  5
84
330
1F
100
AcDbEntity
  8
0-0
  6
JWW_DASHED1
 62
   120
370
     5
100
AcDbLine
 10
-381.0661017366386
 20
-830.6812672880268
 30
0.0
 11
-343.0661017366383
 21
-792.6812672880178
 31
0.0
  0
LINE
  5
85
330
1F
100
AcDbEntity
  8
0-0
  6
JWW_DASHED1
 62
   120
370
     5
100
AcDbLine
 10
-381.0661017366386
 20
-820.7817723528536
 30
0.0
 11
-343.0661017366315
 21
-782.7817723528533
 31
0.0
  0
LINE
  5
86
330
1F
100
AcDbEntity
  8
0-0
  6
JWW_DASHED1
 62
   120
370
     5
100
AcDbLine
 10
-381.0661017366386
 20
-810.8822774176385
 30
0.0
 11
-343.0661017366417
 21
-772.8822774176448
 31
0.0
  0
LINE
  5
87
330
1F
100
AcDbEntity
  8
0-0
  6
JWW_DASHED1
 62
   120
370
     5
100
AcDbLine
 10
-381.0661017366386
 20
-800.9827824824263
 30
0.0
 11
-343.0661017366349
 21
-762.9827824824212
 31
0.0
  0
LINE
  5
88
330
1F
100
AcDbEntity
  8
0-0
  6
JWW_DASHED1
 62
   120
370
     5
100
AcDbLine
 10
-381.0661017366386
 20
-791.0832875472645
 30
0.0
 11
-343.0661017366315
 21
-753.083287547256
 31
0.0
  0
LINE
  5
89
330
1F
100
AcDbEntity
  8
0-0
  6
JWW_DASHED1
 62
   120
370
     5
100
AcDbLine
 10
-381.0661017366386
 20
-781.1837926120445
 30
0.0
 11
-343.0661017366383
 21
-743.1837926120481
 31
0.0
  0
LINE
  5
8A
330
1F
100
AcDbEntity
  8
0-0
  6
JWW_DASHED1
 62
   120
370
     5
100
AcDbLine
 10
-381.0661017366386
 20
-771.2842976768329
 30
0.0
 11
-343.0661017366315
 21
-733.2842976768242
 31
0.0
  0
LINE
  5
8B
330
1F
100
AcDbEntity
  8
0-0
  6
JWW_DASHED1
 62
   120
370
     5
100
AcDbLine
 10
-381.0661017366386
 20
-761.3848027416698
 30
0.0
 11
-343.0661017366451
 21
-723.384802741675
 31
0.0
  0
LINE
  5
8C
330
1F
100
AcDbEntity
  8
0-0
  6
JWW_DASHED1
 62
   120
370
     5
100
AcDbLine
 10
-381.0661017366386
 20
-751.4853078064556
 30
0.0
 11
-343.0661017366383
 21
-713.4853078064511
 31
0.0
  0
LINE
  5
8D
330
1F
100
AcDbEntity
  8
0-0
  6
JWW_DASHED1
 62
   120
370
     5
100
AcDbLine
 10
-381.0661017366386
 20
-741.5858128712403
 30
0.0
 11
-343.0661017366451
 21
-703.5858128712431
 31
0.0
  0
LINE
  5
8E
330
1F
100
AcDbEntity
  8
0-0
  6
JWW_DASHED1
 62
   120
370
     5
100
AcDbLine
 10
-381.0661017366386
 20
-731.6863179360764
 30
0.0
 11
-343.0661017366417
 21
-693.6863179360781
 31
0.0
  0
LINE
  5
8F
330
1F
100
AcDbEntity
  8
0-0
  6
JWW_DASHED1
 62
   120
370
     5
100
AcDbLine
 10
-381.0661017366386
 20
-721.7868230008618
 30
0.0
 11
-343.0661017366349
 21
-683.7868230008543
 31
0.0
  0
LINE
  5
90
330
1F
100
AcDbEntity
  8
0-0
  6
JWW_DASHED1
 62
   120
370
     5
100
AcDbLine
 10
-381.0661017366386
 20
-711.8873280656447
 30
0.0
 11
-343.0661017366417
 21
-673.887328065646
 31
0.0
  0
LINE
  5
91
330
1F
100
AcDbEntity
  8
0-0
  6
JWW_DASHED1
 62
   120
370
     5
100
AcDbLine
 10
-381.0661017366386
 20
-701.9878331304753
 30
0.0
 11
-343.0661017366383
 21
-663.9878331304812
 31
0.0
  0
LINE
  5
92
330
1F
100
AcDbEntity
  8
0-0
  6
JWW_DASHED1
 62
   120
370
     5
100
AcDbLine
 10
-381.0661017366386
 20
-692.0883381952685
 30
0.0
 11
-343.0661017366315
 21
-654.0883381952573
 31
0.0
  0
LINE
  5
93
330
1F
100
AcDbEntity
  8
0-0
  6
JWW_DASHED1
 62
   120
370
     5
100
AcDbLine
 10
-381.0661017366386
 20
-682.1888432600439
 30
0.0
 11
-343.0661017366383
 21
-644.1888432600492
 31
0.0
  0
LINE
  5
94
330
1F
100
AcDbEntity
  8
0-0
  6
JWW_DASHED1
 62
   120
370
     5
100
AcDbLine
 10
-381.0661017366386
 20
-672.2893483248859
 30
0.0
 11
-343.0661017366383
 21
-634.2893483248843
 31
0.0
  0
LINE
  5
95
330
1F
100
AcDbEntity
  8
0-0
  6
JWW_DASHED1
 62
   120
370
     5
100
AcDbLine
 10
-381.0661017366386
 20
-662.3898533896717
 30
0.0
 11
-343.0661017366315
 21
-624.3898533896604
 31
0.0
  0
LINE
  5
96
330
1F
100
AcDbEntity
  8
0-0
  6
JWW_DASHED1
 62
   120
370
     5
100
AcDbLine
 10
-381.0661017366386
 20
-652.4903584544538
 30
0.0
 11
-343.0661017366383
 21
-614.4903584544521
 31
0.0
  0
LINE
  5
97
330
1F
100
AcDbEntity
  8
0-0
  6
JWW_DASHED1
 62
   120
370
     5
100
AcDbLine
 10
-381.0661017366386
 20
-642.5908635192925
 30
0.0
 11
-343.0661017366349
 21
-604.5908635192874
 31
0.0
  0
LINE
  5
98
330
1F
100
AcDbEntity
  8
0-0
  6
JWW_DASHED1
 62
   120
370
     5
100
AcDbLine
 10
-381.0661017366386
 20
-632.6913685840732
 30
0.0
 11
-343.0661017366417
 21
-594.6913685840793
 31
0.0
  0
LINE
  5
99
330
1F
100
AcDbEntity
  8
0-0
  6
JWW_DASHED1
 62
   120
370
     5
100
AcDbLine
 10
-381.0661017366386
 20
-622.7918736488605
 30
0.0
 11
-343.0661017366349
 21
-584.7918736488554
 31
0.0
  0
LINE
  5
9A
330
1F
100
AcDbEntity
  8
0-0
  6
JWW_DASHED1
 62
   120
370
     5
100
AcDbLine
 10
-381.0661017366386
 20
-612.8923787136988
 30
0.0
 11
-343.0661017366315
 21
-574.8923787136904
 31
0.0
  0
LINE
  5
9B
330
1F
100
AcDbEntity
  8
0-0
  6
JWW_DASHED1
 62
   120
370
     5
100
AcDbLine
 10
-381.0661017366386
 20
-602.9928837784795
 30
0.0
 11
-343.0661017366383
 21
-564.9928837784823
 31
0.0
  0
LINE
  5
9C
330
1F
100
AcDbEntity
  8
0-0
  6
JWW_DASHED1
 62
   120
370
     5
100
AcDbLine
 10
-381.0661017366386
 20
-593.0933888432595
 30
0.0
 11
-343.0661017366315
 21
-555.0933888432587
 31
0.0
  0
LINE
  5
9D
330
1F
100
AcDbEntity
  8
0-0
  6
JWW_DASHED1
 62
   120
370
     5
100
AcDbLine
 10
-381.0661017366386
 20
-583.1938939081069
 30
0.0
 11
-343.0661017366451
 21
-545.1938939081093
 31
0.0
  0
LINE
  5
9E
330
1F
100
AcDbEntity
  8
0-0
  6
JWW_DASHED1
 62
   120
370
     5
100
AcDbLine
 10
-381.0661017366386
 20
-573.2943989728899
 30
0.0
 11
-343.0661017366383
 21
-535.2943989728855
 31
0.0
  0
LINE
  5
9F
330
1F
100
AcDbEntity
  8
0-0
  6
JWW_DASHED1
 62
   120
370
     5
100
AcDbLine
 10
-381.0661017366386
 20
-563.3949040376701
 30
0.0
 11
-343.0661017366315
 21
-525.3949040376613
 31
0.0
  0
LINE
  5
A0
330
1F
100
AcDbEntity
  8
0-0
  6
JWW_DASHED1
 62
   120
370
     5
100
AcDbLine
 10
-381.0661017366386
 20
-553.4954091025098
 30
0.0
 11
-343.0661017366451
 21
-515.4954091025122
 31
0.0
  0
LINE
  5
A1
330
1F
100
AcDbEntity
  8
0-0
  6
JWW_DASHED1
 62
   120
370
     5
100
AcDbLine
 10
-381.0661017366386
 20
-543.5959141672903
 30
0.0
 11
-343.0661017366349
 21
-505.5959141672882
 31
0.0
  0
LINE
  5
A2
330
1F
100
AcDbEntity
  8
0-0
  6
JWW_DASHED1
 62
   120
370
     5
100
AcDbLine
 10
-381.0661017366386
 20
-533.6964192320756
 30
0.0
 11
-343.0661017366451
 21
-495.6964192320804
 31
0.0
  0
LINE
  5
A3
330
1F
100
AcDbEntity
  8
0-0
  6
JWW_DASHED1
 62
   120
370
     5
100
AcDbLine
 10
-381.0661017366386
 20
-523.79692429691
 30
0.0
 11
-343.0661017366383
 21
-485.7969242969152
 31
0.0
  0
LINE
  5
A4
330
1F
100
AcDbEntity
  8
0-0
  6
JWW_DASHED1
 62
   120
370
     5
100
AcDbLine
 10
-381.0661017366386
 20
-513.8974293616958
 30
0.0
 11
-343.0661017366315
 21
-475.897429361692
 31
0.0
  0
LINE
  5
A5
330
1F
100
AcDbEntity
  8
0-0
  6
JWW_DASHED1
 62
   120
370
     5
100
AcDbLine
 10
-381.0661017366386
 20
-503.9979344264816
 30
0.0
 11
-343.0661017366417
 21
-465.9979344264838
 31
0.0
  0
LINE
  5
A6
330
1F
100
AcDbEntity
  8
0-0
  6
JWW_DASHED1
 62
   120
370
     5
100
AcDbLine
 10
-381.0661017366386
 20
-494.0984394913198
 30
0.0
 11
-343.0661017366383
 21
-456.0984394913186
 31
0.0
  0
LINE
  5
A7
330
1F
100
AcDbEntity
  8
0-0
  6
JWW_DASHED1
 62
   120
370
     5
100
AcDbLine
 10
-381.0661017366386
 20
-484.1989445561005
 30
0.0
 11
-343.0661017366451
 21
-446.1989445561103
 31
0.0
  0
LINE
  5
A8
330
1F
100
AcDbEntity
  8
0-0
  6
JWW_DASHED1
 62
   120
370
     5
100
AcDbLine
 10
-381.0661017366386
 20
-474.299449620888
 30
0.0
 11
-343.0661017366383
 21
-436.2994496208867
 31
0.0
  0
LINE
  5
A9
330
1F
100
AcDbEntity
  8
0-0
  6
JWW_DASHED1
 62
   120
370
     5
100
AcDbLine
 10
-381.0661017366386
 20
-464.3999546857258
 30
0.0
 11
-343.0661017366349
 21
-426.3999546857219
 31
0.0
  0
LINE
  5
AA
330
1F
100
AcDbEntity
  8
0-0
  6
JWW_DASHED1
 62
   120
370
     5
100
AcDbLine
 10
-381.0661017366386
 20
-454.5004597505124
 30
0.0
 11
-343.0661017366451
 21
-416.5004597505133
 31
0.0
  0
LINE
  5
AB
330
1F
100
AcDbEntity
  8
0-0
  6
JWW_DASHED1
 62
   120
370
     5
100
AcDbLine
 10
-381.0661017366386
 20
-444.6009648152918
 30
0.0
 11
-343.0661017366383
 21
-406.6009648152897
 31
0.0
  0
LINE
  5
AC
330
1F
100
AcDbEntity
  8
0-0
  6
JWW_DASHED1
 62
   120
370
     5
100
AcDbLine
 10
-381.0661017366386
 20
-434.7014698801257
 30
0.0
 11
-343.0661017366315
 21
-396.7014698801249
 31
0.0
  0
LINE
  5
AD
330
1F
100
AcDbEntity
  8
0-0
  6
JWW_DASHED1
 62
   120
370
     5
100
AcDbLine
 10
-381.0661017366386
 20
-424.8019749449106
 30
0.0
 11
-343.0661017366417
 21
-386.8019749449171
 31
0.0
  0
LINE
  5
AE
330
1F
100
AcDbEntity
  8
0-0
  6
JWW_DASHED1
 62
   120
370
     5
100
AcDbLine
 10
-381.0661017366386
 20
-414.9024800096977
 30
0.0
 11
-343.0661017366349
 21
-376.902480009693
 31
0.0
  0
LINE
  5
AF
330
1F
100
AcDbEntity
  8
0-0
  6
JWW_DASHED1
 62
   120
370
     5
100
AcDbLine
 10
-381.0661017366386
 20
-405.0029850745368
 30
0.0
 11
-343.0661017366315
 21
-367.0029850745278
 31
0.0
  0
LINE
  5
B0
330
1F
100
AcDbEntity
  8
0-0
  6
JWW_DASHED1
 62
   120
370
     5
100
AcDbLine
 10
-381.0661017366386
 20
-395.103490139317
 30
0.0
 11
-343.0661017366383
 21
-357.10349013932
 31
0.0
  0
LINE
  5
B1
330
1F
100
AcDbEntity
  8
0-0
  6
JWW_DASHED1
 62
   120
370
     5
100
AcDbLine
 10
-381.0661017366386
 20
-385.2039952041049
 30
0.0
 11
-343.0661017366315
 21
-347.203995204096
 31
0.0
  0
LINE
  5
B2
330
1F
100
AcDbEntity
  8
0-0
  6
JWW_DASHED1
 62
   120
370
     5
100
AcDbLine
 10
-381.0661017366386
 20
-375.3045002689372
 30
0.0
 11
-343.0661017366383
 21
-337.3045002689415
 31
0.0
  0
LINE
  5
B3
330
1F
100
AcDbEntity
  8
0-0
  6
JWW_DASHED1
 62
   120
370
     5
100
AcDbLine
 10
-381.0661017366386
 20
-365.4050053337268
 30
0.0
 11
-343.0661017366383
 21
-327.405005333723
 31
0.0
  0
LINE
  5
B4
330
1F
100
AcDbEntity
  8
0-0
  6
JWW_DASHED1
 62
   120
370
     5
100
AcDbLine
 10
-381.0661017366386
 20
-355.505510398513
 30
0.0
 11
-343.0661017366451
 21
-317.5055103985147
 31
0.0
  0
LINE
  5
B5
330
1F
100
AcDbEntity
  8
0-0
  6
JWW_DASHED1
 62
   120
370
     5
100
AcDbLine
 10
-381.0661017366386
 20
-345.6060154633486
 30
0.0
 11
-343.0661017366417
 21
-307.60601546335
 31
0.0
  0
LINE
  5
B6
330
1F
100
AcDbEntity
  8
0-0
  6
JWW_DASHED1
 62
   120
370
     5
100
AcDbLine
 10
-381.0661017366386
 20
-335.7065205281264
 30
0.0
 11
-343.0661017366349
 21
-297.7065205281259
 31
0.0
  0
LINE
  5
B7
330
1F
100
AcDbEntity
  8
0-0
  6
JWW_DASHED1
 62
   120
370
     5
100
AcDbLine
 10
-381.0661017366386
 20
-325.8070255929117
 30
0.0
 11
-343.0661017366417
 21
-287.8070255929181
 31
0.0
  0
LINE
  5
B8
330
1F
100
AcDbEntity
  8
0-0
  6
JWW_DASHED1
 62
   120
370
     5
100
AcDbLine
 10
-381.0661017366386
 20
-315.9075306577478
 30
0.0
 11
-343.0661017366383
 21
-277.9075306577529
 31
0.0
  0
LINE
  5
B9
330
1F
100
AcDbEntity
  8
0-0
  6
JWW_DASHED1
 62
   120
370
     5
100
AcDbLine
 10
-381.0661017366386
 20
-306.0080357225395
 30
0.0
 11
-343.0661017366315
 21
-268.0080357225289
 31
0.0
  0
LINE
  5
BA
330
1F
100
AcDbEntity
  8
0-0
  6
JWW_DASHED1
 62
   120
370
     5
100
AcDbLine
 10
-381.0661017366386
 20
-296.1085407873159
 30
0.0
 11
-343.0661017366383
 21
-258.1085407873211
 31
0.0
  0
LINE
  5
BB
330
1F
100
AcDbEntity
  8
0-0
  6
JWW_DASHED1
 62
   120
370
     5
100
AcDbLine
 10
-381.0661017366386
 20
-286.2090458521579
 30
0.0
 11
-343.0661017366383
 21
-248.2090458521559
 31
0.0
  0
LINE
  5
BC
330
1F
100
AcDbEntity
  8
0-0
  6
JWW_DASHED1
 62
   120
370
     5
100
AcDbLine
 10
-381.0661017366386
 20
-276.3095509169446
 30
0.0
 11
-343.0661017366315
 21
-238.3095509169318
 31
0.0
  0
LINE
  5
BD
330
1F
100
AcDbEntity
  8
0-0
  6
JWW_DASHED1
 62
   120
370
     5
100
AcDbLine
 10
-381.0661017366386
 20
-266.4100559817261
 30
0.0
 11
-343.0661017366383
 21
-228.410055981724
 31
0.0
  0
LINE
  5
BE
330
1F
100
AcDbEntity
  8
0-0
  6
JWW_DASHED1
 62
   120
370
     5
100
AcDbLine
 10
-381.0661017366386
 20
-256.5105610465644
 30
0.0
 11
-343.0661017366349
 21
-218.5105610465588
 31
0.0
  0
LINE
  5
BF
330
1F
100
AcDbEntity
  8
0-0
  6
JWW_DASHED1
 62
   120
370
     5
100
AcDbLine
 10
-381.0661017366386
 20
-246.6110661113446
 30
0.0
 11
-343.0661017366417
 21
-208.611066111351
 31
0.0
  0
LINE
  5
C0
330
1F
100
AcDbEntity
  8
0-0
  6
JWW_DASHED1
 62
   120
370
     5
100
AcDbLine
 10
-381.0661017366386
 20
-236.7115711761606
 30
0.0
 11
-343.0661017366383
 21
-198.7115711761568
 31
0.0
  0
LINE
  5
C1
330
1F
100
AcDbEntity
  8
0-0
  6
JWW_DASHED1
 62
   120
370
     5
100
AcDbLine
 10
-381.0661017366386
 20
-226.812076240963
 30
0.0
 11
-343.0661017366315
 21
-188.8120762409622
 31
0.0
  0
LINE
  5
C2
330
1F
100
AcDbEntity
  8
0-0
  6
JWW_DASHED1
 62
   120
370
     5
100
AcDbLine
 10
-381.0661017366386
 20
-216.9125813057501
 30
0.0
 11
-343.0661017366383
 21
-178.9125813057544
 31
0.0
  0
LINE
  5
C3
330
1F
100
AcDbEntity
  8
0-0
  6
JWW_DASHED1
 62
   120
370
     5
100
AcDbLine
 10
-381.0661017366386
 20
-207.0130863705602
 30
0.0
 11
-343.0661017366349
 21
-169.0130863705598
 31
0.0
  0
LINE
  5
C4
330
1F
100
AcDbEntity
  8
0-0
  6
JWW_DASHED1
 62
   120
370
     5
100
AcDbLine
 10
-381.0661017366386
 20
-197.1135914353779
 30
0.0
 11
-343.0661017366451
 21
-159.1135914353809
 31
0.0
  0
LINE
  5
C5
330
1F
100
AcDbEntity
  8
0-0
  6
JWW_DASHED1
 62
   120
370
     5
100
AcDbLine
 10
-381.0661017366386
 20
-187.2140965001628
 30
0.0
 11
-343.0661017366383
 21
-149.2140965001569
 31
0.0
  0
LINE
  5
C6
330
1F
100
AcDbEntity
  8
0-0
  6
JWW_DASHED1
 62
   120
370
     5
100
AcDbLine
 10
-381.0661017366386
 20
-177.314601564993
 30
0.0
 11
-343.0661017366349
 21
-139.3146015649926
 31
0.0
  0
LINE
  5
C7
330
1F
100
AcDbEntity
  8
0-0
  6
JWW_DASHED1
 62
   120
370
     5
100
AcDbLine
 10
-381.0661017366386
 20
-167.415106629783
 30
0.0
 11
-343.0661017366451
 21
-129.4151066297839
 31
0.0
  0
LINE
  5
C8
330
1F
100
AcDbEntity
  8
0-0
  6
JWW_DASHED1
 62
   120
370
     5
100
AcDbLine
 10
-381.0661017366386
 20
-157.5156116945611
 30
0.0
 11
-343.0661017366349
 21
-119.5156116945607
 31
0.0
  0
LINE
  5
C9
330
1F
100
AcDbEntity
  8
0-0
  6
JWW_DASHED1
 62
   120
370
     5
100
AcDbLine
 10
-381.0661017366386
 20
-147.6161167593993
 30
0.0
 11
-343.0661017366315
 21
-109.6161167593955
 31
0.0
  0
LINE
  5
CA
330
1F
100
AcDbEntity
  8
0-0
  6
JWW_DASHED1
 62
   120
370
     5
100
AcDbLine
 10
-381.0661017366386
 20
-137.7166218241847
 30
0.0
 11
-343.0661017366417
 21
-99.71662182418768
 31
0.0
  0
LINE
  5
CB
330
1F
100
AcDbEntity
  8
0-0
  6
JWW_DASHED1
 62
   120
370
     5
100
AcDbLine
 10
-381.0661017366386
 20
-127.8171268889675
 30
0.0
 11
-343.0661017366315
 21
-89.81712688896366
 31
0.0
  0
LINE
  5
CC
330
1F
100
AcDbEntity
  8
0-0
  6
JWW_DASHED1
 62
   120
370
     5
100
AcDbLine
 10
-381.0661017366386
 20
-117.9176319538091
 30
0.0
 11
-343.0661017366315
 21
-79.91763195379846
 31
0.0
  0
LINE
  5
CD
330
1F
100
AcDbEntity
  8
0-0
  6
JWW_DASHED1
 62
   120
370
     5
100
AcDbLine
 10
-381.0661017366386
 20
-108.018137018591
 30
0.0
 11
-343.0661017366383
 21
-70.01813701859064
 31
0.0
  0
LINE
  5
CE
330
1F
100
AcDbEntity
  8
0-0
  6
JWW_DASHED1
 62
   120
370
     5
100
AcDbLine
 10
-381.0661017366386
 20
-98.11864208337724
 30
0.0
 11
-343.0661017366315
 21
-60.11864208336661
 31
0.0
  0
LINE
  5
CF
330
1F
100
AcDbEntity
  8
0-0
  6
JWW_DASHED1
 62
   120
370
     5
100
AcDbLine
 10
-381.0661017366386
 20
-88.21914714821034
 30
0.0
 11
-343.0661017366349
 21
-50.21914714820994
 31
0.0
  0
LINE
  5
D0
330
1F
100
AcDbEntity
  8
0-0
  6
JWW_DASHED1
 62
   120
370
     5
100
AcDbLine
 10
-381.0661017366386
 20
-78.3196522129991
 30
0.0
 11
-343.0661017366349
 21
-40.31965221299359
 31
0.0
  0
LINE
  5
D1
330
1F
100
AcDbEntity
  8
0-0
  6
JWW_DASHED1
 62
   120
370
     5
100
AcDbLine
 10
-381.0661017366386
 20
-68.42015727778275
 30
0.0
 11
-343.0661017366451
 21
-30.42015727778576
 31
0.0
  0
LINE
  5
D2
330
1F
100
AcDbEntity
  8
0-0
  6
JWW_DASHED1
 62
   120
370
     5
100
AcDbLine
 10
-381.0661017366386
 20
-58.52066234261414
 30
0.0
 11
-343.0661017366417
 21
-20.52066234262057
 31
0.0
  0
LINE
  5
D3
330
1F
100
AcDbEntity
  8
0-0
  6
JWW_DASHED1
 62
   120
370
     5
100
AcDbLine
 10
-381.0661017366386
 20
-48.62116740739822
 30
0.0
 11
-343.0661017366315
 21
-10.62116740739654
 31
0.0
  0
LINE
  5
D4
330
1F
100
AcDbEntity
  8
0-0
  6
JWW_DASHED1
 62
   120
370
     5
100
AcDbLine
 10
-381.0661017366386
 20
-38.72167247218229
 30
0.0
 11
-343.0661017366417
 21
-0.7216724721887147
 31
0.0
  0
LINE
  5
D5
330
1F
100
AcDbEntity
  8
0-0
  6
JWW_DASHED1
 62
   120
370
     5
100
AcDbLine
 10
-381.0661017366386
 20
-28.82217753702861
 30
0.0
 11
-343.0661017366383
 21
9.17782246297648
 31
0.0
  0
LINE
  5
D6
330
1F
100
AcDbEntity
  8
0-0
  6
JWW_DASHED1
 62
   120
370
     5
100
AcDbLine
 10
-381.0661017366386
 20
-18.92268260180799
 30
0.0
 11
-343.0661017366315
 21
19.07731739820008
 31
0.0
  0
LINE
  5
D7
330
1F
100
AcDbEntity
  8
0-0
  6
JWW_DASHED1
 62
   120
370
     5
100
AcDbLine
 10
-381.0661017366386
 20
-9.023187666588655
 30
0.0
 11
-343.0661017366383
 21
28.97681233340833
 31
0.0
  0
LINE
  5
D8
330
1F
100
AcDbEntity
  8
0-0
  6
JWW_DASHED1
 62
   120
370
     5
100
AcDbLine
 10
-381.0661017366386
 20
0.8763072685692919
 30
0.0
 11
-343.0661017366383
 21
38.8763072685731
 31
0.0
  0
LINE
  5
D9
330
1F
100
AcDbEntity
  8
0-0
  6
JWW_DASHED1
 62
   120
370
     5
100
AcDbLine
 10
-381.0661017366386
 20
10.77580220378564
 30
0.0
 11
-343.0661017366281
 21
48.77580220379713
 31
0.0
  0
LINE
  5
DA
330
1F
100
AcDbEntity
  8
0-0
  6
JWW_DASHED1
 62
   120
370
     5
100
AcDbLine
 10
-381.0661017366386
 20
20.67529713900157
 30
0.0
 11
-343.0661017366383
 21
58.67529713900538
 31
0.0
  0
LINE
  5
DB
330
1F
100
AcDbEntity
  8
0-0
  6
JWW_DASHED1
 62
   120
370
     5
100
AcDbLine
 10
-381.0661017366386
 20
30.57479207416293
 30
0.0
 11
-343.0661017366349
 21
68.57479207417015
 31
0.0
  0
LINE
  5
DC
330
1F
100
AcDbEntity
  8
0-0
  6
JWW_DASHED1
 62
   120
370
     5
100
AcDbLine
 10
-381.0661017366386
 20
40.47428700937971
 30
0.0
 11
-343.0661017366417
 21
78.4742870093784
 31
0.0
  0
LINE
  5
DD
330
1F
100
AcDbEntity
  8
0-0
  6
JWW_DASHED1
 62
   120
370
     5
100
AcDbLine
 10
-381.0661017366386
 20
50.3737819446016
 30
0.0
 11
-343.0661017366349
 21
88.373781944602
 31
0.0
  0
LINE
  5
DE
330
1F
100
AcDbEntity
  8
0-0
  6
JWW_DASHED1
 62
   120
370
     5
100
AcDbLine
 10
-381.0661017366386
 20
60.27327687975529
 30
0.0
 11
-343.0661017366315
 21
98.2732768797672
 31
0.0
  0
LINE
  5
DF
330
1F
100
AcDbEntity
  8
0-0
  6
JWW_DASHED1
 62
   120
370
     5
100
AcDbLine
 10
-381.0661017366386
 20
70.17277181498102
 30
0.0
 11
-343.0661017366383
 21
108.172771814975
 31
0.0
  0
LINE
  5
E0
330
1F
100
AcDbEntity
  8
0-0
  6
JWW_DASHED1
 62
   120
370
     5
100
AcDbLine
 10
-381.0661017366386
 20
80.07226675019439
 30
0.0
 11
-343.0661017366315
 21
118.072266750199
 31
0.0
  0
LINE
  5
E1
330
1F
100
AcDbEntity
  8
0-0
  6
JWW_DASHED1
 62
   120
370
     5
100
AcDbLine
 10
-381.0661017366386
 20
89.9717616853502
 30
0.0
 11
-343.0661017366451
 21
127.9717616853485
 31
0.0
  0
LINE
  5
E2
330
1F
100
AcDbEntity
  8
0-0
  6
JWW_DASHED1
 62
   120
370
     5
100
AcDbLine
 10
-381.0661017366386
 20
99.87125662057082
 30
0.0
 11
-343.0661017366383
 21
137.8712566205721
 31
0.0
  0
LINE
  5
E3
330
1F
100
AcDbEntity
  8
0-0
  6
JWW_DASHED1
 62
   120
370
     5
100
AcDbLine
 10
-381.0661017366386
 20
109.770751555785
 30
0.0
 11
-343.0661017366315
 21
147.7707515557957
 31
0.0
  0
LINE
  5
E4
330
1F
100
AcDbEntity
  8
0-0
  6
JWW_DASHED1
 62
   120
370
     5
100
AcDbLine
 10
-381.0661017366386
 20
119.6702464909511
 30
0.0
 11
-343.0661017366417
 21
157.6702464909455
 31
0.0
  0
LINE
  5
E5
330
1F
100
AcDbEntity
  8
0-0
  6
JWW_DASHED1
 62
   120
370
     5
100
AcDbLine
 10
-381.0661017366386
 20
129.5697414261636
 30
0.0
 11
-343.0661017366349
 21
167.5697414261691
 31
0.0
  0
LINE
  5
E6
330
1F
100
AcDbEntity
  8
0-0
  6
JWW_DASHED1
 62
   120
370
     5
100
AcDbLine
 10
-381.0661017366386
 20
139.4692363613821
 30
0.0
 11
-343.0661017366315
 21
177.4692363613867
 31
0.0
  0
LINE
  5
E7
330
1F
100
AcDbEntity
  8
0-0
  6
JWW_DASHED1
 62
   120
370
     5
100
AcDbLine
 10
-381.0661017366386
 20
149.3687312965443
 30
0.0
 11
-343.0661017366383
 21
187.3687312965421
 31
0.0
  0
LINE
  5
E8
330
1F
100
AcDbEntity
  8
0-0
  6
JWW_DASHED1
 62
   120
370
     5
100
AcDbLine
 10
-381.0661017366386
 20
159.2682262317649
 30
0.0
 11
-343.0661017366315
 21
197.2682262317657
 31
0.0
  0
LINE
  5
E9
330
1F
100
AcDbEntity
  8
0-0
  6
JWW_DASHED1
 62
   120
370
     5
100
AcDbLine
 10
-381.0661017366386
 20
169.1677211669723
 30
0.0
 11
-343.0661017366417
 21
207.167721166974
 31
0.0
  0
LINE
  5
EA
330
1F
100
AcDbEntity
  8
0-0
  6
JWW_DASHED1
 62
   120
370
     5
100
AcDbLine
 10
-381.0661017366386
 20
179.0672161021349
 30
0.0
 11
-343.0661017366383
 21
217.0672161021388
 31
0.0
  0
LINE
  5
EB
330
1F
100
AcDbEntity
  8
0-0
  6
JWW_DASHED1
 62
   120
370
     5
100
AcDbLine
 10
-381.0661017366386
 20
188.9667110373568
 30
0.0
 11
-343.0661017366451
 21
226.966711037347
 31
0.0
  0
LINE
  5
EC
330
1F
100
AcDbEntity
  8
0-0
  6
JWW_DASHED1
 62
   120
370
     5
100
AcDbLine
 10
-381.0661017366386
 20
198.8662059725668
 30
0.0
 11
-343.0661017366383
 21
236.8662059725706
 31
0.0
  0
LINE
  5
ED
330
1F
100
AcDbEntity
  8
0-0
  6
JWW_DASHED1
 62
   120
370
     5
100
AcDbLine
 10
-381.0661017366386
 20
208.7657009077354
 30
0.0
 11
-343.0661017366349
 21
246.7657009077358
 31
0.0
  0
LINE
  5
EE
330
1F
100
AcDbEntity
  8
0-0
  6
JWW_DASHED1
 62
   120
370
     5
100
AcDbLine
 10
-381.0661017366386
 20
218.6651958429466
 30
0.0
 11
-343.0661017366451
 21
256.6651958429436
 31
0.0
  0
LINE
  5
EF
330
1F
100
AcDbEntity
  8
0-0
  6
JWW_DASHED1
 62
   120
370
     5
100
AcDbLine
 10
-381.0661017366386
 20
228.5646907781673
 30
0.0
 11
-343.0661017366349
 21
266.5646907781677
 31
0.0
  0
LINE
  5
F0
330
1F
100
AcDbEntity
  8
0-0
  6
JWW_DASHED1
 62
   120
370
     5
100
AcDbLine
 10
-381.0661017366386
 20
238.4641857133282
 30
0.0
 11
-343.0661017366315
 21
276.4641857133329
 31
0.0
  0
LINE
  5
F1
330
1F
100
AcDbEntity
  8
0-0
  6
JWW_DASHED1
 62
   120
370
     5
100
AcDbLine
 10
-381.0661017366386
 20
248.3636806485428
 30
0.0
 11
-343.0661017366417
 21
286.3636806485407
 31
0.0
  0
LINE
  5
F2
330
1F
100
AcDbEntity
  8
0-0
  6
JWW_DASHED1
 62
   120
370
     5
100
AcDbLine
 10
-381.0661017366386
 20
258.2631755837609
 30
0.0
 11
-343.0661017366315
 21
296.2631755837647
 31
0.0
  0
LINE
  5
F3
330
1F
100
AcDbEntity
  8
0-0
  6
JWW_DASHED1
 62
   120
370
     5
100
AcDbLine
 10
-381.0661017366386
 20
268.162670518918
 30
0.0
 11
-343.0661017366315
 21
306.1626705189299
 31
0.0
  0
LINE
  5
F4
330
1F
100
AcDbEntity
  8
0-0
  6
JWW_DASHED1
 62
   120
370
     5
100
AcDbLine
 10
-381.0661017366386
 20
278.0621654541357
 30
0.0
 11
-343.0661017366383
 21
316.0621654541377
 31
0.0
  0
LINE
  5
F5
330
1F
100
AcDbEntity
  8
0-0
  6
JWW_DASHED1
 62
   120
370
     5
100
AcDbLine
 10
-381.0661017366386
 20
287.9616603893498
 30
0.0
 11
-343.0661017366315
 21
325.9616603893618
 31
0.0
  0
LINE
  5
F6
330
1F
100
AcDbEntity
  8
0-0
  6
JWW_DASHED1
 62
   120
370
     5
100
AcDbLine
 10
-381.0661017366386
 20
297.8611553245193
 30
0.0
 11
-343.0661017366281
 21
335.8611553245265
 31
0.0
  0
LINE
  5
F7
330
1F
100
AcDbEntity
  8
0-0
  6
JWW_DASHED1
 62
   120
370
     5
100
AcDbLine
 10
-381.0661017366386
 20
307.7606502597292
 30
0.0
 11
-343.0661017366349
 21
345.7606502597348
 31
0.0
  0
LINE
  5
F8
330
1F
100
AcDbEntity
  8
0-0
  6
JWW_DASHED1
 62
   120
370
     5
100
AcDbLine
 10
-381.0661017366386
 20
317.6601451949456
 30
0.0
 11
-343.0661017366451
 21
355.6601451949426
 31
0.0
  0
LINE
  5
F9
330
1F
100
AcDbEntity
  8
0-0
  6
JWW_DASHED1
 62
   120
370
     5
100
AcDbLine
 10
-381.0661017366386
 20
327.5596401301074
 30
0.0
 11
-343.0661017366417
 21
365.5596401301078
 31
0.0
  0
LINE
  5
FA
330
1F
100
AcDbEntity
  8
0-0
  6
JWW_DASHED1
 62
   120
370
     5
100
AcDbLine
 10
-381.0661017366386
 20
337.4591350653305
 30
0.0
 11
-343.0661017366315
 21
375.4591350653314
 31
0.0
  0
LINE
  5
FB
330
1F
100
AcDbEntity
  8
0-0
  6
JWW_DASHED1
 62
   120
370
     5
100
AcDbLine
 10
-381.0661017366386
 20
347.3586300005461
 30
0.0
 11
-343.0661017366417
 21
385.3586300005396
 31
0.0
  0
LINE
  5
FC
330
1F
100
AcDbEntity
  8
0-0
  6
JWW_DASHED1
 62
   120
370
     5
100
AcDbLine
 10
-381.0661017366386
 20
357.2581249357015
 30
0.0
 11
-343.0661017366383
 21
395.2581249357044
 31
0.0
  0
LINE
  5
FD
330
1F
100
AcDbEntity
  8
0-0
  6
JWW_DASHED1
 62
   120
370
     5
100
AcDbLine
 10
-381.0661017366386
 20
367.1576198709204
 30
0.0
 11
-343.0661017366315
 21
405.1576198709284
 31
0.0
  0
LINE
  5
FE
330
1F
100
AcDbEntity
  8
0-0
  6
JWW_DASHED1
 62
   120
370
     5
100
AcDbLine
 10
-381.0661017366386
 20
377.0571148061133
 30
0.0
 11
-343.0661017366417
 21
415.0571148061068
 31
0.0
  0
LINE
  5
FF
330
1F
100
AcDbEntity
  8
0-0
  6
JWW_DASHED1
 62
   120
370
     5
100
AcDbLine
 10
-381.0661017366386
 20
386.9566097412977
 30
0.0
 11
-343.0661017366383
 21
424.9566097413015
 31
0.0
  0
LINE
  5
100
330
1F
100
AcDbEntity
  8
0-0
  6
JWW_DASHED1
 62
   120
370
     5
100
AcDbLine
 10
-381.0661017366386
 20
396.8561046765132
 30
0.0
 11
-343.0661017366281
 21
434.8561046765255
 31
0.0
  0
LINE
  5
101
330
1F
100
AcDbEntity
  8
0-0
  6
JWW_DASHED1
 62
   120
370
     5
100
AcDbLine
 10
-381.0661017366386
 20
406.7555996116801
 30
0.0
 11
-343.0661017366417
 21
444.7555996116745
 31
0.0
  0
LINE
  5
102
330
1F
100
AcDbEntity
  8
0-0
  6
JWW_DASHED1
 62
   120
370
     5
100
AcDbLine
 10
-381.0661017366386
 20
416.65509454689
 30
0.0
 11
-343.0661017366349
 21
454.6550945468985
 31
0.0
  0
LINE
  5
103
330
1F
100
AcDbEntity
  8
0-0
  6
JWW_DASHED1
 62
   120
370
     5
100
AcDbLine
 10
-381.0661017366386
 20
426.5545894821085
 30
0.0
 11
-343.0661017366417
 21
464.5545894821063
 31
0.0
  0
LINE
  5
104
330
1F
100
AcDbEntity
  8
0-0
  6
JWW_DASHED1
 62
   120
370
     5
100
AcDbLine
 10
-381.0661017366386
 20
436.4540844172767
 30
0.0
 11
-343.0661017366383
 21
474.4540844172715
 31
0.0
  0
LINE
  5
105
330
1F
100
AcDbEntity
  8
0-0
  6
JWW_DASHED1
 62
   120
370
     5
100
AcDbLine
 10
-381.0661017366386
 20
446.3535793524845
 30
0.0
 11
-343.0661017366315
 21
484.3535793524951
 31
0.0
  0
LINE
  5
106
330
1F
100
AcDbEntity
  8
0-0
  6
JWW_DASHED1
 62
   120
370
     5
100
AcDbLine
 10
-381.0661017366386
 20
456.2530742877094
 30
0.0
 11
-343.0661017366383
 21
494.2530742877034
 31
0.0
  0
LINE
  5
107
330
1F
100
AcDbEntity
  8
0-0
  6
JWW_DASHED1
 62
   120
370
     5
100
AcDbLine
 10
-381.0661017366386
 20
466.1525692228597
 30
0.0
 11
-343.0661017366383
 21
504.1525692228681
 31
0.0
  0
LINE
  5
108
330
1F
100
AcDbEntity
  8
0-0
  6
JWW_DASHED1
 62
   120
370
     5
100
AcDbLine
 10
-381.0661017366386
 20
476.0520641580794
 30
0.0
 11
-343.0661017366451
 21
514.0520641580764
 31
0.0
  0
LINE
  5
109
330
1F
100
AcDbEntity
  8
0-0
  6
JWW_DASHED1
 62
   120
370
     5
100
AcDbLine
 10
-381.0661017366386
 20
485.9515590932988
 30
0.0
 11
-343.0661017366383
 21
523.9515590933
 31
0.0
  0
LINE
  5
10A
330
1F
100
AcDbEntity
  8
0-0
  6
JWW_DASHED1
 62
   120
370
     5
100
AcDbLine
 10
-381.0661017366386
 20
495.8510540284606
 30
0.0
 11
-343.0661017366349
 21
533.8510540284652
 31
0.0
  0
LINE
  5
10B
330
1F
100
AcDbEntity
  8
0-0
  6
JWW_DASHED1
 62
   120
370
     5
100
AcDbLine
 10
-381.0661017366386
 20
505.750548963679
 30
0.0
 11
-343.0661017366417
 21
543.7505489636735
 31
0.0
  0
LINE
  5
10C
330
1F
100
AcDbEntity
  8
0-0
  6
JWW_DASHED1
 62
   120
370
     5
100
AcDbLine
 10
-381.0661017366386
 20
515.6500438988916
 30
0.0
 11
-343.0661017366349
 21
553.650043898897
 31
0.0
  0
LINE
  5
10D
330
1F
100
AcDbEntity
  8
0-0
  6
JWW_DASHED1
 62
   120
370
     5
100
AcDbLine
 10
-381.0661017366386
 20
525.5495388340534
 30
0.0
 11
-343.0661017366315
 21
563.5495388340622
 31
0.0
  0
LINE
  5
10E
330
1F
100
AcDbEntity
  8
0-0
  6
JWW_DASHED1
 62
   120
370
     5
100
AcDbLine
 10
-381.0661017366386
 20
535.4490337692731
 30
0.0
 11
-343.0661017366383
 21
573.44903376927
 31
0.0
  0
LINE
  5
10F
330
1F
100
AcDbEntity
  8
0-0
  6
JWW_DASHED1
 62
   120
370
     5
100
AcDbLine
 10
-381.0661017366386
 20
545.348528704492
 30
0.0
 11
-343.0661017366315
 21
583.3485287044941
 31
0.0
  0
LINE
  5
110
330
1F
100
AcDbEntity
  8
0-0
  6
JWW_DASHED1
 62
   120
370
     5
100
AcDbLine
 10
-381.0661017366386
 20
555.2480236396435
 30
0.0
 11
-343.0661017366315
 21
593.2480236396589
 31
0.0
  0
LINE
  5
111
330
1F
100
AcDbEntity
  8
0-0
  6
JWW_DASHED1
 62
   120
370
     5
100
AcDbLine
 10
-381.0661017366386
 20
565.1475185748633
 30
0.0
 11
-343.0661017366383
 21
603.1475185748671
 31
0.0
  0
LINE
  5
112
330
1F
100
AcDbEntity
  8
0-0
  6
JWW_DASHED1
 62
   120
370
     5
100
AcDbLine
 10
-381.0661017366386
 20
575.0470135100823
 30
0.0
 11
-343.0661017366315
 21
613.0470135100911
 31
0.0
  0
LINE
  5
113
330
1F
100
AcDbEntity
  8
0-0
  6
JWW_DASHED1
 62
   120
370
     5
100
AcDbLine
 10
-381.0661017366386
 20
584.9465084452414
 30
0.0
 11
-343.0661017366281
 21
622.9465084452538
 31
0.0
  0
LINE
  5
114
330
1F
100
AcDbEntity
  8
0-0
  6
JWW_DASHED1
 62
   120
370
     5
100
AcDbLine
 10
-381.0661017366386
 20
594.8460033804629
 30
0.0
 11
-343.0661017366349
 21
632.8460033804641
 31
0.0
  0
LINE
  5
115
330
1F
100
AcDbEntity
  8
0-0
  6
JWW_DASHED1
 62
   120
370
     5
100
AcDbLine
 10
-381.0661017366386
 20
604.745498315675
 30
0.0
 11
-343.0661017366451
 21
642.745498315672
 31
0.0
  0
LINE
  5
116
330
1F
100
AcDbEntity
  8
0-0
  6
JWW_DASHED1
 62
   120
370
     5
100
AcDbLine
 10
-381.0661017366386
 20
614.6449932508424
 30
0.0
 11
-343.0661017366383
 21
652.6449932508372
 31
0.0
  0
LINE
  5
117
330
1F
100
AcDbEntity
  8
0-0
  6
JWW_DASHED1
 62
   120
370
     5
100
AcDbLine
 10
-381.0661017366386
 20
624.5444881860569
 30
0.0
 11
-343.0661017366315
 21
662.5444881860608
 31
0.0
  0
LINE
  5
118
330
1F
100
AcDbEntity
  8
0-0
  6
JWW_DASHED1
 62
   120
370
     5
100
AcDbLine
 10
-381.0661017366386
 20
634.4439831212686
 30
0.0
 11
-343.0661017366417
 21
672.4439831212691
 31
0.0
  0
LINE
  5
119
330
1F
100
AcDbEntity
  8
0-0
  6
JWW_DASHED1
 62
   120
370
     5
100
AcDbLine
 10
-381.0661017366386
 20
644.3434780564326
 30
0.0
 11
-343.0661017366383
 21
682.3434780564334
 31
0.0
  0
LINE
  5
11A
330
1F
100
AcDbEntity
  8
0-0
  6
JWW_DASHED1
 62
   120
370
     5
100
AcDbLine
 10
-381.0661017366386
 20
654.2429729916468
 30
0.0
 11
-343.0661017366315
 21
692.2429729916578
 31
0.0
  0
LINE
  5
11B
330
1F
100
AcDbEntity
  8
0-0
  6
JWW_DASHED1
 62
   120
370
     5
100
AcDbLine
 10
-381.0661017366386
 20
664.142467926864
 30
0.0
 11
-343.0661017366383
 21
702.1424679268661
 31
0.0
  0
LINE
  5
11C
330
1F
100
AcDbEntity
  8
0-0
  6
JWW_DASHED1
 62
   120
370
     5
100
AcDbLine
 10
-381.0661017366386
 20
674.0419628620261
 30
0.0
 11
-343.0661017366349
 21
712.0419628620309
 31
0.0
  0
LINE
  5
11D
330
1F
100
AcDbEntity
  8
0-0
  6
JWW_DASHED1
 62
   120
370
     5
100
AcDbLine
 10
-381.0661017366386
 20
683.9414577972473
 30
0.0
 11
-343.0661017366281
 21
721.9414577972544
 31
0.0
  0
LINE
  5
11E
330
1F
100
AcDbEntity
  8
0-0
  6
JWW_DASHED1
 62
   120
370
     5
100
AcDbLine
 10
-381.0661017366386
 20
693.8409527324542
 30
0.0
 11
-343.0661017366383
 21
731.8409527324627
 31
0.0
  0
LINE
  5
11F
330
1F
100
AcDbEntity
  8
0-0
  6
JWW_DASHED1
 62
   120
370
     5
100
AcDbLine
 10
-381.0661017366386
 20
703.7404476676262
 30
0.0
 11
-343.0661017366315
 21
741.7404476676279
 31
0.0
  0
LINE
  5
120
330
1F
100
AcDbEntity
  8
0-0
  6
JWW_DASHED1
 62
   120
370
     5
100
AcDbLine
 10
-381.0661017366386
 20
713.6399426028422
 30
0.0
 11
-343.0661017366417
 21
751.6399426028353
 31
0.0
  0
LINE
  5
121
330
1F
100
AcDbEntity
  8
0-0
  6
JWW_DASHED1
 62
   120
370
     5
100
AcDbLine
 10
-381.0661017366386
 20
723.5394375380589
 30
0.0
 11
-343.0661017366315
 21
761.5394375380597
 31
0.0
  0
LINE
  5
122
330
1F
100
AcDbEntity
  8
0-0
  6
JWW_DASHED1
 62
   120
370
     5
100
AcDbLine
 10
-381.0661017366386
 20
733.4389324732165
 30
0.0
 11
-343.0661017366315
 21
771.4389324732246
 31
0.0
  0
LINE
  5
123
330
1F
100
AcDbEntity
  8
0-0
  6
JWW_DASHED1
 62
   120
370
     5
100
AcDbLine
 10
-381.0661017366386
 20
743.3384274084358
 30
0.0
 11
-343.0661017366383
 21
781.3384274084328
 31
0.0
  0
LINE
  5
124
330
1F
100
AcDbEntity
  8
0-0
  6
JWW_DASHED1
 62
   120
370
     5
100
AcDbLine
 10
-381.0661017366386
 20
753.2379223436483
 30
0.0
 11
-343.0661017366315
 21
791.2379223436564
 31
0.0
  0
LINE
  5
125
330
1F
100
AcDbEntity
  8
0-0
  6
JWW_DASHED1
 62
   120
370
     5
100
AcDbLine
 10
-381.0661017366386
 20
763.1374172788084
 30
0.0
 11
-343.0661017366451
 21
801.1374172788057
 31
0.0
  0
LINE
  5
126
330
1F
100
AcDbEntity
  8
0-0
  6
JWW_DASHED1
 62
   120
370
     5
100
AcDbLine
 10
-381.0661017366386
 20
773.0369122140247
 30
0.0
 11
-343.0661017366383
 21
811.0369122140298
 31
0.0
  0
LINE
  5
127
330
1F
100
AcDbEntity
  8
0-0
  6
JWW_DASHED1
 62
   120
370
     5
100
AcDbLine
 10
-381.0661017366386
 20
782.936407149242
 30
0.0
 11
-343.0661017366281
 21
820.9364071492535
 31
0.0
  0
LINE
  5
128
330
1F
100
AcDbEntity
  8
0-0
  6
JWW_DASHED1
 62
   120
370
     5
100
AcDbLine
 10
-381.0661017366386
 20
792.8359020844089
 30
0.0
 11
-343.0661017366417
 21
830.8359020844024
 31
0.0
  0
LINE
  5
129
330
1F
100
AcDbEntity
  8
0-0
  6
JWW_DASHED1
 62
   120
370
     5
100
AcDbLine
 10
-381.0661017366386
 20
802.7353970196192
 30
0.0
 11
-343.0661017366349
 21
840.7353970196265
 31
0.0
  0
LINE
  5
12A
330
1F
100
AcDbEntity
  8
0-0
  6
JWW_DASHED1
 62
   120
370
     5
100
AcDbLine
 10
-381.0661017366386
 20
812.6348919548416
 30
0.0
 11
-343.0661017366247
 21
850.63489195485
 31
0.0
  0
LINE
  5
12B
330
1F
100
AcDbEntity
  8
0-0
  6
JWW_DASHED1
 62
   120
370
     5
100
AcDbLine
 10
-381.0661017366386
 20
822.5343868900054
 30
0.0
 11
-343.0661017366383
 21
860.5343868899995
 31
0.0
  0
LINE
  5
12C
330
1F
100
AcDbEntity
  8
0-0
  6
JWW_DASHED1
 62
   120
370
     5
100
AcDbLine
 10
-381.0661017366386
 20
832.4338818252129
 30
0.0
 11
-343.0661017366315
 21
870.4338818252235
 31
0.0
  0
LINE
  5
12D
330
1F
100
AcDbEntity
  8
0-0
  6
JWW_DASHED1
 62
   120
370
     5
100
AcDbLine
 10
-381.0661017366386
 20
842.3333767604369
 30
0.0
 11
-343.0661017366383
 21
880.3333767604313
 31
0.0
  0
LINE
  5
12E
330
1F
100
AcDbEntity
  8
0-0
  6
JWW_DASHED1
 62
   120
370
     5
100
AcDbLine
 10
-381.0661017366386
 20
862.1323666308172
 30
0.0
 11
-343.0661017366383
 21
900.132366630806
 31
0.0
  0
LINE
  5
12F
330
1F
100
AcDbEntity
  8
0-0
  6
JWW_DASHED1
 62
   120
370
     5
100
AcDbLine
 10
-381.0661017366386
 20
852.2328716955986
 30
0.0
 11
-343.0661017366383
 21
890.2328716955923
 31
0.0
  0
LINE
  5
130
330
1F
100
AcDbEntity
  8
0-0
  6
JWW_DASHED1
 62
   120
370
     5
100
AcDbLine
 10
-381.0661017366386
 20
-979.1736913159433
 30
0.0
 11
-343.0661017366417
 21
-941.1736913159434
 31
0.0
  0
LINE
  5
131
330
1F
100
AcDbEntity
  8
0-0
  6
JWW_DASHED1
 62
   120
370
     5
100
AcDbLine
 10
-381.0661017366386
 20
-989.0731862511082
 30
0.0
 11
-343.0661017366417
 21
-951.0731862511082
 31
0.0
  0
LINE
  5
132
330
1F
100
AcDbEntity
  8
0-0
  6
JWW_DASHED1
 62
   120
370
     5
100
AcDbLine
 10
-381.0661017366386
 20
-998.9726811862729
 30
0.0
 11
-343.0661017366417
 21
-960.9726811862729
 31
0.0
  0
LINE
  5
133
330
1F
100
AcDbEntity
  8
0-0
  6
JWW_DASHED1
 62
   120
370
     5
100
AcDbLine
 10
-378.2654211573935
 20
-1006.071495542192
 30
0.0
 11
-343.0661017366417
 21
-970.8721761214376
 31
0.0
  0
LINE
  5
134
330
1F
100
AcDbEntity
  8
0-0
  6
JWW_DASHED1
 62
   120
370
     5
100
AcDbLine
 10
-348.5669363519013
 20
-1006.071495542192
 30
0.0
 11
-343.0661017366417
 21
-1000.570660926932
 31
0.0
  0
LINE
  5
135
330
1F
100
AcDbEntity
  8
0-0
  6
JWW_DASHED1
 62
   120
370
     5
100
AcDbLine
 10
-368.3659262222291
 20
-1006.071495542192
 30
0.0
 11
-343.0661017366417
 21
-980.7716710566025
 31
0.0
  0
LINE
  5
136
330
1F
100
AcDbEntity
  8
0-0
  6
JWW_DASHED1
 62
   120
370
     5
100
AcDbLine
 10
-358.4664312870648
 20
-1006.071495542192
 30
0.0
 11
-343.0661017366417
 21
-990.6711659917672
 31
0.0
  0
LINE
  5
137
330
1F
100
AcDbEntity
  8
0-0
  6
JWW_DASHED1
 62
   120
370
     5
100
AcDbLine
 10
-381.0661017366386
 20
872.0318615660357
 30
0.0
 11
-343.0661017366383
 21
910.0318615660245
 31
0.0
  0
LINE
  5
138
330
1F
100
AcDbEntity
  8
0-0
  6
JWW_DASHED1
 62
   120
370
     5
100
AcDbLine
 10
-381.0661017366386
 20
881.9313565012542
 30
0.0
 11
-343.0661017366383
 21
919.931356501243
 31
0.0
  0
LINE
  5
139
330
1F
100
AcDbEntity
  8
0-0
  6
JWW_DASHED1
 62
   120
370
     5
100
AcDbLine
 10
-381.0661017366386
 20
891.8308514364726
 30
0.0
 11
-343.0661017366383
 21
929.8308514364614
 31
0.0
  0
LINE
  5
13A
330
1F
100
AcDbEntity
  8
0-0
  6
JWW_DASHED1
 62
   120
370
     5
100
AcDbLine
 10
-381.0661017366386
 20
901.7303463716906
 30
0.0
 11
-343.0661017366383
 21
939.73034637168
 31
0.0
  0
LINE
  5
13B
330
1F
100
AcDbEntity
  8
0-0
  6
JWW_DASHED1
 62
   120
370
     5
100
AcDbLine
 10
-381.0661017366386
 20
911.6298413069096
 30
0.0
 11
-343.0661017366383
 21
949.6298413068985
 31
0.0
  0
LINE
  5
13C
330
1F
100
AcDbEntity
  8
0-0
  6
Continuous
 62
    92
370
    13
100
AcDbLine
 10
-381.0661017366386
 20
1168.92850445781
 30
0.0
 11
-381.0661017366386
 21
-1014.071495542192
 31
0.0
  0
LINE
  5
13D
330
1F
100
AcDbEntity
  8
0-0
  6
Continuous
 62
    92
370
    13
100
AcDbLine
 10
-343.0661017366383
 20
1168.92850445781
 30
0.0
 11
-343.0661017366383
 21
-1014.071495542192
 31
0.0
  0
LINE
  5
13E
330
1F
100
AcDbEntity
  8
0-0
  6
Continuous
 62
     7
370
     9
100
AcDbLine
 10
-381.0661017366386
 20
1160.928504457811
 30
0.0
 11
-343.0661017366383
 21
1160.928504457811
 31
0.0
  0
LINE
  5
13F
330
1F
100
AcDbEntity
  8
0-0
  6
JWW_DASHED1
 62
   120
370
     5
100
AcDbLine
 10
-381.0661017366386
 20
921.529336242128
 30
0.0
 11
-343.0661017366383
 21
959.529336242117
 31
0.0
  0
LINE
  5
140
330
1F
100
AcDbEntity
  8
0-0
  6
JWW_DASHED1
 62
   120
370
     5
100
AcDbLine
 10
-381.0661017366386
 20
951.2278210477836
 30
0.0
 11
-343.0661017366383
 21
989.2278210477724
 31
0.0
  0
LINE
  5
141
330
1F
100
AcDbEntity
  8
0-0
  6
JWW_DASHED1
 62
   120
370
     5
100
AcDbLine
 10
-381.0661017366386
 20
931.4288311773465
 30
0.0
 11
-343.0661017366383
 21
969.4288311773355
 31
0.0
  0
LINE
  5
142
330
1F
100
AcDbEntity
  8
0-0
  6
JWW_DASHED1
 62
   120
370
     5
100
AcDbLine
 10
-381.0661017366386
 20
941.328326112565
 30
0.0
 11
-343.0661017366383
 21
979.3283261125539
 31
0.0
  0
LINE
  5
143
330
1F
100
AcDbEntity
  8
0-0
  6
JWW_DASHED1
 62
   120
370
     5
100
AcDbLine
 10
-381.0661017366386
 20
971.0268109182205
 30
0.0
 11
-343.0661017366383
 21
1009.026810918209
 31
0.0
  0
LINE
  5
144
330
1F
100
AcDbEntity
  8
0-0
  6
JWW_DASHED1
 62
   120
370
     5
100
AcDbLine
 10
-381.0661017366386
 20
961.1273159830021
 30
0.0
 11
-343.0661017366383
 21
999.1273159829909
 31
0.0
  0
LINE
  5
145
330
1F
100
AcDbEntity
  8
0-0
  6
JWW_DASHED1
 62
   120
370
     5
100
AcDbLine
 10
-381.0661017366386
 20
990.8258007886575
 30
0.0
 11
-343.0661017366383
 21
1028.825800788646
 31
0.0
  0
LINE
  5
146
330
1F
100
AcDbEntity
  8
0-0
  6
JWW_DASHED1
 62
   120
370
     5
100
AcDbLine
 10
-381.0661017366386
 20
980.926305853439
 30
0.0
 11
-343.0661017366383
 21
1018.926305853428
 31
0.0
  0
LINE
  5
147
330
1F
100
AcDbEntity
  8
0-0
  6
JWW_DASHED1
 62
   120
370
     5
100
AcDbLine
 10
-381.0661017366386
 20
1010.624790659094
 30
0.0
 11
-343.0661017366383
 21
1048.624790659083
 31
0.0
  0
LINE
  5
148
330
1F
100
AcDbEntity
  8
0-0
  6
JWW_DASHED1
 62
   120
370
     5
100
AcDbLine
 10
-381.0661017366386
 20
1000.725295723876
 30
0.0
 11
-343.0661017366383
 21
1038.725295723865
 31
0.0
  0
LINE
  5
149
330
1F
100
AcDbEntity
  8
0-0
  6
JWW_DASHED1
 62
   120
370
     5
100
AcDbLine
 10
-381.0661017366386
 20
1030.423780529531
 30
0.0
 11
-343.0661017366383
 21
1068.42378052952
 31
0.0
  0
LINE
  5
14A
330
1F
100
AcDbEntity
  8
0-0
  6
JWW_DASHED1
 62
   120
370
     5
100
AcDbLine
 10
-381.0661017366386
 20
1020.524285594313
 30
0.0
 11
-343.0661017366383
 21
1058.524285594301
 31
0.0
  0
LINE
  5
14B
330
1F
100
AcDbEntity
  8
0-0
  6
JWW_DASHED1
 62
   120
370
     5
100
AcDbLine
 10
-381.0661017366386
 20
1050.222770399968
 30
0.0
 11
-343.0661017366383
 21
1088.222770399957
 31
0.0
  0
LINE
  5
14C
330
1F
100
AcDbEntity
  8
0-0
  6
JWW_DASHED1
 62
   120
370
     5
100
AcDbLine
 10
-381.0661017366386
 20
1040.32327546475
 30
0.0
 11
-343.0661017366383
 21
1078.323275464739
 31
0.0
  0
LINE
  5
14D
330
1F
100
AcDbEntity
  8
0-0
  6
JWW_DASHED1
 62
   120
370
     5
100
AcDbLine
 10
-381.0661017366386
 20
1070.021760270405
 30
0.0
 11
-343.0661017366383
 21
1108.021760270394
 31
0.0
  0
LINE
  5
14E
330
1F
100
AcDbEntity
  8
0-0
  6
JWW_DASHED1
 62
   120
370
     5
100
AcDbLine
 10
-381.0661017366386
 20
1060.122265335187
 30
0.0
 11
-343.0661017366383
 21
1098.122265335176
 31
0.0
  0
LINE
  5
14F
330
1F
100
AcDbEntity
  8
0-0
  6
JWW_DASHED1
 62
   120
370
     5
100
AcDbLine
 10
-381.0661017366386
 20
1089.820750140842
 30
0.0
 11
-343.0661017366383
 21
1127.820750140831
 31
0.0
  0
LINE
  5
150
330
1F
100
AcDbEntity
  8
0-0
  6
JWW_DASHED1
 62
   120
370
     5
100
AcDbLine
 10
-381.0661017366386
 20
1079.921255205624
 30
0.0
 11
-343.0661017366383
 21
1117.921255205613
 31
0.0
  0
LINE
  5
151
330
1F
100
AcDbEntity
  8
0-0
  6
JWW_DASHED1
 62
   120
370
     5
100
AcDbLine
 10
-381.0661017366386
 20
1109.619740011279
 30
0.0
 11
-343.0661017366383
 21
1147.619740011268
 31
0.0
  0
LINE
  5
152
330
1F
100
AcDbEntity
  8
0-0
  6
JWW_DASHED1
 62
   120
370
     5
100
AcDbLine
 10
-381.0661017366386
 20
1099.72024507606
 30
0.0
 11
-343.0661017366383
 21
1137.72024507605
 31
0.0
  0
LINE
  5
153
330
1F
100
AcDbEntity
  8
0-0
  6
JWW_DASHED1
 62
   120
370
     5
100
AcDbLine
 10
-381.0661017366386
 20
1119.519234946498
 30
0.0
 11
-343.0661017366383
 21
1157.519234946487
 31
0.0
  0
LINE
  5
154
330
1F
100
AcDbEntity
  8
0-0
  6
JWW_DASHED1
 62
   120
370
     5
100
AcDbLine
 10
-381.0661017366386
 20
1149.217719752153
 30
0.0
 11
-369.3553170309772
 21
1160.928504457811
 31
0.0
  0
LINE
  5
155
330
1F
100
AcDbEntity
  8
0-0
  6
JWW_DASHED1
 62
   120
370
     5
100
AcDbLine
 10
-381.0661017366386
 20
1129.418729881716
 30
0.0
 11
-349.5563271605343
 21
1160.928504457811
 31
0.0
  0
LINE
  5
156
330
1F
100
AcDbEntity
  8
0-0
  6
JWW_DASHED1
 62
   120
370
     5
100
AcDbLine
 10
-381.0661017366386
 20
1139.318224816935
 30
0.0
 11
-359.4558220957558
 21
1160.928504457811
 31
0.0
  0
LINE
  5
157
330
1F
100
AcDbEntity
  8
0-0
  6
Continuous
 62
     7
370
     9
100
AcDbLine
 10
428.9338982633614
 20
-1006.071495542192
 30
0.0
 11
466.9338982633617
 21
-1006.071495542192
 31
0.0
  0
LINE
  5
158
330
1F
100
AcDbEntity
  8
0-0
  6
JWW_DASHED1
 62
   120
370
     5
100
AcDbLine
 10
428.9338982633614
 20
-969.2741963807786
 30
0.0
 11
466.9338982633583
 21
-931.2741963807784
 31
0.0
  0
LINE
  5
159
330
1F
100
AcDbEntity
  8
0-0
  6
JWW_DASHED1
 62
   120
370
     5
100
AcDbLine
 10
428.9338982633614
 20
-959.3747014456168
 30
0.0
 11
466.9338982633617
 21
-921.3747014456138
 31
0.0
  0
LINE
  5
15A
330
1F
100
AcDbEntity
  8
0-0
  6
JWW_DASHED1
 62
   120
370
     5
100
AcDbLine
 10
428.9338982633614
 20
-949.4752065103982
 30
0.0
 11
466.9338982633685
 21
-911.4752065103899
 31
0.0
  0
LINE
  5
15B
330
1F
100
AcDbEntity
  8
0-0
  6
JWW_DASHED1
 62
   120
370
     5
100
AcDbLine
 10
428.9338982633614
 20
-939.575711575186
 30
0.0
 11
466.9338982633617
 21
-901.5757115751816
 31
0.0
  0
LINE
  5
15C
330
1F
100
AcDbEntity
  8
0-0
  6
JWW_DASHED1
 62
   120
370
     5
100
AcDbLine
 10
428.9338982633614
 20
-929.6762166400174
 30
0.0
 11
466.9338982633651
 21
-891.6762166400168
 31
0.0
  0
LINE
  5
15D
330
1F
100
AcDbEntity
  8
0-0
  6
JWW_DASHED1
 62
   120
370
     5
100
AcDbLine
 10
428.9338982633614
 20
-919.7767217048034
 30
0.0
 11
466.9338982633549
 21
-881.7767217048086
 31
0.0
  0
LINE
  5
15E
330
1F
100
AcDbEntity
  8
0-0
  6
JWW_DASHED1
 62
   120
370
     5
100
AcDbLine
 10
428.9338982633614
 20
-909.8772267695849
 30
0.0
 11
466.9338982633651
 21
-871.8772267695847
 31
0.0
  0
LINE
  5
15F
330
1F
100
AcDbEntity
  8
0-0
  6
JWW_DASHED1
 62
   120
370
     5
100
AcDbLine
 10
428.9338982633614
 20
-899.9777318344238
 30
0.0
 11
466.9338982633685
 21
-861.9777318344197
 31
0.0
  0
LINE
  5
160
330
1F
100
AcDbEntity
  8
0-0
  6
JWW_DASHED1
 62
   120
370
     5
100
AcDbLine
 10
428.9338982633614
 20
-890.07823689921
 30
0.0
 11
466.9338982633583
 21
-852.0782368992117
 31
0.0
  0
LINE
  5
161
330
1F
100
AcDbEntity
  8
0-0
  6
JWW_DASHED1
 62
   120
370
     5
100
AcDbLine
 10
428.9338982633614
 20
-880.1787419639926
 30
0.0
 11
466.9338982633685
 21
-842.1787419639877
 31
0.0
  0
LINE
  5
162
330
1F
100
AcDbEntity
  8
0-0
  6
JWW_DASHED1
 62
   120
370
     5
100
AcDbLine
 10
428.9338982633614
 20
-870.2792470288299
 30
0.0
 11
466.9338982633549
 21
-832.2792470288387
 31
0.0
  0
LINE
  5
163
330
1F
100
AcDbEntity
  8
0-0
  6
JWW_DASHED1
 62
   120
370
     5
100
AcDbLine
 10
428.9338982633614
 20
-860.3797520936164
 30
0.0
 11
466.9338982633617
 21
-822.379752093615
 31
0.0
  0
LINE
  5
164
330
1F
100
AcDbEntity
  8
0-0
  6
JWW_DASHED1
 62
   120
370
     5
100
AcDbLine
 10
428.9338982633614
 20
-850.4802571584023
 30
0.0
 11
466.9338982633685
 21
-812.480257158391
 31
0.0
  0
LINE
  5
165
330
1F
100
AcDbEntity
  8
0-0
  6
JWW_DASHED1
 62
   120
370
     5
100
AcDbLine
 10
428.9338982633614
 20
-840.580762223239
 30
0.0
 11
466.9338982633549
 21
-802.5807622232419
 31
0.0
  0
LINE
  5
166
330
1F
100
AcDbEntity
  8
0-0
  6
JWW_DASHED1
 62
   120
370
     5
100
AcDbLine
 10
428.9338982633614
 20
-830.6812672880268
 30
0.0
 11
466.9338982633617
 21
-792.6812672880178
 31
0.0
  0
LINE
  5
167
330
1F
100
AcDbEntity
  8
0-0
  6
JWW_DASHED1
 62
   120
370
     5
100
AcDbLine
 10
428.9338982633614
 20
-820.7817723528536
 30
0.0
 11
466.9338982633685
 21
-782.7817723528533
 31
0.0
  0
LINE
  5
168
330
1F
100
AcDbEntity
  8
0-0
  6
JWW_DASHED1
 62
   120
370
     5
100
AcDbLine
 10
428.9338982633614
 20
-810.8822774176385
 30
0.0
 11
466.9338982633583
 21
-772.8822774176448
 31
0.0
  0
LINE
  5
169
330
1F
100
AcDbEntity
  8
0-0
  6
JWW_DASHED1
 62
   120
370
     5
100
AcDbLine
 10
428.9338982633614
 20
-800.9827824824263
 30
0.0
 11
466.9338982633651
 21
-762.9827824824212
 31
0.0
  0
LINE
  5
16A
330
1F
100
AcDbEntity
  8
0-0
  6
JWW_DASHED1
 62
   120
370
     5
100
AcDbLine
 10
428.9338982633614
 20
-791.0832875472645
 30
0.0
 11
466.9338982633685
 21
-753.083287547256
 31
0.0
  0
LINE
  5
16B
330
1F
100
AcDbEntity
  8
0-0
  6
JWW_DASHED1
 62
   120
370
     5
100
AcDbLine
 10
428.9338982633614
 20
-781.1837926120445
 30
0.0
 11
466.9338982633617
 21
-743.1837926120481
 31
0.0
  0
LINE
  5
16C
330
1F
100
AcDbEntity
  8
0-0
  6
JWW_DASHED1
 62
   120
370
     5
100
AcDbLine
 10
428.9338982633614
 20
-771.2842976768329
 30
0.0
 11
466.9338982633685
 21
-733.2842976768242
 31
0.0
  0
LINE
  5
16D
330
1F
100
AcDbEntity
  8
0-0
  6
JWW_DASHED1
 62
   120
370
     5
100
AcDbLine
 10
428.9338982633614
 20
-761.3848027416698
 30
0.0
 11
466.9338982633549
 21
-723.384802741675
 31
0.0
  0
LINE
  5
16E
330
1F
100
AcDbEntity
  8
0-0
  6
JWW_DASHED1
 62
   120
370
     5
100
AcDbLine
 10
428.9338982633614
 20
-751.4853078064556
 30
0.0
 11
466.9338982633617
 21
-713.4853078064511
 31
0.0
  0
LINE
  5
16F
330
1F
100
AcDbEntity
  8
0-0
  6
JWW_DASHED1
 62
   120
370
     5
100
AcDbLine
 10
428.9338982633614
 20
-741.5858128712403
 30
0.0
 11
466.9338982633549
 21
-703.5858128712431
 31
0.0
  0
LINE
  5
170
330
1F
100
AcDbEntity
  8
0-0
  6
JWW_DASHED1
 62
   120
370
     5
100
AcDbLine
 10
428.9338982633614
 20
-731.6863179360764
 30
0.0
 11
466.9338982633583
 21
-693.6863179360781
 31
0.0
  0
LINE
  5
171
330
1F
100
AcDbEntity
  8
0-0
  6
JWW_DASHED1
 62
   120
370
     5
100
AcDbLine
 10
428.9338982633614
 20
-721.7868230008618
 30
0.0
 11
466.9338982633651
 21
-683.7868230008543
 31
0.0
  0
LINE
  5
172
330
1F
100
AcDbEntity
  8
0-0
  6
JWW_DASHED1
 62
   120
370
     5
100
AcDbLine
 10
428.9338982633614
 20
-711.8873280656447
 30
0.0
 11
466.9338982633583
 21
-673.887328065646
 31
0.0
  0
LINE
  5
173
330
1F
100
AcDbEntity
  8
0-0
  6
JWW_DASHED1
 62
   120
370
     5
100
AcDbLine
 10
428.9338982633614
 20
-701.9878331304753
 30
0.0
 11
466.9338982633617
 21
-663.9878331304812
 31
0.0
  0
LINE
  5
174
330
1F
100
AcDbEntity
  8
0-0
  6
JWW_DASHED1
 62
   120
370
     5
100
AcDbLine
 10
428.9338982633614
 20
-692.0883381952685
 30
0.0
 11
466.9338982633685
 21
-654.0883381952573
 31
0.0
  0
LINE
  5
175
330
1F
100
AcDbEntity
  8
0-0
  6
JWW_DASHED1
 62
   120
370
     5
100
AcDbLine
 10
428.9338982633614
 20
-682.1888432600439
 30
0.0
 11
466.9338982633617
 21
-644.1888432600492
 31
0.0
  0
LINE
  5
176
330
1F
100
AcDbEntity
  8
0-0
  6
JWW_DASHED1
 62
   120
370
     5
100
AcDbLine
 10
428.9338982633614
 20
-672.2893483248859
 30
0.0
 11
466.9338982633617
 21
-634.2893483248843
 31
0.0
  0
LINE
  5
177
330
1F
100
AcDbEntity
  8
0-0
  6
JWW_DASHED1
 62
   120
370
     5
100
AcDbLine
 10
428.9338982633614
 20
-662.3898533896717
 30
0.0
 11
466.9338982633685
 21
-624.3898533896604
 31
0.0
  0
LINE
  5
178
330
1F
100
AcDbEntity
  8
0-0
  6
JWW_DASHED1
 62
   120
370
     5
100
AcDbLine
 10
428.9338982633614
 20
-652.4903584544538
 30
0.0
 11
466.9338982633617
 21
-614.4903584544521
 31
0.0
  0
LINE
  5
179
330
1F
100
AcDbEntity
  8
0-0
  6
JWW_DASHED1
 62
   120
370
     5
100
AcDbLine
 10
428.9338982633614
 20
-642.5908635192925
 30
0.0
 11
466.9338982633651
 21
-604.5908635192874
 31
0.0
  0
LINE
  5
17A
330
1F
100
AcDbEntity
  8
0-0
  6
JWW_DASHED1
 62
   120
370
     5
100
AcDbLine
 10
428.9338982633614
 20
-632.6913685840732
 30
0.0
 11
466.9338982633583
 21
-594.6913685840793
 31
0.0
  0
LINE
  5
17B
330
1F
100
AcDbEntity
  8
0-0
  6
JWW_DASHED1
 62
   120
370
     5
100
AcDbLine
 10
428.9338982633614
 20
-622.7918736488605
 30
0.0
 11
466.9338982633651
 21
-584.7918736488554
 31
0.0
  0
LINE
  5
17C
330
1F
100
AcDbEntity
  8
0-0
  6
JWW_DASHED1
 62
   120
370
     5
100
AcDbLine
 10
428.9338982633614
 20
-612.8923787136988
 30
0.0
 11
466.9338982633685
 21
-574.8923787136904
 31
0.0
  0
LINE
  5
17D
330
1F
100
AcDbEntity
  8
0-0
  6
JWW_DASHED1
 62
   120
370
     5
100
AcDbLine
 10
428.9338982633614
 20
-602.9928837784795
 30
0.0
 11
466.9338982633617
 21
-564.9928837784823
 31
0.0
  0
LINE
  5
17E
330
1F
100
AcDbEntity
  8
0-0
  6
JWW_DASHED1
 62
   120
370
     5
100
AcDbLine
 10
428.9338982633614
 20
-593.0933888432595
 30
0.0
 11
466.9338982633685
 21
-555.0933888432587
 31
0.0
  0
LINE
  5
17F
330
1F
100
AcDbEntity
  8
0-0
  6
JWW_DASHED1
 62
   120
370
     5
100
AcDbLine
 10
428.9338982633614
 20
-583.1938939081069
 30
0.0
 11
466.9338982633549
 21
-545.1938939081093
 31
0.0
  0
LINE
  5
180
330
1F
100
AcDbEntity
  8
0-0
  6
JWW_DASHED1
 62
   120
370
     5
100
AcDbLine
 10
428.9338982633614
 20
-573.2943989728899
 30
0.0
 11
466.9338982633617
 21
-535.2943989728855
 31
0.0
  0
LINE
  5
181
330
1F
100
AcDbEntity
  8
0-0
  6
JWW_DASHED1
 62
   120
370
     5
100
AcDbLine
 10
428.9338982633614
 20
-563.3949040376701
 30
0.0
 11
466.9338982633685
 21
-525.3949040376613
 31
0.0
  0
LINE
  5
182
330
1F
100
AcDbEntity
  8
0-0
  6
JWW_DASHED1
 62
   120
370
     5
100
AcDbLine
 10
428.9338982633614
 20
-553.4954091025098
 30
0.0
 11
466.9338982633549
 21
-515.4954091025122
 31
0.0
  0
LINE
  5
183
330
1F
100
AcDbEntity
  8
0-0
  6
JWW_DASHED1
 62
   120
370
     5
100
AcDbLine
 10
428.9338982633614
 20
-543.5959141672903
 30
0.0
 11
466.9338982633651
 21
-505.5959141672882
 31
0.0
  0
LINE
  5
184
330
1F
100
AcDbEntity
  8
0-0
  6
JWW_DASHED1
 62
   120
370
     5
100
AcDbLine
 10
428.9338982633614
 20
-533.6964192320756
 30
0.0
 11
466.9338982633549
 21
-495.6964192320804
 31
0.0
  0
LINE
  5
185
330
1F
100
AcDbEntity
  8
0-0
  6
JWW_DASHED1
 62
   120
370
     5
100
AcDbLine
 10
428.9338982633614
 20
-523.79692429691
 30
0.0
 11
466.9338982633617
 21
-485.7969242969152
 31
0.0
  0
LINE
  5
186
330
1F
100
AcDbEntity
  8
0-0
  6
JWW_DASHED1
 62
   120
370
     5
100
AcDbLine
 10
428.9338982633614
 20
-513.8974293616958
 30
0.0
 11
466.9338982633685
 21
-475.897429361692
 31
0.0
  0
LINE
  5
187
330
1F
100
AcDbEntity
  8
0-0
  6
JWW_DASHED1
 62
   120
370
     5
100
AcDbLine
 10
428.9338982633614
 20
-503.9979344264816
 30
0.0
 11
466.9338982633583
 21
-465.9979344264838
 31
0.0
  0
LINE
  5
188
330
1F
100
AcDbEntity
  8
0-0
  6
JWW_DASHED1
 62
   120
370
     5
100
AcDbLine
 10
428.9338982633614
 20
-494.0984394913198
 30
0.0
 11
466.9338982633617
 21
-456.0984394913186
 31
0.0
  0
LINE
  5
189
330
1F
100
AcDbEntity
  8
0-0
  6
JWW_DASHED1
 62
   120
370
     5
100
AcDbLine
 10
428.9338982633614
 20
-484.1989445561005
 30
0.0
 11
466.9338982633549
 21
-446.1989445561103
 31
0.0
  0
LINE
  5
18A
330
1F
100
AcDbEntity
  8
0-0
  6
JWW_DASHED1
 62
   120
370
     5
100
AcDbLine
 10
428.9338982633614
 20
-474.299449620888
 30
0.0
 11
466.9338982633617
 21
-436.2994496208867
 31
0.0
  0
LINE
  5
18B
330
1F
100
AcDbEntity
  8
0-0
  6
JWW_DASHED1
 62
   120
370
     5
100
AcDbLine
 10
428.9338982633614
 20
-464.3999546857258
 30
0.0
 11
466.9338982633651
 21
-426.3999546857219
 31
0.0
  0
LINE
  5
18C
330
1F
100
AcDbEntity
  8
0-0
  6
JWW_DASHED1
 62
   120
370
     5
100
AcDbLine
 10
428.9338982633614
 20
-454.5004597505124
 30
0.0
 11
466.9338982633549
 21
-416.5004597505133
 31
0.0
  0
LINE
  5
18D
330
1F
100
AcDbEntity
  8
0-0
  6
JWW_DASHED1
 62
   120
370
     5
100
AcDbLine
 10
428.9338982633614
 20
-444.6009648152918
 30
0.0
 11
466.9338982633617
 21
-406.6009648152897
 31
0.0
  0
LINE
  5
18E
330
1F
100
AcDbEntity
  8
0-0
  6
JWW_DASHED1
 62
   120
370
     5
100
AcDbLine
 10
428.9338982633614
 20
-434.7014698801257
 30
0.0
 11
466.9338982633685
 21
-396.7014698801249
 31
0.0
  0
LINE
  5
18F
330
1F
100
AcDbEntity
  8
0-0
  6
JWW_DASHED1
 62
   120
370
     5
100
AcDbLine
 10
428.9338982633614
 20
-424.8019749449106
 30
0.0
 11
466.9338982633583
 21
-386.8019749449171
 31
0.0
  0
LINE
  5
190
330
1F
100
AcDbEntity
  8
0-0
  6
JWW_DASHED1
 62
   120
370
     5
100
AcDbLine
 10
428.9338982633614
 20
-414.9024800096977
 30
0.0
 11
466.9338982633651
 21
-376.902480009693
 31
0.0
  0
LINE
  5
191
330
1F
100
AcDbEntity
  8
0-0
  6
JWW_DASHED1
 62
   120
370
     5
100
AcDbLine
 10
428.9338982633614
 20
-405.0029850745368
 30
0.0
 11
466.9338982633685
 21
-367.0029850745278
 31
0.0
  0
LINE
  5
192
330
1F
100
AcDbEntity
  8
0-0
  6
JWW_DASHED1
 62
   120
370
     5
100
AcDbLine
 10
428.9338982633614
 20
-395.103490139317
 30
0.0
 11
466.9338982633617
 21
-357.10349013932
 31
0.0
  0
LINE
  5
193
330
1F
100
AcDbEntity
  8
0-0
  6
JWW_DASHED1
 62
   120
370
     5
100
AcDbLine
 10
428.9338982633614
 20
-385.2039952041049
 30
0.0
 11
466.9338982633685
 21
-347.203995204096
 31
0.0
  0
LINE
  5
194
330
1F
100
AcDbEntity
  8
0-0
  6
JWW_DASHED1
 62
   120
370
     5
100
AcDbLine
 10
428.9338982633614
 20
-375.3045002689372
 30
0.0
 11
466.9338982633617
 21
-337.3045002689415
 31
0.0
  0
LINE
  5
195
330
1F
100
AcDbEntity
  8
0-0
  6
JWW_DASHED1
 62
   120
370
     5
100
AcDbLine
 10
428.9338982633614
 20
-365.4050053337268
 30
0.0
 11
466.9338982633617
 21
-327.405005333723
 31
0.0
  0
LINE
  5
196
330
1F
100
AcDbEntity
  8
0-0
  6
JWW_DASHED1
 62
   120
370
     5
100
AcDbLine
 10
428.9338982633614
 20
-355.505510398513
 30
0.0
 11
466.9338982633549
 21
-317.5055103985147
 31
0.0
  0
LINE
  5
197
330
1F
100
AcDbEntity
  8
0-0
  6
JWW_DASHED1
 62
   120
370
     5
100
AcDbLine
 10
428.9338982633614
 20
-345.6060154633486
 30
0.0
 11
466.9338982633583
 21
-307.60601546335
 31
0.0
  0
LINE
  5
198
330
1F
100
AcDbEntity
  8
0-0
  6
JWW_DASHED1
 62
   120
370
     5
100
AcDbLine
 10
428.9338982633614
 20
-335.7065205281264
 30
0.0
 11
466.9338982633651
 21
-297.7065205281259
 31
0.0
  0
LINE
  5
199
330
1F
100
AcDbEntity
  8
0-0
  6
JWW_DASHED1
 62
   120
370
     5
100
AcDbLine
 10
428.9338982633614
 20
-325.8070255929117
 30
0.0
 11
466.9338982633583
 21
-287.8070255929181
 31
0.0
  0
LINE
  5
19A
330
1F
100
AcDbEntity
  8
0-0
  6
JWW_DASHED1
 62
   120
370
     5
100
AcDbLine
 10
428.9338982633614
 20
-315.9075306577478
 30
0.0
 11
466.9338982633617
 21
-277.9075306577529
 31
0.0
  0
LINE
  5
19B
330
1F
100
AcDbEntity
  8
0-0
  6
JWW_DASHED1
 62
   120
370
     5
100
AcDbLine
 10
428.9338982633614
 20
-306.0080357225395
 30
0.0
 11
466.9338982633685
 21
-268.0080357225289
 31
0.0
  0
LINE
  5
19C
330
1F
100
AcDbEntity
  8
0-0
  6
JWW_DASHED1
 62
   120
370
     5
100
AcDbLine
 10
428.9338982633614
 20
-296.1085407873159
 30
0.0
 11
466.9338982633617
 21
-258.1085407873211
 31
0.0
  0
LINE
  5
19D
330
1F
100
AcDbEntity
  8
0-0
  6
JWW_DASHED1
 62
   120
370
     5
100
AcDbLine
 10
428.9338982633614
 20
-286.2090458521579
 30
0.0
 11
466.9338982633617
 21
-248.2090458521559
 31
0.0
  0
LINE
  5
19E
330
1F
100
AcDbEntity
  8
0-0
  6
JWW_DASHED1
 62
   120
370
     5
100
AcDbLine
 10
428.9338982633614
 20
-276.3095509169446
 30
0.0
 11
466.9338982633685
 21
-238.3095509169318
 31
0.0
  0
LINE
  5
19F
330
1F
100
AcDbEntity
  8
0-0
  6
JWW_DASHED1
 62
   120
370
     5
100
AcDbLine
 10
428.9338982633614
 20
-266.4100559817261
 30
0.0
 11
466.9338982633617
 21
-228.410055981724
 31
0.0
  0
LINE
  5
1A0
330
1F
100
AcDbEntity
  8
0-0
  6
JWW_DASHED1
 62
   120
370
     5
100
AcDbLine
 10
428.9338982633614
 20
-256.5105610465644
 30
0.0
 11
466.9338982633651
 21
-218.5105610465588
 31
0.0
  0
LINE
  5
1A1
330
1F
100
AcDbEntity
  8
0-0
  6
JWW_DASHED1
 62
   120
370
     5
100
AcDbLine
 10
428.9338982633614
 20
-246.6110661113446
 30
0.0
 11
466.9338982633583
 21
-208.611066111351
 31
0.0
  0
LINE
  5
1A2
330
1F
100
AcDbEntity
  8
0-0
  6
JWW_DASHED1
 62
   120
370
     5
100
AcDbLine
 10
428.9338982633614
 20
-236.7115711761606
 30
0.0
 11
466.9338982633617
 21
-198.7115711761568
 31
0.0
  0
LINE
  5
1A3
330
1F
100
AcDbEntity
  8
0-0
  6
JWW_DASHED1
 62
   120
370
     5
100
AcDbLine
 10
428.9338982633614
 20
-226.812076240963
 30
0.0
 11
466.9338982633685
 21
-188.8120762409622
 31
0.0
  0
LINE
  5
1A4
330
1F
100
AcDbEntity
  8
0-0
  6
JWW_DASHED1
 62
   120
370
     5
100
AcDbLine
 10
428.9338982633614
 20
-216.9125813057501
 30
0.0
 11
466.9338982633617
 21
-178.9125813057544
 31
0.0
  0
LINE
  5
1A5
330
1F
100
AcDbEntity
  8
0-0
  6
JWW_DASHED1
 62
   120
370
     5
100
AcDbLine
 10
428.9338982633614
 20
-207.0130863705602
 30
0.0
 11
466.9338982633651
 21
-169.0130863705598
 31
0.0
  0
LINE
  5
1A6
330
1F
100
AcDbEntity
  8
0-0
  6
JWW_DASHED1
 62
   120
370
     5
100
AcDbLine
 10
428.9338982633614
 20
-197.1135914353779
 30
0.0
 11
466.9338982633549
 21
-159.1135914353809
 31
0.0
  0
LINE
  5
1A7
330
1F
100
AcDbEntity
  8
0-0
  6
JWW_DASHED1
 62
   120
370
     5
100
AcDbLine
 10
428.9338982633614
 20
-187.2140965001628
 30
0.0
 11
466.9338982633617
 21
-149.2140965001569
 31
0.0
  0
LINE
  5
1A8
330
1F
100
AcDbEntity
  8
0-0
  6
JWW_DASHED1
 62
   120
370
     5
100
AcDbLine
 10
428.9338982633614
 20
-177.314601564993
 30
0.0
 11
466.9338982633651
 21
-139.3146015649926
 31
0.0
  0
LINE
  5
1A9
330
1F
100
AcDbEntity
  8
0-0
  6
JWW_DASHED1
 62
   120
370
     5
100
AcDbLine
 10
428.9338982633614
 20
-167.415106629783
 30
0.0
 11
466.9338982633549
 21
-129.4151066297839
 31
0.0
  0
LINE
  5
1AA
330
1F
100
AcDbEntity
  8
0-0
  6
JWW_DASHED1
 62
   120
370
     5
100
AcDbLine
 10
428.9338982633614
 20
-157.5156116945611
 30
0.0
 11
466.9338982633651
 21
-119.5156116945607
 31
0.0
  0
LINE
  5
1AB
330
1F
100
AcDbEntity
  8
0-0
  6
JWW_DASHED1
 62
   120
370
     5
100
AcDbLine
 10
428.9338982633614
 20
-147.6161167593993
 30
0.0
 11
466.9338982633685
 21
-109.6161167593955
 31
0.0
  0
LINE
  5
1AC
330
1F
100
AcDbEntity
  8
0-0
  6
JWW_DASHED1
 62
   120
370
     5
100
AcDbLine
 10
428.9338982633614
 20
-137.7166218241847
 30
0.0
 11
466.9338982633583
 21
-99.71662182418768
 31
0.0
  0
LINE
  5
1AD
330
1F
100
AcDbEntity
  8
0-0
  6
JWW_DASHED1
 62
   120
370
     5
100
AcDbLine
 10
428.9338982633614
 20
-127.8171268889675
 30
0.0
 11
466.9338982633685
 21
-89.81712688896366
 31
0.0
  0
LINE
  5
1AE
330
1F
100
AcDbEntity
  8
0-0
  6
JWW_DASHED1
 62
   120
370
     5
100
AcDbLine
 10
428.9338982633614
 20
-117.9176319538091
 30
0.0
 11
466.9338982633685
 21
-79.91763195379846
 31
0.0
  0
LINE
  5
1AF
330
1F
100
AcDbEntity
  8
0-0
  6
JWW_DASHED1
 62
   120
370
     5
100
AcDbLine
 10
428.9338982633614
 20
-108.018137018591
 30
0.0
 11
466.9338982633617
 21
-70.01813701859064
 31
0.0
  0
LINE
  5
1B0
330
1F
100
AcDbEntity
  8
0-0
  6
JWW_DASHED1
 62
   120
370
     5
100
AcDbLine
 10
428.9338982633614
 20
-98.11864208337724
 30
0.0
 11
466.9338982633685
 21
-60.11864208336661
 31
0.0
  0
LINE
  5
1B1
330
1F
100
AcDbEntity
  8
0-0
  6
JWW_DASHED1
 62
   120
370
     5
100
AcDbLine
 10
428.9338982633614
 20
-88.21914714821034
 30
0.0
 11
466.9338982633651
 21
-50.21914714820994
 31
0.0
  0
LINE
  5
1B2
330
1F
100
AcDbEntity
  8
0-0
  6
JWW_DASHED1
 62
   120
370
     5
100
AcDbLine
 10
428.9338982633614
 20
-78.3196522129991
 30
0.0
 11
466.9338982633651
 21
-40.31965221299359
 31
0.0
  0
LINE
  5
1B3
330
1F
100
AcDbEntity
  8
0-0
  6
JWW_DASHED1
 62
   120
370
     5
100
AcDbLine
 10
428.9338982633614
 20
-68.42015727778275
 30
0.0
 11
466.9338982633549
 21
-30.42015727778576
 31
0.0
  0
LINE
  5
1B4
330
1F
100
AcDbEntity
  8
0-0
  6
JWW_DASHED1
 62
   120
370
     5
100
AcDbLine
 10
428.9338982633614
 20
-58.52066234261414
 30
0.0
 11
466.9338982633583
 21
-20.52066234262057
 31
0.0
  0
LINE
  5
1B5
330
1F
100
AcDbEntity
  8
0-0
  6
JWW_DASHED1
 62
   120
370
     5
100
AcDbLine
 10
428.9338982633614
 20
-48.62116740739822
 30
0.0
 11
466.9338982633685
 21
-10.62116740739654
 31
0.0
  0
LINE
  5
1B6
330
1F
100
AcDbEntity
  8
0-0
  6
JWW_DASHED1
 62
   120
370
     5
100
AcDbLine
 10
428.9338982633614
 20
-38.72167247218229
 30
0.0
 11
466.9338982633583
 21
-0.7216724721887147
 31
0.0
  0
LINE
  5
1B7
330
1F
100
AcDbEntity
  8
0-0
  6
JWW_DASHED1
 62
   120
370
     5
100
AcDbLine
 10
428.9338982633614
 20
-28.82217753702861
 30
0.0
 11
466.9338982633617
 21
9.17782246297648
 31
0.0
  0
LINE
  5
1B8
330
1F
100
AcDbEntity
  8
0-0
  6
JWW_DASHED1
 62
   120
370
     5
100
AcDbLine
 10
428.9338982633614
 20
-18.92268260180799
 30
0.0
 11
466.9338982633685
 21
19.07731739820008
 31
0.0
  0
LINE
  5
1B9
330
1F
100
AcDbEntity
  8
0-0
  6
JWW_DASHED1
 62
   120
370
     5
100
AcDbLine
 10
428.9338982633614
 20
-9.023187666588655
 30
0.0
 11
466.9338982633617
 21
28.97681233340833
 31
0.0
  0
LINE
  5
1BA
330
1F
100
AcDbEntity
  8
0-0
  6
JWW_DASHED1
 62
   120
370
     5
100
AcDbLine
 10
428.9338982633614
 20
0.8763072685692919
 30
0.0
 11
466.9338982633617
 21
38.8763072685731
 31
0.0
  0
LINE
  5
1BB
330
1F
100
AcDbEntity
  8
0-0
  6
JWW_DASHED1
 62
   120
370
     5
100
AcDbLine
 10
428.9338982633614
 20
10.77580220378564
 30
0.0
 11
466.9338982633719
 21
48.77580220379713
 31
0.0
  0
LINE
  5
1BC
330
1F
100
AcDbEntity
  8
0-0
  6
JWW_DASHED1
 62
   120
370
     5
100
AcDbLine
 10
428.9338982633614
 20
20.67529713900157
 30
0.0
 11
466.9338982633617
 21
58.67529713900538
 31
0.0
  0
LINE
  5
1BD
330
1F
100
AcDbEntity
  8
0-0
  6
JWW_DASHED1
 62
   120
370
     5
100
AcDbLine
 10
428.9338982633614
 20
30.57479207416293
 30
0.0
 11
466.9338982633651
 21
68.57479207417015
 31
0.0
  0
LINE
  5
1BE
330
1F
100
AcDbEntity
  8
0-0
  6
JWW_DASHED1
 62
   120
370
     5
100
AcDbLine
 10
428.9338982633614
 20
40.47428700937971
 30
0.0
 11
466.9338982633583
 21
78.4742870093784
 31
0.0
  0
LINE
  5
1BF
330
1F
100
AcDbEntity
  8
0-0
  6
JWW_DASHED1
 62
   120
370
     5
100
AcDbLine
 10
428.9338982633614
 20
50.3737819446016
 30
0.0
 11
466.9338982633651
 21
88.373781944602
 31
0.0
  0
LINE
  5
1C0
330
1F
100
AcDbEntity
  8
0-0
  6
JWW_DASHED1
 62
   120
370
     5
100
AcDbLine
 10
428.9338982633614
 20
60.27327687975529
 30
0.0
 11
466.9338982633685
 21
98.2732768797672
 31
0.0
  0
LINE
  5
1C1
330
1F
100
AcDbEntity
  8
0-0
  6
JWW_DASHED1
 62
   120
370
     5
100
AcDbLine
 10
428.9338982633614
 20
70.17277181498102
 30
0.0
 11
466.9338982633617
 21
108.172771814975
 31
0.0
  0
LINE
  5
1C2
330
1F
100
AcDbEntity
  8
0-0
  6
JWW_DASHED1
 62
   120
370
     5
100
AcDbLine
 10
428.9338982633614
 20
80.07226675019439
 30
0.0
 11
466.9338982633685
 21
118.072266750199
 31
0.0
  0
LINE
  5
1C3
330
1F
100
AcDbEntity
  8
0-0
  6
JWW_DASHED1
 62
   120
370
     5
100
AcDbLine
 10
428.9338982633614
 20
89.9717616853502
 30
0.0
 11
466.9338982633549
 21
127.9717616853485
 31
0.0
  0
LINE
  5
1C4
330
1F
100
AcDbEntity
  8
0-0
  6
JWW_DASHED1
 62
   120
370
     5
100
AcDbLine
 10
428.9338982633614
 20
99.87125662057082
 30
0.0
 11
466.9338982633617
 21
137.8712566205721
 31
0.0
  0
LINE
  5
1C5
330
1F
100
AcDbEntity
  8
0-0
  6
JWW_DASHED1
 62
   120
370
     5
100
AcDbLine
 10
428.9338982633614
 20
109.770751555785
 30
0.0
 11
466.9338982633685
 21
147.7707515557957
 31
0.0
  0
LINE
  5
1C6
330
1F
100
AcDbEntity
  8
0-0
  6
JWW_DASHED1
 62
   120
370
     5
100
AcDbLine
 10
428.9338982633614
 20
119.6702464909511
 30
0.0
 11
466.9338982633583
 21
157.6702464909455
 31
0.0
  0
LINE
  5
1C7
330
1F
100
AcDbEntity
  8
0-0
  6
JWW_DASHED1
 62
   120
370
     5
100
AcDbLine
 10
428.9338982633614
 20
129.5697414261636
 30
0.0
 11
466.9338982633651
 21
167.5697414261691
 31
0.0
  0
LINE
  5
1C8
330
1F
100
AcDbEntity
  8
0-0
  6
JWW_DASHED1
 62
   120
370
     5
100
AcDbLine
 10
428.9338982633614
 20
139.4692363613821
 30
0.0
 11
466.9338982633685
 21
177.4692363613867
 31
0.0
  0
LINE
  5
1C9
330
1F
100
AcDbEntity
  8
0-0
  6
JWW_DASHED1
 62
   120
370
     5
100
AcDbLine
 10
428.9338982633614
 20
149.3687312965443
 30
0.0
 11
466.9338982633617
 21
187.3687312965421
 31
0.0
  0
LINE
  5
1CA
330
1F
100
AcDbEntity
  8
0-0
  6
JWW_DASHED1
 62
   120
370
     5
100
AcDbLine
 10
428.9338982633614
 20
159.2682262317649
 30
0.0
 11
466.9338982633685
 21
197.2682262317657
 31
0.0
  0
LINE
  5
1CB
330
1F
100
AcDbEntity
  8
0-0
  6
JWW_DASHED1
 62
   120
370
     5
100
AcDbLine
 10
428.9338982633614
 20
169.1677211669723
 30
0.0
 11
466.9338982633583
 21
207.167721166974
 31
0.0
  0
LINE
  5
1CC
330
1F
100
AcDbEntity
  8
0-0
  6
JWW_DASHED1
 62
   120
370
     5
100
AcDbLine
 10
428.9338982633614
 20
179.0672161021349
 30
0.0
 11
466.9338982633617
 21
217.0672161021388
 31
0.0
  0
LINE
  5
1CD
330
1F
100
AcDbEntity
  8
0-0
  6
JWW_DASHED1
 62
   120
370
     5
100
AcDbLine
 10
428.9338982633614
 20
188.9667110373568
 30
0.0
 11
466.9338982633549
 21
226.966711037347
 31
0.0
  0
LINE
  5
1CE
330
1F
100
AcDbEntity
  8
0-0
  6
JWW_DASHED1
 62
   120
370
     5
100
AcDbLine
 10
428.9338982633614
 20
198.8662059725668
 30
0.0
 11
466.9338982633617
 21
236.8662059725706
 31
0.0
  0
LINE
  5
1CF
330
1F
100
AcDbEntity
  8
0-0
  6
JWW_DASHED1
 62
   120
370
     5
100
AcDbLine
 10
428.9338982633614
 20
208.7657009077354
 30
0.0
 11
466.9338982633651
 21
246.7657009077358
 31
0.0
  0
LINE
  5
1D0
330
1F
100
AcDbEntity
  8
0-0
  6
JWW_DASHED1
 62
   120
370
     5
100
AcDbLine
 10
428.9338982633614
 20
218.6651958429466
 30
0.0
 11
466.9338982633549
 21
256.6651958429436
 31
0.0
  0
LINE
  5
1D1
330
1F
100
AcDbEntity
  8
0-0
  6
JWW_DASHED1
 62
   120
370
     5
100
AcDbLine
 10
428.9338982633614
 20
228.5646907781673
 30
0.0
 11
466.9338982633651
 21
266.5646907781677
 31
0.0
  0
LINE
  5
1D2
330
1F
100
AcDbEntity
  8
0-0
  6
JWW_DASHED1
 62
   120
370
     5
100
AcDbLine
 10
428.9338982633614
 20
238.4641857133282
 30
0.0
 11
466.9338982633685
 21
276.4641857133329
 31
0.0
  0
LINE
  5
1D3
330
1F
100
AcDbEntity
  8
0-0
  6
JWW_DASHED1
 62
   120
370
     5
100
AcDbLine
 10
428.9338982633614
 20
248.3636806485428
 30
0.0
 11
466.9338982633583
 21
286.3636806485407
 31
0.0
  0
LINE
  5
1D4
330
1F
100
AcDbEntity
  8
0-0
  6
JWW_DASHED1
 62
   120
370
     5
100
AcDbLine
 10
428.9338982633614
 20
258.2631755837609
 30
0.0
 11
466.9338982633685
 21
296.2631755837647
 31
0.0
  0
LINE
  5
1D5
330
1F
100
AcDbEntity
  8
0-0
  6
JWW_DASHED1
 62
   120
370
     5
100
AcDbLine
 10
428.9338982633614
 20
268.162670518918
 30
0.0
 11
466.9338982633685
 21
306.1626705189299
 31
0.0
  0
LINE
  5
1D6
330
1F
100
AcDbEntity
  8
0-0
  6
JWW_DASHED1
 62
   120
370
     5
100
AcDbLine
 10
428.9338982633614
 20
278.0621654541357
 30
0.0
 11
466.9338982633617
 21
316.0621654541377
 31
0.0
  0
LINE
  5
1D7
330
1F
100
AcDbEntity
  8
0-0
  6
JWW_DASHED1
 62
   120
370
     5
100
AcDbLine
 10
428.9338982633614
 20
287.9616603893498
 30
0.0
 11
466.9338982633685
 21
325.9616603893618
 31
0.0
  0
LINE
  5
1D8
330
1F
100
AcDbEntity
  8
0-0
  6
JWW_DASHED1
 62
   120
370
     5
100
AcDbLine
 10
428.9338982633614
 20
297.8611553245193
 30
0.0
 11
466.9338982633719
 21
335.8611553245265
 31
0.0
  0
LINE
  5
1D9
330
1F
100
AcDbEntity
  8
0-0
  6
JWW_DASHED1
 62
   120
370
     5
100
AcDbLine
 10
428.9338982633614
 20
307.7606502597292
 30
0.0
 11
466.9338982633651
 21
345.7606502597348
 31
0.0
  0
LINE
  5
1DA
330
1F
100
AcDbEntity
  8
0-0
  6
JWW_DASHED1
 62
   120
370
     5
100
AcDbLine
 10
428.9338982633614
 20
317.6601451949456
 30
0.0
 11
466.9338982633549
 21
355.6601451949426
 31
0.0
  0
LINE
  5
1DB
330
1F
100
AcDbEntity
  8
0-0
  6
JWW_DASHED1
 62
   120
370
     5
100
AcDbLine
 10
428.9338982633614
 20
327.5596401301074
 30
0.0
 11
466.9338982633583
 21
365.5596401301078
 31
0.0
  0
LINE
  5
1DC
330
1F
100
AcDbEntity
  8
0-0
  6
JWW_DASHED1
 62
   120
370
     5
100
AcDbLine
 10
428.9338982633614
 20
337.4591350653305
 30
0.0
 11
466.9338982633685
 21
375.4591350653314
 31
0.0
  0
LINE
  5
1DD
330
1F
100
AcDbEntity
  8
0-0
  6
JWW_DASHED1
 62
   120
370
     5
100
AcDbLine
 10
428.9338982633614
 20
347.3586300005461
 30
0.0
 11
466.9338982633583
 21
385.3586300005396
 31
0.0
  0
LINE
  5
1DE
330
1F
100
AcDbEntity
  8
0-0
  6
JWW_DASHED1
 62
   120
370
     5
100
AcDbLine
 10
428.9338982633614
 20
357.2581249357015
 30
0.0
 11
466.9338982633617
 21
395.2581249357044
 31
0.0
  0
LINE
  5
1DF
330
1F
100
AcDbEntity
  8
0-0
  6
JWW_DASHED1
 62
   120
370
     5
100
AcDbLine
 10
428.9338982633614
 20
367.1576198709204
 30
0.0
 11
466.9338982633685
 21
405.1576198709284
 31
0.0
  0
LINE
  5
1E0
330
1F
100
AcDbEntity
  8
0-0
  6
JWW_DASHED1
 62
   120
370
     5
100
AcDbLine
 10
428.9338982633614
 20
377.0571148061133
 30
0.0
 11
466.9338982633583
 21
415.0571148061068
 31
0.0
  0
LINE
  5
1E1
330
1F
100
AcDbEntity
  8
0-0
  6
JWW_DASHED1
 62
   120
370
     5
100
AcDbLine
 10
428.9338982633614
 20
386.9566097412977
 30
0.0
 11
466.9338982633617
 21
424.9566097413015
 31
0.0
  0
LINE
  5
1E2
330
1F
100
AcDbEntity
  8
0-0
  6
JWW_DASHED1
 62
   120
370
     5
100
AcDbLine
 10
428.9338982633614
 20
396.8561046765132
 30
0.0
 11
466.9338982633719
 21
434.8561046765255
 31
0.0
  0
LINE
  5
1E3
330
1F
100
AcDbEntity
  8
0-0
  6
JWW_DASHED1
 62
   120
370
     5
100
AcDbLine
 10
428.9338982633614
 20
406.7555996116801
 30
0.0
 11
466.9338982633583
 21
444.7555996116745
 31
0.0
  0
LINE
  5
1E4
330
1F
100
AcDbEntity
  8
0-0
  6
JWW_DASHED1
 62
   120
370
     5
100
AcDbLine
 10
428.9338982633614
 20
416.65509454689
 30
0.0
 11
466.9338982633651
 21
454.6550945468985
 31
0.0
  0
LINE
  5
1E5
330
1F
100
AcDbEntity
  8
0-0
  6
JWW_DASHED1
 62
   120
370
     5
100
AcDbLine
 10
428.9338982633614
 20
426.5545894821085
 30
0.0
 11
466.9338982633583
 21
464.5545894821063
 31
0.0
  0
LINE
  5
1E6
330
1F
100
AcDbEntity
  8
0-0
  6
JWW_DASHED1
 62
   120
370
     5
100
AcDbLine
 10
428.9338982633614
 20
436.4540844172767
 30
0.0
 11
466.9338982633617
 21
474.4540844172715
 31
0.0
  0
LINE
  5
1E7
330
1F
100
AcDbEntity
  8
0-0
  6
JWW_DASHED1
 62
   120
370
     5
100
AcDbLine
 10
428.9338982633614
 20
446.3535793524845
 30
0.0
 11
466.9338982633685
 21
484.3535793524951
 31
0.0
  0
LINE
  5
1E8
330
1F
100
AcDbEntity
  8
0-0
  6
JWW_DASHED1
 62
   120
370
     5
100
AcDbLine
 10
428.9338982633614
 20
456.2530742877094
 30
0.0
 11
466.9338982633617
 21
494.2530742877034
 31
0.0
  0
LINE
  5
1E9
330
1F
100
AcDbEntity
  8
0-0
  6
JWW_DASHED1
 62
   120
370
     5
100
AcDbLine
 10
428.9338982633614
 20
466.1525692228597
 30
0.0
 11
466.9338982633617
 21
504.1525692228681
 31
0.0
  0
LINE
  5
1EA
330
1F
100
AcDbEntity
  8
0-0
  6
JWW_DASHED1
 62
   120
370
     5
100
AcDbLine
 10
428.9338982633614
 20
476.0520641580794
 30
0.0
 11
466.9338982633549
 21
514.0520641580764
 31
0.0
  0
LINE
  5
1EB
330
1F
100
AcDbEntity
  8
0-0
  6
JWW_DASHED1
 62
   120
370
     5
100
AcDbLine
 10
428.9338982633614
 20
485.9515590932988
 30
0.0
 11
466.9338982633617
 21
523.9515590933
 31
0.0
  0
LINE
  5
1EC
330
1F
100
AcDbEntity
  8
0-0
  6
JWW_DASHED1
 62
   120
370
     5
100
AcDbLine
 10
428.9338982633614
 20
495.8510540284606
 30
0.0
 11
466.9338982633651
 21
533.8510540284652
 31
0.0
  0
LINE
  5
1ED
330
1F
100
AcDbEntity
  8
0-0
  6
JWW_DASHED1
 62
   120
370
     5
100
AcDbLine
 10
428.9338982633614
 20
505.750548963679
 30
0.0
 11
466.9338982633583
 21
543.7505489636735
 31
0.0
  0
LINE
  5
1EE
330
1F
100
AcDbEntity
  8
0-0
  6
JWW_DASHED1
 62
   120
370
     5
100
AcDbLine
 10
428.9338982633614
 20
515.6500438988916
 30
0.0
 11
466.9338982633651
 21
553.650043898897
 31
0.0
  0
LINE
  5
1EF
330
1F
100
AcDbEntity
  8
0-0
  6
JWW_DASHED1
 62
   120
370
     5
100
AcDbLine
 10
428.9338982633614
 20
525.5495388340534
 30
0.0
 11
466.9338982633685
 21
563.5495388340622
 31
0.0
  0
LINE
  5
1F0
330
1F
100
AcDbEntity
  8
0-0
  6
JWW_DASHED1
 62
   120
370
     5
100
AcDbLine
 10
428.9338982633614
 20
535.4490337692731
 30
0.0
 11
466.9338982633617
 21
573.44903376927
 31
0.0
  0
LINE
  5
1F1
330
1F
100
AcDbEntity
  8
0-0
  6
JWW_DASHED1
 62
   120
370
     5
100
AcDbLine
 10
428.9338982633614
 20
545.348528704492
 30
0.0
 11
466.9338982633685
 21
583.3485287044941
 31
0.0
  0
LINE
  5
1F2
330
1F
100
AcDbEntity
  8
0-0
  6
JWW_DASHED1
 62
   120
370
     5
100
AcDbLine
 10
428.9338982633614
 20
555.2480236396435
 30
0.0
 11
466.9338982633685
 21
593.2480236396589
 31
0.0
  0
LINE
  5
1F3
330
1F
100
AcDbEntity
  8
0-0
  6
JWW_DASHED1
 62
   120
370
     5
100
AcDbLine
 10
428.9338982633614
 20
565.1475185748633
 30
0.0
 11
466.9338982633617
 21
603.1475185748671
 31
0.0
  0
LINE
  5
1F4
330
1F
100
AcDbEntity
  8
0-0
  6
JWW_DASHED1
 62
   120
370
     5
100
AcDbLine
 10
428.9338982633614
 20
575.0470135100823
 30
0.0
 11
466.9338982633685
 21
613.0470135100911
 31
0.0
  0
LINE
  5
1F5
330
1F
100
AcDbEntity
  8
0-0
  6
JWW_DASHED1
 62
   120
370
     5
100
AcDbLine
 10
428.9338982633614
 20
584.9465084452414
 30
0.0
 11
466.9338982633719
 21
622.9465084452538
 31
0.0
  0
LINE
  5
1F6
330
1F
100
AcDbEntity
  8
0-0
  6
JWW_DASHED1
 62
   120
370
     5
100
AcDbLine
 10
428.9338982633614
 20
594.8460033804629
 30
0.0
 11
466.9338982633651
 21
632.8460033804641
 31
0.0
  0
LINE
  5
1F7
330
1F
100
AcDbEntity
  8
0-0
  6
JWW_DASHED1
 62
   120
370
     5
100
AcDbLine
 10
428.9338982633614
 20
604.745498315675
 30
0.0
 11
466.9338982633549
 21
642.745498315672
 31
0.0
  0
LINE
  5
1F8
330
1F
100
AcDbEntity
  8
0-0
  6
JWW_DASHED1
 62
   120
370
     5
100
AcDbLine
 10
428.9338982633614
 20
614.6449932508424
 30
0.0
 11
466.9338982633617
 21
652.6449932508372
 31
0.0
  0
LINE
  5
1F9
330
1F
100
AcDbEntity
  8
0-0
  6
JWW_DASHED1
 62
   120
370
     5
100
AcDbLine
 10
428.9338982633614
 20
624.5444881860569
 30
0.0
 11
466.9338982633685
 21
662.5444881860608
 31
0.0
  0
LINE
  5
1FA
330
1F
100
AcDbEntity
  8
0-0
  6
JWW_DASHED1
 62
   120
370
     5
100
AcDbLine
 10
428.9338982633614
 20
634.4439831212686
 30
0.0
 11
466.9338982633583
 21
672.4439831212691
 31
0.0
  0
LINE
  5
1FB
330
1F
100
AcDbEntity
  8
0-0
  6
JWW_DASHED1
 62
   120
370
     5
100
AcDbLine
 10
428.9338982633614
 20
644.3434780564326
 30
0.0
 11
466.9338982633617
 21
682.3434780564334
 31
0.0
  0
LINE
  5
1FC
330
1F
100
AcDbEntity
  8
0-0
  6
JWW_DASHED1
 62
   120
370
     5
100
AcDbLine
 10
428.9338982633614
 20
654.2429729916468
 30
0.0
 11
466.9338982633685
 21
692.2429729916578
 31
0.0
  0
LINE
  5
1FD
330
1F
100
AcDbEntity
  8
0-0
  6
JWW_DASHED1
 62
   120
370
     5
100
AcDbLine
 10
428.9338982633614
 20
664.142467926864
 30
0.0
 11
466.9338982633617
 21
702.1424679268661
 31
0.0
  0
LINE
  5
1FE
330
1F
100
AcDbEntity
  8
0-0
  6
JWW_DASHED1
 62
   120
370
     5
100
AcDbLine
 10
428.9338982633614
 20
674.0419628620261
 30
0.0
 11
466.9338982633651
 21
712.0419628620309
 31
0.0
  0
LINE
  5
1FF
330
1F
100
AcDbEntity
  8
0-0
  6
JWW_DASHED1
 62
   120
370
     5
100
AcDbLine
 10
428.9338982633614
 20
683.9414577972473
 30
0.0
 11
466.9338982633719
 21
721.9414577972544
 31
0.0
  0
LINE
  5
200
330
1F
100
AcDbEntity
  8
0-0
  6
JWW_DASHED1
 62
   120
370
     5
100
AcDbLine
 10
428.9338982633614
 20
693.8409527324542
 30
0.0
 11
466.9338982633617
 21
731.8409527324627
 31
0.0
  0
LINE
  5
201
330
1F
100
AcDbEntity
  8
0-0
  6
JWW_DASHED1
 62
   120
370
     5
100
AcDbLine
 10
428.9338982633614
 20
703.7404476676262
 30
0.0
 11
466.9338982633685
 21
741.7404476676279
 31
0.0
  0
LINE
  5
202
330
1F
100
AcDbEntity
  8
0-0
  6
JWW_DASHED1
 62
   120
370
     5
100
AcDbLine
 10
428.9338982633614
 20
713.6399426028422
 30
0.0
 11
466.9338982633583
 21
751.6399426028353
 31
0.0
  0
LINE
  5
203
330
1F
100
AcDbEntity
  8
0-0
  6
JWW_DASHED1
 62
   120
370
     5
100
AcDbLine
 10
428.9338982633614
 20
723.5394375380589
 30
0.0
 11
466.9338982633685
 21
761.5394375380597
 31
0.0
  0
LINE
  5
204
330
1F
100
AcDbEntity
  8
0-0
  6
JWW_DASHED1
 62
   120
370
     5
100
AcDbLine
 10
428.9338982633614
 20
733.4389324732165
 30
0.0
 11
466.9338982633685
 21
771.4389324732246
 31
0.0
  0
LINE
  5
205
330
1F
100
AcDbEntity
  8
0-0
  6
JWW_DASHED1
 62
   120
370
     5
100
AcDbLine
 10
428.9338982633614
 20
743.3384274084358
 30
0.0
 11
466.9338982633617
 21
781.3384274084328
 31
0.0
  0
LINE
  5
206
330
1F
100
AcDbEntity
  8
0-0
  6
JWW_DASHED1
 62
   120
370
     5
100
AcDbLine
 10
428.9338982633614
 20
753.2379223436483
 30
0.0
 11
466.9338982633685
 21
791.2379223436564
 31
0.0
  0
LINE
  5
207
330
1F
100
AcDbEntity
  8
0-0
  6
JWW_DASHED1
 62
   120
370
     5
100
AcDbLine
 10
428.9338982633614
 20
763.1374172788084
 30
0.0
 11
466.9338982633549
 21
801.1374172788057
 31
0.0
  0
LINE
  5
208
330
1F
100
AcDbEntity
  8
0-0
  6
JWW_DASHED1
 62
   120
370
     5
100
AcDbLine
 10
428.9338982633614
 20
773.0369122140247
 30
0.0
 11
466.9338982633617
 21
811.0369122140298
 31
0.0
  0
LINE
  5
209
330
1F
100
AcDbEntity
  8
0-0
  6
JWW_DASHED1
 62
   120
370
     5
100
AcDbLine
 10
428.9338982633614
 20
782.936407149242
 30
0.0
 11
466.9338982633719
 21
820.9364071492535
 31
0.0
  0
LINE
  5
20A
330
1F
100
AcDbEntity
  8
0-0
  6
JWW_DASHED1
 62
   120
370
     5
100
AcDbLine
 10
428.9338982633614
 20
792.8359020844089
 30
0.0
 11
466.9338982633583
 21
830.8359020844024
 31
0.0
  0
LINE
  5
20B
330
1F
100
AcDbEntity
  8
0-0
  6
JWW_DASHED1
 62
   120
370
     5
100
AcDbLine
 10
428.9338982633614
 20
802.7353970196192
 30
0.0
 11
466.9338982633651
 21
840.7353970196265
 31
0.0
  0
LINE
  5
20C
330
1F
100
AcDbEntity
  8
0-0
  6
JWW_DASHED1
 62
   120
370
     5
100
AcDbLine
 10
428.9338982633614
 20
812.6348919548416
 30
0.0
 11
466.9338982633753
 21
850.63489195485
 31
0.0
  0
LINE
  5
20D
330
1F
100
AcDbEntity
  8
0-0
  6
JWW_DASHED1
 62
   120
370
     5
100
AcDbLine
 10
428.9338982633614
 20
822.5343868900054
 30
0.0
 11
466.9338982633617
 21
860.5343868899995
 31
0.0
  0
LINE
  5
20E
330
1F
100
AcDbEntity
  8
0-0
  6
JWW_DASHED1
 62
   120
370
     5
100
AcDbLine
 10
428.9338982633614
 20
832.4338818252129
 30
0.0
 11
466.9338982633685
 21
870.4338818252235
 31
0.0
  0
LINE
  5
20F
330
1F
100
AcDbEntity
  8
0-0
  6
JWW_DASHED1
 62
   120
370
     5
100
AcDbLine
 10
428.9338982633614
 20
842.3333767604369
 30
0.0
 11
466.9338982633617
 21
880.3333767604313
 31
0.0
  0
LINE
  5
210
330
1F
100
AcDbEntity
  8
0-0
  6
JWW_DASHED1
 62
   120
370
     5
100
AcDbLine
 10
428.9338982633614
 20
862.1323666308172
 30
0.0
 11
466.9338982633617
 21
900.132366630806
 31
0.0
  0
LINE
  5
211
330
1F
100
AcDbEntity
  8
0-0
  6
JWW_DASHED1
 62
   120
370
     5
100
AcDbLine
 10
428.9338982633614
 20
852.2328716955986
 30
0.0
 11
466.9338982633617
 21
890.2328716955923
 31
0.0
  0
LINE
  5
212
330
1F
100
AcDbEntity
  8
0-0
  6
JWW_DASHED1
 62
   120
370
     5
100
AcDbLine
 10
428.9338982633614
 20
-979.1736913159433
 30
0.0
 11
466.9338982633583
 21
-941.1736913159434
 31
0.0
  0
LINE
  5
213
330
1F
100
AcDbEntity
  8
0-0
  6
JWW_DASHED1
 62
   120
370
     5
100
AcDbLine
 10
428.9338982633614
 20
-989.0731862511082
 30
0.0
 11
466.9338982633583
 21
-951.0731862511082
 31
0.0
  0
LINE
  5
214
330
1F
100
AcDbEntity
  8
0-0
  6
JWW_DASHED1
 62
   120
370
     5
100
AcDbLine
 10
428.9338982633614
 20
-998.9726811862729
 30
0.0
 11
466.9338982633583
 21
-960.9726811862729
 31
0.0
  0
LINE
  5
215
330
1F
100
AcDbEntity
  8
0-0
  6
JWW_DASHED1
 62
   120
370
     5
100
AcDbLine
 10
431.7345788426065
 20
-1006.071495542192
 30
0.0
 11
466.9338982633583
 21
-970.8721761214376
 31
0.0
  0
LINE
  5
216
330
1F
100
AcDbEntity
  8
0-0
  6
JWW_DASHED1
 62
   120
370
     5
100
AcDbLine
 10
461.4330636480987
 20
-1006.071495542192
 30
0.0
 11
466.9338982633583
 21
-1000.570660926932
 31
0.0
  0
LINE
  5
217
330
1F
100
AcDbEntity
  8
0-0
  6
JWW_DASHED1
 62
   120
370
     5
100
AcDbLine
 10
441.6340737777709
 20
-1006.071495542192
 30
0.0
 11
466.9338982633583
 21
-980.7716710566025
 31
0.0
  0
LINE
  5
218
330
1F
100
AcDbEntity
  8
0-0
  6
JWW_DASHED1
 62
   120
370
     5
100
AcDbLine
 10
451.5335687129352
 20
-1006.071495542192
 30
0.0
 11
466.9338982633583
 21
-990.6711659917672
 31
0.0
  0
LINE
  5
219
330
1F
100
AcDbEntity
  8
0-0
  6
JWW_DASHED1
 62
   120
370
     5
100
AcDbLine
 10
428.9338982633614
 20
872.0318615660357
 30
0.0
 11
466.9338982633617
 21
910.0318615660245
 31
0.0
  0
LINE
  5
21A
330
1F
100
AcDbEntity
  8
0-0
  6
JWW_DASHED1
 62
   120
370
     5
100
AcDbLine
 10
428.9338982633614
 20
881.9313565012542
 30
0.0
 11
466.9338982633617
 21
919.931356501243
 31
0.0
  0
LINE
  5
21B
330
1F
100
AcDbEntity
  8
0-0
  6
JWW_DASHED1
 62
   120
370
     5
100
AcDbLine
 10
428.9338982633614
 20
891.8308514364726
 30
0.0
 11
466.9338982633617
 21
929.8308514364614
 31
0.0
  0
LINE
  5
21C
330
1F
100
AcDbEntity
  8
0-0
  6
JWW_DASHED1
 62
   120
370
     5
100
AcDbLine
 10
428.9338982633614
 20
901.7303463716906
 30
0.0
 11
466.9338982633617
 21
939.73034637168
 31
0.0
  0
LINE
  5
21D
330
1F
100
AcDbEntity
  8
0-0
  6
JWW_DASHED1
 62
   120
370
     5
100
AcDbLine
 10
428.9338982633614
 20
911.6298413069096
 30
0.0
 11
466.9338982633617
 21
949.6298413068985
 31
0.0
  0
LINE
  5
21E
330
1F
100
AcDbEntity
  8
0-0
  6
Continuous
 62
    92
370
    13
100
AcDbLine
 10
428.9338982633614
 20
1168.92850445781
 30
0.0
 11
428.9338982633614
 21
-1014.071495542192
 31
0.0
  0
LINE
  5
21F
330
1F
100
AcDbEntity
  8
0-0
  6
Continuous
 62
    92
370
    13
100
AcDbLine
 10
466.9338982633617
 20
1168.92850445781
 30
0.0
 11
466.9338982633617
 21
-1014.071495542192
 31
0.0
  0
LINE
  5
220
330
1F
100
AcDbEntity
  8
0-0
  6
Continuous
 62
     7
370
     9
100
AcDbLine
 10
428.9338982633614
 20
1160.928504457811
 30
0.0
 11
466.9338982633617
 21
1160.928504457811
 31
0.0
  0
LINE
  5
221
330
1F
100
AcDbEntity
  8
0-0
  6
JWW_DASHED1
 62
   120
370
     5
100
AcDbLine
 10
428.9338982633614
 20
921.529336242128
 30
0.0
 11
466.9338982633617
 21
959.529336242117
 31
0.0
  0
LINE
  5
222
330
1F
100
AcDbEntity
  8
0-0
  6
JWW_DASHED1
 62
   120
370
     5
100
AcDbLine
 10
428.9338982633614
 20
951.2278210477836
 30
0.0
 11
466.9338982633617
 21
989.2278210477724
 31
0.0
  0
LINE
  5
223
330
1F
100
AcDbEntity
  8
0-0
  6
JWW_DASHED1
 62
   120
370
     5
100
AcDbLine
 10
428.9338982633614
 20
931.4288311773465
 30
0.0
 11
466.9338982633617
 21
969.4288311773355
 31
0.0
  0
LINE
  5
224
330
1F
100
AcDbEntity
  8
0-0
  6
JWW_DASHED1
 62
   120
370
     5
100
AcDbLine
 10
428.9338982633614
 20
941.328326112565
 30
0.0
 11
466.9338982633617
 21
979.3283261125539
 31
0.0
  0
LINE
  5
225
330
1F
100
AcDbEntity
  8
0-0
  6
JWW_DASHED1
 62
   120
370
     5
100
AcDbLine
 10
428.9338982633614
 20
971.0268109182205
 30
0.0
 11
466.9338982633617
 21
1009.026810918209
 31
0.0
  0
LINE
  5
226
330
1F
100
AcDbEntity
  8
0-0
  6
JWW_DASHED1
 62
   120
370
     5
100
AcDbLine
 10
428.9338982633614
 20
961.1273159830021
 30
0.0
 11
466.9338982633617
 21
999.1273159829909
 31
0.0
  0
LINE
  5
227
330
1F
100
AcDbEntity
  8
0-0
  6
JWW_DASHED1
 62
   120
370
     5
100
AcDbLine
 10
428.9338982633614
 20
990.8258007886575
 30
0.0
 11
466.9338982633617
 21
1028.825800788646
 31
0.0
  0
LINE
  5
228
330
1F
100
AcDbEntity
  8
0-0
  6
JWW_DASHED1
 62
   120
370
     5
100
AcDbLine
 10
428.9338982633614
 20
980.926305853439
 30
0.0
 11
466.9338982633617
 21
1018.926305853428
 31
0.0
  0
LINE
  5
229
330
1F
100
AcDbEntity
  8
0-0
  6
JWW_DASHED1
 62
   120
370
     5
100
AcDbLine
 10
428.9338982633614
 20
1010.624790659094
 30
0.0
 11
466.9338982633617
 21
1048.624790659083
 31
0.0
  0
LINE
  5
22A
330
1F
100
AcDbEntity
  8
0-0
  6
JWW_DASHED1
 62
   120
370
     5
100
AcDbLine
 10
428.9338982633614
 20
1000.725295723876
 30
0.0
 11
466.9338982633617
 21
1038.725295723865
 31
0.0
  0
LINE
  5
22B
330
1F
100
AcDbEntity
  8
0-0
  6
JWW_DASHED1
 62
   120
370
     5
100
AcDbLine
 10
428.9338982633614
 20
1030.423780529531
 30
0.0
 11
466.9338982633617
 21
1068.42378052952
 31
0.0
  0
LINE
  5
22C
330
1F
100
AcDbEntity
  8
0-0
  6
JWW_DASHED1
 62
   120
370
     5
100
AcDbLine
 10
428.9338982633614
 20
1020.524285594313
 30
0.0
 11
466.9338982633617
 21
1058.524285594301
 31
0.0
  0
LINE
  5
22D
330
1F
100
AcDbEntity
  8
0-0
  6
JWW_DASHED1
 62
   120
370
     5
100
AcDbLine
 10
428.9338982633614
 20
1050.222770399968
 30
0.0
 11
466.9338982633617
 21
1088.222770399957
 31
0.0
  0
LINE
  5
22E
330
1F
100
AcDbEntity
  8
0-0
  6
JWW_DASHED1
 62
   120
370
     5
100
AcDbLine
 10
428.9338982633614
 20
1040.32327546475
 30
0.0
 11
466.9338982633617
 21
1078.323275464739
 31
0.0
  0
LINE
  5
22F
330
1F
100
AcDbEntity
  8
0-0
  6
JWW_DASHED1
 62
   120
370
     5
100
AcDbLine
 10
428.9338982633614
 20
1070.021760270405
 30
0.0
 11
466.9338982633617
 21
1108.021760270394
 31
0.0
  0
LINE
  5
230
330
1F
100
AcDbEntity
  8
0-0
  6
JWW_DASHED1
 62
   120
370
     5
100
AcDbLine
 10
428.9338982633614
 20
1060.122265335187
 30
0.0
 11
466.9338982633617
 21
1098.122265335176
 31
0.0
  0
LINE
  5
231
330
1F
100
AcDbEntity
  8
0-0
  6
JWW_DASHED1
 62
   120
370
     5
100
AcDbLine
 10
428.9338982633614
 20
1089.820750140842
 30
0.0
 11
466.9338982633617
 21
1127.820750140831
 31
0.0
  0
LINE
  5
232
330
1F
100
AcDbEntity
  8
0-0
  6
JWW_DASHED1
 62
   120
370
     5
100
AcDbLine
 10
428.9338982633614
 20
1079.921255205624
 30
0.0
 11
466.9338982633617
 21
1117.921255205613
 31
0.0
  0
LINE
  5
233
330
1F
100
AcDbEntity
  8
0-0
  6
JWW_DASHED1
 62
   120
370
     5
100
AcDbLine
 10
428.9338982633614
 20
1109.619740011279
 30
0.0
 11
466.9338982633617
 21
1147.619740011268
 31
0.0
  0
LINE
  5
234
330
1F
100
AcDbEntity
  8
0-0
  6
JWW_DASHED1
 62
   120
370
     5
100
AcDbLine
 10
428.9338982633614
 20
1099.72024507606
 30
0.0
 11
466.9338982633617
 21
1137.72024507605
 31
0.0
  0
LINE
  5
235
330
1F
100
AcDbEntity
  8
0-0
  6
JWW_DASHED1
 62
   120
370
     5
100
AcDbLine
 10
428.9338982633614
 20
1119.519234946498
 30
0.0
 11
466.9338982633617
 21
1157.519234946487
 31
0.0
  0
LINE
  5
236
330
1F
100
AcDbEntity
  8
0-0
  6
JWW_DASHED1
 62
   120
370
     5
100
AcDbLine
 10
428.9338982633614
 20
1149.217719752153
 30
0.0
 11
440.6446829690228
 21
1160.928504457811
 31
0.0
  0
LINE
  5
237
330
1F
100
AcDbEntity
  8
0-0
  6
JWW_DASHED1
 62
   120
370
     5
100
AcDbLine
 10
428.9338982633614
 20
1129.418729881716
 30
0.0
 11
460.4436728394657
 21
1160.928504457811
 31
0.0
  0
LINE
  5
238
330
1F
100
AcDbEntity
  8
0-0
  6
JWW_DASHED1
 62
   120
370
     5
100
AcDbLine
 10
428.9338982633614
 20
1139.318224816935
 30
0.0
 11
450.5441779042442
 21
1160.928504457811
 31
0.0
  0
LWPOLYLINE
  5
239
330
1F
100
AcDbEntity
  8
寸法
  6
Continuous
 62
     7
370
     9
100
AcDbPolyline
 90
        4
 70
     1
 43
3.0
 10
854.4338982633636
 20
-1272.071495542189
 42
0.4142135623731
 10
852.9338982633636
 20
-1270.571495542189
 42
0.4142135623731
 10
851.4338982633636
 20
-1272.071495542189
 42
0.4142135623731
 10
852.9338982633636
 20
-1273.571495542189
 42
0.4142135623731
  0
LWPOLYLINE
  5
23A
330
1F
100
AcDbEntity
  8
寸法
  6
Continuous
 62
     7
370
     9
100
AcDbPolyline
 90
        4
 70
     1
 43
3.0
 10
1661.433898263365
 20
-1672.071495542189
 42
0.4142135623731
 10
1659.933898263365
 20
-1670.571495542189
 42
0.4142135623731
 10
1658.433898263365
 20
-1672.071495542189
 42
0.4142135623731
 10
1659.933898263365
 20
-1673.571495542189
 42
0.4142135623731
  0
LWPOLYLINE
  5
23B
330
1F
100
AcDbEntity
  8
寸法
  6
Continuous
 62
     7
370
     9
100
AcDbPolyline
 90
        4
 70
     1
 43
3.0
 10
1631.433898263365
 20
-1472.071495542189
 42
0.4142135623731
 10
1629.933898263365
 20
-1470.57149554219
 42
0.4142135623731
 10
1628.433898263365
 20
-1472.071495542189
 42
0.4142135623731
 10
1629.933898263365
 20
-1473.571495542189
 42
0.4142135623731
  0
LWPOLYLINE
  5
23C
330
1F
100
AcDbEntity
  8
寸法
  6
Continuous
 62
     7
370
     9
100
AcDbPolyline
 90
        4
 70
     1
 43
3.0
 10
-765.5661017366364
 20
-1272.071495542189
 42
0.4142135623731
 10
-767.0661017366364
 20
-1270.571495542189
 42
0.4142135623731
 10
-768.5661017366364
 20
-1272.071495542189
 42
0.4142135623731
 10
-767.0661017366364
 20
-1273.571495542189
 42
0.4142135623731
  0
LWPOLYLINE
  5
23D
330
1F
100
AcDbEntity
  8
寸法
  6
Continuous
 62
     7
370
     9
100
AcDbPolyline
 90
        4
 70
     1
 43
3.0
 10
44.43389826336366
 20
-1272.071495542189
 42
0.4142135623731
 10
42.93389826336366
 20
-1270.571495542189
 42
0.4142135623731
 10
41.43389826336366
 20
-1272.071495542189
 42
0.4142135623731
 10
42.93389826336366
 20
-1273.571495542189
 42
0.4142135623731
  0
LWPOLYLINE
  5
23E
330
1F
100
AcDbEntity
  8
寸法
  6
Continuous
 62
     7
370
     9
100
AcDbPolyline
 90
        4
 70
     1
 43
3.0
 10
-1572.566101736636
 20
-1672.07149554219
 42
0.4142135623731
 10
-1574.066101736635
 20
-1670.57149554219
 42
0.4142135623731
 10
-1575.566101736635
 20
-1672.07149554219
 42
0.4142135623731
 10
-1574.066101736635
 20
-1673.57149554219
 42
0.4142135623731
  0
LWPOLYLINE
  5
23F
330
1F
100
AcDbEntity
  8
寸法
  6
Continuous
 62
     7
370
     9
100
AcDbPolyline
 90
        4
 70
     1
 43
3.0
 10
-1542.566101736636
 20
-1472.071495542189
 42
0.4142135623731
 10
-1544.066101736635
 20
-1470.57149554219
 42
0.4142135623731
 10
-1545.566101736635
 20
-1472.071495542189
 42
0.4142135623731
 10
-1544.066101736635
 20
-1473.571495542189
 42
0.4142135623731
  0
LINE
  5
240
330
1F
100
AcDbEntity
  8
寸法
  6
Continuous
 62
   120
370
     5
100
AcDbLine
 10
852.9338982633636
 20
-1272.071495542189
 30
0.0
 11
852.9338982633636
 21
-1072.07149554219
 31
0.0
  0
LINE
  5
241
330
1F
100
AcDbEntity
  8
寸法
  6
Continuous
 62
   120
370
     5
100
AcDbLine
 10
1659.933898263365
 20
-1672.071495542189
 30
0.0
 11
1659.933898263365
 21
-1072.07149554219
 31
0.0
  0
LINE
  5
242
330
1F
100
AcDbEntity
  8
寸法
  6
Continuous
 62
   120
370
     5
100
AcDbLine
 10
-1574.066101736635
 20
-1672.07149554219
 30
0.0
 11
1659.933898263365
 21
-1672.071495542189
 31
0.0
  0
LINE
  5
243
330
1F
100
AcDbEntity
  8
寸法
  6
Continuous
 62
   120
370
     5
100
AcDbLine
 10
1629.933898263365
 20
-1472.071495542189
 30
0.0
 11
1629.933898263365
 21
-1072.07149554219
 31
0.0
  0
LINE
  5
244
330
1F
100
AcDbEntity
  8
寸法
  6
Continuous
 62
   120
370
     5
100
AcDbLine
 10
-1544.066101736635
 20
-1472.071495542189
 30
0.0
 11
1629.933898263365
 21
-1472.071495542189
 31
0.0
  0
LINE
  5
245
330
1F
100
AcDbEntity
  8
寸法
  6
Continuous
 62
   120
370
     5
100
AcDbLine
 10
-767.0661017366364
 20
-1272.071495542189
 30
0.0
 11
852.9338982633636
 21
-1272.071495542189
 31
0.0
  0
LINE
  5
246
330
1F
100
AcDbEntity
  8
寸法
  6
Continuous
 62
   120
370
     5
100
AcDbLine
 10
-767.0661017366364
 20
-1272.071495542189
 30
0.0
 11
-767.0661017366364
 21
-1072.07149554219
 31
0.0
  0
LINE
  5
247
330
1F
100
AcDbEntity
  8
寸法
  6
Continuous
 62
   120
370
     5
100
AcDbLine
 10
42.93389826336366
 20
-1272.071495542189
 30
0.0
 11
42.93389826336366
 21
-1072.07149554219
 31
0.0
  0
LINE
  5
248
330
1F
100
AcDbEntity
  8
寸法
  6
Continuous
 62
   120
370
     5
100
AcDbLine
 10
-1574.066101736635
 20
-1672.07149554219
 30
0.0
 11
-1574.066101736635
 21
-1072.07149554219
 31
0.0
  0
LINE
  5
249
330
1F
100
AcDbEntity
  8
寸法
  6
Continuous
 62
   120
370
     5
100
AcDbLine
 10
-1544.066101736635
 20
-1472.071495542189
 30
0.0
 11
-1544.066101736635
 21
-1072.07149554219
 31
0.0
  0
LWPOLYLINE
  5
24A
330
1F
100
AcDbEntity
  8
寸法
  6
Continuous
 62
     7
370
     9
100
AcDbPolyline
 90
        4
 70
     1
 43
3.0
 10
-2022.566101736636
 20
-1022.07149554219
 42
0.4142135623731
 10
-2024.066101736636
 20
-1020.57149554219
 42
0.4142135623731
 10
-2025.566101736636
 20
-1022.07149554219
 42
0.4142135623731
 10
-2024.066101736636
 20
-1023.571495542189
 42
0.4142135623731
  0
LINE
  5
24B
330
1F
100
AcDbEntity
  8
寸法
  6
Continuous
 62
   120
370
     5
100
AcDbLine
 10
-2024.066101736636
 20
-1022.07149554219
 30
0.0
 11
-1624.066101736636
 21
-1022.07149554219
 31
0.0
  0
LWPOLYLINE
  5
24C
330
1F
100
AcDbEntity
  8
寸法
  6
Continuous
 62
     7
370
     9
100
AcDbPolyline
 90
        4
 70
     1
 43
3.0
 10
-1822.566101736634
 20
-1014.071495542191
 42
0.4142135623731
 10
-1824.066101736634
 20
-1012.571495542191
 42
0.4142135623731
 10
-1825.566101736634
 20
-1014.071495542191
 42
0.4142135623731
 10
-1824.066101736634
 20
-1015.571495542191
 42
0.4142135623731
  0
LINE
  5
24D
330
1F
100
AcDbEntity
  8
寸法
  6
Continuous
 62
   120
370
     5
100
AcDbLine
 10
-1824.066101736634
 20
-1014.071495542191
 30
0.0
 11
-1624.066101736636
 21
-1014.071495542191
 31
0.0
  0
LINE
  5
24E
330
1F
100
AcDbEntity
  8
寸法
  6
Continuous
 62
   120
370
     5
100
AcDbLine
 10
-2024.066101736636
 20
1212.928504457811
 30
0.0
 11
-2024.066101736636
 21
-1022.07149554219
 31
0.0
  0
LINE
  5
24F
330
1F
100
AcDbEntity
  8
寸法
  6
Continuous
 62
   120
370
     5
100
AcDbLine
 10
-2024.066101736636
 20
1212.928504457811
 30
0.0
 11
-1624.066101736636
 21
1212.928504457811
 31
0.0
  0
LWPOLYLINE
  5
250
330
1F
100
AcDbEntity
  8
寸法
  6
Continuous
 62
     7
370
     9
100
AcDbPolyline
 90
        4
 70
     1
 43
3.0
 10
-2022.566101736636
 20
1212.928504457811
 42
0.4142135623731
 10
-2024.066101736636
 20
1214.42850445781
 42
0.4142135623731
 10
-2025.566101736636
 20
1212.928504457811
 42
0.4142135623731
 10
-2024.066101736636
 20
1211.428504457811
 42
0.4142135623731
  0
LINE
  5
251
330
1F
100
AcDbEntity
  8
寸法
  6
Continuous
 62
   120
370
     5
100
AcDbLine
 10
-1824.066101736634
 20
1168.92850445781
 30
0.0
 11
-1624.066101736636
 21
1168.92850445781
 31
0.0
  0
LINE
  5
252
330
1F
100
AcDbEntity
  8
寸法
  6
Continuous
 62
   120
370
     5
100
AcDbLine
 10
-1824.066101736634
 20
1168.92850445781
 30
0.0
 11
-1824.066101736634
 21
-1014.071495542191
 31
0.0
  0
LWPOLYLINE
  5
253
330
1F
100
AcDbEntity
  8
寸法
  6
Continuous
 62
     7
370
     9
100
AcDbPolyline
 90
        4
 70
     1
 43
3.0
 10
-1822.566101736634
 20
1168.92850445781
 42
0.4142135623731
 10
-1824.066101736634
 20
1170.428504457809
 42
0.4142135623731
 10
-1825.566101736634
 20
1168.92850445781
 42
0.4142135623731
 10
-1824.066101736634
 20
1167.42850445781
 42
0.4142135623731
  0
MTEXT
  5
254
330
1F
100
AcDbEntity
  8
寸法
  6
Continuous
 62
     7
370
    70
100
AcDbMText
 10
-2039.066101736636
 20
-134.4964955421898
 30
0.0
 40
57.14999999999999
 41
412.5
 46
0.0
 71
     7
 72
     1
  1
{\fＭＳ ゴシック|b0|i0|c128|p49;枠外＝2,235}
 11
6.123031769111886E-17
 21
1.0
 31
0.0
 73
     1
 44
1.0
  0
MTEXT
  5
255
330
1F
100
AcDbEntity
  8
寸法
  6
Continuous
 62
     7
370
    70
100
AcDbMText
 10
-1839.066101736634
 20
-140.9964955421907
 30
0.0
 40
57.14999999999999
 41
412.5
 46
0.0
 71
     7
 72
     1
  1
{\fＭＳ ゴシック|b0|i0|c128|p49;ＤＨ＝2,183}
 11
6.123031769111886E-17
 21
1.0
 31
0.0
 73
     1
 44
1.0
  0
MTEXT
  5
256
330
1F
100
AcDbEntity
  8
寸法
  6
Continuous
 62
     7
370
   211
100
AcDbMText
 10
-530.8161017366364
 20
-1265.996495542189
 30
0.0
 40
57.15
 41
337.5
 46
0.0
 71
     7
 72
     1
  1
{\fＭＳ ゴシック|b0|i0|c128|p49;ＤＷ＝810}
 73
     1
 44
1.0
  0
MTEXT
  5
257
330
1F
100
AcDbEntity
  8
寸法
  6
Continuous
 62
     7
370
   211
100
AcDbMText
 10
279.1838982633636
 20
-1265.996495542189
 30
0.0
 40
57.15000000000001
 41
337.5000000000001
 46
0.0
 71
     7
 72
     1
  1
{\fＭＳ ゴシック|b0|i0|c128|p49;ＤＷ＝810}
 73
     1
 44
1.0
  0
MTEXT
  5
258
330
1F
100
AcDbEntity
  8
寸法
  6
Continuous
 62
     7
370
   211
100
AcDbMText
 10
-163.3161017366363
 20
-1465.996495542189
 30
0.0
 40
57.14999999999999
 41
412.5
 46
0.0
 71
     7
 72
     1
  1
{\fＭＳ ゴシック|b0|i0|c128|p49;枠内＝3,174}
 73
     1
 44
1.0
  0
MTEXT
  5
259
330
1F
100
AcDbEntity
  8
寸法
  6
Continuous
 62
     7
370
   211
100
AcDbMText
 10
-163.3161017366363
 20
-1665.99649554219
 30
0.0
 40
57.14999999999999
 41
412.5
 46
0.0
 71
     7
 72
     1
  1
{\fＭＳ ゴシック|b0|i0|c128|p49;枠外＝3,234}
 73
     1
 44
1.0
  0
ENDSEC
  0
SECTION
  2
OBJECTS
  0
DICTIONARY
  5
C
330
0
100
AcDbDictionary
281
     1
  3
ACAD_GROUP
350
D
  3
ACAD_LAYOUT
350
1A
  3
ACAD_MATERIAL
350
3B
  3
ACAD_MLEADERSTYLE
350
25B
  3
ACAD_MLINESTYLE
350
17
  3
ACAD_PLOTSETTINGS
350
19
  3
ACAD_PLOTSTYLENAME
350
E
  3
ACAD_TABLESTYLE
350
25A
  3
ACAD_VISUALSTYLE
350
2A
  0
DICTIONARY
  5
D
102
{ACAD_REACTORS
330
C
102
}
330
C
100
AcDbDictionary
281
     1
  0
DICTIONARY
  5
1A
102
{ACAD_REACTORS
330
C
102
}
330
C
100
AcDbDictionary
281
     1
  3
Layout1
350
1E
  3
Layout2
350
26
  3
Model
350
22
  0
DICTIONARY
  5
3B
102
{ACAD_REACTORS
330
C
102
}
330
C
100
AcDbDictionary
281
     1
  3
ByBlock
350
3D
  3
ByLayer
350
3C
  3
Global
350
3E
  0
DICTIONARY
  5
25B
102
{ACAD_REACTORS
330
C
102
}
330
C
100
AcDbDictionary
281
     1
  0
DICTIONARY
  5
17
102
{ACAD_REACTORS
330
C
102
}
330
C
100
AcDbDictionary
281
     1
  3
Standard
350
18
  0
DICTIONARY
  5
19
102
{ACAD_REACTORS
330
C
102
}
330
C
100
AcDbDictionary
281
     1
  0
ACDBDICTIONARYWDFLT
  5
E
102
{ACAD_REACTORS
330
C
102
}
330
C
100
AcDbDictionary
281
     1
  3
Normal
350
F
100
AcDbDictionaryWithDefault
340
F
  0
DICTIONARY
  5
25A
102
{ACAD_REACTORS
330
C
102
}
330
C
100
AcDbDictionary
281
     1
  0
DICTIONARY
  5
2A
102
{ACAD_REACTORS
330
C
102
}
330
C
100
AcDbDictionary
281
     1
  3
2dWireframe
350
2F
  3
3D Hidden
350
31
  3
3dWireframe
350
30
  3
Basic
350
32
  3
Brighten
350
36
  3
ColorChange
350
3A
  3
Conceptual
350
34
  3
Dim
350
35
  3
Facepattern
350
39
  3
Flat
350
2B
  3
FlatWithEdges
350
2C
  3
Gouraud
350
2D
  3
GouraudWithEdges
350
2E
  3
Linepattern
350
38
  3
Realistic
350
33
  3
Thicken
350
37
  0
LAYOUT
  5
1E
102
{ACAD_REACTORS
330
1A
102
}
330
1A
100
AcDbPlotSettings
  1

  2
none_device
  4

  6

 40
0.0
 41
0.0
 42
0.0
 43
0.0
 44
0.0
 45
0.0
 46
0.0
 47
0.0
 48
0.0
 49
0.0
140
0.0
141
0.0
142
1.0
143
1.0
 70
   688
 72
     0
 73
     0
 74
     5
  7

 75
    16
 76
     0
 77
     5
 78
   300
147
1.0
148
0.0
149
0.0
100
AcDbLayout
  1
Layout1
 70
     1
 71
     1
 10
0.0
 20
0.0
 11
420.0
 21
297.0
 12
0.0
 22
0.0
 32
0.0
 14
1.000000000000000E+20
 24
1.000000000000000E+20
 34
1.000000000000000E+20
 15
-1.000000000000000E+20
 25
-1.000000000000000E+20
 35
-1.000000000000000E+20
146
0.0
 13
0.0
 23
0.0
 33
0.0
 16
1.0
 26
0.0
 36
0.0
 17
0.0
 27
1.0
 37
0.0
 76
     0
330
1B
  0
LAYOUT
  5
26
102
{ACAD_REACTORS
330
1A
102
}
330
1A
100
AcDbPlotSettings
  1

  2
none_device
  4

  6

 40
0.0
 41
0.0
 42
0.0
 43
0.0
 44
0.0
 45
0.0
 46
0.0
 47
0.0
 48
0.0
 49
0.0
140
0.0
141
0.0
142
1.0
143
1.0
 70
   688
 72
     0
 73
     0
 74
     5
  7

 75
    16
 76
     0
 77
     5
 78
   300
147
1.0
148
0.0
149
0.0
100
AcDbLayout
  1
Layout2
 70
     1
 71
     2
 10
0.0
 20
0.0
 11
0.0
 21
0.0
 12
0.0
 22
0.0
 32
0.0
 14
0.0
 24
0.0
 34
0.0
 15
0.0
 25
0.0
 35
0.0
146
0.0
 13
0.0
 23
0.0
 33
0.0
 16
1.0
 26
0.0
 36
0.0
 17
0.0
 27
1.0
 37
0.0
 76
     0
330
23
  0
LAYOUT
  5
22
102
{ACAD_REACTORS
330
1A
102
}
330
1A
100
AcDbPlotSettings
  1

  2
none_device
  4

  6

 40
0.0
 41
0.0
 42
0.0
 43
0.0
 44
0.0
 45
0.0
 46
0.0
 47
0.0
 48
0.0
 49
0.0
140
0.0
141
0.0
142
1.0
143
1.0
 70
  1712
 72
     0
 73
     0
 74
     0
  7

 75
     0
 76
     0
 77
     5
 78
   300
147
1.0
148
0.0
149
0.0
100
AcDbLayout
  1
Model
 70
     1
 71
     0
 10
-4455.0
 20
-3150.0
 11
4455.0
 21
3150.0
 12
0.0
 22
0.0
 32
0.0
 14
-4455.0
 24
-3150.0
 34
0.0
 15
4455.0
 25
3150.0
 35
0.0
146
0.0
 13
0.0
 23
0.0
 33
0.0
 16
1.0
 26
0.0
 36
0.0
 17
0.0
 27
1.0
 37
0.0
 76
     0
330
1F
331
29
  0
MATERIAL
  5
3D
102
{ACAD_REACTORS
330
3B
102
}
330
3B
100
AcDbMaterial
  1
ByBlock
 72
     1
 94
      127
  0
MATERIAL
  5
3C
102
{ACAD_REACTORS
330
3B
102
}
330
3B
100
AcDbMaterial
  1
ByLayer
 72
     1
 94
      127
  0
MATERIAL
  5
3E
102
{ACAD_REACTORS
330
3B
102
}
330
3B
100
AcDbMaterial
  1
Global
 72
     1
 94
      127
  0
MLINESTYLE
  5
18
102
{ACAD_REACTORS
330
17
102
}
330
17
100
AcDbMlineStyle
  2
Standard
 70
     0
  3

 62
   256
 51
90.0
 52
90.0
 71
     2
 49
0.5
 62
   256
  6
BYLAYER
 49
-0.5
 62
   256
  6
BYLAYER
  0
ACDBPLACEHOLDER
  5
F
102
{ACAD_REACTORS
330
E
102
}
330
E
  0
VISUALSTYLE
  5
2F
102
{ACAD_REACTORS
330
2A
102
}
330
2A
100
AcDbVisualStyle
  2
2dWireframe
 70
     4
177
     2
291
     0
 71
     0
176
     1
 72
     2
176
     1
 73
     0
176
     1
 90
        0
176
     1
 40
-0.6
176
     1
 41
-30.0
176
     1
 62
     5
 63
     7
421
 16777215
176
     1
 74
     1
176
     1
 91
        4
176
     1
 64
     7
176
     1
 65
   257
176
     1
 75
     1
176
     1
175
     1
176
     1
 42
1.0
176
     1
 92
        0
176
     1
 66
   257
176
     1
 43
1.0
176
     1
 76
     1
176
     1
 77
     6
176
     1
 78
     2
176
     1
 67
     7
176
     1
 79
     5
176
     1
170
     0
176
     1
171
     0
176
     1
290
     0
176
     1
 93
        1
176
     1
 44
0.0
176
     1
173
     0
176
     1
  0
VISUALSTYLE
  5
31
102
{ACAD_REACTORS
330
2A
102
}
330
2A
100
AcDbVisualStyle
  2
3D Hidden
 70
     6
177
     2
291
     0
 71
     1
176
     1
 72
     2
176
     1
 73
     2
176
     1
 90
        0
176
     1
 40
-0.6
176
     1
 41
-30.0
176
     1
 62
     5
 63
     7
421
 16777215
176
     1
 74
     2
176
     1
 91
        2
176
     1
 64
     7
176
     1
 65
   257
176
     1
 75
     2
176
     1
175
     1
176
     1
 42
40.0
176
     1
 92
        0
176
     1
 66
   257
176
     1
 43
1.0
176
     1
 76
     1
176
     1
 77
     6
176
     1
 78
     2
176
     1
 67
     7
176
     1
 79
     3
176
     1
170
     0
176
     1
171
     0
176
     1
290
     0
176
     1
 93
        1
176
     1
 44
0.0
176
     1
173
     0
176
     1
  0
VISUALSTYLE
  5
30
102
{ACAD_REACTORS
330
2A
102
}
330
2A
100
AcDbVisualStyle
  2
3dWireframe
 70
     5
177
     2
291
     0
 71
     0
176
     1
 72
     2
176
     1
 73
     0
176
     1
 90
        0
176
     1
 40
-0.6
176
     1
 41
-30.0
176
     1
 62
     5
 63
     7
421
 16777215
176
     1
 74
     1
176
     1
 91
        4
176
     1
 64
     7
176
     1
 65
   257
176
     1
 75
     1
176
     1
175
     1
176
     1
 42
1.0
176
     1
 92
        0
176
     1
 66
   257
176
     1
 43
1.0
176
     1
 76
     1
176
     1
 77
     6
176
     1
 78
     2
176
     1
 67
     7
176
     1
 79
     5
176
     1
170
     0
176
     1
171
     0
176
     1
290
     0
176
     1
 93
        1
176
     1
 44
0.0
176
     1
173
     0
176
     1
  0
VISUALSTYLE
  5
32
102
{ACAD_REACTORS
330
2A
102
}
330
2A
100
AcDbVisualStyle
  2
Basic
 70
     7
177
     2
291
     1
 71
     1
176
     1
 72
     0
176
     1
 73
     1
176
     1
 90
        0
176
     1
 40
-0.6
176
     1
 41
-30.0
176
     1
 62
     5
 63
     7
421
 16777215
176
     1
 74
     0
176
     1
 91
        4
176
     1
 64
     7
176
     1
 65
   257
176
     1
 75
     1
176
     1
175
     1
176
     1
 42
1.0
176
     1
 92
        8
176
     1
 66
     7
176
     1
 43
1.0
176
     1
 76
     1
176
     1
 77
     6
176
     1
 78
     2
176
     1
 67
     7
176
     1
 79
     5
176
     1
170
     0
176
     1
171
     0
176
     1
290
     0
176
     1
 93
        1
176
     1
 44
0.0
176
     1
173
     0
176
     1
  0
VISUALSTYLE
  5
36
102
{ACAD_REACTORS
330
2A
102
}
330
2A
100
AcDbVisualStyle
  2
Brighten
 70
    12
177
     2
291
     1
 71
     2
176
     1
 72
     2
176
     1
 73
     0
176
     1
 90
        0
176
     1
 40
-0.6
176
     1
 41
-30.0
176
     1
 62
     5
 63
     7
421
 16777215
176
     1
 74
     1
176
     1
 91
        4
176
     1
 64
     7
176
     1
 65
   257
176
     1
 75
     1
176
     1
175
     1
176
     1
 42
1.0
176
     1
 92
        8
176
     1
 66
     7
176
     1
 43
1.0
176
     1
 76
     1
176
     1
 77
     6
176
     1
 78
     2
176
     1
 67
     7
176
     1
 79
     5
176
     1
170
     0
176
     1
171
     0
176
     1
290
     0
176
     1
 93
        1
176
     1
 44
50.0
176
     1
173
     0
176
     1
  0
VISUALSTYLE
  5
3A
102
{ACAD_REACTORS
330
2A
102
}
330
2A
100
AcDbVisualStyle
  2
ColorChange
 70
    16
177
     2
291
     1
 71
     2
176
     1
 72
     2
176
     1
 73
     3
176
     1
 90
        0
176
     1
 40
-0.6
176
     1
 41
-30.0
176
     1
 62
     5
 63
     8
421
  8421504
176
     1
 74
     1
176
     1
 91
        4
176
     1
 64
     7
176
     1
 65
   257
176
     1
 75
     1
176
     1
175
     1
176
     1
 42
1.0
176
     1
 92
        8
176
     1
 66
     8
424
  8421504
176
     1
 43
1.0
176
     1
 76
     1
176
     1
 77
     6
176
     1
 78
     2
176
     1
 67
     7
176
     1
 79
     5
176
     1
170
     0
176
     1
171
     0
176
     1
290
     0
176
     1
 93
        1
176
     1
 44
0.0
176
     1
173
     0
176
     1
  0
VISUALSTYLE
  5
34
102
{ACAD_REACTORS
330
2A
102
}
330
2A
100
AcDbVisualStyle
  2
Conceptual
 70
     9
177
     2
291
     0
 71
     3
176
     1
 72
     2
176
     1
 73
     0
176
     1
 90
        0
176
     1
 40
-0.6
176
     1
 41
-30.0
176
     1
 62
     5
 63
     7
421
 16777215
176
     1
 74
     2
176
     1
 91
        2
176
     1
 64
     7
176
     1
 65
   257
176
     1
 75
     1
176
     1
175
     1
176
     1
 42
40.0
176
     1
 92
        8
176
     1
 66
     7
176
     1
 43
1.0
176
     1
 76
     1
176
     1
 77
     6
176
     1
 78
     2
176
     1
 67
     7
176
     1
 79
     3
176
     1
170
     0
176
     1
171
     0
176
     1
290
     0
176
     1
 93
        1
176
     1
 44
0.0
176
     1
173
     0
176
     1
  0
VISUALSTYLE
  5
35
102
{ACAD_REACTORS
330
2A
102
}
330
2A
100
AcDbVisualStyle
  2
Dim
 70
    11
177
     2
291
     1
 71
     2
176
     1
 72
     2
176
     1
 73
     0
176
     1
 90
        0
176
     1
 40
-0.6
176
     1
 41
-30.0
176
     1
 62
     5
 63
     7
421
 16777215
176
     1
 74
     1
176
     1
 91
        4
176
     1
 64
     7
176
     1
 65
   257
176
     1
 75
     1
176
     1
175
     1
176
     1
 42
1.0
176
     1
 92
        8
176
     1
 66
     7
176
     1
 43
1.0
176
     1
 76
     1
176
     1
 77
     6
176
     1
 78
     2
176
     1
 67
     7
176
     1
 79
     5
176
     1
170
     0
176
     1
171
     0
176
     1
290
     0
176
     1
 93
        1
176
     1
 44
-50.0
176
     1
173
     0
176
     1
  0
VISUALSTYLE
  5
39
102
{ACAD_REACTORS
330
2A
102
}
330
2A
100
AcDbVisualStyle
  2
Facepattern
 70
    15
177
     2
291
     1
 71
     2
176
     1
 72
     2
176
     1
 73
     0
176
     1
 90
        0
176
     1
 40
-0.6
176
     1
 41
-30.0
176
     1
 62
     5
 63
     7
421
 16777215
176
     1
 74
     1
176
     1
 91
        4
176
     1
 64
     7
176
     1
 65
   257
176
     1
 75
     1
176
     1
175
     1
176
     1
 42
1.0
176
     1
 92
        8
176
     1
 66
     7
176
     1
 43
1.0
176
     1
 76
     1
176
     1
 77
     6
176
     1
 78
     2
176
     1
 67
     7
176
     1
 79
     5
176
     1
170
     0
176
     1
171
     0
176
     1
290
     0
176
     1
 93
        1
176
     1
 44
0.0
176
     1
173
     0
176
     1
  0
VISUALSTYLE
  5
2B
102
{ACAD_REACTORS
330
2A
102
}
330
2A
100
AcDbVisualStyle
  2
Flat
 70
     0
177
     2
291
     1
 71
     2
176
     1
 72
     1
176
     1
 73
     1
176
     1
 90
        2
176
     1
 40
-0.6
176
     1
 41
30.0
176
     1
 62
     5
 63
     7
421
 16777215
176
     1
 74
     0
176
     1
 91
        4
176
     1
 64
     7
176
     1
 65
   257
176
     1
 75
     1
176
     1
175
     1
176
     1
 42
1.0
176
     1
 92
        8
176
     1
 66
     7
176
     1
 43
1.0
176
     1
 76
     1
176
     1
 77
     6
176
     1
 78
     2
176
     1
 67
     7
176
     1
 79
     5
176
     1
170
     0
176
     1
171
     0
176
     1
290
     0
176
     1
 93
       13
176
     1
 44
0.0
176
     1
173
     0
176
     1
  0
VISUALSTYLE
  5
2C
102
{ACAD_REACTORS
330
2A
102
}
330
2A
100
AcDbVisualStyle
  2
FlatWithEdges
 70
     1
177
     2
291
     1
 71
     2
176
     1
 72
     1
176
     1
 73
     1
176
     1
 90
        2
176
     1
 40
-0.6
176
     1
 41
30.0
176
     1
 62
     5
 63
     7
421
 16777215
176
     1
 74
     1
176
     1
 91
        4
176
     1
 64
     7
176
     1
 65
   257
176
     1
 75
     1
176
     1
175
     1
176
     1
 42
1.0
176
     1
 92
        0
176
     1
 66
   257
176
     1
 43
1.0
176
     1
 76
     1
176
     1
 77
     6
176
     1
 78
     2
176
     1
 67
     7
176
     1
 79
     5
176
     1
170
     0
176
     1
171
     0
176
     1
290
     0
176
     1
 93
       13
176
     1
 44
0.0
176
     1
173
     0
176
     1
  0
VISUALSTYLE
  5
2D
102
{ACAD_REACTORS
330
2A
102
}
330
2A
100
AcDbVisualStyle
  2
Gouraud
 70
     2
177
     2
291
     1
 71
     2
176
     1
 72
     2
176
     1
 73
     1
176
     1
 90
        2
176
     1
 40
-0.6
176
     1
 41
30.0
176
     1
 62
     5
 63
     7
421
 16777215
176
     1
 74
     0
176
     1
 91
        4
176
     1
 64
     7
176
     1
 65
   257
176
     1
 75
     1
176
     1
175
     1
176
     1
 42
1.0
176
     1
 92
        0
176
     1
 66
     7
176
     1
 43
1.0
176
     1
 76
     1
176
     1
 77
     6
176
     1
 78
     2
176
     1
 67
     7
176
     1
 79
     5
176
     1
170
     0
176
     1
171
     0
176
     1
290
     0
176
     1
 93
       13
176
     1
 44
0.0
176
     1
173
     0
176
     1
  0
VISUALSTYLE
  5
2E
102
{ACAD_REACTORS
330
2A
102
}
330
2A
100
AcDbVisualStyle
  2
GouraudWithEdges
 70
     3
177
     2
291
     1
 71
     2
176
     1
 72
     2
176
     1
 73
     1
176
     1
 90
        2
176
     1
 40
-0.6
176
     1
 41
30.0
176
     1
 62
     5
 63
     7
421
 16777215
176
     1
 74
     1
176
     1
 91
        4
176
     1
 64
     7
176
     1
 65
   257
176
     1
 75
     1
176
     1
175
     1
176
     1
 42
1.0
176
     1
 92
        0
176
     1
 66
   257
176
     1
 43
1.0
176
     1
 76
     1
176
     1
 77
     6
176
     1
 78
     2
176
     1
 67
     7
176
     1
 79
     5
176
     1
170
     0
176
     1
171
     0
176
     1
290
     0
176
     1
 93
       13
176
     1
 44
0.0
176
     1
173
     0
176
     1
  0
VISUALSTYLE
  5
38
102
{ACAD_REACTORS
330
2A
102
}
330
2A
100
AcDbVisualStyle
  2
Linepattern
 70
    14
177
     2
291
     1
 71
     2
176
     1
 72
     2
176
     1
 73
     0
176
     1
 90
        0
176
     1
 40
-0.6
176
     1
 41
-30.0
176
     1
 62
     5
 63
     7
421
 16777215
176
     1
 74
     1
176
     1
 91
        4
176
     1
 64
     7
176
     1
 65
   257
176
     1
 75
     7
176
     1
175
     7
176
     1
 42
1.0
176
     1
 92
        8
176
     1
 66
     7
176
     1
 43
1.0
176
     1
 76
     1
176
     1
 77
     6
176
     1
 78
     2
176
     1
 67
     7
176
     1
 79
     5
176
     1
170
     0
176
     1
171
     0
176
     1
290
     0
176
     1
 93
        1
176
     1
 44
0.0
176
     1
173
     0
176
     1
  0
VISUALSTYLE
  5
33
102
{ACAD_REACTORS
330
2A
102
}
330
2A
100
AcDbVisualStyle
  2
Realistic
 70
     8
177
     2
291
     0
 71
     2
176
     1
 72
     2
176
     1
 73
     0
176
     1
 90
        0
176
     1
 40
-0.6
176
     1
 41
-30.0
176
     1
 62
     5
 63
     7
421
 16777215
176
     1
 74
     1
176
     1
 91
        0
176
     1
 64
     7
176
     1
 65
   257
176
     1
 75
     1
176
     1
175
     1
176
     1
 42
1.0
176
     1
 92
        8
176
     1
 66
     8
424
  7895160
176
     1
 43
1.0
176
     1
 76
     1
176
     1
 77
     6
176
     1
 78
     2
176
     1
 67
     7
176
     1
 79
     5
176
     1
170
     0
176
     1
171
     0
176
     1
290
     0
176
     1
 93
       13
176
     1
 44
0.0
176
     1
173
     0
176
     1
  0
VISUALSTYLE
  5
37
102
{ACAD_REACTORS
330
2A
102
}
330
2A
100
AcDbVisualStyle
  2
Thicken
 70
    13
177
     2
291
     1
 71
     2
176
     1
 72
     2
176
     1
 73
     0
176
     1
 90
        0
176
     1
 40
-0.6
176
     1
 41
-30.0
176
     1
 62
     5
 63
     7
421
 16777215
176
     1
 74
     1
176
     1
 91
        4
176
     1
 64
     7
176
     1
 65
   257
176
     1
 75
     1
176
     1
175
     1
176
     1
 42
1.0
176
     1
 92
       12
176
     1
 66
     7
176
     1
 43
1.0
176
     1
 76
     1
176
     1
 77
     6
176
     1
 78
     2
176
     1
 67
     7
176
     1
 79
     5
176
     1
170
     0
176
     1
171
     0
176
     1
290
     0
176
     1
 93
        1
176
     1
 44
0.0
176
     1
173
     0
176
     1
  0
ENDSEC
  0
EOF
