  0
SECTION
  2
HEADER
  9
$ACADVER
  1
AC1024
  9
$ACADMAINTVER
 70
     6
  9
$DWGCODEPAGE
  3
ANSI_932
  9
$INSBASE
 10
0.0
 20
0.0
 30
0.0
  9
$EXTMIN
 10
-4455.0
 20
-3150.0
 30
0.0
  9
$EXTMAX
 10
4455.0
 20
3150.0
 30
0.0
  9
$LIMMIN
 10
-4455.0
 20
-3150.0
  9
$LIMMAX
 10
4455.0
 20
3150.0
  9
$ORTHOMODE
 70
     0
  9
$REGENMODE
 70
     1
  9
$FILLMODE
 70
     1
  9
$QTEXTMODE
 70
     0
  9
$MIRRTEXT
 70
     1
  9
$LTSCALE
 40
30.0
  9
$ATTMODE
 70
     1
  9
$TEXTSIZE
 40
2.5
  9
$TRACEWID
 40
1.0
  9
$TEXTSTYLE
  7
Standard
  9
$CLAYER
  8
0
  9
$CELTYPE
  6
ByLayer
  9
$CECOLOR
 62
   256
  9
$CELTSCALE
 40
1.0
  9
$DISPSILH
 70
     0
  9
$DIMSCALE
 40
1.0
  9
$DIMASZ
 40
2.5
  9
$DIMEXO
 40
0.625
  9
$DIMDLI
 40
3.75
  9
$DIMRND
 40
0.0
  9
$DIMDLE
 40
0.0
  9
$DIMEXE
 40
1.25
  9
$DIMTP
 40
0.0
  9
$DIMTM
 40
0.0
  9
$DIMTXT
 40
2.5
  9
$DIMCEN
 40
2.5
  9
$DIMTSZ
 40
0.0
  9
$DIMTOL
 70
     0
  9
$DIMLIM
 70
     0
  9
$DIMTIH
 70
     0
  9
$DIMTOH
 70
     0
  9
$DIMSE1
 70
     0
  9
$DIMSE2
 70
     0
  9
$DIMTAD
 70
     1
  9
$DIMZIN
 70
     8
  9
$DIMBLK
  1

  9
$DIMASO
 70
     1
  9
$DIMSHO
 70
     1
  9
$DIMPOST
  1

  9
$DIMAPOST
  1

  9
$DIMALT
 70
     0
  9
$DIMALTD
 70
     3
  9
$DIMALTF
 40
0.03937007874016
  9
$DIMLFAC
 40
1.0
  9
$DIMTOFL
 70
     1
  9
$DIMTVP
 40
0.0
  9
$DIMTIX
 70
     0
  9
$DIMSOXD
 70
     0
  9
$DIMSAH
 70
     0
  9
$DIMBLK1
  1

  9
$DIMBLK2
  1

  9
$DIMSTYLE
  2
ISO-25
  9
$DIMCLRD
 70
     0
  9
$DIMCLRE
 70
     0
  9
$DIMCLRT
 70
     0
  9
$DIMTFAC
 40
1.0
  9
$DIMGAP
 40
0.625
  9
$DIMJUST
 70
     0
  9
$DIMSD1
 70
     0
  9
$DIMSD2
 70
     0
  9
$DIMTOLJ
 70
     0
  9
$DIMTZIN
 70
     8
  9
$DIMALTZ
 70
     0
  9
$DIMALTTZ
 70
     0
  9
$DIMUPT
 70
     0
  9
$DIMDEC
 70
     2
  9
$DIMTDEC
 70
     2
  9
$DIMALTU
 70
     2
  9
$DIMALTTD
 70
     3
  9
$DIMTXSTY
  7
Standard
  9
$DIMAUNIT
 70
     0
  9
$DIMADEC
 70
     0
  9
$DIMALTRND
 40
0.0
  9
$DIMAZIN
 70
     0
  9
$DIMDSEP
 70
    44
  9
$DIMATFIT
 70
     3
  9
$DIMFRAC
 70
     0
  9
$DIMLDRBLK
  1

  9
$DIMLUNIT
 70
     2
  9
$DIMLWD
 70
    -2
  9
$DIMLWE
 70
    -2
  9
$DIMTMOVE
 70
     0
  9
$DIMFXL
 40
1.0
  9
$DIMFXLON
 70
     0
  9
$DIMJOGANG
 40
0.7853981633974483
  9
$DIMTFILL
 70
     0
  9
$DIMTFILLCLR
 70
     0
  9
$DIMARCSYM
 70
     0
  9
$DIMLTYPE
  6

  9
$DIMLTEX1
  6

  9
$DIMLTEX2
  6

  9
$DIMTXTDIRECTION
 70
     0
  9
$LUNITS
 70
     2
  9
$LUPREC
 70
     4
  9
$SKETCHINC
 40
1.0
  9
$FILLETRAD
 40
10.0
  9
$AUNITS
 70
     0
  9
$AUPREC
 70
     0
  9
$MENU
  1
.
  9
$ELEVATION
 40
0.0
  9
$PELEVATION
 40
0.0
  9
$THICKNESS
 40
0.0
  9
$LIMCHECK
 70
     0
  9
$CHAMFERA
 40
10.0
  9
$CHAMFERB
 40
10.0
  9
$CHAMFERC
 40
20.0
  9
$CHAMFERD
 40
0.0
  9
$SKPOLY
 70
     0
  9
$TDCREATE
 40
2457953.401969225
  9
$TDUCREATE
 40
2457953.026969225
  9
$TDUPDATE
 40
2457953.401969236
  9
$TDUUPDATE
 40
2457953.026969236
  9
$TDINDWG
 40
0.0000000116
  9
$TDUSRTIMER
 40
0.0000000116
  9
$USRTIMER
 70
     1
  9
$ANGBASE
 50
0.0
  9
$ANGDIR
 70
     0
  9
$PDMODE
 70
     0
  9
$PDSIZE
 40
0.0
  9
$PLINEWID
 40
0.0
  9
$SPLFRAME
 70
     0
  9
$SPLINETYPE
 70
     6
  9
$SPLINESEGS
 70
     8
  9
$HANDSEED
  5
300
  9
$SURFTAB1
 70
     6
  9
$SURFTAB2
 70
     6
  9
$SURFTYPE
 70
     6
  9
$SURFU
 70
     6
  9
$SURFV
 70
     6
  9
$UCSBASE
  2

  9
$UCSNAME
  2

  9
$UCSORG
 10
0.0
 20
0.0
 30
0.0
  9
$UCSXDIR
 10
1.0
 20
0.0
 30
0.0
  9
$UCSYDIR
 10
0.0
 20
1.0
 30
0.0
  9
$UCSORTHOREF
  2

  9
$UCSORTHOVIEW
 70
     0
  9
$UCSORGTOP
 10
0.0
 20
0.0
 30
0.0
  9
$UCSORGBOTTOM
 10
0.0
 20
0.0
 30
0.0
  9
$UCSORGLEFT
 10
0.0
 20
0.0
 30
0.0
  9
$UCSORGRIGHT
 10
0.0
 20
0.0
 30
0.0
  9
$UCSORGFRONT
 10
0.0
 20
0.0
 30
0.0
  9
$UCSORGBACK
 10
0.0
 20
0.0
 30
0.0
  9
$PUCSBASE
  2

  9
$PUCSNAME
  2

  9
$PUCSORG
 10
0.0
 20
0.0
 30
0.0
  9
$PUCSXDIR
 10
1.0
 20
0.0
 30
0.0
  9
$PUCSYDIR
 10
0.0
 20
1.0
 30
0.0
  9
$PUCSORTHOREF
  2

  9
$PUCSORTHOVIEW
 70
     0
  9
$PUCSORGTOP
 10
0.0
 20
0.0
 30
0.0
  9
$PUCSORGBOTTOM
 10
0.0
 20
0.0
 30
0.0
  9
$PUCSORGLEFT
 10
0.0
 20
0.0
 30
0.0
  9
$PUCSORGRIGHT
 10
0.0
 20
0.0
 30
0.0
  9
$PUCSORGFRONT
 10
0.0
 20
0.0
 30
0.0
  9
$PUCSORGBACK
 10
0.0
 20
0.0
 30
0.0
  9
$USERI1
 70
     0
  9
$USERI2
 70
     0
  9
$USERI3
 70
     0
  9
$USERI4
 70
     0
  9
$USERI5
 70
     0
  9
$USERR1
 40
0.0
  9
$USERR2
 40
0.0
  9
$USERR3
 40
0.0
  9
$USERR4
 40
0.0
  9
$USERR5
 40
0.0
  9
$WORLDVIEW
 70
     1
  9
$SHADEDGE
 70
     3
  9
$SHADEDIF
 70
    70
  9
$TILEMODE
 70
     1
  9
$MAXACTVP
 70
    64
  9
$PINSBASE
 10
0.0
 20
0.0
 30
0.0
  9
$PLIMCHECK
 70
     0
  9
$PEXTMIN
 10
1.000000000000000E+20
 20
1.000000000000000E+20
 30
1.000000000000000E+20
  9
$PEXTMAX
 10
-1.000000000000000E+20
 20
-1.000000000000000E+20
 30
-1.000000000000000E+20
  9
$PLIMMIN
 10
0.0
 20
0.0
  9
$PLIMMAX
 10
420.0
 20
297.0
  9
$UNITMODE
 70
     0
  9
$VISRETAIN
 70
     1
  9
$PLINEGEN
 70
     0
  9
$PSLTSCALE
 70
     1
  9
$TREEDEPTH
 70
  3020
  9
$CMLSTYLE
  2
Standard
  9
$CMLJUST
 70
     0
  9
$CMLSCALE
 40
20.0
  9
$PROXYGRAPHICS
 70
     1
  9
$MEASUREMENT
 70
     1
  9
$CELWEIGHT
370
    -1
  9
$ENDCAPS
280
     0
  9
$JOINSTYLE
280
     0
  9
$LWDISPLAY
290
     0
  9
$INSUNITS
 70
     4
  9
$HYPERLINKBASE
  1

  9
$STYLESHEET
  1

  9
$XEDIT
290
     1
  9
$CEPSNTYPE
380
     0
  9
$PSTYLEMODE
290
     1
  9
$FINGERPRINTGUID
  2
{9F815900-C353-4BEC-AC21-E1C6C926A619}
  9
$VERSIONGUID
  2
{FAEB1C32-E019-11D5-929B-00C0DF256EC4}
  9
$EXTNAMES
290
     1
  9
$PSVPSCALE
 40
0.0
  9
$OLESTARTUP
290
     0
  9
$SORTENTS
280
   127
  9
$INDEXCTL
280
     0
  9
$HIDETEXT
280
     1
  9
$XCLIPFRAME
280
     2
  9
$HALOGAP
280
     0
  9
$OBSCOLOR
 70
   257
  9
$OBSLTYPE
280
     0
  9
$INTERSECTIONDISPLAY
280
     0
  9
$INTERSECTIONCOLOR
 70
   257
  9
$DIMASSOC
280
     2
  9
$PROJECTNAME
  1

  9
$CAMERADISPLAY
290
     0
  9
$LENSLENGTH
 40
50.0
  9
$CAMERAHEIGHT
 40
0.0
  9
$STEPSPERSEC
 40
2.0
  9
$STEPSIZE
 40
6.0
  9
$3DDWFPREC
 40
2.0
  9
$PSOLWIDTH
 40
5.0
  9
$PSOLHEIGHT
 40
80.0
  9
$LOFTANG1
 40
1.570796326794897
  9
$LOFTANG2
 40
1.570796326794897
  9
$LOFTMAG1
 40
0.0
  9
$LOFTMAG2
 40
0.0
  9
$LOFTPARAM
 70
     7
  9
$LOFTNORMALS
280
     1
  9
$LATITUDE
 40
37.795
  9
$LONGITUDE
 40
-122.394
  9
$NORTHDIRECTION
 40
0.0
  9
$TIMEZONE
 70
 -8000
  9
$LIGHTGLYPHDISPLAY
280
     1
  9
$TILEMODELIGHTSYNCH
280
     1
  9
$SOLIDHIST
280
     1
  9
$SHOWHIST
280
     1
  9
$DWFFRAME
280
     2
  9
$DGNFRAME
280
     2
  9
$REALWORLDSCALE
290
     1
  9
$INTERFERECOLOR
 62
   256
  9
$CSHADOW
280
     0
  9
$SHADOWPLANELOCATION
 40
0.0
  0
ENDSEC
  0
SECTION
  2
CLASSES
  0
CLASS
  1
ACDBDICTIONARYWDFLT
  2
AcDbDictionaryWithDefault
  3
ObjectDBX Classes
 90
        0
 91
        4
280
     0
281
     0
  0
CLASS
  1
VISUALSTYLE
  2
AcDbVisualStyle
  3
ObjectDBX Classes
 90
     4095
 91
        4
280
     0
281
     0
  0
CLASS
  1
MATERIAL
  2
AcDbMaterial
  3
ObjectDBX Classes
 90
     1153
 91
        4
280
     0
281
     0
  0
ENDSEC
  0
SECTION
  2
TABLES
  0
TABLE
  2
VPORT
  5
8
330
0
100
AcDbSymbolTable
 70
     1
  0
VPORT
  5
29
330
8
100
AcDbSymbolTableRecord
100
AcDbViewportTableRecord
  2
*Active
 70
     0
 10
0.0
 20
0.0
 11
1.0
 21
1.0
 12
0.0
 22
0.0
 13
0.0
 23
0.0
 14
10.0
 24
10.0
 15
10.0
 25
10.0
 16
0.0
 26
0.0
 36
1.0
 17
0.0
 27
0.0
 37
0.0
 40
6930.000000000001
 41
1.414285714285714
 42
50.0
 43
0.0
 44
0.0
 50
0.0
 51
0.0
 71
     0
 72
 10000
 73
     1
 74
     3
 75
     0
 76
     0
 77
     0
 78
     0
281
     0
 65
     1
110
0.0
120
0.0
130
0.0
111
1.0
121
0.0
131
0.0
112
0.0
122
1.0
132
0.0
 79
     0
146
0.0
 60
     3
 61
     5
292
     1
282
     1
141
0.0
142
0.0
 63
   250
  0
ENDTAB
  0
TABLE
  2
LTYPE
  5
5
330
0
100
AcDbSymbolTable
 70
     2
  0
LTYPE
  5
14
330
5
100
AcDbSymbolTableRecord
100
AcDbLinetypeTableRecord
  2
ByBlock
 70
     0
  3

 72
    65
 73
     0
 40
0.0
  0
LTYPE
  5
15
330
5
100
AcDbSymbolTableRecord
100
AcDbLinetypeTableRecord
  2
ByLayer
 70
     0
  3

 72
    65
 73
     0
 40
0.0
  0
LTYPE
  5
16
330
5
100
AcDbSymbolTableRecord
100
AcDbLinetypeTableRecord
  2
Continuous
 70
     0
  3
Solid line
 72
    65
 73
     0
 40
0.0
  0
LTYPE
  5
3F
330
5
100
AcDbSymbolTableRecord
100
AcDbLinetypeTableRecord
  2
JWW_DASHED1
 70
     0
  3
-  --  --  --  --  --  --  --  -
 72
    65
 73
     2
 40
1.693333333333333
 49
0.8466666666666667
 74
     0
 49
-0.8466666666666667
 74
     0
  0
ENDTAB
  0
TABLE
  2
LAYER
  5
2
330
0
100
AcDbSymbolTable
 70
     3
  0
LAYER
  5
10
330
2
100
AcDbSymbolTableRecord
100
AcDbLayerTableRecord
  2
0
 70
     0
 62
     7
  6
Continuous
370
    -3
390
F
347
3E
  0
LAYER
  5
40
330
2
100
AcDbSymbolTableRecord
100
AcDbLayerTableRecord
  2
寸法
 70
     0
 62
     7
  6
Continuous
370
    -3
390
F
347
3E
  0
LAYER
  5
41
330
2
100
AcDbSymbolTableRecord
100
AcDbLayerTableRecord
  2
0-0
 70
     0
 62
     7
  6
Continuous
370
    -3
390
F
347
3E
  0
ENDTAB
  0
TABLE
  2
STYLE
  5
3
330
0
100
AcDbSymbolTable
 70
     1
  0
STYLE
  5
11
330
3
100
AcDbSymbolTableRecord
100
AcDbTextStyleTableRecord
  2
Standard
 70
     0
 40
0.0
 41
1.0
 50
0.0
 71
     0
 42
2.5
  3
txt
  4

  0
ENDTAB
  0
TABLE
  2
VIEW
  5
6
330
0
100
AcDbSymbolTable
 70
     0
  0
ENDTAB
  0
TABLE
  2
UCS
  5
7
330
0
100
AcDbSymbolTable
 70
     0
  0
ENDTAB
  0
TABLE
  2
APPID
  5
9
330
0
100
AcDbSymbolTable
 70
     1
  0
APPID
  5
12
330
9
100
AcDbSymbolTableRecord
100
AcDbRegAppTableRecord
  2
ACAD
 70
     0
  0
ENDTAB
  0
TABLE
  2
DIMSTYLE
  5
A
330
0
100
AcDbSymbolTable
 70
     1
100
AcDbDimStyleTable
  0
DIMSTYLE
105
27
330
A
100
AcDbSymbolTableRecord
100
AcDbDimStyleTableRecord
  2
ISO-25
 70
     0
 41
2.5
 42
0.625
 43
3.75
 44
1.25
 73
     0
 74
     0
 77
     1
 78
     8
140
2.5
141
2.5
143
0.03937007874016
147
0.625
171
     3
172
     1
178
     0
271
     2
272
     2
274
     3
278
    44
283
     0
284
     8
340
11
  0
ENDTAB
  0
TABLE
  2
BLOCK_RECORD
  5
1
330
0
100
AcDbSymbolTable
 70
     1
  0
BLOCK_RECORD
  5
1F
330
1
100
AcDbSymbolTableRecord
100
AcDbBlockTableRecord
  2
*Model_Space
340
22
 70
     0
280
     1
281
     0
  0
BLOCK_RECORD
  5
1B
330
1
100
AcDbSymbolTableRecord
100
AcDbBlockTableRecord
  2
*Paper_Space
340
1E
 70
     0
280
     1
281
     0
  0
BLOCK_RECORD
  5
23
330
1
100
AcDbSymbolTableRecord
100
AcDbBlockTableRecord
  2
*Paper_Space0
340
26
 70
     0
280
     1
281
     0
  0
ENDTAB
  0
ENDSEC
  0
SECTION
  2
BLOCKS
  0
BLOCK
  5
20
330
1F
100
AcDbEntity
  8
0
100
AcDbBlockBegin
  2
*Model_Space
 70
     0
 10
0.0
 20
0.0
 30
0.0
  3
*Model_Space
  1

  0
ENDBLK
  5
21
330
1F
100
AcDbEntity
  8
0
100
AcDbBlockEnd
  0
BLOCK
  5
1C
330
1B
100
AcDbEntity
 67
     1
  8
0
100
AcDbBlockBegin
  2
*Paper_Space
 70
     0
 10
0.0
 20
0.0
 30
0.0
  3
*Paper_Space
  1

  0
ENDBLK
  5
1D
330
1B
100
AcDbEntity
 67
     1
  8
0
100
AcDbBlockEnd
  0
BLOCK
  5
24
330
23
100
AcDbEntity
  8
0
100
AcDbBlockBegin
  2
*Paper_Space0
 70
     0
 10
0.0
 20
0.0
 30
0.0
  3
*Paper_Space0
  1

  0
ENDBLK
  5
25
330
23
100
AcDbEntity
  8
0
100
AcDbBlockEnd
  0
ENDSEC
  0
SECTION
  2
ENTITIES
  0
LWPOLYLINE
  5
42
330
1F
100
AcDbEntity
  8
寸法
  6
Continuous
 62
     7
370
     9
100
AcDbPolyline
 90
        4
 70
     1
 43
3.0
 10
844.4057148513139
 20
-1514.780182564924
 42
0.4142135623731
 10
842.9057148513139
 20
-1513.280182564924
 42
0.4142135623731
 10
841.4057148513137
 20
-1514.780182564924
 42
0.4142135623731
 10
842.9057148513139
 20
-1516.280182564924
 42
0.4142135623731
  0
LWPOLYLINE
  5
43
330
1F
100
AcDbEntity
  8
寸法
  6
Continuous
 62
     7
370
     9
100
AcDbPolyline
 90
        4
 70
     1
 43
3.0
 10
1651.405714851315
 20
-1914.780182564924
 42
0.4142135623731
 10
1649.905714851315
 20
-1913.280182564925
 42
0.4142135623731
 10
1648.405714851315
 20
-1914.780182564924
 42
0.4142135623731
 10
1649.905714851315
 20
-1916.280182564924
 42
0.4142135623731
  0
LWPOLYLINE
  5
44
330
1F
100
AcDbEntity
  8
寸法
  6
Continuous
 62
     7
370
     9
100
AcDbPolyline
 90
        4
 70
     1
 43
3.0
 10
1621.405714851315
 20
-1714.780182564925
 42
0.4142135623731
 10
1619.905714851315
 20
-1713.280182564925
 42
0.4142135623731
 10
1618.405714851315
 20
-1714.780182564925
 42
0.4142135623731
 10
1619.905714851315
 20
-1716.280182564925
 42
0.4142135623731
  0
LWPOLYLINE
  5
45
330
1F
100
AcDbEntity
  8
寸法
  6
Continuous
 62
     7
370
     9
100
AcDbPolyline
 90
        4
 70
     1
 43
3.0
 10
-775.594285148686
 20
-1514.780182564924
 42
0.4142135623731
 10
-777.0942851486861
 20
-1513.280182564924
 42
0.4142135623731
 10
-778.5942851486861
 20
-1514.780182564924
 42
0.4142135623731
 10
-777.0942851486861
 20
-1516.280182564924
 42
0.4142135623731
  0
LWPOLYLINE
  5
46
330
1F
100
AcDbEntity
  8
寸法
  6
Continuous
 62
     7
370
     9
100
AcDbPolyline
 90
        4
 70
     1
 43
3.0
 10
34.4057148513138
 20
-1514.780182564924
 42
0.4142135623731
 10
32.9057148513138
 20
-1513.280182564924
 42
0.4142135623731
 10
31.4057148513138
 20
-1514.780182564924
 42
0.4142135623731
 10
32.9057148513138
 20
-1516.280182564924
 42
0.4142135623731
  0
LWPOLYLINE
  5
47
330
1F
100
AcDbEntity
  8
寸法
  6
Continuous
 62
     7
370
     9
100
AcDbPolyline
 90
        4
 70
     1
 43
3.0
 10
-1582.594285148686
 20
-1914.780182564925
 42
0.4142135623731
 10
-1584.094285148685
 20
-1913.280182564925
 42
0.4142135623731
 10
-1585.594285148685
 20
-1914.780182564925
 42
0.4142135623731
 10
-1584.094285148685
 20
-1916.280182564925
 42
0.4142135623731
  0
LWPOLYLINE
  5
48
330
1F
100
AcDbEntity
  8
寸法
  6
Continuous
 62
     7
370
     9
100
AcDbPolyline
 90
        4
 70
     1
 43
3.0
 10
-1552.594285148686
 20
-1714.780182564925
 42
0.4142135623731
 10
-1554.094285148685
 20
-1713.280182564925
 42
0.4142135623731
 10
-1555.594285148685
 20
-1714.780182564925
 42
0.4142135623731
 10
-1554.094285148685
 20
-1716.280182564925
 42
0.4142135623731
  0
LINE
  5
49
330
1F
100
AcDbEntity
  8
寸法
  6
Continuous
 62
   120
370
     5
100
AcDbLine
 10
842.9057148513139
 20
-1514.780182564924
 30
0.0
 11
842.9057148513139
 21
-1314.780182564925
 31
0.0
  0
LINE
  5
4A
330
1F
100
AcDbEntity
  8
寸法
  6
Continuous
 62
   120
370
     5
100
AcDbLine
 10
1649.905714851315
 20
-1914.780182564924
 30
0.0
 11
1649.905714851315
 21
-1314.780182564925
 31
0.0
  0
LINE
  5
4B
330
1F
100
AcDbEntity
  8
寸法
  6
Continuous
 62
   120
370
     5
100
AcDbLine
 10
-1584.094285148685
 20
-1914.780182564925
 30
0.0
 11
1649.905714851315
 21
-1914.780182564924
 31
0.0
  0
LINE
  5
4C
330
1F
100
AcDbEntity
  8
寸法
  6
Continuous
 62
   120
370
     5
100
AcDbLine
 10
1619.905714851315
 20
-1714.780182564925
 30
0.0
 11
1619.905714851315
 21
-1314.780182564925
 31
0.0
  0
LINE
  5
4D
330
1F
100
AcDbEntity
  8
寸法
  6
Continuous
 62
   120
370
     5
100
AcDbLine
 10
-1554.094285148685
 20
-1714.780182564925
 30
0.0
 11
1619.905714851315
 21
-1714.780182564925
 31
0.0
  0
LINE
  5
4E
330
1F
100
AcDbEntity
  8
寸法
  6
Continuous
 62
   120
370
     5
100
AcDbLine
 10
-777.0942851486861
 20
-1514.780182564924
 30
0.0
 11
842.9057148513139
 21
-1514.780182564924
 31
0.0
  0
LINE
  5
4F
330
1F
100
AcDbEntity
  8
寸法
  6
Continuous
 62
   120
370
     5
100
AcDbLine
 10
-777.0942851486861
 20
-1514.780182564924
 30
0.0
 11
-777.0942851486861
 21
-1314.780182564925
 31
0.0
  0
LINE
  5
50
330
1F
100
AcDbEntity
  8
寸法
  6
Continuous
 62
   120
370
     5
100
AcDbLine
 10
32.9057148513138
 20
-1514.780182564924
 30
0.0
 11
32.9057148513138
 21
-1314.780182564925
 31
0.0
  0
LINE
  5
51
330
1F
100
AcDbEntity
  8
寸法
  6
Continuous
 62
   120
370
     5
100
AcDbLine
 10
-1584.094285148685
 20
-1914.780182564925
 30
0.0
 11
-1584.094285148685
 21
-1314.780182564925
 31
0.0
  0
LINE
  5
52
330
1F
100
AcDbEntity
  8
寸法
  6
Continuous
 62
   120
370
     5
100
AcDbLine
 10
-1554.094285148685
 20
-1714.780182564925
 30
0.0
 11
-1554.094285148685
 21
-1314.780182564925
 31
0.0
  0
LWPOLYLINE
  5
53
330
1F
100
AcDbEntity
  8
寸法
  6
Continuous
 62
     7
370
     9
100
AcDbPolyline
 90
        4
 70
     1
 43
3.0
 10
-2032.594285148686
 20
-1264.780182564925
 42
0.4142135623731
 10
-2034.094285148685
 20
-1263.280182564925
 42
0.4142135623731
 10
-2035.594285148685
 20
-1264.780182564925
 42
0.4142135623731
 10
-2034.094285148685
 20
-1266.280182564925
 42
0.4142135623731
  0
LINE
  5
54
330
1F
100
AcDbEntity
  8
寸法
  6
Continuous
 62
   120
370
     5
100
AcDbLine
 10
-2034.094285148685
 20
-1264.780182564925
 30
0.0
 11
-1634.094285148686
 21
-1264.780182564925
 31
0.0
  0
LWPOLYLINE
  5
55
330
1F
100
AcDbEntity
  8
寸法
  6
Continuous
 62
     7
370
     9
100
AcDbPolyline
 90
        4
 70
     1
 43
3.0
 10
-1832.594285148685
 20
-1256.780182564926
 42
0.4142135623731
 10
-1834.094285148685
 20
-1255.280182564926
 42
0.4142135623731
 10
-1835.594285148685
 20
-1256.780182564926
 42
0.4142135623731
 10
-1834.094285148685
 20
-1258.280182564926
 42
0.4142135623731
  0
LINE
  5
56
330
1F
100
AcDbEntity
  8
寸法
  6
Continuous
 62
   120
370
     5
100
AcDbLine
 10
-1834.094285148685
 20
-1256.780182564926
 30
0.0
 11
-1634.094285148686
 21
-1256.780182564926
 31
0.0
  0
LINE
  5
57
330
1F
100
AcDbEntity
  8
寸法
  6
Continuous
 62
   120
370
     5
100
AcDbLine
 10
-2034.094285148685
 20
970.2198174350748
 30
0.0
 11
-2034.094285148685
 21
-1264.780182564925
 31
0.0
  0
LINE
  5
58
330
1F
100
AcDbEntity
  8
寸法
  6
Continuous
 62
   120
370
     5
100
AcDbLine
 10
-2034.094285148685
 20
970.2198174350748
 30
0.0
 11
-1634.094285148686
 21
970.2198174350748
 31
0.0
  0
LWPOLYLINE
  5
59
330
1F
100
AcDbEntity
  8
寸法
  6
Continuous
 62
     7
370
     9
100
AcDbPolyline
 90
        4
 70
     1
 43
3.0
 10
-2032.594285148686
 20
970.2198174350748
 42
0.4142135623731
 10
-2034.094285148685
 20
971.7198174350747
 42
0.4142135623731
 10
-2035.594285148685
 20
970.2198174350748
 42
0.4142135623731
 10
-2034.094285148685
 20
968.7198174350749
 42
0.4142135623731
  0
LINE
  5
5A
330
1F
100
AcDbEntity
  8
寸法
  6
Continuous
 62
   120
370
     5
100
AcDbLine
 10
-1834.094285148685
 20
926.2198174350739
 30
0.0
 11
-1634.094285148686
 21
926.2198174350739
 31
0.0
  0
LINE
  5
5B
330
1F
100
AcDbEntity
  8
寸法
  6
Continuous
 62
   120
370
     5
100
AcDbLine
 10
-1834.094285148685
 20
926.2198174350739
 30
0.0
 11
-1834.094285148685
 21
-1256.780182564926
 31
0.0
  0
LWPOLYLINE
  5
5C
330
1F
100
AcDbEntity
  8
寸法
  6
Continuous
 62
     7
370
     9
100
AcDbPolyline
 90
        4
 70
     1
 43
3.0
 10
-1832.594285148685
 20
926.2198174350739
 42
0.4142135623731
 10
-1834.094285148685
 20
927.7198174350739
 42
0.4142135623731
 10
-1835.594285148685
 20
926.2198174350739
 42
0.4142135623731
 10
-1834.094285148685
 20
924.7198174350739
 42
0.4142135623731
  0
MTEXT
  5
5D
330
1F
100
AcDbEntity
  8
寸法
  6
Continuous
 62
     7
370
   211
100
AcDbMText
 10
-540.8442851486861
 20
-1508.705182564924
 30
0.0
 40
57.15000000000001
 41
337.5000000000001
 46
0.0
 71
     7
 72
     1
  1
{\fＭＳ ゴシック|b0|i0|c128|p49;ＤＷ＝810}
 73
     1
 44
1.0
  0
MTEXT
  5
5E
330
1F
100
AcDbEntity
  8
寸法
  6
Continuous
 62
     7
370
   211
100
AcDbMText
 10
269.1557148513139
 20
-1508.705182564924
 30
0.0
 40
57.14999999999998
 41
337.4999999999999
 46
0.0
 71
     7
 72
     1
  1
{\fＭＳ ゴシック|b0|i0|c128|p49;ＤＷ＝810}
 73
     1
 44
1.0
  0
MTEXT
  5
5F
330
1F
100
AcDbEntity
  8
寸法
  6
Continuous
 62
     7
370
   211
100
AcDbMText
 10
-173.3442851486862
 20
-1708.705182564925
 30
0.0
 40
57.14999999999999
 41
412.5
 46
0.0
 71
     7
 72
     1
  1
{\fＭＳ ゴシック|b0|i0|c128|p49;枠内＝3,174}
 73
     1
 44
1.0
  0
MTEXT
  5
60
330
1F
100
AcDbEntity
  8
寸法
  6
Continuous
 62
     7
370
   211
100
AcDbMText
 10
-173.3442851486862
 20
-1908.705182564925
 30
0.0
 40
57.14999999999999
 41
412.5
 46
0.0
 71
     7
 72
     1
  1
{\fＭＳ ゴシック|b0|i0|c128|p49;枠外＝3,234}
 73
     1
 44
1.0
  0
MTEXT
  5
61
330
1F
100
AcDbEntity
  8
寸法
  6
Continuous
 62
     7
370
    70
100
AcDbMText
 10
-2049.094285148686
 20
-380.4551825649263
 30
0.0
 40
57.14999999999999
 41
412.5
 46
0.0
 71
     7
 72
     1
  1
{\fＭＳ ゴシック|b0|i0|c128|p49;枠外＝2,235}
 11
6.123031769111886E-17
 21
1.0
 31
0.0
 73
     1
 44
1.0
  0
MTEXT
  5
62
330
1F
100
AcDbEntity
  8
寸法
  6
Continuous
 62
     7
370
    70
100
AcDbMText
 10
-1849.094285148685
 20
-380.4551825649263
 30
0.0
 40
57.14999999999999
 41
412.5
 46
0.0
 71
     7
 72
     1
  1
{\fＭＳ ゴシック|b0|i0|c128|p49;ＤＨ＝2,183}
 11
6.123031769111886E-17
 21
1.0
 31
0.0
 73
     1
 44
1.0
  0
LINE
  5
63
330
1F
100
AcDbEntity
  8
0-0
  6
Continuous
 62
    92
370
    13
100
AcDbLine
 10
-1554.094285148685
 20
-1264.780182564925
 30
0.0
 11
-1584.094285148685
 21
-1264.780182564925
 31
0.0
  0
LINE
  5
64
330
1F
100
AcDbEntity
  8
0-0
  6
Continuous
 62
    92
370
    13
100
AcDbLine
 10
1649.905714851315
 20
-1264.780182564925
 30
0.0
 11
1619.905714851315
 21
-1264.780182564925
 31
0.0
  0
LINE
  5
65
330
1F
100
AcDbEntity
  8
0-0
  6
Continuous
 62
    92
370
    13
100
AcDbLine
 10
812.9057148513155
 20
-1264.780182564926
 30
0.0
 11
842.9057148513155
 21
-1264.780182564926
 31
0.0
  0
LINE
  5
66
330
1F
100
AcDbEntity
  8
0-0
  6
Continuous
 62
    92
370
    13
100
AcDbLine
 10
-777.0942851486861
 20
-1264.780182564926
 30
0.0
 11
-747.0942851486861
 21
-1264.780182564926
 31
0.0
  0
LINE
  5
67
330
1F
100
AcDbEntity
  8
0-0
  6
Continuous
 62
    92
370
    13
100
AcDbLine
 10
842.9057148513139
 20
-1256.780182564927
 30
0.0
 11
32.9057148513138
 21
-1256.780182564927
 31
0.0
  0
LINE
  5
68
330
1F
100
AcDbEntity
  8
0-0
  6
Continuous
 62
    92
370
    13
100
AcDbLine
 10
-777.0942851486861
 20
-1256.780182564927
 30
0.0
 11
32.9057148513138
 21
-1256.780182564927
 31
0.0
  0
LINE
  5
69
330
1F
100
AcDbEntity
  8
0-0
  6
Continuous
 62
     7
370
     9
100
AcDbLine
 10
68.90571485131346
 20
-269.680182564926
 30
0.0
 11
68.90571485131346
 21
-328.880182564925
 31
0.0
  0
LINE
  5
6A
330
1F
100
AcDbEntity
  8
0-0
  6
Continuous
 62
     7
370
     9
100
AcDbLine
 10
98.90571485131346
 20
-328.880182564925
 30
0.0
 11
98.90571485131346
 21
-269.680182564926
 31
0.0
  0
ARC
  5
6B
330
1F
100
AcDbEntity
  8
0-0
  6
Continuous
 62
     7
370
     9
100
AcDbCircle
 10
83.90571485131346
 20
-269.680182564926
 30
0.0
 40
15.0
100
AcDbArc
 50
0.0
 51
180.0
  0
ARC
  5
6C
330
1F
100
AcDbEntity
  8
0-0
  6
Continuous
 62
     7
370
     9
100
AcDbCircle
 10
83.90571485131346
 20
-328.880182564925
 30
0.0
 40
15.0
100
AcDbArc
 50
180.0
 51
0.0
  0
ARC
  5
6D
330
1F
100
AcDbEntity
  8
0-0
  6
Continuous
 62
    92
370
    13
100
AcDbCircle
 10
64.40571485131244
 20
-358.7801825649251
 30
0.0
 40
1.5
100
AcDbArc
 50
180.0
 51
270.0
  0
LINE
  5
6E
330
1F
100
AcDbEntity
  8
0-0
  6
Continuous
 62
    92
370
    13
100
AcDbLine
 10
62.9057148513138
 20
-358.7801825649251
 30
0.0
 11
62.9057148513138
 21
-239.7801825649259
 31
0.0
  0
LINE
  5
6F
330
1F
100
AcDbEntity
  8
0-0
  6
Continuous
 62
    92
370
    13
100
AcDbLine
 10
64.40571485131244
 20
-360.280182564928
 30
0.0
 11
103.4057148513145
 21
-360.280182564928
 31
0.0
  0
ARC
  5
70
330
1F
100
AcDbEntity
  8
0-0
  6
Continuous
 62
    92
370
    13
100
AcDbCircle
 10
103.4057148513145
 20
-358.7801825649251
 30
0.0
 40
1.5
100
AcDbArc
 50
270.0
 51
0.0
  0
LINE
  5
71
330
1F
100
AcDbEntity
  8
0-0
  6
Continuous
 62
    92
370
    13
100
AcDbLine
 10
104.9057148513148
 20
-358.7801825649251
 30
0.0
 11
104.9057148513148
 21
-239.7801825649259
 31
0.0
  0
ARC
  5
72
330
1F
100
AcDbEntity
  8
0-0
  6
Continuous
 62
    92
370
    13
100
AcDbCircle
 10
103.4057148513145
 20
-239.7801825649259
 30
0.0
 40
1.5
100
AcDbArc
 50
0.0
 51
90.00000000000001
  0
LINE
  5
73
330
1F
100
AcDbEntity
  8
0-0
  6
Continuous
 62
    92
370
    13
100
AcDbLine
 10
103.4057148513145
 20
-238.2801825649256
 30
0.0
 11
64.40571485131244
 21
-238.2801825649256
 31
0.0
  0
ARC
  5
74
330
1F
100
AcDbEntity
  8
0-0
  6
Continuous
 62
    92
370
    13
100
AcDbCircle
 10
64.40571485131244
 20
-239.7801825649259
 30
0.0
 40
1.5
100
AcDbArc
 50
90.0
 51
180.0
  0
LINE
  5
75
330
1F
100
AcDbEntity
  8
0-0
  6
Continuous
 62
     7
370
     9
100
AcDbLine
 10
-33.09428514868415
 20
-269.680182564926
 30
0.0
 11
-33.09428514868415
 21
-328.880182564925
 31
0.0
  0
LINE
  5
76
330
1F
100
AcDbEntity
  8
0-0
  6
Continuous
 62
     7
370
     9
100
AcDbLine
 10
-3.09428514868415
 20
-328.880182564925
 30
0.0
 11
-3.09428514868415
 21
-269.680182564926
 31
0.0
  0
ARC
  5
77
330
1F
100
AcDbEntity
  8
0-0
  6
Continuous
 62
     7
370
     9
100
AcDbCircle
 10
-18.09428514868415
 20
-269.680182564926
 30
0.0
 40
15.0
100
AcDbArc
 50
0.0
 51
180.0
  0
ARC
  5
78
330
1F
100
AcDbEntity
  8
0-0
  6
Continuous
 62
     7
370
     9
100
AcDbCircle
 10
-18.09428514868415
 20
-328.880182564925
 30
0.0
 40
15.0
100
AcDbArc
 50
180.0
 51
0.0
  0
ARC
  5
79
330
1F
100
AcDbEntity
  8
0-0
  6
Continuous
 62
    92
370
    13
100
AcDbCircle
 10
-37.59428514868347
 20
-358.7801825649251
 30
0.0
 40
1.5
100
AcDbArc
 50
180.0
 51
270.0
  0
LINE
  5
7A
330
1F
100
AcDbEntity
  8
0-0
  6
Continuous
 62
    92
370
    13
100
AcDbLine
 10
-39.09428514868381
 20
-358.7801825649251
 30
0.0
 11
-39.09428514868381
 21
-239.7801825649259
 31
0.0
  0
LINE
  5
7B
330
1F
100
AcDbEntity
  8
0-0
  6
Continuous
 62
    92
370
    13
100
AcDbLine
 10
-37.59428514868347
 20
-360.280182564928
 30
0.0
 11
1.405714851315167
 21
-360.280182564928
 31
0.0
  0
ARC
  5
7C
330
1F
100
AcDbEntity
  8
0-0
  6
Continuous
 62
    92
370
    13
100
AcDbCircle
 10
1.405714851315167
 20
-358.7801825649251
 30
0.0
 40
1.5
100
AcDbArc
 50
270.0
 51
0.0
  0
LINE
  5
7D
330
1F
100
AcDbEntity
  8
0-0
  6
Continuous
 62
    92
370
    13
100
AcDbLine
 10
2.905714851315508
 20
-358.7801825649251
 30
0.0
 11
2.905714851315508
 21
-239.7801825649259
 31
0.0
  0
ARC
  5
7E
330
1F
100
AcDbEntity
  8
0-0
  6
Continuous
 62
    92
370
    13
100
AcDbCircle
 10
1.405714851315167
 20
-239.7801825649259
 30
0.0
 40
1.5
100
AcDbArc
 50
0.0
 51
90.00000000000001
  0
LINE
  5
7F
330
1F
100
AcDbEntity
  8
0-0
  6
Continuous
 62
    92
370
    13
100
AcDbLine
 10
1.405714851315167
 20
-238.2801825649256
 30
0.0
 11
-37.59428514868347
 21
-238.2801825649256
 31
0.0
  0
ARC
  5
80
330
1F
100
AcDbEntity
  8
0-0
  6
Continuous
 62
    92
370
    13
100
AcDbCircle
 10
-37.59428514868347
 20
-239.7801825649259
 30
0.0
 40
1.5
100
AcDbArc
 50
90.0
 51
180.0
  0
LINE
  5
81
330
1F
100
AcDbEntity
  8
0-0
  6
Continuous
 62
    92
370
    13
100
AcDbLine
 10
842.9057148513155
 20
-1256.780182564927
 30
0.0
 11
842.9057148513155
 21
-1264.780182564926
 31
0.0
  0
LINE
  5
82
330
1F
100
AcDbEntity
  8
0-0
  6
Continuous
 62
    92
370
    13
100
AcDbLine
 10
812.9057148513155
 20
-1256.780182564927
 30
0.0
 11
812.9057148513155
 21
-1264.780182564926
 31
0.0
  0
LINE
  5
83
330
1F
100
AcDbEntity
  8
0-0
  6
Continuous
 62
    92
370
    13
100
AcDbLine
 10
-747.0942851486861
 20
-1256.780182564927
 30
0.0
 11
-747.0942851486861
 21
-1264.780182564926
 31
0.0
  0
LINE
  5
84
330
1F
100
AcDbEntity
  8
0-0
  6
Continuous
 62
    92
370
    13
100
AcDbLine
 10
-777.0942851486861
 20
-1256.780182564927
 30
0.0
 11
-777.0942851486861
 21
-1264.780182564926
 31
0.0
  0
LINE
  5
85
330
1F
100
AcDbEntity
  8
0-0
  6
Continuous
 62
     7
370
     9
100
AcDbLine
 10
-658.5942851486866
 20
-1106.780182564927
 30
0.0
 11
-673.5942851486866
 21
-1121.780182564927
 31
0.0
  0
LINE
  5
86
330
1F
100
AcDbEntity
  8
0-0
  6
Continuous
 62
     7
370
     9
100
AcDbLine
 10
-85.59428514868586
 20
-1106.780182564927
 30
0.0
 11
-70.59428514868586
 21
-1121.780182564927
 31
0.0
  0
LINE
  5
87
330
1F
100
AcDbEntity
  8
0-0
  6
Continuous
 62
     7
370
     9
100
AcDbLine
 10
-673.5942851486866
 20
-1121.780182564927
 30
0.0
 11
-70.59428514868586
 21
-1121.780182564927
 31
0.0
  0
LINE
  5
88
330
1F
100
AcDbEntity
  8
0-0
  6
Continuous
 62
     7
370
     9
100
AcDbLine
 10
-628.5942851486866
 20
-1076.780182564927
 30
0.0
 11
-643.5942851486866
 21
-1091.780182564927
 31
0.0
  0
LINE
  5
89
330
1F
100
AcDbEntity
  8
0-0
  6
Continuous
 62
     7
370
     9
100
AcDbLine
 10
-115.5942851486859
 20
-1076.780182564927
 30
0.0
 11
-100.5942851486859
 21
-1091.780182564927
 31
0.0
  0
LINE
  5
8A
330
1F
100
AcDbEntity
  8
0-0
  6
Continuous
 62
     7
370
     9
100
AcDbLine
 10
-628.5942851486866
 20
-1076.780182564927
 30
0.0
 11
-115.5942851486859
 21
-1076.780182564927
 31
0.0
  0
LINE
  5
8B
330
1F
100
AcDbEntity
  8
0-0
  6
Continuous
 62
    92
370
    13
100
AcDbLine
 10
-658.5942851486866
 20
-1106.780182564927
 30
0.0
 11
-85.59428514868586
 21
-1106.780182564927
 31
0.0
  0
LINE
  5
8C
330
1F
100
AcDbEntity
  8
0-0
  6
Continuous
 62
     7
370
     9
100
AcDbLine
 10
151.4057148513135
 20
-1106.780182564927
 30
0.0
 11
136.4057148513135
 21
-1121.780182564927
 31
0.0
  0
LINE
  5
8D
330
1F
100
AcDbEntity
  8
0-0
  6
Continuous
 62
     7
370
     9
100
AcDbLine
 10
724.4057148513141
 20
-1106.780182564927
 30
0.0
 11
739.4057148513141
 21
-1121.780182564927
 31
0.0
  0
LINE
  5
8E
330
1F
100
AcDbEntity
  8
0-0
  6
Continuous
 62
     7
370
     9
100
AcDbLine
 10
136.4057148513135
 20
-1121.780182564927
 30
0.0
 11
739.4057148513141
 21
-1121.780182564927
 31
0.0
  0
LINE
  5
8F
330
1F
100
AcDbEntity
  8
0-0
  6
Continuous
 62
     7
370
     9
100
AcDbLine
 10
181.4057148513135
 20
-1076.780182564927
 30
0.0
 11
166.4057148513135
 21
-1091.780182564927
 31
0.0
  0
LINE
  5
90
330
1F
100
AcDbEntity
  8
0-0
  6
Continuous
 62
     7
370
     9
100
AcDbLine
 10
694.4057148513141
 20
-1076.780182564927
 30
0.0
 11
709.4057148513141
 21
-1091.780182564927
 31
0.0
  0
LINE
  5
91
330
1F
100
AcDbEntity
  8
0-0
  6
Continuous
 62
     7
370
     9
100
AcDbLine
 10
181.4057148513135
 20
-1076.780182564927
 30
0.0
 11
694.4057148513141
 21
-1076.780182564927
 31
0.0
  0
LINE
  5
92
330
1F
100
AcDbEntity
  8
0-0
  6
Continuous
 62
    92
370
    13
100
AcDbLine
 10
151.4057148513135
 20
-1106.780182564927
 30
0.0
 11
724.4057148513141
 21
-1106.780182564927
 31
0.0
  0
LINE
  5
93
330
1F
100
AcDbEntity
  8
0-0
  6
Continuous
 62
    92
370
    13
100
AcDbLine
 10
-1554.094285148685
 20
940.2198174350748
 30
0.0
 11
1619.905714851315
 21
940.2198174350748
 31
0.0
  0
LINE
  5
94
330
1F
100
AcDbEntity
  8
0-0
  6
Continuous
 62
    92
370
    13
100
AcDbLine
 10
-1584.094285148685
 20
-1264.780182564925
 30
0.0
 11
-1584.094285148685
 21
970.2198174350748
 31
0.0
  0
LINE
  5
95
330
1F
100
AcDbEntity
  8
0-0
  6
Continuous
 62
    92
370
    13
100
AcDbLine
 10
1649.905714851315
 20
-1264.780182564925
 30
0.0
 11
1649.905714851315
 21
970.2198174350748
 31
0.0
  0
LINE
  5
96
330
1F
100
AcDbEntity
  8
0-0
  6
Continuous
 62
    92
370
    13
100
AcDbLine
 10
-1584.094285148685
 20
970.2198174350748
 30
0.0
 11
1649.905714851315
 21
970.2198174350748
 31
0.0
  0
LINE
  5
97
330
1F
100
AcDbEntity
  8
0-0
  6
Continuous
 62
    92
370
    13
100
AcDbLine
 10
-1554.094285148685
 20
-1264.780182564925
 30
0.0
 11
-1554.094285148685
 21
970.2198174350748
 31
0.0
  0
LINE
  5
98
330
1F
100
AcDbEntity
  8
0-0
  6
Continuous
 62
    92
370
    13
100
AcDbLine
 10
1619.905714851315
 20
-1264.780182564925
 30
0.0
 11
1619.905714851315
 21
970.2198174350748
 31
0.0
  0
LINE
  5
99
330
1F
100
AcDbEntity
  8
0-0
  6
Continuous
 62
    92
370
    13
100
AcDbLine
 10
842.9057148513139
 20
926.2198174350739
 30
0.0
 11
32.9057148513138
 21
926.2198174350739
 31
0.0
  0
LINE
  5
9A
330
1F
100
AcDbEntity
  8
0-0
  6
JWW_DASHED1
 62
   120
370
     5
100
AcDbLine
 10
812.9057148513139
 20
-1256.780182564927
 30
0.0
 11
812.9057148513139
 21
926.2198174350739
 31
0.0
  0
LINE
  5
9B
330
1F
100
AcDbEntity
  8
0-0
  6
Continuous
 62
    92
370
    13
100
AcDbLine
 10
842.9057148513139
 20
-1256.780182564927
 30
0.0
 11
842.9057148513139
 21
926.2198174350739
 31
0.0
  0
LINE
  5
9C
330
1F
100
AcDbEntity
  8
0-0
  6
Continuous
 62
    92
370
    13
100
AcDbLine
 10
32.9057148513138
 20
-1256.780182564927
 30
0.0
 11
32.9057148513138
 21
926.2198174350739
 31
0.0
  0
LINE
  5
9D
330
1F
100
AcDbEntity
  8
0-0
  6
Continuous
 62
    92
370
    13
100
AcDbLine
 10
-777.0942851486861
 20
926.2198174350739
 30
0.0
 11
32.9057148513138
 21
926.2198174350739
 31
0.0
  0
LINE
  5
9E
330
1F
100
AcDbEntity
  8
0-0
  6
JWW_DASHED1
 62
   120
370
     5
100
AcDbLine
 10
-747.0942851486861
 20
-1256.780182564927
 30
0.0
 11
-747.0942851486861
 21
926.2198174350739
 31
0.0
  0
LINE
  5
9F
330
1F
100
AcDbEntity
  8
0-0
  6
Continuous
 62
    92
370
    13
100
AcDbLine
 10
-777.0942851486861
 20
-1256.780182564927
 30
0.0
 11
-777.0942851486861
 21
926.2198174350739
 31
0.0
  0
LINE
  5
A0
330
1F
100
AcDbEntity
  8
0-0
  6
JWW_DASHED1
 62
   120
370
     5
100
AcDbLine
 10
-747.0942851486845
 20
-1256.780182564927
 30
0.0
 11
-747.0942851486845
 21
940.2198174350748
 31
0.0
  0
LINE
  5
A1
330
1F
100
AcDbEntity
  8
0-0
  6
JWW_DASHED1
 62
   120
370
     5
100
AcDbLine
 10
-777.0942851486845
 20
-1256.780182564927
 30
0.0
 11
-777.0942851486845
 21
940.2198174350748
 31
0.0
  0
LINE
  5
A2
330
1F
100
AcDbEntity
  8
0-0
  6
JWW_DASHED1
 62
   120
370
     5
100
AcDbLine
 10
842.9057148513155
 20
-1256.780182564927
 30
0.0
 11
842.9057148513155
 21
940.2198174350748
 31
0.0
  0
LINE
  5
A3
330
1F
100
AcDbEntity
  8
0-0
  6
JWW_DASHED1
 62
   120
370
     5
100
AcDbLine
 10
812.9057148513155
 20
-1256.780182564927
 30
0.0
 11
812.9057148513155
 21
940.2198174350748
 31
0.0
  0
LINE
  5
A4
330
1F
100
AcDbEntity
  8
0-0
  6
Continuous
 62
     7
370
     9
100
AcDbLine
 10
-673.5942851486866
 20
-1256.780182564927
 30
0.0
 11
-673.5942851486866
 21
926.2198174350731
 31
0.0
  0
LINE
  5
A5
330
1F
100
AcDbEntity
  8
0-0
  6
Continuous
 62
     7
370
     9
100
AcDbLine
 10
-70.59428514868586
 20
-1256.780182564927
 30
0.0
 11
-70.59428514868586
 21
926.2198174350731
 31
0.0
  0
LINE
  5
A6
330
1F
100
AcDbEntity
  8
0-0
  6
Continuous
 62
     7
370
     9
100
AcDbLine
 10
-658.5942851486882
 20
731.2195498907648
 30
0.0
 11
-673.5946810576322
 21
746.2199457997059
 31
0.0
  0
LINE
  5
A7
330
1F
100
AcDbEntity
  8
0-0
  6
Continuous
 62
     7
370
     9
100
AcDbLine
 10
-85.59428514868586
 20
731.2195498907648
 30
0.0
 11
-70.59428514868586
 21
746.2195498907648
 31
0.0
  0
ARC
  5
A8
330
1F
100
AcDbEntity
  8
0-0
  6
Continuous
 62
     7
370
     9
100
AcDbCircle
 10
-609.5816225772746
 20
881.2195498907648
 30
0.0
 40
135.0
100
AcDbArc
 50
270.0
 51
298.3577011236671
  0
ARC
  5
A9
330
1F
100
AcDbEntity
  8
0-0
  6
Continuous
 62
     7
370
     9
100
AcDbCircle
 10
-134.6069477200986
 20
881.2195498907648
 30
0.0
 40
135.0
100
AcDbArc
 50
241.6422988763328
 51
270.0
  0
ARC
  5
AA
330
1F
100
AcDbEntity
  8
0-0
  6
Continuous
 62
     7
370
     9
100
AcDbCircle
 10
-372.0942851486866
 20
441.2198174350733
 30
0.0
 40
365.0
100
AcDbArc
 50
61.64229887633292
 51
118.3577011236671
  0
LINE
  5
AB
330
1F
100
AcDbEntity
  8
0-0
  6
Continuous
 62
     7
370
     9
100
AcDbLine
 10
-673.5943346366557
 20
746.2195993787288
 30
0.0
 11
-609.5816225772746
 21
746.2195993787288
 31
0.0
  0
LINE
  5
AC
330
1F
100
AcDbEntity
  8
0-0
  6
Continuous
 62
     7
370
     9
100
AcDbLine
 10
-70.59423566072013
 20
746.2195993787288
 30
0.0
 11
-134.6069477200986
 21
746.2195993787288
 31
0.0
  0
LINE
  5
AD
330
1F
100
AcDbEntity
  8
0-0
  6
Continuous
 62
    92
370
    13
100
AcDbLine
 10
-85.59428514868586
 20
731.2195498907648
 30
0.0
 11
-134.6069477200986
 21
731.2195498907648
 31
0.0
  0
ARC
  5
AE
330
1F
100
AcDbEntity
  8
0-0
  6
Continuous
 62
    92
370
    13
100
AcDbCircle
 10
-134.6069477200986
 20
881.2195498907648
 30
0.0
 40
150.0
100
AcDbArc
 50
241.6422988763328
 51
270.0
  0
ARC
  5
AF
330
1F
100
AcDbEntity
  8
0-0
  6
Continuous
 62
    92
370
    13
100
AcDbCircle
 10
-372.0942851486866
 20
441.2198174350733
 30
0.0
 40
350.0
100
AcDbArc
 50
61.64229887633292
 51
118.3577011236671
  0
ARC
  5
B0
330
1F
100
AcDbEntity
  8
0-0
  6
Continuous
 62
    92
370
    13
100
AcDbCircle
 10
-609.5816225772746
 20
881.2195498907648
 30
0.0
 40
150.0
100
AcDbArc
 50
270.0
 51
298.3577011236671
  0
LINE
  5
B1
330
1F
100
AcDbEntity
  8
0-0
  6
Continuous
 62
    92
370
    13
100
AcDbLine
 10
-658.5942851486882
 20
731.2195498907648
 30
0.0
 11
-609.5816225772746
 21
731.2195498907648
 31
0.0
  0
LINE
  5
B2
330
1F
100
AcDbEntity
  8
0-0
  6
Continuous
 62
     7
370
     9
100
AcDbLine
 10
136.4057148513135
 20
-1256.780182564927
 30
0.0
 11
136.4057148513135
 21
926.2198174350731
 31
0.0
  0
LINE
  5
B3
330
1F
100
AcDbEntity
  8
0-0
  6
Continuous
 62
     7
370
     9
100
AcDbLine
 10
739.4057148513141
 20
-1256.780182564927
 30
0.0
 11
739.4057148513141
 21
926.2198174350731
 31
0.0
  0
LINE
  5
B4
330
1F
100
AcDbEntity
  8
0-0
  6
Continuous
 62
     7
370
     9
100
AcDbLine
 10
151.4057148513118
 20
731.2195498907648
 30
0.0
 11
136.4053189423677
 21
746.2199457997059
 31
0.0
  0
LINE
  5
B5
330
1F
100
AcDbEntity
  8
0-0
  6
Continuous
 62
     7
370
     9
100
AcDbLine
 10
724.4057148513141
 20
731.2195498907648
 30
0.0
 11
739.4057148513141
 21
746.2195498907648
 31
0.0
  0
ARC
  5
B6
330
1F
100
AcDbEntity
  8
0-0
  6
Continuous
 62
     7
370
     9
100
AcDbCircle
 10
200.4183774227253
 20
881.2195498907648
 30
0.0
 40
135.0
100
AcDbArc
 50
270.0
 51
298.3577011236671
  0
ARC
  5
B7
330
1F
100
AcDbEntity
  8
0-0
  6
Continuous
 62
     7
370
     9
100
AcDbCircle
 10
675.3930522799014
 20
881.2195498907648
 30
0.0
 40
135.0
100
AcDbArc
 50
241.6422988763328
 51
270.0
  0
ARC
  5
B8
330
1F
100
AcDbEntity
  8
0-0
  6
Continuous
 62
     7
370
     9
100
AcDbCircle
 10
437.9057148513134
 20
441.2198174350733
 30
0.0
 40
365.0
100
AcDbArc
 50
61.64229887633292
 51
118.3577011236671
  0
LINE
  5
B9
330
1F
100
AcDbEntity
  8
0-0
  6
Continuous
 62
     7
370
     9
100
AcDbLine
 10
136.4056653633443
 20
746.2195993787288
 30
0.0
 11
200.4183774227253
 21
746.2195993787288
 31
0.0
  0
LINE
  5
BA
330
1F
100
AcDbEntity
  8
0-0
  6
Continuous
 62
     7
370
     9
100
AcDbLine
 10
739.4057643392798
 20
746.2195993787288
 30
0.0
 11
675.3930522799014
 21
746.2195993787288
 31
0.0
  0
LINE
  5
BB
330
1F
100
AcDbEntity
  8
0-0
  6
Continuous
 62
    92
370
    13
100
AcDbLine
 10
724.4057148513141
 20
731.2195498907648
 30
0.0
 11
675.3930522799014
 21
731.2195498907648
 31
0.0
  0
ARC
  5
BC
330
1F
100
AcDbEntity
  8
0-0
  6
Continuous
 62
    92
370
    13
100
AcDbCircle
 10
675.3930522799014
 20
881.2195498907648
 30
0.0
 40
150.0
100
AcDbArc
 50
241.6422988763328
 51
270.0
  0
ARC
  5
BD
330
1F
100
AcDbEntity
  8
0-0
  6
Continuous
 62
    92
370
    13
100
AcDbCircle
 10
437.9057148513134
 20
441.2198174350733
 30
0.0
 40
350.0
100
AcDbArc
 50
61.64229887633292
 51
118.3577011236671
  0
ARC
  5
BE
330
1F
100
AcDbEntity
  8
0-0
  6
Continuous
 62
    92
370
    13
100
AcDbCircle
 10
200.4183774227253
 20
881.2195498907648
 30
0.0
 40
150.0
100
AcDbArc
 50
270.0
 51
298.3577011236671
  0
LINE
  5
BF
330
1F
100
AcDbEntity
  8
0-0
  6
Continuous
 62
    92
370
    13
100
AcDbLine
 10
151.4057148513118
 20
731.2195498907648
 30
0.0
 11
200.4183774227253
 21
731.2195498907648
 31
0.0
  0
LINE
  5
C0
330
1F
100
AcDbEntity
  8
0-0
  6
Continuous
 62
     7
370
     9
100
AcDbLine
 10
-658.5942851486866
 20
-521.7801825649269
 30
0.0
 11
-673.5942851486866
 21
-536.7801825649269
 31
0.0
  0
LINE
  5
C1
330
1F
100
AcDbEntity
  8
0-0
  6
Continuous
 62
     7
370
     9
100
AcDbLine
 10
-673.5942851486866
 20
-611.7801825649269
 30
0.0
 11
-658.5942851486866
 21
-626.7801825649269
 31
0.0
  0
LINE
  5
C2
330
1F
100
AcDbEntity
  8
0-0
  6
Continuous
 62
     7
370
     9
100
AcDbLine
 10
-85.59428514868586
 20
-521.7801825649269
 30
0.0
 11
-70.59428514868586
 21
-536.7801825649269
 31
0.0
  0
LINE
  5
C3
330
1F
100
AcDbEntity
  8
0-0
  6
Continuous
 62
     7
370
     9
100
AcDbLine
 10
-70.59428514868586
 20
-611.7801825649269
 30
0.0
 11
-85.59428514868586
 21
-626.7801825649269
 31
0.0
  0
LINE
  5
C4
330
1F
100
AcDbEntity
  8
0-0
  6
Continuous
 62
     7
370
     9
100
AcDbLine
 10
-673.5942851486866
 20
-536.7801825649269
 30
0.0
 11
-70.59428514868586
 21
-536.7801825649269
 31
0.0
  0
LINE
  5
C5
330
1F
100
AcDbEntity
  8
0-0
  6
Continuous
 62
     7
370
     9
100
AcDbLine
 10
-673.5942851486866
 20
-611.7801825649269
 30
0.0
 11
-70.59428514868586
 21
-611.7801825649269
 31
0.0
  0
LINE
  5
C6
330
1F
100
AcDbEntity
  8
0-0
  6
Continuous
 62
     7
370
     9
100
AcDbLine
 10
-628.5942851486866
 20
-1076.780182564927
 30
0.0
 11
-628.5942851486866
 21
-656.7801825649269
 31
0.0
  0
LINE
  5
C7
330
1F
100
AcDbEntity
  8
0-0
  6
Continuous
 62
     7
370
     9
100
AcDbLine
 10
-643.5942851486866
 20
-641.7801825649269
 30
0.0
 11
-628.5942851486866
 21
-656.7801825649269
 31
0.0
  0
LINE
  5
C8
330
1F
100
AcDbEntity
  8
0-0
  6
Continuous
 62
     7
370
     9
100
AcDbLine
 10
-100.5942851486859
 20
-641.7801825649269
 30
0.0
 11
-115.5942851486859
 21
-656.7801825649269
 31
0.0
  0
LINE
  5
C9
330
1F
100
AcDbEntity
  8
0-0
  6
Continuous
 62
     7
370
     9
100
AcDbLine
 10
-628.5942851486866
 20
-656.7801825649269
 30
0.0
 11
-115.5942851486859
 21
-656.7801825649269
 31
0.0
  0
LINE
  5
CA
330
1F
100
AcDbEntity
  8
0-0
  6
Continuous
 62
     7
370
     9
100
AcDbLine
 10
-115.5942851486859
 20
-1076.780182564927
 30
0.0
 11
-115.5942851486859
 21
-656.7801825649269
 31
0.0
  0
LINE
  5
CB
330
1F
100
AcDbEntity
  8
0-0
  6
Continuous
 62
    92
370
    13
100
AcDbLine
 10
-658.5942851486866
 20
-626.7801825649269
 30
0.0
 11
-85.59428514868586
 21
-626.7801825649269
 31
0.0
  0
LINE
  5
CC
330
1F
100
AcDbEntity
  8
0-0
  6
Continuous
 62
    92
370
    13
100
AcDbLine
 10
-658.5942851486866
 20
-1106.780182564927
 30
0.0
 11
-658.5942851486866
 21
-626.7801825649269
 31
0.0
  0
LINE
  5
CD
330
1F
100
AcDbEntity
  8
0-0
  6
Continuous
 62
    92
370
    13
100
AcDbLine
 10
-85.59428514868586
 20
-1106.780182564927
 30
0.0
 11
-85.59428514868586
 21
-626.7801825649269
 31
0.0
  0
LINE
  5
CE
330
1F
100
AcDbEntity
  8
0-0
  6
Continuous
 62
    92
370
    13
100
AcDbLine
 10
-658.5942851486866
 20
-521.7801825649269
 30
0.0
 11
-658.5942851486866
 21
731.2195498907648
 31
0.0
  0
LINE
  5
CF
330
1F
100
AcDbEntity
  8
0-0
  6
Continuous
 62
    92
370
    13
100
AcDbLine
 10
-658.5942851486866
 20
-521.7801825649269
 30
0.0
 11
-85.59428514868586
 21
-521.7801825649269
 31
0.0
  0
LINE
  5
D0
330
1F
100
AcDbEntity
  8
0-0
  6
Continuous
 62
    92
370
    13
100
AcDbLine
 10
-85.59428514868586
 20
-521.7801825649269
 30
0.0
 11
-85.59428514868586
 21
731.2195498907648
 31
0.0
  0
LINE
  5
D1
330
1F
100
AcDbEntity
  8
0-0
  6
Continuous
 62
     7
370
     9
100
AcDbLine
 10
151.4057148513135
 20
-521.7801825649269
 30
0.0
 11
136.4057148513135
 21
-536.7801825649269
 31
0.0
  0
LINE
  5
D2
330
1F
100
AcDbEntity
  8
0-0
  6
Continuous
 62
     7
370
     9
100
AcDbLine
 10
136.4057148513135
 20
-611.7801825649269
 30
0.0
 11
151.4057148513135
 21
-626.7801825649269
 31
0.0
  0
LINE
  5
D3
330
1F
100
AcDbEntity
  8
0-0
  6
Continuous
 62
     7
370
     9
100
AcDbLine
 10
724.4057148513141
 20
-521.7801825649269
 30
0.0
 11
739.4057148513141
 21
-536.7801825649269
 31
0.0
  0
LINE
  5
D4
330
1F
100
AcDbEntity
  8
0-0
  6
Continuous
 62
     7
370
     9
100
AcDbLine
 10
739.4057148513141
 20
-611.7801825649269
 30
0.0
 11
724.4057148513141
 21
-626.7801825649269
 31
0.0
  0
LINE
  5
D5
330
1F
100
AcDbEntity
  8
0-0
  6
Continuous
 62
     7
370
     9
100
AcDbLine
 10
136.4057148513135
 20
-536.7801825649269
 30
0.0
 11
739.4057148513141
 21
-536.7801825649269
 31
0.0
  0
LINE
  5
D6
330
1F
100
AcDbEntity
  8
0-0
  6
Continuous
 62
     7
370
     9
100
AcDbLine
 10
136.4057148513135
 20
-611.7801825649269
 30
0.0
 11
739.4057148513141
 21
-611.7801825649269
 31
0.0
  0
LINE
  5
D7
330
1F
100
AcDbEntity
  8
0-0
  6
Continuous
 62
     7
370
     9
100
AcDbLine
 10
181.4057148513135
 20
-1076.780182564927
 30
0.0
 11
181.4057148513135
 21
-656.7801825649269
 31
0.0
  0
LINE
  5
D8
330
1F
100
AcDbEntity
  8
0-0
  6
Continuous
 62
     7
370
     9
100
AcDbLine
 10
166.4057148513135
 20
-641.7801825649269
 30
0.0
 11
181.4057148513135
 21
-656.7801825649269
 31
0.0
  0
LINE
  5
D9
330
1F
100
AcDbEntity
  8
0-0
  6
Continuous
 62
     7
370
     9
100
AcDbLine
 10
709.4057148513141
 20
-641.7801825649269
 30
0.0
 11
694.4057148513141
 21
-656.7801825649269
 31
0.0
  0
LINE
  5
DA
330
1F
100
AcDbEntity
  8
0-0
  6
Continuous
 62
     7
370
     9
100
AcDbLine
 10
181.4057148513135
 20
-656.7801825649269
 30
0.0
 11
694.4057148513141
 21
-656.7801825649269
 31
0.0
  0
LINE
  5
DB
330
1F
100
AcDbEntity
  8
0-0
  6
Continuous
 62
     7
370
     9
100
AcDbLine
 10
694.4057148513141
 20
-1076.780182564927
 30
0.0
 11
694.4057148513141
 21
-656.7801825649269
 31
0.0
  0
LINE
  5
DC
330
1F
100
AcDbEntity
  8
0-0
  6
Continuous
 62
    92
370
    13
100
AcDbLine
 10
151.4057148513135
 20
-626.7801825649269
 30
0.0
 11
724.4057148513141
 21
-626.7801825649269
 31
0.0
  0
LINE
  5
DD
330
1F
100
AcDbEntity
  8
0-0
  6
Continuous
 62
    92
370
    13
100
AcDbLine
 10
151.4057148513135
 20
-1106.780182564927
 30
0.0
 11
151.4057148513135
 21
-626.7801825649269
 31
0.0
  0
LINE
  5
DE
330
1F
100
AcDbEntity
  8
0-0
  6
Continuous
 62
    92
370
    13
100
AcDbLine
 10
724.4057148513141
 20
-1106.780182564927
 30
0.0
 11
724.4057148513141
 21
-626.7801825649269
 31
0.0
  0
LINE
  5
DF
330
1F
100
AcDbEntity
  8
0-0
  6
Continuous
 62
    92
370
    13
100
AcDbLine
 10
151.4057148513135
 20
-521.7801825649269
 30
0.0
 11
151.4057148513135
 21
731.2195498907648
 31
0.0
  0
LINE
  5
E0
330
1F
100
AcDbEntity
  8
0-0
  6
Continuous
 62
    92
370
    13
100
AcDbLine
 10
151.4057148513135
 20
-521.7801825649269
 30
0.0
 11
724.4057148513141
 21
-521.7801825649269
 31
0.0
  0
LINE
  5
E1
330
1F
100
AcDbEntity
  8
0-0
  6
Continuous
 62
    92
370
    13
100
AcDbLine
 10
724.4057148513141
 20
-521.7801825649269
 30
0.0
 11
724.4057148513141
 21
731.2195498907648
 31
0.0
  0
LINE
  5
E2
330
1F
100
AcDbEntity
  8
0-0
  6
JWW_DASHED1
 62
   120
370
     5
100
AcDbLine
 10
151.4057148513135
 20
-511.7803163810311
 30
0.0
 11
724.4057148513141
 21
-511.7803163810311
 31
0.0
  0
LINE
  5
E3
330
1F
100
AcDbEntity
  8
0-0
  6
JWW_DASHED1
 62
   120
370
     5
100
AcDbLine
 10
151.4057148513135
 20
-510.7803163811309
 30
0.0
 11
724.4057148513141
 21
-510.7803163811309
 31
0.0
  0
LINE
  5
E4
330
1F
100
AcDbEntity
  8
0-0
  6
JWW_DASHED1
 62
   120
370
     5
100
AcDbLine
 10
151.4057148513135
 20
-497.7803163800309
 30
0.0
 11
724.4057148513141
 21
-497.7803163800309
 31
0.0
  0
LINE
  5
E5
330
1F
100
AcDbEntity
  8
0-0
  6
JWW_DASHED1
 62
   120
370
     5
100
AcDbLine
 10
151.4057148513135
 20
-496.7803163801307
 30
0.0
 11
724.4057148513141
 21
-496.7803163801307
 31
0.0
  0
LINE
  5
E6
330
1F
100
AcDbEntity
  8
0-0
  6
JWW_DASHED1
 62
   120
370
     5
100
AcDbLine
 10
151.4057148513135
 20
-483.7803163790306
 30
0.0
 11
724.4057148513141
 21
-483.7803163790306
 31
0.0
  0
LINE
  5
E7
330
1F
100
AcDbEntity
  8
0-0
  6
JWW_DASHED1
 62
   120
370
     5
100
AcDbLine
 10
151.4057148513135
 20
-482.7803163791309
 30
0.0
 11
724.4057148513141
 21
-482.7803163791309
 31
0.0
  0
LINE
  5
E8
330
1F
100
AcDbEntity
  8
0-0
  6
JWW_DASHED1
 62
   120
370
     5
100
AcDbLine
 10
151.4057148513135
 20
-469.7803163780309
 30
0.0
 11
724.4057148513141
 21
-469.7803163780309
 31
0.0
  0
LINE
  5
E9
330
1F
100
AcDbEntity
  8
0-0
  6
JWW_DASHED1
 62
   120
370
     5
100
AcDbLine
 10
151.4057148513135
 20
-468.7803163781311
 30
0.0
 11
724.4057148513141
 21
-468.7803163781311
 31
0.0
  0
LINE
  5
EA
330
1F
100
AcDbEntity
  8
0-0
  6
JWW_DASHED1
 62
   120
370
     5
100
AcDbLine
 10
151.4057148513135
 20
-455.7803163770311
 30
0.0
 11
724.4057148513141
 21
-455.7803163770311
 31
0.0
  0
LINE
  5
EB
330
1F
100
AcDbEntity
  8
0-0
  6
JWW_DASHED1
 62
   120
370
     5
100
AcDbLine
 10
151.4057148513135
 20
-454.7803163771309
 30
0.0
 11
724.4057148513141
 21
-454.7803163771309
 31
0.0
  0
LINE
  5
EC
330
1F
100
AcDbEntity
  8
0-0
  6
JWW_DASHED1
 62
   120
370
     5
100
AcDbLine
 10
151.4057148513135
 20
-441.7803163760308
 30
0.0
 11
724.4057148513141
 21
-441.7803163760308
 31
0.0
  0
LINE
  5
ED
330
1F
100
AcDbEntity
  8
0-0
  6
JWW_DASHED1
 62
   120
370
     5
100
AcDbLine
 10
151.4057148513135
 20
-440.7803163761307
 30
0.0
 11
724.4057148513141
 21
-440.7803163761307
 31
0.0
  0
LINE
  5
EE
330
1F
100
AcDbEntity
  8
0-0
  6
JWW_DASHED1
 62
   120
370
     5
100
AcDbLine
 10
151.4057148513135
 20
-427.7803163750306
 30
0.0
 11
724.4057148513141
 21
-427.7803163750306
 31
0.0
  0
LINE
  5
EF
330
1F
100
AcDbEntity
  8
0-0
  6
JWW_DASHED1
 62
   120
370
     5
100
AcDbLine
 10
151.4057148513135
 20
-426.7803163751308
 30
0.0
 11
724.4057148513141
 21
-426.7803163751308
 31
0.0
  0
LINE
  5
F0
330
1F
100
AcDbEntity
  8
0-0
  6
JWW_DASHED1
 62
   120
370
     5
100
AcDbLine
 10
151.4057148513135
 20
-413.7803163740308
 30
0.0
 11
724.4057148513141
 21
-413.7803163740308
 31
0.0
  0
LINE
  5
F1
330
1F
100
AcDbEntity
  8
0-0
  6
JWW_DASHED1
 62
   120
370
     5
100
AcDbLine
 10
151.4057148513135
 20
-412.7803163741311
 30
0.0
 11
724.4057148513141
 21
-412.7803163741311
 31
0.0
  0
LINE
  5
F2
330
1F
100
AcDbEntity
  8
0-0
  6
JWW_DASHED1
 62
   120
370
     5
100
AcDbLine
 10
151.4057148513135
 20
-399.780316373031
 30
0.0
 11
724.4057148513141
 21
-399.780316373031
 31
0.0
  0
LINE
  5
F3
330
1F
100
AcDbEntity
  8
0-0
  6
JWW_DASHED1
 62
   120
370
     5
100
AcDbLine
 10
151.4057148513135
 20
-398.7803163731309
 30
0.0
 11
724.4057148513141
 21
-398.7803163731309
 31
0.0
  0
LINE
  5
F4
330
1F
100
AcDbEntity
  8
0-0
  6
JWW_DASHED1
 62
   120
370
     5
100
AcDbLine
 10
151.4057148513135
 20
-385.7803163720308
 30
0.0
 11
724.4057148513141
 21
-385.7803163720308
 31
0.0
  0
LINE
  5
F5
330
1F
100
AcDbEntity
  8
0-0
  6
JWW_DASHED1
 62
   120
370
     5
100
AcDbLine
 10
151.4057148513135
 20
-384.7803163721306
 30
0.0
 11
724.4057148513141
 21
-384.7803163721306
 31
0.0
  0
LINE
  5
F6
330
1F
100
AcDbEntity
  8
0-0
  6
JWW_DASHED1
 62
   120
370
     5
100
AcDbLine
 10
151.4057148513135
 20
-371.7803163710306
 30
0.0
 11
724.4057148513141
 21
-371.7803163710306
 31
0.0
  0
LINE
  5
F7
330
1F
100
AcDbEntity
  8
0-0
  6
JWW_DASHED1
 62
   120
370
     5
100
AcDbLine
 10
151.4057148513135
 20
-370.7803163711309
 30
0.0
 11
724.4057148513141
 21
-370.7803163711309
 31
0.0
  0
LINE
  5
F8
330
1F
100
AcDbEntity
  8
0-0
  6
JWW_DASHED1
 62
   120
370
     5
100
AcDbLine
 10
151.4057148513135
 20
-357.7803163700308
 30
0.0
 11
724.4057148513141
 21
-357.7803163700308
 31
0.0
  0
LINE
  5
F9
330
1F
100
AcDbEntity
  8
0-0
  6
JWW_DASHED1
 62
   120
370
     5
100
AcDbLine
 10
151.4057148513135
 20
-356.7803163701311
 30
0.0
 11
724.4057148513141
 21
-356.7803163701311
 31
0.0
  0
LINE
  5
FA
330
1F
100
AcDbEntity
  8
0-0
  6
JWW_DASHED1
 62
   120
370
     5
100
AcDbLine
 10
151.4057148513135
 20
-343.780316369031
 30
0.0
 11
724.4057148513141
 21
-343.780316369031
 31
0.0
  0
LINE
  5
FB
330
1F
100
AcDbEntity
  8
0-0
  6
JWW_DASHED1
 62
   120
370
     5
100
AcDbLine
 10
151.4057148513135
 20
-342.7803163691308
 30
0.0
 11
724.4057148513141
 21
-342.7803163691308
 31
0.0
  0
LINE
  5
FC
330
1F
100
AcDbEntity
  8
0-0
  6
JWW_DASHED1
 62
   120
370
     5
100
AcDbLine
 10
151.4057148513135
 20
-329.7803163680308
 30
0.0
 11
724.4057148513141
 21
-329.7803163680308
 31
0.0
  0
LINE
  5
FD
330
1F
100
AcDbEntity
  8
0-0
  6
JWW_DASHED1
 62
   120
370
     5
100
AcDbLine
 10
151.4057148513135
 20
-328.7803163681306
 30
0.0
 11
724.4057148513141
 21
-328.7803163681306
 31
0.0
  0
LINE
  5
FE
330
1F
100
AcDbEntity
  8
0-0
  6
JWW_DASHED1
 62
   120
370
     5
100
AcDbLine
 10
151.4057148513135
 20
-315.7803163670306
 30
0.0
 11
724.4057148513141
 21
-315.7803163670306
 31
0.0
  0
LINE
  5
FF
330
1F
100
AcDbEntity
  8
0-0
  6
JWW_DASHED1
 62
   120
370
     5
100
AcDbLine
 10
151.4057148513135
 20
-314.7803163671308
 30
0.0
 11
724.4057148513141
 21
-314.7803163671308
 31
0.0
  0
LINE
  5
100
330
1F
100
AcDbEntity
  8
0-0
  6
JWW_DASHED1
 62
   120
370
     5
100
AcDbLine
 10
151.4057148513135
 20
-301.7803163660308
 30
0.0
 11
724.4057148513141
 21
-301.7803163660308
 31
0.0
  0
LINE
  5
101
330
1F
100
AcDbEntity
  8
0-0
  6
JWW_DASHED1
 62
   120
370
     5
100
AcDbLine
 10
151.4057148513135
 20
-300.780316366131
 30
0.0
 11
724.4057148513141
 21
-300.780316366131
 31
0.0
  0
LINE
  5
102
330
1F
100
AcDbEntity
  8
0-0
  6
JWW_DASHED1
 62
   120
370
     5
100
AcDbLine
 10
151.4057148513135
 20
-287.780316365031
 30
0.0
 11
724.4057148513141
 21
-287.780316365031
 31
0.0
  0
LINE
  5
103
330
1F
100
AcDbEntity
  8
0-0
  6
JWW_DASHED1
 62
   120
370
     5
100
AcDbLine
 10
151.4057148513135
 20
-286.7803163651308
 30
0.0
 11
724.4057148513141
 21
-286.7803163651308
 31
0.0
  0
LINE
  5
104
330
1F
100
AcDbEntity
  8
0-0
  6
JWW_DASHED1
 62
   120
370
     5
100
AcDbLine
 10
151.4057148513135
 20
-273.7803163640308
 30
0.0
 11
724.4057148513141
 21
-273.7803163640308
 31
0.0
  0
LINE
  5
105
330
1F
100
AcDbEntity
  8
0-0
  6
JWW_DASHED1
 62
   120
370
     5
100
AcDbLine
 10
151.4057148513135
 20
-272.7803163641306
 30
0.0
 11
724.4057148513141
 21
-272.7803163641306
 31
0.0
  0
LINE
  5
106
330
1F
100
AcDbEntity
  8
0-0
  6
JWW_DASHED1
 62
   120
370
     5
100
AcDbLine
 10
151.4057148513135
 20
-259.7803163630306
 30
0.0
 11
724.4057148513141
 21
-259.7803163630306
 31
0.0
  0
LINE
  5
107
330
1F
100
AcDbEntity
  8
0-0
  6
JWW_DASHED1
 62
   120
370
     5
100
AcDbLine
 10
151.4057148513135
 20
-258.7803163631309
 30
0.0
 11
724.4057148513141
 21
-258.7803163631309
 31
0.0
  0
LINE
  5
108
330
1F
100
AcDbEntity
  8
0-0
  6
JWW_DASHED1
 62
   120
370
     5
100
AcDbLine
 10
151.4057148513135
 20
-245.7803163620308
 30
0.0
 11
724.4057148513141
 21
-245.7803163620308
 31
0.0
  0
LINE
  5
109
330
1F
100
AcDbEntity
  8
0-0
  6
JWW_DASHED1
 62
   120
370
     5
100
AcDbLine
 10
151.4057148513135
 20
-244.780316362131
 30
0.0
 11
724.4057148513141
 21
-244.780316362131
 31
0.0
  0
LINE
  5
10A
330
1F
100
AcDbEntity
  8
0-0
  6
JWW_DASHED1
 62
   120
370
     5
100
AcDbLine
 10
151.4057148513135
 20
-231.780316361031
 30
0.0
 11
724.4057148513141
 21
-231.780316361031
 31
0.0
  0
LINE
  5
10B
330
1F
100
AcDbEntity
  8
0-0
  6
JWW_DASHED1
 62
   120
370
     5
100
AcDbLine
 10
151.4057148513135
 20
-230.7803163611308
 30
0.0
 11
724.4057148513141
 21
-230.7803163611308
 31
0.0
  0
LINE
  5
10C
330
1F
100
AcDbEntity
  8
0-0
  6
JWW_DASHED1
 62
   120
370
     5
100
AcDbLine
 10
151.4057148513135
 20
-217.7803163600308
 30
0.0
 11
724.4057148513141
 21
-217.7803163600308
 31
0.0
  0
LINE
  5
10D
330
1F
100
AcDbEntity
  8
0-0
  6
JWW_DASHED1
 62
   120
370
     5
100
AcDbLine
 10
151.4057148513135
 20
-216.7803163601306
 30
0.0
 11
724.4057148513141
 21
-216.7803163601306
 31
0.0
  0
LINE
  5
10E
330
1F
100
AcDbEntity
  8
0-0
  6
JWW_DASHED1
 62
   120
370
     5
100
AcDbLine
 10
151.4057148513135
 20
-203.7803163590306
 30
0.0
 11
724.4057148513141
 21
-203.7803163590306
 31
0.0
  0
LINE
  5
10F
330
1F
100
AcDbEntity
  8
0-0
  6
JWW_DASHED1
 62
   120
370
     5
100
AcDbLine
 10
151.4057148513135
 20
-202.7803163591308
 30
0.0
 11
724.4057148513141
 21
-202.7803163591308
 31
0.0
  0
LINE
  5
110
330
1F
100
AcDbEntity
  8
0-0
  6
JWW_DASHED1
 62
   120
370
     5
100
AcDbLine
 10
151.4057148513135
 20
-189.7803163580308
 30
0.0
 11
724.4057148513141
 21
-189.7803163580308
 31
0.0
  0
LINE
  5
111
330
1F
100
AcDbEntity
  8
0-0
  6
JWW_DASHED1
 62
   120
370
     5
100
AcDbLine
 10
151.4057148513135
 20
-188.780316358131
 30
0.0
 11
724.4057148513141
 21
-188.780316358131
 31
0.0
  0
LINE
  5
112
330
1F
100
AcDbEntity
  8
0-0
  6
JWW_DASHED1
 62
   120
370
     5
100
AcDbLine
 10
151.4057148513135
 20
-175.780316357031
 30
0.0
 11
724.4057148513141
 21
-175.780316357031
 31
0.0
  0
LINE
  5
113
330
1F
100
AcDbEntity
  8
0-0
  6
JWW_DASHED1
 62
   120
370
     5
100
AcDbLine
 10
151.4057148513135
 20
-174.7803163571308
 30
0.0
 11
724.4057148513141
 21
-174.7803163571308
 31
0.0
  0
LINE
  5
114
330
1F
100
AcDbEntity
  8
0-0
  6
JWW_DASHED1
 62
   120
370
     5
100
AcDbLine
 10
151.4057148513135
 20
-161.7803163560308
 30
0.0
 11
724.4057148513141
 21
-161.7803163560308
 31
0.0
  0
LINE
  5
115
330
1F
100
AcDbEntity
  8
0-0
  6
JWW_DASHED1
 62
   120
370
     5
100
AcDbLine
 10
151.4057148513135
 20
-160.7803163561306
 30
0.0
 11
724.4057148513141
 21
-160.7803163561306
 31
0.0
  0
LINE
  5
116
330
1F
100
AcDbEntity
  8
0-0
  6
JWW_DASHED1
 62
   120
370
     5
100
AcDbLine
 10
151.4057148513135
 20
-147.7803163550305
 30
0.0
 11
724.4057148513141
 21
-147.7803163550305
 31
0.0
  0
LINE
  5
117
330
1F
100
AcDbEntity
  8
0-0
  6
JWW_DASHED1
 62
   120
370
     5
100
AcDbLine
 10
151.4057148513135
 20
-146.7803163551308
 30
0.0
 11
724.4057148513141
 21
-146.7803163551308
 31
0.0
  0
LINE
  5
118
330
1F
100
AcDbEntity
  8
0-0
  6
JWW_DASHED1
 62
   120
370
     5
100
AcDbLine
 10
151.4057148513135
 20
-133.7803163540308
 30
0.0
 11
724.4057148513141
 21
-133.7803163540308
 31
0.0
  0
LINE
  5
119
330
1F
100
AcDbEntity
  8
0-0
  6
JWW_DASHED1
 62
   120
370
     5
100
AcDbLine
 10
151.4057148513135
 20
-132.7803163541306
 30
0.0
 11
724.4057148513141
 21
-132.7803163541306
 31
0.0
  0
LINE
  5
11A
330
1F
100
AcDbEntity
  8
0-0
  6
JWW_DASHED1
 62
   120
370
     5
100
AcDbLine
 10
151.4057148513135
 20
-119.780316353031
 30
0.0
 11
724.4057148513141
 21
-119.780316353031
 31
0.0
  0
LINE
  5
11B
330
1F
100
AcDbEntity
  8
0-0
  6
JWW_DASHED1
 62
   120
370
     5
100
AcDbLine
 10
151.4057148513135
 20
-118.7803163531308
 30
0.0
 11
724.4057148513141
 21
-118.7803163531308
 31
0.0
  0
LINE
  5
11C
330
1F
100
AcDbEntity
  8
0-0
  6
JWW_DASHED1
 62
   120
370
     5
100
AcDbLine
 10
151.4057148513135
 20
-105.7803163520308
 30
0.0
 11
724.4057148513141
 21
-105.7803163520308
 31
0.0
  0
LINE
  5
11D
330
1F
100
AcDbEntity
  8
0-0
  6
JWW_DASHED1
 62
   120
370
     5
100
AcDbLine
 10
151.4057148513135
 20
-104.7803163521306
 30
0.0
 11
724.4057148513141
 21
-104.7803163521306
 31
0.0
  0
LINE
  5
11E
330
1F
100
AcDbEntity
  8
0-0
  6
JWW_DASHED1
 62
   120
370
     5
100
AcDbLine
 10
151.4057148513135
 20
-91.78031635103096
 30
0.0
 11
724.4057148513141
 21
-91.78031635103096
 31
0.0
  0
LINE
  5
11F
330
1F
100
AcDbEntity
  8
0-0
  6
JWW_DASHED1
 62
   120
370
     5
100
AcDbLine
 10
151.4057148513135
 20
-90.78031635113078
 30
0.0
 11
724.4057148513141
 21
-90.78031635113078
 31
0.0
  0
LINE
  5
120
330
1F
100
AcDbEntity
  8
0-0
  6
JWW_DASHED1
 62
   120
370
     5
100
AcDbLine
 10
151.4057148513135
 20
-77.78031635003074
 30
0.0
 11
724.4057148513141
 21
-77.78031635003074
 31
0.0
  0
LINE
  5
121
330
1F
100
AcDbEntity
  8
0-0
  6
JWW_DASHED1
 62
   120
370
     5
100
AcDbLine
 10
151.4057148513135
 20
-76.78031635013056
 30
0.0
 11
724.4057148513141
 21
-76.78031635013056
 31
0.0
  0
LINE
  5
122
330
1F
100
AcDbEntity
  8
0-0
  6
JWW_DASHED1
 62
   120
370
     5
100
AcDbLine
 10
151.4057148513135
 20
-63.78031634903095
 30
0.0
 11
724.4057148513141
 21
-63.78031634903095
 31
0.0
  0
LINE
  5
123
330
1F
100
AcDbEntity
  8
0-0
  6
JWW_DASHED1
 62
   120
370
     5
100
AcDbLine
 10
151.4057148513135
 20
-62.78031634913077
 30
0.0
 11
724.4057148513141
 21
-62.78031634913077
 31
0.0
  0
LINE
  5
124
330
1F
100
AcDbEntity
  8
0-0
  6
JWW_DASHED1
 62
   120
370
     5
100
AcDbLine
 10
151.4057148513135
 20
-49.78031634803074
 30
0.0
 11
724.4057148513141
 21
-49.78031634803074
 31
0.0
  0
LINE
  5
125
330
1F
100
AcDbEntity
  8
0-0
  6
JWW_DASHED1
 62
   120
370
     5
100
AcDbLine
 10
151.4057148513135
 20
-48.78031634813055
 30
0.0
 11
724.4057148513141
 21
-48.78031634813055
 31
0.0
  0
LINE
  5
126
330
1F
100
AcDbEntity
  8
0-0
  6
JWW_DASHED1
 62
   120
370
     5
100
AcDbLine
 10
151.4057148513135
 20
-35.78031634703095
 30
0.0
 11
724.4057148513141
 21
-35.78031634703095
 31
0.0
  0
LINE
  5
127
330
1F
100
AcDbEntity
  8
0-0
  6
JWW_DASHED1
 62
   120
370
     5
100
AcDbLine
 10
151.4057148513135
 20
-34.78031634713076
 30
0.0
 11
724.4057148513141
 21
-34.78031634713076
 31
0.0
  0
LINE
  5
128
330
1F
100
AcDbEntity
  8
0-0
  6
JWW_DASHED1
 62
   120
370
     5
100
AcDbLine
 10
151.4057148513135
 20
-21.78031634603073
 30
0.0
 11
724.4057148513141
 21
-21.78031634603073
 31
0.0
  0
LINE
  5
129
330
1F
100
AcDbEntity
  8
0-0
  6
JWW_DASHED1
 62
   120
370
     5
100
AcDbLine
 10
151.4057148513135
 20
-20.78031634613055
 30
0.0
 11
724.4057148513141
 21
-20.78031634613055
 31
0.0
  0
LINE
  5
12A
330
1F
100
AcDbEntity
  8
0-0
  6
JWW_DASHED1
 62
   120
370
     5
100
AcDbLine
 10
151.4057148513135
 20
-7.78031634503094
 30
0.0
 11
724.4057148513141
 21
-7.78031634503094
 31
0.0
  0
LINE
  5
12B
330
1F
100
AcDbEntity
  8
0-0
  6
JWW_DASHED1
 62
   120
370
     5
100
AcDbLine
 10
151.4057148513135
 20
-6.780316345130757
 30
0.0
 11
724.4057148513141
 21
-6.780316345130757
 31
0.0
  0
LINE
  5
12C
330
1F
100
AcDbEntity
  8
0-0
  6
JWW_DASHED1
 62
   120
370
     5
100
AcDbLine
 10
151.4057148513135
 20
6.219683655969277
 30
0.0
 11
724.4057148513141
 21
6.219683655969277
 31
0.0
  0
LINE
  5
12D
330
1F
100
AcDbEntity
  8
0-0
  6
JWW_DASHED1
 62
   120
370
     5
100
AcDbLine
 10
151.4057148513135
 20
7.21968365586946
 30
0.0
 11
724.4057148513141
 21
7.21968365586946
 31
0.0
  0
LINE
  5
12E
330
1F
100
AcDbEntity
  8
0-0
  6
JWW_DASHED1
 62
   120
370
     5
100
AcDbLine
 10
151.4057148513135
 20
20.21968365696907
 30
0.0
 11
724.4057148513141
 21
20.21968365696907
 31
0.0
  0
LINE
  5
12F
330
1F
100
AcDbEntity
  8
0-0
  6
JWW_DASHED1
 62
   120
370
     5
100
AcDbLine
 10
151.4057148513135
 20
21.21968365686925
 30
0.0
 11
724.4057148513141
 21
21.21968365686925
 31
0.0
  0
LINE
  5
130
330
1F
100
AcDbEntity
  8
0-0
  6
JWW_DASHED1
 62
   120
370
     5
100
AcDbLine
 10
151.4057148513135
 20
34.21968365796928
 30
0.0
 11
724.4057148513141
 21
34.21968365796928
 31
0.0
  0
LINE
  5
131
330
1F
100
AcDbEntity
  8
0-0
  6
JWW_DASHED1
 62
   120
370
     5
100
AcDbLine
 10
151.4057148513135
 20
35.21968365786947
 30
0.0
 11
724.4057148513141
 21
35.21968365786947
 31
0.0
  0
LINE
  5
132
330
1F
100
AcDbEntity
  8
0-0
  6
JWW_DASHED1
 62
   120
370
     5
100
AcDbLine
 10
151.4057148513135
 20
48.21968365896907
 30
0.0
 11
724.4057148513141
 21
48.21968365896907
 31
0.0
  0
LINE
  5
133
330
1F
100
AcDbEntity
  8
0-0
  6
JWW_DASHED1
 62
   120
370
     5
100
AcDbLine
 10
151.4057148513135
 20
49.21968365886926
 30
0.0
 11
724.4057148513141
 21
49.21968365886926
 31
0.0
  0
LINE
  5
134
330
1F
100
AcDbEntity
  8
0-0
  6
JWW_DASHED1
 62
   120
370
     5
100
AcDbLine
 10
151.4057148513135
 20
62.21968365996929
 30
0.0
 11
724.4057148513141
 21
62.21968365996929
 31
0.0
  0
LINE
  5
135
330
1F
100
AcDbEntity
  8
0-0
  6
JWW_DASHED1
 62
   120
370
     5
100
AcDbLine
 10
151.4057148513135
 20
63.21968365986947
 30
0.0
 11
724.4057148513141
 21
63.21968365986947
 31
0.0
  0
LINE
  5
136
330
1F
100
AcDbEntity
  8
0-0
  6
JWW_DASHED1
 62
   120
370
     5
100
AcDbLine
 10
151.4057148513135
 20
76.21968366096908
 30
0.0
 11
724.4057148513141
 21
76.21968366096908
 31
0.0
  0
LINE
  5
137
330
1F
100
AcDbEntity
  8
0-0
  6
JWW_DASHED1
 62
   120
370
     5
100
AcDbLine
 10
151.4057148513135
 20
77.21968366086926
 30
0.0
 11
724.4057148513141
 21
77.21968366086926
 31
0.0
  0
LINE
  5
138
330
1F
100
AcDbEntity
  8
0-0
  6
JWW_DASHED1
 62
   120
370
     5
100
AcDbLine
 10
151.4057148513135
 20
90.2196836619693
 30
0.0
 11
724.4057148513141
 21
90.2196836619693
 31
0.0
  0
LINE
  5
139
330
1F
100
AcDbEntity
  8
0-0
  6
JWW_DASHED1
 62
   120
370
     5
100
AcDbLine
 10
151.4057148513135
 20
91.21968366186948
 30
0.0
 11
724.4057148513141
 21
91.21968366186948
 31
0.0
  0
LINE
  5
13A
330
1F
100
AcDbEntity
  8
0-0
  6
JWW_DASHED1
 62
   120
370
     5
100
AcDbLine
 10
151.4057148513135
 20
104.2196836629691
 30
0.0
 11
724.4057148513141
 21
104.2196836629691
 31
0.0
  0
LINE
  5
13B
330
1F
100
AcDbEntity
  8
0-0
  6
JWW_DASHED1
 62
   120
370
     5
100
AcDbLine
 10
151.4057148513135
 20
105.2196836628693
 30
0.0
 11
724.4057148513141
 21
105.2196836628693
 31
0.0
  0
LINE
  5
13C
330
1F
100
AcDbEntity
  8
0-0
  6
JWW_DASHED1
 62
   120
370
     5
100
AcDbLine
 10
151.4057148513135
 20
118.2196836639693
 30
0.0
 11
724.4057148513141
 21
118.2196836639693
 31
0.0
  0
LINE
  5
13D
330
1F
100
AcDbEntity
  8
0-0
  6
JWW_DASHED1
 62
   120
370
     5
100
AcDbLine
 10
151.4057148513135
 20
119.2196836638695
 30
0.0
 11
724.4057148513141
 21
119.2196836638695
 31
0.0
  0
LINE
  5
13E
330
1F
100
AcDbEntity
  8
0-0
  6
JWW_DASHED1
 62
   120
370
     5
100
AcDbLine
 10
151.4057148513135
 20
132.2196836649691
 30
0.0
 11
724.4057148513141
 21
132.2196836649691
 31
0.0
  0
LINE
  5
13F
330
1F
100
AcDbEntity
  8
0-0
  6
JWW_DASHED1
 62
   120
370
     5
100
AcDbLine
 10
151.4057148513135
 20
133.2196836648693
 30
0.0
 11
724.4057148513141
 21
133.2196836648693
 31
0.0
  0
LINE
  5
140
330
1F
100
AcDbEntity
  8
0-0
  6
JWW_DASHED1
 62
   120
370
     5
100
AcDbLine
 10
151.4057148513135
 20
146.2196836659693
 30
0.0
 11
724.4057148513141
 21
146.2196836659693
 31
0.0
  0
LINE
  5
141
330
1F
100
AcDbEntity
  8
0-0
  6
JWW_DASHED1
 62
   120
370
     5
100
AcDbLine
 10
151.4057148513135
 20
147.2196836658695
 30
0.0
 11
724.4057148513141
 21
147.2196836658695
 31
0.0
  0
LINE
  5
142
330
1F
100
AcDbEntity
  8
0-0
  6
JWW_DASHED1
 62
   120
370
     5
100
AcDbLine
 10
151.4057148513135
 20
160.2196836669691
 30
0.0
 11
724.4057148513141
 21
160.2196836669691
 31
0.0
  0
LINE
  5
143
330
1F
100
AcDbEntity
  8
0-0
  6
JWW_DASHED1
 62
   120
370
     5
100
AcDbLine
 10
151.4057148513135
 20
161.2196836668693
 30
0.0
 11
724.4057148513141
 21
161.2196836668693
 31
0.0
  0
LINE
  5
144
330
1F
100
AcDbEntity
  8
0-0
  6
JWW_DASHED1
 62
   120
370
     5
100
AcDbLine
 10
151.4057148513135
 20
174.2196836679693
 30
0.0
 11
724.4057148513141
 21
174.2196836679693
 31
0.0
  0
LINE
  5
145
330
1F
100
AcDbEntity
  8
0-0
  6
JWW_DASHED1
 62
   120
370
     5
100
AcDbLine
 10
151.4057148513135
 20
175.2196836678695
 30
0.0
 11
724.4057148513141
 21
175.2196836678695
 31
0.0
  0
LINE
  5
146
330
1F
100
AcDbEntity
  8
0-0
  6
JWW_DASHED1
 62
   120
370
     5
100
AcDbLine
 10
151.4057148513135
 20
188.2196836689691
 30
0.0
 11
724.4057148513141
 21
188.2196836689691
 31
0.0
  0
LINE
  5
147
330
1F
100
AcDbEntity
  8
0-0
  6
JWW_DASHED1
 62
   120
370
     5
100
AcDbLine
 10
151.4057148513135
 20
189.2196836688693
 30
0.0
 11
724.4057148513141
 21
189.2196836688693
 31
0.0
  0
LINE
  5
148
330
1F
100
AcDbEntity
  8
0-0
  6
JWW_DASHED1
 62
   120
370
     5
100
AcDbLine
 10
151.4057148513135
 20
202.2196836699693
 30
0.0
 11
724.4057148513141
 21
202.2196836699693
 31
0.0
  0
LINE
  5
149
330
1F
100
AcDbEntity
  8
0-0
  6
JWW_DASHED1
 62
   120
370
     5
100
AcDbLine
 10
151.4057148513135
 20
203.2196836698691
 30
0.0
 11
724.4057148513141
 21
203.2196836698691
 31
0.0
  0
LINE
  5
14A
330
1F
100
AcDbEntity
  8
0-0
  6
JWW_DASHED1
 62
   120
370
     5
100
AcDbLine
 10
151.4057148513135
 20
216.2196836709691
 30
0.0
 11
724.4057148513141
 21
216.2196836709691
 31
0.0
  0
LINE
  5
14B
330
1F
100
AcDbEntity
  8
0-0
  6
JWW_DASHED1
 62
   120
370
     5
100
AcDbLine
 10
151.4057148513135
 20
217.2196836708693
 30
0.0
 11
724.4057148513141
 21
217.2196836708693
 31
0.0
  0
LINE
  5
14C
330
1F
100
AcDbEntity
  8
0-0
  6
JWW_DASHED1
 62
   120
370
     5
100
AcDbLine
 10
151.4057148513135
 20
230.2196836719693
 30
0.0
 11
724.4057148513141
 21
230.2196836719693
 31
0.0
  0
LINE
  5
14D
330
1F
100
AcDbEntity
  8
0-0
  6
JWW_DASHED1
 62
   120
370
     5
100
AcDbLine
 10
151.4057148513135
 20
231.2196836718695
 30
0.0
 11
724.4057148513141
 21
231.2196836718695
 31
0.0
  0
LINE
  5
14E
330
1F
100
AcDbEntity
  8
0-0
  6
JWW_DASHED1
 62
   120
370
     5
100
AcDbLine
 10
151.4057148513135
 20
244.2196836729691
 30
0.0
 11
724.4057148513141
 21
244.2196836729691
 31
0.0
  0
LINE
  5
14F
330
1F
100
AcDbEntity
  8
0-0
  6
JWW_DASHED1
 62
   120
370
     5
100
AcDbLine
 10
151.4057148513135
 20
245.2196836728693
 30
0.0
 11
724.4057148513141
 21
245.2196836728693
 31
0.0
  0
LINE
  5
150
330
1F
100
AcDbEntity
  8
0-0
  6
JWW_DASHED1
 62
   120
370
     5
100
AcDbLine
 10
151.4057148513135
 20
258.2196836739694
 30
0.0
 11
724.4057148513141
 21
258.2196836739694
 31
0.0
  0
LINE
  5
151
330
1F
100
AcDbEntity
  8
0-0
  6
JWW_DASHED1
 62
   120
370
     5
100
AcDbLine
 10
151.4057148513135
 20
259.2196836738691
 30
0.0
 11
724.4057148513141
 21
259.2196836738691
 31
0.0
  0
LINE
  5
152
330
1F
100
AcDbEntity
  8
0-0
  6
JWW_DASHED1
 62
   120
370
     5
100
AcDbLine
 10
151.4057148513135
 20
272.2196836749691
 30
0.0
 11
724.4057148513141
 21
272.2196836749691
 31
0.0
  0
LINE
  5
153
330
1F
100
AcDbEntity
  8
0-0
  6
JWW_DASHED1
 62
   120
370
     5
100
AcDbLine
 10
151.4057148513135
 20
273.2196836748693
 30
0.0
 11
724.4057148513141
 21
273.2196836748693
 31
0.0
  0
LINE
  5
154
330
1F
100
AcDbEntity
  8
0-0
  6
JWW_DASHED1
 62
   120
370
     5
100
AcDbLine
 10
151.4057148513135
 20
286.2196836759693
 30
0.0
 11
724.4057148513141
 21
286.2196836759693
 31
0.0
  0
LINE
  5
155
330
1F
100
AcDbEntity
  8
0-0
  6
JWW_DASHED1
 62
   120
370
     5
100
AcDbLine
 10
151.4057148513135
 20
287.2196836758695
 30
0.0
 11
724.4057148513141
 21
287.2196836758695
 31
0.0
  0
LINE
  5
156
330
1F
100
AcDbEntity
  8
0-0
  6
JWW_DASHED1
 62
   120
370
     5
100
AcDbLine
 10
151.4057148513135
 20
300.2196836769691
 30
0.0
 11
724.4057148513141
 21
300.2196836769691
 31
0.0
  0
LINE
  5
157
330
1F
100
AcDbEntity
  8
0-0
  6
JWW_DASHED1
 62
   120
370
     5
100
AcDbLine
 10
151.4057148513135
 20
301.2196836768693
 30
0.0
 11
724.4057148513141
 21
301.2196836768693
 31
0.0
  0
LINE
  5
158
330
1F
100
AcDbEntity
  8
0-0
  6
JWW_DASHED1
 62
   120
370
     5
100
AcDbLine
 10
151.4057148513135
 20
314.2196836779693
 30
0.0
 11
724.4057148513141
 21
314.2196836779693
 31
0.0
  0
LINE
  5
159
330
1F
100
AcDbEntity
  8
0-0
  6
JWW_DASHED1
 62
   120
370
     5
100
AcDbLine
 10
151.4057148513135
 20
315.2196836778691
 30
0.0
 11
724.4057148513141
 21
315.2196836778691
 31
0.0
  0
LINE
  5
15A
330
1F
100
AcDbEntity
  8
0-0
  6
JWW_DASHED1
 62
   120
370
     5
100
AcDbLine
 10
151.4057148513135
 20
328.2196836789691
 30
0.0
 11
724.4057148513141
 21
328.2196836789691
 31
0.0
  0
LINE
  5
15B
330
1F
100
AcDbEntity
  8
0-0
  6
JWW_DASHED1
 62
   120
370
     5
100
AcDbLine
 10
151.4057148513135
 20
329.2196836788693
 30
0.0
 11
724.4057148513141
 21
329.2196836788693
 31
0.0
  0
LINE
  5
15C
330
1F
100
AcDbEntity
  8
0-0
  6
JWW_DASHED1
 62
   120
370
     5
100
AcDbLine
 10
151.4057148513135
 20
342.2196836799694
 30
0.0
 11
724.4057148513141
 21
342.2196836799694
 31
0.0
  0
LINE
  5
15D
330
1F
100
AcDbEntity
  8
0-0
  6
JWW_DASHED1
 62
   120
370
     5
100
AcDbLine
 10
151.4057148513135
 20
343.2196836798695
 30
0.0
 11
724.4057148513141
 21
343.2196836798695
 31
0.0
  0
LINE
  5
15E
330
1F
100
AcDbEntity
  8
0-0
  6
JWW_DASHED1
 62
   120
370
     5
100
AcDbLine
 10
151.4057148513135
 20
356.2196836809692
 30
0.0
 11
724.4057148513141
 21
356.2196836809692
 31
0.0
  0
LINE
  5
15F
330
1F
100
AcDbEntity
  8
0-0
  6
JWW_DASHED1
 62
   120
370
     5
100
AcDbLine
 10
151.4057148513135
 20
357.2196836808694
 30
0.0
 11
724.4057148513141
 21
357.2196836808694
 31
0.0
  0
LINE
  5
160
330
1F
100
AcDbEntity
  8
0-0
  6
JWW_DASHED1
 62
   120
370
     5
100
AcDbLine
 10
151.4057148513135
 20
370.2196836819694
 30
0.0
 11
724.4057148513141
 21
370.2196836819694
 31
0.0
  0
LINE
  5
161
330
1F
100
AcDbEntity
  8
0-0
  6
JWW_DASHED1
 62
   120
370
     5
100
AcDbLine
 10
151.4057148513135
 20
371.2196836818691
 30
0.0
 11
724.4057148513141
 21
371.2196836818691
 31
0.0
  0
LINE
  5
162
330
1F
100
AcDbEntity
  8
0-0
  6
JWW_DASHED1
 62
   120
370
     5
100
AcDbLine
 10
151.4057148513135
 20
384.2196836829692
 30
0.0
 11
724.4057148513141
 21
384.2196836829692
 31
0.0
  0
LINE
  5
163
330
1F
100
AcDbEntity
  8
0-0
  6
JWW_DASHED1
 62
   120
370
     5
100
AcDbLine
 10
151.4057148513135
 20
385.2196836828693
 30
0.0
 11
724.4057148513141
 21
385.2196836828693
 31
0.0
  0
LINE
  5
164
330
1F
100
AcDbEntity
  8
0-0
  6
JWW_DASHED1
 62
   120
370
     5
100
AcDbLine
 10
151.4057148513135
 20
398.2196836839694
 30
0.0
 11
724.4057148513141
 21
398.2196836839694
 31
0.0
  0
LINE
  5
165
330
1F
100
AcDbEntity
  8
0-0
  6
JWW_DASHED1
 62
   120
370
     5
100
AcDbLine
 10
151.4057148513135
 20
399.2196836838691
 30
0.0
 11
724.4057148513141
 21
399.2196836838691
 31
0.0
  0
LINE
  5
166
330
1F
100
AcDbEntity
  8
0-0
  6
JWW_DASHED1
 62
   120
370
     5
100
AcDbLine
 10
151.4057148513135
 20
412.2196836849691
 30
0.0
 11
724.4057148513141
 21
412.2196836849691
 31
0.0
  0
LINE
  5
167
330
1F
100
AcDbEntity
  8
0-0
  6
JWW_DASHED1
 62
   120
370
     5
100
AcDbLine
 10
151.4057148513135
 20
413.2196836848693
 30
0.0
 11
724.4057148513141
 21
413.2196836848693
 31
0.0
  0
LINE
  5
168
330
1F
100
AcDbEntity
  8
0-0
  6
JWW_DASHED1
 62
   120
370
     5
100
AcDbLine
 10
151.4057148513135
 20
426.2196836859694
 30
0.0
 11
724.4057148513141
 21
426.2196836859694
 31
0.0
  0
LINE
  5
169
330
1F
100
AcDbEntity
  8
0-0
  6
JWW_DASHED1
 62
   120
370
     5
100
AcDbLine
 10
151.4057148513135
 20
427.2196836858691
 30
0.0
 11
724.4057148513141
 21
427.2196836858691
 31
0.0
  0
LINE
  5
16A
330
1F
100
AcDbEntity
  8
0-0
  6
JWW_DASHED1
 62
   120
370
     5
100
AcDbLine
 10
151.4057148513135
 20
440.2196836869692
 30
0.0
 11
724.4057148513141
 21
440.2196836869692
 31
0.0
  0
LINE
  5
16B
330
1F
100
AcDbEntity
  8
0-0
  6
JWW_DASHED1
 62
   120
370
     5
100
AcDbLine
 10
151.4057148513135
 20
441.2196836868694
 30
0.0
 11
724.4057148513141
 21
441.2196836868694
 31
0.0
  0
LINE
  5
16C
330
1F
100
AcDbEntity
  8
0-0
  6
JWW_DASHED1
 62
   120
370
     5
100
AcDbLine
 10
151.4057148513135
 20
454.2196836879694
 30
0.0
 11
724.4057148513141
 21
454.2196836879694
 31
0.0
  0
LINE
  5
16D
330
1F
100
AcDbEntity
  8
0-0
  6
JWW_DASHED1
 62
   120
370
     5
100
AcDbLine
 10
151.4057148513135
 20
455.2196836878692
 30
0.0
 11
724.4057148513141
 21
455.2196836878692
 31
0.0
  0
LINE
  5
16E
330
1F
100
AcDbEntity
  8
0-0
  6
JWW_DASHED1
 62
   120
370
     5
100
AcDbLine
 10
151.4057148513135
 20
468.2196836889692
 30
0.0
 11
724.4057148513141
 21
468.2196836889692
 31
0.0
  0
LINE
  5
16F
330
1F
100
AcDbEntity
  8
0-0
  6
JWW_DASHED1
 62
   120
370
     5
100
AcDbLine
 10
151.4057148513135
 20
469.2196836888694
 30
0.0
 11
724.4057148513141
 21
469.2196836888694
 31
0.0
  0
LINE
  5
170
330
1F
100
AcDbEntity
  8
0-0
  6
JWW_DASHED1
 62
   120
370
     5
100
AcDbLine
 10
151.4057148513135
 20
482.2196836899694
 30
0.0
 11
724.4057148513141
 21
482.2196836899694
 31
0.0
  0
LINE
  5
171
330
1F
100
AcDbEntity
  8
0-0
  6
JWW_DASHED1
 62
   120
370
     5
100
AcDbLine
 10
151.4057148513135
 20
483.2196836898692
 30
0.0
 11
724.4057148513141
 21
483.2196836898692
 31
0.0
  0
LINE
  5
172
330
1F
100
AcDbEntity
  8
0-0
  6
JWW_DASHED1
 62
   120
370
     5
100
AcDbLine
 10
151.4057148513135
 20
496.2196836909692
 30
0.0
 11
724.4057148513141
 21
496.2196836909692
 31
0.0
  0
LINE
  5
173
330
1F
100
AcDbEntity
  8
0-0
  6
JWW_DASHED1
 62
   120
370
     5
100
AcDbLine
 10
151.4057148513135
 20
497.2196836908694
 30
0.0
 11
724.4057148513141
 21
497.2196836908694
 31
0.0
  0
LINE
  5
174
330
1F
100
AcDbEntity
  8
0-0
  6
JWW_DASHED1
 62
   120
370
     5
100
AcDbLine
 10
151.4057148513135
 20
510.2196836919694
 30
0.0
 11
724.4057148513141
 21
510.2196836919694
 31
0.0
  0
LINE
  5
175
330
1F
100
AcDbEntity
  8
0-0
  6
JWW_DASHED1
 62
   120
370
     5
100
AcDbLine
 10
151.4057148513135
 20
511.2196836918691
 30
0.0
 11
724.4057148513141
 21
511.2196836918691
 31
0.0
  0
LINE
  5
176
330
1F
100
AcDbEntity
  8
0-0
  6
JWW_DASHED1
 62
   120
370
     5
100
AcDbLine
 10
151.4057148513135
 20
524.2196836929692
 30
0.0
 11
724.4057148513141
 21
524.2196836929692
 31
0.0
  0
LINE
  5
177
330
1F
100
AcDbEntity
  8
0-0
  6
JWW_DASHED1
 62
   120
370
     5
100
AcDbLine
 10
151.4057148513135
 20
525.2196836928694
 30
0.0
 11
724.4057148513141
 21
525.2196836928694
 31
0.0
  0
LINE
  5
178
330
1F
100
AcDbEntity
  8
0-0
  6
JWW_DASHED1
 62
   120
370
     5
100
AcDbLine
 10
151.4057148513135
 20
538.2196836939694
 30
0.0
 11
724.4057148513141
 21
538.2196836939694
 31
0.0
  0
LINE
  5
179
330
1F
100
AcDbEntity
  8
0-0
  6
JWW_DASHED1
 62
   120
370
     5
100
AcDbLine
 10
151.4057148513135
 20
539.2196836938692
 30
0.0
 11
724.4057148513141
 21
539.2196836938692
 31
0.0
  0
LINE
  5
17A
330
1F
100
AcDbEntity
  8
0-0
  6
JWW_DASHED1
 62
   120
370
     5
100
AcDbLine
 10
151.4057148513135
 20
552.2196836949693
 30
0.0
 11
724.4057148513141
 21
552.2196836949693
 31
0.0
  0
LINE
  5
17B
330
1F
100
AcDbEntity
  8
0-0
  6
JWW_DASHED1
 62
   120
370
     5
100
AcDbLine
 10
151.4057148513135
 20
553.2196836948694
 30
0.0
 11
724.4057148513141
 21
553.2196836948694
 31
0.0
  0
LINE
  5
17C
330
1F
100
AcDbEntity
  8
0-0
  6
JWW_DASHED1
 62
   120
370
     5
100
AcDbLine
 10
151.4057148513135
 20
566.2196836959695
 30
0.0
 11
724.4057148513141
 21
566.2196836959695
 31
0.0
  0
LINE
  5
17D
330
1F
100
AcDbEntity
  8
0-0
  6
JWW_DASHED1
 62
   120
370
     5
100
AcDbLine
 10
151.4057148513135
 20
567.2196836958692
 30
0.0
 11
724.4057148513141
 21
567.2196836958692
 31
0.0
  0
LINE
  5
17E
330
1F
100
AcDbEntity
  8
0-0
  6
JWW_DASHED1
 62
   120
370
     5
100
AcDbLine
 10
151.4057148513135
 20
580.2196836969692
 30
0.0
 11
724.4057148513141
 21
580.2196836969692
 31
0.0
  0
LINE
  5
17F
330
1F
100
AcDbEntity
  8
0-0
  6
JWW_DASHED1
 62
   120
370
     5
100
AcDbLine
 10
151.4057148513135
 20
581.2196836968694
 30
0.0
 11
724.4057148513141
 21
581.2196836968694
 31
0.0
  0
LINE
  5
180
330
1F
100
AcDbEntity
  8
0-0
  6
JWW_DASHED1
 62
   120
370
     5
100
AcDbLine
 10
151.4057148513135
 20
594.2196836979695
 30
0.0
 11
724.4057148513141
 21
594.2196836979695
 31
0.0
  0
LINE
  5
181
330
1F
100
AcDbEntity
  8
0-0
  6
JWW_DASHED1
 62
   120
370
     5
100
AcDbLine
 10
151.4057148513135
 20
595.2196836978692
 30
0.0
 11
724.4057148513141
 21
595.2196836978692
 31
0.0
  0
LINE
  5
182
330
1F
100
AcDbEntity
  8
0-0
  6
JWW_DASHED1
 62
   120
370
     5
100
AcDbLine
 10
151.4057148513135
 20
608.2196836989692
 30
0.0
 11
724.4057148513141
 21
608.2196836989692
 31
0.0
  0
LINE
  5
183
330
1F
100
AcDbEntity
  8
0-0
  6
JWW_DASHED1
 62
   120
370
     5
100
AcDbLine
 10
151.4057148513135
 20
609.2196836988694
 30
0.0
 11
724.4057148513141
 21
609.2196836988694
 31
0.0
  0
LINE
  5
184
330
1F
100
AcDbEntity
  8
0-0
  6
JWW_DASHED1
 62
   120
370
     5
100
AcDbLine
 10
151.4057148513135
 20
622.2196836999694
 30
0.0
 11
724.4057148513141
 21
622.2196836999694
 31
0.0
  0
LINE
  5
185
330
1F
100
AcDbEntity
  8
0-0
  6
JWW_DASHED1
 62
   120
370
     5
100
AcDbLine
 10
151.4057148513135
 20
623.2196836998692
 30
0.0
 11
724.4057148513141
 21
623.2196836998692
 31
0.0
  0
LINE
  5
186
330
1F
100
AcDbEntity
  8
0-0
  6
JWW_DASHED1
 62
   120
370
     5
100
AcDbLine
 10
151.4057148513135
 20
636.2196837009692
 30
0.0
 11
724.4057148513141
 21
636.2196837009692
 31
0.0
  0
LINE
  5
187
330
1F
100
AcDbEntity
  8
0-0
  6
JWW_DASHED1
 62
   120
370
     5
100
AcDbLine
 10
151.4057148513135
 20
637.2196837008694
 30
0.0
 11
724.4057148513141
 21
637.2196837008694
 31
0.0
  0
LINE
  5
188
330
1F
100
AcDbEntity
  8
0-0
  6
JWW_DASHED1
 62
   120
370
     5
100
AcDbLine
 10
151.4057148513135
 20
650.2196837019694
 30
0.0
 11
724.4057148513141
 21
650.2196837019694
 31
0.0
  0
LINE
  5
189
330
1F
100
AcDbEntity
  8
0-0
  6
JWW_DASHED1
 62
   120
370
     5
100
AcDbLine
 10
151.4057148513135
 20
651.2196837018691
 30
0.0
 11
724.4057148513141
 21
651.2196837018691
 31
0.0
  0
LINE
  5
18A
330
1F
100
AcDbEntity
  8
0-0
  6
JWW_DASHED1
 62
   120
370
     5
100
AcDbLine
 10
151.4057148513135
 20
664.2196837029692
 30
0.0
 11
724.4057148513141
 21
664.2196837029692
 31
0.0
  0
LINE
  5
18B
330
1F
100
AcDbEntity
  8
0-0
  6
JWW_DASHED1
 62
   120
370
     5
100
AcDbLine
 10
151.4057148513135
 20
665.2196837028694
 30
0.0
 11
724.4057148513141
 21
665.2196837028694
 31
0.0
  0
LINE
  5
18C
330
1F
100
AcDbEntity
  8
0-0
  6
JWW_DASHED1
 62
   120
370
     5
100
AcDbLine
 10
151.4057148513135
 20
678.2196837039694
 30
0.0
 11
724.4057148513141
 21
678.2196837039694
 31
0.0
  0
LINE
  5
18D
330
1F
100
AcDbEntity
  8
0-0
  6
JWW_DASHED1
 62
   120
370
     5
100
AcDbLine
 10
151.4057148513135
 20
679.2196837038692
 30
0.0
 11
724.4057148513141
 21
679.2196837038692
 31
0.0
  0
LINE
  5
18E
330
1F
100
AcDbEntity
  8
0-0
  6
JWW_DASHED1
 62
   120
370
     5
100
AcDbLine
 10
151.4057148513135
 20
692.2196837049693
 30
0.0
 11
724.4057148513141
 21
692.2196837049693
 31
0.0
  0
LINE
  5
18F
330
1F
100
AcDbEntity
  8
0-0
  6
JWW_DASHED1
 62
   120
370
     5
100
AcDbLine
 10
151.4057148513135
 20
693.2196837048695
 30
0.0
 11
724.4057148513141
 21
693.2196837048695
 31
0.0
  0
LINE
  5
190
330
1F
100
AcDbEntity
  8
0-0
  6
JWW_DASHED1
 62
   120
370
     5
100
AcDbLine
 10
151.4057148513135
 20
706.2196837059695
 30
0.0
 11
724.4057148513141
 21
706.2196837059695
 31
0.0
  0
LINE
  5
191
330
1F
100
AcDbEntity
  8
0-0
  6
JWW_DASHED1
 62
   120
370
     5
100
AcDbLine
 10
151.4057148513135
 20
707.2196837058692
 30
0.0
 11
724.4057148513141
 21
707.2196837058692
 31
0.0
  0
LINE
  5
192
330
1F
100
AcDbEntity
  8
0-0
  6
JWW_DASHED1
 62
   120
370
     5
100
AcDbLine
 10
151.4057148513135
 20
720.2196837069692
 30
0.0
 11
724.4057148513141
 21
720.2196837069692
 31
0.0
  0
LINE
  5
193
330
1F
100
AcDbEntity
  8
0-0
  6
JWW_DASHED1
 62
   120
370
     5
100
AcDbLine
 10
151.4057148513135
 20
721.2196837068694
 30
0.0
 11
724.4057148513141
 21
721.2196837068694
 31
0.0
  0
LINE
  5
194
330
1F
100
AcDbEntity
  8
0-0
  6
JWW_DASHED1
 62
   120
370
     5
100
AcDbLine
 10
230.2686595359459
 20
734.2196837079695
 30
0.0
 11
645.5427701666808
 21
734.2196837079695
 31
0.0
  0
LINE
  5
195
330
1F
100
AcDbEntity
  8
0-0
  6
JWW_DASHED1
 62
   120
370
     5
100
AcDbLine
 10
234.8282462771253
 20
735.2196837078692
 30
0.0
 11
640.9831834255015
 21
735.2196837078692
 31
0.0
  0
LINE
  5
196
330
1F
100
AcDbEntity
  8
0-0
  6
JWW_DASHED1
 62
   120
370
     5
100
AcDbLine
 10
269.7800065531605
 20
748.2196837089692
 30
0.0
 11
606.0314231494663
 21
748.2196837089692
 31
0.0
  0
LINE
  5
197
330
1F
100
AcDbEntity
  8
0-0
  6
JWW_DASHED1
 62
   120
370
     5
100
AcDbLine
 10
271.6646778739237
 20
749.2196837088694
 30
0.0
 11
604.1467518287031
 21
749.2196837088694
 31
0.0
  0
LINE
  5
198
330
1F
100
AcDbEntity
  8
0-0
  6
JWW_DASHED1
 62
   120
370
     5
100
AcDbLine
 10
298.4098874889974
 20
762.2196837099694
 30
0.0
 11
577.4015422136295
 21
762.2196837099694
 31
0.0
  0
LINE
  5
199
330
1F
100
AcDbEntity
  8
0-0
  6
JWW_DASHED1
 62
   120
370
     5
100
AcDbLine
 10
300.7339753456113
 20
763.2196837098693
 30
0.0
 11
575.0774543570155
 21
763.2196837098693
 31
0.0
  0
LINE
  5
19A
330
1F
100
AcDbEntity
  8
0-0
  6
JWW_DASHED1
 62
   120
370
     5
100
AcDbLine
 10
336.5395982485284
 20
776.2196837109693
 30
0.0
 11
539.2718314540984
 21
776.2196837109693
 31
0.0
  0
LINE
  5
19B
330
1F
100
AcDbEntity
  8
0-0
  6
JWW_DASHED1
 62
   120
370
     5
100
AcDbLine
 10
339.9052563695118
 20
777.2196837108695
 30
0.0
 11
535.906173333115
 21
777.2196837108695
 31
0.0
  0
LINE
  5
19C
330
1F
100
AcDbEntity
  8
0-0
  6
JWW_DASHED1
 62
   120
370
     5
100
AcDbLine
 10
411.4653415803518
 20
790.2196837119695
 30
0.0
 11
464.346088122275
 21
790.2196837119695
 31
0.0
  0
LINE
  5
19D
330
1F
100
AcDbEntity
  8
0-0
  6
JWW_DASHED1
 62
   120
370
     5
100
AcDbLine
 10
437.5997635072058
 20
791.2196837118693
 30
0.0
 11
438.211666195421
 21
791.2196837118693
 31
0.0
  0
LINE
  5
19E
330
1F
100
AcDbEntity
  8
0-0
  6
JWW_DASHED1
 62
   120
370
     5
100
AcDbLine
 10
718.405714871264
 20
-521.7801825649269
 30
0.0
 11
718.405714871264
 21
731.2195498907648
 31
0.0
  0
LINE
  5
19F
330
1F
100
AcDbEntity
  8
0-0
  6
JWW_DASHED1
 62
   120
370
     5
100
AcDbLine
 10
717.4057148713638
 20
-521.7801825649269
 30
0.0
 11
717.4057148713638
 21
731.2195498907648
 31
0.0
  0
LINE
  5
1A0
330
1F
100
AcDbEntity
  8
0-0
  6
JWW_DASHED1
 62
   120
370
     5
100
AcDbLine
 10
704.4057148702638
 20
-521.7801825649269
 30
0.0
 11
704.4057148702638
 21
731.2195498907648
 31
0.0
  0
LINE
  5
1A1
330
1F
100
AcDbEntity
  8
0-0
  6
JWW_DASHED1
 62
   120
370
     5
100
AcDbLine
 10
703.405714870364
 20
-521.7801825649269
 30
0.0
 11
703.405714870364
 21
731.2195498907648
 31
0.0
  0
LINE
  5
1A2
330
1F
100
AcDbEntity
  8
0-0
  6
JWW_DASHED1
 62
   120
370
     5
100
AcDbLine
 10
690.405714869264
 20
-521.7801825649269
 30
0.0
 11
690.405714869264
 21
731.2195498907648
 31
0.0
  0
LINE
  5
1A3
330
1F
100
AcDbEntity
  8
0-0
  6
JWW_DASHED1
 62
   120
370
     5
100
AcDbLine
 10
689.4057148693638
 20
-521.7801825649269
 30
0.0
 11
689.4057148693638
 21
731.2195498907648
 31
0.0
  0
LINE
  5
1A4
330
1F
100
AcDbEntity
  8
0-0
  6
JWW_DASHED1
 62
   120
370
     5
100
AcDbLine
 10
676.4057148682638
 20
-521.7801825649269
 30
0.0
 11
676.4057148682638
 21
731.2195498907648
 31
0.0
  0
LINE
  5
1A5
330
1F
100
AcDbEntity
  8
0-0
  6
JWW_DASHED1
 62
   120
370
     5
100
AcDbLine
 10
675.4057148683639
 20
-521.7801825649269
 30
0.0
 11
675.4057148683639
 21
731.2195498907648
 31
0.0
  0
LINE
  5
1A6
330
1F
100
AcDbEntity
  8
0-0
  6
JWW_DASHED1
 62
   120
370
     5
100
AcDbLine
 10
662.4057148672639
 20
-521.7801825649269
 30
0.0
 11
662.4057148672639
 21
731.7828440018537
 31
0.0
  0
LINE
  5
1A7
330
1F
100
AcDbEntity
  8
0-0
  6
JWW_DASHED1
 62
   120
370
     5
100
AcDbLine
 10
661.4057148673637
 20
-521.7801825649269
 30
0.0
 11
661.4057148673637
 21
731.8731257885782
 31
0.0
  0
LINE
  5
1A8
330
1F
100
AcDbEntity
  8
0-0
  6
JWW_DASHED1
 62
   120
370
     5
100
AcDbLine
 10
648.4057148662637
 20
-521.7801825649269
 30
0.0
 11
648.4057148662637
 21
733.6672418121533
 31
0.0
  0
LINE
  5
1A9
330
1F
100
AcDbEntity
  8
0-0
  6
JWW_DASHED1
 62
   120
370
     5
100
AcDbLine
 10
647.405714866364
 20
-521.7801825649269
 30
0.0
 11
647.405714866364
 21
733.8536483243014
 31
0.0
  0
LINE
  5
1AA
330
1F
100
AcDbEntity
  8
0-0
  6
JWW_DASHED1
 62
   120
370
     5
100
AcDbLine
 10
634.4057148652639
 20
-521.7801825649269
 30
0.0
 11
634.4057148652639
 21
736.9280457345748
 31
0.0
  0
LINE
  5
1AB
330
1F
100
AcDbEntity
  8
0-0
  6
JWW_DASHED1
 62
   120
370
     5
100
AcDbLine
 10
633.4057148653637
 20
-521.7801825649269
 30
0.0
 11
633.4057148653637
 21
737.2158572407797
 31
0.0
  0
LINE
  5
1AC
330
1F
100
AcDbEntity
  8
0-0
  6
JWW_DASHED1
 62
   120
370
     5
100
AcDbLine
 10
620.4057148642637
 20
-521.7801825649269
 30
0.0
 11
620.4057148642637
 21
741.6617026591019
 31
0.0
  0
LINE
  5
1AD
330
1F
100
AcDbEntity
  8
0-0
  6
JWW_DASHED1
 62
   120
370
     5
100
AcDbLine
 10
619.405714864364
 20
-521.7801825649269
 30
0.0
 11
619.405714864364
 21
742.0598644602331
 31
0.0
  0
LINE
  5
1AE
330
1F
100
AcDbEntity
  8
0-0
  6
JWW_DASHED1
 62
   120
370
     5
100
AcDbLine
 10
606.4057148632639
 20
-521.7801825649269
 30
0.0
 11
606.4057148632639
 21
748.0251533263335
 31
0.0
  0
LINE
  5
1AF
330
1F
100
AcDbEntity
  8
0-0
  6
JWW_DASHED1
 62
   120
370
     5
100
AcDbLine
 10
605.4057148633638
 20
-521.7801825649269
 30
0.0
 11
605.4057148633638
 21
748.5478777020479
 31
0.0
  0
LINE
  5
1B0
330
1F
100
AcDbEntity
  8
0-0
  6
JWW_DASHED1
 62
   120
370
     5
100
AcDbLine
 10
592.4057148622637
 20
-521.7801825649269
 30
0.0
 11
592.4057148622637
 21
755.2735548696246
 31
0.0
  0
LINE
  5
1B1
330
1F
100
AcDbEntity
  8
0-0
  6
JWW_DASHED1
 62
   120
370
     5
100
AcDbLine
 10
591.405714862364
 20
-521.7801825649269
 30
0.0
 11
591.405714862364
 21
755.7635345820263
 31
0.0
  0
LINE
  5
1B2
330
1F
100
AcDbEntity
  8
0-0
  6
JWW_DASHED1
 62
   120
370
     5
100
AcDbLine
 10
578.405714861264
 20
-521.7801825649269
 30
0.0
 11
578.405714861264
 21
761.781433972671
 31
0.0
  0
LINE
  5
1B3
330
1F
100
AcDbEntity
  8
0-0
  6
JWW_DASHED1
 62
   120
370
     5
100
AcDbLine
 10
577.4057148613638
 20
-521.7801825649269
 30
0.0
 11
577.4057148613638
 21
762.2178703843083
 31
0.0
  0
LINE
  5
1B4
330
1F
100
AcDbEntity
  8
0-0
  6
JWW_DASHED1
 62
   120
370
     5
100
AcDbLine
 10
564.4057148602637
 20
-521.7801825649269
 30
0.0
 11
564.4057148602637
 21
767.5597475658169
 31
0.0
  0
LINE
  5
1B5
330
1F
100
AcDbEntity
  8
0-0
  6
JWW_DASHED1
 62
   120
370
     5
100
AcDbLine
 10
563.405714860364
 20
-521.7801825649269
 30
0.0
 11
563.405714860364
 21
767.9456199020997
 31
0.0
  0
LINE
  5
1B6
330
1F
100
AcDbEntity
  8
0-0
  6
JWW_DASHED1
 62
   120
370
     5
100
AcDbLine
 10
550.405714859264
 20
-521.7801825649269
 30
0.0
 11
550.405714859264
 21
772.6466570214207
 31
0.0
  0
LINE
  5
1B7
330
1F
100
AcDbEntity
  8
0-0
  6
JWW_DASHED1
 62
   120
370
     5
100
AcDbLine
 10
549.4057148593638
 20
-521.7801825649269
 30
0.0
 11
549.4057148593638
 21
772.9844177139303
 31
0.0
  0
LINE
  5
1B8
330
1F
100
AcDbEntity
  8
0-0
  6
JWW_DASHED1
 62
   120
370
     5
100
AcDbLine
 10
536.4057148582638
 20
-521.7801825649269
 30
0.0
 11
536.4057148582638
 21
777.0735802525151
 31
0.0
  0
LINE
  5
1B9
330
1F
100
AcDbEntity
  8
0-0
  6
JWW_DASHED1
 62
   120
370
     5
100
AcDbLine
 10
535.4057148583639
 20
-521.7801825649269
 30
0.0
 11
535.4057148583639
 21
777.3652472695967
 31
0.0
  0
LINE
  5
1BA
330
1F
100
AcDbEntity
  8
0-0
  6
JWW_DASHED1
 62
   120
370
     5
100
AcDbLine
 10
522.4057148572639
 20
-521.7801825649269
 30
0.0
 11
522.4057148572639
 21
780.866324849746
 31
0.0
  0
LINE
  5
1BB
330
1F
100
AcDbEntity
  8
0-0
  6
JWW_DASHED1
 62
   120
370
     5
100
AcDbLine
 10
521.4057148573637
 20
-521.7801825649269
 30
0.0
 11
521.4057148573637
 21
781.1135508268553
 31
0.0
  0
LINE
  5
1BC
330
1F
100
AcDbEntity
  8
0-0
  6
JWW_DASHED1
 62
   120
370
     5
100
AcDbLine
 10
508.4057148562637
 20
-521.7801825649269
 30
0.0
 11
508.4057148562637
 21
784.0459395425996
 31
0.0
  0
LINE
  5
1BD
330
1F
100
AcDbEntity
  8
0-0
  6
JWW_DASHED1
 62
   120
370
     5
100
AcDbLine
 10
507.4057148563639
 20
-521.7801825649269
 30
0.0
 11
507.4057148563639
 21
784.2500639138661
 31
0.0
  0
LINE
  5
1BE
330
1F
100
AcDbEntity
  8
0-0
  6
JWW_DASHED1
 62
   120
370
     5
100
AcDbLine
 10
494.4057148552639
 20
-521.7801825649269
 30
0.0
 11
494.4057148552639
 21
786.6293569668478
 31
0.0
  0
LINE
  5
1BF
330
1F
100
AcDbEntity
  8
0-0
  6
JWW_DASHED1
 62
   120
370
     5
100
AcDbLine
 10
493.4057148553637
 20
-521.7801825649269
 30
0.0
 11
493.4057148553637
 21
786.7914453207295
 31
0.0
  0
LINE
  5
1C0
330
1F
100
AcDbEntity
  8
0-0
  6
JWW_DASHED1
 62
   120
370
     5
100
AcDbLine
 10
480.4057148542637
 20
-521.7801825649269
 30
0.0
 11
480.4057148542637
 21
788.6298777381189
 31
0.0
  0
LINE
  5
1C1
330
1F
100
AcDbEntity
  8
0-0
  6
JWW_DASHED1
 62
   120
370
     5
100
AcDbLine
 10
479.405714854364
 20
-521.7801825649269
 30
0.0
 11
479.405714854364
 21
788.7507513096416
 31
0.0
  0
LINE
  5
1C2
330
1F
100
AcDbEntity
  8
0-0
  6
JWW_DASHED1
 62
   120
370
     5
100
AcDbLine
 10
466.4057148532639
 20
-521.7801825649269
 30
0.0
 11
466.4057148532639
 21
790.0575304190597
 31
0.0
  0
LINE
  5
1C3
330
1F
100
AcDbEntity
  8
0-0
  6
JWW_DASHED1
 62
   120
370
     5
100
AcDbLine
 10
465.4057148533637
 20
-521.7801825649269
 30
0.0
 11
465.4057148533637
 21
790.1377877373916
 31
0.0
  0
LINE
  5
1C4
330
1F
100
AcDbEntity
  8
0-0
  6
JWW_DASHED1
 62
   120
370
     5
100
AcDbLine
 10
452.4057148522637
 20
-521.7801825649269
 30
0.0
 11
452.4057148522637
 21
790.9193313037094
 31
0.0
  0
LINE
  5
1C5
330
1F
100
AcDbEntity
  8
0-0
  6
JWW_DASHED1
 62
   120
370
     5
100
AcDbLine
 10
451.4057148523639
 20
-521.7801825649269
 30
0.0
 11
451.4057148523639
 21
790.95936338316
 31
0.0
  0
LINE
  5
1C6
330
1F
100
AcDbEntity
  8
0-0
  6
JWW_DASHED1
 62
   120
370
     5
100
AcDbLine
 10
438.4057148512639
 20
-521.7801825649269
 30
0.0
 11
438.4057148512639
 21
791.2194602920381
 31
0.0
  0
LINE
  5
1C7
330
1F
100
AcDbEntity
  8
0-0
  6
JWW_DASHED1
 62
   120
370
     5
100
AcDbLine
 10
437.4057148513637
 20
-521.7801825649269
 30
0.0
 11
437.4057148513637
 21
791.2194602920381
 31
0.0
  0
LINE
  5
1C8
330
1F
100
AcDbEntity
  8
0-0
  6
JWW_DASHED1
 62
   120
370
     5
100
AcDbLine
 10
424.4057148502637
 20
-521.7801825649269
 30
0.0
 11
424.4057148502637
 21
790.95936338316
 31
0.0
  0
LINE
  5
1C9
330
1F
100
AcDbEntity
  8
0-0
  6
JWW_DASHED1
 62
   120
370
     5
100
AcDbLine
 10
423.4057148503639
 20
-521.7801825649269
 30
0.0
 11
423.4057148503639
 21
790.9193313037094
 31
0.0
  0
LINE
  5
1CA
330
1F
100
AcDbEntity
  8
0-0
  6
JWW_DASHED1
 62
   120
370
     5
100
AcDbLine
 10
410.4057148492639
 20
-521.7801825649269
 30
0.0
 11
410.4057148492639
 21
790.1377877373916
 31
0.0
  0
LINE
  5
1CB
330
1F
100
AcDbEntity
  8
0-0
  6
JWW_DASHED1
 62
   120
370
     5
100
AcDbLine
 10
409.4057148493637
 20
-521.7801825649269
 30
0.0
 11
409.4057148493637
 21
790.0575304190597
 31
0.0
  0
LINE
  5
1CC
330
1F
100
AcDbEntity
  8
0-0
  6
JWW_DASHED1
 62
   120
370
     5
100
AcDbLine
 10
396.4057148482636
 20
-521.7801825649269
 30
0.0
 11
396.4057148482636
 21
788.7507513096416
 31
0.0
  0
LINE
  5
1CD
330
1F
100
AcDbEntity
  8
0-0
  6
JWW_DASHED1
 62
   120
370
     5
100
AcDbLine
 10
395.4057148483639
 20
-521.7801825649269
 30
0.0
 11
395.4057148483639
 21
788.6298777381189
 31
0.0
  0
LINE
  5
1CE
330
1F
100
AcDbEntity
  8
0-0
  6
JWW_DASHED1
 62
   120
370
     5
100
AcDbLine
 10
382.4057148472639
 20
-521.7801825649269
 30
0.0
 11
382.4057148472639
 21
786.7914453207295
 31
0.0
  0
LINE
  5
1CF
330
1F
100
AcDbEntity
  8
0-0
  6
JWW_DASHED1
 62
   120
370
     5
100
AcDbLine
 10
381.4057148473637
 20
-521.7801825649269
 30
0.0
 11
381.4057148473637
 21
786.6293569668478
 31
0.0
  0
LINE
  5
1D0
330
1F
100
AcDbEntity
  8
0-0
  6
JWW_DASHED1
 62
   120
370
     5
100
AcDbLine
 10
368.4057148462637
 20
-521.7801825649269
 30
0.0
 11
368.4057148462637
 21
784.2500639138661
 31
0.0
  0
LINE
  5
1D1
330
1F
100
AcDbEntity
  8
0-0
  6
JWW_DASHED1
 62
   120
370
     5
100
AcDbLine
 10
367.4057148463639
 20
-521.7801825649269
 30
0.0
 11
367.4057148463639
 21
784.0459395425996
 31
0.0
  0
LINE
  5
1D2
330
1F
100
AcDbEntity
  8
0-0
  6
JWW_DASHED1
 62
   120
370
     5
100
AcDbLine
 10
354.4057148452639
 20
-521.7801825649269
 30
0.0
 11
354.4057148452639
 21
781.1135508268553
 31
0.0
  0
LINE
  5
1D3
330
1F
100
AcDbEntity
  8
0-0
  6
JWW_DASHED1
 62
   120
370
     5
100
AcDbLine
 10
353.4057148453637
 20
-521.7801825649269
 30
0.0
 11
353.4057148453637
 21
780.866324849746
 31
0.0
  0
LINE
  5
1D4
330
1F
100
AcDbEntity
  8
0-0
  6
JWW_DASHED1
 62
   120
370
     5
100
AcDbLine
 10
340.4057148442637
 20
-521.7801825649269
 30
0.0
 11
340.4057148442637
 21
777.3652472695967
 31
0.0
  0
LINE
  5
1D5
330
1F
100
AcDbEntity
  8
0-0
  6
JWW_DASHED1
 62
   120
370
     5
100
AcDbLine
 10
339.4057148443639
 20
-521.7801825649269
 30
0.0
 11
339.4057148443639
 21
777.0735802525151
 31
0.0
  0
LINE
  5
1D6
330
1F
100
AcDbEntity
  8
0-0
  6
JWW_DASHED1
 62
   120
370
     5
100
AcDbLine
 10
326.4057148432639
 20
-521.7801825649269
 30
0.0
 11
326.4057148432639
 21
772.9844177139303
 31
0.0
  0
LINE
  5
1D7
330
1F
100
AcDbEntity
  8
0-0
  6
JWW_DASHED1
 62
   120
370
     5
100
AcDbLine
 10
325.4057148433637
 20
-521.7801825649269
 30
0.0
 11
325.4057148433637
 21
772.6466570214207
 31
0.0
  0
LINE
  5
1D8
330
1F
100
AcDbEntity
  8
0-0
  6
JWW_DASHED1
 62
   120
370
     5
100
AcDbLine
 10
312.4057148422636
 20
-521.7801825649269
 30
0.0
 11
312.4057148422636
 21
767.9456199020997
 31
0.0
  0
LINE
  5
1D9
330
1F
100
AcDbEntity
  8
0-0
  6
JWW_DASHED1
 62
   120
370
     5
100
AcDbLine
 10
311.4057148423639
 20
-521.7801825649269
 30
0.0
 11
311.4057148423639
 21
767.5597475658169
 31
0.0
  0
LINE
  5
1DA
330
1F
100
AcDbEntity
  8
0-0
  6
JWW_DASHED1
 62
   120
370
     5
100
AcDbLine
 10
298.4057148412638
 20
-521.7801825649269
 30
0.0
 11
298.4057148412638
 21
762.2178703843083
 31
0.0
  0
LINE
  5
1DB
330
1F
100
AcDbEntity
  8
0-0
  6
JWW_DASHED1
 62
   120
370
     5
100
AcDbLine
 10
297.4057148413636
 20
-521.7801825649269
 30
0.0
 11
297.4057148413636
 21
761.781433972671
 31
0.0
  0
LINE
  5
1DC
330
1F
100
AcDbEntity
  8
0-0
  6
JWW_DASHED1
 62
   120
370
     5
100
AcDbLine
 10
284.4057148402636
 20
-521.7801825649269
 30
0.0
 11
284.4057148402636
 21
755.7635345820263
 31
0.0
  0
LINE
  5
1DD
330
1F
100
AcDbEntity
  8
0-0
  6
JWW_DASHED1
 62
   120
370
     5
100
AcDbLine
 10
283.4057148403639
 20
-521.7801825649269
 30
0.0
 11
283.4057148403639
 21
755.2735548696246
 31
0.0
  0
LINE
  5
1DE
330
1F
100
AcDbEntity
  8
0-0
  6
JWW_DASHED1
 62
   120
370
     5
100
AcDbLine
 10
270.4057148392639
 20
-521.7801825649269
 30
0.0
 11
270.4057148392639
 21
748.5478777020479
 31
0.0
  0
LINE
  5
1DF
330
1F
100
AcDbEntity
  8
0-0
  6
JWW_DASHED1
 62
   120
370
     5
100
AcDbLine
 10
269.4057148393637
 20
-521.7801825649269
 30
0.0
 11
269.4057148393637
 21
748.0251533263335
 31
0.0
  0
LINE
  5
1E0
330
1F
100
AcDbEntity
  8
0-0
  6
JWW_DASHED1
 62
   120
370
     5
100
AcDbLine
 10
256.4057148382636
 20
-521.7801825649269
 30
0.0
 11
256.4057148382636
 21
742.0598644602331
 31
0.0
  0
LINE
  5
1E1
330
1F
100
AcDbEntity
  8
0-0
  6
JWW_DASHED1
 62
   120
370
     5
100
AcDbLine
 10
255.4057148383639
 20
-521.7801825649269
 30
0.0
 11
255.4057148383639
 21
741.6617026591019
 31
0.0
  0
LINE
  5
1E2
330
1F
100
AcDbEntity
  8
0-0
  6
JWW_DASHED1
 62
   120
370
     5
100
AcDbLine
 10
242.4057148372638
 20
-521.7801825649269
 30
0.0
 11
242.4057148372638
 21
737.2158572407797
 31
0.0
  0
LINE
  5
1E3
330
1F
100
AcDbEntity
  8
0-0
  6
JWW_DASHED1
 62
   120
370
     5
100
AcDbLine
 10
241.4057148373637
 20
-521.7801825649269
 30
0.0
 11
241.4057148373637
 21
736.9280457345748
 31
0.0
  0
LINE
  5
1E4
330
1F
100
AcDbEntity
  8
0-0
  6
JWW_DASHED1
 62
   120
370
     5
100
AcDbLine
 10
228.4057148362636
 20
-521.7801825649269
 30
0.0
 11
228.4057148362636
 21
733.8536483243014
 31
0.0
  0
LINE
  5
1E5
330
1F
100
AcDbEntity
  8
0-0
  6
JWW_DASHED1
 62
   120
370
     5
100
AcDbLine
 10
227.4057148363639
 20
-521.7801825649269
 30
0.0
 11
227.4057148363639
 21
733.6672418121533
 31
0.0
  0
LINE
  5
1E6
330
1F
100
AcDbEntity
  8
0-0
  6
JWW_DASHED1
 62
   120
370
     5
100
AcDbLine
 10
214.4057148352638
 20
-521.7801825649269
 30
0.0
 11
214.4057148352638
 21
731.8731257885782
 31
0.0
  0
LINE
  5
1E7
330
1F
100
AcDbEntity
  8
0-0
  6
JWW_DASHED1
 62
   120
370
     5
100
AcDbLine
 10
213.4057148353637
 20
-521.7801825649269
 30
0.0
 11
213.4057148353637
 21
731.7828440018537
 31
0.0
  0
LINE
  5
1E8
330
1F
100
AcDbEntity
  8
0-0
  6
JWW_DASHED1
 62
   120
370
     5
100
AcDbLine
 10
200.4057148342636
 20
-521.7801825649269
 30
0.0
 11
200.4057148342636
 21
731.2195498907648
 31
0.0
  0
LINE
  5
1E9
330
1F
100
AcDbEntity
  8
0-0
  6
JWW_DASHED1
 62
   120
370
     5
100
AcDbLine
 10
199.4057148343639
 20
-521.7801825649269
 30
0.0
 11
199.4057148343639
 21
731.2195498907648
 31
0.0
  0
LINE
  5
1EA
330
1F
100
AcDbEntity
  8
0-0
  6
JWW_DASHED1
 62
   120
370
     5
100
AcDbLine
 10
186.4057148332638
 20
-521.7801825649269
 30
0.0
 11
186.4057148332638
 21
731.2195498907648
 31
0.0
  0
LINE
  5
1EB
330
1F
100
AcDbEntity
  8
0-0
  6
JWW_DASHED1
 62
   120
370
     5
100
AcDbLine
 10
185.4057148333636
 20
-521.7801825649269
 30
0.0
 11
185.4057148333636
 21
731.2195498907648
 31
0.0
  0
LINE
  5
1EC
330
1F
100
AcDbEntity
  8
0-0
  6
JWW_DASHED1
 62
   120
370
     5
100
AcDbLine
 10
172.4057148322636
 20
-521.7801825649269
 30
0.0
 11
172.4057148322636
 21
731.2195498907648
 31
0.0
  0
LINE
  5
1ED
330
1F
100
AcDbEntity
  8
0-0
  6
JWW_DASHED1
 62
   120
370
     5
100
AcDbLine
 10
171.4057148323639
 20
-521.7801825649269
 30
0.0
 11
171.4057148323639
 21
731.2195498907648
 31
0.0
  0
LINE
  5
1EE
330
1F
100
AcDbEntity
  8
0-0
  6
JWW_DASHED1
 62
   120
370
     5
100
AcDbLine
 10
158.4057148312638
 20
-521.7801825649269
 30
0.0
 11
158.4057148312638
 21
731.2195498907648
 31
0.0
  0
LINE
  5
1EF
330
1F
100
AcDbEntity
  8
0-0
  6
JWW_DASHED1
 62
   120
370
     5
100
AcDbLine
 10
157.4057148313636
 20
-521.7801825649269
 30
0.0
 11
157.4057148313636
 21
731.2195498907648
 31
0.0
  0
LINE
  5
1F0
330
1F
100
AcDbEntity
  8
0-0
  6
JWW_DASHED1
 62
   120
370
     5
100
AcDbLine
 10
-658.5942851486866
 20
-511.7803163810311
 30
0.0
 11
-85.59428514868586
 21
-511.7803163810311
 31
0.0
  0
LINE
  5
1F1
330
1F
100
AcDbEntity
  8
0-0
  6
JWW_DASHED1
 62
   120
370
     5
100
AcDbLine
 10
-658.5942851486866
 20
-510.7803163811309
 30
0.0
 11
-85.59428514868586
 21
-510.7803163811309
 31
0.0
  0
LINE
  5
1F2
330
1F
100
AcDbEntity
  8
0-0
  6
JWW_DASHED1
 62
   120
370
     5
100
AcDbLine
 10
-658.5942851486866
 20
-497.7803163800309
 30
0.0
 11
-85.59428514868586
 21
-497.7803163800309
 31
0.0
  0
LINE
  5
1F3
330
1F
100
AcDbEntity
  8
0-0
  6
JWW_DASHED1
 62
   120
370
     5
100
AcDbLine
 10
-658.5942851486866
 20
-496.7803163801307
 30
0.0
 11
-85.59428514868586
 21
-496.7803163801307
 31
0.0
  0
LINE
  5
1F4
330
1F
100
AcDbEntity
  8
0-0
  6
JWW_DASHED1
 62
   120
370
     5
100
AcDbLine
 10
-658.5942851486866
 20
-483.7803163790306
 30
0.0
 11
-85.59428514868586
 21
-483.7803163790306
 31
0.0
  0
LINE
  5
1F5
330
1F
100
AcDbEntity
  8
0-0
  6
JWW_DASHED1
 62
   120
370
     5
100
AcDbLine
 10
-658.5942851486866
 20
-482.7803163791309
 30
0.0
 11
-85.59428514868586
 21
-482.7803163791309
 31
0.0
  0
LINE
  5
1F6
330
1F
100
AcDbEntity
  8
0-0
  6
JWW_DASHED1
 62
   120
370
     5
100
AcDbLine
 10
-658.5942851486866
 20
-469.7803163780309
 30
0.0
 11
-85.59428514868586
 21
-469.7803163780309
 31
0.0
  0
LINE
  5
1F7
330
1F
100
AcDbEntity
  8
0-0
  6
JWW_DASHED1
 62
   120
370
     5
100
AcDbLine
 10
-658.5942851486866
 20
-468.7803163781311
 30
0.0
 11
-85.59428514868586
 21
-468.7803163781311
 31
0.0
  0
LINE
  5
1F8
330
1F
100
AcDbEntity
  8
0-0
  6
JWW_DASHED1
 62
   120
370
     5
100
AcDbLine
 10
-658.5942851486866
 20
-455.7803163770311
 30
0.0
 11
-85.59428514868586
 21
-455.7803163770311
 31
0.0
  0
LINE
  5
1F9
330
1F
100
AcDbEntity
  8
0-0
  6
JWW_DASHED1
 62
   120
370
     5
100
AcDbLine
 10
-658.5942851486866
 20
-454.7803163771309
 30
0.0
 11
-85.59428514868586
 21
-454.7803163771309
 31
0.0
  0
LINE
  5
1FA
330
1F
100
AcDbEntity
  8
0-0
  6
JWW_DASHED1
 62
   120
370
     5
100
AcDbLine
 10
-658.5942851486866
 20
-441.7803163760308
 30
0.0
 11
-85.59428514868586
 21
-441.7803163760308
 31
0.0
  0
LINE
  5
1FB
330
1F
100
AcDbEntity
  8
0-0
  6
JWW_DASHED1
 62
   120
370
     5
100
AcDbLine
 10
-658.5942851486866
 20
-440.7803163761307
 30
0.0
 11
-85.59428514868586
 21
-440.7803163761307
 31
0.0
  0
LINE
  5
1FC
330
1F
100
AcDbEntity
  8
0-0
  6
JWW_DASHED1
 62
   120
370
     5
100
AcDbLine
 10
-658.5942851486866
 20
-427.7803163750306
 30
0.0
 11
-85.59428514868586
 21
-427.7803163750306
 31
0.0
  0
LINE
  5
1FD
330
1F
100
AcDbEntity
  8
0-0
  6
JWW_DASHED1
 62
   120
370
     5
100
AcDbLine
 10
-658.5942851486866
 20
-426.7803163751308
 30
0.0
 11
-85.59428514868586
 21
-426.7803163751308
 31
0.0
  0
LINE
  5
1FE
330
1F
100
AcDbEntity
  8
0-0
  6
JWW_DASHED1
 62
   120
370
     5
100
AcDbLine
 10
-658.5942851486866
 20
-413.7803163740308
 30
0.0
 11
-85.59428514868586
 21
-413.7803163740308
 31
0.0
  0
LINE
  5
1FF
330
1F
100
AcDbEntity
  8
0-0
  6
JWW_DASHED1
 62
   120
370
     5
100
AcDbLine
 10
-658.5942851486866
 20
-412.7803163741311
 30
0.0
 11
-85.59428514868586
 21
-412.7803163741311
 31
0.0
  0
LINE
  5
200
330
1F
100
AcDbEntity
  8
0-0
  6
JWW_DASHED1
 62
   120
370
     5
100
AcDbLine
 10
-658.5942851486866
 20
-399.780316373031
 30
0.0
 11
-85.59428514868586
 21
-399.780316373031
 31
0.0
  0
LINE
  5
201
330
1F
100
AcDbEntity
  8
0-0
  6
JWW_DASHED1
 62
   120
370
     5
100
AcDbLine
 10
-658.5942851486866
 20
-398.7803163731309
 30
0.0
 11
-85.59428514868586
 21
-398.7803163731309
 31
0.0
  0
LINE
  5
202
330
1F
100
AcDbEntity
  8
0-0
  6
JWW_DASHED1
 62
   120
370
     5
100
AcDbLine
 10
-658.5942851486866
 20
-385.7803163720308
 30
0.0
 11
-85.59428514868586
 21
-385.7803163720308
 31
0.0
  0
LINE
  5
203
330
1F
100
AcDbEntity
  8
0-0
  6
JWW_DASHED1
 62
   120
370
     5
100
AcDbLine
 10
-658.5942851486866
 20
-384.7803163721306
 30
0.0
 11
-85.59428514868586
 21
-384.7803163721306
 31
0.0
  0
LINE
  5
204
330
1F
100
AcDbEntity
  8
0-0
  6
JWW_DASHED1
 62
   120
370
     5
100
AcDbLine
 10
-658.5942851486866
 20
-371.7803163710306
 30
0.0
 11
-85.59428514868586
 21
-371.7803163710306
 31
0.0
  0
LINE
  5
205
330
1F
100
AcDbEntity
  8
0-0
  6
JWW_DASHED1
 62
   120
370
     5
100
AcDbLine
 10
-658.5942851486866
 20
-370.7803163711309
 30
0.0
 11
-85.59428514868586
 21
-370.7803163711309
 31
0.0
  0
LINE
  5
206
330
1F
100
AcDbEntity
  8
0-0
  6
JWW_DASHED1
 62
   120
370
     5
100
AcDbLine
 10
-658.5942851486866
 20
-357.7803163700308
 30
0.0
 11
-85.59428514868586
 21
-357.7803163700308
 31
0.0
  0
LINE
  5
207
330
1F
100
AcDbEntity
  8
0-0
  6
JWW_DASHED1
 62
   120
370
     5
100
AcDbLine
 10
-658.5942851486866
 20
-356.7803163701311
 30
0.0
 11
-85.59428514868586
 21
-356.7803163701311
 31
0.0
  0
LINE
  5
208
330
1F
100
AcDbEntity
  8
0-0
  6
JWW_DASHED1
 62
   120
370
     5
100
AcDbLine
 10
-658.5942851486866
 20
-343.780316369031
 30
0.0
 11
-85.59428514868586
 21
-343.780316369031
 31
0.0
  0
LINE
  5
209
330
1F
100
AcDbEntity
  8
0-0
  6
JWW_DASHED1
 62
   120
370
     5
100
AcDbLine
 10
-658.5942851486866
 20
-342.7803163691308
 30
0.0
 11
-85.59428514868586
 21
-342.7803163691308
 31
0.0
  0
LINE
  5
20A
330
1F
100
AcDbEntity
  8
0-0
  6
JWW_DASHED1
 62
   120
370
     5
100
AcDbLine
 10
-658.5942851486866
 20
-329.7803163680308
 30
0.0
 11
-85.59428514868586
 21
-329.7803163680308
 31
0.0
  0
LINE
  5
20B
330
1F
100
AcDbEntity
  8
0-0
  6
JWW_DASHED1
 62
   120
370
     5
100
AcDbLine
 10
-658.5942851486866
 20
-328.7803163681306
 30
0.0
 11
-85.59428514868586
 21
-328.7803163681306
 31
0.0
  0
LINE
  5
20C
330
1F
100
AcDbEntity
  8
0-0
  6
JWW_DASHED1
 62
   120
370
     5
100
AcDbLine
 10
-658.5942851486866
 20
-315.7803163670306
 30
0.0
 11
-85.59428514868586
 21
-315.7803163670306
 31
0.0
  0
LINE
  5
20D
330
1F
100
AcDbEntity
  8
0-0
  6
JWW_DASHED1
 62
   120
370
     5
100
AcDbLine
 10
-658.5942851486866
 20
-314.7803163671308
 30
0.0
 11
-85.59428514868586
 21
-314.7803163671308
 31
0.0
  0
LINE
  5
20E
330
1F
100
AcDbEntity
  8
0-0
  6
JWW_DASHED1
 62
   120
370
     5
100
AcDbLine
 10
-658.5942851486866
 20
-301.7803163660308
 30
0.0
 11
-85.59428514868586
 21
-301.7803163660308
 31
0.0
  0
LINE
  5
20F
330
1F
100
AcDbEntity
  8
0-0
  6
JWW_DASHED1
 62
   120
370
     5
100
AcDbLine
 10
-658.5942851486866
 20
-300.780316366131
 30
0.0
 11
-85.59428514868586
 21
-300.780316366131
 31
0.0
  0
LINE
  5
210
330
1F
100
AcDbEntity
  8
0-0
  6
JWW_DASHED1
 62
   120
370
     5
100
AcDbLine
 10
-658.5942851486866
 20
-287.780316365031
 30
0.0
 11
-85.59428514868586
 21
-287.780316365031
 31
0.0
  0
LINE
  5
211
330
1F
100
AcDbEntity
  8
0-0
  6
JWW_DASHED1
 62
   120
370
     5
100
AcDbLine
 10
-658.5942851486866
 20
-286.7803163651308
 30
0.0
 11
-85.59428514868586
 21
-286.7803163651308
 31
0.0
  0
LINE
  5
212
330
1F
100
AcDbEntity
  8
0-0
  6
JWW_DASHED1
 62
   120
370
     5
100
AcDbLine
 10
-658.5942851486866
 20
-273.7803163640308
 30
0.0
 11
-85.59428514868586
 21
-273.7803163640308
 31
0.0
  0
LINE
  5
213
330
1F
100
AcDbEntity
  8
0-0
  6
JWW_DASHED1
 62
   120
370
     5
100
AcDbLine
 10
-658.5942851486866
 20
-272.7803163641306
 30
0.0
 11
-85.59428514868586
 21
-272.7803163641306
 31
0.0
  0
LINE
  5
214
330
1F
100
AcDbEntity
  8
0-0
  6
JWW_DASHED1
 62
   120
370
     5
100
AcDbLine
 10
-658.5942851486866
 20
-259.7803163630306
 30
0.0
 11
-85.59428514868586
 21
-259.7803163630306
 31
0.0
  0
LINE
  5
215
330
1F
100
AcDbEntity
  8
0-0
  6
JWW_DASHED1
 62
   120
370
     5
100
AcDbLine
 10
-658.5942851486866
 20
-258.7803163631309
 30
0.0
 11
-85.59428514868586
 21
-258.7803163631309
 31
0.0
  0
LINE
  5
216
330
1F
100
AcDbEntity
  8
0-0
  6
JWW_DASHED1
 62
   120
370
     5
100
AcDbLine
 10
-658.5942851486866
 20
-245.7803163620308
 30
0.0
 11
-85.59428514868586
 21
-245.7803163620308
 31
0.0
  0
LINE
  5
217
330
1F
100
AcDbEntity
  8
0-0
  6
JWW_DASHED1
 62
   120
370
     5
100
AcDbLine
 10
-658.5942851486866
 20
-244.780316362131
 30
0.0
 11
-85.59428514868586
 21
-244.780316362131
 31
0.0
  0
LINE
  5
218
330
1F
100
AcDbEntity
  8
0-0
  6
JWW_DASHED1
 62
   120
370
     5
100
AcDbLine
 10
-658.5942851486866
 20
-231.780316361031
 30
0.0
 11
-85.59428514868586
 21
-231.780316361031
 31
0.0
  0
LINE
  5
219
330
1F
100
AcDbEntity
  8
0-0
  6
JWW_DASHED1
 62
   120
370
     5
100
AcDbLine
 10
-658.5942851486866
 20
-230.7803163611308
 30
0.0
 11
-85.59428514868586
 21
-230.7803163611308
 31
0.0
  0
LINE
  5
21A
330
1F
100
AcDbEntity
  8
0-0
  6
JWW_DASHED1
 62
   120
370
     5
100
AcDbLine
 10
-658.5942851486866
 20
-217.7803163600308
 30
0.0
 11
-85.59428514868586
 21
-217.7803163600308
 31
0.0
  0
LINE
  5
21B
330
1F
100
AcDbEntity
  8
0-0
  6
JWW_DASHED1
 62
   120
370
     5
100
AcDbLine
 10
-658.5942851486866
 20
-216.7803163601306
 30
0.0
 11
-85.59428514868586
 21
-216.7803163601306
 31
0.0
  0
LINE
  5
21C
330
1F
100
AcDbEntity
  8
0-0
  6
JWW_DASHED1
 62
   120
370
     5
100
AcDbLine
 10
-658.5942851486866
 20
-203.7803163590306
 30
0.0
 11
-85.59428514868586
 21
-203.7803163590306
 31
0.0
  0
LINE
  5
21D
330
1F
100
AcDbEntity
  8
0-0
  6
JWW_DASHED1
 62
   120
370
     5
100
AcDbLine
 10
-658.5942851486866
 20
-202.7803163591308
 30
0.0
 11
-85.59428514868586
 21
-202.7803163591308
 31
0.0
  0
LINE
  5
21E
330
1F
100
AcDbEntity
  8
0-0
  6
JWW_DASHED1
 62
   120
370
     5
100
AcDbLine
 10
-658.5942851486866
 20
-189.7803163580308
 30
0.0
 11
-85.59428514868586
 21
-189.7803163580308
 31
0.0
  0
LINE
  5
21F
330
1F
100
AcDbEntity
  8
0-0
  6
JWW_DASHED1
 62
   120
370
     5
100
AcDbLine
 10
-658.5942851486866
 20
-188.780316358131
 30
0.0
 11
-85.59428514868586
 21
-188.780316358131
 31
0.0
  0
LINE
  5
220
330
1F
100
AcDbEntity
  8
0-0
  6
JWW_DASHED1
 62
   120
370
     5
100
AcDbLine
 10
-658.5942851486866
 20
-175.780316357031
 30
0.0
 11
-85.59428514868586
 21
-175.780316357031
 31
0.0
  0
LINE
  5
221
330
1F
100
AcDbEntity
  8
0-0
  6
JWW_DASHED1
 62
   120
370
     5
100
AcDbLine
 10
-658.5942851486866
 20
-174.7803163571308
 30
0.0
 11
-85.59428514868586
 21
-174.7803163571308
 31
0.0
  0
LINE
  5
222
330
1F
100
AcDbEntity
  8
0-0
  6
JWW_DASHED1
 62
   120
370
     5
100
AcDbLine
 10
-658.5942851486866
 20
-161.7803163560308
 30
0.0
 11
-85.59428514868586
 21
-161.7803163560308
 31
0.0
  0
LINE
  5
223
330
1F
100
AcDbEntity
  8
0-0
  6
JWW_DASHED1
 62
   120
370
     5
100
AcDbLine
 10
-658.5942851486866
 20
-160.7803163561306
 30
0.0
 11
-85.59428514868586
 21
-160.7803163561306
 31
0.0
  0
LINE
  5
224
330
1F
100
AcDbEntity
  8
0-0
  6
JWW_DASHED1
 62
   120
370
     5
100
AcDbLine
 10
-658.5942851486866
 20
-147.7803163550305
 30
0.0
 11
-85.59428514868586
 21
-147.7803163550305
 31
0.0
  0
LINE
  5
225
330
1F
100
AcDbEntity
  8
0-0
  6
JWW_DASHED1
 62
   120
370
     5
100
AcDbLine
 10
-658.5942851486866
 20
-146.7803163551308
 30
0.0
 11
-85.59428514868586
 21
-146.7803163551308
 31
0.0
  0
LINE
  5
226
330
1F
100
AcDbEntity
  8
0-0
  6
JWW_DASHED1
 62
   120
370
     5
100
AcDbLine
 10
-658.5942851486866
 20
-133.7803163540308
 30
0.0
 11
-85.59428514868586
 21
-133.7803163540308
 31
0.0
  0
LINE
  5
227
330
1F
100
AcDbEntity
  8
0-0
  6
JWW_DASHED1
 62
   120
370
     5
100
AcDbLine
 10
-658.5942851486866
 20
-132.7803163541306
 30
0.0
 11
-85.59428514868586
 21
-132.7803163541306
 31
0.0
  0
LINE
  5
228
330
1F
100
AcDbEntity
  8
0-0
  6
JWW_DASHED1
 62
   120
370
     5
100
AcDbLine
 10
-658.5942851486866
 20
-119.780316353031
 30
0.0
 11
-85.59428514868586
 21
-119.780316353031
 31
0.0
  0
LINE
  5
229
330
1F
100
AcDbEntity
  8
0-0
  6
JWW_DASHED1
 62
   120
370
     5
100
AcDbLine
 10
-658.5942851486866
 20
-118.7803163531308
 30
0.0
 11
-85.59428514868586
 21
-118.7803163531308
 31
0.0
  0
LINE
  5
22A
330
1F
100
AcDbEntity
  8
0-0
  6
JWW_DASHED1
 62
   120
370
     5
100
AcDbLine
 10
-658.5942851486866
 20
-105.7803163520308
 30
0.0
 11
-85.59428514868586
 21
-105.7803163520308
 31
0.0
  0
LINE
  5
22B
330
1F
100
AcDbEntity
  8
0-0
  6
JWW_DASHED1
 62
   120
370
     5
100
AcDbLine
 10
-658.5942851486866
 20
-104.7803163521306
 30
0.0
 11
-85.59428514868586
 21
-104.7803163521306
 31
0.0
  0
LINE
  5
22C
330
1F
100
AcDbEntity
  8
0-0
  6
JWW_DASHED1
 62
   120
370
     5
100
AcDbLine
 10
-658.5942851486866
 20
-91.78031635103096
 30
0.0
 11
-85.59428514868586
 21
-91.78031635103096
 31
0.0
  0
LINE
  5
22D
330
1F
100
AcDbEntity
  8
0-0
  6
JWW_DASHED1
 62
   120
370
     5
100
AcDbLine
 10
-658.5942851486866
 20
-90.78031635113078
 30
0.0
 11
-85.59428514868586
 21
-90.78031635113078
 31
0.0
  0
LINE
  5
22E
330
1F
100
AcDbEntity
  8
0-0
  6
JWW_DASHED1
 62
   120
370
     5
100
AcDbLine
 10
-658.5942851486866
 20
-77.78031635003074
 30
0.0
 11
-85.59428514868586
 21
-77.78031635003074
 31
0.0
  0
LINE
  5
22F
330
1F
100
AcDbEntity
  8
0-0
  6
JWW_DASHED1
 62
   120
370
     5
100
AcDbLine
 10
-658.5942851486866
 20
-76.78031635013056
 30
0.0
 11
-85.59428514868586
 21
-76.78031635013056
 31
0.0
  0
LINE
  5
230
330
1F
100
AcDbEntity
  8
0-0
  6
JWW_DASHED1
 62
   120
370
     5
100
AcDbLine
 10
-658.5942851486866
 20
-63.78031634903095
 30
0.0
 11
-85.59428514868586
 21
-63.78031634903095
 31
0.0
  0
LINE
  5
231
330
1F
100
AcDbEntity
  8
0-0
  6
JWW_DASHED1
 62
   120
370
     5
100
AcDbLine
 10
-658.5942851486866
 20
-62.78031634913077
 30
0.0
 11
-85.59428514868586
 21
-62.78031634913077
 31
0.0
  0
LINE
  5
232
330
1F
100
AcDbEntity
  8
0-0
  6
JWW_DASHED1
 62
   120
370
     5
100
AcDbLine
 10
-658.5942851486866
 20
-49.78031634803074
 30
0.0
 11
-85.59428514868586
 21
-49.78031634803074
 31
0.0
  0
LINE
  5
233
330
1F
100
AcDbEntity
  8
0-0
  6
JWW_DASHED1
 62
   120
370
     5
100
AcDbLine
 10
-658.5942851486866
 20
-48.78031634813055
 30
0.0
 11
-85.59428514868586
 21
-48.78031634813055
 31
0.0
  0
LINE
  5
234
330
1F
100
AcDbEntity
  8
0-0
  6
JWW_DASHED1
 62
   120
370
     5
100
AcDbLine
 10
-658.5942851486866
 20
-35.78031634703095
 30
0.0
 11
-85.59428514868586
 21
-35.78031634703095
 31
0.0
  0
LINE
  5
235
330
1F
100
AcDbEntity
  8
0-0
  6
JWW_DASHED1
 62
   120
370
     5
100
AcDbLine
 10
-658.5942851486866
 20
-34.78031634713076
 30
0.0
 11
-85.59428514868586
 21
-34.78031634713076
 31
0.0
  0
LINE
  5
236
330
1F
100
AcDbEntity
  8
0-0
  6
JWW_DASHED1
 62
   120
370
     5
100
AcDbLine
 10
-658.5942851486866
 20
-21.78031634603073
 30
0.0
 11
-85.59428514868586
 21
-21.78031634603073
 31
0.0
  0
LINE
  5
237
330
1F
100
AcDbEntity
  8
0-0
  6
JWW_DASHED1
 62
   120
370
     5
100
AcDbLine
 10
-658.5942851486866
 20
-20.78031634613055
 30
0.0
 11
-85.59428514868586
 21
-20.78031634613055
 31
0.0
  0
LINE
  5
238
330
1F
100
AcDbEntity
  8
0-0
  6
JWW_DASHED1
 62
   120
370
     5
100
AcDbLine
 10
-658.5942851486866
 20
-7.78031634503094
 30
0.0
 11
-85.59428514868586
 21
-7.78031634503094
 31
0.0
  0
LINE
  5
239
330
1F
100
AcDbEntity
  8
0-0
  6
JWW_DASHED1
 62
   120
370
     5
100
AcDbLine
 10
-658.5942851486866
 20
-6.780316345130757
 30
0.0
 11
-85.59428514868586
 21
-6.780316345130757
 31
0.0
  0
LINE
  5
23A
330
1F
100
AcDbEntity
  8
0-0
  6
JWW_DASHED1
 62
   120
370
     5
100
AcDbLine
 10
-658.5942851486866
 20
6.219683655969277
 30
0.0
 11
-85.59428514868586
 21
6.219683655969277
 31
0.0
  0
LINE
  5
23B
330
1F
100
AcDbEntity
  8
0-0
  6
JWW_DASHED1
 62
   120
370
     5
100
AcDbLine
 10
-658.5942851486866
 20
7.21968365586946
 30
0.0
 11
-85.59428514868586
 21
7.21968365586946
 31
0.0
  0
LINE
  5
23C
330
1F
100
AcDbEntity
  8
0-0
  6
JWW_DASHED1
 62
   120
370
     5
100
AcDbLine
 10
-658.5942851486866
 20
20.21968365696907
 30
0.0
 11
-85.59428514868586
 21
20.21968365696907
 31
0.0
  0
LINE
  5
23D
330
1F
100
AcDbEntity
  8
0-0
  6
JWW_DASHED1
 62
   120
370
     5
100
AcDbLine
 10
-658.5942851486866
 20
21.21968365686925
 30
0.0
 11
-85.59428514868586
 21
21.21968365686925
 31
0.0
  0
LINE
  5
23E
330
1F
100
AcDbEntity
  8
0-0
  6
JWW_DASHED1
 62
   120
370
     5
100
AcDbLine
 10
-658.5942851486866
 20
34.21968365796928
 30
0.0
 11
-85.59428514868586
 21
34.21968365796928
 31
0.0
  0
LINE
  5
23F
330
1F
100
AcDbEntity
  8
0-0
  6
JWW_DASHED1
 62
   120
370
     5
100
AcDbLine
 10
-658.5942851486866
 20
35.21968365786947
 30
0.0
 11
-85.59428514868586
 21
35.21968365786947
 31
0.0
  0
LINE
  5
240
330
1F
100
AcDbEntity
  8
0-0
  6
JWW_DASHED1
 62
   120
370
     5
100
AcDbLine
 10
-658.5942851486866
 20
48.21968365896907
 30
0.0
 11
-85.59428514868586
 21
48.21968365896907
 31
0.0
  0
LINE
  5
241
330
1F
100
AcDbEntity
  8
0-0
  6
JWW_DASHED1
 62
   120
370
     5
100
AcDbLine
 10
-658.5942851486866
 20
49.21968365886926
 30
0.0
 11
-85.59428514868586
 21
49.21968365886926
 31
0.0
  0
LINE
  5
242
330
1F
100
AcDbEntity
  8
0-0
  6
JWW_DASHED1
 62
   120
370
     5
100
AcDbLine
 10
-658.5942851486866
 20
62.21968365996929
 30
0.0
 11
-85.59428514868586
 21
62.21968365996929
 31
0.0
  0
LINE
  5
243
330
1F
100
AcDbEntity
  8
0-0
  6
JWW_DASHED1
 62
   120
370
     5
100
AcDbLine
 10
-658.5942851486866
 20
63.21968365986947
 30
0.0
 11
-85.59428514868586
 21
63.21968365986947
 31
0.0
  0
LINE
  5
244
330
1F
100
AcDbEntity
  8
0-0
  6
JWW_DASHED1
 62
   120
370
     5
100
AcDbLine
 10
-658.5942851486866
 20
76.21968366096908
 30
0.0
 11
-85.59428514868586
 21
76.21968366096908
 31
0.0
  0
LINE
  5
245
330
1F
100
AcDbEntity
  8
0-0
  6
JWW_DASHED1
 62
   120
370
     5
100
AcDbLine
 10
-658.5942851486866
 20
77.21968366086926
 30
0.0
 11
-85.59428514868586
 21
77.21968366086926
 31
0.0
  0
LINE
  5
246
330
1F
100
AcDbEntity
  8
0-0
  6
JWW_DASHED1
 62
   120
370
     5
100
AcDbLine
 10
-658.5942851486866
 20
90.2196836619693
 30
0.0
 11
-85.59428514868586
 21
90.2196836619693
 31
0.0
  0
LINE
  5
247
330
1F
100
AcDbEntity
  8
0-0
  6
JWW_DASHED1
 62
   120
370
     5
100
AcDbLine
 10
-658.5942851486866
 20
91.21968366186948
 30
0.0
 11
-85.59428514868586
 21
91.21968366186948
 31
0.0
  0
LINE
  5
248
330
1F
100
AcDbEntity
  8
0-0
  6
JWW_DASHED1
 62
   120
370
     5
100
AcDbLine
 10
-658.5942851486866
 20
104.2196836629691
 30
0.0
 11
-85.59428514868586
 21
104.2196836629691
 31
0.0
  0
LINE
  5
249
330
1F
100
AcDbEntity
  8
0-0
  6
JWW_DASHED1
 62
   120
370
     5
100
AcDbLine
 10
-658.5942851486866
 20
105.2196836628693
 30
0.0
 11
-85.59428514868586
 21
105.2196836628693
 31
0.0
  0
LINE
  5
24A
330
1F
100
AcDbEntity
  8
0-0
  6
JWW_DASHED1
 62
   120
370
     5
100
AcDbLine
 10
-658.5942851486866
 20
118.2196836639693
 30
0.0
 11
-85.59428514868586
 21
118.2196836639693
 31
0.0
  0
LINE
  5
24B
330
1F
100
AcDbEntity
  8
0-0
  6
JWW_DASHED1
 62
   120
370
     5
100
AcDbLine
 10
-658.5942851486866
 20
119.2196836638695
 30
0.0
 11
-85.59428514868586
 21
119.2196836638695
 31
0.0
  0
LINE
  5
24C
330
1F
100
AcDbEntity
  8
0-0
  6
JWW_DASHED1
 62
   120
370
     5
100
AcDbLine
 10
-658.5942851486866
 20
132.2196836649691
 30
0.0
 11
-85.59428514868586
 21
132.2196836649691
 31
0.0
  0
LINE
  5
24D
330
1F
100
AcDbEntity
  8
0-0
  6
JWW_DASHED1
 62
   120
370
     5
100
AcDbLine
 10
-658.5942851486866
 20
133.2196836648693
 30
0.0
 11
-85.59428514868586
 21
133.2196836648693
 31
0.0
  0
LINE
  5
24E
330
1F
100
AcDbEntity
  8
0-0
  6
JWW_DASHED1
 62
   120
370
     5
100
AcDbLine
 10
-658.5942851486866
 20
146.2196836659693
 30
0.0
 11
-85.59428514868586
 21
146.2196836659693
 31
0.0
  0
LINE
  5
24F
330
1F
100
AcDbEntity
  8
0-0
  6
JWW_DASHED1
 62
   120
370
     5
100
AcDbLine
 10
-658.5942851486866
 20
147.2196836658695
 30
0.0
 11
-85.59428514868586
 21
147.2196836658695
 31
0.0
  0
LINE
  5
250
330
1F
100
AcDbEntity
  8
0-0
  6
JWW_DASHED1
 62
   120
370
     5
100
AcDbLine
 10
-658.5942851486866
 20
160.2196836669691
 30
0.0
 11
-85.59428514868586
 21
160.2196836669691
 31
0.0
  0
LINE
  5
251
330
1F
100
AcDbEntity
  8
0-0
  6
JWW_DASHED1
 62
   120
370
     5
100
AcDbLine
 10
-658.5942851486866
 20
161.2196836668693
 30
0.0
 11
-85.59428514868586
 21
161.2196836668693
 31
0.0
  0
LINE
  5
252
330
1F
100
AcDbEntity
  8
0-0
  6
JWW_DASHED1
 62
   120
370
     5
100
AcDbLine
 10
-658.5942851486866
 20
174.2196836679693
 30
0.0
 11
-85.59428514868586
 21
174.2196836679693
 31
0.0
  0
LINE
  5
253
330
1F
100
AcDbEntity
  8
0-0
  6
JWW_DASHED1
 62
   120
370
     5
100
AcDbLine
 10
-658.5942851486866
 20
175.2196836678695
 30
0.0
 11
-85.59428514868586
 21
175.2196836678695
 31
0.0
  0
LINE
  5
254
330
1F
100
AcDbEntity
  8
0-0
  6
JWW_DASHED1
 62
   120
370
     5
100
AcDbLine
 10
-658.5942851486866
 20
188.2196836689691
 30
0.0
 11
-85.59428514868586
 21
188.2196836689691
 31
0.0
  0
LINE
  5
255
330
1F
100
AcDbEntity
  8
0-0
  6
JWW_DASHED1
 62
   120
370
     5
100
AcDbLine
 10
-658.5942851486866
 20
189.2196836688693
 30
0.0
 11
-85.59428514868586
 21
189.2196836688693
 31
0.0
  0
LINE
  5
256
330
1F
100
AcDbEntity
  8
0-0
  6
JWW_DASHED1
 62
   120
370
     5
100
AcDbLine
 10
-658.5942851486866
 20
202.2196836699693
 30
0.0
 11
-85.59428514868586
 21
202.2196836699693
 31
0.0
  0
LINE
  5
257
330
1F
100
AcDbEntity
  8
0-0
  6
JWW_DASHED1
 62
   120
370
     5
100
AcDbLine
 10
-658.5942851486866
 20
203.2196836698691
 30
0.0
 11
-85.59428514868586
 21
203.2196836698691
 31
0.0
  0
LINE
  5
258
330
1F
100
AcDbEntity
  8
0-0
  6
JWW_DASHED1
 62
   120
370
     5
100
AcDbLine
 10
-658.5942851486866
 20
216.2196836709691
 30
0.0
 11
-85.59428514868586
 21
216.2196836709691
 31
0.0
  0
LINE
  5
259
330
1F
100
AcDbEntity
  8
0-0
  6
JWW_DASHED1
 62
   120
370
     5
100
AcDbLine
 10
-658.5942851486866
 20
217.2196836708693
 30
0.0
 11
-85.59428514868586
 21
217.2196836708693
 31
0.0
  0
LINE
  5
25A
330
1F
100
AcDbEntity
  8
0-0
  6
JWW_DASHED1
 62
   120
370
     5
100
AcDbLine
 10
-658.5942851486866
 20
230.2196836719693
 30
0.0
 11
-85.59428514868586
 21
230.2196836719693
 31
0.0
  0
LINE
  5
25B
330
1F
100
AcDbEntity
  8
0-0
  6
JWW_DASHED1
 62
   120
370
     5
100
AcDbLine
 10
-658.5942851486866
 20
231.2196836718695
 30
0.0
 11
-85.59428514868586
 21
231.2196836718695
 31
0.0
  0
LINE
  5
25C
330
1F
100
AcDbEntity
  8
0-0
  6
JWW_DASHED1
 62
   120
370
     5
100
AcDbLine
 10
-658.5942851486866
 20
244.2196836729691
 30
0.0
 11
-85.59428514868586
 21
244.2196836729691
 31
0.0
  0
LINE
  5
25D
330
1F
100
AcDbEntity
  8
0-0
  6
JWW_DASHED1
 62
   120
370
     5
100
AcDbLine
 10
-658.5942851486866
 20
245.2196836728693
 30
0.0
 11
-85.59428514868586
 21
245.2196836728693
 31
0.0
  0
LINE
  5
25E
330
1F
100
AcDbEntity
  8
0-0
  6
JWW_DASHED1
 62
   120
370
     5
100
AcDbLine
 10
-658.5942851486866
 20
258.2196836739694
 30
0.0
 11
-85.59428514868586
 21
258.2196836739694
 31
0.0
  0
LINE
  5
25F
330
1F
100
AcDbEntity
  8
0-0
  6
JWW_DASHED1
 62
   120
370
     5
100
AcDbLine
 10
-658.5942851486866
 20
259.2196836738691
 30
0.0
 11
-85.59428514868586
 21
259.2196836738691
 31
0.0
  0
LINE
  5
260
330
1F
100
AcDbEntity
  8
0-0
  6
JWW_DASHED1
 62
   120
370
     5
100
AcDbLine
 10
-658.5942851486866
 20
272.2196836749691
 30
0.0
 11
-85.59428514868586
 21
272.2196836749691
 31
0.0
  0
LINE
  5
261
330
1F
100
AcDbEntity
  8
0-0
  6
JWW_DASHED1
 62
   120
370
     5
100
AcDbLine
 10
-658.5942851486866
 20
273.2196836748693
 30
0.0
 11
-85.59428514868586
 21
273.2196836748693
 31
0.0
  0
LINE
  5
262
330
1F
100
AcDbEntity
  8
0-0
  6
JWW_DASHED1
 62
   120
370
     5
100
AcDbLine
 10
-658.5942851486866
 20
286.2196836759693
 30
0.0
 11
-85.59428514868586
 21
286.2196836759693
 31
0.0
  0
LINE
  5
263
330
1F
100
AcDbEntity
  8
0-0
  6
JWW_DASHED1
 62
   120
370
     5
100
AcDbLine
 10
-658.5942851486866
 20
287.2196836758695
 30
0.0
 11
-85.59428514868586
 21
287.2196836758695
 31
0.0
  0
LINE
  5
264
330
1F
100
AcDbEntity
  8
0-0
  6
JWW_DASHED1
 62
   120
370
     5
100
AcDbLine
 10
-658.5942851486866
 20
300.2196836769691
 30
0.0
 11
-85.59428514868586
 21
300.2196836769691
 31
0.0
  0
LINE
  5
265
330
1F
100
AcDbEntity
  8
0-0
  6
JWW_DASHED1
 62
   120
370
     5
100
AcDbLine
 10
-658.5942851486866
 20
301.2196836768693
 30
0.0
 11
-85.59428514868586
 21
301.2196836768693
 31
0.0
  0
LINE
  5
266
330
1F
100
AcDbEntity
  8
0-0
  6
JWW_DASHED1
 62
   120
370
     5
100
AcDbLine
 10
-658.5942851486866
 20
314.2196836779693
 30
0.0
 11
-85.59428514868586
 21
314.2196836779693
 31
0.0
  0
LINE
  5
267
330
1F
100
AcDbEntity
  8
0-0
  6
JWW_DASHED1
 62
   120
370
     5
100
AcDbLine
 10
-658.5942851486866
 20
315.2196836778691
 30
0.0
 11
-85.59428514868586
 21
315.2196836778691
 31
0.0
  0
LINE
  5
268
330
1F
100
AcDbEntity
  8
0-0
  6
JWW_DASHED1
 62
   120
370
     5
100
AcDbLine
 10
-658.5942851486866
 20
328.2196836789691
 30
0.0
 11
-85.59428514868586
 21
328.2196836789691
 31
0.0
  0
LINE
  5
269
330
1F
100
AcDbEntity
  8
0-0
  6
JWW_DASHED1
 62
   120
370
     5
100
AcDbLine
 10
-658.5942851486866
 20
329.2196836788693
 30
0.0
 11
-85.59428514868586
 21
329.2196836788693
 31
0.0
  0
LINE
  5
26A
330
1F
100
AcDbEntity
  8
0-0
  6
JWW_DASHED1
 62
   120
370
     5
100
AcDbLine
 10
-658.5942851486866
 20
342.2196836799694
 30
0.0
 11
-85.59428514868586
 21
342.2196836799694
 31
0.0
  0
LINE
  5
26B
330
1F
100
AcDbEntity
  8
0-0
  6
JWW_DASHED1
 62
   120
370
     5
100
AcDbLine
 10
-658.5942851486866
 20
343.2196836798695
 30
0.0
 11
-85.59428514868586
 21
343.2196836798695
 31
0.0
  0
LINE
  5
26C
330
1F
100
AcDbEntity
  8
0-0
  6
JWW_DASHED1
 62
   120
370
     5
100
AcDbLine
 10
-658.5942851486866
 20
356.2196836809692
 30
0.0
 11
-85.59428514868586
 21
356.2196836809692
 31
0.0
  0
LINE
  5
26D
330
1F
100
AcDbEntity
  8
0-0
  6
JWW_DASHED1
 62
   120
370
     5
100
AcDbLine
 10
-658.5942851486866
 20
357.2196836808694
 30
0.0
 11
-85.59428514868586
 21
357.2196836808694
 31
0.0
  0
LINE
  5
26E
330
1F
100
AcDbEntity
  8
0-0
  6
JWW_DASHED1
 62
   120
370
     5
100
AcDbLine
 10
-658.5942851486866
 20
370.2196836819694
 30
0.0
 11
-85.59428514868586
 21
370.2196836819694
 31
0.0
  0
LINE
  5
26F
330
1F
100
AcDbEntity
  8
0-0
  6
JWW_DASHED1
 62
   120
370
     5
100
AcDbLine
 10
-658.5942851486866
 20
371.2196836818691
 30
0.0
 11
-85.59428514868586
 21
371.2196836818691
 31
0.0
  0
LINE
  5
270
330
1F
100
AcDbEntity
  8
0-0
  6
JWW_DASHED1
 62
   120
370
     5
100
AcDbLine
 10
-658.5942851486866
 20
384.2196836829692
 30
0.0
 11
-85.59428514868586
 21
384.2196836829692
 31
0.0
  0
LINE
  5
271
330
1F
100
AcDbEntity
  8
0-0
  6
JWW_DASHED1
 62
   120
370
     5
100
AcDbLine
 10
-658.5942851486866
 20
385.2196836828693
 30
0.0
 11
-85.59428514868586
 21
385.2196836828693
 31
0.0
  0
LINE
  5
272
330
1F
100
AcDbEntity
  8
0-0
  6
JWW_DASHED1
 62
   120
370
     5
100
AcDbLine
 10
-658.5942851486866
 20
398.2196836839694
 30
0.0
 11
-85.59428514868586
 21
398.2196836839694
 31
0.0
  0
LINE
  5
273
330
1F
100
AcDbEntity
  8
0-0
  6
JWW_DASHED1
 62
   120
370
     5
100
AcDbLine
 10
-658.5942851486866
 20
399.2196836838691
 30
0.0
 11
-85.59428514868586
 21
399.2196836838691
 31
0.0
  0
LINE
  5
274
330
1F
100
AcDbEntity
  8
0-0
  6
JWW_DASHED1
 62
   120
370
     5
100
AcDbLine
 10
-658.5942851486866
 20
412.2196836849691
 30
0.0
 11
-85.59428514868586
 21
412.2196836849691
 31
0.0
  0
LINE
  5
275
330
1F
100
AcDbEntity
  8
0-0
  6
JWW_DASHED1
 62
   120
370
     5
100
AcDbLine
 10
-658.5942851486866
 20
413.2196836848693
 30
0.0
 11
-85.59428514868586
 21
413.2196836848693
 31
0.0
  0
LINE
  5
276
330
1F
100
AcDbEntity
  8
0-0
  6
JWW_DASHED1
 62
   120
370
     5
100
AcDbLine
 10
-658.5942851486866
 20
426.2196836859694
 30
0.0
 11
-85.59428514868586
 21
426.2196836859694
 31
0.0
  0
LINE
  5
277
330
1F
100
AcDbEntity
  8
0-0
  6
JWW_DASHED1
 62
   120
370
     5
100
AcDbLine
 10
-658.5942851486866
 20
427.2196836858691
 30
0.0
 11
-85.59428514868586
 21
427.2196836858691
 31
0.0
  0
LINE
  5
278
330
1F
100
AcDbEntity
  8
0-0
  6
JWW_DASHED1
 62
   120
370
     5
100
AcDbLine
 10
-658.5942851486866
 20
440.2196836869692
 30
0.0
 11
-85.59428514868586
 21
440.2196836869692
 31
0.0
  0
LINE
  5
279
330
1F
100
AcDbEntity
  8
0-0
  6
JWW_DASHED1
 62
   120
370
     5
100
AcDbLine
 10
-658.5942851486866
 20
441.2196836868694
 30
0.0
 11
-85.59428514868586
 21
441.2196836868694
 31
0.0
  0
LINE
  5
27A
330
1F
100
AcDbEntity
  8
0-0
  6
JWW_DASHED1
 62
   120
370
     5
100
AcDbLine
 10
-658.5942851486866
 20
454.2196836879694
 30
0.0
 11
-85.59428514868586
 21
454.2196836879694
 31
0.0
  0
LINE
  5
27B
330
1F
100
AcDbEntity
  8
0-0
  6
JWW_DASHED1
 62
   120
370
     5
100
AcDbLine
 10
-658.5942851486866
 20
455.2196836878692
 30
0.0
 11
-85.59428514868586
 21
455.2196836878692
 31
0.0
  0
LINE
  5
27C
330
1F
100
AcDbEntity
  8
0-0
  6
JWW_DASHED1
 62
   120
370
     5
100
AcDbLine
 10
-658.5942851486866
 20
468.2196836889692
 30
0.0
 11
-85.59428514868586
 21
468.2196836889692
 31
0.0
  0
LINE
  5
27D
330
1F
100
AcDbEntity
  8
0-0
  6
JWW_DASHED1
 62
   120
370
     5
100
AcDbLine
 10
-658.5942851486866
 20
469.2196836888694
 30
0.0
 11
-85.59428514868586
 21
469.2196836888694
 31
0.0
  0
LINE
  5
27E
330
1F
100
AcDbEntity
  8
0-0
  6
JWW_DASHED1
 62
   120
370
     5
100
AcDbLine
 10
-658.5942851486866
 20
482.2196836899694
 30
0.0
 11
-85.59428514868586
 21
482.2196836899694
 31
0.0
  0
LINE
  5
27F
330
1F
100
AcDbEntity
  8
0-0
  6
JWW_DASHED1
 62
   120
370
     5
100
AcDbLine
 10
-658.5942851486866
 20
483.2196836898692
 30
0.0
 11
-85.59428514868586
 21
483.2196836898692
 31
0.0
  0
LINE
  5
280
330
1F
100
AcDbEntity
  8
0-0
  6
JWW_DASHED1
 62
   120
370
     5
100
AcDbLine
 10
-658.5942851486866
 20
496.2196836909692
 30
0.0
 11
-85.59428514868586
 21
496.2196836909692
 31
0.0
  0
LINE
  5
281
330
1F
100
AcDbEntity
  8
0-0
  6
JWW_DASHED1
 62
   120
370
     5
100
AcDbLine
 10
-658.5942851486866
 20
497.2196836908694
 30
0.0
 11
-85.59428514868586
 21
497.2196836908694
 31
0.0
  0
LINE
  5
282
330
1F
100
AcDbEntity
  8
0-0
  6
JWW_DASHED1
 62
   120
370
     5
100
AcDbLine
 10
-658.5942851486866
 20
510.2196836919694
 30
0.0
 11
-85.59428514868586
 21
510.2196836919694
 31
0.0
  0
LINE
  5
283
330
1F
100
AcDbEntity
  8
0-0
  6
JWW_DASHED1
 62
   120
370
     5
100
AcDbLine
 10
-658.5942851486866
 20
511.2196836918691
 30
0.0
 11
-85.59428514868586
 21
511.2196836918691
 31
0.0
  0
LINE
  5
284
330
1F
100
AcDbEntity
  8
0-0
  6
JWW_DASHED1
 62
   120
370
     5
100
AcDbLine
 10
-658.5942851486866
 20
524.2196836929692
 30
0.0
 11
-85.59428514868586
 21
524.2196836929692
 31
0.0
  0
LINE
  5
285
330
1F
100
AcDbEntity
  8
0-0
  6
JWW_DASHED1
 62
   120
370
     5
100
AcDbLine
 10
-658.5942851486866
 20
525.2196836928694
 30
0.0
 11
-85.59428514868586
 21
525.2196836928694
 31
0.0
  0
LINE
  5
286
330
1F
100
AcDbEntity
  8
0-0
  6
JWW_DASHED1
 62
   120
370
     5
100
AcDbLine
 10
-658.5942851486866
 20
538.2196836939694
 30
0.0
 11
-85.59428514868586
 21
538.2196836939694
 31
0.0
  0
LINE
  5
287
330
1F
100
AcDbEntity
  8
0-0
  6
JWW_DASHED1
 62
   120
370
     5
100
AcDbLine
 10
-658.5942851486866
 20
539.2196836938692
 30
0.0
 11
-85.59428514868586
 21
539.2196836938692
 31
0.0
  0
LINE
  5
288
330
1F
100
AcDbEntity
  8
0-0
  6
JWW_DASHED1
 62
   120
370
     5
100
AcDbLine
 10
-658.5942851486866
 20
552.2196836949693
 30
0.0
 11
-85.59428514868586
 21
552.2196836949693
 31
0.0
  0
LINE
  5
289
330
1F
100
AcDbEntity
  8
0-0
  6
JWW_DASHED1
 62
   120
370
     5
100
AcDbLine
 10
-658.5942851486866
 20
553.2196836948694
 30
0.0
 11
-85.59428514868586
 21
553.2196836948694
 31
0.0
  0
LINE
  5
28A
330
1F
100
AcDbEntity
  8
0-0
  6
JWW_DASHED1
 62
   120
370
     5
100
AcDbLine
 10
-658.5942851486866
 20
566.2196836959695
 30
0.0
 11
-85.59428514868586
 21
566.2196836959695
 31
0.0
  0
LINE
  5
28B
330
1F
100
AcDbEntity
  8
0-0
  6
JWW_DASHED1
 62
   120
370
     5
100
AcDbLine
 10
-658.5942851486866
 20
567.2196836958692
 30
0.0
 11
-85.59428514868586
 21
567.2196836958692
 31
0.0
  0
LINE
  5
28C
330
1F
100
AcDbEntity
  8
0-0
  6
JWW_DASHED1
 62
   120
370
     5
100
AcDbLine
 10
-658.5942851486866
 20
580.2196836969692
 30
0.0
 11
-85.59428514868586
 21
580.2196836969692
 31
0.0
  0
LINE
  5
28D
330
1F
100
AcDbEntity
  8
0-0
  6
JWW_DASHED1
 62
   120
370
     5
100
AcDbLine
 10
-658.5942851486866
 20
581.2196836968694
 30
0.0
 11
-85.59428514868586
 21
581.2196836968694
 31
0.0
  0
LINE
  5
28E
330
1F
100
AcDbEntity
  8
0-0
  6
JWW_DASHED1
 62
   120
370
     5
100
AcDbLine
 10
-658.5942851486866
 20
594.2196836979695
 30
0.0
 11
-85.59428514868586
 21
594.2196836979695
 31
0.0
  0
LINE
  5
28F
330
1F
100
AcDbEntity
  8
0-0
  6
JWW_DASHED1
 62
   120
370
     5
100
AcDbLine
 10
-658.5942851486866
 20
595.2196836978692
 30
0.0
 11
-85.59428514868586
 21
595.2196836978692
 31
0.0
  0
LINE
  5
290
330
1F
100
AcDbEntity
  8
0-0
  6
JWW_DASHED1
 62
   120
370
     5
100
AcDbLine
 10
-658.5942851486866
 20
608.2196836989692
 30
0.0
 11
-85.59428514868586
 21
608.2196836989692
 31
0.0
  0
LINE
  5
291
330
1F
100
AcDbEntity
  8
0-0
  6
JWW_DASHED1
 62
   120
370
     5
100
AcDbLine
 10
-658.5942851486866
 20
609.2196836988694
 30
0.0
 11
-85.59428514868586
 21
609.2196836988694
 31
0.0
  0
LINE
  5
292
330
1F
100
AcDbEntity
  8
0-0
  6
JWW_DASHED1
 62
   120
370
     5
100
AcDbLine
 10
-658.5942851486866
 20
622.2196836999694
 30
0.0
 11
-85.59428514868586
 21
622.2196836999694
 31
0.0
  0
LINE
  5
293
330
1F
100
AcDbEntity
  8
0-0
  6
JWW_DASHED1
 62
   120
370
     5
100
AcDbLine
 10
-658.5942851486866
 20
623.2196836998692
 30
0.0
 11
-85.59428514868586
 21
623.2196836998692
 31
0.0
  0
LINE
  5
294
330
1F
100
AcDbEntity
  8
0-0
  6
JWW_DASHED1
 62
   120
370
     5
100
AcDbLine
 10
-658.5942851486866
 20
636.2196837009692
 30
0.0
 11
-85.59428514868586
 21
636.2196837009692
 31
0.0
  0
LINE
  5
295
330
1F
100
AcDbEntity
  8
0-0
  6
JWW_DASHED1
 62
   120
370
     5
100
AcDbLine
 10
-658.5942851486866
 20
637.2196837008694
 30
0.0
 11
-85.59428514868586
 21
637.2196837008694
 31
0.0
  0
LINE
  5
296
330
1F
100
AcDbEntity
  8
0-0
  6
JWW_DASHED1
 62
   120
370
     5
100
AcDbLine
 10
-658.5942851486866
 20
650.2196837019694
 30
0.0
 11
-85.59428514868586
 21
650.2196837019694
 31
0.0
  0
LINE
  5
297
330
1F
100
AcDbEntity
  8
0-0
  6
JWW_DASHED1
 62
   120
370
     5
100
AcDbLine
 10
-658.5942851486866
 20
651.2196837018691
 30
0.0
 11
-85.59428514868586
 21
651.2196837018691
 31
0.0
  0
LINE
  5
298
330
1F
100
AcDbEntity
  8
0-0
  6
JWW_DASHED1
 62
   120
370
     5
100
AcDbLine
 10
-658.5942851486866
 20
664.2196837029692
 30
0.0
 11
-85.59428514868586
 21
664.2196837029692
 31
0.0
  0
LINE
  5
299
330
1F
100
AcDbEntity
  8
0-0
  6
JWW_DASHED1
 62
   120
370
     5
100
AcDbLine
 10
-658.5942851486866
 20
665.2196837028694
 30
0.0
 11
-85.59428514868586
 21
665.2196837028694
 31
0.0
  0
LINE
  5
29A
330
1F
100
AcDbEntity
  8
0-0
  6
JWW_DASHED1
 62
   120
370
     5
100
AcDbLine
 10
-658.5942851486866
 20
678.2196837039694
 30
0.0
 11
-85.59428514868586
 21
678.2196837039694
 31
0.0
  0
LINE
  5
29B
330
1F
100
AcDbEntity
  8
0-0
  6
JWW_DASHED1
 62
   120
370
     5
100
AcDbLine
 10
-658.5942851486866
 20
679.2196837038692
 30
0.0
 11
-85.59428514868586
 21
679.2196837038692
 31
0.0
  0
LINE
  5
29C
330
1F
100
AcDbEntity
  8
0-0
  6
JWW_DASHED1
 62
   120
370
     5
100
AcDbLine
 10
-658.5942851486866
 20
692.2196837049693
 30
0.0
 11
-85.59428514868586
 21
692.2196837049693
 31
0.0
  0
LINE
  5
29D
330
1F
100
AcDbEntity
  8
0-0
  6
JWW_DASHED1
 62
   120
370
     5
100
AcDbLine
 10
-658.5942851486866
 20
693.2196837048695
 30
0.0
 11
-85.59428514868586
 21
693.2196837048695
 31
0.0
  0
LINE
  5
29E
330
1F
100
AcDbEntity
  8
0-0
  6
JWW_DASHED1
 62
   120
370
     5
100
AcDbLine
 10
-658.5942851486866
 20
706.2196837059695
 30
0.0
 11
-85.59428514868586
 21
706.2196837059695
 31
0.0
  0
LINE
  5
29F
330
1F
100
AcDbEntity
  8
0-0
  6
JWW_DASHED1
 62
   120
370
     5
100
AcDbLine
 10
-658.5942851486866
 20
707.2196837058692
 30
0.0
 11
-85.59428514868586
 21
707.2196837058692
 31
0.0
  0
LINE
  5
2A0
330
1F
100
AcDbEntity
  8
0-0
  6
JWW_DASHED1
 62
   120
370
     5
100
AcDbLine
 10
-658.5942851486866
 20
720.2196837069692
 30
0.0
 11
-85.59428514868586
 21
720.2196837069692
 31
0.0
  0
LINE
  5
2A1
330
1F
100
AcDbEntity
  8
0-0
  6
JWW_DASHED1
 62
   120
370
     5
100
AcDbLine
 10
-658.5942851486866
 20
721.2196837068694
 30
0.0
 11
-85.59428514868586
 21
721.2196837068694
 31
0.0
  0
LINE
  5
2A2
330
1F
100
AcDbEntity
  8
0-0
  6
JWW_DASHED1
 62
   120
370
     5
100
AcDbLine
 10
-579.731340464054
 20
734.2196837079695
 30
0.0
 11
-164.4572298333192
 21
734.2196837079695
 31
0.0
  0
LINE
  5
2A3
330
1F
100
AcDbEntity
  8
0-0
  6
JWW_DASHED1
 62
   120
370
     5
100
AcDbLine
 10
-575.1717537228747
 20
735.2196837078692
 30
0.0
 11
-169.0168165744986
 21
735.2196837078692
 31
0.0
  0
LINE
  5
2A4
330
1F
100
AcDbEntity
  8
0-0
  6
JWW_DASHED1
 62
   120
370
     5
100
AcDbLine
 10
-540.2199934468395
 20
748.2196837089692
 30
0.0
 11
-203.9685768505338
 21
748.2196837089692
 31
0.0
  0
LINE
  5
2A5
330
1F
100
AcDbEntity
  8
0-0
  6
JWW_DASHED1
 62
   120
370
     5
100
AcDbLine
 10
-538.3353221260763
 20
749.2196837088694
 30
0.0
 11
-205.8532481712969
 21
749.2196837088694
 31
0.0
  0
LINE
  5
2A6
330
1F
100
AcDbEntity
  8
0-0
  6
JWW_DASHED1
 62
   120
370
     5
100
AcDbLine
 10
-511.5901125110026
 20
762.2196837099694
 30
0.0
 11
-232.5984577863706
 21
762.2196837099694
 31
0.0
  0
LINE
  5
2A7
330
1F
100
AcDbEntity
  8
0-0
  6
JWW_DASHED1
 62
   120
370
     5
100
AcDbLine
 10
-509.2660246543887
 20
763.2196837098693
 30
0.0
 11
-234.9225456429845
 21
763.2196837098693
 31
0.0
  0
LINE
  5
2A8
330
1F
100
AcDbEntity
  8
0-0
  6
JWW_DASHED1
 62
   120
370
     5
100
AcDbLine
 10
-473.4604017514716
 20
776.2196837109693
 30
0.0
 11
-270.7281685459016
 21
776.2196837109693
 31
0.0
  0
LINE
  5
2A9
330
1F
100
AcDbEntity
  8
0-0
  6
JWW_DASHED1
 62
   120
370
     5
100
AcDbLine
 10
-470.0947436304882
 20
777.2196837108695
 30
0.0
 11
-274.093826666885
 21
777.2196837108695
 31
0.0
  0
LINE
  5
2AA
330
1F
100
AcDbEntity
  8
0-0
  6
JWW_DASHED1
 62
   120
370
     5
100
AcDbLine
 10
-398.5346584196482
 20
790.2196837119695
 30
0.0
 11
-345.653911877725
 21
790.2196837119695
 31
0.0
  0
LINE
  5
2AB
330
1F
100
AcDbEntity
  8
0-0
  6
JWW_DASHED1
 62
   120
370
     5
100
AcDbLine
 10
-372.4002364927942
 20
791.2196837118693
 30
0.0
 11
-371.788333804579
 21
791.2196837118693
 31
0.0
  0
LINE
  5
2AC
330
1F
100
AcDbEntity
  8
0-0
  6
JWW_DASHED1
 62
   120
370
     5
100
AcDbLine
 10
-91.59428512873603
 20
-521.7801825649269
 30
0.0
 11
-91.59428512873603
 21
731.2195498907648
 31
0.0
  0
LINE
  5
2AD
330
1F
100
AcDbEntity
  8
0-0
  6
JWW_DASHED1
 62
   120
370
     5
100
AcDbLine
 10
-92.59428512863622
 20
-521.7801825649269
 30
0.0
 11
-92.59428512863622
 21
731.2195498907648
 31
0.0
  0
LINE
  5
2AE
330
1F
100
AcDbEntity
  8
0-0
  6
JWW_DASHED1
 62
   120
370
     5
100
AcDbLine
 10
-105.5942851297362
 20
-521.7801825649269
 30
0.0
 11
-105.5942851297362
 21
731.2195498907648
 31
0.0
  0
LINE
  5
2AF
330
1F
100
AcDbEntity
  8
0-0
  6
JWW_DASHED1
 62
   120
370
     5
100
AcDbLine
 10
-106.594285129636
 20
-521.7801825649269
 30
0.0
 11
-106.594285129636
 21
731.2195498907648
 31
0.0
  0
LINE
  5
2B0
330
1F
100
AcDbEntity
  8
0-0
  6
JWW_DASHED1
 62
   120
370
     5
100
AcDbLine
 10
-119.594285130736
 20
-521.7801825649269
 30
0.0
 11
-119.594285130736
 21
731.2195498907648
 31
0.0
  0
LINE
  5
2B1
330
1F
100
AcDbEntity
  8
0-0
  6
JWW_DASHED1
 62
   120
370
     5
100
AcDbLine
 10
-120.5942851306362
 20
-521.7801825649269
 30
0.0
 11
-120.5942851306362
 21
731.2195498907648
 31
0.0
  0
LINE
  5
2B2
330
1F
100
AcDbEntity
  8
0-0
  6
JWW_DASHED1
 62
   120
370
     5
100
AcDbLine
 10
-133.5942851317363
 20
-521.7801825649269
 30
0.0
 11
-133.5942851317363
 21
731.2195498907648
 31
0.0
  0
LINE
  5
2B3
330
1F
100
AcDbEntity
  8
0-0
  6
JWW_DASHED1
 62
   120
370
     5
100
AcDbLine
 10
-134.594285131636
 20
-521.7801825649269
 30
0.0
 11
-134.594285131636
 21
731.2195498907648
 31
0.0
  0
LINE
  5
2B4
330
1F
100
AcDbEntity
  8
0-0
  6
JWW_DASHED1
 62
   120
370
     5
100
AcDbLine
 10
-147.594285132736
 20
-521.7801825649269
 30
0.0
 11
-147.594285132736
 21
731.7828440018537
 31
0.0
  0
LINE
  5
2B5
330
1F
100
AcDbEntity
  8
0-0
  6
JWW_DASHED1
 62
   120
370
     5
100
AcDbLine
 10
-148.5942851326362
 20
-521.7801825649269
 30
0.0
 11
-148.5942851326362
 21
731.8731257885782
 31
0.0
  0
LINE
  5
2B6
330
1F
100
AcDbEntity
  8
0-0
  6
JWW_DASHED1
 62
   120
370
     5
100
AcDbLine
 10
-161.5942851337363
 20
-521.7801825649269
 30
0.0
 11
-161.5942851337363
 21
733.6672418121533
 31
0.0
  0
LINE
  5
2B7
330
1F
100
AcDbEntity
  8
0-0
  6
JWW_DASHED1
 62
   120
370
     5
100
AcDbLine
 10
-162.594285133636
 20
-521.7801825649269
 30
0.0
 11
-162.594285133636
 21
733.8536483243014
 31
0.0
  0
LINE
  5
2B8
330
1F
100
AcDbEntity
  8
0-0
  6
JWW_DASHED1
 62
   120
370
     5
100
AcDbLine
 10
-175.5942851347361
 20
-521.7801825649269
 30
0.0
 11
-175.5942851347361
 21
736.9280457345748
 31
0.0
  0
LINE
  5
2B9
330
1F
100
AcDbEntity
  8
0-0
  6
JWW_DASHED1
 62
   120
370
     5
100
AcDbLine
 10
-176.5942851346362
 20
-521.7801825649269
 30
0.0
 11
-176.5942851346362
 21
737.2158572407797
 31
0.0
  0
LINE
  5
2BA
330
1F
100
AcDbEntity
  8
0-0
  6
JWW_DASHED1
 62
   120
370
     5
100
AcDbLine
 10
-189.5942851357363
 20
-521.7801825649269
 30
0.0
 11
-189.5942851357363
 21
741.6617026591019
 31
0.0
  0
LINE
  5
2BB
330
1F
100
AcDbEntity
  8
0-0
  6
JWW_DASHED1
 62
   120
370
     5
100
AcDbLine
 10
-190.594285135636
 20
-521.7801825649269
 30
0.0
 11
-190.594285135636
 21
742.0598644602331
 31
0.0
  0
LINE
  5
2BC
330
1F
100
AcDbEntity
  8
0-0
  6
JWW_DASHED1
 62
   120
370
     5
100
AcDbLine
 10
-203.5942851367361
 20
-521.7801825649269
 30
0.0
 11
-203.5942851367361
 21
748.0251533263335
 31
0.0
  0
LINE
  5
2BD
330
1F
100
AcDbEntity
  8
0-0
  6
JWW_DASHED1
 62
   120
370
     5
100
AcDbLine
 10
-204.5942851366362
 20
-521.7801825649269
 30
0.0
 11
-204.5942851366362
 21
748.5478777020479
 31
0.0
  0
LINE
  5
2BE
330
1F
100
AcDbEntity
  8
0-0
  6
JWW_DASHED1
 62
   120
370
     5
100
AcDbLine
 10
-217.5942851377363
 20
-521.7801825649269
 30
0.0
 11
-217.5942851377363
 21
755.2735548696246
 31
0.0
  0
LINE
  5
2BF
330
1F
100
AcDbEntity
  8
0-0
  6
JWW_DASHED1
 62
   120
370
     5
100
AcDbLine
 10
-218.594285137636
 20
-521.7801825649269
 30
0.0
 11
-218.594285137636
 21
755.7635345820263
 31
0.0
  0
LINE
  5
2C0
330
1F
100
AcDbEntity
  8
0-0
  6
JWW_DASHED1
 62
   120
370
     5
100
AcDbLine
 10
-231.5942851387361
 20
-521.7801825649269
 30
0.0
 11
-231.5942851387361
 21
761.781433972671
 31
0.0
  0
LINE
  5
2C1
330
1F
100
AcDbEntity
  8
0-0
  6
JWW_DASHED1
 62
   120
370
     5
100
AcDbLine
 10
-232.5942851386363
 20
-521.7801825649269
 30
0.0
 11
-232.5942851386363
 21
762.2178703843083
 31
0.0
  0
LINE
  5
2C2
330
1F
100
AcDbEntity
  8
0-0
  6
JWW_DASHED1
 62
   120
370
     5
100
AcDbLine
 10
-245.5942851397363
 20
-521.7801825649269
 30
0.0
 11
-245.5942851397363
 21
767.5597475658169
 31
0.0
  0
LINE
  5
2C3
330
1F
100
AcDbEntity
  8
0-0
  6
JWW_DASHED1
 62
   120
370
     5
100
AcDbLine
 10
-246.594285139636
 20
-521.7801825649269
 30
0.0
 11
-246.594285139636
 21
767.9456199020997
 31
0.0
  0
LINE
  5
2C4
330
1F
100
AcDbEntity
  8
0-0
  6
JWW_DASHED1
 62
   120
370
     5
100
AcDbLine
 10
-259.5942851407361
 20
-521.7801825649269
 30
0.0
 11
-259.5942851407361
 21
772.6466570214207
 31
0.0
  0
LINE
  5
2C5
330
1F
100
AcDbEntity
  8
0-0
  6
JWW_DASHED1
 62
   120
370
     5
100
AcDbLine
 10
-260.5942851406363
 20
-521.7801825649269
 30
0.0
 11
-260.5942851406363
 21
772.9844177139303
 31
0.0
  0
LINE
  5
2C6
330
1F
100
AcDbEntity
  8
0-0
  6
JWW_DASHED1
 62
   120
370
     5
100
AcDbLine
 10
-273.5942851417363
 20
-521.7801825649269
 30
0.0
 11
-273.5942851417363
 21
777.0735802525151
 31
0.0
  0
LINE
  5
2C7
330
1F
100
AcDbEntity
  8
0-0
  6
JWW_DASHED1
 62
   120
370
     5
100
AcDbLine
 10
-274.5942851416361
 20
-521.7801825649269
 30
0.0
 11
-274.5942851416361
 21
777.3652472695967
 31
0.0
  0
LINE
  5
2C8
330
1F
100
AcDbEntity
  8
0-0
  6
JWW_DASHED1
 62
   120
370
     5
100
AcDbLine
 10
-287.5942851427361
 20
-521.7801825649269
 30
0.0
 11
-287.5942851427361
 21
780.866324849746
 31
0.0
  0
LINE
  5
2C9
330
1F
100
AcDbEntity
  8
0-0
  6
JWW_DASHED1
 62
   120
370
     5
100
AcDbLine
 10
-288.5942851426363
 20
-521.7801825649269
 30
0.0
 11
-288.5942851426363
 21
781.1135508268553
 31
0.0
  0
LINE
  5
2CA
330
1F
100
AcDbEntity
  8
0-0
  6
JWW_DASHED1
 62
   120
370
     5
100
AcDbLine
 10
-301.5942851437363
 20
-521.7801825649269
 30
0.0
 11
-301.5942851437363
 21
784.0459395425996
 31
0.0
  0
LINE
  5
2CB
330
1F
100
AcDbEntity
  8
0-0
  6
JWW_DASHED1
 62
   120
370
     5
100
AcDbLine
 10
-302.5942851436361
 20
-521.7801825649269
 30
0.0
 11
-302.5942851436361
 21
784.2500639138661
 31
0.0
  0
LINE
  5
2CC
330
1F
100
AcDbEntity
  8
0-0
  6
JWW_DASHED1
 62
   120
370
     5
100
AcDbLine
 10
-315.5942851447361
 20
-521.7801825649269
 30
0.0
 11
-315.5942851447361
 21
786.6293569668478
 31
0.0
  0
LINE
  5
2CD
330
1F
100
AcDbEntity
  8
0-0
  6
JWW_DASHED1
 62
   120
370
     5
100
AcDbLine
 10
-316.5942851446363
 20
-521.7801825649269
 30
0.0
 11
-316.5942851446363
 21
786.7914453207295
 31
0.0
  0
LINE
  5
2CE
330
1F
100
AcDbEntity
  8
0-0
  6
JWW_DASHED1
 62
   120
370
     5
100
AcDbLine
 10
-329.5942851457363
 20
-521.7801825649269
 30
0.0
 11
-329.5942851457363
 21
788.6298777381189
 31
0.0
  0
LINE
  5
2CF
330
1F
100
AcDbEntity
  8
0-0
  6
JWW_DASHED1
 62
   120
370
     5
100
AcDbLine
 10
-330.594285145636
 20
-521.7801825649269
 30
0.0
 11
-330.594285145636
 21
788.7507513096416
 31
0.0
  0
LINE
  5
2D0
330
1F
100
AcDbEntity
  8
0-0
  6
JWW_DASHED1
 62
   120
370
     5
100
AcDbLine
 10
-343.5942851467361
 20
-521.7801825649269
 30
0.0
 11
-343.5942851467361
 21
790.0575304190597
 31
0.0
  0
LINE
  5
2D1
330
1F
100
AcDbEntity
  8
0-0
  6
JWW_DASHED1
 62
   120
370
     5
100
AcDbLine
 10
-344.5942851466363
 20
-521.7801825649269
 30
0.0
 11
-344.5942851466363
 21
790.1377877373916
 31
0.0
  0
LINE
  5
2D2
330
1F
100
AcDbEntity
  8
0-0
  6
JWW_DASHED1
 62
   120
370
     5
100
AcDbLine
 10
-357.5942851477363
 20
-521.7801825649269
 30
0.0
 11
-357.5942851477363
 21
790.9193313037094
 31
0.0
  0
LINE
  5
2D3
330
1F
100
AcDbEntity
  8
0-0
  6
JWW_DASHED1
 62
   120
370
     5
100
AcDbLine
 10
-358.5942851476361
 20
-521.7801825649269
 30
0.0
 11
-358.5942851476361
 21
790.95936338316
 31
0.0
  0
LINE
  5
2D4
330
1F
100
AcDbEntity
  8
0-0
  6
JWW_DASHED1
 62
   120
370
     5
100
AcDbLine
 10
-371.5942851487361
 20
-521.7801825649269
 30
0.0
 11
-371.5942851487361
 21
791.2194602920381
 31
0.0
  0
LINE
  5
2D5
330
1F
100
AcDbEntity
  8
0-0
  6
JWW_DASHED1
 62
   120
370
     5
100
AcDbLine
 10
-372.5942851486363
 20
-521.7801825649269
 30
0.0
 11
-372.5942851486363
 21
791.2194602920381
 31
0.0
  0
LINE
  5
2D6
330
1F
100
AcDbEntity
  8
0-0
  6
JWW_DASHED1
 62
   120
370
     5
100
AcDbLine
 10
-385.5942851497363
 20
-521.7801825649269
 30
0.0
 11
-385.5942851497363
 21
790.95936338316
 31
0.0
  0
LINE
  5
2D7
330
1F
100
AcDbEntity
  8
0-0
  6
JWW_DASHED1
 62
   120
370
     5
100
AcDbLine
 10
-386.5942851496361
 20
-521.7801825649269
 30
0.0
 11
-386.5942851496361
 21
790.9193313037094
 31
0.0
  0
LINE
  5
2D8
330
1F
100
AcDbEntity
  8
0-0
  6
JWW_DASHED1
 62
   120
370
     5
100
AcDbLine
 10
-399.5942851507361
 20
-521.7801825649269
 30
0.0
 11
-399.5942851507361
 21
790.1377877373916
 31
0.0
  0
LINE
  5
2D9
330
1F
100
AcDbEntity
  8
0-0
  6
JWW_DASHED1
 62
   120
370
     5
100
AcDbLine
 10
-400.5942851506363
 20
-521.7801825649269
 30
0.0
 11
-400.5942851506363
 21
790.0575304190597
 31
0.0
  0
LINE
  5
2DA
330
1F
100
AcDbEntity
  8
0-0
  6
JWW_DASHED1
 62
   120
370
     5
100
AcDbLine
 10
-413.5942851517364
 20
-521.7801825649269
 30
0.0
 11
-413.5942851517364
 21
788.7507513096416
 31
0.0
  0
LINE
  5
2DB
330
1F
100
AcDbEntity
  8
0-0
  6
JWW_DASHED1
 62
   120
370
     5
100
AcDbLine
 10
-414.5942851516361
 20
-521.7801825649269
 30
0.0
 11
-414.5942851516361
 21
788.6298777381189
 31
0.0
  0
LINE
  5
2DC
330
1F
100
AcDbEntity
  8
0-0
  6
JWW_DASHED1
 62
   120
370
     5
100
AcDbLine
 10
-427.5942851527361
 20
-521.7801825649269
 30
0.0
 11
-427.5942851527361
 21
786.7914453207295
 31
0.0
  0
LINE
  5
2DD
330
1F
100
AcDbEntity
  8
0-0
  6
JWW_DASHED1
 62
   120
370
     5
100
AcDbLine
 10
-428.5942851526363
 20
-521.7801825649269
 30
0.0
 11
-428.5942851526363
 21
786.6293569668478
 31
0.0
  0
LINE
  5
2DE
330
1F
100
AcDbEntity
  8
0-0
  6
JWW_DASHED1
 62
   120
370
     5
100
AcDbLine
 10
-441.5942851537363
 20
-521.7801825649269
 30
0.0
 11
-441.5942851537363
 21
784.2500639138661
 31
0.0
  0
LINE
  5
2DF
330
1F
100
AcDbEntity
  8
0-0
  6
JWW_DASHED1
 62
   120
370
     5
100
AcDbLine
 10
-442.5942851536361
 20
-521.7801825649269
 30
0.0
 11
-442.5942851536361
 21
784.0459395425996
 31
0.0
  0
LINE
  5
2E0
330
1F
100
AcDbEntity
  8
0-0
  6
JWW_DASHED1
 62
   120
370
     5
100
AcDbLine
 10
-455.5942851547361
 20
-521.7801825649269
 30
0.0
 11
-455.5942851547361
 21
781.1135508268553
 31
0.0
  0
LINE
  5
2E1
330
1F
100
AcDbEntity
  8
0-0
  6
JWW_DASHED1
 62
   120
370
     5
100
AcDbLine
 10
-456.5942851546363
 20
-521.7801825649269
 30
0.0
 11
-456.5942851546363
 21
780.866324849746
 31
0.0
  0
LINE
  5
2E2
330
1F
100
AcDbEntity
  8
0-0
  6
JWW_DASHED1
 62
   120
370
     5
100
AcDbLine
 10
-469.5942851557363
 20
-521.7801825649269
 30
0.0
 11
-469.5942851557363
 21
777.3652472695967
 31
0.0
  0
LINE
  5
2E3
330
1F
100
AcDbEntity
  8
0-0
  6
JWW_DASHED1
 62
   120
370
     5
100
AcDbLine
 10
-470.5942851556361
 20
-521.7801825649269
 30
0.0
 11
-470.5942851556361
 21
777.0735802525151
 31
0.0
  0
LINE
  5
2E4
330
1F
100
AcDbEntity
  8
0-0
  6
JWW_DASHED1
 62
   120
370
     5
100
AcDbLine
 10
-483.5942851567361
 20
-521.7801825649269
 30
0.0
 11
-483.5942851567361
 21
772.9844177139303
 31
0.0
  0
LINE
  5
2E5
330
1F
100
AcDbEntity
  8
0-0
  6
JWW_DASHED1
 62
   120
370
     5
100
AcDbLine
 10
-484.5942851566363
 20
-521.7801825649269
 30
0.0
 11
-484.5942851566363
 21
772.6466570214207
 31
0.0
  0
LINE
  5
2E6
330
1F
100
AcDbEntity
  8
0-0
  6
JWW_DASHED1
 62
   120
370
     5
100
AcDbLine
 10
-497.5942851577364
 20
-521.7801825649269
 30
0.0
 11
-497.5942851577364
 21
767.9456199020997
 31
0.0
  0
LINE
  5
2E7
330
1F
100
AcDbEntity
  8
0-0
  6
JWW_DASHED1
 62
   120
370
     5
100
AcDbLine
 10
-498.5942851576361
 20
-521.7801825649269
 30
0.0
 11
-498.5942851576361
 21
767.5597475658169
 31
0.0
  0
LINE
  5
2E8
330
1F
100
AcDbEntity
  8
0-0
  6
JWW_DASHED1
 62
   120
370
     5
100
AcDbLine
 10
-511.5942851587362
 20
-521.7801825649269
 30
0.0
 11
-511.5942851587362
 21
762.2178703843083
 31
0.0
  0
LINE
  5
2E9
330
1F
100
AcDbEntity
  8
0-0
  6
JWW_DASHED1
 62
   120
370
     5
100
AcDbLine
 10
-512.5942851586364
 20
-521.7801825649269
 30
0.0
 11
-512.5942851586364
 21
761.781433972671
 31
0.0
  0
LINE
  5
2EA
330
1F
100
AcDbEntity
  8
0-0
  6
JWW_DASHED1
 62
   120
370
     5
100
AcDbLine
 10
-525.5942851597364
 20
-521.7801825649269
 30
0.0
 11
-525.5942851597364
 21
755.7635345820263
 31
0.0
  0
LINE
  5
2EB
330
1F
100
AcDbEntity
  8
0-0
  6
JWW_DASHED1
 62
   120
370
     5
100
AcDbLine
 10
-526.5942851596361
 20
-521.7801825649269
 30
0.0
 11
-526.5942851596361
 21
755.2735548696246
 31
0.0
  0
LINE
  5
2EC
330
1F
100
AcDbEntity
  8
0-0
  6
JWW_DASHED1
 62
   120
370
     5
100
AcDbLine
 10
-539.5942851607361
 20
-521.7801825649269
 30
0.0
 11
-539.5942851607361
 21
748.5478777020479
 31
0.0
  0
LINE
  5
2ED
330
1F
100
AcDbEntity
  8
0-0
  6
JWW_DASHED1
 62
   120
370
     5
100
AcDbLine
 10
-540.5942851606363
 20
-521.7801825649269
 30
0.0
 11
-540.5942851606363
 21
748.0251533263335
 31
0.0
  0
LINE
  5
2EE
330
1F
100
AcDbEntity
  8
0-0
  6
JWW_DASHED1
 62
   120
370
     5
100
AcDbLine
 10
-553.5942851617364
 20
-521.7801825649269
 30
0.0
 11
-553.5942851617364
 21
742.0598644602331
 31
0.0
  0
LINE
  5
2EF
330
1F
100
AcDbEntity
  8
0-0
  6
JWW_DASHED1
 62
   120
370
     5
100
AcDbLine
 10
-554.5942851616361
 20
-521.7801825649269
 30
0.0
 11
-554.5942851616361
 21
741.6617026591019
 31
0.0
  0
LINE
  5
2F0
330
1F
100
AcDbEntity
  8
0-0
  6
JWW_DASHED1
 62
   120
370
     5
100
AcDbLine
 10
-567.5942851627361
 20
-521.7801825649269
 30
0.0
 11
-567.5942851627361
 21
737.2158572407797
 31
0.0
  0
LINE
  5
2F1
330
1F
100
AcDbEntity
  8
0-0
  6
JWW_DASHED1
 62
   120
370
     5
100
AcDbLine
 10
-568.5942851626363
 20
-521.7801825649269
 30
0.0
 11
-568.5942851626363
 21
736.9280457345748
 31
0.0
  0
LINE
  5
2F2
330
1F
100
AcDbEntity
  8
0-0
  6
JWW_DASHED1
 62
   120
370
     5
100
AcDbLine
 10
-581.5942851637363
 20
-521.7801825649269
 30
0.0
 11
-581.5942851637363
 21
733.8536483243014
 31
0.0
  0
LINE
  5
2F3
330
1F
100
AcDbEntity
  8
0-0
  6
JWW_DASHED1
 62
   120
370
     5
100
AcDbLine
 10
-582.5942851636362
 20
-521.7801825649269
 30
0.0
 11
-582.5942851636362
 21
733.6672418121533
 31
0.0
  0
LINE
  5
2F4
330
1F
100
AcDbEntity
  8
0-0
  6
JWW_DASHED1
 62
   120
370
     5
100
AcDbLine
 10
-595.5942851647362
 20
-521.7801825649269
 30
0.0
 11
-595.5942851647362
 21
731.8731257885782
 31
0.0
  0
LINE
  5
2F5
330
1F
100
AcDbEntity
  8
0-0
  6
JWW_DASHED1
 62
   120
370
     5
100
AcDbLine
 10
-596.5942851646364
 20
-521.7801825649269
 30
0.0
 11
-596.5942851646364
 21
731.7828440018537
 31
0.0
  0
LINE
  5
2F6
330
1F
100
AcDbEntity
  8
0-0
  6
JWW_DASHED1
 62
   120
370
     5
100
AcDbLine
 10
-609.5942851657364
 20
-521.7801825649269
 30
0.0
 11
-609.5942851657364
 21
731.2195498907648
 31
0.0
  0
LINE
  5
2F7
330
1F
100
AcDbEntity
  8
0-0
  6
JWW_DASHED1
 62
   120
370
     5
100
AcDbLine
 10
-610.5942851656362
 20
-521.7801825649269
 30
0.0
 11
-610.5942851656362
 21
731.2195498907648
 31
0.0
  0
LINE
  5
2F8
330
1F
100
AcDbEntity
  8
0-0
  6
JWW_DASHED1
 62
   120
370
     5
100
AcDbLine
 10
-623.5942851667362
 20
-521.7801825649269
 30
0.0
 11
-623.5942851667362
 21
731.2195498907648
 31
0.0
  0
LINE
  5
2F9
330
1F
100
AcDbEntity
  8
0-0
  6
JWW_DASHED1
 62
   120
370
     5
100
AcDbLine
 10
-624.5942851666364
 20
-521.7801825649269
 30
0.0
 11
-624.5942851666364
 21
731.2195498907648
 31
0.0
  0
LINE
  5
2FA
330
1F
100
AcDbEntity
  8
0-0
  6
JWW_DASHED1
 62
   120
370
     5
100
AcDbLine
 10
-637.5942851677364
 20
-521.7801825649269
 30
0.0
 11
-637.5942851677364
 21
731.2195498907648
 31
0.0
  0
LINE
  5
2FB
330
1F
100
AcDbEntity
  8
0-0
  6
JWW_DASHED1
 62
   120
370
     5
100
AcDbLine
 10
-638.5942851676361
 20
-521.7801825649269
 30
0.0
 11
-638.5942851676361
 21
731.2195498907648
 31
0.0
  0
LINE
  5
2FC
330
1F
100
AcDbEntity
  8
0-0
  6
JWW_DASHED1
 62
   120
370
     5
100
AcDbLine
 10
-651.5942851687362
 20
-521.7801825649269
 30
0.0
 11
-651.5942851687362
 21
731.2195498907648
 31
0.0
  0
LINE
  5
2FD
330
1F
100
AcDbEntity
  8
0-0
  6
JWW_DASHED1
 62
   120
370
     5
100
AcDbLine
 10
-652.5942851686364
 20
-521.7801825649269
 30
0.0
 11
-652.5942851686364
 21
731.2195498907648
 31
0.0
  0
ENDSEC
  0
SECTION
  2
OBJECTS
  0
DICTIONARY
  5
C
330
0
100
AcDbDictionary
281
     1
  3
ACAD_GROUP
350
D
  3
ACAD_LAYOUT
350
1A
  3
ACAD_MATERIAL
350
3B
  3
ACAD_MLEADERSTYLE
350
2FF
  3
ACAD_MLINESTYLE
350
17
  3
ACAD_PLOTSETTINGS
350
19
  3
ACAD_PLOTSTYLENAME
350
E
  3
ACAD_TABLESTYLE
350
2FE
  3
ACAD_VISUALSTYLE
350
2A
  0
DICTIONARY
  5
D
102
{ACAD_REACTORS
330
C
102
}
330
C
100
AcDbDictionary
281
     1
  0
DICTIONARY
  5
1A
102
{ACAD_REACTORS
330
C
102
}
330
C
100
AcDbDictionary
281
     1
  3
Layout1
350
1E
  3
Layout2
350
26
  3
Model
350
22
  0
DICTIONARY
  5
3B
102
{ACAD_REACTORS
330
C
102
}
330
C
100
AcDbDictionary
281
     1
  3
ByBlock
350
3D
  3
ByLayer
350
3C
  3
Global
350
3E
  0
DICTIONARY
  5
2FF
102
{ACAD_REACTORS
330
C
102
}
330
C
100
AcDbDictionary
281
     1
  0
DICTIONARY
  5
17
102
{ACAD_REACTORS
330
C
102
}
330
C
100
AcDbDictionary
281
     1
  3
Standard
350
18
  0
DICTIONARY
  5
19
102
{ACAD_REACTORS
330
C
102
}
330
C
100
AcDbDictionary
281
     1
  0
ACDBDICTIONARYWDFLT
  5
E
102
{ACAD_REACTORS
330
C
102
}
330
C
100
AcDbDictionary
281
     1
  3
Normal
350
F
100
AcDbDictionaryWithDefault
340
F
  0
DICTIONARY
  5
2FE
102
{ACAD_REACTORS
330
C
102
}
330
C
100
AcDbDictionary
281
     1
  0
DICTIONARY
  5
2A
102
{ACAD_REACTORS
330
C
102
}
330
C
100
AcDbDictionary
281
     1
  3
2dWireframe
350
2F
  3
3D Hidden
350
31
  3
3dWireframe
350
30
  3
Basic
350
32
  3
Brighten
350
36
  3
ColorChange
350
3A
  3
Conceptual
350
34
  3
Dim
350
35
  3
Facepattern
350
39
  3
Flat
350
2B
  3
FlatWithEdges
350
2C
  3
Gouraud
350
2D
  3
GouraudWithEdges
350
2E
  3
Linepattern
350
38
  3
Realistic
350
33
  3
Thicken
350
37
  0
LAYOUT
  5
1E
102
{ACAD_REACTORS
330
1A
102
}
330
1A
100
AcDbPlotSettings
  1

  2
none_device
  4

  6

 40
0.0
 41
0.0
 42
0.0
 43
0.0
 44
0.0
 45
0.0
 46
0.0
 47
0.0
 48
0.0
 49
0.0
140
0.0
141
0.0
142
1.0
143
1.0
 70
   688
 72
     0
 73
     0
 74
     5
  7

 75
    16
 76
     0
 77
     5
 78
   300
147
1.0
148
0.0
149
0.0
100
AcDbLayout
  1
Layout1
 70
     1
 71
     1
 10
0.0
 20
0.0
 11
420.0
 21
297.0
 12
0.0
 22
0.0
 32
0.0
 14
1.000000000000000E+20
 24
1.000000000000000E+20
 34
1.000000000000000E+20
 15
-1.000000000000000E+20
 25
-1.000000000000000E+20
 35
-1.000000000000000E+20
146
0.0
 13
0.0
 23
0.0
 33
0.0
 16
1.0
 26
0.0
 36
0.0
 17
0.0
 27
1.0
 37
0.0
 76
     0
330
1B
  0
LAYOUT
  5
26
102
{ACAD_REACTORS
330
1A
102
}
330
1A
100
AcDbPlotSettings
  1

  2
none_device
  4

  6

 40
0.0
 41
0.0
 42
0.0
 43
0.0
 44
0.0
 45
0.0
 46
0.0
 47
0.0
 48
0.0
 49
0.0
140
0.0
141
0.0
142
1.0
143
1.0
 70
   688
 72
     0
 73
     0
 74
     5
  7

 75
    16
 76
     0
 77
     5
 78
   300
147
1.0
148
0.0
149
0.0
100
AcDbLayout
  1
Layout2
 70
     1
 71
     2
 10
0.0
 20
0.0
 11
0.0
 21
0.0
 12
0.0
 22
0.0
 32
0.0
 14
0.0
 24
0.0
 34
0.0
 15
0.0
 25
0.0
 35
0.0
146
0.0
 13
0.0
 23
0.0
 33
0.0
 16
1.0
 26
0.0
 36
0.0
 17
0.0
 27
1.0
 37
0.0
 76
     0
330
23
  0
LAYOUT
  5
22
102
{ACAD_REACTORS
330
1A
102
}
330
1A
100
AcDbPlotSettings
  1

  2
none_device
  4

  6

 40
0.0
 41
0.0
 42
0.0
 43
0.0
 44
0.0
 45
0.0
 46
0.0
 47
0.0
 48
0.0
 49
0.0
140
0.0
141
0.0
142
1.0
143
1.0
 70
  1712
 72
     0
 73
     0
 74
     0
  7

 75
     0
 76
     0
 77
     5
 78
   300
147
1.0
148
0.0
149
0.0
100
AcDbLayout
  1
Model
 70
     1
 71
     0
 10
-4455.0
 20
-3150.0
 11
4455.0
 21
3150.0
 12
0.0
 22
0.0
 32
0.0
 14
-4455.0
 24
-3150.0
 34
0.0
 15
4455.0
 25
3150.0
 35
0.0
146
0.0
 13
0.0
 23
0.0
 33
0.0
 16
1.0
 26
0.0
 36
0.0
 17
0.0
 27
1.0
 37
0.0
 76
     0
330
1F
331
29
  0
MATERIAL
  5
3D
102
{ACAD_REACTORS
330
3B
102
}
330
3B
100
AcDbMaterial
  1
ByBlock
 72
     1
 94
      127
  0
MATERIAL
  5
3C
102
{ACAD_REACTORS
330
3B
102
}
330
3B
100
AcDbMaterial
  1
ByLayer
 72
     1
 94
      127
  0
MATERIAL
  5
3E
102
{ACAD_REACTORS
330
3B
102
}
330
3B
100
AcDbMaterial
  1
Global
 72
     1
 94
      127
  0
MLINESTYLE
  5
18
102
{ACAD_REACTORS
330
17
102
}
330
17
100
AcDbMlineStyle
  2
Standard
 70
     0
  3

 62
   256
 51
90.0
 52
90.0
 71
     2
 49
0.5
 62
   256
  6
BYLAYER
 49
-0.5
 62
   256
  6
BYLAYER
  0
ACDBPLACEHOLDER
  5
F
102
{ACAD_REACTORS
330
E
102
}
330
E
  0
VISUALSTYLE
  5
2F
102
{ACAD_REACTORS
330
2A
102
}
330
2A
100
AcDbVisualStyle
  2
2dWireframe
 70
     4
177
     2
291
     0
 71
     0
176
     1
 72
     2
176
     1
 73
     0
176
     1
 90
        0
176
     1
 40
-0.6
176
     1
 41
-30.0
176
     1
 62
     5
 63
     7
421
 16777215
176
     1
 74
     1
176
     1
 91
        4
176
     1
 64
     7
176
     1
 65
   257
176
     1
 75
     1
176
     1
175
     1
176
     1
 42
1.0
176
     1
 92
        0
176
     1
 66
   257
176
     1
 43
1.0
176
     1
 76
     1
176
     1
 77
     6
176
     1
 78
     2
176
     1
 67
     7
176
     1
 79
     5
176
     1
170
     0
176
     1
171
     0
176
     1
290
     0
176
     1
 93
        1
176
     1
 44
0.0
176
     1
173
     0
176
     1
  0
VISUALSTYLE
  5
31
102
{ACAD_REACTORS
330
2A
102
}
330
2A
100
AcDbVisualStyle
  2
3D Hidden
 70
     6
177
     2
291
     0
 71
     1
176
     1
 72
     2
176
     1
 73
     2
176
     1
 90
        0
176
     1
 40
-0.6
176
     1
 41
-30.0
176
     1
 62
     5
 63
     7
421
 16777215
176
     1
 74
     2
176
     1
 91
        2
176
     1
 64
     7
176
     1
 65
   257
176
     1
 75
     2
176
     1
175
     1
176
     1
 42
40.0
176
     1
 92
        0
176
     1
 66
   257
176
     1
 43
1.0
176
     1
 76
     1
176
     1
 77
     6
176
     1
 78
     2
176
     1
 67
     7
176
     1
 79
     3
176
     1
170
     0
176
     1
171
     0
176
     1
290
     0
176
     1
 93
        1
176
     1
 44
0.0
176
     1
173
     0
176
     1
  0
VISUALSTYLE
  5
30
102
{ACAD_REACTORS
330
2A
102
}
330
2A
100
AcDbVisualStyle
  2
3dWireframe
 70
     5
177
     2
291
     0
 71
     0
176
     1
 72
     2
176
     1
 73
     0
176
     1
 90
        0
176
     1
 40
-0.6
176
     1
 41
-30.0
176
     1
 62
     5
 63
     7
421
 16777215
176
     1
 74
     1
176
     1
 91
        4
176
     1
 64
     7
176
     1
 65
   257
176
     1
 75
     1
176
     1
175
     1
176
     1
 42
1.0
176
     1
 92
        0
176
     1
 66
   257
176
     1
 43
1.0
176
     1
 76
     1
176
     1
 77
     6
176
     1
 78
     2
176
     1
 67
     7
176
     1
 79
     5
176
     1
170
     0
176
     1
171
     0
176
     1
290
     0
176
     1
 93
        1
176
     1
 44
0.0
176
     1
173
     0
176
     1
  0
VISUALSTYLE
  5
32
102
{ACAD_REACTORS
330
2A
102
}
330
2A
100
AcDbVisualStyle
  2
Basic
 70
     7
177
     2
291
     1
 71
     1
176
     1
 72
     0
176
     1
 73
     1
176
     1
 90
        0
176
     1
 40
-0.6
176
     1
 41
-30.0
176
     1
 62
     5
 63
     7
421
 16777215
176
     1
 74
     0
176
     1
 91
        4
176
     1
 64
     7
176
     1
 65
   257
176
     1
 75
     1
176
     1
175
     1
176
     1
 42
1.0
176
     1
 92
        8
176
     1
 66
     7
176
     1
 43
1.0
176
     1
 76
     1
176
     1
 77
     6
176
     1
 78
     2
176
     1
 67
     7
176
     1
 79
     5
176
     1
170
     0
176
     1
171
     0
176
     1
290
     0
176
     1
 93
        1
176
     1
 44
0.0
176
     1
173
     0
176
     1
  0
VISUALSTYLE
  5
36
102
{ACAD_REACTORS
330
2A
102
}
330
2A
100
AcDbVisualStyle
  2
Brighten
 70
    12
177
     2
291
     1
 71
     2
176
     1
 72
     2
176
     1
 73
     0
176
     1
 90
        0
176
     1
 40
-0.6
176
     1
 41
-30.0
176
     1
 62
     5
 63
     7
421
 16777215
176
     1
 74
     1
176
     1
 91
        4
176
     1
 64
     7
176
     1
 65
   257
176
     1
 75
     1
176
     1
175
     1
176
     1
 42
1.0
176
     1
 92
        8
176
     1
 66
     7
176
     1
 43
1.0
176
     1
 76
     1
176
     1
 77
     6
176
     1
 78
     2
176
     1
 67
     7
176
     1
 79
     5
176
     1
170
     0
176
     1
171
     0
176
     1
290
     0
176
     1
 93
        1
176
     1
 44
50.0
176
     1
173
     0
176
     1
  0
VISUALSTYLE
  5
3A
102
{ACAD_REACTORS
330
2A
102
}
330
2A
100
AcDbVisualStyle
  2
ColorChange
 70
    16
177
     2
291
     1
 71
     2
176
     1
 72
     2
176
     1
 73
     3
176
     1
 90
        0
176
     1
 40
-0.6
176
     1
 41
-30.0
176
     1
 62
     5
 63
     8
421
  8421504
176
     1
 74
     1
176
     1
 91
        4
176
     1
 64
     7
176
     1
 65
   257
176
     1
 75
     1
176
     1
175
     1
176
     1
 42
1.0
176
     1
 92
        8
176
     1
 66
     8
424
  8421504
176
     1
 43
1.0
176
     1
 76
     1
176
     1
 77
     6
176
     1
 78
     2
176
     1
 67
     7
176
     1
 79
     5
176
     1
170
     0
176
     1
171
     0
176
     1
290
     0
176
     1
 93
        1
176
     1
 44
0.0
176
     1
173
     0
176
     1
  0
VISUALSTYLE
  5
34
102
{ACAD_REACTORS
330
2A
102
}
330
2A
100
AcDbVisualStyle
  2
Conceptual
 70
     9
177
     2
291
     0
 71
     3
176
     1
 72
     2
176
     1
 73
     0
176
     1
 90
        0
176
     1
 40
-0.6
176
     1
 41
-30.0
176
     1
 62
     5
 63
     7
421
 16777215
176
     1
 74
     2
176
     1
 91
        2
176
     1
 64
     7
176
     1
 65
   257
176
     1
 75
     1
176
     1
175
     1
176
     1
 42
40.0
176
     1
 92
        8
176
     1
 66
     7
176
     1
 43
1.0
176
     1
 76
     1
176
     1
 77
     6
176
     1
 78
     2
176
     1
 67
     7
176
     1
 79
     3
176
     1
170
     0
176
     1
171
     0
176
     1
290
     0
176
     1
 93
        1
176
     1
 44
0.0
176
     1
173
     0
176
     1
  0
VISUALSTYLE
  5
35
102
{ACAD_REACTORS
330
2A
102
}
330
2A
100
AcDbVisualStyle
  2
Dim
 70
    11
177
     2
291
     1
 71
     2
176
     1
 72
     2
176
     1
 73
     0
176
     1
 90
        0
176
     1
 40
-0.6
176
     1
 41
-30.0
176
     1
 62
     5
 63
     7
421
 16777215
176
     1
 74
     1
176
     1
 91
        4
176
     1
 64
     7
176
     1
 65
   257
176
     1
 75
     1
176
     1
175
     1
176
     1
 42
1.0
176
     1
 92
        8
176
     1
 66
     7
176
     1
 43
1.0
176
     1
 76
     1
176
     1
 77
     6
176
     1
 78
     2
176
     1
 67
     7
176
     1
 79
     5
176
     1
170
     0
176
     1
171
     0
176
     1
290
     0
176
     1
 93
        1
176
     1
 44
-50.0
176
     1
173
     0
176
     1
  0
VISUALSTYLE
  5
39
102
{ACAD_REACTORS
330
2A
102
}
330
2A
100
AcDbVisualStyle
  2
Facepattern
 70
    15
177
     2
291
     1
 71
     2
176
     1
 72
     2
176
     1
 73
     0
176
     1
 90
        0
176
     1
 40
-0.6
176
     1
 41
-30.0
176
     1
 62
     5
 63
     7
421
 16777215
176
     1
 74
     1
176
     1
 91
        4
176
     1
 64
     7
176
     1
 65
   257
176
     1
 75
     1
176
     1
175
     1
176
     1
 42
1.0
176
     1
 92
        8
176
     1
 66
     7
176
     1
 43
1.0
176
     1
 76
     1
176
     1
 77
     6
176
     1
 78
     2
176
     1
 67
     7
176
     1
 79
     5
176
     1
170
     0
176
     1
171
     0
176
     1
290
     0
176
     1
 93
        1
176
     1
 44
0.0
176
     1
173
     0
176
     1
  0
VISUALSTYLE
  5
2B
102
{ACAD_REACTORS
330
2A
102
}
330
2A
100
AcDbVisualStyle
  2
Flat
 70
     0
177
     2
291
     1
 71
     2
176
     1
 72
     1
176
     1
 73
     1
176
     1
 90
        2
176
     1
 40
-0.6
176
     1
 41
30.0
176
     1
 62
     5
 63
     7
421
 16777215
176
     1
 74
     0
176
     1
 91
        4
176
     1
 64
     7
176
     1
 65
   257
176
     1
 75
     1
176
     1
175
     1
176
     1
 42
1.0
176
     1
 92
        8
176
     1
 66
     7
176
     1
 43
1.0
176
     1
 76
     1
176
     1
 77
     6
176
     1
 78
     2
176
     1
 67
     7
176
     1
 79
     5
176
     1
170
     0
176
     1
171
     0
176
     1
290
     0
176
     1
 93
       13
176
     1
 44
0.0
176
     1
173
     0
176
     1
  0
VISUALSTYLE
  5
2C
102
{ACAD_REACTORS
330
2A
102
}
330
2A
100
AcDbVisualStyle
  2
FlatWithEdges
 70
     1
177
     2
291
     1
 71
     2
176
     1
 72
     1
176
     1
 73
     1
176
     1
 90
        2
176
     1
 40
-0.6
176
     1
 41
30.0
176
     1
 62
     5
 63
     7
421
 16777215
176
     1
 74
     1
176
     1
 91
        4
176
     1
 64
     7
176
     1
 65
   257
176
     1
 75
     1
176
     1
175
     1
176
     1
 42
1.0
176
     1
 92
        0
176
     1
 66
   257
176
     1
 43
1.0
176
     1
 76
     1
176
     1
 77
     6
176
     1
 78
     2
176
     1
 67
     7
176
     1
 79
     5
176
     1
170
     0
176
     1
171
     0
176
     1
290
     0
176
     1
 93
       13
176
     1
 44
0.0
176
     1
173
     0
176
     1
  0
VISUALSTYLE
  5
2D
102
{ACAD_REACTORS
330
2A
102
}
330
2A
100
AcDbVisualStyle
  2
Gouraud
 70
     2
177
     2
291
     1
 71
     2
176
     1
 72
     2
176
     1
 73
     1
176
     1
 90
        2
176
     1
 40
-0.6
176
     1
 41
30.0
176
     1
 62
     5
 63
     7
421
 16777215
176
     1
 74
     0
176
     1
 91
        4
176
     1
 64
     7
176
     1
 65
   257
176
     1
 75
     1
176
     1
175
     1
176
     1
 42
1.0
176
     1
 92
        0
176
     1
 66
     7
176
     1
 43
1.0
176
     1
 76
     1
176
     1
 77
     6
176
     1
 78
     2
176
     1
 67
     7
176
     1
 79
     5
176
     1
170
     0
176
     1
171
     0
176
     1
290
     0
176
     1
 93
       13
176
     1
 44
0.0
176
     1
173
     0
176
     1
  0
VISUALSTYLE
  5
2E
102
{ACAD_REACTORS
330
2A
102
}
330
2A
100
AcDbVisualStyle
  2
GouraudWithEdges
 70
     3
177
     2
291
     1
 71
     2
176
     1
 72
     2
176
     1
 73
     1
176
     1
 90
        2
176
     1
 40
-0.6
176
     1
 41
30.0
176
     1
 62
     5
 63
     7
421
 16777215
176
     1
 74
     1
176
     1
 91
        4
176
     1
 64
     7
176
     1
 65
   257
176
     1
 75
     1
176
     1
175
     1
176
     1
 42
1.0
176
     1
 92
        0
176
     1
 66
   257
176
     1
 43
1.0
176
     1
 76
     1
176
     1
 77
     6
176
     1
 78
     2
176
     1
 67
     7
176
     1
 79
     5
176
     1
170
     0
176
     1
171
     0
176
     1
290
     0
176
     1
 93
       13
176
     1
 44
0.0
176
     1
173
     0
176
     1
  0
VISUALSTYLE
  5
38
102
{ACAD_REACTORS
330
2A
102
}
330
2A
100
AcDbVisualStyle
  2
Linepattern
 70
    14
177
     2
291
     1
 71
     2
176
     1
 72
     2
176
     1
 73
     0
176
     1
 90
        0
176
     1
 40
-0.6
176
     1
 41
-30.0
176
     1
 62
     5
 63
     7
421
 16777215
176
     1
 74
     1
176
     1
 91
        4
176
     1
 64
     7
176
     1
 65
   257
176
     1
 75
     7
176
     1
175
     7
176
     1
 42
1.0
176
     1
 92
        8
176
     1
 66
     7
176
     1
 43
1.0
176
     1
 76
     1
176
     1
 77
     6
176
     1
 78
     2
176
     1
 67
     7
176
     1
 79
     5
176
     1
170
     0
176
     1
171
     0
176
     1
290
     0
176
     1
 93
        1
176
     1
 44
0.0
176
     1
173
     0
176
     1
  0
VISUALSTYLE
  5
33
102
{ACAD_REACTORS
330
2A
102
}
330
2A
100
AcDbVisualStyle
  2
Realistic
 70
     8
177
     2
291
     0
 71
     2
176
     1
 72
     2
176
     1
 73
     0
176
     1
 90
        0
176
     1
 40
-0.6
176
     1
 41
-30.0
176
     1
 62
     5
 63
     7
421
 16777215
176
     1
 74
     1
176
     1
 91
        0
176
     1
 64
     7
176
     1
 65
   257
176
     1
 75
     1
176
     1
175
     1
176
     1
 42
1.0
176
     1
 92
        8
176
     1
 66
     8
424
  7895160
176
     1
 43
1.0
176
     1
 76
     1
176
     1
 77
     6
176
     1
 78
     2
176
     1
 67
     7
176
     1
 79
     5
176
     1
170
     0
176
     1
171
     0
176
     1
290
     0
176
     1
 93
       13
176
     1
 44
0.0
176
     1
173
     0
176
     1
  0
VISUALSTYLE
  5
37
102
{ACAD_REACTORS
330
2A
102
}
330
2A
100
AcDbVisualStyle
  2
Thicken
 70
    13
177
     2
291
     1
 71
     2
176
     1
 72
     2
176
     1
 73
     0
176
     1
 90
        0
176
     1
 40
-0.6
176
     1
 41
-30.0
176
     1
 62
     5
 63
     7
421
 16777215
176
     1
 74
     1
176
     1
 91
        4
176
     1
 64
     7
176
     1
 65
   257
176
     1
 75
     1
176
     1
175
     1
176
     1
 42
1.0
176
     1
 92
       12
176
     1
 66
     7
176
     1
 43
1.0
176
     1
 76
     1
176
     1
 77
     6
176
     1
 78
     2
176
     1
 67
     7
176
     1
 79
     5
176
     1
170
     0
176
     1
171
     0
176
     1
290
     0
176
     1
 93
        1
176
     1
 44
0.0
176
     1
173
     0
176
     1
  0
ENDSEC
  0
EOF
