  0
SECTION
  2
HEADER
  9
$ACADVER
  1
AC1024
  9
$ACADMAINTVER
 70
     6
  9
$DWGCODEPAGE
  3
ANSI_932
  9
$INSBASE
 10
0.0
 20
0.0
 30
0.0
  9
$EXTMIN
 10
-4455.0
 20
-3150.0
 30
0.0
  9
$EXTMAX
 10
4455.0
 20
3150.0
 30
0.0
  9
$LIMMIN
 10
-4455.0
 20
-3150.0
  9
$LIMMAX
 10
4455.0
 20
3150.0
  9
$ORTHOMODE
 70
     0
  9
$REGENMODE
 70
     1
  9
$FILLMODE
 70
     1
  9
$QTEXTMODE
 70
     0
  9
$MIRRTEXT
 70
     1
  9
$LTSCALE
 40
30.0
  9
$ATTMODE
 70
     1
  9
$TEXTSIZE
 40
2.5
  9
$TRACEWID
 40
1.0
  9
$TEXTSTYLE
  7
Standard
  9
$CLAYER
  8
0
  9
$CELTYPE
  6
ByLayer
  9
$CECOLOR
 62
   256
  9
$CELTSCALE
 40
1.0
  9
$DISPSILH
 70
     0
  9
$DIMSCALE
 40
1.0
  9
$DIMASZ
 40
2.5
  9
$DIMEXO
 40
0.625
  9
$DIMDLI
 40
3.75
  9
$DIMRND
 40
0.0
  9
$DIMDLE
 40
0.0
  9
$DIMEXE
 40
1.25
  9
$DIMTP
 40
0.0
  9
$DIMTM
 40
0.0
  9
$DIMTXT
 40
2.5
  9
$DIMCEN
 40
2.5
  9
$DIMTSZ
 40
0.0
  9
$DIMTOL
 70
     0
  9
$DIMLIM
 70
     0
  9
$DIMTIH
 70
     0
  9
$DIMTOH
 70
     0
  9
$DIMSE1
 70
     0
  9
$DIMSE2
 70
     0
  9
$DIMTAD
 70
     1
  9
$DIMZIN
 70
     8
  9
$DIMBLK
  1

  9
$DIMASO
 70
     1
  9
$DIMSHO
 70
     1
  9
$DIMPOST
  1

  9
$DIMAPOST
  1

  9
$DIMALT
 70
     0
  9
$DIMALTD
 70
     3
  9
$DIMALTF
 40
0.03937007874016
  9
$DIMLFAC
 40
1.0
  9
$DIMTOFL
 70
     1
  9
$DIMTVP
 40
0.0
  9
$DIMTIX
 70
     0
  9
$DIMSOXD
 70
     0
  9
$DIMSAH
 70
     0
  9
$DIMBLK1
  1

  9
$DIMBLK2
  1

  9
$DIMSTYLE
  2
ISO-25
  9
$DIMCLRD
 70
     0
  9
$DIMCLRE
 70
     0
  9
$DIMCLRT
 70
     0
  9
$DIMTFAC
 40
1.0
  9
$DIMGAP
 40
0.625
  9
$DIMJUST
 70
     0
  9
$DIMSD1
 70
     0
  9
$DIMSD2
 70
     0
  9
$DIMTOLJ
 70
     0
  9
$DIMTZIN
 70
     8
  9
$DIMALTZ
 70
     0
  9
$DIMALTTZ
 70
     0
  9
$DIMUPT
 70
     0
  9
$DIMDEC
 70
     2
  9
$DIMTDEC
 70
     2
  9
$DIMALTU
 70
     2
  9
$DIMALTTD
 70
     3
  9
$DIMTXSTY
  7
Standard
  9
$DIMAUNIT
 70
     0
  9
$DIMADEC
 70
     0
  9
$DIMALTRND
 40
0.0
  9
$DIMAZIN
 70
     0
  9
$DIMDSEP
 70
    44
  9
$DIMATFIT
 70
     3
  9
$DIMFRAC
 70
     0
  9
$DIMLDRBLK
  1

  9
$DIMLUNIT
 70
     2
  9
$DIMLWD
 70
    -2
  9
$DIMLWE
 70
    -2
  9
$DIMTMOVE
 70
     0
  9
$DIMFXL
 40
1.0
  9
$DIMFXLON
 70
     0
  9
$DIMJOGANG
 40
0.7853981633974483
  9
$DIMTFILL
 70
     0
  9
$DIMTFILLCLR
 70
     0
  9
$DIMARCSYM
 70
     0
  9
$DIMLTYPE
  6

  9
$DIMLTEX1
  6

  9
$DIMLTEX2
  6

  9
$DIMTXTDIRECTION
 70
     0
  9
$LUNITS
 70
     2
  9
$LUPREC
 70
     4
  9
$SKETCHINC
 40
1.0
  9
$FILLETRAD
 40
10.0
  9
$AUNITS
 70
     0
  9
$AUPREC
 70
     0
  9
$MENU
  1
.
  9
$ELEVATION
 40
0.0
  9
$PELEVATION
 40
0.0
  9
$THICKNESS
 40
0.0
  9
$LIMCHECK
 70
     0
  9
$CHAMFERA
 40
10.0
  9
$CHAMFERB
 40
10.0
  9
$CHAMFERC
 40
20.0
  9
$CHAMFERD
 40
0.0
  9
$SKPOLY
 70
     0
  9
$TDCREATE
 40
2457953.401956389
  9
$TDUCREATE
 40
2457953.026956389
  9
$TDUPDATE
 40
2457953.4019564
  9
$TDUUPDATE
 40
2457953.0269564
  9
$TDINDWG
 40
0.0000000116
  9
$TDUSRTIMER
 40
0.0000000116
  9
$USRTIMER
 70
     1
  9
$ANGBASE
 50
0.0
  9
$ANGDIR
 70
     0
  9
$PDMODE
 70
     0
  9
$PDSIZE
 40
0.0
  9
$PLINEWID
 40
0.0
  9
$SPLFRAME
 70
     0
  9
$SPLINETYPE
 70
     6
  9
$SPLINESEGS
 70
     8
  9
$HANDSEED
  5
568
  9
$SURFTAB1
 70
     6
  9
$SURFTAB2
 70
     6
  9
$SURFTYPE
 70
     6
  9
$SURFU
 70
     6
  9
$SURFV
 70
     6
  9
$UCSBASE
  2

  9
$UCSNAME
  2

  9
$UCSORG
 10
0.0
 20
0.0
 30
0.0
  9
$UCSXDIR
 10
1.0
 20
0.0
 30
0.0
  9
$UCSYDIR
 10
0.0
 20
1.0
 30
0.0
  9
$UCSORTHOREF
  2

  9
$UCSORTHOVIEW
 70
     0
  9
$UCSORGTOP
 10
0.0
 20
0.0
 30
0.0
  9
$UCSORGBOTTOM
 10
0.0
 20
0.0
 30
0.0
  9
$UCSORGLEFT
 10
0.0
 20
0.0
 30
0.0
  9
$UCSORGRIGHT
 10
0.0
 20
0.0
 30
0.0
  9
$UCSORGFRONT
 10
0.0
 20
0.0
 30
0.0
  9
$UCSORGBACK
 10
0.0
 20
0.0
 30
0.0
  9
$PUCSBASE
  2

  9
$PUCSNAME
  2

  9
$PUCSORG
 10
0.0
 20
0.0
 30
0.0
  9
$PUCSXDIR
 10
1.0
 20
0.0
 30
0.0
  9
$PUCSYDIR
 10
0.0
 20
1.0
 30
0.0
  9
$PUCSORTHOREF
  2

  9
$PUCSORTHOVIEW
 70
     0
  9
$PUCSORGTOP
 10
0.0
 20
0.0
 30
0.0
  9
$PUCSORGBOTTOM
 10
0.0
 20
0.0
 30
0.0
  9
$PUCSORGLEFT
 10
0.0
 20
0.0
 30
0.0
  9
$PUCSORGRIGHT
 10
0.0
 20
0.0
 30
0.0
  9
$PUCSORGFRONT
 10
0.0
 20
0.0
 30
0.0
  9
$PUCSORGBACK
 10
0.0
 20
0.0
 30
0.0
  9
$USERI1
 70
     0
  9
$USERI2
 70
     0
  9
$USERI3
 70
     0
  9
$USERI4
 70
     0
  9
$USERI5
 70
     0
  9
$USERR1
 40
0.0
  9
$USERR2
 40
0.0
  9
$USERR3
 40
0.0
  9
$USERR4
 40
0.0
  9
$USERR5
 40
0.0
  9
$WORLDVIEW
 70
     1
  9
$SHADEDGE
 70
     3
  9
$SHADEDIF
 70
    70
  9
$TILEMODE
 70
     1
  9
$MAXACTVP
 70
    64
  9
$PINSBASE
 10
0.0
 20
0.0
 30
0.0
  9
$PLIMCHECK
 70
     0
  9
$PEXTMIN
 10
1.000000000000000E+20
 20
1.000000000000000E+20
 30
1.000000000000000E+20
  9
$PEXTMAX
 10
-1.000000000000000E+20
 20
-1.000000000000000E+20
 30
-1.000000000000000E+20
  9
$PLIMMIN
 10
0.0
 20
0.0
  9
$PLIMMAX
 10
420.0
 20
297.0
  9
$UNITMODE
 70
     0
  9
$VISRETAIN
 70
     1
  9
$PLINEGEN
 70
     0
  9
$PSLTSCALE
 70
     1
  9
$TREEDEPTH
 70
  3020
  9
$CMLSTYLE
  2
Standard
  9
$CMLJUST
 70
     0
  9
$CMLSCALE
 40
20.0
  9
$PROXYGRAPHICS
 70
     1
  9
$MEASUREMENT
 70
     1
  9
$CELWEIGHT
370
    -1
  9
$ENDCAPS
280
     0
  9
$JOINSTYLE
280
     0
  9
$LWDISPLAY
290
     0
  9
$INSUNITS
 70
     4
  9
$HYPERLINKBASE
  1

  9
$STYLESHEET
  1

  9
$XEDIT
290
     1
  9
$CEPSNTYPE
380
     0
  9
$PSTYLEMODE
290
     1
  9
$FINGERPRINTGUID
  2
{4ED53269-0EE1-44FB-A0A6-A0776755AADC}
  9
$VERSIONGUID
  2
{FAEB1C32-E019-11D5-929B-00C0DF256EC4}
  9
$EXTNAMES
290
     1
  9
$PSVPSCALE
 40
0.0
  9
$OLESTARTUP
290
     0
  9
$SORTENTS
280
   127
  9
$INDEXCTL
280
     0
  9
$HIDETEXT
280
     1
  9
$XCLIPFRAME
280
     2
  9
$HALOGAP
280
     0
  9
$OBSCOLOR
 70
   257
  9
$OBSLTYPE
280
     0
  9
$INTERSECTIONDISPLAY
280
     0
  9
$INTERSECTIONCOLOR
 70
   257
  9
$DIMASSOC
280
     2
  9
$PROJECTNAME
  1

  9
$CAMERADISPLAY
290
     0
  9
$LENSLENGTH
 40
50.0
  9
$CAMERAHEIGHT
 40
0.0
  9
$STEPSPERSEC
 40
2.0
  9
$STEPSIZE
 40
6.0
  9
$3DDWFPREC
 40
2.0
  9
$PSOLWIDTH
 40
5.0
  9
$PSOLHEIGHT
 40
80.0
  9
$LOFTANG1
 40
1.570796326794897
  9
$LOFTANG2
 40
1.570796326794897
  9
$LOFTMAG1
 40
0.0
  9
$LOFTMAG2
 40
0.0
  9
$LOFTPARAM
 70
     7
  9
$LOFTNORMALS
280
     1
  9
$LATITUDE
 40
37.795
  9
$LONGITUDE
 40
-122.394
  9
$NORTHDIRECTION
 40
0.0
  9
$TIMEZONE
 70
 -8000
  9
$LIGHTGLYPHDISPLAY
280
     1
  9
$TILEMODELIGHTSYNCH
280
     1
  9
$SOLIDHIST
280
     1
  9
$SHOWHIST
280
     1
  9
$DWFFRAME
280
     2
  9
$DGNFRAME
280
     2
  9
$REALWORLDSCALE
290
     1
  9
$INTERFERECOLOR
 62
   256
  9
$CSHADOW
280
     0
  9
$SHADOWPLANELOCATION
 40
0.0
  0
ENDSEC
  0
SECTION
  2
CLASSES
  0
CLASS
  1
ACDBDICTIONARYWDFLT
  2
AcDbDictionaryWithDefault
  3
ObjectDBX Classes
 90
        0
 91
        4
280
     0
281
     0
  0
CLASS
  1
VISUALSTYLE
  2
AcDbVisualStyle
  3
ObjectDBX Classes
 90
     4095
 91
        4
280
     0
281
     0
  0
CLASS
  1
MATERIAL
  2
AcDbMaterial
  3
ObjectDBX Classes
 90
     1153
 91
        4
280
     0
281
     0
  0
ENDSEC
  0
SECTION
  2
TABLES
  0
TABLE
  2
VPORT
  5
8
330
0
100
AcDbSymbolTable
 70
     1
  0
VPORT
  5
29
330
8
100
AcDbSymbolTableRecord
100
AcDbViewportTableRecord
  2
*Active
 70
     0
 10
0.0
 20
0.0
 11
1.0
 21
1.0
 12
0.0
 22
0.0
 13
0.0
 23
0.0
 14
10.0
 24
10.0
 15
10.0
 25
10.0
 16
0.0
 26
0.0
 36
1.0
 17
0.0
 27
0.0
 37
0.0
 40
6930.000000000001
 41
1.414285714285714
 42
50.0
 43
0.0
 44
0.0
 50
0.0
 51
0.0
 71
     0
 72
 10000
 73
     1
 74
     3
 75
     0
 76
     0
 77
     0
 78
     0
281
     0
 65
     1
110
0.0
120
0.0
130
0.0
111
1.0
121
0.0
131
0.0
112
0.0
122
1.0
132
0.0
 79
     0
146
0.0
 60
     3
 61
     5
292
     1
282
     1
141
0.0
142
0.0
 63
   250
  0
ENDTAB
  0
TABLE
  2
LTYPE
  5
5
330
0
100
AcDbSymbolTable
 70
     2
  0
LTYPE
  5
14
330
5
100
AcDbSymbolTableRecord
100
AcDbLinetypeTableRecord
  2
ByBlock
 70
     0
  3

 72
    65
 73
     0
 40
0.0
  0
LTYPE
  5
15
330
5
100
AcDbSymbolTableRecord
100
AcDbLinetypeTableRecord
  2
ByLayer
 70
     0
  3

 72
    65
 73
     0
 40
0.0
  0
LTYPE
  5
16
330
5
100
AcDbSymbolTableRecord
100
AcDbLinetypeTableRecord
  2
Continuous
 70
     0
  3
Solid line
 72
    65
 73
     0
 40
0.0
  0
LTYPE
  5
3F
330
5
100
AcDbSymbolTableRecord
100
AcDbLinetypeTableRecord
  2
JWW_DASHED1
 70
     0
  3
-  --  --  --  --  --  --  --  -
 72
    65
 73
     2
 40
1.693333333333333
 49
0.8466666666666667
 74
     0
 49
-0.8466666666666667
 74
     0
  0
ENDTAB
  0
TABLE
  2
LAYER
  5
2
330
0
100
AcDbSymbolTable
 70
     3
  0
LAYER
  5
10
330
2
100
AcDbSymbolTableRecord
100
AcDbLayerTableRecord
  2
0
 70
     0
 62
     7
  6
Continuous
370
    -3
390
F
347
3E
  0
LAYER
  5
40
330
2
100
AcDbSymbolTableRecord
100
AcDbLayerTableRecord
  2
0-0
 70
     0
 62
     7
  6
Continuous
370
    -3
390
F
347
3E
  0
LAYER
  5
41
330
2
100
AcDbSymbolTableRecord
100
AcDbLayerTableRecord
  2
寸法
 70
     0
 62
     7
  6
Continuous
370
    -3
390
F
347
3E
  0
ENDTAB
  0
TABLE
  2
STYLE
  5
3
330
0
100
AcDbSymbolTable
 70
     1
  0
STYLE
  5
11
330
3
100
AcDbSymbolTableRecord
100
AcDbTextStyleTableRecord
  2
Standard
 70
     0
 40
0.0
 41
1.0
 50
0.0
 71
     0
 42
2.5
  3
txt
  4

  0
ENDTAB
  0
TABLE
  2
VIEW
  5
6
330
0
100
AcDbSymbolTable
 70
     0
  0
ENDTAB
  0
TABLE
  2
UCS
  5
7
330
0
100
AcDbSymbolTable
 70
     0
  0
ENDTAB
  0
TABLE
  2
APPID
  5
9
330
0
100
AcDbSymbolTable
 70
     1
  0
APPID
  5
12
330
9
100
AcDbSymbolTableRecord
100
AcDbRegAppTableRecord
  2
ACAD
 70
     0
  0
ENDTAB
  0
TABLE
  2
DIMSTYLE
  5
A
330
0
100
AcDbSymbolTable
 70
     1
100
AcDbDimStyleTable
  0
DIMSTYLE
105
27
330
A
100
AcDbSymbolTableRecord
100
AcDbDimStyleTableRecord
  2
ISO-25
 70
     0
 41
2.5
 42
0.625
 43
3.75
 44
1.25
 73
     0
 74
     0
 77
     1
 78
     8
140
2.5
141
2.5
143
0.03937007874016
147
0.625
171
     3
172
     1
178
     0
271
     2
272
     2
274
     3
278
    44
283
     0
284
     8
340
11
  0
ENDTAB
  0
TABLE
  2
BLOCK_RECORD
  5
1
330
0
100
AcDbSymbolTable
 70
     1
  0
BLOCK_RECORD
  5
1F
330
1
100
AcDbSymbolTableRecord
100
AcDbBlockTableRecord
  2
*Model_Space
340
22
 70
     0
280
     1
281
     0
  0
BLOCK_RECORD
  5
1B
330
1
100
AcDbSymbolTableRecord
100
AcDbBlockTableRecord
  2
*Paper_Space
340
1E
 70
     0
280
     1
281
     0
  0
BLOCK_RECORD
  5
23
330
1
100
AcDbSymbolTableRecord
100
AcDbBlockTableRecord
  2
*Paper_Space0
340
26
 70
     0
280
     1
281
     0
  0
ENDTAB
  0
ENDSEC
  0
SECTION
  2
BLOCKS
  0
BLOCK
  5
20
330
1F
100
AcDbEntity
  8
0
100
AcDbBlockBegin
  2
*Model_Space
 70
     0
 10
0.0
 20
0.0
 30
0.0
  3
*Model_Space
  1

  0
ENDBLK
  5
21
330
1F
100
AcDbEntity
  8
0
100
AcDbBlockEnd
  0
BLOCK
  5
1C
330
1B
100
AcDbEntity
 67
     1
  8
0
100
AcDbBlockBegin
  2
*Paper_Space
 70
     0
 10
0.0
 20
0.0
 30
0.0
  3
*Paper_Space
  1

  0
ENDBLK
  5
1D
330
1B
100
AcDbEntity
 67
     1
  8
0
100
AcDbBlockEnd
  0
BLOCK
  5
24
330
23
100
AcDbEntity
  8
0
100
AcDbBlockBegin
  2
*Paper_Space0
 70
     0
 10
0.0
 20
0.0
 30
0.0
  3
*Paper_Space0
  1

  0
ENDBLK
  5
25
330
23
100
AcDbEntity
  8
0
100
AcDbBlockEnd
  0
ENDSEC
  0
SECTION
  2
ENTITIES
  0
LINE
  5
42
330
1F
100
AcDbEntity
  8
0-0
  6
Continuous
 62
    92
370
    13
100
AcDbLine
 10
-1569.734341956024
 20
-1069.976886276076
 30
0.0
 11
-1599.734341956024
 21
-1069.976886276076
 31
0.0
  0
LINE
  5
43
330
1F
100
AcDbEntity
  8
0-0
  6
Continuous
 62
    92
370
    13
100
AcDbLine
 10
1634.265658043977
 20
-1069.976886276076
 30
0.0
 11
1604.265658043977
 21
-1069.976886276076
 31
0.0
  0
LINE
  5
44
330
1F
100
AcDbEntity
  8
0-0
  6
Continuous
 62
    92
370
    13
100
AcDbLine
 10
797.2656580439773
 20
-1069.976886276078
 30
0.0
 11
827.2656580439773
 21
-1069.976886276078
 31
0.0
  0
LINE
  5
45
330
1F
100
AcDbEntity
  8
0-0
  6
Continuous
 62
    92
370
    13
100
AcDbLine
 10
-792.7343419560245
 20
-1069.976886276078
 30
0.0
 11
-762.7343419560245
 21
-1069.976886276078
 31
0.0
  0
LINE
  5
46
330
1F
100
AcDbEntity
  8
0-0
  6
Continuous
 62
    92
370
    13
100
AcDbLine
 10
827.2656580439755
 20
-1061.976886276078
 30
0.0
 11
17.26565804397552
 21
-1061.976886276078
 31
0.0
  0
LINE
  5
47
330
1F
100
AcDbEntity
  8
0-0
  6
Continuous
 62
    92
370
    13
100
AcDbLine
 10
-792.7343419560245
 20
-1061.976886276078
 30
0.0
 11
17.26565804397552
 21
-1061.976886276078
 31
0.0
  0
LINE
  5
48
330
1F
100
AcDbEntity
  8
0-0
  6
Continuous
 62
     7
370
     9
100
AcDbLine
 10
53.26565804397561
 20
-74.87688627607753
 30
0.0
 11
53.26565804397561
 21
-134.0768862760766
 31
0.0
  0
LINE
  5
49
330
1F
100
AcDbEntity
  8
0-0
  6
Continuous
 62
     7
370
     9
100
AcDbLine
 10
83.2656580439756
 20
-134.0768862760766
 30
0.0
 11
83.2656580439756
 21
-74.87688627607753
 31
0.0
  0
ARC
  5
4A
330
1F
100
AcDbEntity
  8
0-0
  6
Continuous
 62
     7
370
     9
100
AcDbCircle
 10
68.2656580439756
 20
-74.87688627607753
 30
0.0
 40
15.0
100
AcDbArc
 50
0.0
 51
180.0
  0
ARC
  5
4B
330
1F
100
AcDbEntity
  8
0-0
  6
Continuous
 62
     7
370
     9
100
AcDbCircle
 10
68.2656580439756
 20
-134.0768862760766
 30
0.0
 40
15.0
100
AcDbArc
 50
180.0
 51
0.0
  0
ARC
  5
4C
330
1F
100
AcDbEntity
  8
0-0
  6
Continuous
 62
    92
370
    13
100
AcDbCircle
 10
48.76565804397416
 20
-163.9768862760766
 30
0.0
 40
1.5
100
AcDbArc
 50
180.0
 51
270.0
  0
LINE
  5
4D
330
1F
100
AcDbEntity
  8
0-0
  6
Continuous
 62
    92
370
    13
100
AcDbLine
 10
47.26565804397552
 20
-163.9768862760766
 30
0.0
 11
47.26565804397552
 21
-44.97688627607744
 31
0.0
  0
LINE
  5
4E
330
1F
100
AcDbEntity
  8
0-0
  6
Continuous
 62
    92
370
    13
100
AcDbLine
 10
48.76565804397416
 20
-165.4768862760795
 30
0.0
 11
87.7656580439762
 21
-165.4768862760795
 31
0.0
  0
ARC
  5
4F
330
1F
100
AcDbEntity
  8
0-0
  6
Continuous
 62
    92
370
    13
100
AcDbCircle
 10
87.7656580439762
 20
-163.9768862760766
 30
0.0
 40
1.5
100
AcDbArc
 50
270.0
 51
0.0
  0
LINE
  5
50
330
1F
100
AcDbEntity
  8
0-0
  6
Continuous
 62
    92
370
    13
100
AcDbLine
 10
89.26565804397654
 20
-163.9768862760766
 30
0.0
 11
89.26565804397654
 21
-44.97688627607744
 31
0.0
  0
ARC
  5
51
330
1F
100
AcDbEntity
  8
0-0
  6
Continuous
 62
    92
370
    13
100
AcDbCircle
 10
87.7656580439762
 20
-44.97688627607744
 30
0.0
 40
1.5
100
AcDbArc
 50
0.0
 51
90.00000000000001
  0
LINE
  5
52
330
1F
100
AcDbEntity
  8
0-0
  6
Continuous
 62
    92
370
    13
100
AcDbLine
 10
87.7656580439762
 20
-43.4768862760771
 30
0.0
 11
48.76565804397416
 21
-43.4768862760771
 31
0.0
  0
ARC
  5
53
330
1F
100
AcDbEntity
  8
0-0
  6
Continuous
 62
    92
370
    13
100
AcDbCircle
 10
48.76565804397416
 20
-44.97688627607744
 30
0.0
 40
1.5
100
AcDbArc
 50
90.0
 51
180.0
  0
LINE
  5
54
330
1F
100
AcDbEntity
  8
0-0
  6
Continuous
 62
     7
370
     9
100
AcDbLine
 10
-48.73434195602243
 20
-74.87688627607753
 30
0.0
 11
-48.73434195602243
 21
-134.0768862760766
 31
0.0
  0
LINE
  5
55
330
1F
100
AcDbEntity
  8
0-0
  6
Continuous
 62
     7
370
     9
100
AcDbLine
 10
-18.73434195602243
 20
-134.0768862760766
 30
0.0
 11
-18.73434195602243
 21
-74.87688627607753
 31
0.0
  0
ARC
  5
56
330
1F
100
AcDbEntity
  8
0-0
  6
Continuous
 62
     7
370
     9
100
AcDbCircle
 10
-33.73434195602243
 20
-74.87688627607753
 30
0.0
 40
15.0
100
AcDbArc
 50
0.0
 51
180.0
  0
ARC
  5
57
330
1F
100
AcDbEntity
  8
0-0
  6
Continuous
 62
     7
370
     9
100
AcDbCircle
 10
-33.73434195602243
 20
-134.0768862760766
 30
0.0
 40
15.0
100
AcDbArc
 50
180.0
 51
0.0
  0
ARC
  5
58
330
1F
100
AcDbEntity
  8
0-0
  6
Continuous
 62
    92
370
    13
100
AcDbCircle
 10
-53.23434195602175
 20
-163.9768862760766
 30
0.0
 40
1.5
100
AcDbArc
 50
180.0
 51
270.0
  0
LINE
  5
59
330
1F
100
AcDbEntity
  8
0-0
  6
Continuous
 62
    92
370
    13
100
AcDbLine
 10
-54.73434195602167
 20
-163.9768862760766
 30
0.0
 11
-54.73434195602167
 21
-44.97688627607744
 31
0.0
  0
LINE
  5
5A
330
1F
100
AcDbEntity
  8
0-0
  6
Continuous
 62
    92
370
    13
100
AcDbLine
 10
-53.23434195602175
 20
-165.4768862760795
 30
0.0
 11
-14.23434195602312
 21
-165.4768862760795
 31
0.0
  0
ARC
  5
5B
330
1F
100
AcDbEntity
  8
0-0
  6
Continuous
 62
    92
370
    13
100
AcDbCircle
 10
-14.23434195602312
 20
-163.9768862760766
 30
0.0
 40
1.5
100
AcDbArc
 50
270.0
 51
0.0
  0
LINE
  5
5C
330
1F
100
AcDbEntity
  8
0-0
  6
Continuous
 62
    92
370
    13
100
AcDbLine
 10
-12.73434195602277
 20
-163.9768862760766
 30
0.0
 11
-12.73434195602277
 21
-44.97688627607744
 31
0.0
  0
ARC
  5
5D
330
1F
100
AcDbEntity
  8
0-0
  6
Continuous
 62
    92
370
    13
100
AcDbCircle
 10
-14.23434195602312
 20
-44.97688627607744
 30
0.0
 40
1.5
100
AcDbArc
 50
0.0
 51
90.00000000000001
  0
LINE
  5
5E
330
1F
100
AcDbEntity
  8
0-0
  6
Continuous
 62
    92
370
    13
100
AcDbLine
 10
-14.23434195602312
 20
-43.4768862760771
 30
0.0
 11
-53.23434195602175
 21
-43.4768862760771
 31
0.0
  0
ARC
  5
5F
330
1F
100
AcDbEntity
  8
0-0
  6
Continuous
 62
    92
370
    13
100
AcDbCircle
 10
-53.23434195602175
 20
-44.97688627607744
 30
0.0
 40
1.5
100
AcDbArc
 50
90.0
 51
180.0
  0
LINE
  5
60
330
1F
100
AcDbEntity
  8
0-0
  6
Continuous
 62
    92
370
    13
100
AcDbLine
 10
827.2656580439773
 20
-1061.976886276078
 30
0.0
 11
827.2656580439773
 21
-1069.976886276078
 31
0.0
  0
LINE
  5
61
330
1F
100
AcDbEntity
  8
0-0
  6
Continuous
 62
    92
370
    13
100
AcDbLine
 10
797.2656580439773
 20
-1061.976886276078
 30
0.0
 11
797.2656580439773
 21
-1069.976886276078
 31
0.0
  0
LINE
  5
62
330
1F
100
AcDbEntity
  8
0-0
  6
Continuous
 62
    92
370
    13
100
AcDbLine
 10
-762.7343419560245
 20
-1061.976886276078
 30
0.0
 11
-762.7343419560245
 21
-1069.976886276078
 31
0.0
  0
LINE
  5
63
330
1F
100
AcDbEntity
  8
0-0
  6
Continuous
 62
    92
370
    13
100
AcDbLine
 10
-792.7343419560245
 20
-1061.976886276078
 30
0.0
 11
-792.7343419560245
 21
-1069.976886276078
 31
0.0
  0
LINE
  5
64
330
1F
100
AcDbEntity
  8
0-0
  6
Continuous
 62
    92
370
    13
100
AcDbLine
 10
-1569.734341956024
 20
1135.023113723924
 30
0.0
 11
1604.265658043977
 21
1135.023113723924
 31
0.0
  0
LINE
  5
65
330
1F
100
AcDbEntity
  8
0-0
  6
Continuous
 62
    92
370
    13
100
AcDbLine
 10
-1599.734341956024
 20
-1069.976886276076
 30
0.0
 11
-1599.734341956024
 21
1165.023113723924
 31
0.0
  0
LINE
  5
66
330
1F
100
AcDbEntity
  8
0-0
  6
Continuous
 62
    92
370
    13
100
AcDbLine
 10
1634.265658043977
 20
-1069.976886276076
 30
0.0
 11
1634.265658043977
 21
1165.023113723924
 31
0.0
  0
LINE
  5
67
330
1F
100
AcDbEntity
  8
0-0
  6
Continuous
 62
    92
370
    13
100
AcDbLine
 10
-1599.734341956024
 20
1165.023113723924
 30
0.0
 11
1634.265658043977
 21
1165.023113723924
 31
0.0
  0
LINE
  5
68
330
1F
100
AcDbEntity
  8
0-0
  6
Continuous
 62
    92
370
    13
100
AcDbLine
 10
-1569.734341956024
 20
-1069.976886276076
 30
0.0
 11
-1569.734341956024
 21
1165.023113723924
 31
0.0
  0
LINE
  5
69
330
1F
100
AcDbEntity
  8
0-0
  6
Continuous
 62
    92
370
    13
100
AcDbLine
 10
1604.265658043977
 20
-1069.976886276076
 30
0.0
 11
1604.265658043977
 21
1165.023113723924
 31
0.0
  0
LINE
  5
6A
330
1F
100
AcDbEntity
  8
0-0
  6
Continuous
 62
    92
370
    13
100
AcDbLine
 10
827.2656580439755
 20
1121.023113723923
 30
0.0
 11
17.26565804397552
 21
1121.023113723923
 31
0.0
  0
LINE
  5
6B
330
1F
100
AcDbEntity
  8
0-0
  6
JWW_DASHED1
 62
   120
370
     5
100
AcDbLine
 10
797.2656580439755
 20
-1061.976886276078
 30
0.0
 11
797.2656580439755
 21
1121.023113723923
 31
0.0
  0
LINE
  5
6C
330
1F
100
AcDbEntity
  8
0-0
  6
Continuous
 62
    92
370
    13
100
AcDbLine
 10
827.2656580439755
 20
-1061.976886276078
 30
0.0
 11
827.2656580439755
 21
1121.023113723923
 31
0.0
  0
LINE
  5
6D
330
1F
100
AcDbEntity
  8
0-0
  6
Continuous
 62
    92
370
    13
100
AcDbLine
 10
17.26565804397552
 20
-1061.976886276078
 30
0.0
 11
17.26565804397552
 21
1121.023113723923
 31
0.0
  0
LINE
  5
6E
330
1F
100
AcDbEntity
  8
0-0
  6
Continuous
 62
    92
370
    13
100
AcDbLine
 10
-792.7343419560245
 20
1121.023113723923
 30
0.0
 11
17.26565804397552
 21
1121.023113723923
 31
0.0
  0
LINE
  5
6F
330
1F
100
AcDbEntity
  8
0-0
  6
JWW_DASHED1
 62
   120
370
     5
100
AcDbLine
 10
-762.7343419560245
 20
-1061.976886276078
 30
0.0
 11
-762.7343419560245
 21
1121.023113723923
 31
0.0
  0
LINE
  5
70
330
1F
100
AcDbEntity
  8
0-0
  6
Continuous
 62
    92
370
    13
100
AcDbLine
 10
-792.7343419560245
 20
-1061.976886276078
 30
0.0
 11
-792.7343419560245
 21
1121.023113723923
 31
0.0
  0
LINE
  5
71
330
1F
100
AcDbEntity
  8
0-0
  6
JWW_DASHED1
 62
   120
370
     5
100
AcDbLine
 10
-762.7343419560227
 20
-1061.976886276078
 30
0.0
 11
-762.7343419560227
 21
1135.023113723924
 31
0.0
  0
LINE
  5
72
330
1F
100
AcDbEntity
  8
0-0
  6
JWW_DASHED1
 62
   120
370
     5
100
AcDbLine
 10
-792.7343419560227
 20
-1061.976886276078
 30
0.0
 11
-792.7343419560227
 21
1135.023113723924
 31
0.0
  0
LINE
  5
73
330
1F
100
AcDbEntity
  8
0-0
  6
JWW_DASHED1
 62
   120
370
     5
100
AcDbLine
 10
827.2656580439773
 20
-1061.976886276078
 30
0.0
 11
827.2656580439773
 21
1135.023113723924
 31
0.0
  0
LINE
  5
74
330
1F
100
AcDbEntity
  8
0-0
  6
JWW_DASHED1
 62
   120
370
     5
100
AcDbLine
 10
797.2656580439773
 20
-1061.976886276078
 30
0.0
 11
797.2656580439773
 21
1135.023113723924
 31
0.0
  0
LINE
  5
75
330
1F
100
AcDbEntity
  8
0-0
  6
Continuous
 62
    92
370
    13
100
AcDbLine
 10
717.2656580439766
 20
-920.976886276078
 30
0.0
 11
127.2656580439761
 21
-920.976886276078
 31
0.0
  0
LINE
  5
76
330
1F
100
AcDbEntity
  8
0-0
  6
Continuous
 62
    92
370
    13
100
AcDbLine
 10
-92.73434195602334
 20
-920.976886276078
 30
0.0
 11
-682.7343419560223
 21
-920.976886276078
 31
0.0
  0
LINE
  5
77
330
1F
100
AcDbEntity
  8
0-0
  6
Continuous
 62
    92
370
    13
100
AcDbLine
 10
-92.73434195602334
 20
1121.023113723923
 30
0.0
 11
-92.73434195602334
 21
-1061.976886276078
 31
0.0
  0
LINE
  5
78
330
1F
100
AcDbEntity
  8
0-0
  6
Continuous
 62
    92
370
    13
100
AcDbLine
 10
127.2656580439761
 20
1121.023113723923
 30
0.0
 11
127.2656580439761
 21
-1061.976886276078
 31
0.0
  0
LINE
  5
79
330
1F
100
AcDbEntity
  8
0-0
  6
Continuous
 62
    92
370
    13
100
AcDbLine
 10
717.2656580439766
 20
1121.023113723923
 30
0.0
 11
717.2656580439766
 21
-1061.976886276078
 31
0.0
  0
LINE
  5
7A
330
1F
100
AcDbEntity
  8
0-0
  6
Continuous
 62
    92
370
    13
100
AcDbLine
 10
-682.7343419560223
 20
1121.023113723923
 30
0.0
 11
-682.7343419560223
 21
-1061.976886276078
 31
0.0
  0
LINE
  5
7B
330
1F
100
AcDbEntity
  8
0-0
  6
Continuous
 62
    92
370
    13
100
AcDbLine
 10
-682.7343419560223
 20
986.0231137239227
 30
0.0
 11
-92.73434195602334
 21
986.0231137239227
 31
0.0
  0
LINE
  5
7C
330
1F
100
AcDbEntity
  8
0-0
  6
Continuous
 62
    92
370
    13
100
AcDbLine
 10
127.2656580439761
 20
986.0231137239227
 30
0.0
 11
717.2656580439766
 21
986.0231137239227
 31
0.0
  0
LINE
  5
7D
330
1F
100
AcDbEntity
  8
0-0
  6
Continuous
 62
    92
370
    13
100
AcDbLine
 10
-432.7343419560245
 20
986.0231137239227
 30
0.0
 11
-432.7343419560245
 21
-920.9768862760782
 31
0.0
  0
LINE
  5
7E
330
1F
100
AcDbEntity
  8
0-0
  6
Continuous
 62
    92
370
    13
100
AcDbLine
 10
-342.7343419560245
 20
986.0231137239227
 30
0.0
 11
-342.7343419560245
 21
-920.9768862760782
 31
0.0
  0
LINE
  5
7F
330
1F
100
AcDbEntity
  8
0-0
  6
Continuous
 62
    92
370
    13
100
AcDbLine
 10
377.2656580439772
 20
986.0231137239227
 30
0.0
 11
377.2656580439772
 21
-920.9768862760782
 31
0.0
  0
LINE
  5
80
330
1F
100
AcDbEntity
  8
0-0
  6
Continuous
 62
    92
370
    13
100
AcDbLine
 10
467.2656580439772
 20
986.0231137239227
 30
0.0
 11
467.2656580439772
 21
-920.9768862760782
 31
0.0
  0
LINE
  5
81
330
1F
100
AcDbEntity
  8
0-0
  6
JWW_DASHED1
 62
   120
370
     5
100
AcDbLine
 10
-94.50975790506419
 20
-920.9768862760758
 30
0.0
 11
-92.73434195602547
 21
-919.2014703270371
 31
0.0
  0
LINE
  5
82
330
1F
100
AcDbEntity
  8
0-0
  6
JWW_DASHED1
 62
   120
370
     5
100
AcDbLine
 10
-101.5808257183458
 20
-920.976886276072
 30
0.0
 11
-92.73434195602931
 21
-912.1304025137555
 31
0.0
  0
LINE
  5
83
330
1F
100
AcDbEntity
  8
0-0
  6
JWW_DASHED1
 62
   120
370
     5
100
AcDbLine
 10
-108.6518935316279
 20
-920.9768862760686
 30
0.0
 11
-92.73434195603357
 21
-905.0593347004742
 31
0.0
  0
LINE
  5
84
330
1F
100
AcDbEntity
  8
0-0
  6
JWW_DASHED1
 62
   120
370
     5
100
AcDbLine
 10
-115.7229613449095
 20
-920.9768862760648
 30
0.0
 11
-92.73434195603784
 21
-897.988266887193
 31
0.0
  0
LINE
  5
85
330
1F
100
AcDbEntity
  8
0-0
  6
JWW_DASHED1
 62
   120
370
     5
100
AcDbLine
 10
-122.7940291582074
 20
-920.976886276077
 30
0.0
 11
-92.73434195602633
 21
-890.917199073896
 31
0.0
  0
LINE
  5
86
330
1F
100
AcDbEntity
  8
0-0
  6
JWW_DASHED1
 62
   120
370
     5
100
AcDbLine
 10
-129.8650969714886
 20
-920.9768862760728
 30
0.0
 11
-92.73434195603016
 21
-883.8461312606139
 31
0.0
  0
LINE
  5
87
330
1F
100
AcDbEntity
  8
0-0
  6
JWW_DASHED1
 62
   120
370
     5
100
AcDbLine
 10
-136.9361647847835
 20
-920.9768862760823
 30
0.0
 11
-92.7343419560178
 21
-876.7750634473166
 31
0.0
  0
LINE
  5
88
330
1F
100
AcDbEntity
  8
0-0
  6
JWW_DASHED1
 62
   120
370
     5
100
AcDbLine
 10
-144.0072325980647
 20
-920.976886276078
 30
0.0
 11
-92.73434195602206
 21
-869.7039956340353
 31
0.0
  0
LINE
  5
89
330
1F
100
AcDbEntity
  8
0-0
  6
JWW_DASHED1
 62
   120
370
     5
100
AcDbLine
 10
-151.0783004112909
 20
-920.9768862760733
 30
0.0
 11
-92.73434195603016
 21
-862.6329278208125
 31
0.0
  0
LINE
  5
8A
330
1F
100
AcDbEntity
  8
0-0
  6
JWW_DASHED1
 62
   120
370
     5
100
AcDbLine
 10
-158.1493682245726
 20
-920.9768862760694
 30
0.0
 11
-92.73434195603443
 21
-855.5618600075313
 31
0.0
  0
LINE
  5
8B
330
1F
100
AcDbEntity
  8
0-0
  6
JWW_DASHED1
 62
   120
370
     5
100
AcDbLine
 10
-165.2204360378546
 20
-920.976886276066
 30
0.0
 11
-92.73434195603869
 21
-848.49079219425
 31
0.0
  0
LINE
  5
8C
330
1F
100
AcDbEntity
  8
0-0
  6
JWW_DASHED1
 62
   120
370
     5
100
AcDbLine
 10
-172.2915038511516
 20
-920.9768862760775
 30
0.0
 11
-92.7343419560276
 21
-841.4197243809535
 31
0.0
  0
LINE
  5
8D
330
1F
100
AcDbEntity
  8
0-0
  6
JWW_DASHED1
 62
   120
370
     5
100
AcDbLine
 10
-179.3625716644337
 20
-920.9768862760741
 30
0.0
 11
-92.73434195603059
 21
-834.348656567671
 31
0.0
  0
LINE
  5
8E
330
1F
100
AcDbEntity
  8
0-0
  6
JWW_DASHED1
 62
   120
370
     5
100
AcDbLine
 10
-186.4336394777251
 20
-920.9768862760801
 30
0.0
 11
-92.73434195601865
 21
-827.2775887543736
 31
0.0
  0
LINE
  5
8F
330
1F
100
AcDbEntity
  8
0-0
  6
JWW_DASHED1
 62
   120
370
     5
100
AcDbLine
 10
-193.5047072910068
 20
-920.9768862760762
 30
0.0
 11
-92.73434195602292
 21
-820.2065209410923
 31
0.0
  0
LINE
  5
90
330
1F
100
AcDbEntity
  8
0-0
  6
JWW_DASHED1
 62
   120
370
     5
100
AcDbLine
 10
-200.575775104288
 20
-920.9768862760716
 30
0.0
 11
-92.73434195602718
 21
-813.1354531278112
 31
0.0
  0
LINE
  5
91
330
1F
100
AcDbEntity
  8
0-0
  6
JWW_DASHED1
 62
   120
370
     5
100
AcDbLine
 10
-207.6468429175765
 20
-920.9768862760745
 30
0.0
 11
-92.73434195603144
 21
-806.0643853145295
 31
0.0
  0
LINE
  5
92
330
1F
100
AcDbEntity
  8
0-0
  6
JWW_DASHED1
 62
   120
370
     5
100
AcDbLine
 10
-214.7179107307993
 20
-920.9768862760668
 30
0.0
 11
-92.73434195603954
 21
-798.9933175013072
 31
0.0
  0
LINE
  5
93
330
1F
100
AcDbEntity
  8
0-0
  6
JWW_DASHED1
 62
   120
370
     5
100
AcDbLine
 10
-221.7889785440967
 20
-920.9768862760789
 30
0.0
 11
-92.73434195602846
 21
-791.9222496880105
 31
0.0
  0
LINE
  5
94
330
1F
100
AcDbEntity
  8
0-0
  6
JWW_DASHED1
 62
   120
370
     5
100
AcDbLine
 10
-228.8600463573788
 20
-920.9768862760754
 30
0.0
 11
-92.73434195603144
 21
-784.8511818747281
 31
0.0
  0
LINE
  5
95
330
1F
100
AcDbEntity
  8
0-0
  6
JWW_DASHED1
 62
   120
370
     5
100
AcDbLine
 10
-235.9311141706672
 20
-920.9768862760784
 30
0.0
 11
-92.73434195601993
 21
-777.780114061431
 31
0.0
  0
LINE
  5
96
330
1F
100
AcDbEntity
  8
0-0
  6
JWW_DASHED1
 62
   120
370
     5
100
AcDbLine
 10
-243.0021819839484
 20
-920.9768862760736
 30
0.0
 11
-92.7343419560242
 21
-770.7090462481499
 31
0.0
  0
LINE
  5
97
330
1F
100
AcDbEntity
  8
0-0
  6
JWW_DASHED1
 62
   120
370
     5
100
AcDbLine
 10
-250.0732497972297
 20
-920.9768862760699
 30
0.0
 11
-92.73434195602803
 21
-763.6379784348683
 31
0.0
  0
LINE
  5
98
330
1F
100
AcDbEntity
  8
0-0
  6
JWW_DASHED1
 62
   120
370
     5
100
AcDbLine
 10
-257.1443176105215
 20
-920.9768862760758
 30
0.0
 11
-92.7343419560323
 21
-756.5669106215865
 31
0.0
  0
LINE
  5
99
330
1F
100
AcDbEntity
  8
0-0
  6
JWW_DASHED1
 62
   120
370
     5
100
AcDbLine
 10
-264.2153854238032
 20
-920.9768862760724
 30
0.0
 11
-92.73434195603613
 21
-749.4958428083054
 31
0.0
  0
LINE
  5
9A
330
1F
100
AcDbEntity
  8
0-0
  6
JWW_DASHED1
 62
   120
370
     5
100
AcDbLine
 10
-271.2864532371002
 20
-920.9768862760839
 30
0.0
 11
-92.7343419560259
 21
-742.4247749950092
 31
0.0
  0
LINE
  5
9B
330
1F
100
AcDbEntity
  8
0-0
  6
JWW_DASHED1
 62
   120
370
     5
100
AcDbLine
 10
-278.3575210503234
 20
-920.9768862760762
 30
0.0
 11
-92.7343419560323
 21
-735.3537071817851
 31
0.0
  0
LINE
  5
9C
330
1F
100
AcDbEntity
  8
0-0
  6
JWW_DASHED1
 62
   120
370
     5
100
AcDbLine
 10
-285.4285888636089
 20
-920.9768862760758
 30
0.0
 11
-92.73434195602078
 21
-728.2826393684882
 31
0.0
  0
LINE
  5
9D
330
1F
100
AcDbEntity
  8
0-0
  6
JWW_DASHED1
 62
   120
370
     5
100
AcDbLine
 10
-292.4996566768901
 20
-920.976886276072
 30
0.0
 11
-92.73434195602505
 21
-721.2115715552065
 31
0.0
  0
LINE
  5
9E
330
1F
100
AcDbEntity
  8
0-0
  6
JWW_DASHED1
 62
   120
370
     5
100
AcDbLine
 10
-299.5707244901841
 20
-920.9768862760804
 30
0.0
 11
-92.73434195602889
 21
-714.1405037419253
 31
0.0
  0
LINE
  5
9F
330
1F
100
AcDbEntity
  8
0-0
  6
JWW_DASHED1
 62
   120
370
     5
100
AcDbLine
 10
-306.6417923034662
 20
-920.976886276077
 30
0.0
 11
-92.73434195603315
 21
-707.0694359286437
 31
0.0
  0
LINE
  5
A0
330
1F
100
AcDbEntity
  8
0-0
  6
JWW_DASHED1
 62
   120
370
     5
100
AcDbLine
 10
-313.7128601167483
 20
-920.9768862760733
 30
0.0
 11
-92.73434195603699
 21
-699.9983681153619
 31
0.0
  0
LINE
  5
A1
330
1F
100
AcDbEntity
  8
0-0
  6
JWW_DASHED1
 62
   120
370
     5
100
AcDbLine
 10
-320.7839279300453
 20
-920.9768862760852
 30
0.0
 11
-92.73434195602675
 21
-692.9273003020667
 31
0.0
  0
LINE
  5
A2
330
1F
100
AcDbEntity
  8
0-0
  6
JWW_DASHED1
 62
   120
370
     5
100
AcDbLine
 10
-327.8549957433273
 20
-920.9768862760818
 30
0.0
 11
-92.73434195603102
 21
-685.8562324887855
 31
0.0
  0
LINE
  5
A3
330
1F
100
AcDbEntity
  8
0-0
  6
JWW_DASHED1
 62
   120
370
     5
100
AcDbLine
 10
-334.9260635566094
 20
-920.9768862760784
 30
0.0
 11
-92.73434195601737
 21
-678.7851646754864
 31
0.0
  0
LINE
  5
A4
330
1F
100
AcDbEntity
  8
0-0
  6
JWW_DASHED1
 62
   120
370
     5
100
AcDbLine
 10
-341.9971313698906
 20
-920.9768862760741
 30
0.0
 11
-92.73434195602121
 21
-671.7140968622048
 31
0.0
  0
LINE
  5
A5
330
1F
100
AcDbEntity
  8
0-0
  6
JWW_DASHED1
 62
   120
370
     5
100
AcDbLine
 10
-342.7343419560211
 20
-914.6430290489732
 30
0.0
 11
-92.73434195602974
 21
-664.6430290489823
 31
0.0
  0
LINE
  5
A6
330
1F
100
AcDbEntity
  8
0-0
  6
JWW_DASHED1
 62
   120
370
     5
100
AcDbLine
 10
-342.7343419560253
 20
-907.5719612356925
 30
0.0
 11
-92.73434195603357
 21
-657.5719612357007
 31
0.0
  0
LINE
  5
A7
330
1F
100
AcDbEntity
  8
0-0
  6
JWW_DASHED1
 62
   120
370
     5
100
AcDbLine
 10
-342.7343419560292
 20
-900.5008934224104
 30
0.0
 11
-92.73434195603784
 21
-650.500893422419
 31
0.0
  0
LINE
  5
A8
330
1F
100
AcDbEntity
  8
0-0
  6
JWW_DASHED1
 62
   120
370
     5
100
AcDbLine
 10
-342.7343419560177
 20
-893.4298256091133
 30
0.0
 11
-92.73434195602846
 21
-643.4298256091242
 31
0.0
  0
LINE
  5
A9
330
1F
100
AcDbEntity
  8
0-0
  6
JWW_DASHED1
 62
   120
370
     5
100
AcDbLine
 10
-342.7343419560215
 20
-886.3587577958317
 30
0.0
 11
-92.73434195603016
 21
-636.3587577958408
 31
0.0
  0
LINE
  5
AA
330
1F
100
AcDbEntity
  8
0-0
  6
JWW_DASHED1
 62
   120
370
     5
100
AcDbLine
 10
-342.7343419560253
 20
-879.2876899825505
 30
0.0
 11
-92.73434195601823
 21
-629.2876899825434
 31
0.0
  0
LINE
  5
AB
330
1F
100
AcDbEntity
  8
0-0
  6
JWW_DASHED1
 62
   120
370
     5
100
AcDbLine
 10
-342.7343419560296
 20
-872.2166221692689
 30
0.0
 11
-92.73434195602206
 21
-622.2166221692618
 31
0.0
  0
LINE
  5
AC
330
1F
100
AcDbEntity
  8
0-0
  6
JWW_DASHED1
 62
   120
370
     5
100
AcDbLine
 10
-342.7343419560334
 20
-865.1455543559877
 30
0.0
 11
-92.73434195602633
 21
-615.1455543559805
 31
0.0
  0
LINE
  5
AD
330
1F
100
AcDbEntity
  8
0-0
  6
JWW_DASHED1
 62
   120
370
     5
100
AcDbLine
 10
-342.7343419560219
 20
-858.0744865426907
 30
0.0
 11
-92.73434195603059
 21
-608.0744865426993
 31
0.0
  0
LINE
  5
AE
330
1F
100
AcDbEntity
  8
0-0
  6
JWW_DASHED1
 62
   120
370
     5
100
AcDbLine
 10
-342.7343419560296
 20
-851.0034187294674
 30
0.0
 11
-92.73434195603869
 21
-601.0034187294765
 31
0.0
  0
LINE
  5
AF
330
1F
100
AcDbEntity
  8
0-0
  6
JWW_DASHED1
 62
   120
370
     5
100
AcDbLine
 10
-342.734341956019
 20
-843.9323509161713
 30
0.0
 11
-92.73434195602974
 21
-593.932350916182
 31
0.0
  0
LINE
  5
B0
330
1F
100
AcDbEntity
  8
0-0
  6
JWW_DASHED1
 62
   120
370
     5
100
AcDbLine
 10
-342.7343419560224
 20
-836.8612831028893
 30
0.0
 11
-92.73434195603102
 21
-586.8612831028979
 31
0.0
  0
LINE
  5
B1
330
1F
100
AcDbEntity
  8
0-0
  6
JWW_DASHED1
 62
   120
370
     5
100
AcDbLine
 10
-433.9210129425034
 20
-920.9768862760848
 30
0.0
 11
-432.7343419560177
 21
-919.790215289599
 31
0.0
  0
LINE
  5
B2
330
1F
100
AcDbEntity
  8
0-0
  6
JWW_DASHED1
 62
   120
370
     5
100
AcDbLine
 10
-342.7343419560262
 20
-829.7902152896075
 30
0.0
 11
-92.7343419560195
 21
-579.7902152896008
 31
0.0
  0
LINE
  5
B3
330
1F
100
AcDbEntity
  8
0-0
  6
JWW_DASHED1
 62
   120
370
     5
100
AcDbLine
 10
-440.9920807557846
 20
-920.9768862760801
 30
0.0
 11
-432.7343419560219
 21
-912.7191474763179
 31
0.0
  0
LINE
  5
B4
330
1F
100
AcDbEntity
  8
0-0
  6
JWW_DASHED1
 62
   120
370
     5
100
AcDbLine
 10
-342.7343419560304
 20
-822.7191474763259
 30
0.0
 11
-92.73434195602292
 21
-572.7191474763188
 31
0.0
  0
LINE
  5
B5
330
1F
100
AcDbEntity
  8
0-0
  6
JWW_DASHED1
 62
   120
370
     5
100
AcDbLine
 10
-448.0631485690667
 20
-920.976886276077
 30
0.0
 11
-432.7343419560258
 21
-905.6480796630362
 31
0.0
  0
LINE
  5
B6
330
1F
100
AcDbEntity
  8
0-0
  6
JWW_DASHED1
 62
   120
370
     5
100
AcDbLine
 10
-342.7343419560343
 20
-815.6480796630443
 30
0.0
 11
-92.73434195602718
 21
-565.6480796630376
 31
0.0
  0
LINE
  5
B7
330
1F
100
AcDbEntity
  8
0-0
  6
JWW_DASHED1
 62
   120
370
     5
100
AcDbLine
 10
-455.1342163823488
 20
-920.9768862760733
 30
0.0
 11
-432.7343419560296
 21
-898.5770118497545
 31
0.0
  0
LINE
  5
B8
330
1F
100
AcDbEntity
  8
0-0
  6
JWW_DASHED1
 62
   120
370
     5
100
AcDbLine
 10
-342.7343419560228
 20
-808.5770118497477
 30
0.0
 11
-92.73434195603144
 21
-558.5770118497564
 31
0.0
  0
LINE
  5
B9
330
1F
100
AcDbEntity
  8
0-0
  6
JWW_DASHED1
 62
   120
370
     5
100
AcDbLine
 10
-462.2052841956304
 20
-920.9768862760694
 30
0.0
 11
-432.7343419560339
 21
-891.5059440364734
 31
0.0
  0
LINE
  5
BA
330
1F
100
AcDbEntity
  8
0-0
  6
JWW_DASHED1
 62
   120
370
     5
100
AcDbLine
 10
-342.7343419560266
 20
-801.5059440364661
 30
0.0
 11
-92.73434195603528
 21
-551.5059440364747
 31
0.0
  0
LINE
  5
BB
330
1F
100
AcDbEntity
  8
0-0
  6
JWW_DASHED1
 62
   120
370
     5
100
AcDbLine
 10
-469.2763520089278
 20
-920.9768862760818
 30
0.0
 11
-432.7343419560224
 21
-884.4348762231764
 31
0.0
  0
LINE
  5
BC
330
1F
100
AcDbEntity
  8
0-0
  6
JWW_DASHED1
 62
   120
370
     5
100
AcDbLine
 10
-342.7343419560156
 20
-794.4348762231696
 30
0.0
 11
-92.73434195602633
 21
-544.4348762231803
 31
0.0
  0
LINE
  5
BD
330
1F
100
AcDbEntity
  8
0-0
  6
JWW_DASHED1
 62
   120
370
     5
100
AcDbLine
 10
-476.3474198221638
 20
-920.9768862760865
 30
0.0
 11
-432.7343419560142
 21
-877.3638084099373
 31
0.0
  0
LINE
  5
BE
330
1F
100
AcDbEntity
  8
0-0
  6
JWW_DASHED1
 62
   120
370
     5
100
AcDbLine
 10
-342.7343419560232
 20
-787.3638084099458
 30
0.0
 11
-92.73434195603187
 21
-537.3638084099549
 31
0.0
  0
LINE
  5
BF
330
1F
100
AcDbEntity
  8
0-0
  6
JWW_DASHED1
 62
   120
370
     5
100
AcDbLine
 10
-483.4184876354446
 20
-920.9768862760823
 30
0.0
 11
-432.734341956019
 21
-870.2927405966566
 31
0.0
  0
LINE
  5
C0
330
1F
100
AcDbEntity
  8
0-0
  6
JWW_DASHED1
 62
   120
370
     5
100
AcDbLine
 10
-342.734341956027
 20
-780.2927405966647
 30
0.0
 11
-92.73434195602036
 21
-530.292740596658
 31
0.0
  0
LINE
  5
C1
330
1F
100
AcDbEntity
  8
0-0
  6
JWW_DASHED1
 62
   120
370
     5
100
AcDbLine
 10
-490.4895554487263
 20
-920.9768862760784
 30
0.0
 11
-432.7343419560228
 21
-863.2216727833749
 31
0.0
  0
LINE
  5
C2
330
1F
100
AcDbEntity
  8
0-0
  6
JWW_DASHED1
 62
   120
370
     5
100
AcDbLine
 10
-342.7343419560313
 20
-773.2216727833829
 30
0.0
 11
-92.73434195602377
 21
-523.2216727833759
 31
0.0
  0
LINE
  5
C3
330
1F
100
AcDbEntity
  8
0-0
  6
JWW_DASHED1
 62
   120
370
     5
100
AcDbLine
 10
-497.5606232620113
 20
-920.976886276078
 30
0.0
 11
-432.734341956027
 21
-856.1506049700937
 31
0.0
  0
LINE
  5
C4
330
1F
100
AcDbEntity
  8
0-0
  6
JWW_DASHED1
 62
   120
370
     5
100
AcDbLine
 10
-342.734341956019
 20
-766.1506049700856
 30
0.0
 11
-92.73434195602846
 21
-516.1506049700951
 31
0.0
  0
LINE
  5
C5
330
1F
100
AcDbEntity
  8
0-0
  6
JWW_DASHED1
 62
   120
370
     5
100
AcDbLine
 10
-504.631691075293
 20
-920.9768862760741
 30
0.0
 11
-432.7343419560304
 21
-849.0795371568116
 31
0.0
  0
LINE
  5
C6
330
1F
100
AcDbEntity
  8
0-0
  6
JWW_DASHED1
 62
   120
370
     5
100
AcDbLine
 10
-342.7343419560236
 20
-759.0795371568048
 30
0.0
 11
-92.7343419560323
 21
-509.0795371568134
 31
0.0
  0
LINE
  5
C7
330
1F
100
AcDbEntity
  8
0-0
  6
JWW_DASHED1
 62
   120
370
     5
100
AcDbLine
 10
-511.702758888575
 20
-920.9768862760707
 30
0.0
 11
-432.7343419560347
 21
-842.0084693435304
 31
0.0
  0
LINE
  5
C8
330
1F
100
AcDbEntity
  8
0-0
  6
JWW_DASHED1
 62
   120
370
     5
100
AcDbLine
 10
-342.7343419560275
 20
-752.0084693435231
 30
0.0
 11
-92.73434195603656
 21
-502.0084693435322
 31
0.0
  0
LINE
  5
C9
330
1F
100
AcDbEntity
  8
0-0
  6
JWW_DASHED1
 62
   120
370
     5
100
AcDbLine
 10
-518.7738267018724
 20
-920.9768862760826
 30
0.0
 11
-432.7343419560241
 21
-834.9374015302338
 31
0.0
  0
LINE
  5
CA
330
1F
100
AcDbEntity
  8
0-0
  6
JWW_DASHED1
 62
   120
370
     5
100
AcDbLine
 10
-342.7343419560173
 20
-744.9374015302274
 30
0.0
 11
-92.73434195602803
 21
-494.9374015302382
 31
0.0
  0
LINE
  5
CB
330
1F
100
AcDbEntity
  8
0-0
  6
JWW_DASHED1
 62
   120
370
     5
100
AcDbLine
 10
-525.8448945151537
 20
-920.9768862760784
 30
0.0
 11
-432.7343419560279
 21
-827.8663337169521
 31
0.0
  0
LINE
  5
CC
330
1F
100
AcDbEntity
  8
0-0
  6
JWW_DASHED1
 62
   120
370
     5
100
AcDbLine
 10
-342.7343419560215
 20
-737.8663337169457
 30
0.0
 11
-92.7343419560323
 21
-487.866333716957
 31
0.0
  0
LINE
  5
CD
330
1F
100
AcDbEntity
  8
0-0
  6
JWW_DASHED1
 62
   120
370
     5
100
AcDbLine
 10
-532.9159623284452
 20
-920.9768862760843
 30
0.0
 11
-432.7343419560156
 21
-820.7952659036544
 31
0.0
  0
LINE
  5
CE
330
1F
100
AcDbEntity
  8
0-0
  6
JWW_DASHED1
 62
   120
370
     5
100
AcDbLine
 10
-342.7343419560236
 20
-730.7952659036629
 30
0.0
 11
-92.73434195603272
 21
-480.795265903672
 31
0.0
  0
LINE
  5
CF
330
1F
100
AcDbEntity
  8
0-0
  6
JWW_DASHED1
 62
   120
370
     5
100
AcDbLine
 10
-539.9870301417263
 20
-920.9768862760801
 30
0.0
 11
-432.734341956019
 21
-813.7241980903727
 31
0.0
  0
LINE
  5
D0
330
1F
100
AcDbEntity
  8
0-0
  6
JWW_DASHED1
 62
   120
370
     5
100
AcDbLine
 10
-342.7343419560279
 20
-723.7241980903816
 30
0.0
 11
-92.73434195602078
 21
-473.7241980903741
 31
0.0
  0
LINE
  5
D1
330
1F
100
AcDbEntity
  8
0-0
  6
JWW_DASHED1
 62
   120
370
     5
100
AcDbLine
 10
-547.058097954956
 20
-920.9768862760789
 30
0.0
 11
-432.7343419560279
 21
-806.6531302771507
 31
0.0
  0
LINE
  5
D2
330
1F
100
AcDbEntity
  8
0-0
  6
JWW_DASHED1
 62
   120
370
     5
100
AcDbLine
 10
-342.7343419560207
 20
-716.6531302771431
 30
0.0
 11
-92.73434195602931
 21
-466.6531302771522
 31
0.0
  0
LINE
  5
D3
330
1F
100
AcDbEntity
  8
0-0
  6
JWW_DASHED1
 62
   120
370
     5
100
AcDbLine
 10
-554.1291657682376
 20
-920.9768862760745
 30
0.0
 11
-432.7343419560313
 21
-799.5820624638686
 31
0.0
  0
LINE
  5
D4
330
1F
100
AcDbEntity
  8
0-0
  6
JWW_DASHED1
 62
   120
370
     5
100
AcDbLine
 10
-342.7343419560245
 20
-709.5820624638613
 30
0.0
 11
-92.73434195603315
 21
-459.5820624638705
 31
0.0
  0
LINE
  5
D5
330
1F
100
AcDbEntity
  8
0-0
  6
JWW_DASHED1
 62
   120
370
     5
100
AcDbLine
 10
-561.2002335815192
 20
-920.9768862760711
 30
0.0
 11
-432.734341956036
 21
-792.5109946505879
 31
0.0
  0
LINE
  5
D6
330
1F
100
AcDbEntity
  8
0-0
  6
JWW_DASHED1
 62
   120
370
     5
100
AcDbLine
 10
-342.7343419560287
 20
-702.5109946505802
 30
0.0
 11
-92.73434195603741
 21
-452.5109946505893
 31
0.0
  0
LINE
  5
D7
330
1F
100
AcDbEntity
  8
0-0
  6
JWW_DASHED1
 62
   120
370
     5
100
AcDbLine
 10
-568.2713013948166
 20
-920.9768862760831
 30
0.0
 11
-432.7343419560249
 21
-785.4399268372913
 31
0.0
  0
LINE
  5
D8
330
1F
100
AcDbEntity
  8
0-0
  6
JWW_DASHED1
 62
   120
370
     5
100
AcDbLine
 10
-342.7343419560185
 20
-695.4399268372849
 30
0.0
 11
-92.73434195602931
 21
-445.4399268372957
 31
0.0
  0
LINE
  5
D9
330
1F
100
AcDbEntity
  8
0-0
  6
JWW_DASHED1
 62
   120
370
     5
100
AcDbLine
 10
-575.3423692081051
 20
-920.976886276086
 30
0.0
 11
-432.7343419560121
 21
-778.3688590239931
 31
0.0
  0
LINE
  5
DA
330
1F
100
AcDbEntity
  8
0-0
  6
JWW_DASHED1
 62
   120
370
     5
100
AcDbLine
 10
-342.7343419560202
 20
-688.3688590240012
 30
0.0
 11
-92.73434195602974
 21
-438.3688590240106
 31
0.0
  0
LINE
  5
DB
330
1F
100
AcDbEntity
  8
0-0
  6
JWW_DASHED1
 62
   120
370
     5
100
AcDbLine
 10
-582.4134370213864
 20
-920.9768862760818
 30
0.0
 11
-432.7343419560164
 21
-771.2977912107114
 31
0.0
  0
LINE
  5
DC
330
1F
100
AcDbEntity
  8
0-0
  6
JWW_DASHED1
 62
   120
370
     5
100
AcDbLine
 10
-342.7343419560249
 20
-681.2977912107203
 30
0.0
 11
-92.7343419560178
 21
-431.2977912107132
 31
0.0
  0
LINE
  5
DD
330
1F
100
AcDbEntity
  8
0-0
  6
JWW_DASHED1
 62
   120
370
     5
100
AcDbLine
 10
-589.4845048346676
 20
-920.9768862760775
 30
0.0
 11
-432.7343419560202
 21
-764.2267233974302
 31
0.0
  0
LINE
  5
DE
330
1F
100
AcDbEntity
  8
0-0
  6
JWW_DASHED1
 62
   120
370
     5
100
AcDbLine
 10
-342.7343419560287
 20
-674.2267233974387
 30
0.0
 11
-92.73434195602164
 21
-424.2267233974316
 31
0.0
  0
LINE
  5
DF
330
1F
100
AcDbEntity
  8
0-0
  6
JWW_DASHED1
 62
   120
370
     5
100
AcDbLine
 10
-596.5555726479595
 20
-920.9768862760835
 30
0.0
 11
-432.7343419560245
 21
-757.1556555841489
 31
0.0
  0
LINE
  5
E0
330
1F
100
AcDbEntity
  8
0-0
  6
JWW_DASHED1
 62
   120
370
     5
100
AcDbLine
 10
-342.7343419560326
 20
-667.1556555841571
 30
0.0
 11
-92.73434195602547
 21
-417.1556555841499
 31
0.0
  0
LINE
  5
E1
330
1F
100
AcDbEntity
  8
0-0
  6
JWW_DASHED1
 62
   120
370
     5
100
AcDbLine
 10
-603.6266404612411
 20
-920.9768862760797
 30
0.0
 11
-432.7343419560283
 21
-750.0845877708668
 31
0.0
  0
LINE
  5
E2
330
1F
100
AcDbEntity
  8
0-0
  6
JWW_DASHED1
 62
   120
370
     5
100
AcDbLine
 10
-342.7343419560207
 20
-660.0845877708596
 30
0.0
 11
-92.73434195602974
 21
-410.0845877708683
 31
0.0
  0
LINE
  5
E3
330
1F
100
AcDbEntity
  8
0-0
  6
JWW_DASHED1
 62
   120
370
     5
100
AcDbLine
 10
-610.6977082744639
 20
-920.9768862760718
 30
0.0
 11
-432.7343419560368
 21
-743.0135199576449
 31
0.0
  0
LINE
  5
E4
330
1F
100
AcDbEntity
  8
0-0
  6
JWW_DASHED1
 62
   120
370
     5
100
AcDbLine
 10
-342.7343419560292
 20
-653.0135199576373
 30
0.0
 11
-92.73434195603826
 21
-403.0135199576459
 31
0.0
  0
LINE
  5
E5
330
1F
100
AcDbEntity
  8
0-0
  6
JWW_DASHED1
 62
   120
370
     5
100
AcDbLine
 10
-617.7687760877609
 20
-920.9768862760837
 30
0.0
 11
-432.7343419560266
 21
-735.9424521443487
 31
0.0
  0
LINE
  5
E6
330
1F
100
AcDbEntity
  8
0-0
  6
JWW_DASHED1
 62
   120
370
     5
100
AcDbLine
 10
-342.7343419560198
 20
-645.9424521443424
 30
0.0
 11
-92.73434195603102
 21
-395.9424521443532
 31
0.0
  0
LINE
  5
E7
330
1F
100
AcDbEntity
  8
0-0
  6
JWW_DASHED1
 62
   120
370
     5
100
AcDbLine
 10
-624.8398439010464
 20
-920.9768862760837
 30
0.0
 11
-432.7343419560129
 21
-728.8713843310501
 31
0.0
  0
LINE
  5
E8
330
1F
100
AcDbEntity
  8
0-0
  6
JWW_DASHED1
 62
   120
370
     5
100
AcDbLine
 10
-342.7343419560211
 20
-638.8713843310582
 30
0.0
 11
-92.73434195603059
 21
-388.8713843310677
 31
0.0
  0
LINE
  5
E9
330
1F
100
AcDbEntity
  8
0-0
  6
JWW_DASHED1
 62
   120
370
     5
100
AcDbLine
 10
-631.910911714328
 20
-920.9768862760794
 30
0.0
 11
-432.7343419560173
 21
-721.8003165177685
 31
0.0
  0
LINE
  5
EA
330
1F
100
AcDbEntity
  8
0-0
  6
JWW_DASHED1
 62
   120
370
     5
100
AcDbLine
 10
-342.7343419560258
 20
-631.8003165177774
 30
0.0
 11
-92.73434195601823
 21
-381.8003165177698
 31
0.0
  0
LINE
  5
EB
330
1F
100
AcDbEntity
  8
0-0
  6
JWW_DASHED1
 62
   120
370
     5
100
AcDbLine
 10
-638.9819795276088
 20
-920.976886276075
 30
0.0
 11
-432.7343419560211
 21
-714.7292487044872
 31
0.0
  0
LINE
  5
EC
330
1F
100
AcDbEntity
  8
0-0
  6
JWW_DASHED1
 62
   120
370
     5
100
AcDbLine
 10
-342.7343419560296
 20
-624.7292487044957
 30
0.0
 11
-92.73434195602249
 21
-374.7292487044882
 31
0.0
  0
LINE
  5
ED
330
1F
100
AcDbEntity
  8
0-0
  6
JWW_DASHED1
 62
   120
370
     5
100
AcDbLine
 10
-646.0530473409037
 20
-920.9768862760843
 30
0.0
 11
-432.7343419560253
 21
-707.658180891206
 31
0.0
  0
LINE
  5
EE
330
1F
100
AcDbEntity
  8
0-0
  6
JWW_DASHED1
 62
   120
370
     5
100
AcDbLine
 10
-342.7343419560334
 20
-617.6581808912141
 30
0.0
 11
-92.73434195602633
 21
-367.658180891207
 31
0.0
  0
LINE
  5
EF
330
1F
100
AcDbEntity
  8
0-0
  6
JWW_DASHED1
 62
   120
370
     5
100
AcDbLine
 10
-653.1241151541858
 20
-920.9768862760806
 30
0.0
 11
-432.7343419560292
 21
-700.587113077924
 31
0.0
  0
LINE
  5
F0
330
1F
100
AcDbEntity
  8
0-0
  6
JWW_DASHED1
 62
   120
370
     5
100
AcDbLine
 10
-342.7343419560215
 20
-610.5871130779167
 30
0.0
 11
-92.73434195603059
 21
-360.5871130779258
 31
0.0
  0
LINE
  5
F1
330
1F
100
AcDbEntity
  8
0-0
  6
JWW_DASHED1
 62
   120
370
     5
100
AcDbLine
 10
-660.1951829674674
 20
-920.9768862760769
 30
0.0
 11
-432.734341956033
 21
-693.5160452646427
 31
0.0
  0
LINE
  5
F2
330
1F
100
AcDbEntity
  8
0-0
  6
JWW_DASHED1
 62
   120
370
     5
100
AcDbLine
 10
-342.7343419560258
 20
-603.5160452646355
 30
0.0
 11
-92.73434195603485
 21
-353.5160452646446
 31
0.0
  0
LINE
  5
F3
330
1F
100
AcDbEntity
  8
0-0
  6
JWW_DASHED1
 62
   120
370
     5
100
AcDbLine
 10
-667.2662507807648
 20
-920.9768862760891
 30
0.0
 11
-432.7343419560236
 21
-686.4449774513479
 31
0.0
  0
LINE
  5
F4
330
1F
100
AcDbEntity
  8
0-0
  6
JWW_DASHED1
 62
   120
370
     5
100
AcDbLine
 10
-342.7343419560168
 20
-596.4449774513411
 30
0.0
 11
-92.7343419560276
 21
-346.4449774513519
 31
0.0
  0
LINE
  5
F5
330
1F
100
AcDbEntity
  8
0-0
  6
JWW_DASHED1
 62
   120
370
     5
100
AcDbLine
 10
-674.3373185940465
 20
-920.976886276085
 30
0.0
 11
-432.734341956027
 21
-679.3739096380658
 31
0.0
  0
LINE
  5
F6
330
1F
100
AcDbEntity
  8
0-0
  6
JWW_DASHED1
 62
   120
370
     5
100
AcDbLine
 10
-342.7343419560211
 20
-589.3739096380598
 30
0.0
 11
-92.73434195603187
 21
-339.3739096380706
 31
0.0
  0
LINE
  5
F7
330
1F
100
AcDbEntity
  8
0-0
  6
JWW_DASHED1
 62
   120
370
     5
100
AcDbLine
 10
-681.4083864072697
 20
-920.976886276077
 30
0.0
 11
-432.7343419560181
 21
-672.3028418248255
 31
0.0
  0
LINE
  5
F8
330
1F
100
AcDbEntity
  8
0-0
  6
JWW_DASHED1
 62
   120
370
     5
100
AcDbLine
 10
-342.7343419560266
 20
-582.3028418248344
 30
0.0
 11
-92.73434195601908
 21
-332.3028418248269
 31
0.0
  0
LINE
  5
F9
330
1F
100
AcDbEntity
  8
0-0
  6
JWW_DASHED1
 62
   120
370
     5
100
AcDbLine
 10
-682.7343419560273
 20
-915.2317740115493
 30
0.0
 11
-432.7343419560219
 21
-665.2317740115443
 31
0.0
  0
LINE
  5
FA
330
1F
100
AcDbEntity
  8
0-0
  6
JWW_DASHED1
 62
   120
370
     5
100
AcDbLine
 10
-342.7343419560304
 20
-575.2317740115528
 30
0.0
 11
-92.73434195602377
 21
-325.2317740115461
 31
0.0
  0
LINE
  5
FB
330
1F
100
AcDbEntity
  8
0-0
  6
JWW_DASHED1
 62
   120
370
     5
100
AcDbLine
 10
-682.7343419560154
 20
-908.1607061982522
 30
0.0
 11
-432.7343419560262
 21
-658.160706198263
 31
0.0
  0
LINE
  5
FC
330
1F
100
AcDbEntity
  8
0-0
  6
JWW_DASHED1
 62
   120
370
     5
100
AcDbLine
 10
-342.734341956019
 20
-568.1607061982559
 30
0.0
 11
-92.73434195602718
 21
-318.1607061982641
 31
0.0
  0
LINE
  5
FD
330
1F
100
AcDbEntity
  8
0-0
  6
JWW_DASHED1
 62
   120
370
     5
100
AcDbLine
 10
-682.7343419560196
 20
-901.0896383849708
 30
0.0
 11
-432.73434195603
 21
-651.0896383849814
 31
0.0
  0
LINE
  5
FE
330
1F
100
AcDbEntity
  8
0-0
  6
JWW_DASHED1
 62
   120
370
     5
100
AcDbLine
 10
-342.7343419560224
 20
-561.0896383849738
 30
0.0
 11
-92.73434195603144
 21
-311.0896383849828
 31
0.0
  0
LINE
  5
FF
330
1F
100
AcDbEntity
  8
0-0
  6
JWW_DASHED1
 62
   120
370
     5
100
AcDbLine
 10
-682.7343419560239
 20
-894.0185705716895
 30
0.0
 11
-432.7343419560339
 21
-644.0185705716998
 31
0.0
  0
LINE
  5
100
330
1F
100
AcDbEntity
  8
0-0
  6
JWW_DASHED1
 62
   120
370
     5
100
AcDbLine
 10
-342.734341956027
 20
-554.018570571693
 30
0.0
 11
-92.7343419560357
 21
-304.0185705717016
 31
0.0
  0
LINE
  5
101
330
1F
100
AcDbEntity
  8
0-0
  6
JWW_DASHED1
 62
   120
370
     5
100
AcDbLine
 10
-682.734341956012
 20
-886.9475027583924
 30
0.0
 11
-432.7343419560245
 21
-636.9475027584049
 31
0.0
  0
LINE
  5
102
330
1F
100
AcDbEntity
  8
0-0
  6
JWW_DASHED1
 62
   120
370
     5
100
AcDbLine
 10
-342.7343419560181
 20
-546.9475027583985
 30
0.0
 11
-92.73434195602889
 21
-296.9475027584093
 31
0.0
  0
LINE
  5
103
330
1F
100
AcDbEntity
  8
0-0
  6
JWW_DASHED1
 62
   120
370
     5
100
AcDbLine
 10
-682.7343419560162
 20
-879.8764349451108
 30
0.0
 11
-432.7343419560287
 21
-629.8764349451233
 31
0.0
  0
LINE
  5
104
330
1F
100
AcDbEntity
  8
0-0
  6
JWW_DASHED1
 62
   120
370
     5
100
AcDbLine
 10
-342.7343419560224
 20
-539.8764349451174
 30
0.0
 11
-92.73434195603272
 21
-289.8764349451277
 31
0.0
  0
LINE
  5
105
330
1F
100
AcDbEntity
  8
0-0
  6
JWW_DASHED1
 62
   120
370
     5
100
AcDbLine
 10
-682.7343419560196
 20
-872.8053671318291
 30
0.0
 11
-432.7343419560146
 21
-622.8053671318241
 31
0.0
  0
LINE
  5
106
330
1F
100
AcDbEntity
  8
0-0
  6
JWW_DASHED1
 62
   120
370
     5
100
AcDbLine
 10
-342.7343419560228
 20
-532.8053671318322
 30
0.0
 11
-92.73434195603187
 21
-282.8053671318409
 31
0.0
  0
LINE
  5
107
330
1F
100
AcDbEntity
  8
0-0
  6
JWW_DASHED1
 62
   120
370
     5
100
AcDbLine
 10
-682.7343419560239
 20
-865.7342993185475
 30
0.0
 11
-432.734341956019
 21
-615.734299318543
 31
0.0
  0
LINE
  5
108
330
1F
100
AcDbEntity
  8
0-0
  6
JWW_DASHED1
 62
   120
370
     5
100
AcDbLine
 10
-342.734341956027
 20
-525.7342993185506
 30
0.0
 11
-92.73434195602036
 21
-275.7342993185443
 31
0.0
  0
LINE
  5
109
330
1F
100
AcDbEntity
  8
0-0
  6
JWW_DASHED1
 62
   120
370
     5
100
AcDbLine
 10
-682.7343419560162
 20
-858.6632315053093
 30
0.0
 11
-432.7343419560266
 21
-608.6632315053197
 31
0.0
  0
LINE
  5
10A
330
1F
100
AcDbEntity
  8
0-0
  6
JWW_DASHED1
 62
   120
370
     5
100
AcDbLine
 10
-342.7343419560198
 20
-518.6632315053129
 30
0.0
 11
-92.73434195602803
 21
-268.6632315053211
 31
0.0
  0
LINE
  5
10B
330
1F
100
AcDbEntity
  8
0-0
  6
JWW_DASHED1
 62
   120
370
     5
100
AcDbLine
 10
-682.7343419560204
 20
-851.5921636920277
 30
0.0
 11
-432.7343419560313
 21
-601.5921636920389
 31
0.0
  0
LINE
  5
10C
330
1F
100
AcDbEntity
  8
0-0
  6
JWW_DASHED1
 62
   120
370
     5
100
AcDbLine
 10
-342.7343419560232
 20
-511.5921636920308
 30
0.0
 11
-92.73434195603272
 21
-261.5921636920403
 31
0.0
  0
LINE
  5
10D
330
1F
100
AcDbEntity
  8
0-0
  6
JWW_DASHED1
 62
   120
370
     5
100
AcDbLine
 10
-682.7343419560248
 20
-844.5210958787467
 30
0.0
 11
-432.7343419560347
 21
-594.5210958787568
 31
0.0
  0
LINE
  5
10E
330
1F
100
AcDbEntity
  8
0-0
  6
JWW_DASHED1
 62
   120
370
     5
100
AcDbLine
 10
-342.7343419560279
 20
-504.52109587875
 30
0.0
 11
-92.73434195603656
 21
-254.5210958787587
 31
0.0
  0
LINE
  5
10F
330
1F
100
AcDbEntity
  8
0-0
  6
JWW_DASHED1
 62
   120
370
     5
100
AcDbLine
 10
-682.7343419560133
 20
-837.4500280654499
 30
0.0
 11
-432.7343419560262
 21
-587.4500280654628
 31
0.0
  0
LINE
  5
110
330
1F
100
AcDbEntity
  8
0-0
  6
JWW_DASHED1
 62
   120
370
     5
100
AcDbLine
 10
-342.734341956019
 20
-497.4500280654556
 30
0.0
 11
-92.73434195603016
 21
-247.4500280654668
 31
0.0
  0
LINE
  5
111
330
1F
100
AcDbEntity
  8
0-0
  6
JWW_DASHED1
 62
   120
370
     5
100
AcDbLine
 10
-682.7343419560167
 20
-830.3789602521674
 30
0.0
 11
-432.7343419560117
 21
-580.3789602521629
 31
0.0
  0
LINE
  5
112
330
1F
100
AcDbEntity
  8
0-0
  6
JWW_DASHED1
 62
   120
370
     5
100
AcDbLine
 10
-342.7343419560202
 20
-490.3789602521714
 30
0.0
 11
-92.73434195602846
 21
-240.3789602521796
 31
0.0
  0
LINE
  5
113
330
1F
100
AcDbEntity
  8
0-0
  6
JWW_DASHED1
 62
   120
370
     5
100
AcDbLine
 10
-682.7343419560209
 20
-823.3078924388866
 30
0.0
 11
-432.7343419560156
 21
-573.3078924388813
 31
0.0
  0
LINE
  5
114
330
1F
100
AcDbEntity
  8
0-0
  6
JWW_DASHED1
 62
   120
370
     5
100
AcDbLine
 10
-342.7343419560236
 20
-483.3078924388893
 30
0.0
 11
-92.73434195601695
 21
-233.3078924388826
 31
0.0
  0
LINE
  5
115
330
1F
100
AcDbEntity
  8
0-0
  6
JWW_DASHED1
 62
   120
370
     5
100
AcDbLine
 10
-682.7343419560248
 20
-816.236824625605
 30
0.0
 11
-432.7343419560198
 21
-566.2368246256
 31
0.0
  0
LINE
  5
116
330
1F
100
AcDbEntity
  8
0-0
  6
JWW_DASHED1
 62
   120
370
     5
100
AcDbLine
 10
-342.7343419560279
 20
-476.2368246256081
 30
0.0
 11
-92.73434195602121
 21
-226.2368246256014
 31
0.0
  0
LINE
  5
117
330
1F
100
AcDbEntity
  8
0-0
  6
JWW_DASHED1
 62
   120
370
     5
100
AcDbLine
 10
-682.7343419560133
 20
-809.1657568123076
 30
0.0
 11
-432.7343419560236
 21
-559.1657568123184
 31
0.0
  0
LINE
  5
118
330
1F
100
AcDbEntity
  8
0-0
  6
JWW_DASHED1
 62
   120
370
     5
100
AcDbLine
 10
-342.7343419560322
 20
-469.1657568123269
 30
0.0
 11
-92.73434195602505
 21
-219.1657568123198
 31
0.0
  0
LINE
  5
119
330
1F
100
AcDbEntity
  8
0-0
  6
JWW_DASHED1
 62
   120
370
     5
100
AcDbLine
 10
-682.734341956017
 20
-802.0946889990263
 30
0.0
 11
-432.7343419560279
 21
-552.0946889990366
 31
0.0
  0
LINE
  5
11A
330
1F
100
AcDbEntity
  8
0-0
  6
JWW_DASHED1
 62
   120
370
     5
100
AcDbLine
 10
-342.7343419560202
 20
-462.0946889990295
 30
0.0
 11
-92.73434195602931
 21
-212.0946889990381
 31
0.0
  0
LINE
  5
11B
330
1F
100
AcDbEntity
  8
0-0
  6
JWW_DASHED1
 62
   120
370
     5
100
AcDbLine
 10
-682.7343419560257
 20
-795.0236211858034
 30
0.0
 11
-432.7343419560356
 21
-545.0236211858139
 31
0.0
  0
LINE
  5
11C
330
1F
100
AcDbEntity
  8
0-0
  6
JWW_DASHED1
 62
   120
370
     5
100
AcDbLine
 10
-342.7343419560287
 20
-455.0236211858071
 30
0.0
 11
-92.73434195603741
 21
-205.0236211858157
 31
0.0
  0
LINE
  5
11D
330
1F
100
AcDbEntity
  8
0-0
  6
JWW_DASHED1
 62
   120
370
     5
100
AcDbLine
 10
-682.7343419560145
 20
-787.9525533725074
 30
0.0
 11
-432.734341956027
 21
-537.9525533725199
 31
0.0
  0
LINE
  5
11E
330
1F
100
AcDbEntity
  8
0-0
  6
JWW_DASHED1
 62
   120
370
     5
100
AcDbLine
 10
-342.7343419560207
 20
-447.9525533725131
 30
0.0
 11
-92.73434195603144
 21
-197.9525533725243
 31
0.0
  0
LINE
  5
11F
330
1F
100
AcDbEntity
  8
0-0
  6
JWW_DASHED1
 62
   120
370
     5
100
AcDbLine
 10
-682.7343419560175
 20
-780.8814855592249
 30
0.0
 11
-432.7343419560125
 21
-530.8814855592199
 31
0.0
  0
LINE
  5
120
330
1F
100
AcDbEntity
  8
0-0
  6
JWW_DASHED1
 62
   120
370
     5
100
AcDbLine
 10
-342.7343419560211
 20
-440.8814855592284
 30
0.0
 11
-92.73434195602931
 21
-190.8814855592367
 31
0.0
  0
LINE
  5
121
330
1F
100
AcDbEntity
  8
0-0
  6
JWW_DASHED1
 62
   120
370
     5
100
AcDbLine
 10
-682.7343419560218
 20
-773.8104177459436
 30
0.0
 11
-432.7343419560164
 21
-523.8104177459383
 31
0.0
  0
LINE
  5
122
330
1F
100
AcDbEntity
  8
0-0
  6
JWW_DASHED1
 62
   120
370
     5
100
AcDbLine
 10
-342.7343419560245
 20
-433.8104177459463
 30
0.0
 11
-92.7343419560178
 21
-183.8104177459397
 31
0.0
  0
LINE
  5
123
330
1F
100
AcDbEntity
  8
0-0
  6
JWW_DASHED1
 62
   120
370
     5
100
AcDbLine
 10
-682.734341956026
 20
-766.7393499326624
 30
0.0
 11
-432.7343419560207
 21
-516.739349932657
 31
0.0
  0
LINE
  5
124
330
1F
100
AcDbEntity
  8
0-0
  6
JWW_DASHED1
 62
   120
370
     5
100
AcDbLine
 10
-342.7343419560287
 20
-426.7393499326652
 30
0.0
 11
-92.73434195602206
 21
-176.7393499326585
 31
0.0
  0
LINE
  5
125
330
1F
100
AcDbEntity
  8
0-0
  6
JWW_DASHED1
 62
   120
370
     5
100
AcDbLine
 10
-682.7343419560136
 20
-759.6682821193646
 30
0.0
 11
-432.7343419560241
 21
-509.668282119375
 31
0.0
  0
LINE
  5
126
330
1F
100
AcDbEntity
  8
0-0
  6
JWW_DASHED1
 62
   120
370
     5
100
AcDbLine
 10
-342.734341956033
 20
-419.6682821193839
 30
0.0
 11
-92.7343419560259
 21
-169.6682821193768
 31
0.0
  0
LINE
  5
127
330
1F
100
AcDbEntity
  8
0-0
  6
JWW_DASHED1
 62
   120
370
     5
100
AcDbLine
 10
-682.7343419560179
 20
-752.5972143060834
 30
0.0
 11
-432.7343419560287
 21
-502.5972143060937
 31
0.0
  0
LINE
  5
128
330
1F
100
AcDbEntity
  8
0-0
  6
JWW_DASHED1
 62
   120
370
     5
100
AcDbLine
 10
-342.7343419560211
 20
-412.5972143060865
 30
0.0
 11
-92.73434195602974
 21
-162.5972143060952
 31
0.0
  0
LINE
  5
129
330
1F
100
AcDbEntity
  8
0-0
  6
JWW_DASHED1
 62
   120
370
     5
100
AcDbLine
 10
-682.7343419560223
 20
-745.5261464928021
 30
0.0
 11
-432.7343419560326
 21
-495.5261464928125
 31
0.0
  0
LINE
  5
12A
330
1F
100
AcDbEntity
  8
0-0
  6
JWW_DASHED1
 62
   120
370
     5
100
AcDbLine
 10
-342.7343419560249
 20
-405.5261464928049
 30
0.0
 11
-92.734341956034
 21
-155.526146492814
 31
0.0
  0
LINE
  5
12B
330
1F
100
AcDbEntity
  8
0-0
  6
JWW_DASHED1
 62
   120
370
     5
100
AcDbLine
 10
-682.734341956026
 20
-738.45507867952
 30
0.0
 11
-432.7343419560368
 21
-488.4550786795309
 31
0.0
  0
LINE
  5
12C
330
1F
100
AcDbEntity
  8
0-0
  6
JWW_DASHED1
 62
   120
370
     5
100
AcDbLine
 10
-342.7343419560292
 20
-398.4550786795236
 30
0.0
 11
-92.73434195603784
 21
-148.4550786795323
 31
0.0
  0
LINE
  5
12D
330
1F
100
AcDbEntity
  8
0-0
  6
JWW_DASHED1
 62
   120
370
     5
100
AcDbLine
 10
-682.7343419560154
 20
-731.3840108662243
 30
0.0
 11
-432.7343419560283
 21
-481.3840108662373
 31
0.0
  0
LINE
  5
12E
330
1F
100
AcDbEntity
  8
0-0
  6
JWW_DASHED1
 62
   120
370
     5
100
AcDbLine
 10
-342.7343419560219
 20
-391.3840108662305
 30
0.0
 11
-92.73434195603272
 21
-141.3840108662417
 31
0.0
  0
LINE
  5
12F
330
1F
100
AcDbEntity
  8
0-0
  6
JWW_DASHED1
 62
   120
370
     5
100
AcDbLine
 10
-682.7343419560226
 20
-724.3129430530007
 30
0.0
 11
-432.7343419560173
 21
-474.3129430529953
 31
0.0
  0
LINE
  5
130
330
1F
100
AcDbEntity
  8
0-0
  6
JWW_DASHED1
 62
   120
370
     5
100
AcDbLine
 10
-342.7343419560253
 20
-384.3129430530034
 30
0.0
 11
-92.73434195601865
 21
-134.3129430529967
 31
0.0
  0
LINE
  5
131
330
1F
100
AcDbEntity
  8
0-0
  6
JWW_DASHED1
 62
   120
370
     5
100
AcDbLine
 10
-682.7343419560269
 20
-717.2418752397195
 30
0.0
 11
-432.7343419560215
 21
-467.2418752397136
 31
0.0
  0
LINE
  5
132
330
1F
100
AcDbEntity
  8
0-0
  6
JWW_DASHED1
 62
   120
370
     5
100
AcDbLine
 10
-342.73434195603
 20
-377.2418752397226
 30
0.0
 11
-92.73434195602292
 21
-127.2418752397151
 31
0.0
  0
LINE
  5
133
330
1F
100
AcDbEntity
  8
0-0
  6
JWW_DASHED1
 62
   120
370
     5
100
AcDbLine
 10
-682.7343419560145
 20
-710.1708074264217
 30
0.0
 11
-432.7343419560253
 21
-460.1708074264325
 31
0.0
  0
LINE
  5
134
330
1F
100
AcDbEntity
  8
0-0
  6
JWW_DASHED1
 62
   120
370
     5
100
AcDbLine
 10
-342.7343419560339
 20
-370.170807426441
 30
0.0
 11
-92.73434195602675
 21
-120.1708074264339
 31
0.0
  0
LINE
  5
135
330
1F
100
AcDbEntity
  8
0-0
  6
JWW_DASHED1
 62
   120
370
     5
100
AcDbLine
 10
-682.7343419560189
 20
-703.0997396131404
 30
0.0
 11
-432.7343419560296
 21
-453.0997396131512
 31
0.0
  0
LINE
  5
136
330
1F
100
AcDbEntity
  8
0-0
  6
JWW_DASHED1
 62
   120
370
     5
100
AcDbLine
 10
-342.7343419560219
 20
-363.0997396131436
 30
0.0
 11
-92.73434195603059
 21
-113.0997396131522
 31
0.0
  0
LINE
  5
137
330
1F
100
AcDbEntity
  8
0-0
  6
JWW_DASHED1
 62
   120
370
     5
100
AcDbLine
 10
-682.7343419560231
 20
-696.0286717998592
 30
0.0
 11
-432.7343419560334
 21
-446.0286717998696
 31
0.0
  0
LINE
  5
138
330
1F
100
AcDbEntity
  8
0-0
  6
JWW_DASHED1
 62
   120
370
     5
100
AcDbLine
 10
-342.7343419560258
 20
-356.0286717998619
 30
0.0
 11
-92.73434195603485
 21
-106.028671799871
 31
0.0
  0
LINE
  5
139
330
1F
100
AcDbEntity
  8
0-0
  6
JWW_DASHED1
 62
   120
370
     5
100
AcDbLine
 10
-682.7343419560133
 20
-688.9576039865635
 30
0.0
 11
-432.7343419560253
 21
-438.957603986576
 31
0.0
  0
LINE
  5
13A
330
1F
100
AcDbEntity
  8
0-0
  6
JWW_DASHED1
 62
   120
370
     5
100
AcDbLine
 10
-342.734341956019
 20
-348.9576039865696
 30
0.0
 11
-92.73434195603016
 21
-98.95760398658084
 31
0.0
  0
LINE
  5
13B
330
1F
100
AcDbEntity
  8
0-0
  6
JWW_DASHED1
 62
   120
370
     5
100
AcDbLine
 10
-682.734341956017
 20
-681.8865361732823
 30
0.0
 11
-432.73434195603
 21
-431.8865361732952
 31
0.0
  0
LINE
  5
13C
330
1F
100
AcDbEntity
  8
0-0
  6
JWW_DASHED1
 62
   120
370
     5
100
AcDbLine
 10
-342.7343419560228
 20
-341.8865361732879
 30
0.0
 11
-92.73434195603357
 21
-91.88653617329877
 31
0.0
  0
LINE
  5
13D
330
1F
100
AcDbEntity
  8
0-0
  6
JWW_DASHED1
 62
   120
370
     5
100
AcDbLine
 10
-682.7343419560192
 20
-674.8154683599985
 30
0.0
 11
-432.7343419560138
 21
-424.8154683599935
 31
0.0
  0
LINE
  5
13E
330
1F
100
AcDbEntity
  8
0-0
  6
JWW_DASHED1
 62
   120
370
     5
100
AcDbLine
 10
-342.7343419560224
 20
-334.8154683600021
 30
0.0
 11
-92.73434195603144
 21
-84.81546836001115
 31
0.0
  0
LINE
  5
13F
330
1F
100
AcDbEntity
  8
0-0
  6
JWW_DASHED1
 62
   120
370
     5
100
AcDbLine
 10
-682.7343419560235
 20
-667.7444005467178
 30
0.0
 11
-432.7343419560181
 21
-417.7444005467123
 31
0.0
  0
LINE
  5
140
330
1F
100
AcDbEntity
  8
0-0
  6
JWW_DASHED1
 62
   120
370
     5
100
AcDbLine
 10
-342.7343419560266
 20
-327.7444005467204
 30
0.0
 11
-92.7343419560195
 21
-77.74440054671373
 31
0.0
  0
LINE
  5
141
330
1F
100
AcDbEntity
  8
0-0
  6
JWW_DASHED1
 62
   120
370
     5
100
AcDbLine
 10
-682.7343419560154
 20
-660.6733327334787
 30
0.0
 11
-432.7343419560262
 21
-410.6733327334895
 31
0.0
  0
LINE
  5
142
330
1F
100
AcDbEntity
  8
0-0
  6
JWW_DASHED1
 62
   120
370
     5
100
AcDbLine
 10
-342.734341956019
 20
-320.6733327334823
 30
0.0
 11
-92.73434195602803
 21
-70.67333273349135
 31
0.0
  0
LINE
  5
143
330
1F
100
AcDbEntity
  8
0-0
  6
JWW_DASHED1
 62
   120
370
     5
100
AcDbLine
 10
-682.7343419560196
 20
-653.6022649201975
 30
0.0
 11
-432.7343419560304
 21
-403.6022649202083
 31
0.0
  0
LINE
  5
144
330
1F
100
AcDbEntity
  8
0-0
  6
JWW_DASHED1
 62
   120
370
     5
100
AcDbLine
 10
-342.7343419560232
 20
-313.602264920201
 30
0.0
 11
-92.73434195603144
 21
-63.60226492020928
 31
0.0
  0
LINE
  5
145
330
1F
100
AcDbEntity
  8
0-0
  6
JWW_DASHED1
 62
   120
370
     5
100
AcDbLine
 10
-682.7343419560239
 20
-646.5311971069162
 30
0.0
 11
-432.7343419560343
 21
-396.5311971069266
 31
0.0
  0
LINE
  5
146
330
1F
100
AcDbEntity
  8
0-0
  6
JWW_DASHED1
 62
   120
370
     5
100
AcDbLine
 10
-342.7343419560266
 20
-306.531197106919
 30
0.0
 11
-92.7343419560357
 21
-56.53119710692806
 31
0.0
  0
LINE
  5
147
330
1F
100
AcDbEntity
  8
0-0
  6
JWW_DASHED1
 62
   120
370
     5
100
AcDbLine
 10
-682.7343419560141
 20
-639.460129293621
 30
0.0
 11
-432.734341956027
 21
-389.4601292936335
 31
0.0
  0
LINE
  5
148
330
1F
100
AcDbEntity
  8
0-0
  6
JWW_DASHED1
 62
   120
370
     5
100
AcDbLine
 10
-342.7343419560202
 20
-299.4601292936271
 30
0.0
 11
-92.73434195603144
 21
-49.46012929363832
 31
0.0
  0
LINE
  5
149
330
1F
100
AcDbEntity
  8
0-0
  6
JWW_DASHED1
 62
   120
370
     5
100
AcDbLine
 10
-682.7343419560162
 20
-632.3890614803372
 30
0.0
 11
-432.7343419560262
 21
-382.3890614803476
 31
0.0
  0
LINE
  5
14A
330
1F
100
AcDbEntity
  8
0-0
  6
JWW_DASHED1
 62
   120
370
     5
100
AcDbLine
 10
-342.7343419560194
 20
-292.3890614803403
 30
0.0
 11
-92.73434195602803
 21
-42.38906148034943
 31
0.0
  0
LINE
  5
14B
330
1F
100
AcDbEntity
  8
0-0
  6
JWW_DASHED1
 62
   120
370
     5
100
AcDbLine
 10
-682.7343419560201
 20
-625.317993667056
 30
0.0
 11
-432.7343419560146
 21
-375.3179936670506
 31
0.0
  0
LINE
  5
14C
330
1F
100
AcDbEntity
  8
0-0
  6
JWW_DASHED1
 62
   120
370
     5
100
AcDbLine
 10
-342.7343419560232
 20
-285.3179936670591
 30
0.0
 11
-92.73434195601652
 21
-35.31799366705243
 31
0.0
  0
LINE
  5
14D
330
1F
100
AcDbEntity
  8
0-0
  6
JWW_DASHED1
 62
   120
370
     5
100
AcDbLine
 10
-682.7343419560243
 20
-618.2469258537748
 30
0.0
 11
-432.734341956019
 21
-368.2469258537694
 31
0.0
  0
LINE
  5
14E
330
1F
100
AcDbEntity
  8
0-0
  6
JWW_DASHED1
 62
   120
370
     5
100
AcDbLine
 10
-342.7343419560275
 20
-278.2469258537775
 30
0.0
 11
-92.73434195601993
 21
-28.24692585377036
 31
0.0
  0
LINE
  5
14F
330
1F
100
AcDbEntity
  8
0-0
  6
JWW_DASHED1
 62
   120
370
     5
100
AcDbLine
 10
-682.7343419560124
 20
-611.1758580404774
 30
0.0
 11
-432.7343419560232
 21
-361.1758580404882
 31
0.0
  0
LINE
  5
150
330
1F
100
AcDbEntity
  8
0-0
  6
JWW_DASHED1
 62
   120
370
     5
100
AcDbLine
 10
-342.7343419560313
 20
-271.1758580404962
 30
0.0
 11
-92.73434195602462
 21
-21.17585804048957
 31
0.0
  0
LINE
  5
151
330
1F
100
AcDbEntity
  8
0-0
  6
JWW_DASHED1
 62
   120
370
     5
100
AcDbLine
 10
-682.7343419560167
 20
-604.1047902271957
 30
0.0
 11
-432.7343419560266
 21
-354.1047902272061
 31
0.0
  0
LINE
  5
152
330
1F
100
AcDbEntity
  8
0-0
  6
JWW_DASHED1
 62
   120
370
     5
100
AcDbLine
 10
-342.7343419560198
 20
-264.1047902271993
 30
0.0
 11
-92.73434195602846
 21
-14.10479022720793
 31
0.0
  0
LINE
  5
153
330
1F
100
AcDbEntity
  8
0-0
  6
JWW_DASHED1
 62
   120
370
     5
100
AcDbLine
 10
-682.7343419560204
 20
-597.0337224139145
 30
0.0
 11
-432.7343419560309
 21
-347.0337224139249
 31
0.0
  0
LINE
  5
154
330
1F
100
AcDbEntity
  8
0-0
  6
JWW_DASHED1
 62
   120
370
     5
100
AcDbLine
 10
-342.7343419560236
 20
-257.0337224139176
 30
0.0
 11
-92.7343419560323
 21
-7.033722413926284
 31
0.0
  0
LINE
  5
155
330
1F
100
AcDbEntity
  8
0-0
  6
JWW_DASHED1
 62
   120
370
     5
100
AcDbLine
 10
-682.7343419560158
 20
-589.9626546006784
 30
0.0
 11
-432.7343419560283
 21
-339.9626546006914
 31
0.0
  0
LINE
  5
156
330
1F
100
AcDbEntity
  8
0-0
  6
JWW_DASHED1
 62
   120
370
     5
100
AcDbLine
 10
-342.7343419560219
 20
-249.962654600685
 30
0.0
 11
-92.7343419560323
 21
0.0373453993046269
 31
0.0
  0
LINE
  5
157
330
1F
100
AcDbEntity
  8
0-0
  6
JWW_DASHED1
 62
   120
370
     5
100
AcDbLine
 10
-682.7343419560167
 20
-582.8915867873943
 30
0.0
 11
-432.7343419560112
 21
-332.8915867873889
 31
0.0
  0
LINE
  5
158
330
1F
100
AcDbEntity
  8
0-0
  6
JWW_DASHED1
 62
   120
370
     5
100
AcDbLine
 10
-342.7343419560202
 20
-242.8915867873978
 30
0.0
 11
-92.73434195602889
 21
7.108413212593518
 31
0.0
  0
LINE
  5
159
330
1F
100
AcDbEntity
  8
0-0
  6
JWW_DASHED1
 62
   120
370
     5
100
AcDbLine
 10
-682.7343419560209
 20
-575.8205189741126
 30
0.0
 11
-432.7343419560156
 21
-325.8205189741076
 31
0.0
  0
LINE
  5
15A
330
1F
100
AcDbEntity
  8
0-0
  6
JWW_DASHED1
 62
   120
370
     5
100
AcDbLine
 10
-342.7343419560241
 20
-235.8205189741162
 30
0.0
 11
-92.73434195601737
 21
14.17948102589051
 31
0.0
  0
LINE
  5
15B
330
1F
100
AcDbEntity
  8
0-0
  6
JWW_DASHED1
 62
   120
370
     5
100
AcDbLine
 10
-682.7343419560252
 20
-568.7494511608318
 30
0.0
 11
-432.7343419560198
 21
-318.7494511608264
 31
0.0
  0
LINE
  5
15C
330
1F
100
AcDbEntity
  8
0-0
  6
JWW_DASHED1
 62
   120
370
     5
100
AcDbLine
 10
-342.7343419560283
 20
-228.7494511608345
 30
0.0
 11
-92.73434195602164
 21
21.25054883917173
 31
0.0
  0
LINE
  5
15D
330
1F
100
AcDbEntity
  8
0-0
  6
JWW_DASHED1
 62
   120
370
     5
100
AcDbLine
 10
-682.7343419560133
 20
-561.6783833475345
 30
0.0
 11
-432.7343419560241
 21
-311.6783833475452
 31
0.0
  0
LINE
  5
15E
330
1F
100
AcDbEntity
  8
0-0
  6
JWW_DASHED1
 62
   120
370
     5
100
AcDbLine
 10
-342.7343419560322
 20
-221.6783833475533
 30
0.0
 11
-92.73434195602547
 21
28.32161665245337
 31
0.0
  0
LINE
  5
15F
330
1F
100
AcDbEntity
  8
0-0
  6
JWW_DASHED1
 62
   120
370
     5
100
AcDbLine
 10
-682.7343419560175
 20
-554.6073155342527
 30
0.0
 11
-432.7343419560279
 21
-304.6073155342635
 31
0.0
  0
LINE
  5
160
330
1F
100
AcDbEntity
  8
0-0
  6
JWW_DASHED1
 62
   120
370
     5
100
AcDbLine
 10
-342.7343419560207
 20
-214.6073155342563
 30
0.0
 11
-92.73434195602931
 21
35.39268446573502
 31
0.0
  0
LINE
  5
161
330
1F
100
AcDbEntity
  8
0-0
  6
JWW_DASHED1
 62
   120
370
     5
100
AcDbLine
 10
-682.7343419560214
 20
-547.5362477209711
 30
0.0
 11
-432.7343419560317
 21
-297.5362477209819
 31
0.0
  0
LINE
  5
162
330
1F
100
AcDbEntity
  8
0-0
  6
JWW_DASHED1
 62
   120
370
     5
100
AcDbLine
 10
-342.7343419560245
 20
-207.5362477209747
 30
0.0
 11
-92.73434195603315
 21
42.46375227901666
 31
0.0
  0
LINE
  5
163
330
1F
100
AcDbEntity
  8
0-0
  6
JWW_DASHED1
 62
   120
370
     5
100
AcDbLine
 10
-682.7343419560252
 20
-540.4651799076898
 30
0.0
 11
-432.734341956036
 21
-290.4651799077007
 31
0.0
  0
LINE
  5
164
330
1F
100
AcDbEntity
  8
0-0
  6
JWW_DASHED1
 62
   120
370
     5
100
AcDbLine
 10
-342.7343419560283
 20
-200.465179907693
 30
0.0
 11
-92.73434195603699
 21
49.5348200922983
 31
0.0
  0
LINE
  5
165
330
1F
100
AcDbEntity
  8
0-0
  6
JWW_DASHED1
 62
   120
370
     5
100
AcDbLine
 10
-682.7343419560167
 20
-533.394112094396
 30
0.0
 11
-432.7343419560292
 21
-283.3941120944084
 31
0.0
  0
LINE
  5
166
330
1F
100
AcDbEntity
  8
0-0
  6
JWW_DASHED1
 62
   120
370
     5
100
AcDbLine
 10
-342.7343419560224
 20
-193.3941120944016
 30
0.0
 11
-92.73434195603357
 21
56.6058879055872
 31
0.0
  0
LINE
  5
167
330
1F
100
AcDbEntity
  8
0-0
  6
JWW_DASHED1
 62
   120
370
     5
100
AcDbLine
 10
-682.7343419560218
 20
-526.32304428117
 30
0.0
 11
-432.7343419560168
 21
-276.3230442811652
 31
0.0
  0
LINE
  5
168
330
1F
100
AcDbEntity
  8
0-0
  6
JWW_DASHED1
 62
   120
370
     5
100
AcDbLine
 10
-342.7343419560253
 20
-186.3230442811737
 30
0.0
 11
-92.73434195601823
 21
63.67695571883345
 31
0.0
  0
LINE
  5
169
330
1F
100
AcDbEntity
  8
0-0
  6
JWW_DASHED1
 62
   120
370
     5
100
AcDbLine
 10
-682.734341956026
 20
-519.2519764678889
 30
0.0
 11
-432.7343419560207
 21
-269.2519764678835
 31
0.0
  0
LINE
  5
16A
330
1F
100
AcDbEntity
  8
0-0
  6
JWW_DASHED1
 62
   120
370
     5
100
AcDbLine
 10
-342.7343419560287
 20
-179.2519764678916
 30
0.0
 11
-92.73434195602249
 21
70.7480235321151
 31
0.0
  0
LINE
  5
16B
330
1F
100
AcDbEntity
  8
0-0
  6
JWW_DASHED1
 62
   120
370
     5
100
AcDbLine
 10
-682.7343419560141
 20
-512.1809086545915
 30
0.0
 11
-432.7343419560249
 21
-262.1809086546023
 31
0.0
  0
LINE
  5
16C
330
1F
100
AcDbEntity
  8
0-0
  6
JWW_DASHED1
 62
   120
370
     5
100
AcDbLine
 10
-342.734341956033
 20
-172.1809086546104
 30
0.0
 11
-92.73434195602633
 21
77.81909134539632
 31
0.0
  0
LINE
  5
16D
330
1F
100
AcDbEntity
  8
0-0
  6
JWW_DASHED1
 62
   120
370
     5
100
AcDbLine
 10
-682.7343419560184
 20
-505.1098408413098
 30
0.0
 11
-432.7343419560283
 21
-255.1098408413202
 31
0.0
  0
LINE
  5
16E
330
1F
100
AcDbEntity
  8
0-0
  6
JWW_DASHED1
 62
   120
370
     5
100
AcDbLine
 10
-342.7343419560215
 20
-165.1098408413134
 30
0.0
 11
-92.73434195603016
 21
84.89015915867796
 31
0.0
  0
LINE
  5
16F
330
1F
100
AcDbEntity
  8
0-0
  6
JWW_DASHED1
 62
   120
370
     5
100
AcDbLine
 10
-682.7343419560223
 20
-498.0387730280282
 30
0.0
 11
-432.734341956033
 21
-248.0387730280394
 31
0.0
  0
LINE
  5
170
330
1F
100
AcDbEntity
  8
0-0
  6
JWW_DASHED1
 62
   120
370
     5
100
AcDbLine
 10
-342.7343419560253
 20
-158.0387730280317
 30
0.0
 11
-92.73434195603443
 21
91.96122697195918
 31
0.0
  0
LINE
  5
171
330
1F
100
AcDbEntity
  8
0-0
  6
JWW_DASHED1
 62
   120
370
     5
100
AcDbLine
 10
-682.7343419560141
 20
-490.9677052147346
 30
0.0
 11
-432.7343419560266
 21
-240.9677052147475
 31
0.0
  0
LINE
  5
172
330
1F
100
AcDbEntity
  8
0-0
  6
JWW_DASHED1
 62
   120
370
     5
100
AcDbLine
 10
-342.7343419560202
 20
-150.9677052147411
 30
0.0
 11
-92.73434195603102
 21
99.03229478524807
 31
0.0
  0
LINE
  5
173
330
1F
100
AcDbEntity
  8
0-0
  6
JWW_DASHED1
 62
   120
370
     5
100
AcDbLine
 10
-682.7343419560179
 20
-483.8966374014534
 30
0.0
 11
-432.7343419560309
 21
-233.8966374014663
 31
0.0
  0
LINE
  5
174
330
1F
100
AcDbEntity
  8
0-0
  6
JWW_DASHED1
 62
   120
370
     5
100
AcDbLine
 10
-342.7343419560241
 20
-143.8966374014595
 30
0.0
 11
-92.73434195603485
 21
106.1033625985297
 31
0.0
  0
LINE
  5
175
330
1F
100
AcDbEntity
  8
0-0
  6
JWW_DASHED1
 62
   120
370
     5
100
AcDbLine
 10
-682.7343419560189
 20
-476.8255695881683
 30
0.0
 11
-432.7343419560134
 21
-226.8255695881629
 31
0.0
  0
LINE
  5
176
330
1F
100
AcDbEntity
  8
0-0
  6
JWW_DASHED1
 62
   120
370
     5
100
AcDbLine
 10
-342.7343419560219
 20
-136.8255695881719
 30
0.0
 11
-92.73434195603059
 21
113.1744304118195
 31
0.0
  0
LINE
  5
177
330
1F
100
AcDbEntity
  8
0-0
  6
JWW_DASHED1
 62
   120
370
     5
100
AcDbLine
 10
-682.7343419560226
 20
-469.7545017748871
 30
0.0
 11
-432.7343419560173
 21
-219.7545017748817
 31
0.0
  0
LINE
  5
178
330
1F
100
AcDbEntity
  8
0-0
  6
JWW_DASHED1
 62
   120
370
     5
100
AcDbLine
 10
-342.7343419560258
 20
-129.7545017748902
 30
0.0
 11
-92.73434195601865
 21
120.2454982251169
 31
0.0
  0
LINE
  5
179
330
1F
100
AcDbEntity
  8
0-0
  6
JWW_DASHED1
 62
   120
370
     5
100
AcDbLine
 10
-682.734341956015
 20
-462.6834339616485
 30
0.0
 11
-432.7343419560258
 21
-212.6834339616593
 31
0.0
  0
LINE
  5
17A
330
1F
100
AcDbEntity
  8
0-0
  6
JWW_DASHED1
 62
   120
370
     5
100
AcDbLine
 10
-342.7343419560181
 20
-122.6834339616516
 30
0.0
 11
-92.73434195602718
 21
127.3165660383393
 31
0.0
  0
LINE
  5
17B
330
1F
100
AcDbEntity
  8
0-0
  6
JWW_DASHED1
 62
   120
370
     5
100
AcDbLine
 10
-682.7343419560192
 20
-455.6123661483668
 30
0.0
 11
-432.73434195603
 21
-205.6123661483777
 31
0.0
  0
LINE
  5
17C
330
1F
100
AcDbEntity
  8
0-0
  6
JWW_DASHED1
 62
   120
370
     5
100
AcDbLine
 10
-342.7343419560224
 20
-115.6123661483704
 30
0.0
 11
-92.73434195603102
 21
134.3876338516209
 31
0.0
  0
LINE
  5
17D
330
1F
100
AcDbEntity
  8
0-0
  6
JWW_DASHED1
 62
   120
370
     5
100
AcDbLine
 10
-682.7343419560231
 20
-448.5412983350857
 30
0.0
 11
-432.7343419560339
 21
-198.5412983350965
 31
0.0
  0
LINE
  5
17E
330
1F
100
AcDbEntity
  8
0-0
  6
JWW_DASHED1
 62
   120
370
     5
100
AcDbLine
 10
-342.7343419560262
 20
-108.5412983350888
 30
0.0
 11
-92.73434195603528
 21
141.4587016649021
 31
0.0
  0
LINE
  5
17F
330
1F
100
AcDbEntity
  8
0-0
  6
JWW_DASHED1
 62
   120
370
     5
100
AcDbLine
 10
-682.7343419560154
 20
-441.4702305217925
 30
0.0
 11
-432.7343419560275
 21
-191.4702305218046
 31
0.0
  0
LINE
  5
180
330
1F
100
AcDbEntity
  8
0-0
  6
JWW_DASHED1
 62
   120
370
     5
100
AcDbLine
 10
-342.7343419560211
 20
-101.4702305217982
 30
0.0
 11
-92.73434195603187
 21
148.529769478191
 31
0.0
  0
LINE
  5
181
330
1F
100
AcDbEntity
  8
0-0
  6
JWW_DASHED1
 62
   120
370
     5
100
AcDbLine
 10
-682.7343419560196
 20
-434.3991627085113
 30
0.0
 11
-432.7343419560322
 21
-184.3991627085238
 31
0.0
  0
LINE
  5
182
330
1F
100
AcDbEntity
  8
0-0
  6
JWW_DASHED1
 62
   120
370
     5
100
AcDbLine
 10
-342.7343419560253
 20
-94.39916270851697
 30
0.0
 11
-92.73434195603613
 21
155.6008372914722
 31
0.0
  0
LINE
  5
183
330
1F
100
AcDbEntity
  8
0-0
  6
JWW_DASHED1
 62
   120
370
     5
100
AcDbLine
 10
-682.7343419560196
 20
-427.3280948952254
 30
0.0
 11
-432.7343419560142
 21
-177.32809489522
 31
0.0
  0
LINE
  5
184
330
1F
100
AcDbEntity
  8
0-0
  6
JWW_DASHED1
 62
   120
370
     5
100
AcDbLine
 10
-342.7343419560228
 20
-87.32809489522893
 30
0.0
 11
-92.73434195601567
 21
162.6719051047782
 31
0.0
  0
LINE
  5
185
330
1F
100
AcDbEntity
  8
0-0
  6
JWW_DASHED1
 62
   120
370
     5
100
AcDbLine
 10
-682.7343419560235
 20
-420.2570270819442
 30
0.0
 11
-432.7343419560181
 21
-170.2570270819388
 31
0.0
  0
LINE
  5
186
330
1F
100
AcDbEntity
  8
0-0
  6
JWW_DASHED1
 62
   120
370
     5
100
AcDbLine
 10
-342.7343419560266
 20
-80.25702708194729
 30
0.0
 11
-92.73434195601993
 21
169.7429729180594
 31
0.0
  0
LINE
  5
187
330
1F
100
AcDbEntity
  8
0-0
  6
JWW_DASHED1
 62
   120
370
     5
100
AcDbLine
 10
-682.7343419560116
 20
-413.1859592686467
 30
0.0
 11
-432.7343419560224
 21
-163.1859592686575
 31
0.0
  0
LINE
  5
188
330
1F
100
AcDbEntity
  8
0-0
  6
JWW_DASHED1
 62
   120
370
     5
100
AcDbLine
 10
-342.7343419560309
 20
-73.18595926866607
 30
0.0
 11
-92.73434195602334
 21
176.8140407313415
 31
0.0
  0
LINE
  5
189
330
1F
100
AcDbEntity
  8
0-0
  6
JWW_DASHED1
 62
   120
370
     5
100
AcDbLine
 10
-682.7343419560158
 20
-406.1148914553655
 30
0.0
 11
-432.7343419560262
 21
-156.1148914553759
 31
0.0
  0
LINE
  5
18A
330
1F
100
AcDbEntity
  8
0-0
  6
JWW_DASHED1
 62
   120
370
     5
100
AcDbLine
 10
-342.7343419560185
 20
-66.11489145536822
 30
0.0
 11
-92.7343419560276
 21
183.8851085446227
 31
0.0
  0
LINE
  5
18B
330
1F
100
AcDbEntity
  8
0-0
  6
JWW_DASHED1
 62
   120
370
     5
100
AcDbLine
 10
-682.7343419560196
 20
-399.0438236420839
 30
0.0
 11
-432.73434195603
 21
-149.0438236420943
 31
0.0
  0
LINE
  5
18C
330
1F
100
AcDbEntity
  8
0-0
  6
JWW_DASHED1
 62
   120
370
     5
100
AcDbLine
 10
-342.7343419560228
 20
-59.04382364208701
 30
0.0
 11
-92.73434195603144
 21
190.9561763579043
 31
0.0
  0
LINE
  5
18D
330
1F
100
AcDbEntity
  8
0-0
  6
JWW_DASHED1
 62
   120
370
     5
100
AcDbLine
 10
-682.7343419560167
 20
-391.9727558288496
 30
0.0
 11
-432.7343419560292
 21
-141.9727558288625
 31
0.0
  0
LINE
  5
18E
330
1F
100
AcDbEntity
  8
0-0
  6
JWW_DASHED1
 62
   120
370
     5
100
AcDbLine
 10
-342.7343419560228
 20
-51.97275582885609
 30
0.0
 11
-92.73434195603357
 21
198.0272441711331
 31
0.0
  0
LINE
  5
18F
330
1F
100
AcDbEntity
  8
0-0
  6
JWW_DASHED1
 62
   120
370
     5
100
AcDbLine
 10
-682.7343419560162
 20
-384.9016880155641
 30
0.0
 11
-432.7343419560112
 21
-134.9016880155591
 31
0.0
  0
LINE
  5
190
330
1F
100
AcDbEntity
  8
0-0
  6
JWW_DASHED1
 62
   120
370
     5
100
AcDbLine
 10
-342.7343419560198
 20
-44.9016880155672
 30
0.0
 11
-92.73434195602803
 21
205.0983119844241
 31
0.0
  0
LINE
  5
191
330
1F
100
AcDbEntity
  8
0-0
  6
JWW_DASHED1
 62
   120
370
     5
100
AcDbLine
 10
-682.7343419560204
 20
-377.8306202022824
 30
0.0
 11
-432.7343419560146
 21
-127.830620202277
 31
0.0
  0
LINE
  5
192
330
1F
100
AcDbEntity
  8
0-0
  6
JWW_DASHED1
 62
   120
370
     5
100
AcDbLine
 10
-342.7343419560236
 20
-37.83062020228598
 30
0.0
 11
-92.73434195601652
 21
212.1693797977211
 31
0.0
  0
LINE
  5
193
330
1F
100
AcDbEntity
  8
0-0
  6
JWW_DASHED1
 62
   120
370
     5
100
AcDbLine
 10
-682.7343419560243
 20
-370.7595523890012
 30
0.0
 11
-432.734341956019
 21
-120.7595523889958
 31
0.0
  0
LINE
  5
194
330
1F
100
AcDbEntity
  8
0-0
  6
JWW_DASHED1
 62
   120
370
     5
100
AcDbLine
 10
-342.7343419560275
 20
-30.75955238900434
 30
0.0
 11
-92.73434195602078
 21
219.2404476110023
 31
0.0
  0
LINE
  5
195
330
1F
100
AcDbEntity
  8
0-0
  6
JWW_DASHED1
 62
   120
370
     5
100
AcDbLine
 10
-682.7343419560124
 20
-363.6884845757038
 30
0.0
 11
-432.7343419560232
 21
-113.6884845757146
 31
0.0
  0
LINE
  5
196
330
1F
100
AcDbEntity
  8
0-0
  6
JWW_DASHED1
 62
   120
370
     5
100
AcDbLine
 10
-342.7343419560317
 20
-23.68848457572312
 30
0.0
 11
-92.73434195602505
 21
226.3115154242836
 31
0.0
  0
LINE
  5
197
330
1F
100
AcDbEntity
  8
0-0
  6
JWW_DASHED1
 62
   120
370
     5
100
AcDbLine
 10
-682.7343419560167
 20
-356.6174167624226
 30
0.0
 11
-432.734341956027
 21
-106.617416762433
 31
0.0
  0
LINE
  5
198
330
1F
100
AcDbEntity
  8
0-0
  6
JWW_DASHED1
 62
   120
370
     5
100
AcDbLine
 10
-342.7343419560194
 20
-16.61741676242528
 30
0.0
 11
-92.73434195602846
 21
233.3825832375656
 31
0.0
  0
LINE
  5
199
330
1F
100
AcDbEntity
  8
0-0
  6
JWW_DASHED1
 62
   120
370
     5
100
AcDbLine
 10
-682.7343419560209
 20
-349.5463489491414
 30
0.0
 11
-432.7343419560309
 21
-99.54634894915131
 31
0.0
  0
LINE
  5
19A
330
1F
100
AcDbEntity
  8
0-0
  6
JWW_DASHED1
 62
   120
370
     5
100
AcDbLine
 10
-342.7343419560236
 20
-9.546348949144061
 30
0.0
 11
-92.73434195603272
 21
240.4536510508468
 31
0.0
  0
LINE
  5
19B
330
1F
100
AcDbEntity
  8
0-0
  6
JWW_DASHED1
 62
   120
370
     5
100
AcDbLine
 10
-682.7343419560248
 20
-342.4752811358597
 30
0.0
 11
-432.7343419560351
 21
-92.47528113587009
 31
0.0
  0
LINE
  5
19C
330
1F
100
AcDbEntity
  8
0-0
  6
JWW_DASHED1
 62
   120
370
     5
100
AcDbLine
 10
-342.7343419560279
 20
-2.475281135862843
 30
0.0
 11
-92.73434195603613
 21
247.5247188641289
 31
0.0
  0
LINE
  5
19D
330
1F
100
AcDbEntity
  8
0-0
  6
JWW_DASHED1
 62
   120
370
     5
100
AcDbLine
 10
-682.7343419560179
 20
-335.404213322567
 30
0.0
 11
-432.7343419560304
 21
-85.40421332257992
 31
0.0
  0
LINE
  5
19E
330
1F
100
AcDbEntity
  8
0-0
  6
JWW_DASHED1
 62
   120
370
     5
100
AcDbLine
 10
-342.7343419560236
 20
4.595786677426901
 30
0.0
 11
-92.73434195603443
 21
254.5957866774161
 31
0.0
  0
LINE
  5
19F
330
1F
100
AcDbEntity
  8
0-0
  6
JWW_DASHED1
 62
   120
370
     5
100
AcDbLine
 10
-682.7343419560214
 20
-328.3331455093395
 30
0.0
 11
-432.7343419560156
 21
-78.33314550933409
 31
0.0
  0
LINE
  5
1A0
330
1F
100
AcDbEntity
  8
0-0
  6
JWW_DASHED1
 62
   120
370
     5
100
AcDbLine
 10
-342.7343419560245
 20
11.66685449065696
 30
0.0
 11
-92.73434195601737
 21
261.666854490664
 31
0.0
  0
LINE
  5
1A1
330
1F
100
AcDbEntity
  8
0-0
  6
JWW_DASHED1
 62
   120
370
     5
100
AcDbLine
 10
-682.7343419560252
 20
-321.2620776960579
 30
0.0
 11
-432.7343419560198
 21
-71.26207769605287
 31
0.0
  0
LINE
  5
1A2
330
1F
100
AcDbEntity
  8
0-0
  6
JWW_DASHED1
 62
   120
370
     5
100
AcDbLine
 10
-342.7343419560283
 20
18.7379223039386
 30
0.0
 11
-92.73434195602164
 21
268.7379223039453
 31
0.0
  0
LINE
  5
1A3
330
1F
100
AcDbEntity
  8
0-0
  6
JWW_DASHED1
 62
   120
370
     5
100
AcDbLine
 10
-682.7343419560136
 20
-314.1910098827613
 30
0.0
 11
-432.7343419560241
 21
-64.19100988277165
 31
0.0
  0
LINE
  5
1A4
330
1F
100
AcDbEntity
  8
0-0
  6
JWW_DASHED1
 62
   120
370
     5
100
AcDbLine
 10
-342.7343419560326
 20
25.80899011721982
 30
0.0
 11
-92.73434195602505
 21
275.8089901172274
 31
0.0
  0
LINE
  5
1A5
330
1F
100
AcDbEntity
  8
0-0
  6
JWW_DASHED1
 62
   120
370
     5
100
AcDbLine
 10
-682.7343419560175
 20
-307.1199420694796
 30
0.0
 11
-432.7343419560283
 21
-57.11994206949043
 31
0.0
  0
LINE
  5
1A6
330
1F
100
AcDbEntity
  8
0-0
  6
JWW_DASHED1
 62
   120
370
     5
100
AcDbLine
 10
-342.7343419560211
 20
32.88005793051681
 30
0.0
 11
-92.73434195602931
 21
282.8800579305085
 31
0.0
  0
LINE
  5
1A7
330
1F
100
AcDbEntity
  8
0-0
  6
JWW_DASHED1
 62
   120
370
     5
100
AcDbLine
 10
-682.7343419560218
 20
-300.0488742561984
 30
0.0
 11
-432.7343419560317
 21
-50.04887425620836
 31
0.0
  0
LINE
  5
1A8
330
1F
100
AcDbEntity
  8
0-0
  6
JWW_DASHED1
 62
   120
370
     5
100
AcDbLine
 10
-342.7343419560249
 20
39.95112574379846
 30
0.0
 11
-92.73434195603272
 21
289.9511257437906
 31
0.0
  0
LINE
  5
1A9
330
1F
100
AcDbEntity
  8
0-0
  6
JWW_DASHED1
 62
   120
370
     5
100
AcDbLine
 10
-682.734341956015
 20
-292.9778064429061
 30
0.0
 11
-432.7343419560275
 21
-42.97780644291862
 31
0.0
  0
LINE
  5
1AA
330
1F
100
AcDbEntity
  8
0-0
  6
JWW_DASHED1
 62
   120
370
     5
100
AcDbLine
 10
-342.7343419560211
 20
47.0221935570882
 30
0.0
 11
-92.7343419560323
 21
297.0221935570765
 31
0.0
  0
LINE
  5
1AB
330
1F
100
AcDbEntity
  8
0-0
  6
JWW_DASHED1
 62
   120
370
     5
100
AcDbLine
 10
-682.7343419560192
 20
-285.9067386296249
 30
0.0
 11
-432.7343419560317
 21
-35.9067386296374
 31
0.0
  0
LINE
  5
1AC
330
1F
100
AcDbEntity
  8
0-0
  6
JWW_DASHED1
 62
   120
370
     5
100
AcDbLine
 10
-342.7343419560249
 20
54.09326137036942
 30
0.0
 11
-92.73434195603656
 21
304.0932613703578
 31
0.0
  0
LINE
  5
1AD
330
1F
100
AcDbEntity
  8
0-0
  6
JWW_DASHED1
 62
   120
370
     5
100
AcDbLine
 10
-682.7343419560179
 20
-278.8356708163382
 30
0.0
 11
-432.7343419560125
 21
-28.83567081633274
 31
0.0
  0
LINE
  5
1AE
330
1F
100
AcDbEntity
  8
0-0
  6
JWW_DASHED1
 62
   120
370
     5
100
AcDbLine
 10
-342.7343419560207
 20
61.16432918365916
 30
0.0
 11
-92.73434195602974
 21
311.1643291836501
 31
0.0
  0
LINE
  5
1AF
330
1F
100
AcDbEntity
  8
0-0
  6
JWW_DASHED1
 62
   120
370
     5
100
AcDbLine
 10
-682.7343419560214
 20
-271.7646030030561
 30
0.0
 11
-432.7343419560168
 21
-21.76460300305152
 31
0.0
  0
LINE
  5
1B0
330
1F
100
AcDbEntity
  8
0-0
  6
JWW_DASHED1
 62
   120
370
     5
100
AcDbLine
 10
-342.7343419560249
 20
68.23539699694038
 30
0.0
 11
-92.73434195601823
 21
318.2353969969471
 31
0.0
  0
LINE
  5
1B1
330
1F
100
AcDbEntity
  8
0-0
  6
JWW_DASHED1
 62
   120
370
     5
100
AcDbLine
 10
-682.7343419560257
 20
-264.6935351897748
 30
0.0
 11
-432.7343419560207
 21
-14.69353518976988
 31
0.0
  0
LINE
  5
1B2
330
1F
100
AcDbEntity
  8
0-0
  6
JWW_DASHED1
 62
   120
370
     5
100
AcDbLine
 10
-342.7343419560292
 20
75.3064648102216
 30
0.0
 11
-92.73434195602206
 21
325.3064648102287
 31
0.0
  0
LINE
  5
1B3
330
1F
100
AcDbEntity
  8
0-0
  6
JWW_DASHED1
 62
   120
370
     5
100
AcDbLine
 10
-682.7343419560184
 20
-257.6224673765367
 30
0.0
 11
-432.7343419560292
 21
-7.62246737654749
 31
0.0
  0
LINE
  5
1B4
330
1F
100
AcDbEntity
  8
0-0
  6
JWW_DASHED1
 62
   120
370
     5
100
AcDbLine
 10
-342.7343419560219
 20
82.37753262345976
 30
0.0
 11
-92.73434195603059
 21
332.3775326234511
 31
0.0
  0
LINE
  5
1B5
330
1F
100
AcDbEntity
  8
0-0
  6
JWW_DASHED1
 62
   120
370
     5
100
AcDbLine
 10
-682.7343419560226
 20
-250.551399563255
 30
0.0
 11
-432.7343419560326
 21
-0.5513995632654201
 31
0.0
  0
LINE
  5
1B6
330
1F
100
AcDbEntity
  8
0-0
  6
JWW_DASHED1
 62
   120
370
     5
100
AcDbLine
 10
-342.7343419560258
 20
89.4486004367414
 30
0.0
 11
-92.73434195603443
 21
339.4486004367327
 31
0.0
  0
LINE
  5
1B7
330
1F
100
AcDbEntity
  8
0-0
  6
JWW_DASHED1
 62
   120
370
     5
100
AcDbLine
 10
-682.7343419560162
 20
-243.4803317499636
 30
0.0
 11
-432.7343419560292
 21
6.519668250023472
 31
0.0
  0
LINE
  5
1B8
330
1F
100
AcDbEntity
  8
0-0
  6
JWW_DASHED1
 62
   120
370
     5
100
AcDbLine
 10
-342.7343419560224
 20
96.51966825003029
 30
0.0
 11
-92.73434195603315
 21
346.5196682500195
 31
0.0
  0
LINE
  5
1B9
330
1F
100
AcDbEntity
  8
0-0
  6
JWW_DASHED1
 62
   120
370
     5
100
AcDbLine
 10
-682.7343419560204
 20
-236.409263936682
 30
0.0
 11
-432.734341956033
 21
13.59073606330512
 31
0.0
  0
LINE
  5
1BA
330
1F
100
AcDbEntity
  8
0-0
  6
JWW_DASHED1
 62
   120
370
     5
100
AcDbLine
 10
-342.7343419560266
 20
103.5907360633115
 30
0.0
 11
-92.73434195603741
 21
353.5907360633007
 31
0.0
  0
LINE
  5
1BB
330
1F
100
AcDbEntity
  8
0-0
  6
JWW_DASHED1
 62
   120
370
     5
100
AcDbLine
 10
-682.7343419560189
 20
-229.3381961233952
 30
0.0
 11
-432.7343419560134
 21
20.66180387661021
 31
0.0
  0
LINE
  5
1BC
330
1F
100
AcDbEntity
  8
0-0
  6
JWW_DASHED1
 62
   120
370
     5
100
AcDbLine
 10
-342.7343419560215
 20
110.6618038766021
 30
0.0
 11
-92.73434195603059
 21
360.661803876593
 31
0.0
  0
LINE
  5
1BD
330
1F
100
AcDbEntity
  8
0-0
  6
JWW_DASHED1
 62
   120
370
     5
100
AcDbLine
 10
-682.7343419560226
 20
-222.2671283101135
 30
0.0
 11
-432.7343419560177
 21
27.73287168989143
 31
0.0
  0
LINE
  5
1BE
330
1F
100
AcDbEntity
  8
0-0
  6
JWW_DASHED1
 62
   120
370
     5
100
AcDbLine
 10
-342.7343419560258
 20
117.7328716898833
 30
0.0
 11
-92.73434195601908
 21
367.73287168989
 31
0.0
  0
LINE
  5
1BF
330
1F
100
AcDbEntity
  8
0-0
  6
JWW_DASHED1
 62
   120
370
     5
100
AcDbLine
 10
-682.7343419560107
 20
-215.1960604968161
 30
0.0
 11
-432.7343419560215
 21
34.80393950317307
 31
0.0
  0
LINE
  5
1C0
330
1F
100
AcDbEntity
  8
0-0
  6
JWW_DASHED1
 62
   120
370
     5
100
AcDbLine
 10
-342.73434195603
 20
124.8039395031645
 30
0.0
 11
-92.73434195602292
 21
374.8039395031716
 31
0.0
  0
LINE
  5
1C1
330
1F
100
AcDbEntity
  8
0-0
  6
JWW_DASHED1
 62
   120
370
     5
100
AcDbLine
 10
-682.734341956015
 20
-208.1249926835349
 30
0.0
 11
-432.7343419560258
 21
41.87500731645429
 31
0.0
  0
LINE
  5
1C2
330
1F
100
AcDbEntity
  8
0-0
  6
JWW_DASHED1
 62
   120
370
     5
100
AcDbLine
 10
-342.7343419560181
 20
131.875007316462
 30
0.0
 11
-92.73434195602675
 21
381.8750073164533
 31
0.0
  0
LINE
  5
1C3
330
1F
100
AcDbEntity
  8
0-0
  6
JWW_DASHED1
 62
   120
370
     5
100
AcDbLine
 10
-682.7343419560192
 20
-201.0539248702537
 30
0.0
 11
-432.7343419560296
 21
48.94607512973593
 31
0.0
  0
LINE
  5
1C4
330
1F
100
AcDbEntity
  8
0-0
  6
JWW_DASHED1
 62
   120
370
     5
100
AcDbLine
 10
-342.7343419560219
 20
138.9460751297436
 30
0.0
 11
-92.73434195603059
 21
388.9460751297349
 31
0.0
  0
LINE
  5
1C5
330
1F
100
AcDbEntity
  8
0-0
  6
JWW_DASHED1
 62
   120
370
     5
100
AcDbLine
 10
-682.7343419560175
 20
-193.9828570570211
 30
0.0
 11
-432.73434195603
 21
56.01714294296642
 31
0.0
  0
LINE
  5
1C6
330
1F
100
AcDbEntity
  8
0-0
  6
JWW_DASHED1
 62
   120
370
     5
100
AcDbLine
 10
-342.7343419560236
 20
146.0171429429728
 30
0.0
 11
-92.73434195603443
 21
396.017142942962
 31
0.0
  0
LINE
  5
1C7
330
1F
100
AcDbEntity
  8
0-0
  6
JWW_DASHED1
 62
   120
370
     5
100
AcDbLine
 10
-682.7343419560154
 20
-186.9117892437335
 30
0.0
 11
-432.7343419560104
 21
63.08821075627151
 31
0.0
  0
LINE
  5
1C8
330
1F
100
AcDbEntity
  8
0-0
  6
JWW_DASHED1
 62
   120
370
     5
100
AcDbLine
 10
-342.734341956019
 20
153.088210756263
 30
0.0
 11
-92.73434195602718
 21
403.0882107562547
 31
0.0
  0
LINE
  5
1C9
330
1F
100
AcDbEntity
  8
0-0
  6
JWW_DASHED1
 62
   120
370
     5
100
AcDbLine
 10
-682.7343419560196
 20
-179.8407214304522
 30
0.0
 11
-432.7343419560142
 21
70.15927856955315
 31
0.0
  0
LINE
  5
1CA
330
1F
100
AcDbEntity
  8
0-0
  6
JWW_DASHED1
 62
   120
370
     5
100
AcDbLine
 10
-342.7343419560228
 20
160.1592785695446
 30
0.0
 11
-92.73434195601567
 21
410.1592785695517
 31
0.0
  0
LINE
  5
1CB
330
1F
100
AcDbEntity
  8
0-0
  6
JWW_DASHED1
 62
   120
370
     5
100
AcDbLine
 10
-682.7343419560239
 20
-172.769653617171
 30
0.0
 11
-432.7343419560185
 21
77.23034638283437
 31
0.0
  0
LINE
  5
1CC
330
1F
100
AcDbEntity
  8
0-0
  6
JWW_DASHED1
 62
   120
370
     5
100
AcDbLine
 10
-342.734341956027
 20
167.2303463828258
 30
0.0
 11
-92.73434195601993
 21
417.230346382833
 31
0.0
  0
LINE
  5
1CD
330
1F
100
AcDbEntity
  8
0-0
  6
JWW_DASHED1
 62
   120
370
     5
100
AcDbLine
 10
-682.7343419560116
 20
-165.6985858038732
 30
0.0
 11
-432.7343419560224
 21
84.30141419611601
 31
0.0
  0
LINE
  5
1CE
330
1F
100
AcDbEntity
  8
0-0
  6
JWW_DASHED1
 62
   120
370
     5
100
AcDbLine
 10
-342.7343419560309
 20
174.3014141961075
 30
0.0
 11
-92.7343419560242
 21
424.3014141961141
 31
0.0
  0
LINE
  5
1CF
330
1F
100
AcDbEntity
  8
0-0
  6
JWW_DASHED1
 62
   120
370
     5
100
AcDbLine
 10
-682.7343419560158
 20
-158.627517990592
 30
0.0
 11
-432.7343419560266
 21
91.37248200939766
 31
0.0
  0
LINE
  5
1D0
330
1F
100
AcDbEntity
  8
0-0
  6
JWW_DASHED1
 62
   120
370
     5
100
AcDbLine
 10
-342.734341956019
 20
181.3724820094049
 30
0.0
 11
-92.7343419560276
 21
431.3724820093962
 31
0.0
  0
LINE
  5
1D1
330
1F
100
AcDbEntity
  8
0-0
  6
JWW_DASHED1
 62
   120
370
     5
100
AcDbLine
 10
-682.7343419560201
 20
-151.5564501773108
 30
0.0
 11
-432.7343419560304
 21
98.44354982267888
 31
0.0
  0
LINE
  5
1D2
330
1F
100
AcDbEntity
  8
0-0
  6
JWW_DASHED1
 62
   120
370
     5
100
AcDbLine
 10
-342.7343419560228
 20
188.4435498226865
 30
0.0
 11
-92.73434195603187
 21
438.4435498226775
 31
0.0
  0
LINE
  5
1D3
330
1F
100
AcDbEntity
  8
0-0
  6
JWW_DASHED1
 62
   120
370
     5
100
AcDbLine
 10
-682.7343419560239
 20
-144.4853823640291
 30
0.0
 11
-432.7343419560347
 21
105.5146176359605
 31
0.0
  0
LINE
  5
1D4
330
1F
100
AcDbEntity
  8
0-0
  6
JWW_DASHED1
 62
   120
370
     5
100
AcDbLine
 10
-342.734341956027
 20
195.5146176359678
 30
0.0
 11
-92.7343419560357
 21
445.5146176359591
 31
0.0
  0
LINE
  5
1D5
330
1F
100
AcDbEntity
  8
0-0
  6
JWW_DASHED1
 62
   120
370
     5
100
AcDbLine
 10
-682.7343419560189
 20
-137.4143145507385
 30
0.0
 11
-432.7343419560313
 21
112.585685449249
 31
0.0
  0
LINE
  5
1D6
330
1F
100
AcDbEntity
  8
0-0
  6
JWW_DASHED1
 62
   120
370
     5
100
AcDbLine
 10
-342.7343419560249
 20
202.5856854492558
 30
0.0
 11
-92.7343419560357
 21
452.5856854492446
 31
0.0
  0
LINE
  5
1D7
330
1F
100
AcDbEntity
  8
0-0
  6
JWW_DASHED1
 62
   120
370
     5
100
AcDbLine
 10
-682.7343419560162
 20
-130.34324673745
 30
0.0
 11
-432.7343419560108
 21
119.6567532625549
 31
0.0
  0
LINE
  5
1D8
330
1F
100
AcDbEntity
  8
0-0
  6
JWW_DASHED1
 62
   120
370
     5
100
AcDbLine
 10
-342.7343419560194
 20
209.6567532625464
 30
0.0
 11
-92.73434195602846
 21
459.6567532625373
 31
0.0
  0
LINE
  5
1D9
330
1F
100
AcDbEntity
  8
0-0
  6
JWW_DASHED1
 62
   120
370
     5
100
AcDbLine
 10
-682.7343419560248
 20
-123.2721789242281
 30
0.0
 11
-432.7343419560194
 21
126.7278210757773
 31
0.0
  0
LINE
  5
1DA
330
1F
100
AcDbEntity
  8
0-0
  6
JWW_DASHED1
 62
   120
370
     5
100
AcDbLine
 10
-342.7343419560279
 20
216.7278210757688
 30
0.0
 11
-92.73434195602078
 21
466.7278210757759
 31
0.0
  0
LINE
  5
1DB
330
1F
100
AcDbEntity
  8
0-0
  6
JWW_DASHED1
 62
   120
370
     5
100
AcDbLine
 10
-682.7343419560124
 20
-116.2011111109302
 30
0.0
 11
-432.7343419560232
 21
133.798888889059
 31
0.0
  0
LINE
  5
1DC
330
1F
100
AcDbEntity
  8
0-0
  6
JWW_DASHED1
 62
   120
370
     5
100
AcDbLine
 10
-342.7343419560317
 20
223.7988888890504
 30
0.0
 11
-92.73434195602505
 21
473.7988888890571
 31
0.0
  0
LINE
  5
1DD
330
1F
100
AcDbEntity
  8
0-0
  6
JWW_DASHED1
 62
   120
370
     5
100
AcDbLine
 10
-682.7343419560167
 20
-109.130043297649
 30
0.0
 11
-432.7343419560275
 21
140.8699567023402
 31
0.0
  0
LINE
  5
1DE
330
1F
100
AcDbEntity
  8
0-0
  6
JWW_DASHED1
 62
   120
370
     5
100
AcDbLine
 10
-342.7343419560202
 20
230.8699567023474
 30
0.0
 11
-92.73434195602931
 21
480.8699567023383
 31
0.0
  0
LINE
  5
1DF
330
1F
100
AcDbEntity
  8
0-0
  6
JWW_DASHED1
 62
   120
370
     5
100
AcDbLine
 10
-682.7343419560209
 20
-102.0589754843678
 30
0.0
 11
-432.7343419560313
 21
147.9410245156218
 31
0.0
  0
LINE
  5
1E0
330
1F
100
AcDbEntity
  8
0-0
  6
JWW_DASHED1
 62
   120
370
     5
100
AcDbLine
 10
-342.7343419560236
 20
237.9410245156295
 30
0.0
 11
-92.73434195603272
 21
487.9410245156204
 31
0.0
  0
LINE
  5
1E1
330
1F
100
AcDbEntity
  8
0-0
  6
JWW_DASHED1
 62
   120
370
     5
100
AcDbLine
 10
-682.7343419560158
 20
-94.98790767107721
 30
0.0
 11
-432.7343419560287
 21
155.0120923289099
 31
0.0
  0
LINE
  5
1E2
330
1F
100
AcDbEntity
  8
0-0
  6
JWW_DASHED1
 62
   120
370
     5
100
AcDbLine
 10
-342.7343419560219
 20
245.0120923289167
 30
0.0
 11
-92.73434195603272
 21
495.0120923289059
 31
0.0
  0
LINE
  5
1E3
330
1F
100
AcDbEntity
  8
0-0
  6
JWW_DASHED1
 62
   120
370
     5
100
AcDbLine
 10
-682.7343419560196
 20
-87.91683985779557
 30
0.0
 11
-432.7343419560326
 21
162.0831601421915
 31
0.0
  0
LINE
  5
1E4
330
1F
100
AcDbEntity
  8
0-0
  6
JWW_DASHED1
 62
   120
370
     5
100
AcDbLine
 10
-342.7343419560262
 20
252.0831601421979
 30
0.0
 11
-92.73434195603699
 21
502.0831601421871
 31
0.0
  0
LINE
  5
1E5
330
1F
100
AcDbEntity
  8
0-0
  6
JWW_DASHED1
 62
   120
370
     5
100
AcDbLine
 10
-682.734341956017
 20
-80.84577204450753
 30
0.0
 11
-432.7343419560117
 21
169.1542279554979
 31
0.0
  0
LINE
  5
1E6
330
1F
100
AcDbEntity
  8
0-0
  6
JWW_DASHED1
 62
   120
370
     5
100
AcDbLine
 10
-342.7343419560202
 20
259.1542279554893
 30
0.0
 11
-92.73434195602889
 21
509.1542279554802
 31
0.0
  0
LINE
  5
1E7
330
1F
100
AcDbEntity
  8
0-0
  6
JWW_DASHED1
 62
   120
370
     5
100
AcDbLine
 10
-682.7343419560214
 20
-73.77470423122631
 30
0.0
 11
-432.734341956016
 21
176.2252957687791
 31
0.0
  0
LINE
  5
1E8
330
1F
100
AcDbEntity
  8
0-0
  6
JWW_DASHED1
 62
   120
370
     5
100
AcDbLine
 10
-342.7343419560241
 20
266.225295768771
 30
0.0
 11
-92.7343419560178
 21
516.2252957687772
 31
0.0
  0
LINE
  5
1E9
330
1F
100
AcDbEntity
  8
0-0
  6
JWW_DASHED1
 62
   120
370
     5
100
AcDbLine
 10
-682.7343419560252
 20
-66.70363641794424
 30
0.0
 11
-432.7343419560198
 21
183.2963635820607
 31
0.0
  0
LINE
  5
1EA
330
1F
100
AcDbEntity
  8
0-0
  6
JWW_DASHED1
 62
   120
370
     5
100
AcDbLine
 10
-342.7343419560283
 20
273.2963635820522
 30
0.0
 11
-92.73434195602121
 21
523.2963635820593
 31
0.0
  0
LINE
  5
1EB
330
1F
100
AcDbEntity
  8
0-0
  6
JWW_DASHED1
 62
   120
370
     5
100
AcDbLine
 10
-682.7343419560175
 20
-59.63256860470608
 30
0.0
 11
-432.7343419560283
 21
190.3674313952831
 31
0.0
  0
LINE
  5
1EC
330
1F
100
AcDbEntity
  8
0-0
  6
JWW_DASHED1
 62
   120
370
     5
100
AcDbLine
 10
-342.7343419560211
 20
280.3674313952904
 30
0.0
 11
-92.73434195603016
 21
530.3674313952813
 31
0.0
  0
LINE
  5
1ED
330
1F
100
AcDbEntity
  8
0-0
  6
JWW_DASHED1
 62
   120
370
     5
100
AcDbLine
 10
-682.7343419560218
 20
-52.56150079142486
 30
0.0
 11
-432.7343419560322
 21
197.4384992085648
 31
0.0
  0
LINE
  5
1EE
330
1F
100
AcDbEntity
  8
0-0
  6
JWW_DASHED1
 62
   120
370
     5
100
AcDbLine
 10
-342.7343419560249
 20
287.438499208572
 30
0.0
 11
-92.73434195603357
 21
537.4384992085634
 31
0.0
  0
LINE
  5
1EF
330
1F
100
AcDbEntity
  8
0-0
  6
JWW_DASHED1
 62
   120
370
     5
100
AcDbLine
 10
-682.734341956017
 20
-45.49043297813469
 30
0.0
 11
-432.73434195603
 21
204.5095670218524
 31
0.0
  0
LINE
  5
1F0
330
1F
100
AcDbEntity
  8
0-0
  6
JWW_DASHED1
 62
   120
370
     5
100
AcDbLine
 10
-342.7343419560232
 20
294.5095670218592
 30
0.0
 11
-92.73434195603357
 21
544.5095670218489
 31
0.0
  0
LINE
  5
1F1
330
1F
100
AcDbEntity
  8
0-0
  6
JWW_DASHED1
 62
   120
370
     5
100
AcDbLine
 10
-682.7343419560209
 20
-38.41936516485305
 30
0.0
 11
-432.7343419560339
 21
211.580634835134
 31
0.0
  0
LINE
  5
1F2
330
1F
100
AcDbEntity
  8
0-0
  6
JWW_DASHED1
 62
   120
370
     5
100
AcDbLine
 10
-342.7343419560275
 20
301.5806348351404
 30
0.0
 11
-92.73434195603784
 21
551.58063483513
 31
0.0
  0
LINE
  5
1F3
330
1F
100
AcDbEntity
  8
0-0
  6
JWW_DASHED1
 62
   120
370
     5
100
AcDbLine
 10
-682.7343419560179
 20
-31.34829735156458
 30
0.0
 11
-432.7343419560125
 21
218.6517026484408
 31
0.0
  0
LINE
  5
1F4
330
1F
100
AcDbEntity
  8
0-0
  6
JWW_DASHED1
 62
   120
370
     5
100
AcDbLine
 10
-342.7343419560211
 20
308.6517026484323
 30
0.0
 11
-92.73434195602974
 21
558.6517026484232
 31
0.0
  0
LINE
  5
1F5
330
1F
100
AcDbEntity
  8
0-0
  6
JWW_DASHED1
 62
   120
370
     5
100
AcDbLine
 10
-682.7343419560223
 20
-24.27722953828336
 30
0.0
 11
-432.7343419560168
 21
225.722770461722
 31
0.0
  0
LINE
  5
1F6
330
1F
100
AcDbEntity
  8
0-0
  6
JWW_DASHED1
 62
   120
370
     5
100
AcDbLine
 10
-342.7343419560249
 20
315.7227704617139
 30
0.0
 11
-92.73434195601865
 21
565.7227704617202
 31
0.0
  0
LINE
  5
1F7
330
1F
100
AcDbEntity
  8
0-0
  6
JWW_DASHED1
 62
   120
370
     5
100
AcDbLine
 10
-682.7343419560102
 20
-17.20616172498595
 30
0.0
 11
-432.7343419560207
 21
232.7938382750037
 31
0.0
  0
LINE
  5
1F8
330
1F
100
AcDbEntity
  8
0-0
  6
JWW_DASHED1
 62
   120
370
     5
100
AcDbLine
 10
-342.7343419560292
 20
322.7938382749952
 30
0.0
 11
-92.73434195602249
 21
572.7938382750018
 31
0.0
  0
LINE
  5
1F9
330
1F
100
AcDbEntity
  8
0-0
  6
JWW_DASHED1
 62
   120
370
     5
100
AcDbLine
 10
-682.7343419560145
 20
-10.1350939117043
 30
0.0
 11
-432.7343419560249
 21
239.8649060882849
 31
0.0
  0
LINE
  5
1FA
330
1F
100
AcDbEntity
  8
0-0
  6
JWW_DASHED1
 62
   120
370
     5
100
AcDbLine
 10
-342.7343419560177
 20
329.8649060882922
 30
0.0
 11
-92.73434195602675
 21
579.8649060882831
 31
0.0
  0
LINE
  5
1FB
330
1F
100
AcDbEntity
  8
0-0
  6
JWW_DASHED1
 62
   120
370
     5
100
AcDbLine
 10
-682.7343419560184
 20
-3.064026098423085
 30
0.0
 11
-432.7343419560287
 21
246.9359739015665
 31
0.0
  0
LINE
  5
1FC
330
1F
100
AcDbEntity
  8
0-0
  6
JWW_DASHED1
 62
   120
370
     5
100
AcDbLine
 10
-342.7343419560215
 20
336.9359739015738
 30
0.0
 11
-92.73434195603059
 21
586.9359739015647
 31
0.0
  0
LINE
  5
1FD
330
1F
100
AcDbEntity
  8
0-0
  6
JWW_DASHED1
 62
   120
370
     5
100
AcDbLine
 10
-682.7343419560184
 20
4.007041714807826
 30
0.0
 11
-432.7343419560309
 21
254.0070417147953
 31
0.0
  0
LINE
  5
1FE
330
1F
100
AcDbEntity
  8
0-0
  6
JWW_DASHED1
 62
   120
370
     5
100
AcDbLine
 10
-342.7343419560245
 20
344.0070417148017
 30
0.0
 11
-92.7343419560357
 21
594.0070417147905
 31
0.0
  0
LINE
  5
1FF
330
1F
100
AcDbEntity
  8
0-0
  6
JWW_DASHED1
 62
   120
370
     5
100
AcDbLine
 10
-682.7343419560145
 20
11.07810952809714
 30
0.0
 11
-432.7343419560095
 21
261.0781095281021
 31
0.0
  0
LINE
  5
200
330
1F
100
AcDbEntity
  8
0-0
  6
JWW_DASHED1
 62
   120
370
     5
100
AcDbLine
 10
-342.7343419560181
 20
351.0781095280936
 30
0.0
 11
-92.73434195602675
 21
601.078109528085
 31
0.0
  0
LINE
  5
201
330
1F
100
AcDbEntity
  8
0-0
  6
JWW_DASHED1
 62
   120
370
     5
100
AcDbLine
 10
-682.7343419560189
 20
18.14917734137836
 30
0.0
 11
-432.7343419560134
 21
268.1491773413837
 31
0.0
  0
LINE
  5
202
330
1F
100
AcDbEntity
  8
0-0
  6
JWW_DASHED1
 62
   120
370
     5
100
AcDbLine
 10
-342.7343419560224
 20
358.1491773413748
 30
0.0
 11
-92.73434195601524
 21
608.1491773413819
 31
0.0
  0
LINE
  5
203
330
1F
100
AcDbEntity
  8
0-0
  6
JWW_DASHED1
 62
   120
370
     5
100
AcDbLine
 10
-682.7343419560231
 20
25.22024515465958
 30
0.0
 11
-432.7343419560177
 21
275.220245154665
 31
0.0
  0
LINE
  5
204
330
1F
100
AcDbEntity
  8
0-0
  6
JWW_DASHED1
 62
   120
370
     5
100
AcDbLine
 10
-342.7343419560258
 20
365.2202451546569
 30
0.0
 11
-92.73434195601908
 21
615.2202451546632
 31
0.0
  0
LINE
  5
205
330
1F
100
AcDbEntity
  8
0-0
  6
JWW_DASHED1
 62
   120
370
     5
100
AcDbLine
 10
-682.7343419560111
 20
32.291312967957
 30
0.0
 11
-432.7343419560219
 21
282.2913129679462
 31
0.0
  0
LINE
  5
206
330
1F
100
AcDbEntity
  8
0-0
  6
JWW_DASHED1
 62
   120
370
     5
100
AcDbLine
 10
-342.73434195603
 20
372.2913129679381
 30
0.0
 11
-92.73434195602334
 21
622.2913129679448
 31
0.0
  0
LINE
  5
207
330
1F
100
AcDbEntity
  8
0-0
  6
JWW_DASHED1
 62
   120
370
     5
100
AcDbLine
 10
-682.7343419560154
 20
39.36238078123864
 30
0.0
 11
-432.7343419560262
 21
289.3623807812274
 31
0.0
  0
LINE
  5
208
330
1F
100
AcDbEntity
  8
0-0
  6
JWW_DASHED1
 62
   120
370
     5
100
AcDbLine
 10
-342.7343419560185
 20
379.3623807812351
 30
0.0
 11
-92.73434195602718
 21
629.3623807812264
 31
0.0
  0
LINE
  5
209
330
1F
100
AcDbEntity
  8
0-0
  6
JWW_DASHED1
 62
   120
370
     5
100
AcDbLine
 10
-682.7343419560192
 20
46.43344859451986
 30
0.0
 11
-432.73434195603
 21
296.4334485945091
 31
0.0
  0
LINE
  5
20A
330
1F
100
AcDbEntity
  8
0-0
  6
JWW_DASHED1
 62
   120
370
     5
100
AcDbLine
 10
-342.7343419560224
 20
386.4334485945167
 30
0.0
 11
-92.73434195603144
 21
636.4334485945076
 31
0.0
  0
LINE
  5
20B
330
1F
100
AcDbEntity
  8
0-0
  6
JWW_DASHED1
 62
   120
370
     5
100
AcDbLine
 10
-682.7343419560231
 20
53.5045164078015
 30
0.0
 11
-432.7343419560339
 21
303.5045164077907
 31
0.0
  0
LINE
  5
20C
330
1F
100
AcDbEntity
  8
0-0
  6
JWW_DASHED1
 62
   120
370
     5
100
AcDbLine
 10
-342.7343419560266
 20
393.504516407798
 30
0.0
 11
-92.73434195603485
 21
643.5045164077897
 31
0.0
  0
LINE
  5
20D
330
1F
100
AcDbEntity
  8
0-0
  6
JWW_DASHED1
 62
   120
370
     5
100
AcDbLine
 10
-682.7343419560196
 20
60.57558422109039
 30
0.0
 11
-432.7343419560322
 21
310.5755842210779
 31
0.0
  0
LINE
  5
20E
330
1F
100
AcDbEntity
  8
0-0
  6
JWW_DASHED1
 62
   120
370
     5
100
AcDbLine
 10
-342.7343419560253
 20
400.5755842210847
 30
0.0
 11
-92.73434195603656
 21
650.5755842210735
 31
0.0
  0
LINE
  5
20F
330
1F
100
AcDbEntity
  8
0-0
  6
JWW_DASHED1
 62
   120
370
     5
100
AcDbLine
 10
-682.7343419560158
 20
67.64665203437971
 30
0.0
 11
-432.7343419560104
 21
317.6466520343855
 31
0.0
  0
LINE
  5
210
330
1F
100
AcDbEntity
  8
0-0
  6
JWW_DASHED1
 62
   120
370
     5
100
AcDbLine
 10
-342.734341956019
 20
407.6466520343766
 30
0.0
 11
-92.7343419560276
 21
657.6466520343679
 31
0.0
  0
LINE
  5
211
330
1F
100
AcDbEntity
  8
0-0
  6
JWW_DASHED1
 62
   120
370
     5
100
AcDbLine
 10
-682.7343419560239
 20
74.71771984760252
 30
0.0
 11
-432.7343419560185
 21
324.7177198476079
 31
0.0
  0
LINE
  5
212
330
1F
100
AcDbEntity
  8
0-0
  6
JWW_DASHED1
 62
   120
370
     5
100
AcDbLine
 10
-342.7343419560275
 20
414.717719847599
 30
0.0
 11
-92.73434195601993
 21
664.7177198476061
 31
0.0
  0
LINE
  5
213
330
1F
100
AcDbEntity
  8
0-0
  6
JWW_DASHED1
 62
   120
370
     5
100
AcDbLine
 10
-682.734341956012
 20
81.78878766089994
 30
0.0
 11
-432.7343419560228
 21
331.7887876608892
 31
0.0
  0
LINE
  5
214
330
1F
100
AcDbEntity
  8
0-0
  6
JWW_DASHED1
 62
   120
370
     5
100
AcDbLine
 10
-342.7343419560317
 20
421.7887876608802
 30
0.0
 11
-92.7343419560242
 21
671.7887876608877
 31
0.0
  0
LINE
  5
215
330
1F
100
AcDbEntity
  8
0-0
  6
JWW_DASHED1
 62
   120
370
     5
100
AcDbLine
 10
-682.7343419560158
 20
88.85985547418159
 30
0.0
 11
-432.734341956027
 21
338.8598554741703
 31
0.0
  0
LINE
  5
216
330
1F
100
AcDbEntity
  8
0-0
  6
JWW_DASHED1
 62
   120
370
     5
100
AcDbLine
 10
-342.734341956019
 20
428.8598554741785
 30
0.0
 11
-92.73434195602846
 21
678.859855474169
 31
0.0
  0
LINE
  5
217
330
1F
100
AcDbEntity
  8
0-0
  6
JWW_DASHED1
 62
   120
370
     5
100
AcDbLine
 10
-682.7343419560201
 20
95.9309232874628
 30
0.0
 11
-432.7343419560309
 21
345.930923287452
 31
0.0
  0
LINE
  5
218
330
1F
100
AcDbEntity
  8
0-0
  6
JWW_DASHED1
 62
   120
370
     5
100
AcDbLine
 10
-342.7343419560232
 20
435.9309232874597
 30
0.0
 11
-92.73434195603187
 21
685.9309232874506
 31
0.0
  0
LINE
  5
219
330
1F
100
AcDbEntity
  8
0-0
  6
JWW_DASHED1
 62
   120
370
     5
100
AcDbLine
 10
-682.7343419560243
 20
103.001991100744
 30
0.0
 11
-432.7343419560347
 21
353.0019911007337
 31
0.0
  0
LINE
  5
21A
330
1F
100
AcDbEntity
  8
0-0
  6
JWW_DASHED1
 62
   120
370
     5
100
AcDbLine
 10
-342.7343419560275
 20
443.0019911007409
 30
0.0
 11
-92.73434195603613
 21
693.0019911007322
 31
0.0
  0
LINE
  5
21B
330
1F
100
AcDbEntity
  8
0-0
  6
JWW_DASHED1
 62
   120
370
     5
100
AcDbLine
 10
-682.7343419560209
 20
110.0730589140329
 30
0.0
 11
-432.7343419560334
 21
360.0730589140204
 31
0.0
  0
LINE
  5
21C
330
1F
100
AcDbEntity
  8
0-0
  6
JWW_DASHED1
 62
   120
370
     5
100
AcDbLine
 10
-342.7343419560266
 20
450.0730589140272
 30
0.0
 11
-92.73434195603784
 21
700.0730589140155
 31
0.0
  0
LINE
  5
21D
330
1F
100
AcDbEntity
  8
0-0
  6
JWW_DASHED1
 62
   120
370
     5
100
AcDbLine
 10
-682.7343419560167
 20
117.1441267273231
 30
0.0
 11
-432.7343419560108
 21
367.1441267273285
 31
0.0
  0
LINE
  5
21E
330
1F
100
AcDbEntity
  8
0-0
  6
JWW_DASHED1
 62
   120
370
     5
100
AcDbLine
 10
-342.7343419560198
 20
457.1441267273195
 30
0.0
 11
-92.73434195602846
 21
707.1441267273109
 31
0.0
  0
LINE
  5
21F
330
1F
100
AcDbEntity
  8
0-0
  6
JWW_DASHED1
 62
   120
370
     5
100
AcDbLine
 10
-682.7343419560204
 20
124.2151945406043
 30
0.0
 11
-432.7343419560151
 21
374.2151945406097
 31
0.0
  0
LINE
  5
220
330
1F
100
AcDbEntity
  8
0-0
  6
JWW_DASHED1
 62
   120
370
     5
100
AcDbLine
 10
-342.7343419560236
 20
464.2151945406011
 30
0.0
 11
-92.73434195601695
 21
714.2151945406079
 31
0.0
  0
LINE
  5
221
330
1F
100
AcDbEntity
  8
0-0
  6
JWW_DASHED1
 62
   120
370
     5
100
AcDbLine
 10
-682.7343419560243
 20
131.2862623538859
 30
0.0
 11
-432.7343419560194
 21
381.2862623538909
 31
0.0
  0
LINE
  5
222
330
1F
100
AcDbEntity
  8
0-0
  6
JWW_DASHED1
 62
   120
370
     5
100
AcDbLine
 10
-342.7343419560279
 20
471.2862623538824
 30
0.0
 11
-92.73434195602036
 21
721.2862623538899
 31
0.0
  0
LINE
  5
223
330
1F
100
AcDbEntity
  8
0-0
  6
JWW_DASHED1
 62
   120
370
     5
100
AcDbLine
 10
-682.7343419560167
 20
138.3573301671245
 30
0.0
 11
-432.7343419560279
 21
388.3573301671137
 31
0.0
  0
LINE
  5
224
330
1F
100
AcDbEntity
  8
0-0
  6
JWW_DASHED1
 62
   120
370
     5
100
AcDbLine
 10
-342.7343419560202
 20
478.3573301671209
 30
0.0
 11
-92.73434195602931
 21
728.3573301671119
 31
0.0
  0
LINE
  5
225
330
1F
100
AcDbEntity
  8
0-0
  6
JWW_DASHED1
 62
   120
370
     5
100
AcDbLine
 10
-682.7343419560209
 20
145.4283979804057
 30
0.0
 11
-432.7343419560317
 21
395.4283979803949
 31
0.0
  0
LINE
  5
226
330
1F
100
AcDbEntity
  8
0-0
  6
JWW_DASHED1
 62
   120
370
     5
100
AcDbLine
 10
-342.7343419560241
 20
485.4283979804026
 30
0.0
 11
-92.73434195603272
 21
735.4283979803936
 31
0.0
  0
LINE
  5
227
330
1F
100
AcDbEntity
  8
0-0
  6
JWW_DASHED1
 62
   120
370
     5
100
AcDbLine
 10
-682.7343419560184
 20
152.4994657936938
 30
0.0
 11
-432.7343419560304
 21
402.4994657936817
 31
0.0
  0
LINE
  5
228
330
1F
100
AcDbEntity
  8
0-0
  6
JWW_DASHED1
 62
   120
370
     5
100
AcDbLine
 10
-342.7343419560241
 20
492.4994657936881
 30
0.0
 11
-92.73434195603528
 21
742.4994657936769
 31
0.0
  0
LINE
  5
229
330
1F
100
AcDbEntity
  8
0-0
  6
JWW_DASHED1
 62
   120
370
     5
100
AcDbLine
 10
-682.7343419560223
 20
159.5705336069754
 30
0.0
 11
-432.7343419560347
 21
409.570533606963
 31
0.0
  0
LINE
  5
22A
330
1F
100
AcDbEntity
  8
0-0
  6
JWW_DASHED1
 62
   120
370
     5
100
AcDbLine
 10
-342.7343419560279
 20
499.5705336069698
 30
0.0
 11
-92.73434195603954
 21
749.5705336069581
 31
0.0
  0
LINE
  5
22B
330
1F
100
AcDbEntity
  8
0-0
  6
JWW_DASHED1
 62
   120
370
     5
100
AcDbLine
 10
-682.7343419560175
 20
166.641601420266
 30
0.0
 11
-432.7343419560117
 21
416.6416014202714
 31
0.0
  0
LINE
  5
22C
330
1F
100
AcDbEntity
  8
0-0
  6
JWW_DASHED1
 62
   120
370
     5
100
AcDbLine
 10
-342.7343419560202
 20
506.6416014202629
 30
0.0
 11
-92.73434195602931
 21
756.6416014202538
 31
0.0
  0
LINE
  5
22D
330
1F
100
AcDbEntity
  8
0-0
  6
JWW_DASHED1
 62
   120
370
     5
100
AcDbLine
 10
-682.7343419560214
 20
173.7126692335472
 30
0.0
 11
-432.734341956016
 21
423.7126692335527
 31
0.0
  0
LINE
  5
22E
330
1F
100
AcDbEntity
  8
0-0
  6
JWW_DASHED1
 62
   120
370
     5
100
AcDbLine
 10
-342.7343419560249
 20
513.7126692335437
 30
0.0
 11
-92.7343419560178
 21
763.7126692335507
 31
0.0
  0
LINE
  5
22F
330
1F
100
AcDbEntity
  8
0-0
  6
JWW_DASHED1
 62
   120
370
     5
100
AcDbLine
 10
-682.7343419560099
 20
180.7837370468442
 30
0.0
 11
-432.7343419560202
 21
430.7837370468338
 31
0.0
  0
LINE
  5
230
330
1F
100
AcDbEntity
  8
0-0
  6
JWW_DASHED1
 62
   120
370
     5
100
AcDbLine
 10
-342.7343419560287
 20
520.7837370468253
 30
0.0
 11
-92.73434195602206
 21
770.783737046832
 31
0.0
  0
LINE
  5
231
330
1F
100
AcDbEntity
  8
0-0
  6
JWW_DASHED1
 62
   120
370
     5
100
AcDbLine
 10
-682.7343419560136
 20
187.8548048601259
 30
0.0
 11
-432.7343419560241
 21
437.8548048601155
 31
0.0
  0
LINE
  5
232
330
1F
100
AcDbEntity
  8
0-0
  6
JWW_DASHED1
 62
   120
370
     5
100
AcDbLine
 10
-342.7343419560164
 20
527.8548048601232
 30
0.0
 11
-92.73434195602547
 21
777.8548048601141
 31
0.0
  0
LINE
  5
233
330
1F
100
AcDbEntity
  8
0-0
  6
JWW_DASHED1
 62
   120
370
     5
100
AcDbLine
 10
-682.7343419560175
 20
194.9258726734075
 30
0.0
 11
-432.7343419560279
 21
444.9258726733972
 31
0.0
  0
LINE
  5
234
330
1F
100
AcDbEntity
  8
0-0
  6
JWW_DASHED1
 62
   120
370
     5
100
AcDbLine
 10
-342.7343419560207
 20
534.9258726734045
 30
0.0
 11
-92.73434195602974
 21
784.9258726733954
 31
0.0
  0
LINE
  5
235
330
1F
100
AcDbEntity
  8
0-0
  6
JWW_DASHED1
 62
   120
370
     5
100
AcDbLine
 10
-682.7343419560218
 20
201.9969404866887
 30
0.0
 11
-432.7343419560322
 21
451.9969404866783
 31
0.0
  0
LINE
  5
236
330
1F
100
AcDbEntity
  8
0-0
  6
JWW_DASHED1
 62
   120
370
     5
100
AcDbLine
 10
-342.7343419560249
 20
541.9969404866856
 30
0.0
 11
-92.73434195603315
 21
791.9969404866774
 31
0.0
  0
LINE
  5
237
330
1F
100
AcDbEntity
  8
0-0
  6
JWW_DASHED1
 62
   120
370
     5
100
AcDbLine
 10
-682.7343419560141
 20
209.0680082999273
 30
0.0
 11
-432.7343419560249
 21
459.0680082999165
 31
0.0
  0
LINE
  5
238
330
1F
100
AcDbEntity
  8
0-0
  6
JWW_DASHED1
 62
   120
370
     5
100
AcDbLine
 10
-342.7343419560173
 20
549.0680082999238
 30
0.0
 11
-92.7343419560259
 21
799.0680082999155
 31
0.0
  0
LINE
  5
239
330
1F
100
AcDbEntity
  8
0-0
  6
JWW_DASHED1
 62
   120
370
     5
100
AcDbLine
 10
-682.7343419560184
 20
216.139076113209
 30
0.0
 11
-432.7343419560129
 21
466.1390761132139
 31
0.0
  0
LINE
  5
23A
330
1F
100
AcDbEntity
  8
0-0
  6
JWW_DASHED1
 62
   120
370
     5
100
AcDbLine
 10
-342.7343419560215
 20
556.1390761132054
 30
0.0
 11
-92.73434195601439
 21
806.1390761132125
 31
0.0
  0
LINE
  5
23B
330
1F
100
AcDbEntity
  8
0-0
  6
JWW_DASHED1
 62
   120
370
     5
100
AcDbLine
 10
-682.7343419560223
 20
223.2101439264902
 30
0.0
 11
-432.7343419560168
 21
473.2101439264956
 31
0.0
  0
LINE
  5
23C
330
1F
100
AcDbEntity
  8
0-0
  6
JWW_DASHED1
 62
   120
370
     5
100
AcDbLine
 10
-342.7343419560253
 20
563.210143926487
 30
0.0
 11
-92.73434195601865
 21
813.2101439264937
 31
0.0
  0
LINE
  5
23D
330
1F
100
AcDbEntity
  8
0-0
  6
JWW_DASHED1
 62
   120
370
     5
100
AcDbLine
 10
-682.7343419560102
 20
230.2812117397876
 30
0.0
 11
-432.7343419560211
 21
480.2812117397768
 31
0.0
  0
LINE
  5
23E
330
1F
100
AcDbEntity
  8
0-0
  6
JWW_DASHED1
 62
   120
370
     5
100
AcDbLine
 10
-342.7343419560296
 20
570.2812117397683
 30
0.0
 11
-92.73434195602292
 21
820.281211739775
 31
0.0
  0
LINE
  5
23F
330
1F
100
AcDbEntity
  8
0-0
  6
JWW_DASHED1
 62
   120
370
     5
100
AcDbLine
 10
-682.7343419560145
 20
237.3522795530688
 30
0.0
 11
-432.7343419560249
 21
487.3522795530585
 31
0.0
  0
LINE
  5
240
330
1F
100
AcDbEntity
  8
0-0
  6
JWW_DASHED1
 62
   120
370
     5
100
AcDbLine
 10
-342.7343419560173
 20
577.3522795530662
 30
0.0
 11
-92.73434195602633
 21
827.3522795530571
 31
0.0
  0
LINE
  5
241
330
1F
100
AcDbEntity
  8
0-0
  6
JWW_DASHED1
 62
   120
370
     5
100
AcDbLine
 10
-682.7343419560189
 20
244.42334736635
 30
0.0
 11
-432.7343419560287
 21
494.4233473663401
 31
0.0
  0
LINE
  5
242
330
1F
100
AcDbEntity
  8
0-0
  6
JWW_DASHED1
 62
   120
370
     5
100
AcDbLine
 10
-342.7343419560215
 20
584.4233473663473
 30
0.0
 11
-92.73434195603059
 21
834.4233473663382
 31
0.0
  0
LINE
  5
243
330
1F
100
AcDbEntity
  8
0-0
  6
JWW_DASHED1
 62
   120
370
     5
100
AcDbLine
 10
-682.7343419560226
 20
251.4944151796317
 30
0.0
 11
-432.734341956033
 21
501.4944151796213
 31
0.0
  0
LINE
  5
244
330
1F
100
AcDbEntity
  8
0-0
  6
JWW_DASHED1
 62
   120
370
     5
100
AcDbLine
 10
-342.7343419560258
 20
591.4944151796285
 30
0.0
 11
-92.734341956034
 21
841.4944151796203
 31
0.0
  0
LINE
  5
245
330
1F
100
AcDbEntity
  8
0-0
  6
JWW_DASHED1
 62
   120
370
     5
100
AcDbLine
 10
-682.7343419560204
 20
258.5654829929193
 30
0.0
 11
-432.734341956033
 21
508.5654829929068
 31
0.0
  0
LINE
  5
246
330
1F
100
AcDbEntity
  8
0-0
  6
JWW_DASHED1
 62
   120
370
     5
100
AcDbLine
 10
-342.7343419560262
 20
598.5654829929136
 30
0.0
 11
-92.73434195603784
 21
848.5654829929019
 31
0.0
  0
LINE
  5
247
330
1F
100
AcDbEntity
  8
0-0
  6
JWW_DASHED1
 62
   120
370
     5
100
AcDbLine
 10
-682.734341956015
 20
265.6365508062103
 30
0.0
 11
-432.7343419560095
 21
515.6365508062157
 31
0.0
  0
LINE
  5
248
330
1F
100
AcDbEntity
  8
0-0
  6
JWW_DASHED1
 62
   120
370
     5
100
AcDbLine
 10
-342.7343419560177
 20
605.6365508062077
 30
0.0
 11
-92.73434195602675
 21
855.6365508061986
 31
0.0
  0
LINE
  5
249
330
1F
100
AcDbEntity
  8
0-0
  6
JWW_DASHED1
 62
   120
370
     5
100
AcDbLine
 10
-682.7343419560231
 20
272.7076186194331
 30
0.0
 11
-432.7343419560177
 21
522.7076186194386
 31
0.0
  0
LINE
  5
24A
330
1F
100
AcDbEntity
  8
0-0
  6
JWW_DASHED1
 62
   120
370
     5
100
AcDbLine
 10
-342.7343419560266
 20
612.7076186194296
 30
0.0
 11
-92.7343419560195
 21
862.7076186194367
 31
0.0
  0
LINE
  5
24B
330
1F
100
AcDbEntity
  8
0-0
  6
JWW_DASHED1
 62
   120
370
     5
100
AcDbLine
 10
-682.7343419560116
 20
279.7786864327301
 30
0.0
 11
-432.7343419560219
 21
529.7786864327197
 31
0.0
  0
LINE
  5
24C
330
1F
100
AcDbEntity
  8
0-0
  6
JWW_DASHED1
 62
   120
370
     5
100
AcDbLine
 10
-342.7343419560304
 20
619.7786864327112
 30
0.0
 11
-92.73434195602377
 21
869.7786864327179
 31
0.0
  0
LINE
  5
24D
330
1F
100
AcDbEntity
  8
0-0
  6
JWW_DASHED1
 62
   120
370
     5
100
AcDbLine
 10
-682.7343419560154
 20
286.8497542460118
 30
0.0
 11
-432.7343419560262
 21
536.849754246001
 31
0.0
  0
LINE
  5
24E
330
1F
100
AcDbEntity
  8
0-0
  6
JWW_DASHED1
 62
   120
370
     5
100
AcDbLine
 10
-342.7343419560181
 20
626.8497542460091
 30
0.0
 11
-92.7343419560276
 21
876.8497542459991
 31
0.0
  0
LINE
  5
24F
330
1F
100
AcDbEntity
  8
0-0
  6
JWW_DASHED1
 62
   120
370
     5
100
AcDbLine
 10
-682.7343419560196
 20
293.920822059293
 30
0.0
 11
-432.7343419560304
 21
543.9208220592822
 31
0.0
  0
LINE
  5
250
330
1F
100
AcDbEntity
  8
0-0
  6
JWW_DASHED1
 62
   120
370
     5
100
AcDbLine
 10
-342.7343419560224
 20
633.9208220592902
 30
0.0
 11
-92.73434195603144
 21
883.9208220592811
 31
0.0
  0
LINE
  5
251
330
1F
100
AcDbEntity
  8
0-0
  6
JWW_DASHED1
 62
   120
370
     5
100
AcDbLine
 10
-682.7343419560235
 20
300.9918898725746
 30
0.0
 11
-432.7343419560339
 21
550.9918898725642
 31
0.0
  0
LINE
  5
252
330
1F
100
AcDbEntity
  8
0-0
  6
JWW_DASHED1
 62
   120
370
     5
100
AcDbLine
 10
-342.7343419560266
 20
640.9918898725715
 30
0.0
 11
-92.7343419560357
 21
890.9918898725624
 31
0.0
  0
LINE
  5
253
330
1F
100
AcDbEntity
  8
0-0
  6
JWW_DASHED1
 62
   120
370
     5
100
AcDbLine
 10
-682.7343419560218
 20
308.0629576858618
 30
0.0
 11
-432.7343419560343
 21
558.0629576858494
 31
0.0
  0
LINE
  5
254
330
1F
100
AcDbEntity
  8
0-0
  6
JWW_DASHED1
 62
   120
370
     5
100
AcDbLine
 10
-342.7343419560283
 20
648.0629576858553
 30
0.0
 11
-92.73434195603912
 21
898.0629576858445
 31
0.0
  0
LINE
  5
255
330
1F
100
AcDbEntity
  8
0-0
  6
JWW_DASHED1
 62
   120
370
     5
100
AcDbLine
 10
-682.7343419560158
 20
315.1340254991533
 30
0.0
 11
-432.7343419560104
 21
565.1340254991587
 31
0.0
  0
LINE
  5
256
330
1F
100
AcDbEntity
  8
0-0
  6
JWW_DASHED1
 62
   120
370
     5
100
AcDbLine
 10
-342.7343419560185
 20
655.1340254991505
 30
0.0
 11
-92.7343419560276
 21
905.1340254991414
 31
0.0
  0
LINE
  5
257
330
1F
100
AcDbEntity
  8
0-0
  6
JWW_DASHED1
 62
   120
370
     5
100
AcDbLine
 10
-682.7343419560196
 20
322.2050933124349
 30
0.0
 11
-432.7343419560146
 21
572.2050933124399
 31
0.0
  0
LINE
  5
258
330
1F
100
AcDbEntity
  8
0-0
  6
JWW_DASHED1
 62
   120
370
     5
100
AcDbLine
 10
-342.7343419560236
 20
662.2050933124309
 30
0.0
 11
-92.7343419560161
 21
912.2050933124385
 31
0.0
  0
LINE
  5
259
330
1F
100
AcDbEntity
  8
0-0
  6
JWW_DASHED1
 62
   120
370
     5
100
AcDbLine
 10
-682.7343419560235
 20
329.2761611257166
 30
0.0
 11
-432.7343419560185
 21
579.2761611257215
 31
0.0
  0
LINE
  5
25A
330
1F
100
AcDbEntity
  8
0-0
  6
JWW_DASHED1
 62
   120
370
     5
100
AcDbLine
 10
-342.7343419560266
 20
669.2761611257134
 30
0.0
 11
-92.73434195601993
 21
919.2761611257201
 31
0.0
  0
LINE
  5
25B
330
1F
100
AcDbEntity
  8
0-0
  6
JWW_DASHED1
 62
   120
370
     5
100
AcDbLine
 10
-682.7343419560162
 20
336.3472289389547
 30
0.0
 11
-432.734341956027
 21
586.3472289389439
 31
0.0
  0
LINE
  5
25C
330
1F
100
AcDbEntity
  8
0-0
  6
JWW_DASHED1
 62
   120
370
     5
100
AcDbLine
 10
-342.734341956019
 20
676.347228938952
 30
0.0
 11
-92.73434195602846
 21
926.3472289389425
 31
0.0
  0
LINE
  5
25D
330
1F
100
AcDbEntity
  8
0-0
  6
JWW_DASHED1
 62
   120
370
     5
100
AcDbLine
 10
-682.7343419560204
 20
343.4182967522364
 30
0.0
 11
-432.7343419560313
 21
593.4182967522252
 31
0.0
  0
LINE
  5
25E
330
1F
100
AcDbEntity
  8
0-0
  6
JWW_DASHED1
 62
   120
370
     5
100
AcDbLine
 10
-342.7343419560232
 20
683.4182967522332
 30
0.0
 11
-92.73434195603272
 21
933.4182967522237
 31
0.0
  0
LINE
  5
25F
330
1F
100
AcDbEntity
  8
0-0
  6
JWW_DASHED1
 62
   120
370
     5
100
AcDbLine
 10
-682.7343419560192
 20
350.4893645655227
 30
0.0
 11
-432.7343419560317
 21
600.4893645655102
 31
0.0
  0
LINE
  5
260
330
1F
100
AcDbEntity
  8
0-0
  6
JWW_DASHED1
 62
   120
370
     5
100
AcDbLine
 10
-342.7343419560249
 20
690.489364565517
 30
0.0
 11
-92.7343419560357
 21
940.4893645655062
 31
0.0
  0
LINE
  5
261
330
1F
100
AcDbEntity
  8
0-0
  6
JWW_DASHED1
 62
   120
370
     5
100
AcDbLine
 10
-682.7343419560231
 20
357.5604323788043
 30
0.0
 11
-432.734341956036
 21
607.5604323787913
 31
0.0
  0
LINE
  5
262
330
1F
100
AcDbEntity
  8
0-0
  6
JWW_DASHED1
 62
   120
370
     5
100
AcDbLine
 10
-342.7343419560292
 20
697.5604323787982
 30
0.0
 11
-92.73434195603997
 21
947.5604323787875
 31
0.0
  0
LINE
  5
263
330
1F
100
AcDbEntity
  8
0-0
  6
JWW_DASHED1
 62
   120
370
     5
100
AcDbLine
 10
-682.7343419560167
 20
364.6315001920962
 30
0.0
 11
-432.7343419560112
 21
614.6315001921016
 31
0.0
  0
LINE
  5
264
330
1F
100
AcDbEntity
  8
0-0
  6
JWW_DASHED1
 62
   120
370
     5
100
AcDbLine
 10
-342.7343419560202
 20
704.6315001920926
 30
0.0
 11
-92.73434195602846
 21
954.6315001920844
 31
0.0
  0
LINE
  5
265
330
1F
100
AcDbEntity
  8
0-0
  6
JWW_DASHED1
 62
   120
370
     5
100
AcDbLine
 10
-682.7343419560209
 20
371.7025680053774
 30
0.0
 11
-432.7343419560156
 21
621.7025680053828
 31
0.0
  0
LINE
  5
266
330
1F
100
AcDbEntity
  8
0-0
  6
JWW_DASHED1
 62
   120
370
     5
100
AcDbLine
 10
-342.7343419560241
 20
711.7025680053739
 30
0.0
 11
-92.73434195601695
 21
961.7025680053814
 31
0.0
  0
LINE
  5
267
330
1F
100
AcDbEntity
  8
0-0
  6
JWW_DASHED1
 62
   120
370
     5
100
AcDbLine
 10
-682.7343419560248
 20
378.773635818659
 30
0.0
 11
-432.7343419560194
 21
628.7736358186645
 31
0.0
  0
LINE
  5
268
330
1F
100
AcDbEntity
  8
0-0
  6
JWW_DASHED1
 62
   120
370
     5
100
AcDbLine
 10
-342.7343419560283
 20
718.7736358186555
 30
0.0
 11
-92.73434195602121
 21
968.7736358186626
 31
0.0
  0
LINE
  5
269
330
1F
100
AcDbEntity
  8
0-0
  6
JWW_DASHED1
 62
   120
370
     5
100
AcDbLine
 10
-682.7343419560128
 20
385.8447036319565
 30
0.0
 11
-432.7343419560236
 21
635.8447036319457
 31
0.0
  0
LINE
  5
26A
330
1F
100
AcDbEntity
  8
0-0
  6
JWW_DASHED1
 62
   120
370
     5
100
AcDbLine
 10
-342.734341956016
 20
725.8447036319534
 30
0.0
 11
-92.73434195602462
 21
975.8447036319443
 31
0.0
  0
LINE
  5
26B
330
1F
100
AcDbEntity
  8
0-0
  6
JWW_DASHED1
 62
   120
370
     5
100
AcDbLine
 10
-682.734341956017
 20
392.9157714452377
 30
0.0
 11
-432.7343419560279
 21
642.9157714452269
 31
0.0
  0
LINE
  5
26C
330
1F
100
AcDbEntity
  8
0-0
  6
JWW_DASHED1
 62
   120
370
     5
100
AcDbLine
 10
-342.7343419560198
 20
732.915771445235
 30
0.0
 11
-92.73434195602889
 21
982.9157714452259
 31
0.0
  0
LINE
  5
26D
330
1F
100
AcDbEntity
  8
0-0
  6
JWW_DASHED1
 62
   120
370
     5
100
AcDbLine
 10
-682.7343419560209
 20
399.9868392585194
 30
0.0
 11
-432.7343419560313
 21
649.986839258509
 31
0.0
  0
LINE
  5
26E
330
1F
100
AcDbEntity
  8
0-0
  6
JWW_DASHED1
 62
   120
370
     5
100
AcDbLine
 10
-342.7343419560241
 20
739.9868392585163
 30
0.0
 11
-96.69806749060811
 21
986.0231137239322
 31
0.0
  0
LINE
  5
26F
330
1F
100
AcDbEntity
  8
0-0
  6
JWW_DASHED1
 62
   120
370
     5
100
AcDbLine
 10
-682.7343419560248
 20
407.0579070717464
 30
0.0
 11
-432.7343419560368
 21
657.0579070717343
 31
0.0
  0
LINE
  5
270
330
1F
100
AcDbEntity
  8
0-0
  6
JWW_DASHED1
 62
   120
370
     5
100
AcDbLine
 10
-342.73434195603
 20
747.0579070717412
 30
0.0
 11
-103.7691353038309
 21
986.0231137239402
 31
0.0
  0
LINE
  5
271
330
1F
100
AcDbEntity
  8
0-0
  6
JWW_DASHED1
 62
   120
370
     5
100
AcDbLine
 10
-682.7343419560175
 20
414.1289748850392
 30
0.0
 11
-432.7343419560121
 21
664.1289748850445
 31
0.0
  0
LINE
  5
272
330
1F
100
AcDbEntity
  8
0-0
  6
JWW_DASHED1
 62
   120
370
     5
100
AcDbLine
 10
-342.7343419560211
 20
754.1289748850356
 30
0.0
 11
-110.8402031171428
 21
986.0231137239139
 31
0.0
  0
LINE
  5
273
330
1F
100
AcDbEntity
  8
0-0
  6
JWW_DASHED1
 62
   120
370
     5
100
AcDbLine
 10
-682.7343419560218
 20
421.2000426983204
 30
0.0
 11
-432.7343419560164
 21
671.2000426983258
 31
0.0
  0
LINE
  5
274
330
1F
100
AcDbEntity
  8
0-0
  6
JWW_DASHED1
 62
   120
370
     5
100
AcDbLine
 10
-342.7343419560245
 20
761.2000426983177
 30
0.0
 11
-117.9112709304241
 21
986.0231137239181
 31
0.0
  0
LINE
  5
275
330
1F
100
AcDbEntity
  8
0-0
  6
JWW_DASHED1
 62
   120
370
     5
100
AcDbLine
 10
-682.7343419560094
 20
428.2711105116182
 30
0.0
 11
-432.7343419560202
 21
678.2711105116074
 31
0.0
  0
LINE
  5
276
330
1F
100
AcDbEntity
  8
0-0
  6
JWW_DASHED1
 62
   120
370
     5
100
AcDbLine
 10
-342.7343419560287
 20
768.2711105115989
 30
0.0
 11
-124.9823387437053
 21
986.0231137239219
 31
0.0
  0
LINE
  5
277
330
1F
100
AcDbEntity
  8
0-0
  6
JWW_DASHED1
 62
   120
370
     5
100
AcDbLine
 10
-682.7343419560141
 20
435.342178324899
 30
0.0
 11
-432.7343419560245
 21
685.3421783248887
 31
0.0
  0
LINE
  5
278
330
1F
100
AcDbEntity
  8
0-0
  6
JWW_DASHED1
 62
   120
370
     5
100
AcDbLine
 10
-342.7343419560164
 20
775.3421783248963
 30
0.0
 11
-132.053406556989
 21
986.0231137239241
 31
0.0
  0
LINE
  5
279
330
1F
100
AcDbEntity
  8
0-0
  6
JWW_DASHED1
 62
   120
370
     5
100
AcDbLine
 10
-682.7343419560179
 20
442.4132461381806
 30
0.0
 11
-432.7343419560283
 21
692.4132461381703
 31
0.0
  0
LINE
  5
27A
330
1F
100
AcDbEntity
  8
0-0
  6
JWW_DASHED1
 62
   120
370
     5
100
AcDbLine
 10
-342.7343419560207
 20
782.413246138178
 30
0.0
 11
-139.1244743702715
 21
986.023113723927
 31
0.0
  0
LINE
  5
27B
330
1F
100
AcDbEntity
  8
0-0
  6
JWW_DASHED1
 62
   120
370
     5
100
AcDbLine
 10
-682.7343419560218
 20
449.4843139514623
 30
0.0
 11
-432.7343419560322
 21
699.4843139514519
 31
0.0
  0
LINE
  5
27C
330
1F
100
AcDbEntity
  8
0-0
  6
JWW_DASHED1
 62
   120
370
     5
100
AcDbLine
 10
-342.7343419560249
 20
789.4843139514592
 30
0.0
 11
-146.1955421835528
 21
986.0231137239309
 31
0.0
  0
LINE
  5
27D
330
1F
100
AcDbEntity
  8
0-0
  6
JWW_DASHED1
 62
   120
370
     5
100
AcDbLine
 10
-682.7343419560214
 20
456.5553817647482
 30
0.0
 11
-432.7343419560343
 21
706.5553817647353
 31
0.0
  0
LINE
  5
27E
330
1F
100
AcDbEntity
  8
0-0
  6
JWW_DASHED1
 62
   120
370
     5
100
AcDbLine
 10
-342.7343419560279
 20
796.5553817647417
 30
0.0
 11
-153.2666099968348
 21
986.0231137239348
 31
0.0
  0
LINE
  5
27F
330
1F
100
AcDbEntity
  8
0-0
  6
JWW_DASHED1
 62
   120
370
     5
100
AcDbLine
 10
-682.7343419560141
 20
463.6264495780409
 30
0.0
 11
-432.7343419560087
 21
713.6264495780463
 31
0.0
  0
LINE
  5
280
330
1F
100
AcDbEntity
  8
0-0
  6
JWW_DASHED1
 62
   120
370
     5
100
AcDbLine
 10
-342.7343419560177
 20
803.6264495780374
 30
0.0
 11
-160.3376778101322
 21
986.0231137239224
 31
0.0
  0
LINE
  5
281
330
1F
100
AcDbEntity
  8
0-0
  6
JWW_DASHED1
 62
   120
370
     5
100
AcDbLine
 10
-682.7343419560226
 20
470.6975173912633
 30
0.0
 11
-432.7343419560168
 21
720.6975173912688
 31
0.0
  0
LINE
  5
282
330
1F
100
AcDbEntity
  8
0-0
  6
JWW_DASHED1
 62
   120
370
     5
100
AcDbLine
 10
-342.7343419560258
 20
810.6975173912601
 30
0.0
 11
-167.4087456233657
 21
986.0231137239198
 31
0.0
  0
LINE
  5
283
330
1F
100
AcDbEntity
  8
0-0
  6
JWW_DASHED1
 62
   120
370
     5
100
AcDbLine
 10
-682.7343419560107
 20
477.7685852045607
 30
0.0
 11
-432.7343419560211
 21
727.7685852045504
 31
0.0
  0
LINE
  5
284
330
1F
100
AcDbEntity
  8
0-0
  6
JWW_DASHED1
 62
   120
370
     5
100
AcDbLine
 10
-342.7343419560296
 20
817.7685852045419
 30
0.0
 11
-174.4798134366474
 21
986.0231137239241
 31
0.0
  0
LINE
  5
285
330
1F
100
AcDbEntity
  8
0-0
  6
JWW_DASHED1
 62
   120
370
     5
100
AcDbLine
 10
-682.7343419560145
 20
484.8396530178424
 30
0.0
 11
-432.7343419560253
 21
734.8396530178316
 31
0.0
  0
LINE
  5
286
330
1F
100
AcDbEntity
  8
0-0
  6
JWW_DASHED1
 62
   120
370
     5
100
AcDbLine
 10
-342.7343419560181
 20
824.8396530178388
 30
0.0
 11
-181.5508812499345
 21
986.0231137239224
 31
0.0
  0
LINE
  5
287
330
1F
100
AcDbEntity
  8
0-0
  6
JWW_DASHED1
 62
   120
370
     5
100
AcDbLine
 10
-682.7343419560189
 20
491.9107208311236
 30
0.0
 11
-432.7343419560296
 21
741.9107208311128
 31
0.0
  0
LINE
  5
288
330
1F
100
AcDbEntity
  8
0-0
  6
JWW_DASHED1
 62
   120
370
     5
100
AcDbLine
 10
-342.7343419560215
 20
831.9107208311209
 30
0.0
 11
-188.6219490632158
 21
986.0231137239266
 31
0.0
  0
LINE
  5
289
330
1F
100
AcDbEntity
  8
0-0
  6
JWW_DASHED1
 62
   120
370
     5
100
AcDbLine
 10
-682.7343419560226
 20
498.9817886444052
 30
0.0
 11
-432.734341956033
 21
748.9817886443949
 31
0.0
  0
LINE
  5
28A
330
1F
100
AcDbEntity
  8
0-0
  6
JWW_DASHED1
 62
   120
370
     5
100
AcDbLine
 10
-342.7343419560258
 20
838.9817886444021
 30
0.0
 11
-195.6930168764978
 21
986.02311372393
 31
0.0
  0
LINE
  5
28B
330
1F
100
AcDbEntity
  8
0-0
  6
JWW_DASHED1
 62
   120
370
     5
100
AcDbLine
 10
-682.7343419560231
 20
506.0528564576903
 30
0.0
 11
-432.7343419560356
 21
756.0528564576778
 31
0.0
  0
LINE
  5
28C
330
1F
100
AcDbEntity
  8
0-0
  6
JWW_DASHED1
 62
   120
370
     5
100
AcDbLine
 10
-342.7343419560287
 20
846.0528564576846
 30
0.0
 11
-202.7640846897795
 21
986.0231137239339
 31
0.0
  0
LINE
  5
28D
330
1F
100
AcDbEntity
  8
0-0
  6
JWW_DASHED1
 62
   120
370
     5
100
AcDbLine
 10
-682.734341956015
 20
513.1239242709839
 30
0.0
 11
-432.7343419560095
 21
763.1239242709893
 31
0.0
  0
LINE
  5
28E
330
1F
100
AcDbEntity
  8
0-0
  6
JWW_DASHED1
 62
   120
370
     5
100
AcDbLine
 10
-342.7343419560181
 20
853.1239242709808
 30
0.0
 11
-209.8351525030773
 21
986.0231137239215
 31
0.0
  0
LINE
  5
28F
330
1F
100
AcDbEntity
  8
0-0
  6
JWW_DASHED1
 62
   120
370
     5
100
AcDbLine
 10
-682.7343419560192
 20
520.1949920842651
 30
0.0
 11
-432.7343419560138
 21
770.1949920842706
 31
0.0
  0
LINE
  5
290
330
1F
100
AcDbEntity
  8
0-0
  6
JWW_DASHED1
 62
   120
370
     5
100
AcDbLine
 10
-342.7343419560219
 20
860.1949920842624
 30
0.0
 11
-216.9062203163671
 21
986.0231137239173
 31
0.0
  0
LINE
  5
291
330
1F
100
AcDbEntity
  8
0-0
  6
JWW_DASHED1
 62
   120
370
     5
100
AcDbLine
 10
-682.7343419560231
 20
527.2660598975467
 30
0.0
 11
-432.7343419560181
 21
777.2660598975517
 31
0.0
  0
LINE
  5
292
330
1F
100
AcDbEntity
  8
0-0
  6
JWW_DASHED1
 62
   120
370
     5
100
AcDbLine
 10
-342.7343419560258
 20
867.266059897544
 30
0.0
 11
-223.9772881296483
 21
986.0231137239215
 31
0.0
  0
LINE
  5
293
330
1F
100
AcDbEntity
  8
0-0
  6
JWW_DASHED1
 62
   120
370
     5
100
AcDbLine
 10
-682.7343419560136
 20
534.3371277108143
 30
0.0
 11
-432.7343419560236
 21
784.337127710804
 31
0.0
  0
LINE
  5
294
330
1F
100
AcDbEntity
  8
0-0
  6
JWW_DASHED1
 62
   120
370
     5
100
AcDbLine
 10
-342.7343419560173
 20
874.3371277108108
 30
0.0
 11
-231.048355942909
 21
986.023113723919
 31
0.0
  0
LINE
  5
295
330
1F
100
AcDbEntity
  8
0-0
  6
JWW_DASHED1
 62
   120
370
     5
100
AcDbLine
 10
-682.7343419560196
 20
541.4081955240665
 30
0.0
 11
-432.7343419560304
 21
791.4081955240557
 31
0.0
  0
LINE
  5
296
330
1F
100
AcDbEntity
  8
0-0
  6
JWW_DASHED1
 62
   120
370
     5
100
AcDbLine
 10
-342.7343419560232
 20
881.408195524063
 30
0.0
 11
-238.1194237561604
 21
986.0231137239253
 31
0.0
  0
LINE
  5
297
330
1F
100
AcDbEntity
  8
0-0
  6
JWW_DASHED1
 62
   120
370
     5
100
AcDbLine
 10
-682.7343419560201
 20
548.4792633373515
 30
0.0
 11
-432.734341956033
 21
798.4792633373387
 31
0.0
  0
LINE
  5
298
330
1F
100
AcDbEntity
  8
0-0
  6
JWW_DASHED1
 62
   120
370
     5
100
AcDbLine
 10
-342.7343419560262
 20
888.4792633373455
 30
0.0
 11
-245.1904915694425
 21
986.0231137239292
 31
0.0
  0
LINE
  5
299
330
1F
100
AcDbEntity
  8
0-0
  6
JWW_DASHED1
 62
   120
370
     5
100
AcDbLine
 10
-682.7343419560243
 20
555.5503311506328
 30
0.0
 11
-432.7343419560364
 21
805.5503311506208
 31
0.0
  0
LINE
  5
29A
330
1F
100
AcDbEntity
  8
0-0
  6
JWW_DASHED1
 62
   120
370
     5
100
AcDbLine
 10
-342.73434195603
 20
895.5503311506267
 30
0.0
 11
-252.2615593827246
 21
986.0231137239326
 31
0.0
  0
LINE
  5
29B
330
1F
100
AcDbEntity
  8
0-0
  6
JWW_DASHED1
 62
   120
370
     5
100
AcDbLine
 10
-682.7343419560158
 20
562.6213989639268
 30
0.0
 11
-432.7343419560104
 21
812.6213989639323
 31
0.0
  0
LINE
  5
29C
330
1F
100
AcDbEntity
  8
0-0
  6
JWW_DASHED1
 62
   120
370
     5
100
AcDbLine
 10
-342.7343419560194
 20
902.6213989639233
 30
0.0
 11
-259.332627196022
 21
986.0231137239207
 31
0.0
  0
LINE
  5
29D
330
1F
100
AcDbEntity
  8
0-0
  6
JWW_DASHED1
 62
   120
370
     5
100
AcDbLine
 10
-682.7343419560201
 20
569.692466777208
 30
0.0
 11
-432.7343419560146
 21
819.6924667772134
 31
0.0
  0
LINE
  5
29E
330
1F
100
AcDbEntity
  8
0-0
  6
JWW_DASHED1
 62
   120
370
     5
100
AcDbLine
 10
-342.7343419560236
 20
909.6924667772045
 30
0.0
 11
-266.4036950093079
 21
986.0231137239198
 31
0.0
  0
LINE
  5
29F
330
1F
100
AcDbEntity
  8
0-0
  6
JWW_DASHED1
 62
   120
370
     5
100
AcDbLine
 10
-682.7343419560239
 20
576.7635345904897
 30
0.0
 11
-432.734341956019
 21
826.7635345904946
 31
0.0
  0
LINE
  5
2A0
330
1F
100
AcDbEntity
  8
0-0
  6
JWW_DASHED1
 62
   120
370
     5
100
AcDbLine
 10
-342.734341956027
 20
916.7635345904865
 30
0.0
 11
-273.4747628225895
 21
986.0231137239241
 31
0.0
  0
LINE
  5
2A1
330
1F
100
AcDbEntity
  8
0-0
  6
JWW_DASHED1
 62
   120
370
     5
100
AcDbLine
 10
-682.734341956012
 20
583.8346024037871
 30
0.0
 11
-432.7343419560232
 21
833.8346024037759
 31
0.0
  0
LINE
  5
2A2
330
1F
100
AcDbEntity
  8
0-0
  6
JWW_DASHED1
 62
   120
370
     5
100
AcDbLine
 10
-342.7343419560151
 20
923.834602403784
 30
0.0
 11
-280.5458306358827
 21
986.0231137239164
 31
0.0
  0
LINE
  5
2A3
330
1F
100
AcDbEntity
  8
0-0
  6
JWW_DASHED1
 62
   120
370
     5
100
AcDbLine
 10
-682.7343419560162
 20
590.9056702170683
 30
0.0
 11
-432.734341956027
 21
840.9056702170575
 31
0.0
  0
LINE
  5
2A4
330
1F
100
AcDbEntity
  8
0-0
  6
JWW_DASHED1
 62
   120
370
     5
100
AcDbLine
 10
-342.7343419560194
 20
930.9056702170652
 30
0.0
 11
-287.6168984491648
 21
986.0231137239198
 31
0.0
  0
LINE
  5
2A5
330
1F
100
AcDbEntity
  8
0-0
  6
JWW_DASHED1
 62
   120
370
     5
100
AcDbLine
 10
-682.7343419560201
 20
597.9767380303499
 30
0.0
 11
-432.7343419560309
 21
847.9767380303392
 31
0.0
  0
LINE
  5
2A6
330
1F
100
AcDbEntity
  8
0-0
  6
JWW_DASHED1
 62
   120
370
     5
100
AcDbLine
 10
-342.7343419560232
 20
937.9767380303464
 30
0.0
 11
-294.6879662624464
 21
986.0231137239236
 31
0.0
  0
LINE
  5
2A7
330
1F
100
AcDbEntity
  8
0-0
  6
JWW_DASHED1
 62
   120
370
     5
100
AcDbLine
 10
-682.7343419560257
 20
605.0478058435754
 30
0.0
 11
-432.7343419560385
 21
855.0478058435624
 31
0.0
  0
LINE
  5
2A8
330
1F
100
AcDbEntity
  8
0-0
  6
JWW_DASHED1
 62
   120
370
     5
100
AcDbLine
 10
-342.7343419560317
 20
945.0478058435692
 30
0.0
 11
-301.7590340756692
 21
986.0231137239317
 31
0.0
  0
LINE
  5
2A9
330
1F
100
AcDbEntity
  8
0-0
  6
JWW_DASHED1
 62
   120
370
     5
100
AcDbLine
 10
-682.7343419560167
 20
612.1188736568697
 30
0.0
 11
-432.7343419560112
 21
862.1188736568752
 31
0.0
  0
LINE
  5
2AA
330
1F
100
AcDbEntity
  8
0-0
  6
JWW_DASHED1
 62
   120
370
     5
100
AcDbLine
 10
-342.7343419560202
 20
952.1188736568662
 30
0.0
 11
-308.8301018889675
 21
986.023113723919
 31
0.0
  0
LINE
  5
2AB
330
1F
100
AcDbEntity
  8
0-0
  6
JWW_DASHED1
 62
   120
370
     5
100
AcDbLine
 10
-682.7343419560209
 20
619.189941470151
 30
0.0
 11
-432.7343419560156
 21
869.1899414701563
 31
0.0
  0
LINE
  5
2AC
330
1F
100
AcDbEntity
  8
0-0
  6
JWW_DASHED1
 62
   120
370
     5
100
AcDbLine
 10
-342.7343419560245
 20
959.1899414701475
 30
0.0
 11
-315.9011697022504
 21
986.0231137239215
 31
0.0
  0
LINE
  5
2AD
330
1F
100
AcDbEntity
  8
0-0
  6
JWW_DASHED1
 62
   120
370
     5
100
AcDbLine
 10
-682.734341956009
 20
626.2610092834484
 30
0.0
 11
-432.7343419560198
 21
876.2610092834376
 31
0.0
  0
LINE
  5
2AE
330
1F
100
AcDbEntity
  8
0-0
  6
JWW_DASHED1
 62
   120
370
     5
100
AcDbLine
 10
-342.7343419560287
 20
966.2610092834286
 30
0.0
 11
-322.9722375155312
 21
986.0231137239261
 31
0.0
  0
LINE
  5
2AF
330
1F
100
AcDbEntity
  8
0-0
  6
JWW_DASHED1
 62
   120
370
     5
100
AcDbLine
 10
-682.7343419560128
 20
633.33207709673
 30
0.0
 11
-432.7343419560236
 21
883.3320770967189
 31
0.0
  0
LINE
  5
2B0
330
1F
100
AcDbEntity
  8
0-0
  6
JWW_DASHED1
 62
   120
370
     5
100
AcDbLine
 10
-342.7343419560164
 20
973.3320770967265
 30
0.0
 11
-330.0433053288282
 21
986.0231137239147
 31
0.0
  0
LINE
  5
2B1
330
1F
100
AcDbEntity
  8
0-0
  6
JWW_DASHED1
 62
   120
370
     5
100
AcDbLine
 10
-682.734341956017
 20
640.4031449100113
 30
0.0
 11
-432.7343419560279
 21
890.4031449100005
 31
0.0
  0
LINE
  5
2B2
330
1F
100
AcDbEntity
  8
0-0
  6
JWW_DASHED1
 62
   120
370
     5
100
AcDbLine
 10
-342.7343419560202
 20
980.4031449100081
 30
0.0
 11
-337.1143731421094
 21
986.023113723919
 31
0.0
  0
LINE
  5
2B3
330
1F
100
AcDbEntity
  8
0-0
  6
JWW_DASHED1
 62
   120
370
     5
100
AcDbLine
 10
-682.7343419560209
 20
647.4742127232929
 30
0.0
 11
-432.7343419560322
 21
897.4742127232817
 31
0.0
  0
LINE
  5
2B4
330
1F
100
AcDbEntity
  8
0-0
  6
JWW_DASHED1
 62
   120
370
     5
100
AcDbLine
 10
-682.7343419560226
 20
654.5452805365767
 30
0.0
 11
-432.7343419560351
 21
904.5452805365642
 31
0.0
  0
LINE
  5
2B5
330
1F
100
AcDbEntity
  8
0-0
  6
JWW_DASHED1
 62
   120
370
     5
100
AcDbLine
 10
-682.7343419560136
 20
661.6163483498711
 30
0.0
 11
-432.7343419560078
 21
911.6163483498765
 31
0.0
  0
LINE
  5
2B6
330
1F
100
AcDbEntity
  8
0-0
  6
JWW_DASHED1
 62
   120
370
     5
100
AcDbLine
 10
-682.7343419560218
 20
668.687416163094
 30
0.0
 11
-432.7343419560164
 21
918.6874161630993
 31
0.0
  0
LINE
  5
2B7
330
1F
100
AcDbEntity
  8
0-0
  6
JWW_DASHED1
 62
   120
370
     5
100
AcDbLine
 10
-682.7343419560102
 20
675.758483976391
 30
0.0
 11
-432.7343419560207
 21
925.7584839763806
 31
0.0
  0
LINE
  5
2B8
330
1F
100
AcDbEntity
  8
0-0
  6
JWW_DASHED1
 62
   120
370
     5
100
AcDbLine
 10
-682.7343419560136
 20
682.829551789673
 30
0.0
 11
-432.7343419560245
 21
932.8295517896618
 31
0.0
  0
LINE
  5
2B9
330
1F
100
AcDbEntity
  8
0-0
  6
JWW_DASHED1
 62
   120
370
     5
100
AcDbLine
 10
-682.7343419560179
 20
689.9006196029542
 30
0.0
 11
-432.7343419560287
 21
939.9006196029434
 31
0.0
  0
LINE
  5
2BA
330
1F
100
AcDbEntity
  8
0-0
  6
JWW_DASHED1
 62
   120
370
     5
100
AcDbLine
 10
-682.7343419560223
 20
696.9716874162355
 30
0.0
 11
-432.7343419560326
 21
946.971687416225
 31
0.0
  0
LINE
  5
2BB
330
1F
100
AcDbEntity
  8
0-0
  6
JWW_DASHED1
 62
   120
370
     5
100
AcDbLine
 10
-682.7343419560239
 20
704.0427552295192
 30
0.0
 11
-432.734341956036
 21
954.0427552295071
 31
0.0
  0
LINE
  5
2BC
330
1F
100
AcDbEntity
  8
0-0
  6
JWW_DASHED1
 62
   120
370
     5
100
AcDbLine
 10
-682.7343419560145
 20
711.113823042814
 30
0.0
 11
-432.7343419560087
 21
961.1138230428198
 31
0.0
  0
LINE
  5
2BD
330
1F
100
AcDbEntity
  8
0-0
  6
JWW_DASHED1
 62
   120
370
     5
100
AcDbLine
 10
-682.7343419560184
 20
718.1848908560958
 30
0.0
 11
-432.7343419560129
 21
968.1848908561011
 31
0.0
  0
LINE
  5
2BE
330
1F
100
AcDbEntity
  8
0-0
  6
JWW_DASHED1
 62
   120
370
     5
100
AcDbLine
 10
-682.7343419560223
 20
725.2559586693774
 30
0.0
 11
-432.7343419560173
 21
975.2559586693824
 31
0.0
  0
LINE
  5
2BF
330
1F
100
AcDbEntity
  8
0-0
  6
JWW_DASHED1
 62
   120
370
     5
100
AcDbLine
 10
-682.7343419560107
 20
732.3270264826743
 30
0.0
 11
-432.7343419560215
 21
982.3270264826635
 31
0.0
  0
LINE
  5
2C0
330
1F
100
AcDbEntity
  8
0-0
  6
JWW_DASHED1
 62
   120
370
     5
100
AcDbLine
 10
-682.7343419560189
 20
739.3980942958972
 30
0.0
 11
-436.1093225279881
 21
986.023113723928
 31
0.0
  0
LINE
  5
2C1
330
1F
100
AcDbEntity
  8
0-0
  6
JWW_DASHED1
 62
   120
370
     5
100
AcDbLine
 10
-682.7343419560209
 20
746.4691621091805
 30
0.0
 11
-443.1803903412701
 21
986.0231137239314
 31
0.0
  0
LINE
  5
2C2
330
1F
100
AcDbEntity
  8
0-0
  6
JWW_DASHED1
 62
   120
370
     5
100
AcDbLine
 10
-682.7343419560248
 20
753.5402299224621
 30
0.0
 11
-450.2514581545518
 21
986.0231137239351
 31
0.0
  0
LINE
  5
2C3
330
1F
100
AcDbEntity
  8
0-0
  6
JWW_DASHED1
 62
   120
370
     5
100
AcDbLine
 10
-682.734341956015
 20
760.6112977357575
 30
0.0
 11
-457.3225259678633
 21
986.0231137239091
 31
0.0
  0
LINE
  5
2C4
330
1F
100
AcDbEntity
  8
0-0
  6
JWW_DASHED1
 62
   120
370
     5
100
AcDbLine
 10
-682.7343419560192
 20
767.6823655490386
 30
0.0
 11
-464.3935937811444
 21
986.0231137239134
 31
0.0
  0
LINE
  5
2C5
330
1F
100
AcDbEntity
  8
0-0
  6
JWW_DASHED1
 62
   120
370
     5
100
AcDbLine
 10
-682.7343419560231
 20
774.7534333623203
 30
0.0
 11
-471.4646615944257
 21
986.0231137239173
 31
0.0
  0
LINE
  5
2C6
330
1F
100
AcDbEntity
  8
0-0
  6
JWW_DASHED1
 62
   120
370
     5
100
AcDbLine
 10
-682.7343419560116
 20
781.8245011756173
 30
0.0
 11
-478.5357294077103
 21
986.0231137239185
 31
0.0
  0
LINE
  5
2C7
330
1F
100
AcDbEntity
  8
0-0
  6
JWW_DASHED1
 62
   120
370
     5
100
AcDbLine
 10
-682.7343419560158
 20
788.8955689888985
 30
0.0
 11
-485.606797220992
 21
986.0231137239224
 31
0.0
  0
LINE
  5
2C8
330
1F
100
AcDbEntity
  8
0-0
  6
JWW_DASHED1
 62
   120
370
     5
100
AcDbLine
 10
-682.7343419560196
 20
795.9666368021801
 30
0.0
 11
-492.6778650342732
 21
986.0231137239261
 31
0.0
  0
LINE
  5
2C9
330
1F
100
AcDbEntity
  8
0-0
  6
JWW_DASHED1
 62
   120
370
     5
100
AcDbLine
 10
-682.7343419560269
 20
803.0377046154038
 30
0.0
 11
-499.748932847496
 21
986.0231137239348
 31
0.0
  0
LINE
  5
2CA
330
1F
100
AcDbEntity
  8
0-0
  6
JWW_DASHED1
 62
   120
370
     5
100
AcDbLine
 10
-682.7343419560167
 20
810.1087724286995
 30
0.0
 11
-506.8200006608045
 21
986.0231137239117
 31
0.0
  0
LINE
  5
2CB
330
1F
100
AcDbEntity
  8
0-0
  6
JWW_DASHED1
 62
   120
370
     5
100
AcDbLine
 10
-682.7343419560201
 20
817.1798402419815
 30
0.0
 11
-513.8910684740865
 21
986.0231137239151
 31
0.0
  0
LINE
  5
2CC
330
1F
100
AcDbEntity
  8
0-0
  6
JWW_DASHED1
 62
   120
370
     5
100
AcDbLine
 10
-682.7343419560082
 20
824.2509080552791
 30
0.0
 11
-520.9621362873725
 21
986.0231137239147
 31
0.0
  0
LINE
  5
2CD
330
1F
100
AcDbEntity
  8
0-0
  6
JWW_DASHED1
 62
   120
370
     5
100
AcDbLine
 10
-682.7343419560124
 20
831.3219758685602
 30
0.0
 11
-528.0332041006545
 21
986.0231137239181
 31
0.0
  0
LINE
  5
2CE
330
1F
100
AcDbEntity
  8
0-0
  6
JWW_DASHED1
 62
   120
370
     5
100
AcDbLine
 10
-682.7343419560167
 20
838.3930436818414
 30
0.0
 11
-535.1042719139361
 21
986.0231137239219
 31
0.0
  0
LINE
  5
2CF
330
1F
100
AcDbEntity
  8
0-0
  6
JWW_DASHED1
 62
   120
370
     5
100
AcDbLine
 10
-682.7343419560204
 20
845.4641114951231
 30
0.0
 11
-542.1753397272174
 21
986.0231137239261
 31
0.0
  0
LINE
  5
2D0
330
1F
100
AcDbEntity
  8
0-0
  6
JWW_DASHED1
 62
   120
370
     5
100
AcDbLine
 10
-682.7343419560235
 20
852.5351793084055
 30
0.0
 11
-549.2464075404998
 21
986.0231137239292
 31
0.0
  0
LINE
  5
2D1
330
1F
100
AcDbEntity
  8
0-0
  6
JWW_DASHED1
 62
   120
370
     5
100
AcDbLine
 10
-682.7343419560128
 20
859.6062471217017
 30
0.0
 11
-556.3174753537969
 21
986.0231137239177
 31
0.0
  0
LINE
  5
2D2
330
1F
100
AcDbEntity
  8
0-0
  6
JWW_DASHED1
 62
   120
370
     5
100
AcDbLine
 10
-682.7343419560209
 20
866.6773149349245
 30
0.0
 11
-563.3885431670274
 21
986.0231137239181
 31
0.0
  0
LINE
  5
2D3
330
1F
100
AcDbEntity
  8
0-0
  6
JWW_DASHED1
 62
   120
370
     5
100
AcDbLine
 10
-682.734341956009
 20
873.748382748222
 30
0.0
 11
-570.459610980318
 21
986.023113723913
 31
0.0
  0
LINE
  5
2D4
330
1F
100
AcDbEntity
  8
0-0
  6
JWW_DASHED1
 62
   120
370
     5
100
AcDbLine
 10
-682.7343419560133
 20
880.8194505615031
 30
0.0
 11
-577.5306787935992
 21
986.0231137239173
 31
0.0
  0
LINE
  5
2D5
330
1F
100
AcDbEntity
  8
0-0
  6
JWW_DASHED1
 62
   120
370
     5
100
AcDbLine
 10
-682.7343419560175
 20
887.8905183747844
 30
0.0
 11
-584.6017466068809
 21
986.0231137239207
 31
0.0
  0
LINE
  5
2D6
330
1F
100
AcDbEntity
  8
0-0
  6
JWW_DASHED1
 62
   120
370
     5
100
AcDbLine
 10
-682.7343419560214
 20
894.961586188066
 30
0.0
 11
-591.6728144201629
 21
986.0231137239246
 31
0.0
  0
LINE
  5
2D7
330
1F
100
AcDbEntity
  8
0-0
  6
JWW_DASHED1
 62
   120
370
     5
100
AcDbLine
 10
-682.7343419560252
 20
902.0326540013477
 30
0.0
 11
-598.7438822334441
 21
986.0231137239288
 31
0.0
  0
LINE
  5
2D8
330
1F
100
AcDbEntity
  8
0-0
  6
JWW_DASHED1
 62
   120
370
     5
100
AcDbLine
 10
-682.7343419560141
 20
909.1037218146442
 30
0.0
 11
-605.8149500467466
 21
986.0231137239117
 31
0.0
  0
LINE
  5
2D9
330
1F
100
AcDbEntity
  8
0-0
  6
JWW_DASHED1
 62
   120
370
     5
100
AcDbLine
 10
-682.7343419560179
 20
916.1747896279259
 30
0.0
 11
-612.8860178600274
 21
986.0231137239164
 31
0.0
  0
LINE
  5
2DA
330
1F
100
AcDbEntity
  8
0-0
  6
JWW_DASHED1
 62
   120
370
     5
100
AcDbLine
 10
-682.7343419560214
 20
923.2458574412079
 30
0.0
 11
-619.9570856733087
 21
986.0231137239207
 31
0.0
  0
LINE
  5
2DB
330
1F
100
AcDbEntity
  8
0-0
  6
JWW_DASHED1
 62
   120
370
     5
100
AcDbLine
 10
-682.7343419560099
 20
930.3169252545049
 30
0.0
 11
-627.0281534866026
 21
986.0231137239122
 31
0.0
  0
LINE
  5
2DC
330
1F
100
AcDbEntity
  8
0-0
  6
JWW_DASHED1
 62
   120
370
     5
100
AcDbLine
 10
-682.7343419560179
 20
937.3879930677274
 30
0.0
 11
-634.0992212998251
 21
986.0231137239207
 31
0.0
  0
LINE
  5
2DD
330
1F
100
AcDbEntity
  8
0-0
  6
JWW_DASHED1
 62
   120
370
     5
100
AcDbLine
 10
-682.7343419560223
 20
944.459060881009
 30
0.0
 11
-641.1702891131072
 21
986.0231137239241
 31
0.0
  0
LINE
  5
2DE
330
1F
100
AcDbEntity
  8
0-0
  6
JWW_DASHED1
 62
   120
370
     5
100
AcDbLine
 10
-682.734341956026
 20
951.5301286942906
 30
0.0
 11
-648.2413569263883
 21
986.0231137239283
 31
0.0
  0
LINE
  5
2DF
330
1F
100
AcDbEntity
  8
0-0
  6
JWW_DASHED1
 62
   120
370
     5
100
AcDbLine
 10
-682.7343419560145
 20
958.6011965075876
 30
0.0
 11
-655.3124247396879
 21
986.0231137239143
 31
0.0
  0
LINE
  5
2E0
330
1F
100
AcDbEntity
  8
0-0
  6
JWW_DASHED1
 62
   120
370
     5
100
AcDbLine
 10
-682.7343419560189
 20
965.6722643208689
 30
0.0
 11
-662.3834925529691
 21
986.0231137239185
 31
0.0
  0
LINE
  5
2E1
330
1F
100
AcDbEntity
  8
0-0
  6
JWW_DASHED1
 62
   120
370
     5
100
AcDbLine
 10
-682.7343419560223
 20
972.7433321341509
 30
0.0
 11
-669.4545603662503
 21
986.0231137239227
 31
0.0
  0
LINE
  5
2E2
330
1F
100
AcDbEntity
  8
0-0
  6
JWW_DASHED1
 62
   120
370
     5
100
AcDbLine
 10
-682.7343419560107
 20
979.8143999474479
 30
0.0
 11
-676.5256281795473
 21
986.0231137239113
 31
0.0
  0
LINE
  5
2E3
330
1F
100
AcDbEntity
  8
0-0
  6
JWW_DASHED1
 62
   120
370
     5
100
AcDbLine
 10
715.490242094934
 20
-920.9768862760758
 30
0.0
 11
717.2656580439728
 21
-919.2014703270371
 31
0.0
  0
LINE
  5
2E4
330
1F
100
AcDbEntity
  8
0-0
  6
JWW_DASHED1
 62
   120
370
     5
100
AcDbLine
 10
708.4191742816524
 20
-920.976886276072
 30
0.0
 11
717.265658043969
 21
-912.1304025137555
 31
0.0
  0
LINE
  5
2E5
330
1F
100
AcDbEntity
  8
0-0
  6
JWW_DASHED1
 62
   120
370
     5
100
AcDbLine
 10
701.3481064683704
 20
-920.9768862760686
 30
0.0
 11
717.2656580439648
 21
-905.0593347004742
 31
0.0
  0
LINE
  5
2E6
330
1F
100
AcDbEntity
  8
0-0
  6
JWW_DASHED1
 62
   120
370
     5
100
AcDbLine
 10
694.2770386550887
 20
-920.9768862760648
 30
0.0
 11
717.2656580439605
 21
-897.988266887193
 31
0.0
  0
LINE
  5
2E7
330
1F
100
AcDbEntity
  8
0-0
  6
JWW_DASHED1
 62
   120
370
     5
100
AcDbLine
 10
687.2059708417909
 20
-920.976886276077
 30
0.0
 11
717.2656580439719
 21
-890.917199073896
 31
0.0
  0
LINE
  5
2E8
330
1F
100
AcDbEntity
  8
0-0
  6
JWW_DASHED1
 62
   120
370
     5
100
AcDbLine
 10
680.1349030285097
 20
-920.9768862760728
 30
0.0
 11
717.2656580439682
 21
-883.8461312606139
 31
0.0
  0
LINE
  5
2E9
330
1F
100
AcDbEntity
  8
0-0
  6
JWW_DASHED1
 62
   120
370
     5
100
AcDbLine
 10
673.0638352152148
 20
-920.9768862760823
 30
0.0
 11
717.2656580439805
 21
-876.7750634473166
 31
0.0
  0
LINE
  5
2EA
330
1F
100
AcDbEntity
  8
0-0
  6
JWW_DASHED1
 62
   120
370
     5
100
AcDbLine
 10
665.9927674019336
 20
-920.976886276078
 30
0.0
 11
717.2656580439763
 21
-869.7039956340353
 31
0.0
  0
LINE
  5
2EB
330
1F
100
AcDbEntity
  8
0-0
  6
JWW_DASHED1
 62
   120
370
     5
100
AcDbLine
 10
658.9216995887074
 20
-920.9768862760733
 30
0.0
 11
717.2656580439682
 21
-862.6329278208125
 31
0.0
  0
LINE
  5
2EC
330
1F
100
AcDbEntity
  8
0-0
  6
JWW_DASHED1
 62
   120
370
     5
100
AcDbLine
 10
651.8506317754258
 20
-920.9768862760694
 30
0.0
 11
717.2656580439639
 21
-855.5618600075313
 31
0.0
  0
LINE
  5
2ED
330
1F
100
AcDbEntity
  8
0-0
  6
JWW_DASHED1
 62
   120
370
     5
100
AcDbLine
 10
644.7795639621437
 20
-920.976886276066
 30
0.0
 11
717.2656580439595
 21
-848.49079219425
 31
0.0
  0
LINE
  5
2EE
330
1F
100
AcDbEntity
  8
0-0
  6
JWW_DASHED1
 62
   120
370
     5
100
AcDbLine
 10
637.7084961488467
 20
-920.9768862760775
 30
0.0
 11
717.2656580439707
 21
-841.4197243809535
 31
0.0
  0
LINE
  5
2EF
330
1F
100
AcDbEntity
  8
0-0
  6
JWW_DASHED1
 62
   120
370
     5
100
AcDbLine
 10
630.6374283355647
 20
-920.9768862760741
 30
0.0
 11
717.2656580439677
 21
-834.348656567671
 31
0.0
  0
LINE
  5
2F0
330
1F
100
AcDbEntity
  8
0-0
  6
JWW_DASHED1
 62
   120
370
     5
100
AcDbLine
 10
623.5663605222732
 20
-920.9768862760801
 30
0.0
 11
717.2656580439797
 21
-827.2775887543736
 31
0.0
  0
LINE
  5
2F1
330
1F
100
AcDbEntity
  8
0-0
  6
JWW_DASHED1
 62
   120
370
     5
100
AcDbLine
 10
616.4952927089915
 20
-920.9768862760762
 30
0.0
 11
717.2656580439753
 21
-820.2065209410923
 31
0.0
  0
LINE
  5
2F2
330
1F
100
AcDbEntity
  8
0-0
  6
JWW_DASHED1
 62
   120
370
     5
100
AcDbLine
 10
609.4242248957103
 20
-920.9768862760716
 30
0.0
 11
717.2656580439711
 21
-813.1354531278112
 31
0.0
  0
LINE
  5
2F3
330
1F
100
AcDbEntity
  8
0-0
  6
JWW_DASHED1
 62
   120
370
     5
100
AcDbLine
 10
602.3531570824218
 20
-920.9768862760745
 30
0.0
 11
717.2656580439668
 21
-806.0643853145295
 31
0.0
  0
LINE
  5
2F4
330
1F
100
AcDbEntity
  8
0-0
  6
JWW_DASHED1
 62
   120
370
     5
100
AcDbLine
 10
595.282089269199
 20
-920.9768862760668
 30
0.0
 11
717.2656580439588
 21
-798.9933175013072
 31
0.0
  0
LINE
  5
2F5
330
1F
100
AcDbEntity
  8
0-0
  6
JWW_DASHED1
 62
   120
370
     5
100
AcDbLine
 10
588.2110214559016
 20
-920.9768862760789
 30
0.0
 11
717.2656580439698
 21
-791.9222496880105
 31
0.0
  0
LINE
  5
2F6
330
1F
100
AcDbEntity
  8
0-0
  6
JWW_DASHED1
 62
   120
370
     5
100
AcDbLine
 10
581.1399536426195
 20
-920.9768862760754
 30
0.0
 11
717.2656580439668
 21
-784.8511818747281
 31
0.0
  0
LINE
  5
2F7
330
1F
100
AcDbEntity
  8
0-0
  6
JWW_DASHED1
 62
   120
370
     5
100
AcDbLine
 10
574.0688858293311
 20
-920.9768862760784
 30
0.0
 11
717.2656580439784
 21
-777.780114061431
 31
0.0
  0
LINE
  5
2F8
330
1F
100
AcDbEntity
  8
0-0
  6
JWW_DASHED1
 62
   120
370
     5
100
AcDbLine
 10
566.9978180160499
 20
-920.9768862760736
 30
0.0
 11
717.2656580439741
 21
-770.7090462481499
 31
0.0
  0
LINE
  5
2F9
330
1F
100
AcDbEntity
  8
0-0
  6
JWW_DASHED1
 62
   120
370
     5
100
AcDbLine
 10
559.9267502027686
 20
-920.9768862760699
 30
0.0
 11
717.2656580439702
 21
-763.6379784348683
 31
0.0
  0
LINE
  5
2FA
330
1F
100
AcDbEntity
  8
0-0
  6
JWW_DASHED1
 62
   120
370
     5
100
AcDbLine
 10
552.8556823894768
 20
-920.9768862760758
 30
0.0
 11
717.265658043966
 21
-756.5669106215865
 31
0.0
  0
LINE
  5
2FB
330
1F
100
AcDbEntity
  8
0-0
  6
JWW_DASHED1
 62
   120
370
     5
100
AcDbLine
 10
545.784614576195
 20
-920.9768862760724
 30
0.0
 11
717.2656580439622
 21
-749.4958428083054
 31
0.0
  0
LINE
  5
2FC
330
1F
100
AcDbEntity
  8
0-0
  6
JWW_DASHED1
 62
   120
370
     5
100
AcDbLine
 10
538.7135467628981
 20
-920.9768862760839
 30
0.0
 11
717.2656580439724
 21
-742.4247749950092
 31
0.0
  0
LINE
  5
2FD
330
1F
100
AcDbEntity
  8
0-0
  6
JWW_DASHED1
 62
   120
370
     5
100
AcDbLine
 10
531.6424789496749
 20
-920.9768862760762
 30
0.0
 11
717.265658043966
 21
-735.3537071817851
 31
0.0
  0
LINE
  5
2FE
330
1F
100
AcDbEntity
  8
0-0
  6
JWW_DASHED1
 62
   120
370
     5
100
AcDbLine
 10
524.5714111363894
 20
-920.9768862760758
 30
0.0
 11
717.2656580439775
 21
-728.2826393684882
 31
0.0
  0
LINE
  5
2FF
330
1F
100
AcDbEntity
  8
0-0
  6
JWW_DASHED1
 62
   120
370
     5
100
AcDbLine
 10
517.5003433231082
 20
-920.976886276072
 30
0.0
 11
717.2656580439732
 21
-721.2115715552065
 31
0.0
  0
LINE
  5
300
330
1F
100
AcDbEntity
  8
0-0
  6
JWW_DASHED1
 62
   120
370
     5
100
AcDbLine
 10
510.4292755098141
 20
-920.9768862760804
 30
0.0
 11
717.2656580439694
 21
-714.1405037419253
 31
0.0
  0
LINE
  5
301
330
1F
100
AcDbEntity
  8
0-0
  6
JWW_DASHED1
 62
   120
370
     5
100
AcDbLine
 10
503.3582076965321
 20
-920.976886276077
 30
0.0
 11
717.2656580439651
 21
-707.0694359286437
 31
0.0
  0
LINE
  5
302
330
1F
100
AcDbEntity
  8
0-0
  6
JWW_DASHED1
 62
   120
370
     5
100
AcDbLine
 10
496.28713988325
 20
-920.9768862760733
 30
0.0
 11
717.2656580439614
 21
-699.9983681153619
 31
0.0
  0
LINE
  5
303
330
1F
100
AcDbEntity
  8
0-0
  6
JWW_DASHED1
 62
   120
370
     5
100
AcDbLine
 10
489.216072069953
 20
-920.9768862760852
 30
0.0
 11
717.2656580439716
 21
-692.9273003020667
 31
0.0
  0
LINE
  5
304
330
1F
100
AcDbEntity
  8
0-0
  6
JWW_DASHED1
 62
   120
370
     5
100
AcDbLine
 10
482.145004256671
 20
-920.9768862760818
 30
0.0
 11
717.2656580439673
 21
-685.8562324887855
 31
0.0
  0
LINE
  5
305
330
1F
100
AcDbEntity
  8
0-0
  6
JWW_DASHED1
 62
   120
370
     5
100
AcDbLine
 10
475.0739364433889
 20
-920.9768862760784
 30
0.0
 11
717.2656580439809
 21
-678.7851646754864
 31
0.0
  0
LINE
  5
306
330
1F
100
AcDbEntity
  8
0-0
  6
JWW_DASHED1
 62
   120
370
     5
100
AcDbLine
 10
468.0028686301077
 20
-920.9768862760741
 30
0.0
 11
717.265658043977
 21
-671.7140968622048
 31
0.0
  0
LINE
  5
307
330
1F
100
AcDbEntity
  8
0-0
  6
JWW_DASHED1
 62
   120
370
     5
100
AcDbLine
 10
467.2656580439772
 20
-914.6430290489732
 30
0.0
 11
717.2656580439685
 21
-664.6430290489823
 31
0.0
  0
LINE
  5
308
330
1F
100
AcDbEntity
  8
0-0
  6
JWW_DASHED1
 62
   120
370
     5
100
AcDbLine
 10
467.265658043973
 20
-907.5719612356925
 30
0.0
 11
717.2656580439648
 21
-657.5719612357007
 31
0.0
  0
LINE
  5
309
330
1F
100
AcDbEntity
  8
0-0
  6
JWW_DASHED1
 62
   120
370
     5
100
AcDbLine
 10
467.2656580439691
 20
-900.5008934224104
 30
0.0
 11
717.2656580439605
 21
-650.500893422419
 31
0.0
  0
LINE
  5
30A
330
1F
100
AcDbEntity
  8
0-0
  6
JWW_DASHED1
 62
   120
370
     5
100
AcDbLine
 10
467.2656580439806
 20
-893.4298256091133
 30
0.0
 11
717.2656580439698
 21
-643.4298256091242
 31
0.0
  0
LINE
  5
30B
330
1F
100
AcDbEntity
  8
0-0
  6
JWW_DASHED1
 62
   120
370
     5
100
AcDbLine
 10
467.2656580439768
 20
-886.3587577958317
 30
0.0
 11
717.2656580439682
 21
-636.3587577958408
 31
0.0
  0
LINE
  5
30C
330
1F
100
AcDbEntity
  8
0-0
  6
JWW_DASHED1
 62
   120
370
     5
100
AcDbLine
 10
467.265658043973
 20
-879.2876899825505
 30
0.0
 11
717.26565804398
 21
-629.2876899825434
 31
0.0
  0
LINE
  5
30D
330
1F
100
AcDbEntity
  8
0-0
  6
JWW_DASHED1
 62
   120
370
     5
100
AcDbLine
 10
467.2656580439687
 20
-872.2166221692689
 30
0.0
 11
717.2656580439763
 21
-622.2166221692618
 31
0.0
  0
LINE
  5
30E
330
1F
100
AcDbEntity
  8
0-0
  6
JWW_DASHED1
 62
   120
370
     5
100
AcDbLine
 10
467.2656580439649
 20
-865.1455543559877
 30
0.0
 11
717.2656580439719
 21
-615.1455543559805
 31
0.0
  0
LINE
  5
30F
330
1F
100
AcDbEntity
  8
0-0
  6
JWW_DASHED1
 62
   120
370
     5
100
AcDbLine
 10
467.2656580439764
 20
-858.0744865426907
 30
0.0
 11
717.2656580439677
 21
-608.0744865426993
 31
0.0
  0
LINE
  5
310
330
1F
100
AcDbEntity
  8
0-0
  6
JWW_DASHED1
 62
   120
370
     5
100
AcDbLine
 10
467.2656580439687
 20
-851.0034187294674
 30
0.0
 11
717.2656580439595
 21
-601.0034187294765
 31
0.0
  0
LINE
  5
311
330
1F
100
AcDbEntity
  8
0-0
  6
JWW_DASHED1
 62
   120
370
     5
100
AcDbLine
 10
467.2656580439793
 20
-843.9323509161713
 30
0.0
 11
717.2656580439685
 21
-593.932350916182
 31
0.0
  0
LINE
  5
312
330
1F
100
AcDbEntity
  8
0-0
  6
JWW_DASHED1
 62
   120
370
     5
100
AcDbLine
 10
467.2656580439759
 20
-836.8612831028893
 30
0.0
 11
717.2656580439673
 21
-586.8612831028979
 31
0.0
  0
LINE
  5
313
330
1F
100
AcDbEntity
  8
0-0
  6
JWW_DASHED1
 62
   120
370
     5
100
AcDbLine
 10
376.0789870574949
 20
-920.9768862760848
 30
0.0
 11
377.2656580439806
 21
-919.790215289599
 31
0.0
  0
LINE
  5
314
330
1F
100
AcDbEntity
  8
0-0
  6
JWW_DASHED1
 62
   120
370
     5
100
AcDbLine
 10
467.2656580439721
 20
-829.7902152896075
 30
0.0
 11
717.2656580439788
 21
-579.7902152896008
 31
0.0
  0
LINE
  5
315
330
1F
100
AcDbEntity
  8
0-0
  6
JWW_DASHED1
 62
   120
370
     5
100
AcDbLine
 10
369.0079192442137
 20
-920.9768862760801
 30
0.0
 11
377.2656580439764
 21
-912.7191474763179
 31
0.0
  0
LINE
  5
316
330
1F
100
AcDbEntity
  8
0-0
  6
JWW_DASHED1
 62
   120
370
     5
100
AcDbLine
 10
467.2656580439678
 20
-822.7191474763259
 30
0.0
 11
717.2656580439753
 21
-572.7191474763188
 31
0.0
  0
LINE
  5
317
330
1F
100
AcDbEntity
  8
0-0
  6
JWW_DASHED1
 62
   120
370
     5
100
AcDbLine
 10
361.9368514309316
 20
-920.976886276077
 30
0.0
 11
377.2656580439725
 21
-905.6480796630362
 31
0.0
  0
LINE
  5
318
330
1F
100
AcDbEntity
  8
0-0
  6
JWW_DASHED1
 62
   120
370
     5
100
AcDbLine
 10
467.265658043964
 20
-815.6480796630443
 30
0.0
 11
717.2656580439711
 21
-565.6480796630376
 31
0.0
  0
LINE
  5
319
330
1F
100
AcDbEntity
  8
0-0
  6
JWW_DASHED1
 62
   120
370
     5
100
AcDbLine
 10
354.8657836176495
 20
-920.9768862760733
 30
0.0
 11
377.2656580439687
 21
-898.5770118497545
 31
0.0
  0
LINE
  5
31A
330
1F
100
AcDbEntity
  8
0-0
  6
JWW_DASHED1
 62
   120
370
     5
100
AcDbLine
 10
467.2656580439755
 20
-808.5770118497477
 30
0.0
 11
717.2656580439668
 21
-558.5770118497564
 31
0.0
  0
LINE
  5
31B
330
1F
100
AcDbEntity
  8
0-0
  6
JWW_DASHED1
 62
   120
370
     5
100
AcDbLine
 10
347.7947158043679
 20
-920.9768862760694
 30
0.0
 11
377.2656580439644
 21
-891.5059440364734
 31
0.0
  0
LINE
  5
31C
330
1F
100
AcDbEntity
  8
0-0
  6
JWW_DASHED1
 62
   120
370
     5
100
AcDbLine
 10
467.2656580439717
 20
-801.5059440364661
 30
0.0
 11
717.265658043963
 21
-551.5059440364747
 31
0.0
  0
LINE
  5
31D
330
1F
100
AcDbEntity
  8
0-0
  6
JWW_DASHED1
 62
   120
370
     5
100
AcDbLine
 10
340.7236479910705
 20
-920.9768862760818
 30
0.0
 11
377.2656580439759
 21
-884.4348762231764
 31
0.0
  0
LINE
  5
31E
330
1F
100
AcDbEntity
  8
0-0
  6
JWW_DASHED1
 62
   120
370
     5
100
AcDbLine
 10
467.2656580439827
 20
-794.4348762231696
 30
0.0
 11
717.2656580439719
 21
-544.4348762231803
 31
0.0
  0
LINE
  5
31F
330
1F
100
AcDbEntity
  8
0-0
  6
JWW_DASHED1
 62
   120
370
     5
100
AcDbLine
 10
333.6525801778345
 20
-920.9768862760865
 30
0.0
 11
377.265658043984
 21
-877.3638084099373
 31
0.0
  0
LINE
  5
320
330
1F
100
AcDbEntity
  8
0-0
  6
JWW_DASHED1
 62
   120
370
     5
100
AcDbLine
 10
467.2656580439751
 20
-787.3638084099458
 30
0.0
 11
717.2656580439664
 21
-537.3638084099549
 31
0.0
  0
LINE
  5
321
330
1F
100
AcDbEntity
  8
0-0
  6
JWW_DASHED1
 62
   120
370
     5
100
AcDbLine
 10
326.5815123645536
 20
-920.9768862760823
 30
0.0
 11
377.2656580439793
 21
-870.2927405966566
 31
0.0
  0
LINE
  5
322
330
1F
100
AcDbEntity
  8
0-0
  6
JWW_DASHED1
 62
   120
370
     5
100
AcDbLine
 10
467.2656580439713
 20
-780.2927405966647
 30
0.0
 11
717.265658043978
 21
-530.292740596658
 31
0.0
  0
LINE
  5
323
330
1F
100
AcDbEntity
  8
0-0
  6
JWW_DASHED1
 62
   120
370
     5
100
AcDbLine
 10
319.510444551272
 20
-920.9768862760784
 30
0.0
 11
377.2656580439755
 21
-863.2216727833749
 31
0.0
  0
LINE
  5
324
330
1F
100
AcDbEntity
  8
0-0
  6
JWW_DASHED1
 62
   120
370
     5
100
AcDbLine
 10
467.265658043967
 20
-773.2216727833829
 30
0.0
 11
717.2656580439746
 21
-523.2216727833759
 31
0.0
  0
LINE
  5
325
330
1F
100
AcDbEntity
  8
0-0
  6
JWW_DASHED1
 62
   120
370
     5
100
AcDbLine
 10
312.439376737987
 20
-920.976886276078
 30
0.0
 11
377.2656580439713
 21
-856.1506049700937
 31
0.0
  0
LINE
  5
326
330
1F
100
AcDbEntity
  8
0-0
  6
JWW_DASHED1
 62
   120
370
     5
100
AcDbLine
 10
467.2656580439793
 20
-766.1506049700856
 30
0.0
 11
717.2656580439698
 21
-516.1506049700951
 31
0.0
  0
LINE
  5
327
330
1F
100
AcDbEntity
  8
0-0
  6
JWW_DASHED1
 62
   120
370
     5
100
AcDbLine
 10
305.3683089247053
 20
-920.9768862760741
 30
0.0
 11
377.2656580439678
 21
-849.0795371568116
 31
0.0
  0
LINE
  5
328
330
1F
100
AcDbEntity
  8
0-0
  6
JWW_DASHED1
 62
   120
370
     5
100
AcDbLine
 10
467.2656580439747
 20
-759.0795371568048
 30
0.0
 11
717.265658043966
 21
-509.0795371568134
 31
0.0
  0
LINE
  5
329
330
1F
100
AcDbEntity
  8
0-0
  6
JWW_DASHED1
 62
   120
370
     5
100
AcDbLine
 10
298.2972411114233
 20
-920.9768862760707
 30
0.0
 11
377.2656580439636
 21
-842.0084693435304
 31
0.0
  0
LINE
  5
32A
330
1F
100
AcDbEntity
  8
0-0
  6
JWW_DASHED1
 62
   120
370
     5
100
AcDbLine
 10
467.2656580439708
 20
-752.0084693435231
 30
0.0
 11
717.2656580439617
 21
-502.0084693435322
 31
0.0
  0
LINE
  5
32B
330
1F
100
AcDbEntity
  8
0-0
  6
JWW_DASHED1
 62
   120
370
     5
100
AcDbLine
 10
291.2261732981258
 20
-920.9768862760826
 30
0.0
 11
377.2656580439742
 21
-834.9374015302338
 31
0.0
  0
LINE
  5
32C
330
1F
100
AcDbEntity
  8
0-0
  6
JWW_DASHED1
 62
   120
370
     5
100
AcDbLine
 10
467.265658043981
 20
-744.9374015302274
 30
0.0
 11
717.2656580439702
 21
-494.9374015302382
 31
0.0
  0
LINE
  5
32D
330
1F
100
AcDbEntity
  8
0-0
  6
JWW_DASHED1
 62
   120
370
     5
100
AcDbLine
 10
284.1551054848446
 20
-920.9768862760784
 30
0.0
 11
377.2656580439704
 21
-827.8663337169521
 31
0.0
  0
LINE
  5
32E
330
1F
100
AcDbEntity
  8
0-0
  6
JWW_DASHED1
 62
   120
370
     5
100
AcDbLine
 10
467.2656580439768
 20
-737.8663337169457
 30
0.0
 11
717.265658043966
 21
-487.866333716957
 31
0.0
  0
LINE
  5
32F
330
1F
100
AcDbEntity
  8
0-0
  6
JWW_DASHED1
 62
   120
370
     5
100
AcDbLine
 10
277.0840376715532
 20
-920.9768862760843
 30
0.0
 11
377.2656580439827
 21
-820.7952659036544
 31
0.0
  0
LINE
  5
330
330
1F
100
AcDbEntity
  8
0-0
  6
JWW_DASHED1
 62
   120
370
     5
100
AcDbLine
 10
467.2656580439747
 20
-730.7952659036629
 30
0.0
 11
717.2656580439656
 21
-480.795265903672
 31
0.0
  0
LINE
  5
331
330
1F
100
AcDbEntity
  8
0-0
  6
JWW_DASHED1
 62
   120
370
     5
100
AcDbLine
 10
270.012969858272
 20
-920.9768862760801
 30
0.0
 11
377.2656580439793
 21
-813.7241980903727
 31
0.0
  0
LINE
  5
332
330
1F
100
AcDbEntity
  8
0-0
  6
JWW_DASHED1
 62
   120
370
     5
100
AcDbLine
 10
467.2656580439704
 20
-723.7241980903816
 30
0.0
 11
717.2656580439775
 21
-473.7241980903741
 31
0.0
  0
LINE
  5
333
330
1F
100
AcDbEntity
  8
0-0
  6
JWW_DASHED1
 62
   120
370
     5
100
AcDbLine
 10
262.9419020450423
 20
-920.9768862760789
 30
0.0
 11
377.2656580439704
 21
-806.6531302771507
 31
0.0
  0
LINE
  5
334
330
1F
100
AcDbEntity
  8
0-0
  6
JWW_DASHED1
 62
   120
370
     5
100
AcDbLine
 10
467.2656580439776
 20
-716.6531302771431
 30
0.0
 11
717.265658043969
 21
-466.6531302771522
 31
0.0
  0
LINE
  5
335
330
1F
100
AcDbEntity
  8
0-0
  6
JWW_DASHED1
 62
   120
370
     5
100
AcDbLine
 10
255.8708342317607
 20
-920.9768862760745
 30
0.0
 11
377.265658043967
 21
-799.5820624638686
 31
0.0
  0
LINE
  5
336
330
1F
100
AcDbEntity
  8
0-0
  6
JWW_DASHED1
 62
   120
370
     5
100
AcDbLine
 10
467.2656580439738
 20
-709.5820624638613
 30
0.0
 11
717.2656580439651
 21
-459.5820624638705
 31
0.0
  0
LINE
  5
337
330
1F
100
AcDbEntity
  8
0-0
  6
JWW_DASHED1
 62
   120
370
     5
100
AcDbLine
 10
248.799766418479
 20
-920.9768862760711
 30
0.0
 11
377.2656580439623
 21
-792.5109946505879
 31
0.0
  0
LINE
  5
338
330
1F
100
AcDbEntity
  8
0-0
  6
JWW_DASHED1
 62
   120
370
     5
100
AcDbLine
 10
467.2656580439696
 20
-702.5109946505802
 30
0.0
 11
717.2656580439609
 21
-452.5109946505893
 31
0.0
  0
LINE
  5
339
330
1F
100
AcDbEntity
  8
0-0
  6
JWW_DASHED1
 62
   120
370
     5
100
AcDbLine
 10
241.7286986051816
 20
-920.9768862760831
 30
0.0
 11
377.2656580439734
 21
-785.4399268372913
 31
0.0
  0
LINE
  5
33A
330
1F
100
AcDbEntity
  8
0-0
  6
JWW_DASHED1
 62
   120
370
     5
100
AcDbLine
 10
467.2656580439798
 20
-695.4399268372849
 30
0.0
 11
717.265658043969
 21
-445.4399268372957
 31
0.0
  0
LINE
  5
33B
330
1F
100
AcDbEntity
  8
0-0
  6
JWW_DASHED1
 62
   120
370
     5
100
AcDbLine
 10
234.6576307918932
 20
-920.976886276086
 30
0.0
 11
377.2656580439862
 21
-778.3688590239931
 31
0.0
  0
LINE
  5
33C
330
1F
100
AcDbEntity
  8
0-0
  6
JWW_DASHED1
 62
   120
370
     5
100
AcDbLine
 10
467.2656580439781
 20
-688.3688590240012
 30
0.0
 11
717.2656580439685
 21
-438.3688590240106
 31
0.0
  0
LINE
  5
33D
330
1F
100
AcDbEntity
  8
0-0
  6
JWW_DASHED1
 62
   120
370
     5
100
AcDbLine
 10
227.5865629786119
 20
-920.9768862760818
 30
0.0
 11
377.2656580439819
 21
-771.2977912107114
 31
0.0
  0
LINE
  5
33E
330
1F
100
AcDbEntity
  8
0-0
  6
JWW_DASHED1
 62
   120
370
     5
100
AcDbLine
 10
467.2656580439734
 20
-681.2977912107203
 30
0.0
 11
717.2656580439805
 21
-431.2977912107132
 31
0.0
  0
LINE
  5
33F
330
1F
100
AcDbEntity
  8
0-0
  6
JWW_DASHED1
 62
   120
370
     5
100
AcDbLine
 10
220.5154951653307
 20
-920.9768862760775
 30
0.0
 11
377.2656580439781
 21
-764.2267233974302
 31
0.0
  0
LINE
  5
340
330
1F
100
AcDbEntity
  8
0-0
  6
JWW_DASHED1
 62
   120
370
     5
100
AcDbLine
 10
467.2656580439696
 20
-674.2267233974387
 30
0.0
 11
717.2656580439766
 21
-424.2267233974316
 31
0.0
  0
LINE
  5
341
330
1F
100
AcDbEntity
  8
0-0
  6
JWW_DASHED1
 62
   120
370
     5
100
AcDbLine
 10
213.4444273520388
 20
-920.9768862760835
 30
0.0
 11
377.2656580439738
 21
-757.1556555841489
 31
0.0
  0
LINE
  5
342
330
1F
100
AcDbEntity
  8
0-0
  6
JWW_DASHED1
 62
   120
370
     5
100
AcDbLine
 10
467.2656580439657
 20
-667.1556555841571
 30
0.0
 11
717.2656580439728
 21
-417.1556555841499
 31
0.0
  0
LINE
  5
343
330
1F
100
AcDbEntity
  8
0-0
  6
JWW_DASHED1
 62
   120
370
     5
100
AcDbLine
 10
206.3733595387572
 20
-920.9768862760797
 30
0.0
 11
377.26565804397
 21
-750.0845877708668
 31
0.0
  0
LINE
  5
344
330
1F
100
AcDbEntity
  8
0-0
  6
JWW_DASHED1
 62
   120
370
     5
100
AcDbLine
 10
467.2656580439776
 20
-660.0845877708596
 30
0.0
 11
717.2656580439685
 21
-410.0845877708683
 31
0.0
  0
LINE
  5
345
330
1F
100
AcDbEntity
  8
0-0
  6
JWW_DASHED1
 62
   120
370
     5
100
AcDbLine
 10
199.3022917255344
 20
-920.9768862760718
 30
0.0
 11
377.2656580439615
 21
-743.0135199576449
 31
0.0
  0
LINE
  5
346
330
1F
100
AcDbEntity
  8
0-0
  6
JWW_DASHED1
 62
   120
370
     5
100
AcDbLine
 10
467.2656580439691
 20
-653.0135199576373
 30
0.0
 11
717.26565804396
 21
-403.0135199576459
 31
0.0
  0
LINE
  5
347
330
1F
100
AcDbEntity
  8
0-0
  6
JWW_DASHED1
 62
   120
370
     5
100
AcDbLine
 10
192.2312239122374
 20
-920.9768862760837
 30
0.0
 11
377.2656580439717
 21
-735.9424521443487
 31
0.0
  0
LINE
  5
348
330
1F
100
AcDbEntity
  8
0-0
  6
JWW_DASHED1
 62
   120
370
     5
100
AcDbLine
 10
467.2656580439785
 20
-645.9424521443424
 30
0.0
 11
717.2656580439673
 21
-395.9424521443532
 31
0.0
  0
LINE
  5
349
330
1F
100
AcDbEntity
  8
0-0
  6
JWW_DASHED1
 62
   120
370
     5
100
AcDbLine
 10
185.1601560989519
 20
-920.9768862760837
 30
0.0
 11
377.2656580439854
 21
-728.8713843310501
 31
0.0
  0
LINE
  5
34A
330
1F
100
AcDbEntity
  8
0-0
  6
JWW_DASHED1
 62
   120
370
     5
100
AcDbLine
 10
467.2656580439772
 20
-638.8713843310582
 30
0.0
 11
717.2656580439677
 21
-388.8713843310677
 31
0.0
  0
LINE
  5
34B
330
1F
100
AcDbEntity
  8
0-0
  6
JWW_DASHED1
 62
   120
370
     5
100
AcDbLine
 10
178.0890882856703
 20
-920.9768862760794
 30
0.0
 11
377.265658043981
 21
-721.8003165177685
 31
0.0
  0
LINE
  5
34C
330
1F
100
AcDbEntity
  8
0-0
  6
JWW_DASHED1
 62
   120
370
     5
100
AcDbLine
 10
467.2656580439725
 20
-631.8003165177774
 30
0.0
 11
717.26565804398
 21
-381.8003165177698
 31
0.0
  0
LINE
  5
34D
330
1F
100
AcDbEntity
  8
0-0
  6
JWW_DASHED1
 62
   120
370
     5
100
AcDbLine
 10
171.0180204723895
 20
-920.976886276075
 30
0.0
 11
377.2656580439772
 21
-714.7292487044872
 31
0.0
  0
LINE
  5
34E
330
1F
100
AcDbEntity
  8
0-0
  6
JWW_DASHED1
 62
   120
370
     5
100
AcDbLine
 10
467.2656580439687
 20
-624.7292487044957
 30
0.0
 11
717.2656580439758
 21
-374.7292487044882
 31
0.0
  0
LINE
  5
34F
330
1F
100
AcDbEntity
  8
0-0
  6
JWW_DASHED1
 62
   120
370
     5
100
AcDbLine
 10
163.9469526590946
 20
-920.9768862760843
 30
0.0
 11
377.265658043973
 21
-707.658180891206
 31
0.0
  0
LINE
  5
350
330
1F
100
AcDbEntity
  8
0-0
  6
JWW_DASHED1
 62
   120
370
     5
100
AcDbLine
 10
467.2656580439649
 20
-617.6581808912141
 30
0.0
 11
717.2656580439719
 21
-367.658180891207
 31
0.0
  0
LINE
  5
351
330
1F
100
AcDbEntity
  8
0-0
  6
JWW_DASHED1
 62
   120
370
     5
100
AcDbLine
 10
156.8758848458125
 20
-920.9768862760806
 30
0.0
 11
377.2656580439691
 21
-700.587113077924
 31
0.0
  0
LINE
  5
352
330
1F
100
AcDbEntity
  8
0-0
  6
JWW_DASHED1
 62
   120
370
     5
100
AcDbLine
 10
467.2656580439768
 20
-610.5871130779167
 30
0.0
 11
717.2656580439677
 21
-360.5871130779258
 31
0.0
  0
LINE
  5
353
330
1F
100
AcDbEntity
  8
0-0
  6
JWW_DASHED1
 62
   120
370
     5
100
AcDbLine
 10
149.8048170325309
 20
-920.9768862760769
 30
0.0
 11
377.2656580439653
 21
-693.5160452646427
 31
0.0
  0
LINE
  5
354
330
1F
100
AcDbEntity
  8
0-0
  6
JWW_DASHED1
 62
   120
370
     5
100
AcDbLine
 10
467.2656580439725
 20
-603.5160452646355
 30
0.0
 11
717.2656580439634
 21
-353.5160452646446
 31
0.0
  0
LINE
  5
355
330
1F
100
AcDbEntity
  8
0-0
  6
JWW_DASHED1
 62
   120
370
     5
100
AcDbLine
 10
142.7337492192335
 20
-920.9768862760891
 30
0.0
 11
377.2656580439747
 21
-686.4449774513479
 31
0.0
  0
LINE
  5
356
330
1F
100
AcDbEntity
  8
0-0
  6
JWW_DASHED1
 62
   120
370
     5
100
AcDbLine
 10
467.2656580439815
 20
-596.4449774513411
 30
0.0
 11
717.2656580439707
 21
-346.4449774513519
 31
0.0
  0
LINE
  5
357
330
1F
100
AcDbEntity
  8
0-0
  6
JWW_DASHED1
 62
   120
370
     5
100
AcDbLine
 10
135.6626814059518
 20
-920.976886276085
 30
0.0
 11
377.2656580439713
 21
-679.3739096380658
 31
0.0
  0
LINE
  5
358
330
1F
100
AcDbEntity
  8
0-0
  6
JWW_DASHED1
 62
   120
370
     5
100
AcDbLine
 10
467.2656580439772
 20
-589.3739096380598
 30
0.0
 11
717.2656580439664
 21
-339.3739096380706
 31
0.0
  0
LINE
  5
359
330
1F
100
AcDbEntity
  8
0-0
  6
JWW_DASHED1
 62
   120
370
     5
100
AcDbLine
 10
128.5916135927286
 20
-920.976886276077
 30
0.0
 11
377.2656580439802
 21
-672.3028418248255
 31
0.0
  0
LINE
  5
35A
330
1F
100
AcDbEntity
  8
0-0
  6
JWW_DASHED1
 62
   120
370
     5
100
AcDbLine
 10
467.2656580439717
 20
-582.3028418248344
 30
0.0
 11
717.2656580439792
 21
-332.3028418248269
 31
0.0
  0
LINE
  5
35B
330
1F
100
AcDbEntity
  8
0-0
  6
JWW_DASHED1
 62
   120
370
     5
100
AcDbLine
 10
127.265658043971
 20
-915.2317740115493
 30
0.0
 11
377.2656580439764
 21
-665.2317740115443
 31
0.0
  0
LINE
  5
35C
330
1F
100
AcDbEntity
  8
0-0
  6
JWW_DASHED1
 62
   120
370
     5
100
AcDbLine
 10
467.2656580439678
 20
-575.2317740115528
 30
0.0
 11
717.2656580439746
 21
-325.2317740115461
 31
0.0
  0
LINE
  5
35D
330
1F
100
AcDbEntity
  8
0-0
  6
JWW_DASHED1
 62
   120
370
     5
100
AcDbLine
 10
127.2656580439829
 20
-908.1607061982522
 30
0.0
 11
377.2656580439721
 21
-658.160706198263
 31
0.0
  0
LINE
  5
35E
330
1F
100
AcDbEntity
  8
0-0
  6
JWW_DASHED1
 62
   120
370
     5
100
AcDbLine
 10
467.2656580439793
 20
-568.1607061982559
 30
0.0
 11
717.2656580439711
 21
-318.1607061982641
 31
0.0
  0
LINE
  5
35F
330
1F
100
AcDbEntity
  8
0-0
  6
JWW_DASHED1
 62
   120
370
     5
100
AcDbLine
 10
127.2656580439786
 20
-901.0896383849708
 30
0.0
 11
377.2656580439683
 21
-651.0896383849814
 31
0.0
  0
LINE
  5
360
330
1F
100
AcDbEntity
  8
0-0
  6
JWW_DASHED1
 62
   120
370
     5
100
AcDbLine
 10
467.2656580439759
 20
-561.0896383849738
 30
0.0
 11
717.2656580439668
 21
-311.0896383849828
 31
0.0
  0
LINE
  5
361
330
1F
100
AcDbEntity
  8
0-0
  6
JWW_DASHED1
 62
   120
370
     5
100
AcDbLine
 10
127.2656580439744
 20
-894.0185705716895
 30
0.0
 11
377.2656580439644
 21
-644.0185705716998
 31
0.0
  0
LINE
  5
362
330
1F
100
AcDbEntity
  8
0-0
  6
JWW_DASHED1
 62
   120
370
     5
100
AcDbLine
 10
467.2656580439713
 20
-554.018570571693
 30
0.0
 11
717.2656580439626
 21
-304.0185705717016
 31
0.0
  0
LINE
  5
363
330
1F
100
AcDbEntity
  8
0-0
  6
JWW_DASHED1
 62
   120
370
     5
100
AcDbLine
 10
127.2656580439863
 20
-886.9475027583924
 30
0.0
 11
377.2656580439738
 21
-636.9475027584049
 31
0.0
  0
LINE
  5
364
330
1F
100
AcDbEntity
  8
0-0
  6
JWW_DASHED1
 62
   120
370
     5
100
AcDbLine
 10
467.2656580439802
 20
-546.9475027583985
 30
0.0
 11
717.2656580439694
 21
-296.9475027584093
 31
0.0
  0
LINE
  5
365
330
1F
100
AcDbEntity
  8
0-0
  6
JWW_DASHED1
 62
   120
370
     5
100
AcDbLine
 10
127.2656580439821
 20
-879.8764349451108
 30
0.0
 11
377.2656580439696
 21
-629.8764349451233
 31
0.0
  0
LINE
  5
366
330
1F
100
AcDbEntity
  8
0-0
  6
JWW_DASHED1
 62
   120
370
     5
100
AcDbLine
 10
467.2656580439759
 20
-539.8764349451174
 30
0.0
 11
717.2656580439656
 21
-289.8764349451277
 31
0.0
  0
LINE
  5
367
330
1F
100
AcDbEntity
  8
0-0
  6
JWW_DASHED1
 62
   120
370
     5
100
AcDbLine
 10
127.2656580439786
 20
-872.8053671318291
 30
0.0
 11
377.2656580439836
 21
-622.8053671318241
 31
0.0
  0
LINE
  5
368
330
1F
100
AcDbEntity
  8
0-0
  6
JWW_DASHED1
 62
   120
370
     5
100
AcDbLine
 10
467.2656580439755
 20
-532.8053671318322
 30
0.0
 11
717.2656580439664
 21
-282.8053671318409
 31
0.0
  0
LINE
  5
369
330
1F
100
AcDbEntity
  8
0-0
  6
JWW_DASHED1
 62
   120
370
     5
100
AcDbLine
 10
127.2656580439744
 20
-865.7342993185475
 30
0.0
 11
377.2656580439793
 21
-615.734299318543
 31
0.0
  0
LINE
  5
36A
330
1F
100
AcDbEntity
  8
0-0
  6
JWW_DASHED1
 62
   120
370
     5
100
AcDbLine
 10
467.2656580439713
 20
-525.7342993185506
 30
0.0
 11
717.265658043978
 21
-275.7342993185443
 31
0.0
  0
LINE
  5
36B
330
1F
100
AcDbEntity
  8
0-0
  6
JWW_DASHED1
 62
   120
370
     5
100
AcDbLine
 10
127.2656580439821
 20
-858.6632315053093
 30
0.0
 11
377.2656580439717
 21
-608.6632315053197
 31
0.0
  0
LINE
  5
36C
330
1F
100
AcDbEntity
  8
0-0
  6
JWW_DASHED1
 62
   120
370
     5
100
AcDbLine
 10
467.2656580439785
 20
-518.6632315053129
 30
0.0
 11
717.2656580439702
 21
-268.6632315053211
 31
0.0
  0
LINE
  5
36D
330
1F
100
AcDbEntity
  8
0-0
  6
JWW_DASHED1
 62
   120
370
     5
100
AcDbLine
 10
127.2656580439778
 20
-851.5921636920277
 30
0.0
 11
377.265658043967
 21
-601.5921636920389
 31
0.0
  0
LINE
  5
36E
330
1F
100
AcDbEntity
  8
0-0
  6
JWW_DASHED1
 62
   120
370
     5
100
AcDbLine
 10
467.2656580439751
 20
-511.5921636920308
 30
0.0
 11
717.2656580439656
 21
-261.5921636920403
 31
0.0
  0
LINE
  5
36F
330
1F
100
AcDbEntity
  8
0-0
  6
JWW_DASHED1
 62
   120
370
     5
100
AcDbLine
 10
127.2656580439735
 20
-844.5210958787467
 30
0.0
 11
377.2656580439636
 21
-594.5210958787568
 31
0.0
  0
LINE
  5
370
330
1F
100
AcDbEntity
  8
0-0
  6
JWW_DASHED1
 62
   120
370
     5
100
AcDbLine
 10
467.2656580439704
 20
-504.52109587875
 30
0.0
 11
717.2656580439617
 21
-254.5210958787587
 31
0.0
  0
LINE
  5
371
330
1F
100
AcDbEntity
  8
0-0
  6
JWW_DASHED1
 62
   120
370
     5
100
AcDbLine
 10
127.265658043985
 20
-837.4500280654499
 30
0.0
 11
377.2656580439721
 21
-587.4500280654628
 31
0.0
  0
LINE
  5
372
330
1F
100
AcDbEntity
  8
0-0
  6
JWW_DASHED1
 62
   120
370
     5
100
AcDbLine
 10
467.2656580439793
 20
-497.4500280654556
 30
0.0
 11
717.2656580439682
 21
-247.4500280654668
 31
0.0
  0
LINE
  5
373
330
1F
100
AcDbEntity
  8
0-0
  6
JWW_DASHED1
 62
   120
370
     5
100
AcDbLine
 10
127.2656580439816
 20
-830.3789602521674
 30
0.0
 11
377.2656580439866
 21
-580.3789602521629
 31
0.0
  0
LINE
  5
374
330
1F
100
AcDbEntity
  8
0-0
  6
JWW_DASHED1
 62
   120
370
     5
100
AcDbLine
 10
467.2656580439781
 20
-490.3789602521714
 30
0.0
 11
717.2656580439698
 21
-240.3789602521796
 31
0.0
  0
LINE
  5
375
330
1F
100
AcDbEntity
  8
0-0
  6
JWW_DASHED1
 62
   120
370
     5
100
AcDbLine
 10
127.2656580439774
 20
-823.3078924388866
 30
0.0
 11
377.2656580439827
 21
-573.3078924388813
 31
0.0
  0
LINE
  5
376
330
1F
100
AcDbEntity
  8
0-0
  6
JWW_DASHED1
 62
   120
370
     5
100
AcDbLine
 10
467.2656580439747
 20
-483.3078924388893
 30
0.0
 11
717.2656580439814
 21
-233.3078924388826
 31
0.0
  0
LINE
  5
377
330
1F
100
AcDbEntity
  8
0-0
  6
JWW_DASHED1
 62
   120
370
     5
100
AcDbLine
 10
127.2656580439735
 20
-816.236824625605
 30
0.0
 11
377.2656580439785
 21
-566.2368246256
 31
0.0
  0
LINE
  5
378
330
1F
100
AcDbEntity
  8
0-0
  6
JWW_DASHED1
 62
   120
370
     5
100
AcDbLine
 10
467.2656580439704
 20
-476.2368246256081
 30
0.0
 11
717.265658043977
 21
-226.2368246256014
 31
0.0
  0
LINE
  5
379
330
1F
100
AcDbEntity
  8
0-0
  6
JWW_DASHED1
 62
   120
370
     5
100
AcDbLine
 10
127.265658043985
 20
-809.1657568123076
 30
0.0
 11
377.2656580439747
 21
-559.1657568123184
 31
0.0
  0
LINE
  5
37A
330
1F
100
AcDbEntity
  8
0-0
  6
JWW_DASHED1
 62
   120
370
     5
100
AcDbLine
 10
467.2656580439661
 20
-469.1657568123269
 30
0.0
 11
717.2656580439732
 21
-219.1657568123198
 31
0.0
  0
LINE
  5
37B
330
1F
100
AcDbEntity
  8
0-0
  6
JWW_DASHED1
 62
   120
370
     5
100
AcDbLine
 10
127.2656580439812
 20
-802.0946889990263
 30
0.0
 11
377.2656580439704
 21
-552.0946889990366
 31
0.0
  0
LINE
  5
37C
330
1F
100
AcDbEntity
  8
0-0
  6
JWW_DASHED1
 62
   120
370
     5
100
AcDbLine
 10
467.2656580439781
 20
-462.0946889990295
 30
0.0
 11
717.265658043969
 21
-212.0946889990381
 31
0.0
  0
LINE
  5
37D
330
1F
100
AcDbEntity
  8
0-0
  6
JWW_DASHED1
 62
   120
370
     5
100
AcDbLine
 10
127.2656580439727
 20
-795.0236211858034
 30
0.0
 11
377.2656580439627
 21
-545.0236211858139
 31
0.0
  0
LINE
  5
37E
330
1F
100
AcDbEntity
  8
0-0
  6
JWW_DASHED1
 62
   120
370
     5
100
AcDbLine
 10
467.2656580439696
 20
-455.0236211858071
 30
0.0
 11
717.2656580439609
 21
-205.0236211858157
 31
0.0
  0
LINE
  5
37F
330
1F
100
AcDbEntity
  8
0-0
  6
JWW_DASHED1
 62
   120
370
     5
100
AcDbLine
 10
127.2656580439838
 20
-787.9525533725074
 30
0.0
 11
377.2656580439713
 21
-537.9525533725199
 31
0.0
  0
LINE
  5
380
330
1F
100
AcDbEntity
  8
0-0
  6
JWW_DASHED1
 62
   120
370
     5
100
AcDbLine
 10
467.2656580439776
 20
-447.9525533725131
 30
0.0
 11
717.2656580439668
 21
-197.9525533725243
 31
0.0
  0
LINE
  5
381
330
1F
100
AcDbEntity
  8
0-0
  6
JWW_DASHED1
 62
   120
370
     5
100
AcDbLine
 10
127.2656580439808
 20
-780.8814855592249
 30
0.0
 11
377.2656580439858
 21
-530.8814855592199
 31
0.0
  0
LINE
  5
382
330
1F
100
AcDbEntity
  8
0-0
  6
JWW_DASHED1
 62
   120
370
     5
100
AcDbLine
 10
467.2656580439772
 20
-440.8814855592284
 30
0.0
 11
717.265658043969
 21
-190.8814855592367
 31
0.0
  0
LINE
  5
383
330
1F
100
AcDbEntity
  8
0-0
  6
JWW_DASHED1
 62
   120
370
     5
100
AcDbLine
 10
127.2656580439765
 20
-773.8104177459436
 30
0.0
 11
377.2656580439819
 21
-523.8104177459383
 31
0.0
  0
LINE
  5
384
330
1F
100
AcDbEntity
  8
0-0
  6
JWW_DASHED1
 62
   120
370
     5
100
AcDbLine
 10
467.2656580439738
 20
-433.8104177459463
 30
0.0
 11
717.2656580439805
 21
-183.8104177459397
 31
0.0
  0
LINE
  5
385
330
1F
100
AcDbEntity
  8
0-0
  6
JWW_DASHED1
 62
   120
370
     5
100
AcDbLine
 10
127.2656580439723
 20
-766.7393499326624
 30
0.0
 11
377.2656580439776
 21
-516.739349932657
 31
0.0
  0
LINE
  5
386
330
1F
100
AcDbEntity
  8
0-0
  6
JWW_DASHED1
 62
   120
370
     5
100
AcDbLine
 10
467.2656580439696
 20
-426.7393499326652
 30
0.0
 11
717.2656580439763
 21
-176.7393499326585
 31
0.0
  0
LINE
  5
387
330
1F
100
AcDbEntity
  8
0-0
  6
JWW_DASHED1
 62
   120
370
     5
100
AcDbLine
 10
127.2656580439846
 20
-759.6682821193646
 30
0.0
 11
377.2656580439742
 21
-509.668282119375
 31
0.0
  0
LINE
  5
388
330
1F
100
AcDbEntity
  8
0-0
  6
JWW_DASHED1
 62
   120
370
     5
100
AcDbLine
 10
467.2656580439653
 20
-419.6682821193839
 30
0.0
 11
717.2656580439724
 21
-169.6682821193768
 31
0.0
  0
LINE
  5
389
330
1F
100
AcDbEntity
  8
0-0
  6
JWW_DASHED1
 62
   120
370
     5
100
AcDbLine
 10
127.2656580439804
 20
-752.5972143060834
 30
0.0
 11
377.2656580439696
 21
-502.5972143060937
 31
0.0
  0
LINE
  5
38A
330
1F
100
AcDbEntity
  8
0-0
  6
JWW_DASHED1
 62
   120
370
     5
100
AcDbLine
 10
467.2656580439772
 20
-412.5972143060865
 30
0.0
 11
717.2656580439685
 21
-162.5972143060952
 31
0.0
  0
LINE
  5
38B
330
1F
100
AcDbEntity
  8
0-0
  6
JWW_DASHED1
 62
   120
370
     5
100
AcDbLine
 10
127.2656580439761
 20
-745.5261464928021
 30
0.0
 11
377.2656580439657
 21
-495.5261464928125
 31
0.0
  0
LINE
  5
38C
330
1F
100
AcDbEntity
  8
0-0
  6
JWW_DASHED1
 62
   120
370
     5
100
AcDbLine
 10
467.2656580439734
 20
-405.5261464928049
 30
0.0
 11
717.2656580439643
 21
-155.526146492814
 31
0.0
  0
LINE
  5
38D
330
1F
100
AcDbEntity
  8
0-0
  6
JWW_DASHED1
 62
   120
370
     5
100
AcDbLine
 10
127.2656580439723
 20
-738.45507867952
 30
0.0
 11
377.2656580439615
 21
-488.4550786795309
 31
0.0
  0
LINE
  5
38E
330
1F
100
AcDbEntity
  8
0-0
  6
JWW_DASHED1
 62
   120
370
     5
100
AcDbLine
 10
467.2656580439691
 20
-398.4550786795236
 30
0.0
 11
717.2656580439605
 21
-148.4550786795323
 31
0.0
  0
LINE
  5
38F
330
1F
100
AcDbEntity
  8
0-0
  6
JWW_DASHED1
 62
   120
370
     5
100
AcDbLine
 10
127.2656580439829
 20
-731.3840108662243
 30
0.0
 11
377.26565804397
 21
-481.3840108662373
 31
0.0
  0
LINE
  5
390
330
1F
100
AcDbEntity
  8
0-0
  6
JWW_DASHED1
 62
   120
370
     5
100
AcDbLine
 10
467.2656580439764
 20
-391.3840108662305
 30
0.0
 11
717.2656580439656
 21
-141.3840108662417
 31
0.0
  0
LINE
  5
391
330
1F
100
AcDbEntity
  8
0-0
  6
JWW_DASHED1
 62
   120
370
     5
100
AcDbLine
 10
127.2656580439757
 20
-724.3129430530007
 30
0.0
 11
377.265658043981
 21
-474.3129430529953
 31
0.0
  0
LINE
  5
392
330
1F
100
AcDbEntity
  8
0-0
  6
JWW_DASHED1
 62
   120
370
     5
100
AcDbLine
 10
467.265658043973
 20
-384.3129430530034
 30
0.0
 11
717.2656580439797
 21
-134.3129430529967
 31
0.0
  0
LINE
  5
393
330
1F
100
AcDbEntity
  8
0-0
  6
JWW_DASHED1
 62
   120
370
     5
100
AcDbLine
 10
127.2656580439714
 20
-717.2418752397195
 30
0.0
 11
377.2656580439768
 21
-467.2418752397136
 31
0.0
  0
LINE
  5
394
330
1F
100
AcDbEntity
  8
0-0
  6
JWW_DASHED1
 62
   120
370
     5
100
AcDbLine
 10
467.2656580439683
 20
-377.2418752397226
 30
0.0
 11
717.2656580439753
 21
-127.2418752397151
 31
0.0
  0
LINE
  5
395
330
1F
100
AcDbEntity
  8
0-0
  6
JWW_DASHED1
 62
   120
370
     5
100
AcDbLine
 10
127.2656580439838
 20
-710.1708074264217
 30
0.0
 11
377.265658043973
 21
-460.1708074264325
 31
0.0
  0
LINE
  5
396
330
1F
100
AcDbEntity
  8
0-0
  6
JWW_DASHED1
 62
   120
370
     5
100
AcDbLine
 10
467.2656580439644
 20
-370.170807426441
 30
0.0
 11
717.2656580439716
 21
-120.1708074264339
 31
0.0
  0
LINE
  5
397
330
1F
100
AcDbEntity
  8
0-0
  6
JWW_DASHED1
 62
   120
370
     5
100
AcDbLine
 10
127.2656580439795
 20
-703.0997396131404
 30
0.0
 11
377.2656580439687
 21
-453.0997396131512
 31
0.0
  0
LINE
  5
398
330
1F
100
AcDbEntity
  8
0-0
  6
JWW_DASHED1
 62
   120
370
     5
100
AcDbLine
 10
467.2656580439764
 20
-363.0997396131436
 30
0.0
 11
717.2656580439677
 21
-113.0997396131522
 31
0.0
  0
LINE
  5
399
330
1F
100
AcDbEntity
  8
0-0
  6
JWW_DASHED1
 62
   120
370
     5
100
AcDbLine
 10
127.2656580439752
 20
-696.0286717998592
 30
0.0
 11
377.2656580439649
 21
-446.0286717998696
 31
0.0
  0
LINE
  5
39A
330
1F
100
AcDbEntity
  8
0-0
  6
JWW_DASHED1
 62
   120
370
     5
100
AcDbLine
 10
467.2656580439725
 20
-356.0286717998619
 30
0.0
 11
717.2656580439634
 21
-106.028671799871
 31
0.0
  0
LINE
  5
39B
330
1F
100
AcDbEntity
  8
0-0
  6
JWW_DASHED1
 62
   120
370
     5
100
AcDbLine
 10
127.265658043985
 20
-688.9576039865635
 30
0.0
 11
377.265658043973
 21
-438.957603986576
 31
0.0
  0
LINE
  5
39C
330
1F
100
AcDbEntity
  8
0-0
  6
JWW_DASHED1
 62
   120
370
     5
100
AcDbLine
 10
467.2656580439793
 20
-348.9576039865696
 30
0.0
 11
717.2656580439682
 21
-98.95760398658084
 31
0.0
  0
LINE
  5
39D
330
1F
100
AcDbEntity
  8
0-0
  6
JWW_DASHED1
 62
   120
370
     5
100
AcDbLine
 10
127.2656580439812
 20
-681.8865361732823
 30
0.0
 11
377.2656580439683
 21
-431.8865361732952
 31
0.0
  0
LINE
  5
39E
330
1F
100
AcDbEntity
  8
0-0
  6
JWW_DASHED1
 62
   120
370
     5
100
AcDbLine
 10
467.2656580439755
 20
-341.8865361732879
 30
0.0
 11
717.2656580439648
 21
-91.88653617329877
 31
0.0
  0
LINE
  5
39F
330
1F
100
AcDbEntity
  8
0-0
  6
JWW_DASHED1
 62
   120
370
     5
100
AcDbLine
 10
127.2656580439791
 20
-674.8154683599985
 30
0.0
 11
377.2656580439844
 21
-424.8154683599935
 31
0.0
  0
LINE
  5
3A0
330
1F
100
AcDbEntity
  8
0-0
  6
JWW_DASHED1
 62
   120
370
     5
100
AcDbLine
 10
467.2656580439759
 20
-334.8154683600021
 30
0.0
 11
717.2656580439668
 21
-84.81546836001115
 31
0.0
  0
LINE
  5
3A1
330
1F
100
AcDbEntity
  8
0-0
  6
JWW_DASHED1
 62
   120
370
     5
100
AcDbLine
 10
127.2656580439748
 20
-667.7444005467178
 30
0.0
 11
377.2656580439802
 21
-417.7444005467123
 31
0.0
  0
LINE
  5
3A2
330
1F
100
AcDbEntity
  8
0-0
  6
JWW_DASHED1
 62
   120
370
     5
100
AcDbLine
 10
467.2656580439717
 20
-327.7444005467204
 30
0.0
 11
717.2656580439788
 21
-77.74440054671373
 31
0.0
  0
LINE
  5
3A3
330
1F
100
AcDbEntity
  8
0-0
  6
JWW_DASHED1
 62
   120
370
     5
100
AcDbLine
 10
127.2656580439829
 20
-660.6733327334787
 30
0.0
 11
377.2656580439721
 21
-410.6733327334895
 31
0.0
  0
LINE
  5
3A4
330
1F
100
AcDbEntity
  8
0-0
  6
JWW_DASHED1
 62
   120
370
     5
100
AcDbLine
 10
467.2656580439793
 20
-320.6733327334823
 30
0.0
 11
717.2656580439702
 21
-70.67333273349135
 31
0.0
  0
LINE
  5
3A5
330
1F
100
AcDbEntity
  8
0-0
  6
JWW_DASHED1
 62
   120
370
     5
100
AcDbLine
 10
127.2656580439786
 20
-653.6022649201975
 30
0.0
 11
377.2656580439678
 21
-403.6022649202083
 31
0.0
  0
LINE
  5
3A6
330
1F
100
AcDbEntity
  8
0-0
  6
JWW_DASHED1
 62
   120
370
     5
100
AcDbLine
 10
467.2656580439751
 20
-313.602264920201
 30
0.0
 11
717.2656580439668
 21
-63.60226492020928
 31
0.0
  0
LINE
  5
3A7
330
1F
100
AcDbEntity
  8
0-0
  6
JWW_DASHED1
 62
   120
370
     5
100
AcDbLine
 10
127.2656580439744
 20
-646.5311971069162
 30
0.0
 11
377.265658043964
 21
-396.5311971069266
 31
0.0
  0
LINE
  5
3A8
330
1F
100
AcDbEntity
  8
0-0
  6
JWW_DASHED1
 62
   120
370
     5
100
AcDbLine
 10
467.2656580439717
 20
-306.531197106919
 30
0.0
 11
717.2656580439626
 21
-56.53119710692806
 31
0.0
  0
LINE
  5
3A9
330
1F
100
AcDbEntity
  8
0-0
  6
JWW_DASHED1
 62
   120
370
     5
100
AcDbLine
 10
127.2656580439842
 20
-639.460129293621
 30
0.0
 11
377.2656580439713
 21
-389.4601292936335
 31
0.0
  0
LINE
  5
3AA
330
1F
100
AcDbEntity
  8
0-0
  6
JWW_DASHED1
 62
   120
370
     5
100
AcDbLine
 10
467.2656580439781
 20
-299.4601292936271
 30
0.0
 11
717.2656580439668
 21
-49.46012929363832
 31
0.0
  0
LINE
  5
3AB
330
1F
100
AcDbEntity
  8
0-0
  6
JWW_DASHED1
 62
   120
370
     5
100
AcDbLine
 10
127.2656580439821
 20
-632.3890614803372
 30
0.0
 11
377.2656580439721
 21
-382.3890614803476
 31
0.0
  0
LINE
  5
3AC
330
1F
100
AcDbEntity
  8
0-0
  6
JWW_DASHED1
 62
   120
370
     5
100
AcDbLine
 10
467.2656580439789
 20
-292.3890614803403
 30
0.0
 11
717.2656580439702
 21
-42.38906148034943
 31
0.0
  0
LINE
  5
3AD
330
1F
100
AcDbEntity
  8
0-0
  6
JWW_DASHED1
 62
   120
370
     5
100
AcDbLine
 10
127.2656580439782
 20
-625.317993667056
 30
0.0
 11
377.2656580439836
 21
-375.3179936670506
 31
0.0
  0
LINE
  5
3AE
330
1F
100
AcDbEntity
  8
0-0
  6
JWW_DASHED1
 62
   120
370
     5
100
AcDbLine
 10
467.2656580439751
 20
-285.3179936670591
 30
0.0
 11
717.2656580439818
 21
-35.31799366705243
 31
0.0
  0
LINE
  5
3AF
330
1F
100
AcDbEntity
  8
0-0
  6
JWW_DASHED1
 62
   120
370
     5
100
AcDbLine
 10
127.265658043974
 20
-618.2469258537748
 30
0.0
 11
377.2656580439793
 21
-368.2469258537694
 31
0.0
  0
LINE
  5
3B0
330
1F
100
AcDbEntity
  8
0-0
  6
JWW_DASHED1
 62
   120
370
     5
100
AcDbLine
 10
467.2656580439708
 20
-278.2469258537775
 30
0.0
 11
717.2656580439784
 21
-28.24692585377036
 31
0.0
  0
LINE
  5
3B1
330
1F
100
AcDbEntity
  8
0-0
  6
JWW_DASHED1
 62
   120
370
     5
100
AcDbLine
 10
127.2656580439859
 20
-611.1758580404774
 30
0.0
 11
377.2656580439751
 21
-361.1758580404882
 31
0.0
  0
LINE
  5
3B2
330
1F
100
AcDbEntity
  8
0-0
  6
JWW_DASHED1
 62
   120
370
     5
100
AcDbLine
 10
467.265658043967
 20
-271.1758580404962
 30
0.0
 11
717.2656580439736
 21
-21.17585804048957
 31
0.0
  0
LINE
  5
3B3
330
1F
100
AcDbEntity
  8
0-0
  6
JWW_DASHED1
 62
   120
370
     5
100
AcDbLine
 10
127.2656580439816
 20
-604.1047902271957
 30
0.0
 11
377.2656580439717
 21
-354.1047902272061
 31
0.0
  0
LINE
  5
3B4
330
1F
100
AcDbEntity
  8
0-0
  6
JWW_DASHED1
 62
   120
370
     5
100
AcDbLine
 10
467.2656580439785
 20
-264.1047902271993
 30
0.0
 11
717.2656580439698
 21
-14.10479022720793
 31
0.0
  0
LINE
  5
3B5
330
1F
100
AcDbEntity
  8
0-0
  6
JWW_DASHED1
 62
   120
370
     5
100
AcDbLine
 10
127.2656580439778
 20
-597.0337224139145
 30
0.0
 11
377.2656580439674
 21
-347.0337224139249
 31
0.0
  0
LINE
  5
3B6
330
1F
100
AcDbEntity
  8
0-0
  6
JWW_DASHED1
 62
   120
370
     5
100
AcDbLine
 10
467.2656580439747
 20
-257.0337224139176
 30
0.0
 11
717.265658043966
 21
-7.033722413926284
 31
0.0
  0
LINE
  5
3B7
330
1F
100
AcDbEntity
  8
0-0
  6
JWW_DASHED1
 62
   120
370
     5
100
AcDbLine
 10
127.2656580439825
 20
-589.9626546006784
 30
0.0
 11
377.26565804397
 21
-339.9626546006914
 31
0.0
  0
LINE
  5
3B8
330
1F
100
AcDbEntity
  8
0-0
  6
JWW_DASHED1
 62
   120
370
     5
100
AcDbLine
 10
467.2656580439764
 20
-249.962654600685
 30
0.0
 11
717.265658043966
 21
0.0373453993046269
 31
0.0
  0
LINE
  5
3B9
330
1F
100
AcDbEntity
  8
0-0
  6
JWW_DASHED1
 62
   120
370
     5
100
AcDbLine
 10
127.2656580439816
 20
-582.8915867873943
 30
0.0
 11
377.2656580439871
 21
-332.8915867873889
 31
0.0
  0
LINE
  5
3BA
330
1F
100
AcDbEntity
  8
0-0
  6
JWW_DASHED1
 62
   120
370
     5
100
AcDbLine
 10
467.2656580439781
 20
-242.8915867873978
 30
0.0
 11
717.2656580439694
 21
7.108413212593518
 31
0.0
  0
LINE
  5
3BB
330
1F
100
AcDbEntity
  8
0-0
  6
JWW_DASHED1
 62
   120
370
     5
100
AcDbLine
 10
127.2656580439774
 20
-575.8205189741126
 30
0.0
 11
377.2656580439827
 21
-325.8205189741076
 31
0.0
  0
LINE
  5
3BC
330
1F
100
AcDbEntity
  8
0-0
  6
JWW_DASHED1
 62
   120
370
     5
100
AcDbLine
 10
467.2656580439742
 20
-235.8205189741162
 30
0.0
 11
717.2656580439809
 21
14.17948102589051
 31
0.0
  0
LINE
  5
3BD
330
1F
100
AcDbEntity
  8
0-0
  6
JWW_DASHED1
 62
   120
370
     5
100
AcDbLine
 10
127.2656580439731
 20
-568.7494511608318
 30
0.0
 11
377.2656580439785
 21
-318.7494511608264
 31
0.0
  0
LINE
  5
3BE
330
1F
100
AcDbEntity
  8
0-0
  6
JWW_DASHED1
 62
   120
370
     5
100
AcDbLine
 10
467.26565804397
 20
-228.7494511608345
 30
0.0
 11
717.2656580439766
 21
21.25054883917173
 31
0.0
  0
LINE
  5
3BF
330
1F
100
AcDbEntity
  8
0-0
  6
JWW_DASHED1
 62
   120
370
     5
100
AcDbLine
 10
127.265658043985
 20
-561.6783833475345
 30
0.0
 11
377.2656580439742
 21
-311.6783833475452
 31
0.0
  0
LINE
  5
3C0
330
1F
100
AcDbEntity
  8
0-0
  6
JWW_DASHED1
 62
   120
370
     5
100
AcDbLine
 10
467.2656580439661
 20
-221.6783833475533
 30
0.0
 11
717.2656580439728
 21
28.32161665245337
 31
0.0
  0
LINE
  5
3C1
330
1F
100
AcDbEntity
  8
0-0
  6
JWW_DASHED1
 62
   120
370
     5
100
AcDbLine
 10
127.2656580439808
 20
-554.6073155342527
 30
0.0
 11
377.2656580439704
 21
-304.6073155342635
 31
0.0
  0
LINE
  5
3C2
330
1F
100
AcDbEntity
  8
0-0
  6
JWW_DASHED1
 62
   120
370
     5
100
AcDbLine
 10
467.2656580439776
 20
-214.6073155342563
 30
0.0
 11
717.265658043969
 21
35.39268446573502
 31
0.0
  0
LINE
  5
3C3
330
1F
100
AcDbEntity
  8
0-0
  6
JWW_DASHED1
 62
   120
370
     5
100
AcDbLine
 10
127.2656580439769
 20
-547.5362477209711
 30
0.0
 11
377.2656580439666
 21
-297.5362477209819
 31
0.0
  0
LINE
  5
3C4
330
1F
100
AcDbEntity
  8
0-0
  6
JWW_DASHED1
 62
   120
370
     5
100
AcDbLine
 10
467.2656580439738
 20
-207.5362477209747
 30
0.0
 11
717.2656580439651
 21
42.46375227901666
 31
0.0
  0
LINE
  5
3C5
330
1F
100
AcDbEntity
  8
0-0
  6
JWW_DASHED1
 62
   120
370
     5
100
AcDbLine
 10
127.2656580439731
 20
-540.4651799076898
 30
0.0
 11
377.2656580439623
 21
-290.4651799077007
 31
0.0
  0
LINE
  5
3C6
330
1F
100
AcDbEntity
  8
0-0
  6
JWW_DASHED1
 62
   120
370
     5
100
AcDbLine
 10
467.26565804397
 20
-200.465179907693
 30
0.0
 11
717.2656580439614
 21
49.5348200922983
 31
0.0
  0
LINE
  5
3C7
330
1F
100
AcDbEntity
  8
0-0
  6
JWW_DASHED1
 62
   120
370
     5
100
AcDbLine
 10
127.2656580439816
 20
-533.394112094396
 30
0.0
 11
377.2656580439691
 21
-283.3941120944084
 31
0.0
  0
LINE
  5
3C8
330
1F
100
AcDbEntity
  8
0-0
  6
JWW_DASHED1
 62
   120
370
     5
100
AcDbLine
 10
467.2656580439759
 20
-193.3941120944016
 30
0.0
 11
717.2656580439648
 21
56.6058879055872
 31
0.0
  0
LINE
  5
3C9
330
1F
100
AcDbEntity
  8
0-0
  6
JWW_DASHED1
 62
   120
370
     5
100
AcDbLine
 10
127.2656580439765
 20
-526.32304428117
 30
0.0
 11
377.2656580439815
 21
-276.3230442811652
 31
0.0
  0
LINE
  5
3CA
330
1F
100
AcDbEntity
  8
0-0
  6
JWW_DASHED1
 62
   120
370
     5
100
AcDbLine
 10
467.265658043973
 20
-186.3230442811737
 30
0.0
 11
717.26565804398
 21
63.67695571883345
 31
0.0
  0
LINE
  5
3CB
330
1F
100
AcDbEntity
  8
0-0
  6
JWW_DASHED1
 62
   120
370
     5
100
AcDbLine
 10
127.2656580439723
 20
-519.2519764678889
 30
0.0
 11
377.2656580439776
 21
-269.2519764678835
 31
0.0
  0
LINE
  5
3CC
330
1F
100
AcDbEntity
  8
0-0
  6
JWW_DASHED1
 62
   120
370
     5
100
AcDbLine
 10
467.2656580439696
 20
-179.2519764678916
 30
0.0
 11
717.2656580439758
 21
70.7480235321151
 31
0.0
  0
LINE
  5
3CD
330
1F
100
AcDbEntity
  8
0-0
  6
JWW_DASHED1
 62
   120
370
     5
100
AcDbLine
 10
127.2656580439842
 20
-512.1809086545915
 30
0.0
 11
377.2656580439734
 21
-262.1809086546023
 31
0.0
  0
LINE
  5
3CE
330
1F
100
AcDbEntity
  8
0-0
  6
JWW_DASHED1
 62
   120
370
     5
100
AcDbLine
 10
467.2656580439653
 20
-172.1809086546104
 30
0.0
 11
717.2656580439719
 21
77.81909134539632
 31
0.0
  0
LINE
  5
3CF
330
1F
100
AcDbEntity
  8
0-0
  6
JWW_DASHED1
 62
   120
370
     5
100
AcDbLine
 10
127.2656580439799
 20
-505.1098408413098
 30
0.0
 11
377.26565804397
 21
-255.1098408413202
 31
0.0
  0
LINE
  5
3D0
330
1F
100
AcDbEntity
  8
0-0
  6
JWW_DASHED1
 62
   120
370
     5
100
AcDbLine
 10
467.2656580439768
 20
-165.1098408413134
 30
0.0
 11
717.2656580439682
 21
84.89015915867796
 31
0.0
  0
LINE
  5
3D1
330
1F
100
AcDbEntity
  8
0-0
  6
JWW_DASHED1
 62
   120
370
     5
100
AcDbLine
 10
127.2656580439761
 20
-498.0387730280282
 30
0.0
 11
377.2656580439653
 21
-248.0387730280394
 31
0.0
  0
LINE
  5
3D2
330
1F
100
AcDbEntity
  8
0-0
  6
JWW_DASHED1
 62
   120
370
     5
100
AcDbLine
 10
467.265658043973
 20
-158.0387730280317
 30
0.0
 11
717.2656580439639
 21
91.96122697195918
 31
0.0
  0
LINE
  5
3D3
330
1F
100
AcDbEntity
  8
0-0
  6
JWW_DASHED1
 62
   120
370
     5
100
AcDbLine
 10
127.2656580439842
 20
-490.9677052147346
 30
0.0
 11
377.2656580439717
 21
-240.9677052147475
 31
0.0
  0
LINE
  5
3D4
330
1F
100
AcDbEntity
  8
0-0
  6
JWW_DASHED1
 62
   120
370
     5
100
AcDbLine
 10
467.2656580439781
 20
-150.9677052147411
 30
0.0
 11
717.2656580439673
 21
99.03229478524807
 31
0.0
  0
LINE
  5
3D5
330
1F
100
AcDbEntity
  8
0-0
  6
JWW_DASHED1
 62
   120
370
     5
100
AcDbLine
 10
127.2656580439804
 20
-483.8966374014534
 30
0.0
 11
377.2656580439674
 21
-233.8966374014663
 31
0.0
  0
LINE
  5
3D6
330
1F
100
AcDbEntity
  8
0-0
  6
JWW_DASHED1
 62
   120
370
     5
100
AcDbLine
 10
467.2656580439742
 20
-143.8966374014595
 30
0.0
 11
717.2656580439634
 21
106.1033625985297
 31
0.0
  0
LINE
  5
3D7
330
1F
100
AcDbEntity
  8
0-0
  6
JWW_DASHED1
 62
   120
370
     5
100
AcDbLine
 10
127.2656580439795
 20
-476.8255695881683
 30
0.0
 11
377.2656580439849
 21
-226.8255695881629
 31
0.0
  0
LINE
  5
3D8
330
1F
100
AcDbEntity
  8
0-0
  6
JWW_DASHED1
 62
   120
370
     5
100
AcDbLine
 10
467.2656580439764
 20
-136.8255695881719
 30
0.0
 11
717.2656580439677
 21
113.1744304118195
 31
0.0
  0
LINE
  5
3D9
330
1F
100
AcDbEntity
  8
0-0
  6
JWW_DASHED1
 62
   120
370
     5
100
AcDbLine
 10
127.2656580439757
 20
-469.7545017748871
 30
0.0
 11
377.265658043981
 21
-219.7545017748817
 31
0.0
  0
LINE
  5
3DA
330
1F
100
AcDbEntity
  8
0-0
  6
JWW_DASHED1
 62
   120
370
     5
100
AcDbLine
 10
467.2656580439725
 20
-129.7545017748902
 30
0.0
 11
717.2656580439797
 21
120.2454982251169
 31
0.0
  0
LINE
  5
3DB
330
1F
100
AcDbEntity
  8
0-0
  6
JWW_DASHED1
 62
   120
370
     5
100
AcDbLine
 10
127.2656580439833
 20
-462.6834339616485
 30
0.0
 11
377.2656580439725
 21
-212.6834339616593
 31
0.0
  0
LINE
  5
3DC
330
1F
100
AcDbEntity
  8
0-0
  6
JWW_DASHED1
 62
   120
370
     5
100
AcDbLine
 10
467.2656580439802
 20
-122.6834339616516
 30
0.0
 11
717.2656580439711
 21
127.3165660383393
 31
0.0
  0
LINE
  5
3DD
330
1F
100
AcDbEntity
  8
0-0
  6
JWW_DASHED1
 62
   120
370
     5
100
AcDbLine
 10
127.2656580439791
 20
-455.6123661483668
 30
0.0
 11
377.2656580439683
 21
-205.6123661483777
 31
0.0
  0
LINE
  5
3DE
330
1F
100
AcDbEntity
  8
0-0
  6
JWW_DASHED1
 62
   120
370
     5
100
AcDbLine
 10
467.2656580439759
 20
-115.6123661483704
 30
0.0
 11
717.2656580439673
 21
134.3876338516209
 31
0.0
  0
LINE
  5
3DF
330
1F
100
AcDbEntity
  8
0-0
  6
JWW_DASHED1
 62
   120
370
     5
100
AcDbLine
 10
127.2656580439752
 20
-448.5412983350857
 30
0.0
 11
377.2656580439644
 21
-198.5412983350965
 31
0.0
  0
LINE
  5
3E0
330
1F
100
AcDbEntity
  8
0-0
  6
JWW_DASHED1
 62
   120
370
     5
100
AcDbLine
 10
467.2656580439721
 20
-108.5412983350888
 30
0.0
 11
717.265658043963
 21
141.4587016649021
 31
0.0
  0
LINE
  5
3E1
330
1F
100
AcDbEntity
  8
0-0
  6
JWW_DASHED1
 62
   120
370
     5
100
AcDbLine
 10
127.2656580439829
 20
-441.4702305217925
 30
0.0
 11
377.2656580439708
 21
-191.4702305218046
 31
0.0
  0
LINE
  5
3E2
330
1F
100
AcDbEntity
  8
0-0
  6
JWW_DASHED1
 62
   120
370
     5
100
AcDbLine
 10
467.2656580439772
 20
-101.4702305217982
 30
0.0
 11
717.2656580439664
 21
148.529769478191
 31
0.0
  0
LINE
  5
3E3
330
1F
100
AcDbEntity
  8
0-0
  6
JWW_DASHED1
 62
   120
370
     5
100
AcDbLine
 10
127.2656580439786
 20
-434.3991627085113
 30
0.0
 11
377.2656580439661
 21
-184.3991627085238
 31
0.0
  0
LINE
  5
3E4
330
1F
100
AcDbEntity
  8
0-0
  6
JWW_DASHED1
 62
   120
370
     5
100
AcDbLine
 10
467.265658043973
 20
-94.39916270851697
 30
0.0
 11
717.2656580439622
 21
155.6008372914722
 31
0.0
  0
LINE
  5
3E5
330
1F
100
AcDbEntity
  8
0-0
  6
JWW_DASHED1
 62
   120
370
     5
100
AcDbLine
 10
127.2656580439786
 20
-427.3280948952254
 30
0.0
 11
377.265658043984
 21
-177.32809489522
 31
0.0
  0
LINE
  5
3E6
330
1F
100
AcDbEntity
  8
0-0
  6
JWW_DASHED1
 62
   120
370
     5
100
AcDbLine
 10
467.2656580439755
 20
-87.32809489522893
 30
0.0
 11
717.2656580439826
 21
162.6719051047782
 31
0.0
  0
LINE
  5
3E7
330
1F
100
AcDbEntity
  8
0-0
  6
JWW_DASHED1
 62
   120
370
     5
100
AcDbLine
 10
127.2656580439748
 20
-420.2570270819442
 30
0.0
 11
377.2656580439802
 21
-170.2570270819388
 31
0.0
  0
LINE
  5
3E8
330
1F
100
AcDbEntity
  8
0-0
  6
JWW_DASHED1
 62
   120
370
     5
100
AcDbLine
 10
467.2656580439717
 20
-80.25702708194729
 30
0.0
 11
717.2656580439784
 21
169.7429729180594
 31
0.0
  0
LINE
  5
3E9
330
1F
100
AcDbEntity
  8
0-0
  6
JWW_DASHED1
 62
   120
370
     5
100
AcDbLine
 10
127.2656580439867
 20
-413.1859592686467
 30
0.0
 11
377.2656580439759
 21
-163.1859592686575
 31
0.0
  0
LINE
  5
3EA
330
1F
100
AcDbEntity
  8
0-0
  6
JWW_DASHED1
 62
   120
370
     5
100
AcDbLine
 10
467.2656580439674
 20
-73.18595926866607
 30
0.0
 11
717.265658043975
 21
176.8140407313415
 31
0.0
  0
LINE
  5
3EB
330
1F
100
AcDbEntity
  8
0-0
  6
JWW_DASHED1
 62
   120
370
     5
100
AcDbLine
 10
127.2656580439825
 20
-406.1148914553655
 30
0.0
 11
377.2656580439721
 21
-156.1148914553759
 31
0.0
  0
LINE
  5
3EC
330
1F
100
AcDbEntity
  8
0-0
  6
JWW_DASHED1
 62
   120
370
     5
100
AcDbLine
 10
467.2656580439798
 20
-66.11489145536822
 30
0.0
 11
717.2656580439707
 21
183.8851085446227
 31
0.0
  0
LINE
  5
3ED
330
1F
100
AcDbEntity
  8
0-0
  6
JWW_DASHED1
 62
   120
370
     5
100
AcDbLine
 10
127.2656580439786
 20
-399.0438236420839
 30
0.0
 11
377.2656580439683
 21
-149.0438236420943
 31
0.0
  0
LINE
  5
3EE
330
1F
100
AcDbEntity
  8
0-0
  6
JWW_DASHED1
 62
   120
370
     5
100
AcDbLine
 10
467.2656580439755
 20
-59.04382364208701
 30
0.0
 11
717.2656580439668
 21
190.9561763579043
 31
0.0
  0
LINE
  5
3EF
330
1F
100
AcDbEntity
  8
0-0
  6
JWW_DASHED1
 62
   120
370
     5
100
AcDbLine
 10
127.2656580439816
 20
-391.9727558288496
 30
0.0
 11
377.2656580439691
 21
-141.9727558288625
 31
0.0
  0
LINE
  5
3F0
330
1F
100
AcDbEntity
  8
0-0
  6
JWW_DASHED1
 62
   120
370
     5
100
AcDbLine
 10
467.2656580439755
 20
-51.97275582885609
 30
0.0
 11
717.2656580439648
 21
198.0272441711331
 31
0.0
  0
LINE
  5
3F1
330
1F
100
AcDbEntity
  8
0-0
  6
JWW_DASHED1
 62
   120
370
     5
100
AcDbLine
 10
127.2656580439821
 20
-384.9016880155641
 30
0.0
 11
377.2656580439871
 21
-134.9016880155591
 31
0.0
  0
LINE
  5
3F2
330
1F
100
AcDbEntity
  8
0-0
  6
JWW_DASHED1
 62
   120
370
     5
100
AcDbLine
 10
467.2656580439785
 20
-44.9016880155672
 30
0.0
 11
717.2656580439702
 21
205.0983119844241
 31
0.0
  0
LINE
  5
3F3
330
1F
100
AcDbEntity
  8
0-0
  6
JWW_DASHED1
 62
   120
370
     5
100
AcDbLine
 10
127.2656580439778
 20
-377.8306202022824
 30
0.0
 11
377.2656580439836
 21
-127.830620202277
 31
0.0
  0
LINE
  5
3F4
330
1F
100
AcDbEntity
  8
0-0
  6
JWW_DASHED1
 62
   120
370
     5
100
AcDbLine
 10
467.2656580439747
 20
-37.83062020228598
 30
0.0
 11
717.2656580439818
 21
212.1693797977211
 31
0.0
  0
LINE
  5
3F5
330
1F
100
AcDbEntity
  8
0-0
  6
JWW_DASHED1
 62
   120
370
     5
100
AcDbLine
 10
127.265658043974
 20
-370.7595523890012
 30
0.0
 11
377.2656580439793
 21
-120.7595523889958
 31
0.0
  0
LINE
  5
3F6
330
1F
100
AcDbEntity
  8
0-0
  6
JWW_DASHED1
 62
   120
370
     5
100
AcDbLine
 10
467.2656580439708
 20
-30.75955238900434
 30
0.0
 11
717.2656580439775
 21
219.2404476110023
 31
0.0
  0
LINE
  5
3F7
330
1F
100
AcDbEntity
  8
0-0
  6
JWW_DASHED1
 62
   120
370
     5
100
AcDbLine
 10
127.2656580439859
 20
-363.6884845757038
 30
0.0
 11
377.2656580439751
 21
-113.6884845757146
 31
0.0
  0
LINE
  5
3F8
330
1F
100
AcDbEntity
  8
0-0
  6
JWW_DASHED1
 62
   120
370
     5
100
AcDbLine
 10
467.2656580439666
 20
-23.68848457572312
 30
0.0
 11
717.2656580439732
 21
226.3115154242836
 31
0.0
  0
LINE
  5
3F9
330
1F
100
AcDbEntity
  8
0-0
  6
JWW_DASHED1
 62
   120
370
     5
100
AcDbLine
 10
127.2656580439816
 20
-356.6174167624226
 30
0.0
 11
377.2656580439713
 21
-106.617416762433
 31
0.0
  0
LINE
  5
3FA
330
1F
100
AcDbEntity
  8
0-0
  6
JWW_DASHED1
 62
   120
370
     5
100
AcDbLine
 10
467.2656580439789
 20
-16.61741676242528
 30
0.0
 11
717.2656580439698
 21
233.3825832375656
 31
0.0
  0
LINE
  5
3FB
330
1F
100
AcDbEntity
  8
0-0
  6
JWW_DASHED1
 62
   120
370
     5
100
AcDbLine
 10
127.2656580439774
 20
-349.5463489491414
 30
0.0
 11
377.2656580439674
 21
-99.54634894915131
 31
0.0
  0
LINE
  5
3FC
330
1F
100
AcDbEntity
  8
0-0
  6
JWW_DASHED1
 62
   120
370
     5
100
AcDbLine
 10
467.2656580439747
 20
-9.546348949144061
 30
0.0
 11
717.2656580439656
 21
240.4536510508468
 31
0.0
  0
LINE
  5
3FD
330
1F
100
AcDbEntity
  8
0-0
  6
JWW_DASHED1
 62
   120
370
     5
100
AcDbLine
 10
127.2656580439735
 20
-342.4752811358597
 30
0.0
 11
377.2656580439632
 21
-92.47528113587009
 31
0.0
  0
LINE
  5
3FE
330
1F
100
AcDbEntity
  8
0-0
  6
JWW_DASHED1
 62
   120
370
     5
100
AcDbLine
 10
467.2656580439704
 20
-2.475281135862843
 30
0.0
 11
717.2656580439622
 21
247.5247188641289
 31
0.0
  0
LINE
  5
3FF
330
1F
100
AcDbEntity
  8
0-0
  6
JWW_DASHED1
 62
   120
370
     5
100
AcDbLine
 10
127.2656580439804
 20
-335.404213322567
 30
0.0
 11
377.2656580439678
 21
-85.40421332257992
 31
0.0
  0
LINE
  5
400
330
1F
100
AcDbEntity
  8
0-0
  6
JWW_DASHED1
 62
   120
370
     5
100
AcDbLine
 10
467.2656580439747
 20
4.595786677426901
 30
0.0
 11
717.2656580439639
 21
254.5957866774161
 31
0.0
  0
LINE
  5
401
330
1F
100
AcDbEntity
  8
0-0
  6
JWW_DASHED1
 62
   120
370
     5
100
AcDbLine
 10
127.2656580439769
 20
-328.3331455093395
 30
0.0
 11
377.2656580439827
 21
-78.33314550933409
 31
0.0
  0
LINE
  5
402
330
1F
100
AcDbEntity
  8
0-0
  6
JWW_DASHED1
 62
   120
370
     5
100
AcDbLine
 10
467.2656580439738
 20
11.66685449065696
 30
0.0
 11
717.2656580439809
 21
261.666854490664
 31
0.0
  0
LINE
  5
403
330
1F
100
AcDbEntity
  8
0-0
  6
JWW_DASHED1
 62
   120
370
     5
100
AcDbLine
 10
127.2656580439731
 20
-321.2620776960579
 30
0.0
 11
377.2656580439785
 21
-71.26207769605287
 31
0.0
  0
LINE
  5
404
330
1F
100
AcDbEntity
  8
0-0
  6
JWW_DASHED1
 62
   120
370
     5
100
AcDbLine
 10
467.26565804397
 20
18.7379223039386
 30
0.0
 11
717.2656580439766
 21
268.7379223039453
 31
0.0
  0
LINE
  5
405
330
1F
100
AcDbEntity
  8
0-0
  6
JWW_DASHED1
 62
   120
370
     5
100
AcDbLine
 10
127.2656580439846
 20
-314.1910098827613
 30
0.0
 11
377.2656580439742
 21
-64.19100988277165
 31
0.0
  0
LINE
  5
406
330
1F
100
AcDbEntity
  8
0-0
  6
JWW_DASHED1
 62
   120
370
     5
100
AcDbLine
 10
467.2656580439657
 20
25.80899011721982
 30
0.0
 11
717.2656580439732
 21
275.8089901172274
 31
0.0
  0
LINE
  5
407
330
1F
100
AcDbEntity
  8
0-0
  6
JWW_DASHED1
 62
   120
370
     5
100
AcDbLine
 10
127.2656580439808
 20
-307.1199420694796
 30
0.0
 11
377.26565804397
 21
-57.11994206949043
 31
0.0
  0
LINE
  5
408
330
1F
100
AcDbEntity
  8
0-0
  6
JWW_DASHED1
 62
   120
370
     5
100
AcDbLine
 10
467.2656580439772
 20
32.88005793051681
 30
0.0
 11
717.265658043969
 21
282.8800579305085
 31
0.0
  0
LINE
  5
409
330
1F
100
AcDbEntity
  8
0-0
  6
JWW_DASHED1
 62
   120
370
     5
100
AcDbLine
 10
127.2656580439765
 20
-300.0488742561984
 30
0.0
 11
377.2656580439666
 21
-50.04887425620836
 31
0.0
  0
LINE
  5
40A
330
1F
100
AcDbEntity
  8
0-0
  6
JWW_DASHED1
 62
   120
370
     5
100
AcDbLine
 10
467.2656580439734
 20
39.95112574379846
 30
0.0
 11
717.2656580439656
 21
289.9511257437906
 31
0.0
  0
LINE
  5
40B
330
1F
100
AcDbEntity
  8
0-0
  6
JWW_DASHED1
 62
   120
370
     5
100
AcDbLine
 10
127.2656580439833
 20
-292.9778064429061
 30
0.0
 11
377.2656580439708
 21
-42.97780644291862
 31
0.0
  0
LINE
  5
40C
330
1F
100
AcDbEntity
  8
0-0
  6
JWW_DASHED1
 62
   120
370
     5
100
AcDbLine
 10
467.2656580439772
 20
47.0221935570882
 30
0.0
 11
717.265658043966
 21
297.0221935570765
 31
0.0
  0
LINE
  5
40D
330
1F
100
AcDbEntity
  8
0-0
  6
JWW_DASHED1
 62
   120
370
     5
100
AcDbLine
 10
127.2656580439791
 20
-285.9067386296249
 30
0.0
 11
377.2656580439666
 21
-35.9067386296374
 31
0.0
  0
LINE
  5
40E
330
1F
100
AcDbEntity
  8
0-0
  6
JWW_DASHED1
 62
   120
370
     5
100
AcDbLine
 10
467.2656580439734
 20
54.09326137036942
 30
0.0
 11
717.2656580439617
 21
304.0932613703578
 31
0.0
  0
LINE
  5
40F
330
1F
100
AcDbEntity
  8
0-0
  6
JWW_DASHED1
 62
   120
370
     5
100
AcDbLine
 10
127.2656580439804
 20
-278.8356708163382
 30
0.0
 11
377.2656580439858
 21
-28.83567081633274
 31
0.0
  0
LINE
  5
410
330
1F
100
AcDbEntity
  8
0-0
  6
JWW_DASHED1
 62
   120
370
     5
100
AcDbLine
 10
467.2656580439776
 20
61.16432918365916
 30
0.0
 11
717.2656580439685
 21
311.1643291836501
 31
0.0
  0
LINE
  5
411
330
1F
100
AcDbEntity
  8
0-0
  6
JWW_DASHED1
 62
   120
370
     5
100
AcDbLine
 10
127.2656580439769
 20
-271.7646030030561
 30
0.0
 11
377.2656580439815
 21
-21.76460300305152
 31
0.0
  0
LINE
  5
412
330
1F
100
AcDbEntity
  8
0-0
  6
JWW_DASHED1
 62
   120
370
     5
100
AcDbLine
 10
467.2656580439734
 20
68.23539699694038
 30
0.0
 11
717.26565804398
 21
318.2353969969471
 31
0.0
  0
LINE
  5
413
330
1F
100
AcDbEntity
  8
0-0
  6
JWW_DASHED1
 62
   120
370
     5
100
AcDbLine
 10
127.2656580439727
 20
-264.6935351897748
 30
0.0
 11
377.2656580439776
 21
-14.69353518976988
 31
0.0
  0
LINE
  5
414
330
1F
100
AcDbEntity
  8
0-0
  6
JWW_DASHED1
 62
   120
370
     5
100
AcDbLine
 10
467.2656580439691
 20
75.3064648102216
 30
0.0
 11
717.2656580439763
 21
325.3064648102287
 31
0.0
  0
LINE
  5
415
330
1F
100
AcDbEntity
  8
0-0
  6
JWW_DASHED1
 62
   120
370
     5
100
AcDbLine
 10
127.2656580439799
 20
-257.6224673765367
 30
0.0
 11
377.2656580439691
 21
-7.62246737654749
 31
0.0
  0
LINE
  5
416
330
1F
100
AcDbEntity
  8
0-0
  6
JWW_DASHED1
 62
   120
370
     5
100
AcDbLine
 10
467.2656580439764
 20
82.37753262345976
 30
0.0
 11
717.2656580439677
 21
332.3775326234511
 31
0.0
  0
LINE
  5
417
330
1F
100
AcDbEntity
  8
0-0
  6
JWW_DASHED1
 62
   120
370
     5
100
AcDbLine
 10
127.2656580439757
 20
-250.551399563255
 30
0.0
 11
377.2656580439657
 21
-0.5513995632654201
 31
0.0
  0
LINE
  5
418
330
1F
100
AcDbEntity
  8
0-0
  6
JWW_DASHED1
 62
   120
370
     5
100
AcDbLine
 10
467.2656580439725
 20
89.4486004367414
 30
0.0
 11
717.2656580439639
 21
339.4486004367327
 31
0.0
  0
LINE
  5
419
330
1F
100
AcDbEntity
  8
0-0
  6
JWW_DASHED1
 62
   120
370
     5
100
AcDbLine
 10
127.2656580439821
 20
-243.4803317499636
 30
0.0
 11
377.2656580439691
 21
6.519668250023472
 31
0.0
  0
LINE
  5
41A
330
1F
100
AcDbEntity
  8
0-0
  6
JWW_DASHED1
 62
   120
370
     5
100
AcDbLine
 10
467.2656580439759
 20
96.51966825003029
 30
0.0
 11
717.2656580439651
 21
346.5196682500195
 31
0.0
  0
LINE
  5
41B
330
1F
100
AcDbEntity
  8
0-0
  6
JWW_DASHED1
 62
   120
370
     5
100
AcDbLine
 10
127.2656580439778
 20
-236.409263936682
 30
0.0
 11
377.2656580439653
 21
13.59073606330512
 31
0.0
  0
LINE
  5
41C
330
1F
100
AcDbEntity
  8
0-0
  6
JWW_DASHED1
 62
   120
370
     5
100
AcDbLine
 10
467.2656580439717
 20
103.5907360633115
 30
0.0
 11
717.2656580439609
 21
353.5907360633007
 31
0.0
  0
LINE
  5
41D
330
1F
100
AcDbEntity
  8
0-0
  6
JWW_DASHED1
 62
   120
370
     5
100
AcDbLine
 10
127.2656580439795
 20
-229.3381961233952
 30
0.0
 11
377.2656580439849
 21
20.66180387661021
 31
0.0
  0
LINE
  5
41E
330
1F
100
AcDbEntity
  8
0-0
  6
JWW_DASHED1
 62
   120
370
     5
100
AcDbLine
 10
467.2656580439768
 20
110.6618038766021
 30
0.0
 11
717.2656580439677
 21
360.661803876593
 31
0.0
  0
LINE
  5
41F
330
1F
100
AcDbEntity
  8
0-0
  6
JWW_DASHED1
 62
   120
370
     5
100
AcDbLine
 10
127.2656580439757
 20
-222.2671283101135
 30
0.0
 11
377.2656580439806
 21
27.73287168989143
 31
0.0
  0
LINE
  5
420
330
1F
100
AcDbEntity
  8
0-0
  6
JWW_DASHED1
 62
   120
370
     5
100
AcDbLine
 10
467.2656580439725
 20
117.7328716898833
 30
0.0
 11
717.2656580439792
 21
367.73287168989
 31
0.0
  0
LINE
  5
421
330
1F
100
AcDbEntity
  8
0-0
  6
JWW_DASHED1
 62
   120
370
     5
100
AcDbLine
 10
127.2656580439876
 20
-215.1960604968161
 30
0.0
 11
377.2656580439768
 21
34.80393950317307
 31
0.0
  0
LINE
  5
422
330
1F
100
AcDbEntity
  8
0-0
  6
JWW_DASHED1
 62
   120
370
     5
100
AcDbLine
 10
467.2656580439683
 20
124.8039395031645
 30
0.0
 11
717.2656580439753
 21
374.8039395031716
 31
0.0
  0
LINE
  5
423
330
1F
100
AcDbEntity
  8
0-0
  6
JWW_DASHED1
 62
   120
370
     5
100
AcDbLine
 10
127.2656580439833
 20
-208.1249926835349
 30
0.0
 11
377.2656580439725
 21
41.87500731645429
 31
0.0
  0
LINE
  5
424
330
1F
100
AcDbEntity
  8
0-0
  6
JWW_DASHED1
 62
   120
370
     5
100
AcDbLine
 10
467.2656580439802
 20
131.875007316462
 30
0.0
 11
717.2656580439716
 21
381.8750073164533
 31
0.0
  0
LINE
  5
425
330
1F
100
AcDbEntity
  8
0-0
  6
JWW_DASHED1
 62
   120
370
     5
100
AcDbLine
 10
127.2656580439791
 20
-201.0539248702537
 30
0.0
 11
377.2656580439687
 21
48.94607512973593
 31
0.0
  0
LINE
  5
426
330
1F
100
AcDbEntity
  8
0-0
  6
JWW_DASHED1
 62
   120
370
     5
100
AcDbLine
 10
467.2656580439764
 20
138.9460751297436
 30
0.0
 11
717.2656580439677
 21
388.9460751297349
 31
0.0
  0
LINE
  5
427
330
1F
100
AcDbEntity
  8
0-0
  6
JWW_DASHED1
 62
   120
370
     5
100
AcDbLine
 10
127.2656580439808
 20
-193.9828570570211
 30
0.0
 11
377.2656580439683
 21
56.01714294296642
 31
0.0
  0
LINE
  5
428
330
1F
100
AcDbEntity
  8
0-0
  6
JWW_DASHED1
 62
   120
370
     5
100
AcDbLine
 10
467.2656580439747
 20
146.0171429429728
 30
0.0
 11
717.2656580439639
 21
396.017142942962
 31
0.0
  0
LINE
  5
429
330
1F
100
AcDbEntity
  8
0-0
  6
JWW_DASHED1
 62
   120
370
     5
100
AcDbLine
 10
127.2656580439829
 20
-186.9117892437335
 30
0.0
 11
377.2656580439879
 21
63.08821075627151
 31
0.0
  0
LINE
  5
42A
330
1F
100
AcDbEntity
  8
0-0
  6
JWW_DASHED1
 62
   120
370
     5
100
AcDbLine
 10
467.2656580439793
 20
153.088210756263
 30
0.0
 11
717.2656580439711
 21
403.0882107562547
 31
0.0
  0
LINE
  5
42B
330
1F
100
AcDbEntity
  8
0-0
  6
JWW_DASHED1
 62
   120
370
     5
100
AcDbLine
 10
127.2656580439786
 20
-179.8407214304522
 30
0.0
 11
377.265658043984
 21
70.15927856955315
 31
0.0
  0
LINE
  5
42C
330
1F
100
AcDbEntity
  8
0-0
  6
JWW_DASHED1
 62
   120
370
     5
100
AcDbLine
 10
467.2656580439755
 20
160.1592785695446
 30
0.0
 11
717.2656580439826
 21
410.1592785695517
 31
0.0
  0
LINE
  5
42D
330
1F
100
AcDbEntity
  8
0-0
  6
JWW_DASHED1
 62
   120
370
     5
100
AcDbLine
 10
127.2656580439744
 20
-172.769653617171
 30
0.0
 11
377.2656580439798
 21
77.23034638283437
 31
0.0
  0
LINE
  5
42E
330
1F
100
AcDbEntity
  8
0-0
  6
JWW_DASHED1
 62
   120
370
     5
100
AcDbLine
 10
467.2656580439713
 20
167.2303463828258
 30
0.0
 11
717.2656580439784
 21
417.230346382833
 31
0.0
  0
LINE
  5
42F
330
1F
100
AcDbEntity
  8
0-0
  6
JWW_DASHED1
 62
   120
370
     5
100
AcDbLine
 10
127.2656580439867
 20
-165.6985858038732
 30
0.0
 11
377.2656580439759
 21
84.30141419611601
 31
0.0
  0
LINE
  5
430
330
1F
100
AcDbEntity
  8
0-0
  6
JWW_DASHED1
 62
   120
370
     5
100
AcDbLine
 10
467.2656580439674
 20
174.3014141961075
 30
0.0
 11
717.2656580439741
 21
424.3014141961141
 31
0.0
  0
LINE
  5
431
330
1F
100
AcDbEntity
  8
0-0
  6
JWW_DASHED1
 62
   120
370
     5
100
AcDbLine
 10
127.2656580439825
 20
-158.627517990592
 30
0.0
 11
377.2656580439717
 21
91.37248200939766
 31
0.0
  0
LINE
  5
432
330
1F
100
AcDbEntity
  8
0-0
  6
JWW_DASHED1
 62
   120
370
     5
100
AcDbLine
 10
467.2656580439793
 20
181.3724820094049
 30
0.0
 11
717.2656580439707
 21
431.3724820093962
 31
0.0
  0
LINE
  5
433
330
1F
100
AcDbEntity
  8
0-0
  6
JWW_DASHED1
 62
   120
370
     5
100
AcDbLine
 10
127.2656580439782
 20
-151.5564501773108
 30
0.0
 11
377.2656580439678
 21
98.44354982267888
 31
0.0
  0
LINE
  5
434
330
1F
100
AcDbEntity
  8
0-0
  6
JWW_DASHED1
 62
   120
370
     5
100
AcDbLine
 10
467.2656580439755
 20
188.4435498226865
 30
0.0
 11
717.2656580439664
 21
438.4435498226775
 31
0.0
  0
LINE
  5
435
330
1F
100
AcDbEntity
  8
0-0
  6
JWW_DASHED1
 62
   120
370
     5
100
AcDbLine
 10
127.2656580439744
 20
-144.4853823640291
 30
0.0
 11
377.2656580439636
 21
105.5146176359605
 31
0.0
  0
LINE
  5
436
330
1F
100
AcDbEntity
  8
0-0
  6
JWW_DASHED1
 62
   120
370
     5
100
AcDbLine
 10
467.2656580439713
 20
195.5146176359678
 30
0.0
 11
717.2656580439626
 21
445.5146176359591
 31
0.0
  0
LINE
  5
437
330
1F
100
AcDbEntity
  8
0-0
  6
JWW_DASHED1
 62
   120
370
     5
100
AcDbLine
 10
127.2656580439795
 20
-137.4143145507385
 30
0.0
 11
377.265658043967
 21
112.585685449249
 31
0.0
  0
LINE
  5
438
330
1F
100
AcDbEntity
  8
0-0
  6
JWW_DASHED1
 62
   120
370
     5
100
AcDbLine
 10
467.2656580439734
 20
202.5856854492558
 30
0.0
 11
717.2656580439626
 21
452.5856854492446
 31
0.0
  0
LINE
  5
439
330
1F
100
AcDbEntity
  8
0-0
  6
JWW_DASHED1
 62
   120
370
     5
100
AcDbLine
 10
127.2656580439821
 20
-130.34324673745
 30
0.0
 11
377.2656580439875
 21
119.6567532625549
 31
0.0
  0
LINE
  5
43A
330
1F
100
AcDbEntity
  8
0-0
  6
JWW_DASHED1
 62
   120
370
     5
100
AcDbLine
 10
467.2656580439789
 20
209.6567532625464
 30
0.0
 11
717.2656580439698
 21
459.6567532625373
 31
0.0
  0
LINE
  5
43B
330
1F
100
AcDbEntity
  8
0-0
  6
JWW_DASHED1
 62
   120
370
     5
100
AcDbLine
 10
127.2656580439735
 20
-123.2721789242281
 30
0.0
 11
377.2656580439789
 21
126.7278210757773
 31
0.0
  0
LINE
  5
43C
330
1F
100
AcDbEntity
  8
0-0
  6
JWW_DASHED1
 62
   120
370
     5
100
AcDbLine
 10
467.2656580439704
 20
216.7278210757688
 30
0.0
 11
717.2656580439775
 21
466.7278210757759
 31
0.0
  0
LINE
  5
43D
330
1F
100
AcDbEntity
  8
0-0
  6
JWW_DASHED1
 62
   120
370
     5
100
AcDbLine
 10
127.2656580439859
 20
-116.2011111109302
 30
0.0
 11
377.2656580439751
 21
133.798888889059
 31
0.0
  0
LINE
  5
43E
330
1F
100
AcDbEntity
  8
0-0
  6
JWW_DASHED1
 62
   120
370
     5
100
AcDbLine
 10
467.2656580439666
 20
223.7988888890504
 30
0.0
 11
717.2656580439732
 21
473.7988888890571
 31
0.0
  0
LINE
  5
43F
330
1F
100
AcDbEntity
  8
0-0
  6
JWW_DASHED1
 62
   120
370
     5
100
AcDbLine
 10
127.2656580439816
 20
-109.130043297649
 30
0.0
 11
377.2656580439708
 21
140.8699567023402
 31
0.0
  0
LINE
  5
440
330
1F
100
AcDbEntity
  8
0-0
  6
JWW_DASHED1
 62
   120
370
     5
100
AcDbLine
 10
467.2656580439781
 20
230.8699567023474
 30
0.0
 11
717.265658043969
 21
480.8699567023383
 31
0.0
  0
LINE
  5
441
330
1F
100
AcDbEntity
  8
0-0
  6
JWW_DASHED1
 62
   120
370
     5
100
AcDbLine
 10
127.2656580439774
 20
-102.0589754843678
 30
0.0
 11
377.265658043967
 21
147.9410245156218
 31
0.0
  0
LINE
  5
442
330
1F
100
AcDbEntity
  8
0-0
  6
JWW_DASHED1
 62
   120
370
     5
100
AcDbLine
 10
467.2656580439747
 20
237.9410245156295
 30
0.0
 11
717.2656580439656
 21
487.9410245156204
 31
0.0
  0
LINE
  5
443
330
1F
100
AcDbEntity
  8
0-0
  6
JWW_DASHED1
 62
   120
370
     5
100
AcDbLine
 10
127.2656580439825
 20
-94.98790767107721
 30
0.0
 11
377.2656580439696
 21
155.0120923289099
 31
0.0
  0
LINE
  5
444
330
1F
100
AcDbEntity
  8
0-0
  6
JWW_DASHED1
 62
   120
370
     5
100
AcDbLine
 10
467.2656580439764
 20
245.0120923289167
 30
0.0
 11
717.2656580439656
 21
495.0120923289059
 31
0.0
  0
LINE
  5
445
330
1F
100
AcDbEntity
  8
0-0
  6
JWW_DASHED1
 62
   120
370
     5
100
AcDbLine
 10
127.2656580439786
 20
-87.91683985779557
 30
0.0
 11
377.2656580439657
 21
162.0831601421915
 31
0.0
  0
LINE
  5
446
330
1F
100
AcDbEntity
  8
0-0
  6
JWW_DASHED1
 62
   120
370
     5
100
AcDbLine
 10
467.2656580439721
 20
252.0831601421979
 30
0.0
 11
717.2656580439614
 21
502.0831601421871
 31
0.0
  0
LINE
  5
447
330
1F
100
AcDbEntity
  8
0-0
  6
JWW_DASHED1
 62
   120
370
     5
100
AcDbLine
 10
127.2656580439812
 20
-80.84577204450753
 30
0.0
 11
377.2656580439866
 21
169.1542279554979
 31
0.0
  0
LINE
  5
448
330
1F
100
AcDbEntity
  8
0-0
  6
JWW_DASHED1
 62
   120
370
     5
100
AcDbLine
 10
467.2656580439781
 20
259.1542279554893
 30
0.0
 11
717.2656580439694
 21
509.1542279554802
 31
0.0
  0
LINE
  5
449
330
1F
100
AcDbEntity
  8
0-0
  6
JWW_DASHED1
 62
   120
370
     5
100
AcDbLine
 10
127.2656580439769
 20
-73.77470423122631
 30
0.0
 11
377.2656580439823
 21
176.2252957687791
 31
0.0
  0
LINE
  5
44A
330
1F
100
AcDbEntity
  8
0-0
  6
JWW_DASHED1
 62
   120
370
     5
100
AcDbLine
 10
467.2656580439742
 20
266.225295768771
 30
0.0
 11
717.2656580439805
 21
516.2252957687772
 31
0.0
  0
LINE
  5
44B
330
1F
100
AcDbEntity
  8
0-0
  6
JWW_DASHED1
 62
   120
370
     5
100
AcDbLine
 10
127.2656580439731
 20
-66.70363641794424
 30
0.0
 11
377.2656580439785
 21
183.2963635820607
 31
0.0
  0
LINE
  5
44C
330
1F
100
AcDbEntity
  8
0-0
  6
JWW_DASHED1
 62
   120
370
     5
100
AcDbLine
 10
467.26565804397
 20
273.2963635820522
 30
0.0
 11
717.265658043977
 21
523.2963635820593
 31
0.0
  0
LINE
  5
44D
330
1F
100
AcDbEntity
  8
0-0
  6
JWW_DASHED1
 62
   120
370
     5
100
AcDbLine
 10
127.2656580439808
 20
-59.63256860470608
 30
0.0
 11
377.26565804397
 21
190.3674313952831
 31
0.0
  0
LINE
  5
44E
330
1F
100
AcDbEntity
  8
0-0
  6
JWW_DASHED1
 62
   120
370
     5
100
AcDbLine
 10
467.2656580439772
 20
280.3674313952904
 30
0.0
 11
717.2656580439682
 21
530.3674313952813
 31
0.0
  0
LINE
  5
44F
330
1F
100
AcDbEntity
  8
0-0
  6
JWW_DASHED1
 62
   120
370
     5
100
AcDbLine
 10
127.2656580439765
 20
-52.56150079142486
 30
0.0
 11
377.2656580439661
 21
197.4384992085648
 31
0.0
  0
LINE
  5
450
330
1F
100
AcDbEntity
  8
0-0
  6
JWW_DASHED1
 62
   120
370
     5
100
AcDbLine
 10
467.2656580439734
 20
287.438499208572
 30
0.0
 11
717.2656580439648
 21
537.4384992085634
 31
0.0
  0
LINE
  5
451
330
1F
100
AcDbEntity
  8
0-0
  6
JWW_DASHED1
 62
   120
370
     5
100
AcDbLine
 10
127.2656580439812
 20
-45.49043297813469
 30
0.0
 11
377.2656580439683
 21
204.5095670218524
 31
0.0
  0
LINE
  5
452
330
1F
100
AcDbEntity
  8
0-0
  6
JWW_DASHED1
 62
   120
370
     5
100
AcDbLine
 10
467.2656580439751
 20
294.5095670218592
 30
0.0
 11
717.2656580439648
 21
544.5095670218489
 31
0.0
  0
LINE
  5
453
330
1F
100
AcDbEntity
  8
0-0
  6
JWW_DASHED1
 62
   120
370
     5
100
AcDbLine
 10
127.2656580439774
 20
-38.41936516485305
 30
0.0
 11
377.2656580439644
 21
211.580634835134
 31
0.0
  0
LINE
  5
454
330
1F
100
AcDbEntity
  8
0-0
  6
JWW_DASHED1
 62
   120
370
     5
100
AcDbLine
 10
467.2656580439708
 20
301.5806348351404
 30
0.0
 11
717.2656580439605
 21
551.58063483513
 31
0.0
  0
LINE
  5
455
330
1F
100
AcDbEntity
  8
0-0
  6
JWW_DASHED1
 62
   120
370
     5
100
AcDbLine
 10
127.2656580439804
 20
-31.34829735156458
 30
0.0
 11
377.2656580439858
 21
218.6517026484408
 31
0.0
  0
LINE
  5
456
330
1F
100
AcDbEntity
  8
0-0
  6
JWW_DASHED1
 62
   120
370
     5
100
AcDbLine
 10
467.2656580439772
 20
308.6517026484323
 30
0.0
 11
717.2656580439685
 21
558.6517026484232
 31
0.0
  0
LINE
  5
457
330
1F
100
AcDbEntity
  8
0-0
  6
JWW_DASHED1
 62
   120
370
     5
100
AcDbLine
 10
127.2656580439761
 20
-24.27722953828336
 30
0.0
 11
377.2656580439815
 21
225.722770461722
 31
0.0
  0
LINE
  5
458
330
1F
100
AcDbEntity
  8
0-0
  6
JWW_DASHED1
 62
   120
370
     5
100
AcDbLine
 10
467.2656580439734
 20
315.7227704617139
 30
0.0
 11
717.2656580439797
 21
565.7227704617202
 31
0.0
  0
LINE
  5
459
330
1F
100
AcDbEntity
  8
0-0
  6
JWW_DASHED1
 62
   120
370
     5
100
AcDbLine
 10
127.265658043988
 20
-17.20616172498595
 30
0.0
 11
377.2656580439776
 21
232.7938382750037
 31
0.0
  0
LINE
  5
45A
330
1F
100
AcDbEntity
  8
0-0
  6
JWW_DASHED1
 62
   120
370
     5
100
AcDbLine
 10
467.2656580439691
 20
322.7938382749952
 30
0.0
 11
717.2656580439758
 21
572.7938382750018
 31
0.0
  0
LINE
  5
45B
330
1F
100
AcDbEntity
  8
0-0
  6
JWW_DASHED1
 62
   120
370
     5
100
AcDbLine
 10
127.2656580439838
 20
-10.1350939117043
 30
0.0
 11
377.2656580439734
 21
239.8649060882849
 31
0.0
  0
LINE
  5
45C
330
1F
100
AcDbEntity
  8
0-0
  6
JWW_DASHED1
 62
   120
370
     5
100
AcDbLine
 10
467.2656580439806
 20
329.8649060882922
 30
0.0
 11
717.2656580439716
 21
579.8649060882831
 31
0.0
  0
LINE
  5
45D
330
1F
100
AcDbEntity
  8
0-0
  6
JWW_DASHED1
 62
   120
370
     5
100
AcDbLine
 10
127.2656580439799
 20
-3.064026098423085
 30
0.0
 11
377.2656580439696
 21
246.9359739015665
 31
0.0
  0
LINE
  5
45E
330
1F
100
AcDbEntity
  8
0-0
  6
JWW_DASHED1
 62
   120
370
     5
100
AcDbLine
 10
467.2656580439768
 20
336.9359739015738
 30
0.0
 11
717.2656580439677
 21
586.9359739015647
 31
0.0
  0
LINE
  5
45F
330
1F
100
AcDbEntity
  8
0-0
  6
JWW_DASHED1
 62
   120
370
     5
100
AcDbLine
 10
127.2656580439799
 20
4.007041714807826
 30
0.0
 11
377.2656580439674
 21
254.0070417147953
 31
0.0
  0
LINE
  5
460
330
1F
100
AcDbEntity
  8
0-0
  6
JWW_DASHED1
 62
   120
370
     5
100
AcDbLine
 10
467.2656580439738
 20
344.0070417148017
 30
0.0
 11
717.2656580439626
 21
594.0070417147905
 31
0.0
  0
LINE
  5
461
330
1F
100
AcDbEntity
  8
0-0
  6
JWW_DASHED1
 62
   120
370
     5
100
AcDbLine
 10
127.2656580439838
 20
11.07810952809714
 30
0.0
 11
377.2656580439888
 21
261.0781095281021
 31
0.0
  0
LINE
  5
462
330
1F
100
AcDbEntity
  8
0-0
  6
JWW_DASHED1
 62
   120
370
     5
100
AcDbLine
 10
467.2656580439802
 20
351.0781095280936
 30
0.0
 11
717.2656580439716
 21
601.078109528085
 31
0.0
  0
LINE
  5
463
330
1F
100
AcDbEntity
  8
0-0
  6
JWW_DASHED1
 62
   120
370
     5
100
AcDbLine
 10
127.2656580439795
 20
18.14917734137836
 30
0.0
 11
377.2656580439849
 21
268.1491773413837
 31
0.0
  0
LINE
  5
464
330
1F
100
AcDbEntity
  8
0-0
  6
JWW_DASHED1
 62
   120
370
     5
100
AcDbLine
 10
467.2656580439759
 20
358.1491773413748
 30
0.0
 11
717.2656580439831
 21
608.1491773413819
 31
0.0
  0
LINE
  5
465
330
1F
100
AcDbEntity
  8
0-0
  6
JWW_DASHED1
 62
   120
370
     5
100
AcDbLine
 10
127.2656580439752
 20
25.22024515465958
 30
0.0
 11
377.2656580439806
 21
275.220245154665
 31
0.0
  0
LINE
  5
466
330
1F
100
AcDbEntity
  8
0-0
  6
JWW_DASHED1
 62
   120
370
     5
100
AcDbLine
 10
467.2656580439725
 20
365.2202451546569
 30
0.0
 11
717.2656580439792
 21
615.2202451546632
 31
0.0
  0
LINE
  5
467
330
1F
100
AcDbEntity
  8
0-0
  6
JWW_DASHED1
 62
   120
370
     5
100
AcDbLine
 10
127.2656580439872
 20
32.291312967957
 30
0.0
 11
377.2656580439764
 21
282.2913129679462
 31
0.0
  0
LINE
  5
468
330
1F
100
AcDbEntity
  8
0-0
  6
JWW_DASHED1
 62
   120
370
     5
100
AcDbLine
 10
467.2656580439683
 20
372.2913129679381
 30
0.0
 11
717.265658043975
 21
622.2913129679448
 31
0.0
  0
LINE
  5
469
330
1F
100
AcDbEntity
  8
0-0
  6
JWW_DASHED1
 62
   120
370
     5
100
AcDbLine
 10
127.2656580439829
 20
39.36238078123864
 30
0.0
 11
377.2656580439721
 21
289.3623807812274
 31
0.0
  0
LINE
  5
46A
330
1F
100
AcDbEntity
  8
0-0
  6
JWW_DASHED1
 62
   120
370
     5
100
AcDbLine
 10
467.2656580439798
 20
379.3623807812351
 30
0.0
 11
717.2656580439711
 21
629.3623807812264
 31
0.0
  0
LINE
  5
46B
330
1F
100
AcDbEntity
  8
0-0
  6
JWW_DASHED1
 62
   120
370
     5
100
AcDbLine
 10
127.2656580439791
 20
46.43344859451986
 30
0.0
 11
377.2656580439683
 21
296.4334485945091
 31
0.0
  0
LINE
  5
46C
330
1F
100
AcDbEntity
  8
0-0
  6
JWW_DASHED1
 62
   120
370
     5
100
AcDbLine
 10
467.2656580439759
 20
386.4334485945167
 30
0.0
 11
717.2656580439668
 21
636.4334485945076
 31
0.0
  0
LINE
  5
46D
330
1F
100
AcDbEntity
  8
0-0
  6
JWW_DASHED1
 62
   120
370
     5
100
AcDbLine
 10
127.2656580439752
 20
53.5045164078015
 30
0.0
 11
377.2656580439644
 21
303.5045164077907
 31
0.0
  0
LINE
  5
46E
330
1F
100
AcDbEntity
  8
0-0
  6
JWW_DASHED1
 62
   120
370
     5
100
AcDbLine
 10
467.2656580439717
 20
393.504516407798
 30
0.0
 11
717.2656580439634
 21
643.5045164077897
 31
0.0
  0
LINE
  5
46F
330
1F
100
AcDbEntity
  8
0-0
  6
JWW_DASHED1
 62
   120
370
     5
100
AcDbLine
 10
127.2656580439786
 20
60.57558422109039
 30
0.0
 11
377.2656580439661
 21
310.5755842210779
 31
0.0
  0
LINE
  5
470
330
1F
100
AcDbEntity
  8
0-0
  6
JWW_DASHED1
 62
   120
370
     5
100
AcDbLine
 10
467.265658043973
 20
400.5755842210847
 30
0.0
 11
717.2656580439617
 21
650.5755842210735
 31
0.0
  0
LINE
  5
471
330
1F
100
AcDbEntity
  8
0-0
  6
JWW_DASHED1
 62
   120
370
     5
100
AcDbLine
 10
127.2656580439825
 20
67.64665203437971
 30
0.0
 11
377.2656580439879
 21
317.6466520343855
 31
0.0
  0
LINE
  5
472
330
1F
100
AcDbEntity
  8
0-0
  6
JWW_DASHED1
 62
   120
370
     5
100
AcDbLine
 10
467.2656580439793
 20
407.6466520343766
 30
0.0
 11
717.2656580439707
 21
657.6466520343679
 31
0.0
  0
LINE
  5
473
330
1F
100
AcDbEntity
  8
0-0
  6
JWW_DASHED1
 62
   120
370
     5
100
AcDbLine
 10
127.2656580439744
 20
74.71771984760252
 30
0.0
 11
377.2656580439798
 21
324.7177198476079
 31
0.0
  0
LINE
  5
474
330
1F
100
AcDbEntity
  8
0-0
  6
JWW_DASHED1
 62
   120
370
     5
100
AcDbLine
 10
467.2656580439708
 20
414.717719847599
 30
0.0
 11
717.2656580439784
 21
664.7177198476061
 31
0.0
  0
LINE
  5
475
330
1F
100
AcDbEntity
  8
0-0
  6
JWW_DASHED1
 62
   120
370
     5
100
AcDbLine
 10
127.2656580439863
 20
81.78878766089994
 30
0.0
 11
377.2656580439755
 21
331.7887876608892
 31
0.0
  0
LINE
  5
476
330
1F
100
AcDbEntity
  8
0-0
  6
JWW_DASHED1
 62
   120
370
     5
100
AcDbLine
 10
467.2656580439666
 20
421.7887876608802
 30
0.0
 11
717.2656580439741
 21
671.7887876608877
 31
0.0
  0
LINE
  5
477
330
1F
100
AcDbEntity
  8
0-0
  6
JWW_DASHED1
 62
   120
370
     5
100
AcDbLine
 10
127.2656580439825
 20
88.85985547418159
 30
0.0
 11
377.2656580439713
 21
338.8598554741703
 31
0.0
  0
LINE
  5
478
330
1F
100
AcDbEntity
  8
0-0
  6
JWW_DASHED1
 62
   120
370
     5
100
AcDbLine
 10
467.2656580439793
 20
428.8598554741785
 30
0.0
 11
717.2656580439698
 21
678.859855474169
 31
0.0
  0
LINE
  5
479
330
1F
100
AcDbEntity
  8
0-0
  6
JWW_DASHED1
 62
   120
370
     5
100
AcDbLine
 10
127.2656580439782
 20
95.9309232874628
 30
0.0
 11
377.2656580439674
 21
345.930923287452
 31
0.0
  0
LINE
  5
47A
330
1F
100
AcDbEntity
  8
0-0
  6
JWW_DASHED1
 62
   120
370
     5
100
AcDbLine
 10
467.2656580439751
 20
435.9309232874597
 30
0.0
 11
717.2656580439664
 21
685.9309232874506
 31
0.0
  0
LINE
  5
47B
330
1F
100
AcDbEntity
  8
0-0
  6
JWW_DASHED1
 62
   120
370
     5
100
AcDbLine
 10
127.265658043974
 20
103.001991100744
 30
0.0
 11
377.2656580439636
 21
353.0019911007337
 31
0.0
  0
LINE
  5
47C
330
1F
100
AcDbEntity
  8
0-0
  6
JWW_DASHED1
 62
   120
370
     5
100
AcDbLine
 10
467.2656580439708
 20
443.0019911007409
 30
0.0
 11
717.2656580439622
 21
693.0019911007322
 31
0.0
  0
LINE
  5
47D
330
1F
100
AcDbEntity
  8
0-0
  6
JWW_DASHED1
 62
   120
370
     5
100
AcDbLine
 10
127.2656580439774
 20
110.0730589140329
 30
0.0
 11
377.2656580439649
 21
360.0730589140204
 31
0.0
  0
LINE
  5
47E
330
1F
100
AcDbEntity
  8
0-0
  6
JWW_DASHED1
 62
   120
370
     5
100
AcDbLine
 10
467.2656580439717
 20
450.0730589140272
 30
0.0
 11
717.2656580439605
 21
700.0730589140155
 31
0.0
  0
LINE
  5
47F
330
1F
100
AcDbEntity
  8
0-0
  6
JWW_DASHED1
 62
   120
370
     5
100
AcDbLine
 10
127.2656580439816
 20
117.1441267273231
 30
0.0
 11
377.2656580439875
 21
367.1441267273285
 31
0.0
  0
LINE
  5
480
330
1F
100
AcDbEntity
  8
0-0
  6
JWW_DASHED1
 62
   120
370
     5
100
AcDbLine
 10
467.2656580439785
 20
457.1441267273195
 30
0.0
 11
717.2656580439698
 21
707.1441267273109
 31
0.0
  0
LINE
  5
481
330
1F
100
AcDbEntity
  8
0-0
  6
JWW_DASHED1
 62
   120
370
     5
100
AcDbLine
 10
127.2656580439778
 20
124.2151945406043
 30
0.0
 11
377.2656580439832
 21
374.2151945406097
 31
0.0
  0
LINE
  5
482
330
1F
100
AcDbEntity
  8
0-0
  6
JWW_DASHED1
 62
   120
370
     5
100
AcDbLine
 10
467.2656580439747
 20
464.2151945406011
 30
0.0
 11
717.2656580439814
 21
714.2151945406079
 31
0.0
  0
LINE
  5
483
330
1F
100
AcDbEntity
  8
0-0
  6
JWW_DASHED1
 62
   120
370
     5
100
AcDbLine
 10
127.265658043974
 20
131.2862623538859
 30
0.0
 11
377.2656580439789
 21
381.2862623538909
 31
0.0
  0
LINE
  5
484
330
1F
100
AcDbEntity
  8
0-0
  6
JWW_DASHED1
 62
   120
370
     5
100
AcDbLine
 10
467.2656580439704
 20
471.2862623538824
 30
0.0
 11
717.265658043978
 21
721.2862623538899
 31
0.0
  0
LINE
  5
485
330
1F
100
AcDbEntity
  8
0-0
  6
JWW_DASHED1
 62
   120
370
     5
100
AcDbLine
 10
127.2656580439816
 20
138.3573301671245
 30
0.0
 11
377.2656580439704
 21
388.3573301671137
 31
0.0
  0
LINE
  5
486
330
1F
100
AcDbEntity
  8
0-0
  6
JWW_DASHED1
 62
   120
370
     5
100
AcDbLine
 10
467.2656580439781
 20
478.3573301671209
 30
0.0
 11
717.265658043969
 21
728.3573301671119
 31
0.0
  0
LINE
  5
487
330
1F
100
AcDbEntity
  8
0-0
  6
JWW_DASHED1
 62
   120
370
     5
100
AcDbLine
 10
127.2656580439774
 20
145.4283979804057
 30
0.0
 11
377.2656580439666
 21
395.4283979803949
 31
0.0
  0
LINE
  5
488
330
1F
100
AcDbEntity
  8
0-0
  6
JWW_DASHED1
 62
   120
370
     5
100
AcDbLine
 10
467.2656580439742
 20
485.4283979804026
 30
0.0
 11
717.2656580439656
 21
735.4283979803936
 31
0.0
  0
LINE
  5
489
330
1F
100
AcDbEntity
  8
0-0
  6
JWW_DASHED1
 62
   120
370
     5
100
AcDbLine
 10
127.2656580439799
 20
152.4994657936938
 30
0.0
 11
377.2656580439678
 21
402.4994657936817
 31
0.0
  0
LINE
  5
48A
330
1F
100
AcDbEntity
  8
0-0
  6
JWW_DASHED1
 62
   120
370
     5
100
AcDbLine
 10
467.2656580439742
 20
492.4994657936881
 30
0.0
 11
717.265658043963
 21
742.4994657936769
 31
0.0
  0
LINE
  5
48B
330
1F
100
AcDbEntity
  8
0-0
  6
JWW_DASHED1
 62
   120
370
     5
100
AcDbLine
 10
127.2656580439761
 20
159.5705336069754
 30
0.0
 11
377.2656580439636
 21
409.570533606963
 31
0.0
  0
LINE
  5
48C
330
1F
100
AcDbEntity
  8
0-0
  6
JWW_DASHED1
 62
   120
370
     5
100
AcDbLine
 10
467.2656580439704
 20
499.5705336069698
 30
0.0
 11
717.2656580439588
 21
749.5705336069581
 31
0.0
  0
LINE
  5
48D
330
1F
100
AcDbEntity
  8
0-0
  6
JWW_DASHED1
 62
   120
370
     5
100
AcDbLine
 10
127.2656580439808
 20
166.641601420266
 30
0.0
 11
377.2656580439866
 21
416.6416014202714
 31
0.0
  0
LINE
  5
48E
330
1F
100
AcDbEntity
  8
0-0
  6
JWW_DASHED1
 62
   120
370
     5
100
AcDbLine
 10
467.2656580439781
 20
506.6416014202629
 30
0.0
 11
717.265658043969
 21
756.6416014202538
 31
0.0
  0
LINE
  5
48F
330
1F
100
AcDbEntity
  8
0-0
  6
JWW_DASHED1
 62
   120
370
     5
100
AcDbLine
 10
127.2656580439769
 20
173.7126692335472
 30
0.0
 11
377.2656580439823
 21
423.7126692335527
 31
0.0
  0
LINE
  5
490
330
1F
100
AcDbEntity
  8
0-0
  6
JWW_DASHED1
 62
   120
370
     5
100
AcDbLine
 10
467.2656580439734
 20
513.7126692335437
 30
0.0
 11
717.2656580439805
 21
763.7126692335507
 31
0.0
  0
LINE
  5
491
330
1F
100
AcDbEntity
  8
0-0
  6
JWW_DASHED1
 62
   120
370
     5
100
AcDbLine
 10
127.2656580439885
 20
180.7837370468442
 30
0.0
 11
377.2656580439781
 21
430.7837370468338
 31
0.0
  0
LINE
  5
492
330
1F
100
AcDbEntity
  8
0-0
  6
JWW_DASHED1
 62
   120
370
     5
100
AcDbLine
 10
467.2656580439696
 20
520.7837370468253
 30
0.0
 11
717.2656580439763
 21
770.783737046832
 31
0.0
  0
LINE
  5
493
330
1F
100
AcDbEntity
  8
0-0
  6
JWW_DASHED1
 62
   120
370
     5
100
AcDbLine
 10
127.2656580439846
 20
187.8548048601259
 30
0.0
 11
377.2656580439742
 21
437.8548048601155
 31
0.0
  0
LINE
  5
494
330
1F
100
AcDbEntity
  8
0-0
  6
JWW_DASHED1
 62
   120
370
     5
100
AcDbLine
 10
467.2656580439819
 20
527.8548048601232
 30
0.0
 11
717.2656580439728
 21
777.8548048601141
 31
0.0
  0
LINE
  5
495
330
1F
100
AcDbEntity
  8
0-0
  6
JWW_DASHED1
 62
   120
370
     5
100
AcDbLine
 10
127.2656580439808
 20
194.9258726734075
 30
0.0
 11
377.2656580439704
 21
444.9258726733972
 31
0.0
  0
LINE
  5
496
330
1F
100
AcDbEntity
  8
0-0
  6
JWW_DASHED1
 62
   120
370
     5
100
AcDbLine
 10
467.2656580439776
 20
534.9258726734045
 30
0.0
 11
717.2656580439685
 21
784.9258726733954
 31
0.0
  0
LINE
  5
497
330
1F
100
AcDbEntity
  8
0-0
  6
JWW_DASHED1
 62
   120
370
     5
100
AcDbLine
 10
127.2656580439765
 20
201.9969404866887
 30
0.0
 11
377.2656580439661
 21
451.9969404866783
 31
0.0
  0
LINE
  5
498
330
1F
100
AcDbEntity
  8
0-0
  6
JWW_DASHED1
 62
   120
370
     5
100
AcDbLine
 10
467.2656580439734
 20
541.9969404866856
 30
0.0
 11
717.2656580439651
 21
791.9969404866774
 31
0.0
  0
LINE
  5
499
330
1F
100
AcDbEntity
  8
0-0
  6
JWW_DASHED1
 62
   120
370
     5
100
AcDbLine
 10
127.2656580439842
 20
209.0680082999273
 30
0.0
 11
377.2656580439734
 21
459.0680082999165
 31
0.0
  0
LINE
  5
49A
330
1F
100
AcDbEntity
  8
0-0
  6
JWW_DASHED1
 62
   120
370
     5
100
AcDbLine
 10
467.265658043981
 20
549.0680082999238
 30
0.0
 11
717.2656580439724
 21
799.0680082999155
 31
0.0
  0
LINE
  5
49B
330
1F
100
AcDbEntity
  8
0-0
  6
JWW_DASHED1
 62
   120
370
     5
100
AcDbLine
 10
127.2656580439799
 20
216.139076113209
 30
0.0
 11
377.2656580439854
 21
466.1390761132139
 31
0.0
  0
LINE
  5
49C
330
1F
100
AcDbEntity
  8
0-0
  6
JWW_DASHED1
 62
   120
370
     5
100
AcDbLine
 10
467.2656580439768
 20
556.1390761132054
 30
0.0
 11
717.2656580439839
 21
806.1390761132125
 31
0.0
  0
LINE
  5
49D
330
1F
100
AcDbEntity
  8
0-0
  6
JWW_DASHED1
 62
   120
370
     5
100
AcDbLine
 10
127.2656580439761
 20
223.2101439264902
 30
0.0
 11
377.2656580439815
 21
473.2101439264956
 31
0.0
  0
LINE
  5
49E
330
1F
100
AcDbEntity
  8
0-0
  6
JWW_DASHED1
 62
   120
370
     5
100
AcDbLine
 10
467.265658043973
 20
563.210143926487
 30
0.0
 11
717.2656580439797
 21
813.2101439264937
 31
0.0
  0
LINE
  5
49F
330
1F
100
AcDbEntity
  8
0-0
  6
JWW_DASHED1
 62
   120
370
     5
100
AcDbLine
 10
127.265658043988
 20
230.2812117397876
 30
0.0
 11
377.2656580439772
 21
480.2812117397768
 31
0.0
  0
LINE
  5
4A0
330
1F
100
AcDbEntity
  8
0-0
  6
JWW_DASHED1
 62
   120
370
     5
100
AcDbLine
 10
467.2656580439687
 20
570.2812117397683
 30
0.0
 11
717.2656580439753
 21
820.281211739775
 31
0.0
  0
LINE
  5
4A1
330
1F
100
AcDbEntity
  8
0-0
  6
JWW_DASHED1
 62
   120
370
     5
100
AcDbLine
 10
127.2656580439838
 20
237.3522795530688
 30
0.0
 11
377.2656580439734
 21
487.3522795530585
 31
0.0
  0
LINE
  5
4A2
330
1F
100
AcDbEntity
  8
0-0
  6
JWW_DASHED1
 62
   120
370
     5
100
AcDbLine
 10
467.265658043981
 20
577.3522795530662
 30
0.0
 11
717.2656580439719
 21
827.3522795530571
 31
0.0
  0
LINE
  5
4A3
330
1F
100
AcDbEntity
  8
0-0
  6
JWW_DASHED1
 62
   120
370
     5
100
AcDbLine
 10
127.2656580439795
 20
244.42334736635
 30
0.0
 11
377.2656580439696
 21
494.4233473663401
 31
0.0
  0
LINE
  5
4A4
330
1F
100
AcDbEntity
  8
0-0
  6
JWW_DASHED1
 62
   120
370
     5
100
AcDbLine
 10
467.2656580439768
 20
584.4233473663473
 30
0.0
 11
717.2656580439677
 21
834.4233473663382
 31
0.0
  0
LINE
  5
4A5
330
1F
100
AcDbEntity
  8
0-0
  6
JWW_DASHED1
 62
   120
370
     5
100
AcDbLine
 10
127.2656580439757
 20
251.4944151796317
 30
0.0
 11
377.2656580439653
 21
501.4944151796213
 31
0.0
  0
LINE
  5
4A6
330
1F
100
AcDbEntity
  8
0-0
  6
JWW_DASHED1
 62
   120
370
     5
100
AcDbLine
 10
467.2656580439725
 20
591.4944151796285
 30
0.0
 11
717.2656580439643
 21
841.4944151796203
 31
0.0
  0
LINE
  5
4A7
330
1F
100
AcDbEntity
  8
0-0
  6
JWW_DASHED1
 62
   120
370
     5
100
AcDbLine
 10
127.2656580439778
 20
258.5654829929193
 30
0.0
 11
377.2656580439653
 21
508.5654829929068
 31
0.0
  0
LINE
  5
4A8
330
1F
100
AcDbEntity
  8
0-0
  6
JWW_DASHED1
 62
   120
370
     5
100
AcDbLine
 10
467.2656580439721
 20
598.5654829929136
 30
0.0
 11
717.2656580439605
 21
848.5654829929019
 31
0.0
  0
LINE
  5
4A9
330
1F
100
AcDbEntity
  8
0-0
  6
JWW_DASHED1
 62
   120
370
     5
100
AcDbLine
 10
127.2656580439833
 20
265.6365508062103
 30
0.0
 11
377.2656580439888
 21
515.6365508062157
 31
0.0
  0
LINE
  5
4AA
330
1F
100
AcDbEntity
  8
0-0
  6
JWW_DASHED1
 62
   120
370
     5
100
AcDbLine
 10
467.2656580439806
 20
605.6365508062077
 30
0.0
 11
717.2656580439716
 21
855.6365508061986
 31
0.0
  0
LINE
  5
4AB
330
1F
100
AcDbEntity
  8
0-0
  6
JWW_DASHED1
 62
   120
370
     5
100
AcDbLine
 10
127.2656580439752
 20
272.7076186194331
 30
0.0
 11
377.2656580439806
 21
522.7076186194386
 31
0.0
  0
LINE
  5
4AC
330
1F
100
AcDbEntity
  8
0-0
  6
JWW_DASHED1
 62
   120
370
     5
100
AcDbLine
 10
467.2656580439717
 20
612.7076186194296
 30
0.0
 11
717.2656580439788
 21
862.7076186194367
 31
0.0
  0
LINE
  5
4AD
330
1F
100
AcDbEntity
  8
0-0
  6
JWW_DASHED1
 62
   120
370
     5
100
AcDbLine
 10
127.2656580439867
 20
279.7786864327301
 30
0.0
 11
377.2656580439764
 21
529.7786864327197
 31
0.0
  0
LINE
  5
4AE
330
1F
100
AcDbEntity
  8
0-0
  6
JWW_DASHED1
 62
   120
370
     5
100
AcDbLine
 10
467.2656580439678
 20
619.7786864327112
 30
0.0
 11
717.2656580439746
 21
869.7786864327179
 31
0.0
  0
LINE
  5
4AF
330
1F
100
AcDbEntity
  8
0-0
  6
JWW_DASHED1
 62
   120
370
     5
100
AcDbLine
 10
127.2656580439829
 20
286.8497542460118
 30
0.0
 11
377.2656580439721
 21
536.849754246001
 31
0.0
  0
LINE
  5
4B0
330
1F
100
AcDbEntity
  8
0-0
  6
JWW_DASHED1
 62
   120
370
     5
100
AcDbLine
 10
467.2656580439802
 20
626.8497542460091
 30
0.0
 11
717.2656580439707
 21
876.8497542459991
 31
0.0
  0
LINE
  5
4B1
330
1F
100
AcDbEntity
  8
0-0
  6
JWW_DASHED1
 62
   120
370
     5
100
AcDbLine
 10
127.2656580439786
 20
293.920822059293
 30
0.0
 11
377.2656580439678
 21
543.9208220592822
 31
0.0
  0
LINE
  5
4B2
330
1F
100
AcDbEntity
  8
0-0
  6
JWW_DASHED1
 62
   120
370
     5
100
AcDbLine
 10
467.2656580439759
 20
633.9208220592902
 30
0.0
 11
717.2656580439668
 21
883.9208220592811
 31
0.0
  0
LINE
  5
4B3
330
1F
100
AcDbEntity
  8
0-0
  6
JWW_DASHED1
 62
   120
370
     5
100
AcDbLine
 10
127.2656580439748
 20
300.9918898725746
 30
0.0
 11
377.2656580439644
 21
550.9918898725642
 31
0.0
  0
LINE
  5
4B4
330
1F
100
AcDbEntity
  8
0-0
  6
JWW_DASHED1
 62
   120
370
     5
100
AcDbLine
 10
467.2656580439717
 20
640.9918898725715
 30
0.0
 11
717.2656580439626
 21
890.9918898725624
 31
0.0
  0
LINE
  5
4B5
330
1F
100
AcDbEntity
  8
0-0
  6
JWW_DASHED1
 62
   120
370
     5
100
AcDbLine
 10
127.2656580439765
 20
308.0629576858618
 30
0.0
 11
377.265658043964
 21
558.0629576858494
 31
0.0
  0
LINE
  5
4B6
330
1F
100
AcDbEntity
  8
0-0
  6
JWW_DASHED1
 62
   120
370
     5
100
AcDbLine
 10
467.26565804397
 20
648.0629576858553
 30
0.0
 11
717.2656580439592
 21
898.0629576858445
 31
0.0
  0
LINE
  5
4B7
330
1F
100
AcDbEntity
  8
0-0
  6
JWW_DASHED1
 62
   120
370
     5
100
AcDbLine
 10
127.2656580439825
 20
315.1340254991533
 30
0.0
 11
377.2656580439879
 21
565.1340254991587
 31
0.0
  0
LINE
  5
4B8
330
1F
100
AcDbEntity
  8
0-0
  6
JWW_DASHED1
 62
   120
370
     5
100
AcDbLine
 10
467.2656580439798
 20
655.1340254991505
 30
0.0
 11
717.2656580439707
 21
905.1340254991414
 31
0.0
  0
LINE
  5
4B9
330
1F
100
AcDbEntity
  8
0-0
  6
JWW_DASHED1
 62
   120
370
     5
100
AcDbLine
 10
127.2656580439786
 20
322.2050933124349
 30
0.0
 11
377.2656580439836
 21
572.2050933124399
 31
0.0
  0
LINE
  5
4BA
330
1F
100
AcDbEntity
  8
0-0
  6
JWW_DASHED1
 62
   120
370
     5
100
AcDbLine
 10
467.2656580439747
 20
662.2050933124309
 30
0.0
 11
717.2656580439822
 21
912.2050933124385
 31
0.0
  0
LINE
  5
4BB
330
1F
100
AcDbEntity
  8
0-0
  6
JWW_DASHED1
 62
   120
370
     5
100
AcDbLine
 10
127.2656580439748
 20
329.2761611257166
 30
0.0
 11
377.2656580439798
 21
579.2761611257215
 31
0.0
  0
LINE
  5
4BC
330
1F
100
AcDbEntity
  8
0-0
  6
JWW_DASHED1
 62
   120
370
     5
100
AcDbLine
 10
467.2656580439717
 20
669.2761611257134
 30
0.0
 11
717.2656580439784
 21
919.2761611257201
 31
0.0
  0
LINE
  5
4BD
330
1F
100
AcDbEntity
  8
0-0
  6
JWW_DASHED1
 62
   120
370
     5
100
AcDbLine
 10
127.2656580439821
 20
336.3472289389547
 30
0.0
 11
377.2656580439713
 21
586.3472289389439
 31
0.0
  0
LINE
  5
4BE
330
1F
100
AcDbEntity
  8
0-0
  6
JWW_DASHED1
 62
   120
370
     5
100
AcDbLine
 10
467.2656580439793
 20
676.347228938952
 30
0.0
 11
717.2656580439698
 21
926.3472289389425
 31
0.0
  0
LINE
  5
4BF
330
1F
100
AcDbEntity
  8
0-0
  6
JWW_DASHED1
 62
   120
370
     5
100
AcDbLine
 10
127.2656580439778
 20
343.4182967522364
 30
0.0
 11
377.265658043967
 21
593.4182967522252
 31
0.0
  0
LINE
  5
4C0
330
1F
100
AcDbEntity
  8
0-0
  6
JWW_DASHED1
 62
   120
370
     5
100
AcDbLine
 10
467.2656580439751
 20
683.4182967522332
 30
0.0
 11
717.2656580439656
 21
933.4182967522237
 31
0.0
  0
LINE
  5
4C1
330
1F
100
AcDbEntity
  8
0-0
  6
JWW_DASHED1
 62
   120
370
     5
100
AcDbLine
 10
127.2656580439791
 20
350.4893645655227
 30
0.0
 11
377.2656580439666
 21
600.4893645655102
 31
0.0
  0
LINE
  5
4C2
330
1F
100
AcDbEntity
  8
0-0
  6
JWW_DASHED1
 62
   120
370
     5
100
AcDbLine
 10
467.2656580439734
 20
690.489364565517
 30
0.0
 11
717.2656580439626
 21
940.4893645655062
 31
0.0
  0
LINE
  5
4C3
330
1F
100
AcDbEntity
  8
0-0
  6
JWW_DASHED1
 62
   120
370
     5
100
AcDbLine
 10
127.2656580439752
 20
357.5604323788043
 30
0.0
 11
377.2656580439623
 21
607.5604323787913
 31
0.0
  0
LINE
  5
4C4
330
1F
100
AcDbEntity
  8
0-0
  6
JWW_DASHED1
 62
   120
370
     5
100
AcDbLine
 10
467.2656580439691
 20
697.5604323787982
 30
0.0
 11
717.2656580439583
 21
947.5604323787875
 31
0.0
  0
LINE
  5
4C5
330
1F
100
AcDbEntity
  8
0-0
  6
JWW_DASHED1
 62
   120
370
     5
100
AcDbLine
 10
127.2656580439816
 20
364.6315001920962
 30
0.0
 11
377.2656580439871
 21
614.6315001921016
 31
0.0
  0
LINE
  5
4C6
330
1F
100
AcDbEntity
  8
0-0
  6
JWW_DASHED1
 62
   120
370
     5
100
AcDbLine
 10
467.2656580439781
 20
704.6315001920926
 30
0.0
 11
717.2656580439698
 21
954.6315001920844
 31
0.0
  0
LINE
  5
4C7
330
1F
100
AcDbEntity
  8
0-0
  6
JWW_DASHED1
 62
   120
370
     5
100
AcDbLine
 10
127.2656580439774
 20
371.7025680053774
 30
0.0
 11
377.2656580439827
 21
621.7025680053828
 31
0.0
  0
LINE
  5
4C8
330
1F
100
AcDbEntity
  8
0-0
  6
JWW_DASHED1
 62
   120
370
     5
100
AcDbLine
 10
467.2656580439742
 20
711.7025680053739
 30
0.0
 11
717.2656580439814
 21
961.7025680053814
 31
0.0
  0
LINE
  5
4C9
330
1F
100
AcDbEntity
  8
0-0
  6
JWW_DASHED1
 62
   120
370
     5
100
AcDbLine
 10
127.2656580439735
 20
378.773635818659
 30
0.0
 11
377.2656580439789
 21
628.7736358186645
 31
0.0
  0
LINE
  5
4CA
330
1F
100
AcDbEntity
  8
0-0
  6
JWW_DASHED1
 62
   120
370
     5
100
AcDbLine
 10
467.26565804397
 20
718.7736358186555
 30
0.0
 11
717.265658043977
 21
968.7736358186626
 31
0.0
  0
LINE
  5
4CB
330
1F
100
AcDbEntity
  8
0-0
  6
JWW_DASHED1
 62
   120
370
     5
100
AcDbLine
 10
127.2656580439855
 20
385.8447036319565
 30
0.0
 11
377.2656580439747
 21
635.8447036319457
 31
0.0
  0
LINE
  5
4CC
330
1F
100
AcDbEntity
  8
0-0
  6
JWW_DASHED1
 62
   120
370
     5
100
AcDbLine
 10
467.2656580439823
 20
725.8447036319534
 30
0.0
 11
717.2656580439736
 21
975.8447036319443
 31
0.0
  0
LINE
  5
4CD
330
1F
100
AcDbEntity
  8
0-0
  6
JWW_DASHED1
 62
   120
370
     5
100
AcDbLine
 10
127.2656580439812
 20
392.9157714452377
 30
0.0
 11
377.2656580439704
 21
642.9157714452269
 31
0.0
  0
LINE
  5
4CE
330
1F
100
AcDbEntity
  8
0-0
  6
JWW_DASHED1
 62
   120
370
     5
100
AcDbLine
 10
467.2656580439785
 20
732.915771445235
 30
0.0
 11
717.2656580439694
 21
982.9157714452259
 31
0.0
  0
LINE
  5
4CF
330
1F
100
AcDbEntity
  8
0-0
  6
JWW_DASHED1
 62
   120
370
     5
100
AcDbLine
 10
127.2656580439774
 20
399.9868392585194
 30
0.0
 11
377.265658043967
 21
649.986839258509
 31
0.0
  0
LINE
  5
4D0
330
1F
100
AcDbEntity
  8
0-0
  6
JWW_DASHED1
 62
   120
370
     5
100
AcDbLine
 10
467.2656580439742
 20
739.9868392585163
 30
0.0
 11
713.3019325093902
 21
986.0231137239322
 31
0.0
  0
LINE
  5
4D1
330
1F
100
AcDbEntity
  8
0-0
  6
JWW_DASHED1
 62
   120
370
     5
100
AcDbLine
 10
127.2656580439735
 20
407.0579070717464
 30
0.0
 11
377.2656580439615
 21
657.0579070717343
 31
0.0
  0
LINE
  5
4D2
330
1F
100
AcDbEntity
  8
0-0
  6
JWW_DASHED1
 62
   120
370
     5
100
AcDbLine
 10
467.2656580439683
 20
747.0579070717412
 30
0.0
 11
706.2308646961674
 21
986.0231137239402
 31
0.0
  0
LINE
  5
4D3
330
1F
100
AcDbEntity
  8
0-0
  6
JWW_DASHED1
 62
   120
370
     5
100
AcDbLine
 10
127.2656580439808
 20
414.1289748850392
 30
0.0
 11
377.2656580439862
 21
664.1289748850445
 31
0.0
  0
LINE
  5
4D4
330
1F
100
AcDbEntity
  8
0-0
  6
JWW_DASHED1
 62
   120
370
     5
100
AcDbLine
 10
467.2656580439772
 20
754.1289748850356
 30
0.0
 11
699.1597968828555
 21
986.0231137239139
 31
0.0
  0
LINE
  5
4D5
330
1F
100
AcDbEntity
  8
0-0
  6
JWW_DASHED1
 62
   120
370
     5
100
AcDbLine
 10
127.2656580439765
 20
421.2000426983204
 30
0.0
 11
377.2656580439819
 21
671.2000426983258
 31
0.0
  0
LINE
  5
4D6
330
1F
100
AcDbEntity
  8
0-0
  6
JWW_DASHED1
 62
   120
370
     5
100
AcDbLine
 10
467.2656580439738
 20
761.2000426983177
 30
0.0
 11
692.0887290695742
 21
986.0231137239181
 31
0.0
  0
LINE
  5
4D7
330
1F
100
AcDbEntity
  8
0-0
  6
JWW_DASHED1
 62
   120
370
     5
100
AcDbLine
 10
127.2656580439889
 20
428.2711105116182
 30
0.0
 11
377.2656580439781
 21
678.2711105116074
 31
0.0
  0
LINE
  5
4D8
330
1F
100
AcDbEntity
  8
0-0
  6
JWW_DASHED1
 62
   120
370
     5
100
AcDbLine
 10
467.2656580439696
 20
768.2711105115989
 30
0.0
 11
685.017661256293
 21
986.0231137239219
 31
0.0
  0
LINE
  5
4D9
330
1F
100
AcDbEntity
  8
0-0
  6
JWW_DASHED1
 62
   120
370
     5
100
AcDbLine
 10
127.2656580439842
 20
435.342178324899
 30
0.0
 11
377.2656580439738
 21
685.3421783248887
 31
0.0
  0
LINE
  5
4DA
330
1F
100
AcDbEntity
  8
0-0
  6
JWW_DASHED1
 62
   120
370
     5
100
AcDbLine
 10
467.2656580439819
 20
775.3421783248963
 30
0.0
 11
677.9465934430093
 21
986.0231137239241
 31
0.0
  0
LINE
  5
4DB
330
1F
100
AcDbEntity
  8
0-0
  6
JWW_DASHED1
 62
   120
370
     5
100
AcDbLine
 10
127.2656580439804
 20
442.4132461381806
 30
0.0
 11
377.26565804397
 21
692.4132461381703
 31
0.0
  0
LINE
  5
4DC
330
1F
100
AcDbEntity
  8
0-0
  6
JWW_DASHED1
 62
   120
370
     5
100
AcDbLine
 10
467.2656580439776
 20
782.413246138178
 30
0.0
 11
670.8755256297268
 21
986.023113723927
 31
0.0
  0
LINE
  5
4DD
330
1F
100
AcDbEntity
  8
0-0
  6
JWW_DASHED1
 62
   120
370
     5
100
AcDbLine
 10
127.2656580439765
 20
449.4843139514623
 30
0.0
 11
377.2656580439661
 21
699.4843139514519
 31
0.0
  0
LINE
  5
4DE
330
1F
100
AcDbEntity
  8
0-0
  6
JWW_DASHED1
 62
   120
370
     5
100
AcDbLine
 10
467.2656580439734
 20
789.4843139514592
 30
0.0
 11
663.8044578164455
 21
986.0231137239309
 31
0.0
  0
LINE
  5
4DF
330
1F
100
AcDbEntity
  8
0-0
  6
JWW_DASHED1
 62
   120
370
     5
100
AcDbLine
 10
127.2656580439769
 20
456.5553817647482
 30
0.0
 11
377.265658043964
 21
706.5553817647353
 31
0.0
  0
LINE
  5
4E0
330
1F
100
AcDbEntity
  8
0-0
  6
JWW_DASHED1
 62
   120
370
     5
100
AcDbLine
 10
467.2656580439704
 20
796.5553817647417
 30
0.0
 11
656.7333900031634
 21
986.0231137239348
 31
0.0
  0
LINE
  5
4E1
330
1F
100
AcDbEntity
  8
0-0
  6
JWW_DASHED1
 62
   120
370
     5
100
AcDbLine
 10
127.2656580439842
 20
463.6264495780409
 30
0.0
 11
377.2656580439896
 21
713.6264495780463
 31
0.0
  0
LINE
  5
4E2
330
1F
100
AcDbEntity
  8
0-0
  6
JWW_DASHED1
 62
   120
370
     5
100
AcDbLine
 10
467.2656580439806
 20
803.6264495780374
 30
0.0
 11
649.662322189866
 21
986.0231137239224
 31
0.0
  0
LINE
  5
4E3
330
1F
100
AcDbEntity
  8
0-0
  6
JWW_DASHED1
 62
   120
370
     5
100
AcDbLine
 10
127.2656580439757
 20
470.6975173912633
 30
0.0
 11
377.2656580439815
 21
720.6975173912688
 31
0.0
  0
LINE
  5
4E4
330
1F
100
AcDbEntity
  8
0-0
  6
JWW_DASHED1
 62
   120
370
     5
100
AcDbLine
 10
467.2656580439725
 20
810.6975173912601
 30
0.0
 11
642.5912543766326
 21
986.0231137239198
 31
0.0
  0
LINE
  5
4E5
330
1F
100
AcDbEntity
  8
0-0
  6
JWW_DASHED1
 62
   120
370
     5
100
AcDbLine
 10
127.2656580439876
 20
477.7685852045607
 30
0.0
 11
377.2656580439772
 21
727.7685852045504
 31
0.0
  0
LINE
  5
4E6
330
1F
100
AcDbEntity
  8
0-0
  6
JWW_DASHED1
 62
   120
370
     5
100
AcDbLine
 10
467.2656580439687
 20
817.7685852045419
 30
0.0
 11
635.520186563351
 21
986.0231137239241
 31
0.0
  0
LINE
  5
4E7
330
1F
100
AcDbEntity
  8
0-0
  6
JWW_DASHED1
 62
   120
370
     5
100
AcDbLine
 10
127.2656580439838
 20
484.8396530178424
 30
0.0
 11
377.265658043973
 21
734.8396530178316
 31
0.0
  0
LINE
  5
4E8
330
1F
100
AcDbEntity
  8
0-0
  6
JWW_DASHED1
 62
   120
370
     5
100
AcDbLine
 10
467.2656580439802
 20
824.8396530178388
 30
0.0
 11
628.4491187500637
 21
986.0231137239224
 31
0.0
  0
LINE
  5
4E9
330
1F
100
AcDbEntity
  8
0-0
  6
JWW_DASHED1
 62
   120
370
     5
100
AcDbLine
 10
127.2656580439795
 20
491.9107208311236
 30
0.0
 11
377.2656580439687
 21
741.9107208311128
 31
0.0
  0
LINE
  5
4EA
330
1F
100
AcDbEntity
  8
0-0
  6
JWW_DASHED1
 62
   120
370
     5
100
AcDbLine
 10
467.2656580439768
 20
831.9107208311209
 30
0.0
 11
621.3780509367825
 21
986.0231137239266
 31
0.0
  0
LINE
  5
4EB
330
1F
100
AcDbEntity
  8
0-0
  6
JWW_DASHED1
 62
   120
370
     5
100
AcDbLine
 10
127.2656580439757
 20
498.9817886444052
 30
0.0
 11
377.2656580439653
 21
748.9817886443949
 31
0.0
  0
LINE
  5
4EC
330
1F
100
AcDbEntity
  8
0-0
  6
JWW_DASHED1
 62
   120
370
     5
100
AcDbLine
 10
467.2656580439725
 20
838.9817886444021
 30
0.0
 11
614.3069831235005
 21
986.02311372393
 31
0.0
  0
LINE
  5
4ED
330
1F
100
AcDbEntity
  8
0-0
  6
JWW_DASHED1
 62
   120
370
     5
100
AcDbLine
 10
127.2656580439752
 20
506.0528564576903
 30
0.0
 11
377.2656580439627
 21
756.0528564576778
 31
0.0
  0
LINE
  5
4EE
330
1F
100
AcDbEntity
  8
0-0
  6
JWW_DASHED1
 62
   120
370
     5
100
AcDbLine
 10
467.2656580439696
 20
846.0528564576846
 30
0.0
 11
607.2359153102188
 21
986.0231137239339
 31
0.0
  0
LINE
  5
4EF
330
1F
100
AcDbEntity
  8
0-0
  6
JWW_DASHED1
 62
   120
370
     5
100
AcDbLine
 10
127.2656580439833
 20
513.1239242709839
 30
0.0
 11
377.2656580439888
 21
763.1239242709893
 31
0.0
  0
LINE
  5
4F0
330
1F
100
AcDbEntity
  8
0-0
  6
JWW_DASHED1
 62
   120
370
     5
100
AcDbLine
 10
467.2656580439802
 20
853.1239242709808
 30
0.0
 11
600.164847496921
 21
986.0231137239215
 31
0.0
  0
LINE
  5
4F1
330
1F
100
AcDbEntity
  8
0-0
  6
JWW_DASHED1
 62
   120
370
     5
100
AcDbLine
 10
127.2656580439791
 20
520.1949920842651
 30
0.0
 11
377.2656580439844
 21
770.1949920842706
 31
0.0
  0
LINE
  5
4F2
330
1F
100
AcDbEntity
  8
0-0
  6
JWW_DASHED1
 62
   120
370
     5
100
AcDbLine
 10
467.2656580439764
 20
860.1949920842624
 30
0.0
 11
593.0937796836313
 21
986.0231137239173
 31
0.0
  0
LINE
  5
4F3
330
1F
100
AcDbEntity
  8
0-0
  6
JWW_DASHED1
 62
   120
370
     5
100
AcDbLine
 10
127.2656580439752
 20
527.2660598975467
 30
0.0
 11
377.2656580439802
 21
777.2660598975517
 31
0.0
  0
LINE
  5
4F4
330
1F
100
AcDbEntity
  8
0-0
  6
JWW_DASHED1
 62
   120
370
     5
100
AcDbLine
 10
467.2656580439725
 20
867.266059897544
 30
0.0
 11
586.02271187035
 21
986.0231137239215
 31
0.0
  0
LINE
  5
4F5
330
1F
100
AcDbEntity
  8
0-0
  6
JWW_DASHED1
 62
   120
370
     5
100
AcDbLine
 10
127.2656580439846
 20
534.3371277108143
 30
0.0
 11
377.2656580439747
 21
784.337127710804
 31
0.0
  0
LINE
  5
4F6
330
1F
100
AcDbEntity
  8
0-0
  6
JWW_DASHED1
 62
   120
370
     5
100
AcDbLine
 10
467.265658043981
 20
874.3371277108108
 30
0.0
 11
578.9516440570892
 21
986.023113723919
 31
0.0
  0
LINE
  5
4F7
330
1F
100
AcDbEntity
  8
0-0
  6
JWW_DASHED1
 62
   120
370
     5
100
AcDbLine
 10
127.2656580439786
 20
541.4081955240665
 30
0.0
 11
377.2656580439678
 21
791.4081955240557
 31
0.0
  0
LINE
  5
4F8
330
1F
100
AcDbEntity
  8
0-0
  6
JWW_DASHED1
 62
   120
370
     5
100
AcDbLine
 10
467.2656580439751
 20
881.408195524063
 30
0.0
 11
571.8805762438378
 21
986.0231137239253
 31
0.0
  0
LINE
  5
4F9
330
1F
100
AcDbEntity
  8
0-0
  6
JWW_DASHED1
 62
   120
370
     5
100
AcDbLine
 10
127.2656580439782
 20
548.4792633373515
 30
0.0
 11
377.2656580439653
 21
798.4792633373387
 31
0.0
  0
LINE
  5
4FA
330
1F
100
AcDbEntity
  8
0-0
  6
JWW_DASHED1
 62
   120
370
     5
100
AcDbLine
 10
467.2656580439721
 20
888.4792633373455
 30
0.0
 11
564.8095084305558
 21
986.0231137239292
 31
0.0
  0
LINE
  5
4FB
330
1F
100
AcDbEntity
  8
0-0
  6
JWW_DASHED1
 62
   120
370
     5
100
AcDbLine
 10
127.265658043974
 20
555.5503311506328
 30
0.0
 11
377.2656580439619
 21
805.5503311506208
 31
0.0
  0
LINE
  5
4FC
330
1F
100
AcDbEntity
  8
0-0
  6
JWW_DASHED1
 62
   120
370
     5
100
AcDbLine
 10
467.2656580439683
 20
895.5503311506267
 30
0.0
 11
557.7384406172737
 21
986.0231137239326
 31
0.0
  0
LINE
  5
4FD
330
1F
100
AcDbEntity
  8
0-0
  6
JWW_DASHED1
 62
   120
370
     5
100
AcDbLine
 10
127.2656580439825
 20
562.6213989639268
 30
0.0
 11
377.2656580439879
 21
812.6213989639323
 31
0.0
  0
LINE
  5
4FE
330
1F
100
AcDbEntity
  8
0-0
  6
JWW_DASHED1
 62
   120
370
     5
100
AcDbLine
 10
467.2656580439789
 20
902.6213989639233
 30
0.0
 11
550.6673728039764
 21
986.0231137239207
 31
0.0
  0
LINE
  5
4FF
330
1F
100
AcDbEntity
  8
0-0
  6
JWW_DASHED1
 62
   120
370
     5
100
AcDbLine
 10
127.2656580439782
 20
569.692466777208
 30
0.0
 11
377.2656580439836
 21
819.6924667772134
 31
0.0
  0
LINE
  5
500
330
1F
100
AcDbEntity
  8
0-0
  6
JWW_DASHED1
 62
   120
370
     5
100
AcDbLine
 10
467.2656580439747
 20
909.6924667772045
 30
0.0
 11
543.5963049906904
 21
986.0231137239198
 31
0.0
  0
LINE
  5
501
330
1F
100
AcDbEntity
  8
0-0
  6
JWW_DASHED1
 62
   120
370
     5
100
AcDbLine
 10
127.2656580439744
 20
576.7635345904897
 30
0.0
 11
377.2656580439793
 21
826.7635345904946
 31
0.0
  0
LINE
  5
502
330
1F
100
AcDbEntity
  8
0-0
  6
JWW_DASHED1
 62
   120
370
     5
100
AcDbLine
 10
467.2656580439713
 20
916.7635345904865
 30
0.0
 11
536.5252371774088
 21
986.0231137239241
 31
0.0
  0
LINE
  5
503
330
1F
100
AcDbEntity
  8
0-0
  6
JWW_DASHED1
 62
   120
370
     5
100
AcDbLine
 10
127.2656580439863
 20
583.8346024037871
 30
0.0
 11
377.2656580439751
 21
833.8346024037759
 31
0.0
  0
LINE
  5
504
330
1F
100
AcDbEntity
  8
0-0
  6
JWW_DASHED1
 62
   120
370
     5
100
AcDbLine
 10
467.2656580439832
 20
923.834602403784
 30
0.0
 11
529.4541693641156
 21
986.0231137239164
 31
0.0
  0
LINE
  5
505
330
1F
100
AcDbEntity
  8
0-0
  6
JWW_DASHED1
 62
   120
370
     5
100
AcDbLine
 10
127.2656580439821
 20
590.9056702170683
 30
0.0
 11
377.2656580439713
 21
840.9056702170575
 31
0.0
  0
LINE
  5
506
330
1F
100
AcDbEntity
  8
0-0
  6
JWW_DASHED1
 62
   120
370
     5
100
AcDbLine
 10
467.2656580439789
 20
930.9056702170652
 30
0.0
 11
522.3831015508335
 21
986.0231137239198
 31
0.0
  0
LINE
  5
507
330
1F
100
AcDbEntity
  8
0-0
  6
JWW_DASHED1
 62
   120
370
     5
100
AcDbLine
 10
127.2656580439782
 20
597.9767380303499
 30
0.0
 11
377.2656580439674
 21
847.9767380303392
 31
0.0
  0
LINE
  5
508
330
1F
100
AcDbEntity
  8
0-0
  6
JWW_DASHED1
 62
   120
370
     5
100
AcDbLine
 10
467.2656580439751
 20
937.9767380303464
 30
0.0
 11
515.3120337375519
 21
986.0231137239236
 31
0.0
  0
LINE
  5
509
330
1F
100
AcDbEntity
  8
0-0
  6
JWW_DASHED1
 62
   120
370
     5
100
AcDbLine
 10
127.2656580439727
 20
605.0478058435754
 30
0.0
 11
377.2656580439598
 21
855.0478058435624
 31
0.0
  0
LINE
  5
50A
330
1F
100
AcDbEntity
  8
0-0
  6
JWW_DASHED1
 62
   120
370
     5
100
AcDbLine
 10
467.2656580439666
 20
945.0478058435692
 30
0.0
 11
508.2409659243291
 21
986.0231137239317
 31
0.0
  0
LINE
  5
50B
330
1F
100
AcDbEntity
  8
0-0
  6
JWW_DASHED1
 62
   120
370
     5
100
AcDbLine
 10
127.2656580439816
 20
612.1188736568697
 30
0.0
 11
377.2656580439871
 21
862.1188736568752
 31
0.0
  0
LINE
  5
50C
330
1F
100
AcDbEntity
  8
0-0
  6
JWW_DASHED1
 62
   120
370
     5
100
AcDbLine
 10
467.2656580439781
 20
952.1188736568662
 30
0.0
 11
501.1698981110308
 21
986.023113723919
 31
0.0
  0
LINE
  5
50D
330
1F
100
AcDbEntity
  8
0-0
  6
JWW_DASHED1
 62
   120
370
     5
100
AcDbLine
 10
127.2656580439774
 20
619.189941470151
 30
0.0
 11
377.2656580439827
 21
869.1899414701563
 31
0.0
  0
LINE
  5
50E
330
1F
100
AcDbEntity
  8
0-0
  6
JWW_DASHED1
 62
   120
370
     5
100
AcDbLine
 10
467.2656580439738
 20
959.1899414701475
 30
0.0
 11
494.0988302977479
 21
986.0231137239215
 31
0.0
  0
LINE
  5
50F
330
1F
100
AcDbEntity
  8
0-0
  6
JWW_DASHED1
 62
   120
370
     5
100
AcDbLine
 10
127.2656580439893
 20
626.2610092834484
 30
0.0
 11
377.2656580439785
 21
876.2610092834376
 31
0.0
  0
LINE
  5
510
330
1F
100
AcDbEntity
  8
0-0
  6
JWW_DASHED1
 62
   120
370
     5
100
AcDbLine
 10
467.2656580439696
 20
966.2610092834286
 30
0.0
 11
487.0277624844671
 21
986.0231137239261
 31
0.0
  0
LINE
  5
511
330
1F
100
AcDbEntity
  8
0-0
  6
JWW_DASHED1
 62
   120
370
     5
100
AcDbLine
 10
127.2656580439855
 20
633.33207709673
 30
0.0
 11
377.2656580439747
 21
883.3320770967189
 31
0.0
  0
LINE
  5
512
330
1F
100
AcDbEntity
  8
0-0
  6
JWW_DASHED1
 62
   120
370
     5
100
AcDbLine
 10
467.2656580439819
 20
973.3320770967265
 30
0.0
 11
479.9566946711701
 21
986.0231137239147
 31
0.0
  0
LINE
  5
513
330
1F
100
AcDbEntity
  8
0-0
  6
JWW_DASHED1
 62
   120
370
     5
100
AcDbLine
 10
127.2656580439812
 20
640.4031449100113
 30
0.0
 11
377.2656580439704
 21
890.4031449100005
 31
0.0
  0
LINE
  5
514
330
1F
100
AcDbEntity
  8
0-0
  6
JWW_DASHED1
 62
   120
370
     5
100
AcDbLine
 10
467.2656580439781
 20
980.4031449100081
 30
0.0
 11
472.8856268578889
 21
986.023113723919
 31
0.0
  0
LINE
  5
515
330
1F
100
AcDbEntity
  8
0-0
  6
JWW_DASHED1
 62
   120
370
     5
100
AcDbLine
 10
127.2656580439774
 20
647.4742127232929
 30
0.0
 11
377.2656580439661
 21
897.4742127232817
 31
0.0
  0
LINE
  5
516
330
1F
100
AcDbEntity
  8
0-0
  6
JWW_DASHED1
 62
   120
370
     5
100
AcDbLine
 10
127.2656580439757
 20
654.5452805365767
 30
0.0
 11
377.2656580439632
 21
904.5452805365642
 31
0.0
  0
LINE
  5
517
330
1F
100
AcDbEntity
  8
0-0
  6
JWW_DASHED1
 62
   120
370
     5
100
AcDbLine
 10
127.2656580439846
 20
661.6163483498711
 30
0.0
 11
377.2656580439905
 21
911.6163483498765
 31
0.0
  0
LINE
  5
518
330
1F
100
AcDbEntity
  8
0-0
  6
JWW_DASHED1
 62
   120
370
     5
100
AcDbLine
 10
127.2656580439765
 20
668.687416163094
 30
0.0
 11
377.2656580439819
 21
918.6874161630993
 31
0.0
  0
LINE
  5
519
330
1F
100
AcDbEntity
  8
0-0
  6
JWW_DASHED1
 62
   120
370
     5
100
AcDbLine
 10
127.265658043988
 20
675.758483976391
 30
0.0
 11
377.2656580439776
 21
925.7584839763806
 31
0.0
  0
LINE
  5
51A
330
1F
100
AcDbEntity
  8
0-0
  6
JWW_DASHED1
 62
   120
370
     5
100
AcDbLine
 10
127.2656580439846
 20
682.829551789673
 30
0.0
 11
377.2656580439738
 21
932.8295517896618
 31
0.0
  0
LINE
  5
51B
330
1F
100
AcDbEntity
  8
0-0
  6
JWW_DASHED1
 62
   120
370
     5
100
AcDbLine
 10
127.2656580439804
 20
689.9006196029542
 30
0.0
 11
377.2656580439696
 21
939.9006196029434
 31
0.0
  0
LINE
  5
51C
330
1F
100
AcDbEntity
  8
0-0
  6
JWW_DASHED1
 62
   120
370
     5
100
AcDbLine
 10
127.2656580439761
 20
696.9716874162355
 30
0.0
 11
377.2656580439657
 21
946.971687416225
 31
0.0
  0
LINE
  5
51D
330
1F
100
AcDbEntity
  8
0-0
  6
JWW_DASHED1
 62
   120
370
     5
100
AcDbLine
 10
127.2656580439744
 20
704.0427552295192
 30
0.0
 11
377.2656580439623
 21
954.0427552295071
 31
0.0
  0
LINE
  5
51E
330
1F
100
AcDbEntity
  8
0-0
  6
JWW_DASHED1
 62
   120
370
     5
100
AcDbLine
 10
127.2656580439838
 20
711.113823042814
 30
0.0
 11
377.2656580439896
 21
961.1138230428198
 31
0.0
  0
LINE
  5
51F
330
1F
100
AcDbEntity
  8
0-0
  6
JWW_DASHED1
 62
   120
370
     5
100
AcDbLine
 10
127.2656580439799
 20
718.1848908560958
 30
0.0
 11
377.2656580439854
 21
968.1848908561011
 31
0.0
  0
LINE
  5
520
330
1F
100
AcDbEntity
  8
0-0
  6
JWW_DASHED1
 62
   120
370
     5
100
AcDbLine
 10
127.2656580439761
 20
725.2559586693774
 30
0.0
 11
377.265658043981
 21
975.2559586693824
 31
0.0
  0
LINE
  5
521
330
1F
100
AcDbEntity
  8
0-0
  6
JWW_DASHED1
 62
   120
370
     5
100
AcDbLine
 10
127.2656580439876
 20
732.3270264826743
 30
0.0
 11
377.2656580439768
 21
982.3270264826635
 31
0.0
  0
LINE
  5
522
330
1F
100
AcDbEntity
  8
0-0
  6
JWW_DASHED1
 62
   120
370
     5
100
AcDbLine
 10
127.2656580439795
 20
739.3980942958972
 30
0.0
 11
373.8906774720102
 21
986.023113723928
 31
0.0
  0
LINE
  5
523
330
1F
100
AcDbEntity
  8
0-0
  6
JWW_DASHED1
 62
   120
370
     5
100
AcDbLine
 10
127.2656580439774
 20
746.4691621091805
 30
0.0
 11
366.8196096587282
 21
986.0231137239314
 31
0.0
  0
LINE
  5
524
330
1F
100
AcDbEntity
  8
0-0
  6
JWW_DASHED1
 62
   120
370
     5
100
AcDbLine
 10
127.2656580439735
 20
753.5402299224621
 30
0.0
 11
359.7485418454465
 21
986.0231137239351
 31
0.0
  0
LINE
  5
525
330
1F
100
AcDbEntity
  8
0-0
  6
JWW_DASHED1
 62
   120
370
     5
100
AcDbLine
 10
127.2656580439833
 20
760.6112977357575
 30
0.0
 11
352.677474032135
 21
986.0231137239091
 31
0.0
  0
LINE
  5
526
330
1F
100
AcDbEntity
  8
0-0
  6
JWW_DASHED1
 62
   120
370
     5
100
AcDbLine
 10
127.2656580439791
 20
767.6823655490386
 30
0.0
 11
345.6064062188539
 21
986.0231137239134
 31
0.0
  0
LINE
  5
527
330
1F
100
AcDbEntity
  8
0-0
  6
JWW_DASHED1
 62
   120
370
     5
100
AcDbLine
 10
127.2656580439752
 20
774.7534333623203
 30
0.0
 11
338.5353384055726
 21
986.0231137239173
 31
0.0
  0
LINE
  5
528
330
1F
100
AcDbEntity
  8
0-0
  6
JWW_DASHED1
 62
   120
370
     5
100
AcDbLine
 10
127.2656580439867
 20
781.8245011756173
 30
0.0
 11
331.464270592288
 21
986.0231137239185
 31
0.0
  0
LINE
  5
529
330
1F
100
AcDbEntity
  8
0-0
  6
JWW_DASHED1
 62
   120
370
     5
100
AcDbLine
 10
127.2656580439825
 20
788.8955689888985
 30
0.0
 11
324.3932027790063
 21
986.0231137239224
 31
0.0
  0
LINE
  5
52A
330
1F
100
AcDbEntity
  8
0-0
  6
JWW_DASHED1
 62
   120
370
     5
100
AcDbLine
 10
127.2656580439786
 20
795.9666368021801
 30
0.0
 11
317.3221349657251
 21
986.0231137239261
 31
0.0
  0
LINE
  5
52B
330
1F
100
AcDbEntity
  8
0-0
  6
JWW_DASHED1
 62
   120
370
     5
100
AcDbLine
 10
127.2656580439714
 20
803.0377046154038
 30
0.0
 11
310.2510671525023
 21
986.0231137239348
 31
0.0
  0
LINE
  5
52C
330
1F
100
AcDbEntity
  8
0-0
  6
JWW_DASHED1
 62
   120
370
     5
100
AcDbLine
 10
127.2656580439816
 20
810.1087724286995
 30
0.0
 11
303.1799993391938
 21
986.0231137239117
 31
0.0
  0
LINE
  5
52D
330
1F
100
AcDbEntity
  8
0-0
  6
JWW_DASHED1
 62
   120
370
     5
100
AcDbLine
 10
127.2656580439782
 20
817.1798402419815
 30
0.0
 11
296.1089315259118
 21
986.0231137239151
 31
0.0
  0
LINE
  5
52E
330
1F
100
AcDbEntity
  8
0-0
  6
JWW_DASHED1
 62
   120
370
     5
100
AcDbLine
 10
127.2656580439902
 20
824.2509080552791
 30
0.0
 11
289.0378637126258
 21
986.0231137239147
 31
0.0
  0
LINE
  5
52F
330
1F
100
AcDbEntity
  8
0-0
  6
JWW_DASHED1
 62
   120
370
     5
100
AcDbLine
 10
127.2656580439859
 20
831.3219758685602
 30
0.0
 11
281.9667958993438
 21
986.0231137239181
 31
0.0
  0
LINE
  5
530
330
1F
100
AcDbEntity
  8
0-0
  6
JWW_DASHED1
 62
   120
370
     5
100
AcDbLine
 10
127.2656580439816
 20
838.3930436818414
 30
0.0
 11
274.8957280860621
 21
986.0231137239219
 31
0.0
  0
LINE
  5
531
330
1F
100
AcDbEntity
  8
0-0
  6
JWW_DASHED1
 62
   120
370
     5
100
AcDbLine
 10
127.2656580439778
 20
845.4641114951231
 30
0.0
 11
267.8246602727809
 21
986.0231137239261
 31
0.0
  0
LINE
  5
532
330
1F
100
AcDbEntity
  8
0-0
  6
JWW_DASHED1
 62
   120
370
     5
100
AcDbLine
 10
127.2656580439748
 20
852.5351793084055
 30
0.0
 11
260.7535924594984
 21
986.0231137239292
 31
0.0
  0
LINE
  5
533
330
1F
100
AcDbEntity
  8
0-0
  6
JWW_DASHED1
 62
   120
370
     5
100
AcDbLine
 10
127.2656580439855
 20
859.6062471217017
 30
0.0
 11
253.6825246462014
 21
986.0231137239177
 31
0.0
  0
LINE
  5
534
330
1F
100
AcDbEntity
  8
0-0
  6
JWW_DASHED1
 62
   120
370
     5
100
AcDbLine
 10
127.2656580439774
 20
866.6773149349245
 30
0.0
 11
246.6114568329709
 21
986.0231137239181
 31
0.0
  0
LINE
  5
535
330
1F
100
AcDbEntity
  8
0-0
  6
JWW_DASHED1
 62
   120
370
     5
100
AcDbLine
 10
127.2656580439893
 20
873.748382748222
 30
0.0
 11
239.5403890196803
 21
986.023113723913
 31
0.0
  0
LINE
  5
536
330
1F
100
AcDbEntity
  8
0-0
  6
JWW_DASHED1
 62
   120
370
     5
100
AcDbLine
 10
127.265658043985
 20
880.8194505615031
 30
0.0
 11
232.4693212063991
 21
986.0231137239173
 31
0.0
  0
LINE
  5
537
330
1F
100
AcDbEntity
  8
0-0
  6
JWW_DASHED1
 62
   120
370
     5
100
AcDbLine
 10
127.2656580439808
 20
887.8905183747844
 30
0.0
 11
225.3982533931175
 21
986.0231137239207
 31
0.0
  0
LINE
  5
538
330
1F
100
AcDbEntity
  8
0-0
  6
JWW_DASHED1
 62
   120
370
     5
100
AcDbLine
 10
127.2656580439769
 20
894.961586188066
 30
0.0
 11
218.3271855798354
 21
986.0231137239246
 31
0.0
  0
LINE
  5
539
330
1F
100
AcDbEntity
  8
0-0
  6
JWW_DASHED1
 62
   120
370
     5
100
AcDbLine
 10
127.2656580439731
 20
902.0326540013477
 30
0.0
 11
211.2561177665542
 21
986.0231137239288
 31
0.0
  0
LINE
  5
53A
330
1F
100
AcDbEntity
  8
0-0
  6
JWW_DASHED1
 62
   120
370
     5
100
AcDbLine
 10
127.2656580439842
 20
909.1037218146442
 30
0.0
 11
204.1850499532516
 21
986.0231137239117
 31
0.0
  0
LINE
  5
53B
330
1F
100
AcDbEntity
  8
0-0
  6
JWW_DASHED1
 62
   120
370
     5
100
AcDbLine
 10
127.2656580439804
 20
916.1747896279259
 30
0.0
 11
197.1139821399709
 21
986.0231137239164
 31
0.0
  0
LINE
  5
53C
330
1F
100
AcDbEntity
  8
0-0
  6
JWW_DASHED1
 62
   120
370
     5
100
AcDbLine
 10
127.2656580439769
 20
923.2458574412079
 30
0.0
 11
190.0429143266896
 21
986.0231137239207
 31
0.0
  0
LINE
  5
53D
330
1F
100
AcDbEntity
  8
0-0
  6
JWW_DASHED1
 62
   120
370
     5
100
AcDbLine
 10
127.2656580439885
 20
930.3169252545049
 30
0.0
 11
182.9718465133956
 21
986.0231137239122
 31
0.0
  0
LINE
  5
53E
330
1F
100
AcDbEntity
  8
0-0
  6
JWW_DASHED1
 62
   120
370
     5
100
AcDbLine
 10
127.2656580439804
 20
937.3879930677274
 30
0.0
 11
175.9007787001732
 21
986.0231137239207
 31
0.0
  0
LINE
  5
53F
330
1F
100
AcDbEntity
  8
0-0
  6
JWW_DASHED1
 62
   120
370
     5
100
AcDbLine
 10
127.2656580439761
 20
944.459060881009
 30
0.0
 11
168.8297108868912
 21
986.0231137239241
 31
0.0
  0
LINE
  5
540
330
1F
100
AcDbEntity
  8
0-0
  6
JWW_DASHED1
 62
   120
370
     5
100
AcDbLine
 10
127.2656580439723
 20
951.5301286942906
 30
0.0
 11
161.75864307361
 21
986.0231137239283
 31
0.0
  0
LINE
  5
541
330
1F
100
AcDbEntity
  8
0-0
  6
JWW_DASHED1
 62
   120
370
     5
100
AcDbLine
 10
127.2656580439838
 20
958.6011965075876
 30
0.0
 11
154.6875752603104
 21
986.0231137239143
 31
0.0
  0
LINE
  5
542
330
1F
100
AcDbEntity
  8
0-0
  6
JWW_DASHED1
 62
   120
370
     5
100
AcDbLine
 10
127.2656580439795
 20
965.6722643208689
 30
0.0
 11
147.6165074470292
 21
986.0231137239185
 31
0.0
  0
LINE
  5
543
330
1F
100
AcDbEntity
  8
0-0
  6
JWW_DASHED1
 62
   120
370
     5
100
AcDbLine
 10
127.2656580439761
 20
972.7433321341509
 30
0.0
 11
140.545439633748
 21
986.0231137239227
 31
0.0
  0
LINE
  5
544
330
1F
100
AcDbEntity
  8
0-0
  6
JWW_DASHED1
 62
   120
370
     5
100
AcDbLine
 10
127.2656580439876
 20
979.8143999474479
 30
0.0
 11
133.474371820451
 21
986.0231137239113
 31
0.0
  0
LWPOLYLINE
  5
545
330
1F
100
AcDbEntity
  8
寸法
  6
Continuous
 62
     7
370
     9
100
AcDbPolyline
 90
        4
 70
     1
 43
3.0
 10
828.7656580439755
 20
-1319.976886276076
 42
0.4142135623731
 10
827.2656580439755
 20
-1318.476886276076
 42
0.4142135623731
 10
825.7656580439753
 20
-1319.976886276076
 42
0.4142135623731
 10
827.2656580439755
 20
-1321.476886276076
 42
0.4142135623731
  0
LWPOLYLINE
  5
546
330
1F
100
AcDbEntity
  8
寸法
  6
Continuous
 62
     7
370
     9
100
AcDbPolyline
 90
        4
 70
     1
 43
3.0
 10
1635.765658043976
 20
-1719.976886276076
 42
0.4142135623731
 10
1634.265658043977
 20
-1718.476886276076
 42
0.4142135623731
 10
1632.765658043977
 20
-1719.976886276076
 42
0.4142135623731
 10
1634.265658043977
 20
-1721.476886276076
 42
0.4142135623731
  0
LWPOLYLINE
  5
547
330
1F
100
AcDbEntity
  8
寸法
  6
Continuous
 62
     7
370
     9
100
AcDbPolyline
 90
        4
 70
     1
 43
3.0
 10
1605.765658043976
 20
-1519.976886276076
 42
0.4142135623731
 10
1604.265658043977
 20
-1518.476886276076
 42
0.4142135623731
 10
1602.765658043977
 20
-1519.976886276076
 42
0.4142135623731
 10
1604.265658043977
 20
-1521.476886276076
 42
0.4142135623731
  0
LWPOLYLINE
  5
548
330
1F
100
AcDbEntity
  8
寸法
  6
Continuous
 62
     7
370
     9
100
AcDbPolyline
 90
        4
 70
     1
 43
3.0
 10
-791.2343419560244
 20
-1319.976886276076
 42
0.4142135623731
 10
-792.7343419560245
 20
-1318.476886276076
 42
0.4142135623731
 10
-794.2343419560245
 20
-1319.976886276076
 42
0.4142135623731
 10
-792.7343419560245
 20
-1321.476886276076
 42
0.4142135623731
  0
LWPOLYLINE
  5
549
330
1F
100
AcDbEntity
  8
寸法
  6
Continuous
 62
     7
370
     9
100
AcDbPolyline
 90
        4
 70
     1
 43
3.0
 10
18.76565804397552
 20
-1319.976886276076
 42
0.4142135623731
 10
17.26565804397552
 20
-1318.476886276076
 42
0.4142135623731
 10
15.76565804397552
 20
-1319.976886276076
 42
0.4142135623731
 10
17.26565804397552
 20
-1321.476886276076
 42
0.4142135623731
  0
LWPOLYLINE
  5
54A
330
1F
100
AcDbEntity
  8
寸法
  6
Continuous
 62
     7
370
     9
100
AcDbPolyline
 90
        4
 70
     1
 43
3.0
 10
-1598.234341956024
 20
-1719.976886276077
 42
0.4142135623731
 10
-1599.734341956024
 20
-1718.476886276077
 42
0.4142135623731
 10
-1601.234341956024
 20
-1719.976886276077
 42
0.4142135623731
 10
-1599.734341956024
 20
-1721.476886276077
 42
0.4142135623731
  0
LWPOLYLINE
  5
54B
330
1F
100
AcDbEntity
  8
寸法
  6
Continuous
 62
     7
370
     9
100
AcDbPolyline
 90
        4
 70
     1
 43
3.0
 10
-1568.234341956024
 20
-1519.976886276076
 42
0.4142135623731
 10
-1569.734341956024
 20
-1518.476886276076
 42
0.4142135623731
 10
-1571.234341956024
 20
-1519.976886276076
 42
0.4142135623731
 10
-1569.734341956024
 20
-1521.476886276076
 42
0.4142135623731
  0
LINE
  5
54C
330
1F
100
AcDbEntity
  8
寸法
  6
Continuous
 62
   120
370
     5
100
AcDbLine
 10
827.2656580439755
 20
-1319.976886276076
 30
0.0
 11
827.2656580439755
 21
-1119.976886276077
 31
0.0
  0
LINE
  5
54D
330
1F
100
AcDbEntity
  8
寸法
  6
Continuous
 62
   120
370
     5
100
AcDbLine
 10
1634.265658043977
 20
-1719.976886276076
 30
0.0
 11
1634.265658043977
 21
-1119.976886276077
 31
0.0
  0
LINE
  5
54E
330
1F
100
AcDbEntity
  8
寸法
  6
Continuous
 62
   120
370
     5
100
AcDbLine
 10
-1599.734341956024
 20
-1719.976886276077
 30
0.0
 11
1634.265658043977
 21
-1719.976886276076
 31
0.0
  0
LINE
  5
54F
330
1F
100
AcDbEntity
  8
寸法
  6
Continuous
 62
   120
370
     5
100
AcDbLine
 10
1604.265658043977
 20
-1519.976886276076
 30
0.0
 11
1604.265658043977
 21
-1119.976886276077
 31
0.0
  0
LINE
  5
550
330
1F
100
AcDbEntity
  8
寸法
  6
Continuous
 62
   120
370
     5
100
AcDbLine
 10
-1569.734341956024
 20
-1519.976886276076
 30
0.0
 11
1604.265658043977
 21
-1519.976886276076
 31
0.0
  0
LINE
  5
551
330
1F
100
AcDbEntity
  8
寸法
  6
Continuous
 62
   120
370
     5
100
AcDbLine
 10
-792.7343419560245
 20
-1319.976886276076
 30
0.0
 11
827.2656580439755
 21
-1319.976886276076
 31
0.0
  0
LINE
  5
552
330
1F
100
AcDbEntity
  8
寸法
  6
Continuous
 62
   120
370
     5
100
AcDbLine
 10
-792.7343419560245
 20
-1319.976886276076
 30
0.0
 11
-792.7343419560245
 21
-1119.976886276077
 31
0.0
  0
LINE
  5
553
330
1F
100
AcDbEntity
  8
寸法
  6
Continuous
 62
   120
370
     5
100
AcDbLine
 10
17.26565804397552
 20
-1319.976886276076
 30
0.0
 11
17.26565804397552
 21
-1119.976886276077
 31
0.0
  0
LINE
  5
554
330
1F
100
AcDbEntity
  8
寸法
  6
Continuous
 62
   120
370
     5
100
AcDbLine
 10
-1599.734341956024
 20
-1719.976886276077
 30
0.0
 11
-1599.734341956024
 21
-1119.976886276077
 31
0.0
  0
LINE
  5
555
330
1F
100
AcDbEntity
  8
寸法
  6
Continuous
 62
   120
370
     5
100
AcDbLine
 10
-1569.734341956024
 20
-1519.976886276076
 30
0.0
 11
-1569.734341956024
 21
-1119.976886276077
 31
0.0
  0
LWPOLYLINE
  5
556
330
1F
100
AcDbEntity
  8
寸法
  6
Continuous
 62
     7
370
     9
100
AcDbPolyline
 90
        4
 70
     1
 43
3.0
 10
-2048.234341956024
 20
-1069.976886276076
 42
0.4142135623731
 10
-2049.734341956024
 20
-1068.476886276076
 42
0.4142135623731
 10
-2051.234341956024
 20
-1069.976886276076
 42
0.4142135623731
 10
-2049.734341956024
 20
-1071.476886276076
 42
0.4142135623731
  0
LINE
  5
557
330
1F
100
AcDbEntity
  8
寸法
  6
Continuous
 62
   120
370
     5
100
AcDbLine
 10
-2049.734341956024
 20
-1069.976886276076
 30
0.0
 11
-1649.734341956024
 21
-1069.976886276076
 31
0.0
  0
LWPOLYLINE
  5
558
330
1F
100
AcDbEntity
  8
寸法
  6
Continuous
 62
     7
370
     9
100
AcDbPolyline
 90
        4
 70
     1
 43
3.0
 10
-1848.234341956022
 20
-1061.976886276077
 42
0.4142135623731
 10
-1849.734341956022
 20
-1060.476886276077
 42
0.4142135623731
 10
-1851.234341956022
 20
-1061.976886276077
 42
0.4142135623731
 10
-1849.734341956022
 20
-1063.476886276077
 42
0.4142135623731
  0
LINE
  5
559
330
1F
100
AcDbEntity
  8
寸法
  6
Continuous
 62
   120
370
     5
100
AcDbLine
 10
-1849.734341956022
 20
-1061.976886276077
 30
0.0
 11
-1649.734341956024
 21
-1061.976886276077
 31
0.0
  0
LINE
  5
55A
330
1F
100
AcDbEntity
  8
寸法
  6
Continuous
 62
   120
370
     5
100
AcDbLine
 10
-2049.734341956024
 20
1165.023113723924
 30
0.0
 11
-2049.734341956024
 21
-1069.976886276076
 31
0.0
  0
LINE
  5
55B
330
1F
100
AcDbEntity
  8
寸法
  6
Continuous
 62
   120
370
     5
100
AcDbLine
 10
-2049.734341956024
 20
1165.023113723924
 30
0.0
 11
-1649.734341956024
 21
1165.023113723924
 31
0.0
  0
LWPOLYLINE
  5
55C
330
1F
100
AcDbEntity
  8
寸法
  6
Continuous
 62
     7
370
     9
100
AcDbPolyline
 90
        4
 70
     1
 43
3.0
 10
-2048.234341956024
 20
1165.023113723924
 42
0.4142135623731
 10
-2049.734341956024
 20
1166.523113723924
 42
0.4142135623731
 10
-2051.234341956024
 20
1165.023113723924
 42
0.4142135623731
 10
-2049.734341956024
 20
1163.523113723924
 42
0.4142135623731
  0
LINE
  5
55D
330
1F
100
AcDbEntity
  8
寸法
  6
Continuous
 62
   120
370
     5
100
AcDbLine
 10
-1849.734341956022
 20
1121.023113723923
 30
0.0
 11
-1649.734341956024
 21
1121.023113723923
 31
0.0
  0
LINE
  5
55E
330
1F
100
AcDbEntity
  8
寸法
  6
Continuous
 62
   120
370
     5
100
AcDbLine
 10
-1849.734341956022
 20
1121.023113723923
 30
0.0
 11
-1849.734341956022
 21
-1061.976886276077
 31
0.0
  0
LWPOLYLINE
  5
55F
330
1F
100
AcDbEntity
  8
寸法
  6
Continuous
 62
     7
370
     9
100
AcDbPolyline
 90
        4
 70
     1
 43
3.0
 10
-1848.234341956022
 20
1121.023113723923
 42
0.4142135623731
 10
-1849.734341956022
 20
1122.523113723923
 42
0.4142135623731
 10
-1851.234341956022
 20
1121.023113723923
 42
0.4142135623731
 10
-1849.734341956022
 20
1119.523113723923
 42
0.4142135623731
  0
MTEXT
  5
560
330
1F
100
AcDbEntity
  8
寸法
  6
Continuous
 62
     7
370
    70
100
AcDbMText
 10
-2064.734341956024
 20
-182.4018862760765
 30
0.0
 40
57.14999999999999
 41
412.5
 46
0.0
 71
     7
 72
     1
  1
{\fＭＳ ゴシック|b0|i0|c128|p49;枠外＝2,235}
 11
6.123031769111886E-17
 21
1.0
 31
0.0
 73
     1
 44
1.0
  0
MTEXT
  5
561
330
1F
100
AcDbEntity
  8
寸法
  6
Continuous
 62
     7
370
    70
100
AcDbMText
 10
-1864.734341956022
 20
-188.9018862760774
 30
0.0
 40
57.14999999999999
 41
412.5
 46
0.0
 71
     7
 72
     1
  1
{\fＭＳ ゴシック|b0|i0|c128|p49;ＤＨ＝2,183}
 11
6.123031769111886E-17
 21
1.0
 31
0.0
 73
     1
 44
1.0
  0
MTEXT
  5
562
330
1F
100
AcDbEntity
  8
寸法
  6
Continuous
 62
     7
370
   211
100
AcDbMText
 10
-556.4843419560245
 20
-1313.901886276076
 30
0.0
 40
57.14999999999998
 41
337.4999999999999
 46
0.0
 71
     7
 72
     1
  1
{\fＭＳ ゴシック|b0|i0|c128|p49;ＤＷ＝810}
 73
     1
 44
1.0
  0
MTEXT
  5
563
330
1F
100
AcDbEntity
  8
寸法
  6
Continuous
 62
     7
370
   211
100
AcDbMText
 10
253.5156580439755
 20
-1313.901886276076
 30
0.0
 40
57.15000000000001
 41
337.5000000000001
 46
0.0
 71
     7
 72
     1
  1
{\fＭＳ ゴシック|b0|i0|c128|p49;ＤＷ＝810}
 73
     1
 44
1.0
  0
MTEXT
  5
564
330
1F
100
AcDbEntity
  8
寸法
  6
Continuous
 62
     7
370
   211
100
AcDbMText
 10
-188.9843419560245
 20
-1513.901886276076
 30
0.0
 40
57.14999999999999
 41
412.5
 46
0.0
 71
     7
 72
     1
  1
{\fＭＳ ゴシック|b0|i0|c128|p49;枠内＝3,174}
 73
     1
 44
1.0
  0
MTEXT
  5
565
330
1F
100
AcDbEntity
  8
寸法
  6
Continuous
 62
     7
370
   211
100
AcDbMText
 10
-188.9843419560245
 20
-1713.901886276077
 30
0.0
 40
57.14999999999999
 41
412.5
 46
0.0
 71
     7
 72
     1
  1
{\fＭＳ ゴシック|b0|i0|c128|p49;枠外＝3,234}
 73
     1
 44
1.0
  0
ENDSEC
  0
SECTION
  2
OBJECTS
  0
DICTIONARY
  5
C
330
0
100
AcDbDictionary
281
     1
  3
ACAD_GROUP
350
D
  3
ACAD_LAYOUT
350
1A
  3
ACAD_MATERIAL
350
3B
  3
ACAD_MLEADERSTYLE
350
567
  3
ACAD_MLINESTYLE
350
17
  3
ACAD_PLOTSETTINGS
350
19
  3
ACAD_PLOTSTYLENAME
350
E
  3
ACAD_TABLESTYLE
350
566
  3
ACAD_VISUALSTYLE
350
2A
  0
DICTIONARY
  5
D
102
{ACAD_REACTORS
330
C
102
}
330
C
100
AcDbDictionary
281
     1
  0
DICTIONARY
  5
1A
102
{ACAD_REACTORS
330
C
102
}
330
C
100
AcDbDictionary
281
     1
  3
Layout1
350
1E
  3
Layout2
350
26
  3
Model
350
22
  0
DICTIONARY
  5
3B
102
{ACAD_REACTORS
330
C
102
}
330
C
100
AcDbDictionary
281
     1
  3
ByBlock
350
3D
  3
ByLayer
350
3C
  3
Global
350
3E
  0
DICTIONARY
  5
567
102
{ACAD_REACTORS
330
C
102
}
330
C
100
AcDbDictionary
281
     1
  0
DICTIONARY
  5
17
102
{ACAD_REACTORS
330
C
102
}
330
C
100
AcDbDictionary
281
     1
  3
Standard
350
18
  0
DICTIONARY
  5
19
102
{ACAD_REACTORS
330
C
102
}
330
C
100
AcDbDictionary
281
     1
  0
ACDBDICTIONARYWDFLT
  5
E
102
{ACAD_REACTORS
330
C
102
}
330
C
100
AcDbDictionary
281
     1
  3
Normal
350
F
100
AcDbDictionaryWithDefault
340
F
  0
DICTIONARY
  5
566
102
{ACAD_REACTORS
330
C
102
}
330
C
100
AcDbDictionary
281
     1
  0
DICTIONARY
  5
2A
102
{ACAD_REACTORS
330
C
102
}
330
C
100
AcDbDictionary
281
     1
  3
2dWireframe
350
2F
  3
3D Hidden
350
31
  3
3dWireframe
350
30
  3
Basic
350
32
  3
Brighten
350
36
  3
ColorChange
350
3A
  3
Conceptual
350
34
  3
Dim
350
35
  3
Facepattern
350
39
  3
Flat
350
2B
  3
FlatWithEdges
350
2C
  3
Gouraud
350
2D
  3
GouraudWithEdges
350
2E
  3
Linepattern
350
38
  3
Realistic
350
33
  3
Thicken
350
37
  0
LAYOUT
  5
1E
102
{ACAD_REACTORS
330
1A
102
}
330
1A
100
AcDbPlotSettings
  1

  2
none_device
  4

  6

 40
0.0
 41
0.0
 42
0.0
 43
0.0
 44
0.0
 45
0.0
 46
0.0
 47
0.0
 48
0.0
 49
0.0
140
0.0
141
0.0
142
1.0
143
1.0
 70
   688
 72
     0
 73
     0
 74
     5
  7

 75
    16
 76
     0
 77
     5
 78
   300
147
1.0
148
0.0
149
0.0
100
AcDbLayout
  1
Layout1
 70
     1
 71
     1
 10
0.0
 20
0.0
 11
420.0
 21
297.0
 12
0.0
 22
0.0
 32
0.0
 14
1.000000000000000E+20
 24
1.000000000000000E+20
 34
1.000000000000000E+20
 15
-1.000000000000000E+20
 25
-1.000000000000000E+20
 35
-1.000000000000000E+20
146
0.0
 13
0.0
 23
0.0
 33
0.0
 16
1.0
 26
0.0
 36
0.0
 17
0.0
 27
1.0
 37
0.0
 76
     0
330
1B
  0
LAYOUT
  5
26
102
{ACAD_REACTORS
330
1A
102
}
330
1A
100
AcDbPlotSettings
  1

  2
none_device
  4

  6

 40
0.0
 41
0.0
 42
0.0
 43
0.0
 44
0.0
 45
0.0
 46
0.0
 47
0.0
 48
0.0
 49
0.0
140
0.0
141
0.0
142
1.0
143
1.0
 70
   688
 72
     0
 73
     0
 74
     5
  7

 75
    16
 76
     0
 77
     5
 78
   300
147
1.0
148
0.0
149
0.0
100
AcDbLayout
  1
Layout2
 70
     1
 71
     2
 10
0.0
 20
0.0
 11
0.0
 21
0.0
 12
0.0
 22
0.0
 32
0.0
 14
0.0
 24
0.0
 34
0.0
 15
0.0
 25
0.0
 35
0.0
146
0.0
 13
0.0
 23
0.0
 33
0.0
 16
1.0
 26
0.0
 36
0.0
 17
0.0
 27
1.0
 37
0.0
 76
     0
330
23
  0
LAYOUT
  5
22
102
{ACAD_REACTORS
330
1A
102
}
330
1A
100
AcDbPlotSettings
  1

  2
none_device
  4

  6

 40
0.0
 41
0.0
 42
0.0
 43
0.0
 44
0.0
 45
0.0
 46
0.0
 47
0.0
 48
0.0
 49
0.0
140
0.0
141
0.0
142
1.0
143
1.0
 70
  1712
 72
     0
 73
     0
 74
     0
  7

 75
     0
 76
     0
 77
     5
 78
   300
147
1.0
148
0.0
149
0.0
100
AcDbLayout
  1
Model
 70
     1
 71
     0
 10
-4455.0
 20
-3150.0
 11
4455.0
 21
3150.0
 12
0.0
 22
0.0
 32
0.0
 14
-4455.0
 24
-3150.0
 34
0.0
 15
4455.0
 25
3150.0
 35
0.0
146
0.0
 13
0.0
 23
0.0
 33
0.0
 16
1.0
 26
0.0
 36
0.0
 17
0.0
 27
1.0
 37
0.0
 76
     0
330
1F
331
29
  0
MATERIAL
  5
3D
102
{ACAD_REACTORS
330
3B
102
}
330
3B
100
AcDbMaterial
  1
ByBlock
 72
     1
 94
      127
  0
MATERIAL
  5
3C
102
{ACAD_REACTORS
330
3B
102
}
330
3B
100
AcDbMaterial
  1
ByLayer
 72
     1
 94
      127
  0
MATERIAL
  5
3E
102
{ACAD_REACTORS
330
3B
102
}
330
3B
100
AcDbMaterial
  1
Global
 72
     1
 94
      127
  0
MLINESTYLE
  5
18
102
{ACAD_REACTORS
330
17
102
}
330
17
100
AcDbMlineStyle
  2
Standard
 70
     0
  3

 62
   256
 51
90.0
 52
90.0
 71
     2
 49
0.5
 62
   256
  6
BYLAYER
 49
-0.5
 62
   256
  6
BYLAYER
  0
ACDBPLACEHOLDER
  5
F
102
{ACAD_REACTORS
330
E
102
}
330
E
  0
VISUALSTYLE
  5
2F
102
{ACAD_REACTORS
330
2A
102
}
330
2A
100
AcDbVisualStyle
  2
2dWireframe
 70
     4
177
     2
291
     0
 71
     0
176
     1
 72
     2
176
     1
 73
     0
176
     1
 90
        0
176
     1
 40
-0.6
176
     1
 41
-30.0
176
     1
 62
     5
 63
     7
421
 16777215
176
     1
 74
     1
176
     1
 91
        4
176
     1
 64
     7
176
     1
 65
   257
176
     1
 75
     1
176
     1
175
     1
176
     1
 42
1.0
176
     1
 92
        0
176
     1
 66
   257
176
     1
 43
1.0
176
     1
 76
     1
176
     1
 77
     6
176
     1
 78
     2
176
     1
 67
     7
176
     1
 79
     5
176
     1
170
     0
176
     1
171
     0
176
     1
290
     0
176
     1
 93
        1
176
     1
 44
0.0
176
     1
173
     0
176
     1
  0
VISUALSTYLE
  5
31
102
{ACAD_REACTORS
330
2A
102
}
330
2A
100
AcDbVisualStyle
  2
3D Hidden
 70
     6
177
     2
291
     0
 71
     1
176
     1
 72
     2
176
     1
 73
     2
176
     1
 90
        0
176
     1
 40
-0.6
176
     1
 41
-30.0
176
     1
 62
     5
 63
     7
421
 16777215
176
     1
 74
     2
176
     1
 91
        2
176
     1
 64
     7
176
     1
 65
   257
176
     1
 75
     2
176
     1
175
     1
176
     1
 42
40.0
176
     1
 92
        0
176
     1
 66
   257
176
     1
 43
1.0
176
     1
 76
     1
176
     1
 77
     6
176
     1
 78
     2
176
     1
 67
     7
176
     1
 79
     3
176
     1
170
     0
176
     1
171
     0
176
     1
290
     0
176
     1
 93
        1
176
     1
 44
0.0
176
     1
173
     0
176
     1
  0
VISUALSTYLE
  5
30
102
{ACAD_REACTORS
330
2A
102
}
330
2A
100
AcDbVisualStyle
  2
3dWireframe
 70
     5
177
     2
291
     0
 71
     0
176
     1
 72
     2
176
     1
 73
     0
176
     1
 90
        0
176
     1
 40
-0.6
176
     1
 41
-30.0
176
     1
 62
     5
 63
     7
421
 16777215
176
     1
 74
     1
176
     1
 91
        4
176
     1
 64
     7
176
     1
 65
   257
176
     1
 75
     1
176
     1
175
     1
176
     1
 42
1.0
176
     1
 92
        0
176
     1
 66
   257
176
     1
 43
1.0
176
     1
 76
     1
176
     1
 77
     6
176
     1
 78
     2
176
     1
 67
     7
176
     1
 79
     5
176
     1
170
     0
176
     1
171
     0
176
     1
290
     0
176
     1
 93
        1
176
     1
 44
0.0
176
     1
173
     0
176
     1
  0
VISUALSTYLE
  5
32
102
{ACAD_REACTORS
330
2A
102
}
330
2A
100
AcDbVisualStyle
  2
Basic
 70
     7
177
     2
291
     1
 71
     1
176
     1
 72
     0
176
     1
 73
     1
176
     1
 90
        0
176
     1
 40
-0.6
176
     1
 41
-30.0
176
     1
 62
     5
 63
     7
421
 16777215
176
     1
 74
     0
176
     1
 91
        4
176
     1
 64
     7
176
     1
 65
   257
176
     1
 75
     1
176
     1
175
     1
176
     1
 42
1.0
176
     1
 92
        8
176
     1
 66
     7
176
     1
 43
1.0
176
     1
 76
     1
176
     1
 77
     6
176
     1
 78
     2
176
     1
 67
     7
176
     1
 79
     5
176
     1
170
     0
176
     1
171
     0
176
     1
290
     0
176
     1
 93
        1
176
     1
 44
0.0
176
     1
173
     0
176
     1
  0
VISUALSTYLE
  5
36
102
{ACAD_REACTORS
330
2A
102
}
330
2A
100
AcDbVisualStyle
  2
Brighten
 70
    12
177
     2
291
     1
 71
     2
176
     1
 72
     2
176
     1
 73
     0
176
     1
 90
        0
176
     1
 40
-0.6
176
     1
 41
-30.0
176
     1
 62
     5
 63
     7
421
 16777215
176
     1
 74
     1
176
     1
 91
        4
176
     1
 64
     7
176
     1
 65
   257
176
     1
 75
     1
176
     1
175
     1
176
     1
 42
1.0
176
     1
 92
        8
176
     1
 66
     7
176
     1
 43
1.0
176
     1
 76
     1
176
     1
 77
     6
176
     1
 78
     2
176
     1
 67
     7
176
     1
 79
     5
176
     1
170
     0
176
     1
171
     0
176
     1
290
     0
176
     1
 93
        1
176
     1
 44
50.0
176
     1
173
     0
176
     1
  0
VISUALSTYLE
  5
3A
102
{ACAD_REACTORS
330
2A
102
}
330
2A
100
AcDbVisualStyle
  2
ColorChange
 70
    16
177
     2
291
     1
 71
     2
176
     1
 72
     2
176
     1
 73
     3
176
     1
 90
        0
176
     1
 40
-0.6
176
     1
 41
-30.0
176
     1
 62
     5
 63
     8
421
  8421504
176
     1
 74
     1
176
     1
 91
        4
176
     1
 64
     7
176
     1
 65
   257
176
     1
 75
     1
176
     1
175
     1
176
     1
 42
1.0
176
     1
 92
        8
176
     1
 66
     8
424
  8421504
176
     1
 43
1.0
176
     1
 76
     1
176
     1
 77
     6
176
     1
 78
     2
176
     1
 67
     7
176
     1
 79
     5
176
     1
170
     0
176
     1
171
     0
176
     1
290
     0
176
     1
 93
        1
176
     1
 44
0.0
176
     1
173
     0
176
     1
  0
VISUALSTYLE
  5
34
102
{ACAD_REACTORS
330
2A
102
}
330
2A
100
AcDbVisualStyle
  2
Conceptual
 70
     9
177
     2
291
     0
 71
     3
176
     1
 72
     2
176
     1
 73
     0
176
     1
 90
        0
176
     1
 40
-0.6
176
     1
 41
-30.0
176
     1
 62
     5
 63
     7
421
 16777215
176
     1
 74
     2
176
     1
 91
        2
176
     1
 64
     7
176
     1
 65
   257
176
     1
 75
     1
176
     1
175
     1
176
     1
 42
40.0
176
     1
 92
        8
176
     1
 66
     7
176
     1
 43
1.0
176
     1
 76
     1
176
     1
 77
     6
176
     1
 78
     2
176
     1
 67
     7
176
     1
 79
     3
176
     1
170
     0
176
     1
171
     0
176
     1
290
     0
176
     1
 93
        1
176
     1
 44
0.0
176
     1
173
     0
176
     1
  0
VISUALSTYLE
  5
35
102
{ACAD_REACTORS
330
2A
102
}
330
2A
100
AcDbVisualStyle
  2
Dim
 70
    11
177
     2
291
     1
 71
     2
176
     1
 72
     2
176
     1
 73
     0
176
     1
 90
        0
176
     1
 40
-0.6
176
     1
 41
-30.0
176
     1
 62
     5
 63
     7
421
 16777215
176
     1
 74
     1
176
     1
 91
        4
176
     1
 64
     7
176
     1
 65
   257
176
     1
 75
     1
176
     1
175
     1
176
     1
 42
1.0
176
     1
 92
        8
176
     1
 66
     7
176
     1
 43
1.0
176
     1
 76
     1
176
     1
 77
     6
176
     1
 78
     2
176
     1
 67
     7
176
     1
 79
     5
176
     1
170
     0
176
     1
171
     0
176
     1
290
     0
176
     1
 93
        1
176
     1
 44
-50.0
176
     1
173
     0
176
     1
  0
VISUALSTYLE
  5
39
102
{ACAD_REACTORS
330
2A
102
}
330
2A
100
AcDbVisualStyle
  2
Facepattern
 70
    15
177
     2
291
     1
 71
     2
176
     1
 72
     2
176
     1
 73
     0
176
     1
 90
        0
176
     1
 40
-0.6
176
     1
 41
-30.0
176
     1
 62
     5
 63
     7
421
 16777215
176
     1
 74
     1
176
     1
 91
        4
176
     1
 64
     7
176
     1
 65
   257
176
     1
 75
     1
176
     1
175
     1
176
     1
 42
1.0
176
     1
 92
        8
176
     1
 66
     7
176
     1
 43
1.0
176
     1
 76
     1
176
     1
 77
     6
176
     1
 78
     2
176
     1
 67
     7
176
     1
 79
     5
176
     1
170
     0
176
     1
171
     0
176
     1
290
     0
176
     1
 93
        1
176
     1
 44
0.0
176
     1
173
     0
176
     1
  0
VISUALSTYLE
  5
2B
102
{ACAD_REACTORS
330
2A
102
}
330
2A
100
AcDbVisualStyle
  2
Flat
 70
     0
177
     2
291
     1
 71
     2
176
     1
 72
     1
176
     1
 73
     1
176
     1
 90
        2
176
     1
 40
-0.6
176
     1
 41
30.0
176
     1
 62
     5
 63
     7
421
 16777215
176
     1
 74
     0
176
     1
 91
        4
176
     1
 64
     7
176
     1
 65
   257
176
     1
 75
     1
176
     1
175
     1
176
     1
 42
1.0
176
     1
 92
        8
176
     1
 66
     7
176
     1
 43
1.0
176
     1
 76
     1
176
     1
 77
     6
176
     1
 78
     2
176
     1
 67
     7
176
     1
 79
     5
176
     1
170
     0
176
     1
171
     0
176
     1
290
     0
176
     1
 93
       13
176
     1
 44
0.0
176
     1
173
     0
176
     1
  0
VISUALSTYLE
  5
2C
102
{ACAD_REACTORS
330
2A
102
}
330
2A
100
AcDbVisualStyle
  2
FlatWithEdges
 70
     1
177
     2
291
     1
 71
     2
176
     1
 72
     1
176
     1
 73
     1
176
     1
 90
        2
176
     1
 40
-0.6
176
     1
 41
30.0
176
     1
 62
     5
 63
     7
421
 16777215
176
     1
 74
     1
176
     1
 91
        4
176
     1
 64
     7
176
     1
 65
   257
176
     1
 75
     1
176
     1
175
     1
176
     1
 42
1.0
176
     1
 92
        0
176
     1
 66
   257
176
     1
 43
1.0
176
     1
 76
     1
176
     1
 77
     6
176
     1
 78
     2
176
     1
 67
     7
176
     1
 79
     5
176
     1
170
     0
176
     1
171
     0
176
     1
290
     0
176
     1
 93
       13
176
     1
 44
0.0
176
     1
173
     0
176
     1
  0
VISUALSTYLE
  5
2D
102
{ACAD_REACTORS
330
2A
102
}
330
2A
100
AcDbVisualStyle
  2
Gouraud
 70
     2
177
     2
291
     1
 71
     2
176
     1
 72
     2
176
     1
 73
     1
176
     1
 90
        2
176
     1
 40
-0.6
176
     1
 41
30.0
176
     1
 62
     5
 63
     7
421
 16777215
176
     1
 74
     0
176
     1
 91
        4
176
     1
 64
     7
176
     1
 65
   257
176
     1
 75
     1
176
     1
175
     1
176
     1
 42
1.0
176
     1
 92
        0
176
     1
 66
     7
176
     1
 43
1.0
176
     1
 76
     1
176
     1
 77
     6
176
     1
 78
     2
176
     1
 67
     7
176
     1
 79
     5
176
     1
170
     0
176
     1
171
     0
176
     1
290
     0
176
     1
 93
       13
176
     1
 44
0.0
176
     1
173
     0
176
     1
  0
VISUALSTYLE
  5
2E
102
{ACAD_REACTORS
330
2A
102
}
330
2A
100
AcDbVisualStyle
  2
GouraudWithEdges
 70
     3
177
     2
291
     1
 71
     2
176
     1
 72
     2
176
     1
 73
     1
176
     1
 90
        2
176
     1
 40
-0.6
176
     1
 41
30.0
176
     1
 62
     5
 63
     7
421
 16777215
176
     1
 74
     1
176
     1
 91
        4
176
     1
 64
     7
176
     1
 65
   257
176
     1
 75
     1
176
     1
175
     1
176
     1
 42
1.0
176
     1
 92
        0
176
     1
 66
   257
176
     1
 43
1.0
176
     1
 76
     1
176
     1
 77
     6
176
     1
 78
     2
176
     1
 67
     7
176
     1
 79
     5
176
     1
170
     0
176
     1
171
     0
176
     1
290
     0
176
     1
 93
       13
176
     1
 44
0.0
176
     1
173
     0
176
     1
  0
VISUALSTYLE
  5
38
102
{ACAD_REACTORS
330
2A
102
}
330
2A
100
AcDbVisualStyle
  2
Linepattern
 70
    14
177
     2
291
     1
 71
     2
176
     1
 72
     2
176
     1
 73
     0
176
     1
 90
        0
176
     1
 40
-0.6
176
     1
 41
-30.0
176
     1
 62
     5
 63
     7
421
 16777215
176
     1
 74
     1
176
     1
 91
        4
176
     1
 64
     7
176
     1
 65
   257
176
     1
 75
     7
176
     1
175
     7
176
     1
 42
1.0
176
     1
 92
        8
176
     1
 66
     7
176
     1
 43
1.0
176
     1
 76
     1
176
     1
 77
     6
176
     1
 78
     2
176
     1
 67
     7
176
     1
 79
     5
176
     1
170
     0
176
     1
171
     0
176
     1
290
     0
176
     1
 93
        1
176
     1
 44
0.0
176
     1
173
     0
176
     1
  0
VISUALSTYLE
  5
33
102
{ACAD_REACTORS
330
2A
102
}
330
2A
100
AcDbVisualStyle
  2
Realistic
 70
     8
177
     2
291
     0
 71
     2
176
     1
 72
     2
176
     1
 73
     0
176
     1
 90
        0
176
     1
 40
-0.6
176
     1
 41
-30.0
176
     1
 62
     5
 63
     7
421
 16777215
176
     1
 74
     1
176
     1
 91
        0
176
     1
 64
     7
176
     1
 65
   257
176
     1
 75
     1
176
     1
175
     1
176
     1
 42
1.0
176
     1
 92
        8
176
     1
 66
     8
424
  7895160
176
     1
 43
1.0
176
     1
 76
     1
176
     1
 77
     6
176
     1
 78
     2
176
     1
 67
     7
176
     1
 79
     5
176
     1
170
     0
176
     1
171
     0
176
     1
290
     0
176
     1
 93
       13
176
     1
 44
0.0
176
     1
173
     0
176
     1
  0
VISUALSTYLE
  5
37
102
{ACAD_REACTORS
330
2A
102
}
330
2A
100
AcDbVisualStyle
  2
Thicken
 70
    13
177
     2
291
     1
 71
     2
176
     1
 72
     2
176
     1
 73
     0
176
     1
 90
        0
176
     1
 40
-0.6
176
     1
 41
-30.0
176
     1
 62
     5
 63
     7
421
 16777215
176
     1
 74
     1
176
     1
 91
        4
176
     1
 64
     7
176
     1
 65
   257
176
     1
 75
     1
176
     1
175
     1
176
     1
 42
1.0
176
     1
 92
       12
176
     1
 66
     7
176
     1
 43
1.0
176
     1
 76
     1
176
     1
 77
     6
176
     1
 78
     2
176
     1
 67
     7
176
     1
 79
     5
176
     1
170
     0
176
     1
171
     0
176
     1
290
     0
176
     1
 93
        1
176
     1
 44
0.0
176
     1
173
     0
176
     1
  0
ENDSEC
  0
EOF
