  0
SECTION
  2
HEADER
  9
$ACADVER
  1
AC1024
  9
$ACADMAINTVER
 70
     6
  9
$DWGCODEPAGE
  3
ANSI_932
  9
$INSBASE
 10
0.0
 20
0.0
 30
0.0
  9
$EXTMIN
 10
-4455.0
 20
-3150.0
 30
0.0
  9
$EXTMAX
 10
4455.0
 20
3150.0
 30
0.0
  9
$LIMMIN
 10
-4455.0
 20
-3150.0
  9
$LIMMAX
 10
4455.0
 20
3150.0
  9
$ORTHOMODE
 70
     0
  9
$REGENMODE
 70
     1
  9
$FILLMODE
 70
     1
  9
$QTEXTMODE
 70
     0
  9
$MIRRTEXT
 70
     1
  9
$LTSCALE
 40
30.0
  9
$ATTMODE
 70
     1
  9
$TEXTSIZE
 40
2.5
  9
$TRACEWID
 40
1.0
  9
$TEXTSTYLE
  7
Standard
  9
$CLAYER
  8
0
  9
$CELTYPE
  6
ByLayer
  9
$CECOLOR
 62
   256
  9
$CELTSCALE
 40
1.0
  9
$DISPSILH
 70
     0
  9
$DIMSCALE
 40
1.0
  9
$DIMASZ
 40
2.5
  9
$DIMEXO
 40
0.625
  9
$DIMDLI
 40
3.75
  9
$DIMRND
 40
0.0
  9
$DIMDLE
 40
0.0
  9
$DIMEXE
 40
1.25
  9
$DIMTP
 40
0.0
  9
$DIMTM
 40
0.0
  9
$DIMTXT
 40
2.5
  9
$DIMCEN
 40
2.5
  9
$DIMTSZ
 40
0.0
  9
$DIMTOL
 70
     0
  9
$DIMLIM
 70
     0
  9
$DIMTIH
 70
     0
  9
$DIMTOH
 70
     0
  9
$DIMSE1
 70
     0
  9
$DIMSE2
 70
     0
  9
$DIMTAD
 70
     1
  9
$DIMZIN
 70
     8
  9
$DIMBLK
  1

  9
$DIMASO
 70
     1
  9
$DIMSHO
 70
     1
  9
$DIMPOST
  1

  9
$DIMAPOST
  1

  9
$DIMALT
 70
     0
  9
$DIMALTD
 70
     3
  9
$DIMALTF
 40
0.03937007874016
  9
$DIMLFAC
 40
1.0
  9
$DIMTOFL
 70
     1
  9
$DIMTVP
 40
0.0
  9
$DIMTIX
 70
     0
  9
$DIMSOXD
 70
     0
  9
$DIMSAH
 70
     0
  9
$DIMBLK1
  1

  9
$DIMBLK2
  1

  9
$DIMSTYLE
  2
ISO-25
  9
$DIMCLRD
 70
     0
  9
$DIMCLRE
 70
     0
  9
$DIMCLRT
 70
     0
  9
$DIMTFAC
 40
1.0
  9
$DIMGAP
 40
0.625
  9
$DIMJUST
 70
     0
  9
$DIMSD1
 70
     0
  9
$DIMSD2
 70
     0
  9
$DIMTOLJ
 70
     0
  9
$DIMTZIN
 70
     8
  9
$DIMALTZ
 70
     0
  9
$DIMALTTZ
 70
     0
  9
$DIMUPT
 70
     0
  9
$DIMDEC
 70
     2
  9
$DIMTDEC
 70
     2
  9
$DIMALTU
 70
     2
  9
$DIMALTTD
 70
     3
  9
$DIMTXSTY
  7
Standard
  9
$DIMAUNIT
 70
     0
  9
$DIMADEC
 70
     0
  9
$DIMALTRND
 40
0.0
  9
$DIMAZIN
 70
     0
  9
$DIMDSEP
 70
    44
  9
$DIMATFIT
 70
     3
  9
$DIMFRAC
 70
     0
  9
$DIMLDRBLK
  1

  9
$DIMLUNIT
 70
     2
  9
$DIMLWD
 70
    -2
  9
$DIMLWE
 70
    -2
  9
$DIMTMOVE
 70
     0
  9
$DIMFXL
 40
1.0
  9
$DIMFXLON
 70
     0
  9
$DIMJOGANG
 40
0.7853981633974483
  9
$DIMTFILL
 70
     0
  9
$DIMTFILLCLR
 70
     0
  9
$DIMARCSYM
 70
     0
  9
$DIMLTYPE
  6

  9
$DIMLTEX1
  6

  9
$DIMLTEX2
  6

  9
$DIMTXTDIRECTION
 70
     0
  9
$LUNITS
 70
     2
  9
$LUPREC
 70
     4
  9
$SKETCHINC
 40
1.0
  9
$FILLETRAD
 40
10.0
  9
$AUNITS
 70
     0
  9
$AUPREC
 70
     0
  9
$MENU
  1
.
  9
$ELEVATION
 40
0.0
  9
$PELEVATION
 40
0.0
  9
$THICKNESS
 40
0.0
  9
$LIMCHECK
 70
     0
  9
$CHAMFERA
 40
10.0
  9
$CHAMFERB
 40
10.0
  9
$CHAMFERC
 40
20.0
  9
$CHAMFERD
 40
0.0
  9
$SKPOLY
 70
     0
  9
$TDCREATE
 40
2457913.543866782
  9
$TDUCREATE
 40
2457913.168866782
  9
$TDUPDATE
 40
2457913.543866794
  9
$TDUUPDATE
 40
2457913.168866794
  9
$TDINDWG
 40
0.0000000116
  9
$TDUSRTIMER
 40
0.0000000116
  9
$USRTIMER
 70
     1
  9
$ANGBASE
 50
0.0
  9
$ANGDIR
 70
     0
  9
$PDMODE
 70
     0
  9
$PDSIZE
 40
0.0
  9
$PLINEWID
 40
0.0
  9
$SPLFRAME
 70
     0
  9
$SPLINETYPE
 70
     6
  9
$SPLINESEGS
 70
     8
  9
$HANDSEED
  5
252
  9
$SURFTAB1
 70
     6
  9
$SURFTAB2
 70
     6
  9
$SURFTYPE
 70
     6
  9
$SURFU
 70
     6
  9
$SURFV
 70
     6
  9
$UCSBASE
  2

  9
$UCSNAME
  2

  9
$UCSORG
 10
0.0
 20
0.0
 30
0.0
  9
$UCSXDIR
 10
1.0
 20
0.0
 30
0.0
  9
$UCSYDIR
 10
0.0
 20
1.0
 30
0.0
  9
$UCSORTHOREF
  2

  9
$UCSORTHOVIEW
 70
     0
  9
$UCSORGTOP
 10
0.0
 20
0.0
 30
0.0
  9
$UCSORGBOTTOM
 10
0.0
 20
0.0
 30
0.0
  9
$UCSORGLEFT
 10
0.0
 20
0.0
 30
0.0
  9
$UCSORGRIGHT
 10
0.0
 20
0.0
 30
0.0
  9
$UCSORGFRONT
 10
0.0
 20
0.0
 30
0.0
  9
$UCSORGBACK
 10
0.0
 20
0.0
 30
0.0
  9
$PUCSBASE
  2

  9
$PUCSNAME
  2

  9
$PUCSORG
 10
0.0
 20
0.0
 30
0.0
  9
$PUCSXDIR
 10
1.0
 20
0.0
 30
0.0
  9
$PUCSYDIR
 10
0.0
 20
1.0
 30
0.0
  9
$PUCSORTHOREF
  2

  9
$PUCSORTHOVIEW
 70
     0
  9
$PUCSORGTOP
 10
0.0
 20
0.0
 30
0.0
  9
$PUCSORGBOTTOM
 10
0.0
 20
0.0
 30
0.0
  9
$PUCSORGLEFT
 10
0.0
 20
0.0
 30
0.0
  9
$PUCSORGRIGHT
 10
0.0
 20
0.0
 30
0.0
  9
$PUCSORGFRONT
 10
0.0
 20
0.0
 30
0.0
  9
$PUCSORGBACK
 10
0.0
 20
0.0
 30
0.0
  9
$USERI1
 70
     0
  9
$USERI2
 70
     0
  9
$USERI3
 70
     0
  9
$USERI4
 70
     0
  9
$USERI5
 70
     0
  9
$USERR1
 40
0.0
  9
$USERR2
 40
0.0
  9
$USERR3
 40
0.0
  9
$USERR4
 40
0.0
  9
$USERR5
 40
0.0
  9
$WORLDVIEW
 70
     1
  9
$SHADEDGE
 70
     3
  9
$SHADEDIF
 70
    70
  9
$TILEMODE
 70
     1
  9
$MAXACTVP
 70
    64
  9
$PINSBASE
 10
0.0
 20
0.0
 30
0.0
  9
$PLIMCHECK
 70
     0
  9
$PEXTMIN
 10
1.000000000000000E+20
 20
1.000000000000000E+20
 30
1.000000000000000E+20
  9
$PEXTMAX
 10
-1.000000000000000E+20
 20
-1.000000000000000E+20
 30
-1.000000000000000E+20
  9
$PLIMMIN
 10
0.0
 20
0.0
  9
$PLIMMAX
 10
420.0
 20
297.0
  9
$UNITMODE
 70
     0
  9
$VISRETAIN
 70
     1
  9
$PLINEGEN
 70
     0
  9
$PSLTSCALE
 70
     1
  9
$TREEDEPTH
 70
  3020
  9
$CMLSTYLE
  2
Standard
  9
$CMLJUST
 70
     0
  9
$CMLSCALE
 40
20.0
  9
$PROXYGRAPHICS
 70
     1
  9
$MEASUREMENT
 70
     1
  9
$CELWEIGHT
370
    -1
  9
$ENDCAPS
280
     0
  9
$JOINSTYLE
280
     0
  9
$LWDISPLAY
290
     0
  9
$INSUNITS
 70
     4
  9
$HYPERLINKBASE
  1

  9
$STYLESHEET
  1

  9
$XEDIT
290
     1
  9
$CEPSNTYPE
380
     0
  9
$PSTYLEMODE
290
     1
  9
$FINGERPRINTGUID
  2
{CCC526E9-C88F-4136-851B-D0A6A63A50CD}
  9
$VERSIONGUID
  2
{FAEB1C32-E019-11D5-929B-00C0DF256EC4}
  9
$EXTNAMES
290
     1
  9
$PSVPSCALE
 40
0.0
  9
$OLESTARTUP
290
     0
  9
$SORTENTS
280
   127
  9
$INDEXCTL
280
     0
  9
$HIDETEXT
280
     1
  9
$XCLIPFRAME
280
     2
  9
$HALOGAP
280
     0
  9
$OBSCOLOR
 70
   257
  9
$OBSLTYPE
280
     0
  9
$INTERSECTIONDISPLAY
280
     0
  9
$INTERSECTIONCOLOR
 70
   257
  9
$DIMASSOC
280
     2
  9
$PROJECTNAME
  1

  9
$CAMERADISPLAY
290
     0
  9
$LENSLENGTH
 40
50.0
  9
$CAMERAHEIGHT
 40
0.0
  9
$STEPSPERSEC
 40
2.0
  9
$STEPSIZE
 40
6.0
  9
$3DDWFPREC
 40
2.0
  9
$PSOLWIDTH
 40
5.0
  9
$PSOLHEIGHT
 40
80.0
  9
$LOFTANG1
 40
1.570796326794897
  9
$LOFTANG2
 40
1.570796326794897
  9
$LOFTMAG1
 40
0.0
  9
$LOFTMAG2
 40
0.0
  9
$LOFTPARAM
 70
     7
  9
$LOFTNORMALS
280
     1
  9
$LATITUDE
 40
37.795
  9
$LONGITUDE
 40
-122.394
  9
$NORTHDIRECTION
 40
0.0
  9
$TIMEZONE
 70
 -8000
  9
$LIGHTGLYPHDISPLAY
280
     1
  9
$TILEMODELIGHTSYNCH
280
     1
  9
$SOLIDHIST
280
     1
  9
$SHOWHIST
280
     1
  9
$DWFFRAME
280
     2
  9
$DGNFRAME
280
     2
  9
$REALWORLDSCALE
290
     1
  9
$INTERFERECOLOR
 62
   256
  9
$CSHADOW
280
     0
  9
$SHADOWPLANELOCATION
 40
0.0
  0
ENDSEC
  0
SECTION
  2
CLASSES
  0
CLASS
  1
ACDBDICTIONARYWDFLT
  2
AcDbDictionaryWithDefault
  3
ObjectDBX Classes
 90
        0
 91
        4
280
     0
281
     0
  0
CLASS
  1
VISUALSTYLE
  2
AcDbVisualStyle
  3
ObjectDBX Classes
 90
     4095
 91
        4
280
     0
281
     0
  0
CLASS
  1
MATERIAL
  2
AcDbMaterial
  3
ObjectDBX Classes
 90
     1153
 91
        4
280
     0
281
     0
  0
ENDSEC
  0
SECTION
  2
TABLES
  0
TABLE
  2
VPORT
  5
8
330
0
100
AcDbSymbolTable
 70
     1
  0
VPORT
  5
29
330
8
100
AcDbSymbolTableRecord
100
AcDbViewportTableRecord
  2
*Active
 70
     0
 10
0.0
 20
0.0
 11
1.0
 21
1.0
 12
0.0
 22
0.0
 13
0.0
 23
0.0
 14
10.0
 24
10.0
 15
10.0
 25
10.0
 16
0.0
 26
0.0
 36
1.0
 17
0.0
 27
0.0
 37
0.0
 40
6930.000000000001
 41
1.414285714285714
 42
50.0
 43
0.0
 44
0.0
 50
0.0
 51
0.0
 71
     0
 72
 10000
 73
     1
 74
     3
 75
     0
 76
     0
 77
     0
 78
     0
281
     0
 65
     1
110
0.0
120
0.0
130
0.0
111
1.0
121
0.0
131
0.0
112
0.0
122
1.0
132
0.0
 79
     0
146
0.0
 60
     3
 61
     5
292
     1
282
     1
141
0.0
142
0.0
 63
   250
  0
ENDTAB
  0
TABLE
  2
LTYPE
  5
5
330
0
100
AcDbSymbolTable
 70
     2
  0
LTYPE
  5
14
330
5
100
AcDbSymbolTableRecord
100
AcDbLinetypeTableRecord
  2
ByBlock
 70
     0
  3

 72
    65
 73
     0
 40
0.0
  0
LTYPE
  5
15
330
5
100
AcDbSymbolTableRecord
100
AcDbLinetypeTableRecord
  2
ByLayer
 70
     0
  3

 72
    65
 73
     0
 40
0.0
  0
LTYPE
  5
16
330
5
100
AcDbSymbolTableRecord
100
AcDbLinetypeTableRecord
  2
Continuous
 70
     0
  3
Solid line
 72
    65
 73
     0
 40
0.0
  0
LTYPE
  5
3F
330
5
100
AcDbSymbolTableRecord
100
AcDbLinetypeTableRecord
  2
JWW_DASHED1
 70
     0
  3
-  --  --  --  --  --  --  --  -
 72
    65
 73
     2
 40
1.693333333333333
 49
0.8466666666666667
 74
     0
 49
-0.8466666666666667
 74
     0
  0
ENDTAB
  0
TABLE
  2
LAYER
  5
2
330
0
100
AcDbSymbolTable
 70
     3
  0
LAYER
  5
10
330
2
100
AcDbSymbolTableRecord
100
AcDbLayerTableRecord
  2
0
 70
     0
 62
     7
  6
Continuous
370
    -3
390
F
347
3E
  0
LAYER
  5
40
330
2
100
AcDbSymbolTableRecord
100
AcDbLayerTableRecord
  2
0-0
 70
     0
 62
     7
  6
Continuous
370
    -3
390
F
347
3E
  0
LAYER
  5
41
330
2
100
AcDbSymbolTableRecord
100
AcDbLayerTableRecord
  2
寸法
 70
     0
 62
     7
  6
Continuous
370
    -3
390
F
347
3E
  0
ENDTAB
  0
TABLE
  2
STYLE
  5
3
330
0
100
AcDbSymbolTable
 70
     1
  0
STYLE
  5
11
330
3
100
AcDbSymbolTableRecord
100
AcDbTextStyleTableRecord
  2
Standard
 70
     0
 40
0.0
 41
1.0
 50
0.0
 71
     0
 42
2.5
  3
txt
  4

  0
ENDTAB
  0
TABLE
  2
VIEW
  5
6
330
0
100
AcDbSymbolTable
 70
     0
  0
ENDTAB
  0
TABLE
  2
UCS
  5
7
330
0
100
AcDbSymbolTable
 70
     0
  0
ENDTAB
  0
TABLE
  2
APPID
  5
9
330
0
100
AcDbSymbolTable
 70
     1
  0
APPID
  5
12
330
9
100
AcDbSymbolTableRecord
100
AcDbRegAppTableRecord
  2
ACAD
 70
     0
  0
ENDTAB
  0
TABLE
  2
DIMSTYLE
  5
A
330
0
100
AcDbSymbolTable
 70
     1
100
AcDbDimStyleTable
  0
DIMSTYLE
105
27
330
A
100
AcDbSymbolTableRecord
100
AcDbDimStyleTableRecord
  2
ISO-25
 70
     0
 41
2.5
 42
0.625
 43
3.75
 44
1.25
 73
     0
 74
     0
 77
     1
 78
     8
140
2.5
141
2.5
143
0.03937007874016
147
0.625
171
     3
172
     1
178
     0
271
     2
272
     2
274
     3
278
    44
283
     0
284
     8
340
11
  0
ENDTAB
  0
TABLE
  2
BLOCK_RECORD
  5
1
330
0
100
AcDbSymbolTable
 70
     1
  0
BLOCK_RECORD
  5
1F
330
1
100
AcDbSymbolTableRecord
100
AcDbBlockTableRecord
  2
*Model_Space
340
22
 70
     0
280
     1
281
     0
  0
BLOCK_RECORD
  5
1B
330
1
100
AcDbSymbolTableRecord
100
AcDbBlockTableRecord
  2
*Paper_Space
340
1E
 70
     0
280
     1
281
     0
  0
BLOCK_RECORD
  5
23
330
1
100
AcDbSymbolTableRecord
100
AcDbBlockTableRecord
  2
*Paper_Space0
340
26
 70
     0
280
     1
281
     0
  0
ENDTAB
  0
ENDSEC
  0
SECTION
  2
BLOCKS
  0
BLOCK
  5
20
330
1F
100
AcDbEntity
  8
0
100
AcDbBlockBegin
  2
*Model_Space
 70
     0
 10
0.0
 20
0.0
 30
0.0
  3
*Model_Space
  1

  0
ENDBLK
  5
21
330
1F
100
AcDbEntity
  8
0
100
AcDbBlockEnd
  0
BLOCK
  5
1C
330
1B
100
AcDbEntity
 67
     1
  8
0
100
AcDbBlockBegin
  2
*Paper_Space
 70
     0
 10
0.0
 20
0.0
 30
0.0
  3
*Paper_Space
  1

  0
ENDBLK
  5
1D
330
1B
100
AcDbEntity
 67
     1
  8
0
100
AcDbBlockEnd
  0
BLOCK
  5
24
330
23
100
AcDbEntity
  8
0
100
AcDbBlockBegin
  2
*Paper_Space0
 70
     0
 10
0.0
 20
0.0
 30
0.0
  3
*Paper_Space0
  1

  0
ENDBLK
  5
25
330
23
100
AcDbEntity
  8
0
100
AcDbBlockEnd
  0
ENDSEC
  0
SECTION
  2
ENTITIES
  0
ARC
  5
42
330
1F
100
AcDbEntity
  8
0-0
  6
Continuous
 62
    92
370
    13
100
AcDbCircle
 10
-744.3962557620797
 20
-11.36371512244693
 30
0.0
 40
1.5
100
AcDbArc
 50
90.0
 51
180.0
  0
LINE
  5
43
330
1F
100
AcDbEntity
  8
0-0
  6
Continuous
 62
    92
370
    13
100
AcDbLine
 10
-705.3962557620777
 20
-9.863715122447445
 30
0.0
 11
-744.3962557620797
 21
-9.863715122447445
 31
0.0
  0
ARC
  5
44
330
1F
100
AcDbEntity
  8
0-0
  6
Continuous
 62
    92
370
    13
100
AcDbCircle
 10
-705.3962557620777
 20
-11.36371512244693
 30
0.0
 40
1.5
100
AcDbArc
 50
0.0
 51
90.00000000000001
  0
LINE
  5
45
330
1F
100
AcDbEntity
  8
0-0
  6
Continuous
 62
    92
370
    13
100
AcDbLine
 10
-703.896255762079
 20
-130.363715122447
 30
0.0
 11
-703.896255762079
 21
-11.36371512244693
 31
0.0
  0
ARC
  5
46
330
1F
100
AcDbEntity
  8
0-0
  6
Continuous
 62
    92
370
    13
100
AcDbCircle
 10
-705.3962557620777
 20
-130.363715122447
 30
0.0
 40
1.5
100
AcDbArc
 50
270.0
 51
0.0
  0
LINE
  5
47
330
1F
100
AcDbEntity
  8
0-0
  6
Continuous
 62
    92
370
    13
100
AcDbLine
 10
-744.3962557620797
 20
-131.8637151224469
 30
0.0
 11
-705.3962557620777
 21
-131.8637151224469
 31
0.0
  0
LINE
  5
48
330
1F
100
AcDbEntity
  8
0-0
  6
Continuous
 62
    92
370
    13
100
AcDbLine
 10
-745.8962557620783
 20
-130.363715122447
 30
0.0
 11
-745.8962557620783
 21
-11.36371512244693
 31
0.0
  0
ARC
  5
49
330
1F
100
AcDbEntity
  8
0-0
  6
Continuous
 62
    92
370
    13
100
AcDbCircle
 10
-744.3962557620797
 20
-130.363715122447
 30
0.0
 40
1.5
100
AcDbArc
 50
180.0
 51
270.0
  0
ARC
  5
4A
330
1F
100
AcDbEntity
  8
0-0
  6
Continuous
 62
     7
370
     9
100
AcDbCircle
 10
-724.8962557620787
 20
-100.4637151224469
 30
0.0
 40
15.0
100
AcDbArc
 50
180.0
 51
0.0
  0
ARC
  5
4B
330
1F
100
AcDbEntity
  8
0-0
  6
Continuous
 62
     7
370
     9
100
AcDbCircle
 10
-724.8962557620787
 20
-41.26371512244702
 30
0.0
 40
15.0
100
AcDbArc
 50
0.0
 51
180.0
  0
LINE
  5
4C
330
1F
100
AcDbEntity
  8
0-0
  6
Continuous
 62
     7
370
     9
100
AcDbLine
 10
-709.8962557620787
 20
-100.4637151224469
 30
0.0
 11
-709.8962557620787
 21
-41.26371512244702
 31
0.0
  0
LINE
  5
4D
330
1F
100
AcDbEntity
  8
0-0
  6
Continuous
 62
     7
370
     9
100
AcDbLine
 10
-739.8962557620787
 20
-41.26371512244702
 30
0.0
 11
-739.8962557620787
 21
-100.4637151224469
 31
0.0
  0
LINE
  5
4E
330
1F
100
AcDbEntity
  8
0-0
  6
JWW_DASHED1
 62
   120
370
     5
100
AcDbLine
 10
-775.8962557620783
 20
-1028.363715122447
 30
0.0
 11
-772.8962557620777
 21
-1028.363715122447
 31
0.0
  0
LINE
  5
4F
330
1F
100
AcDbEntity
  8
0-0
  6
Continuous
 62
    92
370
    13
100
AcDbLine
 10
811.103744237921
 20
-1028.15893612961
 30
0.0
 11
811.103744237921
 21
-1027.825950319952
 31
0.0
  0
ARC
  5
50
330
1F
100
AcDbEntity
  8
0-0
  6
Continuous
 62
    92
370
    13
100
AcDbCircle
 10
743.603744237921
 20
-11.36371512244693
 30
0.0
 40
1.5
100
AcDbArc
 50
90.0
 51
180.0
  0
LINE
  5
51
330
1F
100
AcDbEntity
  8
0-0
  6
Continuous
 62
    92
370
    13
100
AcDbLine
 10
782.603744237923
 20
-9.863715122447445
 30
0.0
 11
743.603744237921
 21
-9.863715122447445
 31
0.0
  0
ARC
  5
52
330
1F
100
AcDbEntity
  8
0-0
  6
Continuous
 62
    92
370
    13
100
AcDbCircle
 10
782.603744237923
 20
-11.36371512244693
 30
0.0
 40
1.5
100
AcDbArc
 50
0.0
 51
90.00000000000001
  0
LINE
  5
53
330
1F
100
AcDbEntity
  8
0-0
  6
Continuous
 62
    92
370
    13
100
AcDbLine
 10
784.1037442379217
 20
-130.363715122447
 30
0.0
 11
784.1037442379217
 21
-11.36371512244693
 31
0.0
  0
ARC
  5
54
330
1F
100
AcDbEntity
  8
0-0
  6
Continuous
 62
    92
370
    13
100
AcDbCircle
 10
782.603744237923
 20
-130.363715122447
 30
0.0
 40
1.5
100
AcDbArc
 50
270.0
 51
0.0
  0
LINE
  5
55
330
1F
100
AcDbEntity
  8
0-0
  6
Continuous
 62
    92
370
    13
100
AcDbLine
 10
743.603744237921
 20
-131.8637151224469
 30
0.0
 11
782.603744237923
 21
-131.8637151224469
 31
0.0
  0
LINE
  5
56
330
1F
100
AcDbEntity
  8
0-0
  6
Continuous
 62
    92
370
    13
100
AcDbLine
 10
742.1037442379206
 20
-130.363715122447
 30
0.0
 11
742.1037442379206
 21
-11.36371512244693
 31
0.0
  0
ARC
  5
57
330
1F
100
AcDbEntity
  8
0-0
  6
Continuous
 62
    92
370
    13
100
AcDbCircle
 10
743.603744237921
 20
-130.363715122447
 30
0.0
 40
1.5
100
AcDbArc
 50
180.0
 51
270.0
  0
ARC
  5
58
330
1F
100
AcDbEntity
  8
0-0
  6
Continuous
 62
     7
370
     9
100
AcDbCircle
 10
763.103744237922
 20
-100.4637151224469
 30
0.0
 40
15.0
100
AcDbArc
 50
180.0
 51
0.0
  0
ARC
  5
59
330
1F
100
AcDbEntity
  8
0-0
  6
Continuous
 62
     7
370
     9
100
AcDbCircle
 10
763.103744237922
 20
-41.26371512244702
 30
0.0
 40
15.0
100
AcDbArc
 50
0.0
 51
180.0
  0
LINE
  5
5A
330
1F
100
AcDbEntity
  8
0-0
  6
Continuous
 62
     7
370
     9
100
AcDbLine
 10
778.103744237922
 20
-100.4637151224469
 30
0.0
 11
778.103744237922
 21
-41.26371512244702
 31
0.0
  0
LINE
  5
5B
330
1F
100
AcDbEntity
  8
0-0
  6
Continuous
 62
     7
370
     9
100
AcDbLine
 10
748.103744237922
 20
-41.26371512244702
 30
0.0
 11
748.103744237922
 21
-100.4637151224469
 31
0.0
  0
LINE
  5
5C
330
1F
100
AcDbEntity
  8
0-0
  6
JWW_DASHED1
 62
   120
370
     5
100
AcDbLine
 10
814.1037442379217
 20
-1028.363715122447
 30
0.0
 11
811.103744237921
 21
-1028.363715122447
 31
0.0
  0
LINE
  5
5D
330
1F
100
AcDbEntity
  8
0-0
  6
Continuous
 62
    92
370
    13
100
AcDbLine
 10
-772.8962557620777
 20
-1028.363715122447
 30
0.0
 11
811.103744237921
 21
-1028.363715122447
 31
0.0
  0
LINE
  5
5E
330
1F
100
AcDbEntity
  8
0-0
  6
Continuous
 62
    92
370
    13
100
AcDbLine
 10
-772.8962557620777
 20
1168.636284877554
 30
0.0
 11
811.103744237921
 21
1168.636284877554
 31
0.0
  0
LINE
  5
5F
330
1F
100
AcDbEntity
  8
0-0
  6
Continuous
 62
    92
370
    13
100
AcDbLine
 10
-802.8962557620777
 20
-1036.863715122447
 30
0.0
 11
-802.8962557620777
 21
1198.636284877554
 31
0.0
  0
LINE
  5
60
330
1F
100
AcDbEntity
  8
0-0
  6
JWW_DASHED1
 62
   120
370
     5
100
AcDbLine
 10
-775.8962557620783
 20
1154.636284877553
 30
0.0
 11
-775.8962557620783
 21
-1028.363715122447
 31
0.0
  0
LINE
  5
61
330
1F
100
AcDbEntity
  8
0-0
  6
JWW_DASHED1
 62
   120
370
     5
100
AcDbLine
 10
-772.8962557620777
 20
1154.636284877553
 30
0.0
 11
-775.8962557620783
 21
1154.636284877553
 31
0.0
  0
LINE
  5
62
330
1F
100
AcDbEntity
  8
0-0
  6
Continuous
 62
    92
370
    13
100
AcDbLine
 10
841.103744237921
 20
-1036.863715122447
 30
0.0
 11
841.103744237921
 21
1198.636284877554
 31
0.0
  0
LINE
  5
63
330
1F
100
AcDbEntity
  8
0-0
  6
Continuous
 62
    92
370
    13
100
AcDbLine
 10
811.103744237921
 20
-1027.825950319952
 30
0.0
 11
811.103744237921
 21
1198.636284877554
 31
0.0
  0
LINE
  5
64
330
1F
100
AcDbEntity
  8
0-0
  6
Continuous
 62
    92
370
    13
100
AcDbLine
 10
-802.8962557620777
 20
1198.636284877554
 30
0.0
 11
841.103744237921
 21
1198.636284877554
 31
0.0
  0
LINE
  5
65
330
1F
100
AcDbEntity
  8
0-0
  6
JWW_DASHED1
 62
   120
370
     5
100
AcDbLine
 10
814.1037442379217
 20
1154.636284877553
 30
0.0
 11
814.1037442379217
 21
-1028.363715122447
 31
0.0
  0
LINE
  5
66
330
1F
100
AcDbEntity
  8
0-0
  6
JWW_DASHED1
 62
   120
370
     5
100
AcDbLine
 10
811.103744237921
 20
1154.636284877553
 30
0.0
 11
814.1037442379217
 21
1154.636284877553
 31
0.0
  0
LINE
  5
67
330
1F
100
AcDbEntity
  8
0-0
  6
Continuous
 62
    92
370
    13
100
AcDbLine
 10
4.103744237921632
 20
-1028.363715122447
 30
0.0
 11
4.103744237921632
 21
1154.636284877553
 31
0.0
  0
LINE
  5
68
330
1F
100
AcDbEntity
  8
0-0
  6
JWW_DASHED1
 62
   120
370
     5
100
AcDbLine
 10
34.10374423792334
 20
-1028.363715122447
 30
0.0
 11
34.10374423792334
 21
1154.636284877553
 31
0.0
  0
LINE
  5
69
330
1F
100
AcDbEntity
  8
0-0
  6
Continuous
 62
    92
370
    13
100
AcDbLine
 10
811.103744237921
 20
1154.636284877553
 30
0.0
 11
-772.8962557620777
 21
1154.636284877553
 31
0.0
  0
LINE
  5
6A
330
1F
100
AcDbEntity
  8
0-0
  6
Continuous
 62
    92
370
    13
100
AcDbLine
 10
-772.8962557620777
 20
-1036.863715122447
 30
0.0
 11
-772.8962557620777
 21
1198.636284877554
 31
0.0
  0
LINE
  5
6B
330
1F
100
AcDbEntity
  8
0-0
  6
Continuous
 62
    92
370
    13
100
AcDbLine
 10
-772.8962557620777
 20
-1036.863715122447
 30
0.0
 11
-802.8962557620777
 21
-1036.863715122447
 31
0.0
  0
LINE
  5
6C
330
1F
100
AcDbEntity
  8
0-0
  6
Continuous
 62
    92
370
    13
100
AcDbLine
 10
841.103744237921
 20
-1036.863715122447
 30
0.0
 11
811.103744237921
 21
-1036.863715122447
 31
0.0
  0
LINE
  5
6D
330
1F
100
AcDbEntity
  8
0-0
  6
Continuous
 62
    92
370
    13
100
AcDbLine
 10
811.103744237921
 20
-1036.863715122447
 30
0.0
 11
811.103744237921
 21
-1028.15893612961
 31
0.0
  0
LINE
  5
6E
330
1F
100
AcDbEntity
  8
0-0
  6
Continuous
 62
     7
370
     9
100
AcDbLine
 10
-389.8962557620807
 20
-1020.363715122447
 30
0.0
 11
-351.8962557620803
 21
-1020.363715122447
 31
0.0
  0
LINE
  5
6F
330
1F
100
AcDbEntity
  8
0-0
  6
JWW_DASHED1
 62
   120
370
     5
100
AcDbLine
 10
-389.8962557620807
 20
-983.5664159610335
 30
0.0
 11
-351.8962557620837
 21
-945.5664159610334
 31
0.0
  0
LINE
  5
70
330
1F
100
AcDbEntity
  8
0-0
  6
JWW_DASHED1
 62
   120
370
     5
100
AcDbLine
 10
-389.8962557620807
 20
-973.6669210258717
 30
0.0
 11
-351.8962557620803
 21
-935.6669210258688
 31
0.0
  0
LINE
  5
71
330
1F
100
AcDbEntity
  8
0-0
  6
JWW_DASHED1
 62
   120
370
     5
100
AcDbLine
 10
-389.8962557620807
 20
-963.7674260906532
 30
0.0
 11
-351.8962557620735
 21
-925.7674260906448
 31
0.0
  0
LINE
  5
72
330
1F
100
AcDbEntity
  8
0-0
  6
JWW_DASHED1
 62
   120
370
     5
100
AcDbLine
 10
-389.8962557620807
 20
-953.8679311554409
 30
0.0
 11
-351.8962557620803
 21
-915.8679311554365
 31
0.0
  0
LINE
  5
73
330
1F
100
AcDbEntity
  8
0-0
  6
JWW_DASHED1
 62
   120
370
     5
100
AcDbLine
 10
-389.8962557620807
 20
-943.9684362202723
 30
0.0
 11
-351.8962557620769
 21
-905.9684362202718
 31
0.0
  0
LINE
  5
74
330
1F
100
AcDbEntity
  8
0-0
  6
JWW_DASHED1
 62
   120
370
     5
100
AcDbLine
 10
-389.8962557620807
 20
-934.0689412850584
 30
0.0
 11
-351.8962557620871
 21
-896.0689412850635
 31
0.0
  0
LINE
  5
75
330
1F
100
AcDbEntity
  8
0-0
  6
JWW_DASHED1
 62
   120
370
     5
100
AcDbLine
 10
-389.8962557620807
 20
-924.1694463498399
 30
0.0
 11
-351.8962557620769
 21
-886.1694463498396
 31
0.0
  0
LINE
  5
76
330
1F
100
AcDbEntity
  8
0-0
  6
JWW_DASHED1
 62
   120
370
     5
100
AcDbLine
 10
-389.8962557620807
 20
-914.2699514146786
 30
0.0
 11
-351.8962557620735
 21
-876.2699514146747
 31
0.0
  0
LINE
  5
77
330
1F
100
AcDbEntity
  8
0-0
  6
JWW_DASHED1
 62
   120
370
     5
100
AcDbLine
 10
-389.8962557620807
 20
-904.3704564794649
 30
0.0
 11
-351.8962557620837
 21
-866.3704564794666
 31
0.0
  0
LINE
  5
78
330
1F
100
AcDbEntity
  8
0-0
  6
JWW_DASHED1
 62
   120
370
     5
100
AcDbLine
 10
-389.8962557620807
 20
-894.4709615442475
 30
0.0
 11
-351.8962557620735
 21
-856.4709615442426
 31
0.0
  0
LINE
  5
79
330
1F
100
AcDbEntity
  8
0-0
  6
JWW_DASHED1
 62
   120
370
     5
100
AcDbLine
 10
-389.8962557620807
 20
-884.5714666090848
 30
0.0
 11
-351.8962557620871
 21
-846.5714666090936
 31
0.0
  0
LINE
  5
7A
330
1F
100
AcDbEntity
  8
0-0
  6
JWW_DASHED1
 62
   120
370
     5
100
AcDbLine
 10
-389.8962557620807
 20
-874.6719716738712
 30
0.0
 11
-351.8962557620803
 21
-836.6719716738701
 31
0.0
  0
LINE
  5
7B
330
1F
100
AcDbEntity
  8
0-0
  6
JWW_DASHED1
 62
   120
370
     5
100
AcDbLine
 10
-389.8962557620807
 20
-864.7724767386572
 30
0.0
 11
-351.8962557620735
 21
-826.772476738646
 31
0.0
  0
LINE
  5
7C
330
1F
100
AcDbEntity
  8
0-0
  6
JWW_DASHED1
 62
   120
370
     5
100
AcDbLine
 10
-389.8962557620807
 20
-854.872981803494
 30
0.0
 11
-351.8962557620871
 21
-816.8729818034968
 31
0.0
  0
LINE
  5
7D
330
1F
100
AcDbEntity
  8
0-0
  6
JWW_DASHED1
 62
   120
370
     5
100
AcDbLine
 10
-389.8962557620807
 20
-844.9734868682817
 30
0.0
 11
-351.8962557620803
 21
-806.9734868682727
 31
0.0
  0
LINE
  5
7E
330
1F
100
AcDbEntity
  8
0-0
  6
JWW_DASHED1
 62
   120
370
     5
100
AcDbLine
 10
-389.8962557620807
 20
-835.0739919331086
 30
0.0
 11
-351.8962557620735
 21
-797.0739919331082
 31
0.0
  0
LINE
  5
7F
330
1F
100
AcDbEntity
  8
0-0
  6
JWW_DASHED1
 62
   120
370
     5
100
AcDbLine
 10
-389.8962557620807
 20
-825.1744969978936
 30
0.0
 11
-351.8962557620837
 21
-787.1744969978997
 31
0.0
  0
LINE
  5
80
330
1F
100
AcDbEntity
  8
0-0
  6
JWW_DASHED1
 62
   120
370
     5
100
AcDbLine
 10
-389.8962557620807
 20
-815.2750020626812
 30
0.0
 11
-351.8962557620769
 21
-777.275002062676
 31
0.0
  0
LINE
  5
81
330
1F
100
AcDbEntity
  8
0-0
  6
JWW_DASHED1
 62
   120
370
     5
100
AcDbLine
 10
-389.8962557620807
 20
-805.3755071275194
 30
0.0
 11
-351.8962557620735
 21
-767.3755071275109
 31
0.0
  0
LINE
  5
82
330
1F
100
AcDbEntity
  8
0-0
  6
JWW_DASHED1
 62
   120
370
     5
100
AcDbLine
 10
-389.8962557620807
 20
-795.4760121922994
 30
0.0
 11
-351.8962557620803
 21
-757.4760121923031
 31
0.0
  0
LINE
  5
83
330
1F
100
AcDbEntity
  8
0-0
  6
JWW_DASHED1
 62
   120
370
     5
100
AcDbLine
 10
-389.8962557620807
 20
-785.5765172570879
 30
0.0
 11
-351.8962557620735
 21
-747.5765172570791
 31
0.0
  0
LINE
  5
84
330
1F
100
AcDbEntity
  8
0-0
  6
JWW_DASHED1
 62
   120
370
     5
100
AcDbLine
 10
-389.8962557620807
 20
-775.6770223219247
 30
0.0
 11
-351.8962557620871
 21
-737.6770223219298
 31
0.0
  0
LINE
  5
85
330
1F
100
AcDbEntity
  8
0-0
  6
JWW_DASHED1
 62
   120
370
     5
100
AcDbLine
 10
-389.8962557620807
 20
-765.7775273867105
 30
0.0
 11
-351.8962557620803
 21
-727.7775273867061
 31
0.0
  0
LINE
  5
86
330
1F
100
AcDbEntity
  8
0-0
  6
JWW_DASHED1
 62
   120
370
     5
100
AcDbLine
 10
-389.8962557620807
 20
-755.8780324514952
 30
0.0
 11
-351.8962557620871
 21
-717.878032451498
 31
0.0
  0
LINE
  5
87
330
1F
100
AcDbEntity
  8
0-0
  6
JWW_DASHED1
 62
   120
370
     5
100
AcDbLine
 10
-389.8962557620807
 20
-745.9785375163314
 30
0.0
 11
-351.8962557620837
 21
-707.9785375163331
 31
0.0
  0
LINE
  5
88
330
1F
100
AcDbEntity
  8
0-0
  6
JWW_DASHED1
 62
   120
370
     5
100
AcDbLine
 10
-389.8962557620807
 20
-736.0790425811167
 30
0.0
 11
-351.8962557620769
 21
-698.0790425811092
 31
0.0
  0
LINE
  5
89
330
1F
100
AcDbEntity
  8
0-0
  6
JWW_DASHED1
 62
   120
370
     5
100
AcDbLine
 10
-389.8962557620807
 20
-726.1795476458997
 30
0.0
 11
-351.8962557620837
 21
-688.179547645901
 31
0.0
  0
LINE
  5
8A
330
1F
100
AcDbEntity
  8
0-0
  6
JWW_DASHED1
 62
   120
370
     5
100
AcDbLine
 10
-389.8962557620807
 20
-716.2800527107302
 30
0.0
 11
-351.8962557620803
 21
-678.2800527107362
 31
0.0
  0
LINE
  5
8B
330
1F
100
AcDbEntity
  8
0-0
  6
JWW_DASHED1
 62
   120
370
     5
100
AcDbLine
 10
-389.8962557620807
 20
-706.3805577755235
 30
0.0
 11
-351.8962557620735
 21
-668.3805577755122
 31
0.0
  0
LINE
  5
8C
330
1F
100
AcDbEntity
  8
0-0
  6
JWW_DASHED1
 62
   120
370
     5
100
AcDbLine
 10
-389.8962557620807
 20
-696.4810628402988
 30
0.0
 11
-351.8962557620803
 21
-658.4810628403042
 31
0.0
  0
LINE
  5
8D
330
1F
100
AcDbEntity
  8
0-0
  6
JWW_DASHED1
 62
   120
370
     5
100
AcDbLine
 10
-389.8962557620807
 20
-686.5815679051409
 30
0.0
 11
-351.8962557620803
 21
-648.5815679051392
 31
0.0
  0
LINE
  5
8E
330
1F
100
AcDbEntity
  8
0-0
  6
JWW_DASHED1
 62
   120
370
     5
100
AcDbLine
 10
-389.8962557620807
 20
-676.6820729699266
 30
0.0
 11
-351.8962557620735
 21
-638.6820729699153
 31
0.0
  0
LINE
  5
8F
330
1F
100
AcDbEntity
  8
0-0
  6
JWW_DASHED1
 62
   120
370
     5
100
AcDbLine
 10
-389.8962557620807
 20
-666.7825780347088
 30
0.0
 11
-351.8962557620803
 21
-628.7825780347071
 31
0.0
  0
LINE
  5
90
330
1F
100
AcDbEntity
  8
0-0
  6
JWW_DASHED1
 62
   120
370
     5
100
AcDbLine
 10
-389.8962557620807
 20
-656.8830830995474
 30
0.0
 11
-351.8962557620769
 21
-618.8830830995423
 31
0.0
  0
LINE
  5
91
330
1F
100
AcDbEntity
  8
0-0
  6
JWW_DASHED1
 62
   120
370
     5
100
AcDbLine
 10
-389.8962557620807
 20
-646.9835881643281
 30
0.0
 11
-351.8962557620837
 21
-608.9835881643343
 31
0.0
  0
LINE
  5
92
330
1F
100
AcDbEntity
  8
0-0
  6
JWW_DASHED1
 62
   120
370
     5
100
AcDbLine
 10
-389.8962557620807
 20
-637.0840932291153
 30
0.0
 11
-351.8962557620769
 21
-599.0840932291103
 31
0.0
  0
LINE
  5
93
330
1F
100
AcDbEntity
  8
0-0
  6
JWW_DASHED1
 62
   120
370
     5
100
AcDbLine
 10
-389.8962557620807
 20
-627.1845982939537
 30
0.0
 11
-351.8962557620735
 21
-589.1845982939453
 31
0.0
  0
LINE
  5
94
330
1F
100
AcDbEntity
  8
0-0
  6
JWW_DASHED1
 62
   120
370
     5
100
AcDbLine
 10
-389.8962557620807
 20
-617.2851033587344
 30
0.0
 11
-351.8962557620803
 21
-579.2851033587373
 31
0.0
  0
LINE
  5
95
330
1F
100
AcDbEntity
  8
0-0
  6
JWW_DASHED1
 62
   120
370
     5
100
AcDbLine
 10
-389.8962557620807
 20
-607.3856084235144
 30
0.0
 11
-351.8962557620735
 21
-569.3856084235136
 31
0.0
  0
LINE
  5
96
330
1F
100
AcDbEntity
  8
0-0
  6
JWW_DASHED1
 62
   120
370
     5
100
AcDbLine
 10
-389.8962557620807
 20
-597.4861134883619
 30
0.0
 11
-351.8962557620871
 21
-559.4861134883643
 31
0.0
  0
LINE
  5
97
330
1F
100
AcDbEntity
  8
0-0
  6
JWW_DASHED1
 62
   120
370
     5
100
AcDbLine
 10
-389.8962557620807
 20
-587.5866185531448
 30
0.0
 11
-351.8962557620803
 21
-549.5866185531404
 31
0.0
  0
LINE
  5
98
330
1F
100
AcDbEntity
  8
0-0
  6
JWW_DASHED1
 62
   120
370
     5
100
AcDbLine
 10
-389.8962557620807
 20
-577.6871236179251
 30
0.0
 11
-351.8962557620735
 21
-539.6871236179162
 31
0.0
  0
LINE
  5
99
330
1F
100
AcDbEntity
  8
0-0
  6
JWW_DASHED1
 62
   120
370
     5
100
AcDbLine
 10
-389.8962557620807
 20
-567.7876286827648
 30
0.0
 11
-351.8962557620871
 21
-529.7876286827671
 31
0.0
  0
LINE
  5
9A
330
1F
100
AcDbEntity
  8
0-0
  6
JWW_DASHED1
 62
   120
370
     5
100
AcDbLine
 10
-389.8962557620807
 20
-557.8881337475452
 30
0.0
 11
-351.8962557620769
 21
-519.8881337475432
 31
0.0
  0
LINE
  5
9B
330
1F
100
AcDbEntity
  8
0-0
  6
JWW_DASHED1
 62
   120
370
     5
100
AcDbLine
 10
-389.8962557620807
 20
-547.9886388123306
 30
0.0
 11
-351.8962557620871
 21
-509.9886388123354
 31
0.0
  0
LINE
  5
9C
330
1F
100
AcDbEntity
  8
0-0
  6
JWW_DASHED1
 62
   120
370
     5
100
AcDbLine
 10
-389.8962557620807
 20
-538.089143877165
 30
0.0
 11
-351.8962557620803
 21
-500.0891438771702
 31
0.0
  0
LINE
  5
9D
330
1F
100
AcDbEntity
  8
0-0
  6
JWW_DASHED1
 62
   120
370
     5
100
AcDbLine
 10
-389.8962557620807
 20
-528.1896489419507
 30
0.0
 11
-351.8962557620735
 21
-490.189648941947
 31
0.0
  0
LINE
  5
9E
330
1F
100
AcDbEntity
  8
0-0
  6
JWW_DASHED1
 62
   120
370
     5
100
AcDbLine
 10
-389.8962557620807
 20
-518.2901540067365
 30
0.0
 11
-351.8962557620837
 21
-480.2901540067387
 31
0.0
  0
LINE
  5
9F
330
1F
100
AcDbEntity
  8
0-0
  6
JWW_DASHED1
 62
   120
370
     5
100
AcDbLine
 10
-389.8962557620807
 20
-508.3906590715748
 30
0.0
 11
-351.8962557620803
 21
-470.3906590715735
 31
0.0
  0
LINE
  5
A0
330
1F
100
AcDbEntity
  8
0-0
  6
JWW_DASHED1
 62
   120
370
     5
100
AcDbLine
 10
-389.8962557620807
 20
-498.4911641363555
 30
0.0
 11
-351.8962557620871
 21
-460.4911641363652
 31
0.0
  0
LINE
  5
A1
330
1F
100
AcDbEntity
  8
0-0
  6
JWW_DASHED1
 62
   120
370
     5
100
AcDbLine
 10
-389.8962557620807
 20
-488.5916692011429
 30
0.0
 11
-351.8962557620803
 21
-450.5916692011417
 31
0.0
  0
LINE
  5
A2
330
1F
100
AcDbEntity
  8
0-0
  6
JWW_DASHED1
 62
   120
370
     5
100
AcDbLine
 10
-389.8962557620807
 20
-478.6921742659807
 30
0.0
 11
-351.8962557620769
 21
-440.6921742659769
 31
0.0
  0
LINE
  5
A3
330
1F
100
AcDbEntity
  8
0-0
  6
JWW_DASHED1
 62
   120
370
     5
100
AcDbLine
 10
-389.8962557620807
 20
-468.7926793307673
 30
0.0
 11
-351.8962557620871
 21
-430.7926793307682
 31
0.0
  0
LINE
  5
A4
330
1F
100
AcDbEntity
  8
0-0
  6
JWW_DASHED1
 62
   120
370
     5
100
AcDbLine
 10
-389.8962557620807
 20
-458.8931843955467
 30
0.0
 11
-351.8962557620803
 21
-420.8931843955446
 31
0.0
  0
LINE
  5
A5
330
1F
100
AcDbEntity
  8
0-0
  6
JWW_DASHED1
 62
   120
370
     5
100
AcDbLine
 10
-389.8962557620807
 20
-448.9936894603807
 30
0.0
 11
-351.8962557620735
 21
-410.9936894603799
 31
0.0
  0
LINE
  5
A6
330
1F
100
AcDbEntity
  8
0-0
  6
JWW_DASHED1
 62
   120
370
     5
100
AcDbLine
 10
-389.8962557620807
 20
-439.0941945251656
 30
0.0
 11
-351.8962557620837
 21
-401.094194525172
 31
0.0
  0
LINE
  5
A7
330
1F
100
AcDbEntity
  8
0-0
  6
JWW_DASHED1
 62
   120
370
     5
100
AcDbLine
 10
-389.8962557620807
 20
-429.1946995899526
 30
0.0
 11
-351.8962557620769
 21
-391.194699589948
 31
0.0
  0
LINE
  5
A8
330
1F
100
AcDbEntity
  8
0-0
  6
JWW_DASHED1
 62
   120
370
     5
100
AcDbLine
 10
-389.8962557620807
 20
-419.2952046547917
 30
0.0
 11
-351.8962557620735
 21
-381.2952046547828
 31
0.0
  0
LINE
  5
A9
330
1F
100
AcDbEntity
  8
0-0
  6
JWW_DASHED1
 62
   120
370
     5
100
AcDbLine
 10
-389.8962557620807
 20
-409.395709719572
 30
0.0
 11
-351.8962557620803
 21
-371.3957097195749
 31
0.0
  0
LINE
  5
AA
330
1F
100
AcDbEntity
  8
0-0
  6
JWW_DASHED1
 62
   120
370
     5
100
AcDbLine
 10
-389.8962557620807
 20
-399.4962147843598
 30
0.0
 11
-351.8962557620735
 21
-361.496214784351
 31
0.0
  0
LINE
  5
AB
330
1F
100
AcDbEntity
  8
0-0
  6
JWW_DASHED1
 62
   120
370
     5
100
AcDbLine
 10
-389.8962557620807
 20
-389.5967198491921
 30
0.0
 11
-351.8962557620803
 21
-351.5967198491964
 31
0.0
  0
LINE
  5
AC
330
1F
100
AcDbEntity
  8
0-0
  6
JWW_DASHED1
 62
   120
370
     5
100
AcDbLine
 10
-389.8962557620807
 20
-379.6972249139817
 30
0.0
 11
-351.8962557620803
 21
-341.6972249139779
 31
0.0
  0
LINE
  5
AD
330
1F
100
AcDbEntity
  8
0-0
  6
JWW_DASHED1
 62
   120
370
     5
100
AcDbLine
 10
-389.8962557620807
 20
-369.797729978768
 30
0.0
 11
-351.8962557620871
 21
-331.7977299787697
 31
0.0
  0
LINE
  5
AE
330
1F
100
AcDbEntity
  8
0-0
  6
JWW_DASHED1
 62
   120
370
     5
100
AcDbLine
 10
-389.8962557620807
 20
-359.8982350436036
 30
0.0
 11
-351.8962557620837
 21
-321.8982350436049
 31
0.0
  0
LINE
  5
AF
330
1F
100
AcDbEntity
  8
0-0
  6
JWW_DASHED1
 62
   120
370
     5
100
AcDbLine
 10
-389.8962557620807
 20
-349.9987401083813
 30
0.0
 11
-351.8962557620769
 21
-311.9987401083808
 31
0.0
  0
LINE
  5
B0
330
1F
100
AcDbEntity
  8
0-0
  6
JWW_DASHED1
 62
   120
370
     5
100
AcDbLine
 10
-389.8962557620807
 20
-340.0992451731667
 30
0.0
 11
-351.8962557620837
 21
-302.099245173173
 31
0.0
  0
LINE
  5
B1
330
1F
100
AcDbEntity
  8
0-0
  6
JWW_DASHED1
 62
   120
370
     5
100
AcDbLine
 10
-389.8962557620807
 20
-330.1997502380027
 30
0.0
 11
-351.8962557620803
 21
-292.1997502380078
 31
0.0
  0
LINE
  5
B2
330
1F
100
AcDbEntity
  8
0-0
  6
JWW_DASHED1
 62
   120
370
     5
100
AcDbLine
 10
-389.8962557620807
 20
-320.3002553027944
 30
0.0
 11
-351.8962557620735
 21
-282.3002553027839
 31
0.0
  0
LINE
  5
B3
330
1F
100
AcDbEntity
  8
0-0
  6
JWW_DASHED1
 62
   120
370
     5
100
AcDbLine
 10
-389.8962557620807
 20
-310.4007603675709
 30
0.0
 11
-351.8962557620803
 21
-272.400760367576
 31
0.0
  0
LINE
  5
B4
330
1F
100
AcDbEntity
  8
0-0
  6
JWW_DASHED1
 62
   120
370
     5
100
AcDbLine
 10
-389.8962557620807
 20
-300.5012654324129
 30
0.0
 11
-351.8962557620803
 21
-262.5012654324108
 31
0.0
  0
LINE
  5
B5
330
1F
100
AcDbEntity
  8
0-0
  6
JWW_DASHED1
 62
   120
370
     5
100
AcDbLine
 10
-389.8962557620807
 20
-290.6017704971995
 30
0.0
 11
-351.8962557620735
 21
-252.6017704971868
 31
0.0
  0
LINE
  5
B6
330
1F
100
AcDbEntity
  8
0-0
  6
JWW_DASHED1
 62
   120
370
     5
100
AcDbLine
 10
-389.8962557620807
 20
-280.7022755619811
 30
0.0
 11
-351.8962557620803
 21
-242.702275561979
 31
0.0
  0
LINE
  5
B7
330
1F
100
AcDbEntity
  8
0-0
  6
JWW_DASHED1
 62
   120
370
     5
100
AcDbLine
 10
-389.8962557620807
 20
-270.8027806268193
 30
0.0
 11
-351.8962557620769
 21
-232.8027806268138
 31
0.0
  0
LINE
  5
B8
330
1F
100
AcDbEntity
  8
0-0
  6
JWW_DASHED1
 62
   120
370
     5
100
AcDbLine
 10
-389.8962557620807
 20
-260.9032856915995
 30
0.0
 11
-351.8962557620837
 21
-222.9032856916059
 31
0.0
  0
LINE
  5
B9
330
1F
100
AcDbEntity
  8
0-0
  6
JWW_DASHED1
 62
   120
370
     5
100
AcDbLine
 10
-389.8962557620807
 20
-251.0037907564156
 30
0.0
 11
-351.8962557620803
 21
-213.0037907564117
 31
0.0
  0
LINE
  5
BA
330
1F
100
AcDbEntity
  8
0-0
  6
JWW_DASHED1
 62
   120
370
     5
100
AcDbLine
 10
-389.8962557620807
 20
-241.104295821218
 30
0.0
 11
-351.8962557620735
 21
-203.1042958212171
 31
0.0
  0
LINE
  5
BB
330
1F
100
AcDbEntity
  8
0-0
  6
JWW_DASHED1
 62
   120
370
     5
100
AcDbLine
 10
-389.8962557620807
 20
-231.204800886005
 30
0.0
 11
-351.8962557620803
 21
-193.2048008860093
 31
0.0
  0
LINE
  5
BC
330
1F
100
AcDbEntity
  8
0-0
  6
JWW_DASHED1
 62
   120
370
     5
100
AcDbLine
 10
-389.8962557620807
 20
-221.3053059508151
 30
0.0
 11
-351.8962557620769
 21
-183.3053059508147
 31
0.0
  0
LINE
  5
BD
330
1F
100
AcDbEntity
  8
0-0
  6
JWW_DASHED1
 62
   120
370
     5
100
AcDbLine
 10
-389.8962557620807
 20
-211.4058110156328
 30
0.0
 11
-351.8962557620871
 21
-173.4058110156359
 31
0.0
  0
LINE
  5
BE
330
1F
100
AcDbEntity
  8
0-0
  6
JWW_DASHED1
 62
   120
370
     5
100
AcDbLine
 10
-389.8962557620807
 20
-201.5063160804178
 30
0.0
 11
-351.8962557620803
 21
-163.5063160804118
 31
0.0
  0
LINE
  5
BF
330
1F
100
AcDbEntity
  8
0-0
  6
JWW_DASHED1
 62
   120
370
     5
100
AcDbLine
 10
-389.8962557620807
 20
-191.6068211452479
 30
0.0
 11
-351.8962557620769
 21
-153.6068211452475
 31
0.0
  0
LINE
  5
C0
330
1F
100
AcDbEntity
  8
0-0
  6
JWW_DASHED1
 62
   120
370
     5
100
AcDbLine
 10
-389.8962557620807
 20
-181.7073262100379
 30
0.0
 11
-351.8962557620871
 21
-143.7073262100388
 31
0.0
  0
LINE
  5
C1
330
1F
100
AcDbEntity
  8
0-0
  6
JWW_DASHED1
 62
   120
370
     5
100
AcDbLine
 10
-389.8962557620807
 20
-171.807831274816
 30
0.0
 11
-351.8962557620769
 21
-133.8078312748156
 31
0.0
  0
LINE
  5
C2
330
1F
100
AcDbEntity
  8
0-0
  6
JWW_DASHED1
 62
   120
370
     5
100
AcDbLine
 10
-389.8962557620807
 20
-161.9083363396543
 30
0.0
 11
-351.8962557620735
 21
-123.9083363396504
 31
0.0
  0
LINE
  5
C3
330
1F
100
AcDbEntity
  8
0-0
  6
JWW_DASHED1
 62
   120
370
     5
100
AcDbLine
 10
-389.8962557620807
 20
-152.0088414044396
 30
0.0
 11
-351.8962557620837
 21
-114.0088414044426
 31
0.0
  0
LINE
  5
C4
330
1F
100
AcDbEntity
  8
0-0
  6
JWW_DASHED1
 62
   120
370
     5
100
AcDbLine
 10
-389.8962557620807
 20
-142.1093464692224
 30
0.0
 11
-351.8962557620735
 21
-104.1093464692186
 31
0.0
  0
LINE
  5
C5
330
1F
100
AcDbEntity
  8
0-0
  6
JWW_DASHED1
 62
   120
370
     5
100
AcDbLine
 10
-389.8962557620807
 20
-132.209851534064
 30
0.0
 11
-351.8962557620735
 21
-94.2098515340534
 31
0.0
  0
LINE
  5
C6
330
1F
100
AcDbEntity
  8
0-0
  6
JWW_DASHED1
 62
   120
370
     5
100
AcDbLine
 10
-389.8962557620807
 20
-122.310356598846
 30
0.0
 11
-351.8962557620803
 21
-84.31035659884557
 31
0.0
  0
LINE
  5
C7
330
1F
100
AcDbEntity
  8
0-0
  6
JWW_DASHED1
 62
   120
370
     5
100
AcDbLine
 10
-389.8962557620807
 20
-112.4108616636322
 30
0.0
 11
-351.8962557620735
 21
-74.41086166362155
 31
0.0
  0
LINE
  5
C8
330
1F
100
AcDbEntity
  8
0-0
  6
JWW_DASHED1
 62
   120
370
     5
100
AcDbLine
 10
-389.8962557620807
 20
-102.5113667284653
 30
0.0
 11
-351.8962557620769
 21
-64.51136672846488
 31
0.0
  0
LINE
  5
C9
330
1F
100
AcDbEntity
  8
0-0
  6
JWW_DASHED1
 62
   120
370
     5
100
AcDbLine
 10
-389.8962557620807
 20
-92.61187179325404
 30
0.0
 11
-351.8962557620769
 21
-54.61187179324853
 31
0.0
  0
LINE
  5
CA
330
1F
100
AcDbEntity
  8
0-0
  6
JWW_DASHED1
 62
   120
370
     5
100
AcDbLine
 10
-389.8962557620807
 20
-82.71237685803769
 30
0.0
 11
-351.8962557620871
 21
-44.7123768580407
 31
0.0
  0
LINE
  5
CB
330
1F
100
AcDbEntity
  8
0-0
  6
JWW_DASHED1
 62
   120
370
     5
100
AcDbLine
 10
-389.8962557620807
 20
-72.81288192286908
 30
0.0
 11
-351.8962557620837
 21
-34.8128819228755
 31
0.0
  0
LINE
  5
CC
330
1F
100
AcDbEntity
  8
0-0
  6
JWW_DASHED1
 62
   120
370
     5
100
AcDbLine
 10
-389.8962557620807
 20
-62.91338698765315
 30
0.0
 11
-351.8962557620735
 21
-24.91338698765148
 31
0.0
  0
LINE
  5
CD
330
1F
100
AcDbEntity
  8
0-0
  6
JWW_DASHED1
 62
   120
370
     5
100
AcDbLine
 10
-389.8962557620807
 20
-53.01389205243723
 30
0.0
 11
-351.8962557620837
 21
-15.01389205244365
 31
0.0
  0
LINE
  5
CE
330
1F
100
AcDbEntity
  8
0-0
  6
JWW_DASHED1
 62
   120
370
     5
100
AcDbLine
 10
-389.8962557620807
 20
-43.11439711728354
 30
0.0
 11
-351.8962557620803
 21
-5.114397117278457
 31
0.0
  0
LINE
  5
CF
330
1F
100
AcDbEntity
  8
0-0
  6
JWW_DASHED1
 62
   120
370
     5
100
AcDbLine
 10
-389.8962557620807
 20
-33.21490218206293
 30
0.0
 11
-351.8962557620735
 21
4.785097817945143
 31
0.0
  0
LINE
  5
D0
330
1F
100
AcDbEntity
  8
0-0
  6
JWW_DASHED1
 62
   120
370
     5
100
AcDbLine
 10
-389.8962557620807
 20
-23.31540724684359
 30
0.0
 11
-351.8962557620803
 21
14.6845927531534
 31
0.0
  0
LINE
  5
D1
330
1F
100
AcDbEntity
  8
0-0
  6
JWW_DASHED1
 62
   120
370
     5
100
AcDbLine
 10
-389.8962557620807
 20
-13.41591231168564
 30
0.0
 11
-351.8962557620803
 21
24.58408768831816
 31
0.0
  0
LINE
  5
D2
330
1F
100
AcDbEntity
  8
0-0
  6
JWW_DASHED1
 62
   120
370
     5
100
AcDbLine
 10
-389.8962557620807
 20
-3.516417376469292
 30
0.0
 11
-351.89625576207
 21
34.48358262354219
 31
0.0
  0
LINE
  5
D3
330
1F
100
AcDbEntity
  8
0-0
  6
JWW_DASHED1
 62
   120
370
     5
100
AcDbLine
 10
-389.8962557620807
 20
6.383077558746635
 30
0.0
 11
-351.8962557620803
 21
44.38307755875044
 31
0.0
  0
LINE
  5
D4
330
1F
100
AcDbEntity
  8
0-0
  6
JWW_DASHED1
 62
   120
370
     5
100
AcDbLine
 10
-389.8962557620807
 20
16.28257249390799
 30
0.0
 11
-351.8962557620769
 21
54.28257249391521
 31
0.0
  0
LINE
  5
D5
330
1F
100
AcDbEntity
  8
0-0
  6
JWW_DASHED1
 62
   120
370
     5
100
AcDbLine
 10
-389.8962557620807
 20
26.18206742912477
 30
0.0
 11
-351.8962557620837
 21
64.18206742912304
 31
0.0
  0
LINE
  5
D6
330
1F
100
AcDbEntity
  8
0-0
  6
JWW_DASHED1
 62
   120
370
     5
100
AcDbLine
 10
-389.8962557620807
 20
36.08156236434667
 30
0.0
 11
-351.8962557620769
 21
74.08156236434706
 31
0.0
  0
LINE
  5
D7
330
1F
100
AcDbEntity
  8
0-0
  6
JWW_DASHED1
 62
   120
370
     5
100
AcDbLine
 10
-389.8962557620807
 20
45.98105729950035
 30
0.0
 11
-351.8962557620735
 21
83.98105729951226
 31
0.0
  0
LINE
  5
D8
330
1F
100
AcDbEntity
  8
0-0
  6
JWW_DASHED1
 62
   120
370
     5
100
AcDbLine
 10
-389.8962557620807
 20
55.88055223472608
 30
0.0
 11
-351.8962557620803
 21
93.88055223472008
 31
0.0
  0
LINE
  5
D9
330
1F
100
AcDbEntity
  8
0-0
  6
JWW_DASHED1
 62
   120
370
     5
100
AcDbLine
 10
-389.8962557620807
 20
65.78004716993945
 30
0.0
 11
-351.8962557620735
 21
103.7800471699441
 31
0.0
  0
LINE
  5
DA
330
1F
100
AcDbEntity
  8
0-0
  6
JWW_DASHED1
 62
   120
370
     5
100
AcDbLine
 10
-389.8962557620807
 20
75.67954210509527
 30
0.0
 11
-351.8962557620871
 21
113.6795421050935
 31
0.0
  0
LINE
  5
DB
330
1F
100
AcDbEntity
  8
0-0
  6
JWW_DASHED1
 62
   120
370
     5
100
AcDbLine
 10
-389.8962557620807
 20
85.57903704031588
 30
0.0
 11
-351.8962557620803
 21
123.5790370403171
 31
0.0
  0
LINE
  5
DC
330
1F
100
AcDbEntity
  8
0-0
  6
JWW_DASHED1
 62
   120
370
     5
100
AcDbLine
 10
-389.8962557620807
 20
95.4785319755301
 30
0.0
 11
-351.8962557620735
 21
133.4785319755407
 31
0.0
  0
LINE
  5
DD
330
1F
100
AcDbEntity
  8
0-0
  6
JWW_DASHED1
 62
   120
370
     5
100
AcDbLine
 10
-389.8962557620807
 20
105.3780269106961
 30
0.0
 11
-351.8962557620837
 21
143.3780269106902
 31
0.0
  0
LINE
  5
DE
330
1F
100
AcDbEntity
  8
0-0
  6
JWW_DASHED1
 62
   120
370
     5
100
AcDbLine
 10
-389.8962557620807
 20
115.2775218459087
 30
0.0
 11
-351.8962557620769
 21
153.2775218459142
 31
0.0
  0
LINE
  5
DF
330
1F
100
AcDbEntity
  8
0-0
  6
JWW_DASHED1
 62
   120
370
     5
100
AcDbLine
 10
-389.8962557620807
 20
125.1770167811272
 30
0.0
 11
-351.8962557620735
 21
163.1770167811318
 31
0.0
  0
LINE
  5
E0
330
1F
100
AcDbEntity
  8
0-0
  6
JWW_DASHED1
 62
   120
370
     5
100
AcDbLine
 10
-389.8962557620807
 20
135.0765117162894
 30
0.0
 11
-351.8962557620803
 21
173.0765117162872
 31
0.0
  0
LINE
  5
E1
330
1F
100
AcDbEntity
  8
0-0
  6
JWW_DASHED1
 62
   120
370
     5
100
AcDbLine
 10
-389.8962557620807
 20
144.97600665151
 30
0.0
 11
-351.8962557620735
 21
182.9760066515108
 31
0.0
  0
LINE
  5
E2
330
1F
100
AcDbEntity
  8
0-0
  6
JWW_DASHED1
 62
   120
370
     5
100
AcDbLine
 10
-389.8962557620807
 20
154.8755015867174
 30
0.0
 11
-351.8962557620837
 21
192.8755015867191
 31
0.0
  0
LINE
  5
E3
330
1F
100
AcDbEntity
  8
0-0
  6
JWW_DASHED1
 62
   120
370
     5
100
AcDbLine
 10
-389.8962557620807
 20
164.7749965218796
 30
0.0
 11
-351.8962557620803
 21
202.7749965218838
 31
0.0
  0
LINE
  5
E4
330
1F
100
AcDbEntity
  8
0-0
  6
JWW_DASHED1
 62
   120
370
     5
100
AcDbLine
 10
-389.8962557620807
 20
174.6744914571019
 30
0.0
 11
-351.8962557620871
 21
212.6744914570921
 31
0.0
  0
LINE
  5
E5
330
1F
100
AcDbEntity
  8
0-0
  6
JWW_DASHED1
 62
   120
370
     5
100
AcDbLine
 10
-389.8962557620807
 20
184.5739863923119
 30
0.0
 11
-351.8962557620803
 21
222.5739863923157
 31
0.0
  0
LINE
  5
E6
330
1F
100
AcDbEntity
  8
0-0
  6
JWW_DASHED1
 62
   120
370
     5
100
AcDbLine
 10
-389.8962557620807
 20
194.4734813274805
 30
0.0
 11
-351.8962557620769
 21
232.4734813274804
 31
0.0
  0
LINE
  5
E7
330
1F
100
AcDbEntity
  8
0-0
  6
JWW_DASHED1
 62
   120
370
     5
100
AcDbLine
 10
-389.8962557620807
 20
204.3729762626917
 30
0.0
 11
-351.8962557620871
 21
242.3729762626887
 31
0.0
  0
LINE
  5
E8
330
1F
100
AcDbEntity
  8
0-0
  6
JWW_DASHED1
 62
   120
370
     5
100
AcDbLine
 10
-389.8962557620807
 20
214.2724711979123
 30
0.0
 11
-351.8962557620769
 21
252.2724711979127
 31
0.0
  0
LINE
  5
E9
330
1F
100
AcDbEntity
  8
0-0
  6
JWW_DASHED1
 62
   120
370
     5
100
AcDbLine
 10
-389.8962557620807
 20
224.1719661330733
 30
0.0
 11
-351.8962557620735
 21
262.1719661330779
 31
0.0
  0
LINE
  5
EA
330
1F
100
AcDbEntity
  8
0-0
  6
JWW_DASHED1
 62
   120
370
     5
100
AcDbLine
 10
-389.8962557620807
 20
234.0714610682879
 30
0.0
 11
-351.8962557620837
 21
272.0714610682858
 31
0.0
  0
LINE
  5
EB
330
1F
100
AcDbEntity
  8
0-0
  6
JWW_DASHED1
 62
   120
370
     5
100
AcDbLine
 10
-389.8962557620807
 20
243.970956003506
 30
0.0
 11
-351.8962557620735
 21
281.9709560035097
 31
0.0
  0
LINE
  5
EC
330
1F
100
AcDbEntity
  8
0-0
  6
JWW_DASHED1
 62
   120
370
     5
100
AcDbLine
 10
-389.8962557620807
 20
253.8704509386631
 30
0.0
 11
-351.8962557620735
 21
291.8704509386749
 31
0.0
  0
LINE
  5
ED
330
1F
100
AcDbEntity
  8
0-0
  6
JWW_DASHED1
 62
   120
370
     5
100
AcDbLine
 10
-389.8962557620807
 20
263.7699458738807
 30
0.0
 11
-351.8962557620803
 21
301.7699458738828
 31
0.0
  0
LINE
  5
EE
330
1F
100
AcDbEntity
  8
0-0
  6
JWW_DASHED1
 62
   120
370
     5
100
AcDbLine
 10
-389.8962557620807
 20
273.6694408090949
 30
0.0
 11
-351.8962557620735
 21
311.6694408091068
 31
0.0
  0
LINE
  5
EF
330
1F
100
AcDbEntity
  8
0-0
  6
JWW_DASHED1
 62
   120
370
     5
100
AcDbLine
 10
-389.8962557620807
 20
283.5689357442644
 30
0.0
 11
-351.89625576207
 21
321.5689357442716
 31
0.0
  0
LINE
  5
F0
330
1F
100
AcDbEntity
  8
0-0
  6
JWW_DASHED1
 62
   120
370
     5
100
AcDbLine
 10
-389.8962557620807
 20
293.4684306794739
 30
0.0
 11
-351.8962557620769
 21
331.4684306794799
 31
0.0
  0
LINE
  5
F1
330
1F
100
AcDbEntity
  8
0-0
  6
JWW_DASHED1
 62
   120
370
     5
100
AcDbLine
 10
-389.8962557620807
 20
303.3679256146903
 30
0.0
 11
-351.8962557620871
 21
341.3679256146877
 31
0.0
  0
LINE
  5
F2
330
1F
100
AcDbEntity
  8
0-0
  6
JWW_DASHED1
 62
   120
370
     5
100
AcDbLine
 10
-389.8962557620807
 20
313.267420549852
 30
0.0
 11
-351.8962557620837
 21
351.2674205498529
 31
0.0
  0
LINE
  5
F3
330
1F
100
AcDbEntity
  8
0-0
  6
JWW_DASHED1
 62
   120
370
     5
100
AcDbLine
 10
-389.8962557620807
 20
323.1669154850752
 30
0.0
 11
-351.8962557620735
 21
361.1669154850765
 31
0.0
  0
LINE
  5
F4
330
1F
100
AcDbEntity
  8
0-0
  6
JWW_DASHED1
 62
   120
370
     5
100
AcDbLine
 10
-389.8962557620807
 20
333.0664104202912
 30
0.0
 11
-351.8962557620837
 21
371.0664104202843
 31
0.0
  0
LINE
  5
F5
330
1F
100
AcDbEntity
  8
0-0
  6
JWW_DASHED1
 62
   120
370
     5
100
AcDbLine
 10
-389.8962557620807
 20
342.9659053554465
 30
0.0
 11
-351.8962557620803
 21
380.9659053554495
 31
0.0
  0
LINE
  5
F6
330
1F
100
AcDbEntity
  8
0-0
  6
JWW_DASHED1
 62
   120
370
     5
100
AcDbLine
 10
-389.8962557620807
 20
352.8654002906654
 30
0.0
 11
-351.8962557620735
 21
390.8654002906735
 31
0.0
  0
LINE
  5
F7
330
1F
100
AcDbEntity
  8
0-0
  6
JWW_DASHED1
 62
   120
370
     5
100
AcDbLine
 10
-389.8962557620807
 20
362.7648952258584
 30
0.0
 11
-351.8962557620837
 21
400.7648952258515
 31
0.0
  0
LINE
  5
F8
330
1F
100
AcDbEntity
  8
0-0
  6
JWW_DASHED1
 62
   120
370
     5
100
AcDbLine
 10
-389.8962557620807
 20
372.6643901610427
 30
0.0
 11
-351.8962557620803
 21
410.6643901610465
 31
0.0
  0
LINE
  5
F9
330
1F
100
AcDbEntity
  8
0-0
  6
JWW_DASHED1
 62
   120
370
     5
100
AcDbLine
 10
-389.8962557620807
 20
382.5638850962582
 30
0.0
 11
-351.89625576207
 21
420.5638850962706
 31
0.0
  0
LINE
  5
FA
330
1F
100
AcDbEntity
  8
0-0
  6
JWW_DASHED1
 62
   120
370
     5
100
AcDbLine
 10
-389.8962557620807
 20
392.4633800314251
 30
0.0
 11
-351.8962557620837
 21
430.4633800314195
 31
0.0
  0
LINE
  5
FB
330
1F
100
AcDbEntity
  8
0-0
  6
JWW_DASHED1
 62
   120
370
     5
100
AcDbLine
 10
-389.8962557620807
 20
402.3628749666351
 30
0.0
 11
-351.8962557620769
 21
440.3628749666436
 31
0.0
  0
LINE
  5
FC
330
1F
100
AcDbEntity
  8
0-0
  6
JWW_DASHED1
 62
   120
370
     5
100
AcDbLine
 10
-389.8962557620807
 20
412.2623699018536
 30
0.0
 11
-351.8962557620837
 21
450.2623699018514
 31
0.0
  0
LINE
  5
FD
330
1F
100
AcDbEntity
  8
0-0
  6
JWW_DASHED1
 62
   120
370
     5
100
AcDbLine
 10
-389.8962557620807
 20
422.1618648370218
 30
0.0
 11
-351.8962557620803
 21
460.1618648370166
 31
0.0
  0
LINE
  5
FE
330
1F
100
AcDbEntity
  8
0-0
  6
JWW_DASHED1
 62
   120
370
     5
100
AcDbLine
 10
-389.8962557620807
 20
432.0613597722296
 30
0.0
 11
-351.8962557620735
 21
470.0613597722402
 31
0.0
  0
LINE
  5
FF
330
1F
100
AcDbEntity
  8
0-0
  6
JWW_DASHED1
 62
   120
370
     5
100
AcDbLine
 10
-389.8962557620807
 20
441.9608547074545
 30
0.0
 11
-351.8962557620803
 21
479.9608547074484
 31
0.0
  0
LINE
  5
100
330
1F
100
AcDbEntity
  8
0-0
  6
JWW_DASHED1
 62
   120
370
     5
100
AcDbLine
 10
-389.8962557620807
 20
451.8603496426047
 30
0.0
 11
-351.8962557620803
 21
489.8603496426132
 31
0.0
  0
LINE
  5
101
330
1F
100
AcDbEntity
  8
0-0
  6
JWW_DASHED1
 62
   120
370
     5
100
AcDbLine
 10
-389.8962557620807
 20
461.7598445778245
 30
0.0
 11
-351.8962557620871
 21
499.7598445778215
 31
0.0
  0
LINE
  5
102
330
1F
100
AcDbEntity
  8
0-0
  6
JWW_DASHED1
 62
   120
370
     5
100
AcDbLine
 10
-389.8962557620807
 20
471.6593395130438
 30
0.0
 11
-351.8962557620803
 21
509.6593395130451
 31
0.0
  0
LINE
  5
103
330
1F
100
AcDbEntity
  8
0-0
  6
JWW_DASHED1
 62
   120
370
     5
100
AcDbLine
 10
-389.8962557620807
 20
481.5588344482056
 30
0.0
 11
-351.8962557620769
 21
519.5588344482103
 31
0.0
  0
LINE
  5
104
330
1F
100
AcDbEntity
  8
0-0
  6
JWW_DASHED1
 62
   120
370
     5
100
AcDbLine
 10
-389.8962557620807
 20
491.4583293834241
 30
0.0
 11
-351.8962557620837
 21
529.4583293834185
 31
0.0
  0
LINE
  5
105
330
1F
100
AcDbEntity
  8
0-0
  6
JWW_DASHED1
 62
   120
370
     5
100
AcDbLine
 10
-389.8962557620807
 20
501.3578243186366
 30
0.0
 11
-351.8962557620769
 21
539.3578243186416
 31
0.0
  0
LINE
  5
106
330
1F
100
AcDbEntity
  8
0-0
  6
JWW_DASHED1
 62
   120
370
     5
100
AcDbLine
 10
-389.8962557620807
 20
511.2573192537984
 30
0.0
 11
-351.8962557620735
 21
549.2573192538073
 31
0.0
  0
LINE
  5
107
330
1F
100
AcDbEntity
  8
0-0
  6
JWW_DASHED1
 62
   120
370
     5
100
AcDbLine
 10
-389.8962557620807
 20
521.1568141890182
 30
0.0
 11
-351.8962557620803
 21
559.1568141890151
 31
0.0
  0
LINE
  5
108
330
1F
100
AcDbEntity
  8
0-0
  6
JWW_DASHED1
 62
   120
370
     5
100
AcDbLine
 10
-389.8962557620807
 20
531.0563091242366
 30
0.0
 11
-351.8962557620735
 21
569.0563091242392
 31
0.0
  0
LINE
  5
109
330
1F
100
AcDbEntity
  8
0-0
  6
JWW_DASHED1
 62
   120
370
     5
100
AcDbLine
 10
-389.8962557620807
 20
540.9558040593886
 30
0.0
 11
-351.8962557620735
 21
578.9558040594039
 31
0.0
  0
LINE
  5
10A
330
1F
100
AcDbEntity
  8
0-0
  6
JWW_DASHED1
 62
   120
370
     5
100
AcDbLine
 10
-389.8962557620807
 20
550.8552989946079
 30
0.0
 11
-351.8962557620803
 21
588.8552989946122
 31
0.0
  0
LINE
  5
10B
330
1F
100
AcDbEntity
  8
0-0
  6
JWW_DASHED1
 62
   120
370
     5
100
AcDbLine
 10
-389.8962557620807
 20
560.7547939298273
 30
0.0
 11
-351.8962557620735
 21
598.7547939298362
 31
0.0
  0
LINE
  5
10C
330
1F
100
AcDbEntity
  8
0-0
  6
JWW_DASHED1
 62
   120
370
     5
100
AcDbLine
 10
-389.8962557620807
 20
570.654288864986
 30
0.0
 11
-351.89625576207
 21
608.6542888649989
 31
0.0
  0
LINE
  5
10D
330
1F
100
AcDbEntity
  8
0-0
  6
JWW_DASHED1
 62
   120
370
     5
100
AcDbLine
 10
-389.8962557620807
 20
580.553783800208
 30
0.0
 11
-351.8962557620769
 21
618.5537838002087
 31
0.0
  0
LINE
  5
10E
330
1F
100
AcDbEntity
  8
0-0
  6
JWW_DASHED1
 62
   120
370
     5
100
AcDbLine
 10
-389.8962557620807
 20
590.4532787354201
 30
0.0
 11
-351.8962557620871
 21
628.453278735417
 31
0.0
  0
LINE
  5
10F
330
1F
100
AcDbEntity
  8
0-0
  6
JWW_DASHED1
 62
   120
370
     5
100
AcDbLine
 10
-389.8962557620807
 20
600.3527736705873
 30
0.0
 11
-351.8962557620803
 21
638.3527736705822
 31
0.0
  0
LINE
  5
110
330
1F
100
AcDbEntity
  8
0-0
  6
JWW_DASHED1
 62
   120
370
     5
100
AcDbLine
 10
-389.8962557620807
 20
610.2522686058021
 30
0.0
 11
-351.8962557620735
 21
648.2522686058059
 31
0.0
  0
LINE
  5
111
330
1F
100
AcDbEntity
  8
0-0
  6
JWW_DASHED1
 62
   120
370
     5
100
AcDbLine
 10
-389.8962557620807
 20
620.1517635410132
 30
0.0
 11
-351.8962557620837
 21
658.1517635410141
 31
0.0
  0
LINE
  5
112
330
1F
100
AcDbEntity
  8
0-0
  6
JWW_DASHED1
 62
   120
370
     5
100
AcDbLine
 10
-389.8962557620807
 20
630.0512584761776
 30
0.0
 11
-351.8962557620803
 21
668.0512584761784
 31
0.0
  0
LINE
  5
113
330
1F
100
AcDbEntity
  8
0-0
  6
JWW_DASHED1
 62
   120
370
     5
100
AcDbLine
 10
-389.8962557620807
 20
639.9507534113914
 30
0.0
 11
-351.8962557620735
 21
677.950753411403
 31
0.0
  0
LINE
  5
114
330
1F
100
AcDbEntity
  8
0-0
  6
JWW_DASHED1
 62
   120
370
     5
100
AcDbLine
 10
-389.8962557620807
 20
649.8502483466091
 30
0.0
 11
-351.8962557620803
 21
687.8502483466111
 31
0.0
  0
LINE
  5
115
330
1F
100
AcDbEntity
  8
0-0
  6
JWW_DASHED1
 62
   120
370
     5
100
AcDbLine
 10
-389.8962557620807
 20
659.7497432817713
 30
0.0
 11
-351.8962557620769
 21
697.7497432817759
 31
0.0
  0
LINE
  5
116
330
1F
100
AcDbEntity
  8
0-0
  6
JWW_DASHED1
 62
   120
370
     5
100
AcDbLine
 10
-389.8962557620807
 20
669.6492382169923
 30
0.0
 11
-351.89625576207
 21
707.649238216999
 31
0.0
  0
LINE
  5
117
330
1F
100
AcDbEntity
  8
0-0
  6
JWW_DASHED1
 62
   120
370
     5
100
AcDbLine
 10
-389.8962557620807
 20
679.5487331521992
 30
0.0
 11
-351.8962557620803
 21
717.5487331522078
 31
0.0
  0
LINE
  5
118
330
1F
100
AcDbEntity
  8
0-0
  6
JWW_DASHED1
 62
   120
370
     5
100
AcDbLine
 10
-389.8962557620807
 20
689.4482280873708
 30
0.0
 11
-351.8962557620735
 21
727.448228087373
 31
0.0
  0
LINE
  5
119
330
1F
100
AcDbEntity
  8
0-0
  6
JWW_DASHED1
 62
   120
370
     5
100
AcDbLine
 10
-389.8962557620807
 20
699.3477230225872
 30
0.0
 11
-351.8962557620837
 21
737.3477230225799
 31
0.0
  0
LINE
  5
11A
330
1F
100
AcDbEntity
  8
0-0
  6
JWW_DASHED1
 62
   120
370
     5
100
AcDbLine
 10
-389.8962557620807
 20
709.2472179578035
 30
0.0
 11
-351.8962557620735
 21
747.2472179578049
 31
0.0
  0
LINE
  5
11B
330
1F
100
AcDbEntity
  8
0-0
  6
JWW_DASHED1
 62
   120
370
     5
100
AcDbLine
 10
-389.8962557620807
 20
719.1467128929615
 30
0.0
 11
-351.8962557620735
 21
757.1467128929696
 31
0.0
  0
LINE
  5
11C
330
1F
100
AcDbEntity
  8
0-0
  6
JWW_DASHED1
 62
   120
370
     5
100
AcDbLine
 10
-389.8962557620807
 20
729.0462078281809
 30
0.0
 11
-351.8962557620803
 21
767.0462078281778
 31
0.0
  0
LINE
  5
11D
330
1F
100
AcDbEntity
  8
0-0
  6
JWW_DASHED1
 62
   120
370
     5
100
AcDbLine
 10
-389.8962557620807
 20
738.9457027633933
 30
0.0
 11
-351.8962557620735
 21
776.9457027634014
 31
0.0
  0
LINE
  5
11E
330
1F
100
AcDbEntity
  8
0-0
  6
JWW_DASHED1
 62
   120
370
     5
100
AcDbLine
 10
-389.8962557620807
 20
748.845197698553
 30
0.0
 11
-351.8962557620871
 21
786.8451976985509
 31
0.0
  0
LINE
  5
11F
330
1F
100
AcDbEntity
  8
0-0
  6
JWW_DASHED1
 62
   120
370
     5
100
AcDbLine
 10
-389.8962557620807
 20
758.7446926337693
 30
0.0
 11
-351.8962557620803
 21
796.7446926337749
 31
0.0
  0
LINE
  5
120
330
1F
100
AcDbEntity
  8
0-0
  6
JWW_DASHED1
 62
   120
370
     5
100
AcDbLine
 10
-389.8962557620807
 20
768.644187568987
 30
0.0
 11
-351.89625576207
 21
806.6441875689985
 31
0.0
  0
LINE
  5
121
330
1F
100
AcDbEntity
  8
0-0
  6
JWW_DASHED1
 62
   120
370
     5
100
AcDbLine
 10
-389.8962557620807
 20
778.5436825041539
 30
0.0
 11
-351.8962557620837
 21
816.543682504147
 31
0.0
  0
LINE
  5
122
330
1F
100
AcDbEntity
  8
0-0
  6
JWW_DASHED1
 62
   120
370
     5
100
AcDbLine
 10
-389.8962557620807
 20
788.4431774393638
 30
0.0
 11
-351.8962557620769
 21
826.4431774393715
 31
0.0
  0
LINE
  5
123
330
1F
100
AcDbEntity
  8
0-0
  6
JWW_DASHED1
 62
   120
370
     5
100
AcDbLine
 10
-389.8962557620807
 20
798.3426723745866
 30
0.0
 11
-351.8962557620666
 21
836.3426723745952
 31
0.0
  0
LINE
  5
124
330
1F
100
AcDbEntity
  8
0-0
  6
JWW_DASHED1
 62
   120
370
     5
100
AcDbLine
 10
-389.8962557620807
 20
808.2421673097506
 30
0.0
 11
-351.8962557620803
 21
846.2421673097446
 31
0.0
  0
LINE
  5
125
330
1F
100
AcDbEntity
  8
0-0
  6
JWW_DASHED1
 62
   120
370
     5
100
AcDbLine
 10
-389.8962557620807
 20
818.141662244958
 30
0.0
 11
-351.8962557620735
 21
856.1416622449685
 31
0.0
  0
LINE
  5
126
330
1F
100
AcDbEntity
  8
0-0
  6
JWW_DASHED1
 62
   120
370
     5
100
AcDbLine
 10
-389.8962557620807
 20
828.0411571801815
 30
0.0
 11
-351.8962557620803
 21
866.0411571801764
 31
0.0
  0
LINE
  5
127
330
1F
100
AcDbEntity
  8
0-0
  6
JWW_DASHED1
 62
   120
370
     5
100
AcDbLine
 10
-389.8962557620807
 20
847.8401470505622
 30
0.0
 11
-351.8962557620803
 21
885.8401470505511
 31
0.0
  0
LINE
  5
128
330
1F
100
AcDbEntity
  8
0-0
  6
JWW_DASHED1
 62
   120
370
     5
100
AcDbLine
 10
-389.8962557620807
 20
837.9406521153433
 30
0.0
 11
-351.8962557620803
 21
875.9406521153373
 31
0.0
  0
LINE
  5
129
330
1F
100
AcDbEntity
  8
0-0
  6
JWW_DASHED1
 62
   120
370
     5
100
AcDbLine
 10
-389.8962557620807
 20
-993.4659108961982
 30
0.0
 11
-351.8962557620837
 21
-955.4659108961984
 31
0.0
  0
LINE
  5
12A
330
1F
100
AcDbEntity
  8
0-0
  6
JWW_DASHED1
 62
   120
370
     5
100
AcDbLine
 10
-389.8962557620807
 20
-1003.365405831363
 30
0.0
 11
-351.8962557620837
 21
-965.3654058313631
 31
0.0
  0
LINE
  5
12B
330
1F
100
AcDbEntity
  8
0-0
  6
JWW_DASHED1
 62
   120
370
     5
100
AcDbLine
 10
-389.8962557620807
 20
-1013.264900766528
 30
0.0
 11
-351.8962557620837
 21
-975.2649007665278
 31
0.0
  0
LINE
  5
12C
330
1F
100
AcDbEntity
  8
0-0
  6
JWW_DASHED1
 62
   120
370
     5
100
AcDbLine
 10
-387.0955751828354
 20
-1020.363715122447
 30
0.0
 11
-351.8962557620837
 21
-985.1643957016926
 31
0.0
  0
LINE
  5
12D
330
1F
100
AcDbEntity
  8
0-0
  6
JWW_DASHED1
 62
   120
370
     5
100
AcDbLine
 10
-357.3970903773433
 20
-1020.363715122447
 30
0.0
 11
-351.8962557620837
 21
-1014.862880507187
 31
0.0
  0
LINE
  5
12E
330
1F
100
AcDbEntity
  8
0-0
  6
JWW_DASHED1
 62
   120
370
     5
100
AcDbLine
 10
-377.1960802476711
 20
-1020.363715122447
 30
0.0
 11
-351.8962557620837
 21
-995.0638906368574
 31
0.0
  0
LINE
  5
12F
330
1F
100
AcDbEntity
  8
0-0
  6
JWW_DASHED1
 62
   120
370
     5
100
AcDbLine
 10
-367.2965853125067
 20
-1020.363715122447
 30
0.0
 11
-351.8962557620837
 21
-1004.963385572022
 31
0.0
  0
LINE
  5
130
330
1F
100
AcDbEntity
  8
0-0
  6
JWW_DASHED1
 62
   120
370
     5
100
AcDbLine
 10
-389.8962557620807
 20
857.7396419857807
 30
0.0
 11
-351.8962557620803
 21
895.7396419857696
 31
0.0
  0
LINE
  5
131
330
1F
100
AcDbEntity
  8
0-0
  6
JWW_DASHED1
 62
   120
370
     5
100
AcDbLine
 10
-389.8962557620807
 20
867.6391369209991
 30
0.0
 11
-351.8962557620803
 21
905.6391369209881
 31
0.0
  0
LINE
  5
132
330
1F
100
AcDbEntity
  8
0-0
  6
JWW_DASHED1
 62
   120
370
     5
100
AcDbLine
 10
-389.8962557620807
 20
877.5386318562176
 30
0.0
 11
-351.8962557620803
 21
915.5386318562066
 31
0.0
  0
LINE
  5
133
330
1F
100
AcDbEntity
  8
0-0
  6
JWW_DASHED1
 62
   120
370
     5
100
AcDbLine
 10
-389.8962557620807
 20
887.4381267914357
 30
0.0
 11
-351.8962557620803
 21
925.438126791425
 31
0.0
  0
LINE
  5
134
330
1F
100
AcDbEntity
  8
0-0
  6
JWW_DASHED1
 62
   120
370
     5
100
AcDbLine
 10
-389.8962557620807
 20
897.3376217266547
 30
0.0
 11
-351.8962557620803
 21
935.3376217266435
 31
0.0
  0
LINE
  5
135
330
1F
100
AcDbEntity
  8
0-0
  6
Continuous
 62
    92
370
    13
100
AcDbLine
 10
-389.8962557620807
 20
1154.636284877555
 30
0.0
 11
-389.8962557620807
 21
-1028.363715122446
 31
0.0
  0
LINE
  5
136
330
1F
100
AcDbEntity
  8
0-0
  6
Continuous
 62
    92
370
    13
100
AcDbLine
 10
-351.8962557620803
 20
1154.636284877555
 30
0.0
 11
-351.8962557620803
 21
-1028.363715122447
 31
0.0
  0
LINE
  5
137
330
1F
100
AcDbEntity
  8
0-0
  6
Continuous
 62
     7
370
     9
100
AcDbLine
 10
-389.8962557620807
 20
1146.636284877556
 30
0.0
 11
-351.8962557620803
 21
1146.636284877556
 31
0.0
  0
LINE
  5
138
330
1F
100
AcDbEntity
  8
0-0
  6
JWW_DASHED1
 62
   120
370
     5
100
AcDbLine
 10
-389.8962557620807
 20
907.2371166618732
 30
0.0
 11
-351.8962557620803
 21
945.237116661862
 31
0.0
  0
LINE
  5
139
330
1F
100
AcDbEntity
  8
0-0
  6
JWW_DASHED1
 62
   120
370
     5
100
AcDbLine
 10
-389.8962557620807
 20
936.9356014675286
 30
0.0
 11
-351.8962557620803
 21
974.9356014675175
 31
0.0
  0
LINE
  5
13A
330
1F
100
AcDbEntity
  8
0-0
  6
JWW_DASHED1
 62
   120
370
     5
100
AcDbLine
 10
-389.8962557620807
 20
917.1366115970916
 30
0.0
 11
-351.8962557620803
 21
955.1366115970804
 31
0.0
  0
LINE
  5
13B
330
1F
100
AcDbEntity
  8
0-0
  6
JWW_DASHED1
 62
   120
370
     5
100
AcDbLine
 10
-389.8962557620807
 20
927.0361065323101
 30
0.0
 11
-351.8962557620803
 21
965.036106532299
 31
0.0
  0
LINE
  5
13C
330
1F
100
AcDbEntity
  8
0-0
  6
JWW_DASHED1
 62
   120
370
     5
100
AcDbLine
 10
-389.8962557620807
 20
956.7345913379655
 30
0.0
 11
-351.8962557620803
 21
994.7345913379545
 31
0.0
  0
LINE
  5
13D
330
1F
100
AcDbEntity
  8
0-0
  6
JWW_DASHED1
 62
   120
370
     5
100
AcDbLine
 10
-389.8962557620807
 20
946.835096402747
 30
0.0
 11
-351.8962557620803
 21
984.835096402736
 31
0.0
  0
LINE
  5
13E
330
1F
100
AcDbEntity
  8
0-0
  6
JWW_DASHED1
 62
   120
370
     5
100
AcDbLine
 10
-389.8962557620807
 20
976.5335812084026
 30
0.0
 11
-351.8962557620803
 21
1014.533581208391
 31
0.0
  0
LINE
  5
13F
330
1F
100
AcDbEntity
  8
0-0
  6
JWW_DASHED1
 62
   120
370
     5
100
AcDbLine
 10
-389.8962557620807
 20
966.634086273184
 30
0.0
 11
-351.8962557620803
 21
1004.634086273173
 31
0.0
  0
LINE
  5
140
330
1F
100
AcDbEntity
  8
0-0
  6
JWW_DASHED1
 62
   120
370
     5
100
AcDbLine
 10
-389.8962557620807
 20
996.3325710788395
 30
0.0
 11
-351.8962557620803
 21
1034.332571078828
 31
0.0
  0
LINE
  5
141
330
1F
100
AcDbEntity
  8
0-0
  6
JWW_DASHED1
 62
   120
370
     5
100
AcDbLine
 10
-389.8962557620807
 20
986.4330761436211
 30
0.0
 11
-351.8962557620803
 21
1024.43307614361
 31
0.0
  0
LINE
  5
142
330
1F
100
AcDbEntity
  8
0-0
  6
JWW_DASHED1
 62
   120
370
     5
100
AcDbLine
 10
-389.8962557620807
 20
1016.131560949276
 30
0.0
 11
-351.8962557620803
 21
1054.131560949265
 31
0.0
  0
LINE
  5
143
330
1F
100
AcDbEntity
  8
0-0
  6
JWW_DASHED1
 62
   120
370
     5
100
AcDbLine
 10
-389.8962557620807
 20
1006.232066014058
 30
0.0
 11
-351.8962557620803
 21
1044.232066014046
 31
0.0
  0
LINE
  5
144
330
1F
100
AcDbEntity
  8
0-0
  6
JWW_DASHED1
 62
   120
370
     5
100
AcDbLine
 10
-389.8962557620807
 20
1035.930550819714
 30
0.0
 11
-351.8962557620803
 21
1073.930550819702
 31
0.0
  0
LINE
  5
145
330
1F
100
AcDbEntity
  8
0-0
  6
JWW_DASHED1
 62
   120
370
     5
100
AcDbLine
 10
-389.8962557620807
 20
1026.031055884495
 30
0.0
 11
-351.8962557620803
 21
1064.031055884484
 31
0.0
  0
LINE
  5
146
330
1F
100
AcDbEntity
  8
0-0
  6
JWW_DASHED1
 62
   120
370
     5
100
AcDbLine
 10
-389.8962557620807
 20
1055.72954069015
 30
0.0
 11
-351.8962557620803
 21
1093.729540690139
 31
0.0
  0
LINE
  5
147
330
1F
100
AcDbEntity
  8
0-0
  6
JWW_DASHED1
 62
   120
370
     5
100
AcDbLine
 10
-389.8962557620807
 20
1045.830045754932
 30
0.0
 11
-351.8962557620803
 21
1083.830045754921
 31
0.0
  0
LINE
  5
148
330
1F
100
AcDbEntity
  8
0-0
  6
JWW_DASHED1
 62
   120
370
     5
100
AcDbLine
 10
-389.8962557620807
 20
1075.528530560587
 30
0.0
 11
-351.8962557620803
 21
1113.528530560576
 31
0.0
  0
LINE
  5
149
330
1F
100
AcDbEntity
  8
0-0
  6
JWW_DASHED1
 62
   120
370
     5
100
AcDbLine
 10
-389.8962557620807
 20
1065.629035625369
 30
0.0
 11
-351.8962557620803
 21
1103.629035625358
 31
0.0
  0
LINE
  5
14A
330
1F
100
AcDbEntity
  8
0-0
  6
JWW_DASHED1
 62
   120
370
     5
100
AcDbLine
 10
-389.8962557620807
 20
1095.327520431024
 30
0.0
 11
-351.8962557620803
 21
1133.327520431013
 31
0.0
  0
LINE
  5
14B
330
1F
100
AcDbEntity
  8
0-0
  6
JWW_DASHED1
 62
   120
370
     5
100
AcDbLine
 10
-389.8962557620807
 20
1085.428025495806
 30
0.0
 11
-351.8962557620803
 21
1123.428025495795
 31
0.0
  0
LINE
  5
14C
330
1F
100
AcDbEntity
  8
0-0
  6
JWW_DASHED1
 62
   120
370
     5
100
AcDbLine
 10
-389.8962557620807
 20
1105.227015366243
 30
0.0
 11
-351.8962557620803
 21
1143.227015366232
 31
0.0
  0
LINE
  5
14D
330
1F
100
AcDbEntity
  8
0-0
  6
JWW_DASHED1
 62
   120
370
     5
100
AcDbLine
 10
-389.8962557620807
 20
1134.925500171898
 30
0.0
 11
-378.1854710564193
 21
1146.636284877556
 31
0.0
  0
LINE
  5
14E
330
1F
100
AcDbEntity
  8
0-0
  6
JWW_DASHED1
 62
   120
370
     5
100
AcDbLine
 10
-389.8962557620807
 20
1115.126510301461
 30
0.0
 11
-358.3864811859763
 21
1146.636284877556
 31
0.0
  0
LINE
  5
14F
330
1F
100
AcDbEntity
  8
0-0
  6
JWW_DASHED1
 62
   120
370
     5
100
AcDbLine
 10
-389.8962557620807
 20
1125.02600523668
 30
0.0
 11
-368.2859761211978
 21
1146.636284877556
 31
0.0
  0
LINE
  5
150
330
1F
100
AcDbEntity
  8
0-0
  6
Continuous
 62
     7
370
     9
100
AcDbLine
 10
390.1037442379193
 20
-1020.363715122447
 30
0.0
 11
428.1037442379197
 21
-1020.363715122447
 31
0.0
  0
LINE
  5
151
330
1F
100
AcDbEntity
  8
0-0
  6
JWW_DASHED1
 62
   120
370
     5
100
AcDbLine
 10
390.1037442379193
 20
-983.5664159610335
 30
0.0
 11
428.1037442379163
 21
-945.5664159610334
 31
0.0
  0
LINE
  5
152
330
1F
100
AcDbEntity
  8
0-0
  6
JWW_DASHED1
 62
   120
370
     5
100
AcDbLine
 10
390.1037442379193
 20
-973.6669210258717
 30
0.0
 11
428.1037442379197
 21
-935.6669210258688
 31
0.0
  0
LINE
  5
153
330
1F
100
AcDbEntity
  8
0-0
  6
JWW_DASHED1
 62
   120
370
     5
100
AcDbLine
 10
390.1037442379193
 20
-963.7674260906532
 30
0.0
 11
428.1037442379265
 21
-925.7674260906448
 31
0.0
  0
LINE
  5
154
330
1F
100
AcDbEntity
  8
0-0
  6
JWW_DASHED1
 62
   120
370
     5
100
AcDbLine
 10
390.1037442379193
 20
-953.8679311554409
 30
0.0
 11
428.1037442379197
 21
-915.8679311554365
 31
0.0
  0
LINE
  5
155
330
1F
100
AcDbEntity
  8
0-0
  6
JWW_DASHED1
 62
   120
370
     5
100
AcDbLine
 10
390.1037442379193
 20
-943.9684362202723
 30
0.0
 11
428.1037442379231
 21
-905.9684362202718
 31
0.0
  0
LINE
  5
156
330
1F
100
AcDbEntity
  8
0-0
  6
JWW_DASHED1
 62
   120
370
     5
100
AcDbLine
 10
390.1037442379193
 20
-934.0689412850584
 30
0.0
 11
428.1037442379129
 21
-896.0689412850635
 31
0.0
  0
LINE
  5
157
330
1F
100
AcDbEntity
  8
0-0
  6
JWW_DASHED1
 62
   120
370
     5
100
AcDbLine
 10
390.1037442379193
 20
-924.1694463498399
 30
0.0
 11
428.1037442379231
 21
-886.1694463498396
 31
0.0
  0
LINE
  5
158
330
1F
100
AcDbEntity
  8
0-0
  6
JWW_DASHED1
 62
   120
370
     5
100
AcDbLine
 10
390.1037442379193
 20
-914.2699514146786
 30
0.0
 11
428.1037442379265
 21
-876.2699514146747
 31
0.0
  0
LINE
  5
159
330
1F
100
AcDbEntity
  8
0-0
  6
JWW_DASHED1
 62
   120
370
     5
100
AcDbLine
 10
390.1037442379193
 20
-904.3704564794649
 30
0.0
 11
428.1037442379163
 21
-866.3704564794666
 31
0.0
  0
LINE
  5
15A
330
1F
100
AcDbEntity
  8
0-0
  6
JWW_DASHED1
 62
   120
370
     5
100
AcDbLine
 10
390.1037442379193
 20
-894.4709615442475
 30
0.0
 11
428.1037442379265
 21
-856.4709615442426
 31
0.0
  0
LINE
  5
15B
330
1F
100
AcDbEntity
  8
0-0
  6
JWW_DASHED1
 62
   120
370
     5
100
AcDbLine
 10
390.1037442379193
 20
-884.5714666090848
 30
0.0
 11
428.1037442379129
 21
-846.5714666090936
 31
0.0
  0
LINE
  5
15C
330
1F
100
AcDbEntity
  8
0-0
  6
JWW_DASHED1
 62
   120
370
     5
100
AcDbLine
 10
390.1037442379193
 20
-874.6719716738712
 30
0.0
 11
428.1037442379197
 21
-836.6719716738701
 31
0.0
  0
LINE
  5
15D
330
1F
100
AcDbEntity
  8
0-0
  6
JWW_DASHED1
 62
   120
370
     5
100
AcDbLine
 10
390.1037442379193
 20
-864.7724767386572
 30
0.0
 11
428.1037442379265
 21
-826.772476738646
 31
0.0
  0
LINE
  5
15E
330
1F
100
AcDbEntity
  8
0-0
  6
JWW_DASHED1
 62
   120
370
     5
100
AcDbLine
 10
390.1037442379193
 20
-854.872981803494
 30
0.0
 11
428.1037442379129
 21
-816.8729818034968
 31
0.0
  0
LINE
  5
15F
330
1F
100
AcDbEntity
  8
0-0
  6
JWW_DASHED1
 62
   120
370
     5
100
AcDbLine
 10
390.1037442379193
 20
-844.9734868682817
 30
0.0
 11
428.1037442379197
 21
-806.9734868682727
 31
0.0
  0
LINE
  5
160
330
1F
100
AcDbEntity
  8
0-0
  6
JWW_DASHED1
 62
   120
370
     5
100
AcDbLine
 10
390.1037442379193
 20
-835.0739919331086
 30
0.0
 11
428.1037442379265
 21
-797.0739919331082
 31
0.0
  0
LINE
  5
161
330
1F
100
AcDbEntity
  8
0-0
  6
JWW_DASHED1
 62
   120
370
     5
100
AcDbLine
 10
390.1037442379193
 20
-825.1744969978936
 30
0.0
 11
428.1037442379163
 21
-787.1744969978997
 31
0.0
  0
LINE
  5
162
330
1F
100
AcDbEntity
  8
0-0
  6
JWW_DASHED1
 62
   120
370
     5
100
AcDbLine
 10
390.1037442379193
 20
-815.2750020626812
 30
0.0
 11
428.1037442379231
 21
-777.275002062676
 31
0.0
  0
LINE
  5
163
330
1F
100
AcDbEntity
  8
0-0
  6
JWW_DASHED1
 62
   120
370
     5
100
AcDbLine
 10
390.1037442379193
 20
-805.3755071275194
 30
0.0
 11
428.1037442379265
 21
-767.3755071275109
 31
0.0
  0
LINE
  5
164
330
1F
100
AcDbEntity
  8
0-0
  6
JWW_DASHED1
 62
   120
370
     5
100
AcDbLine
 10
390.1037442379193
 20
-795.4760121922994
 30
0.0
 11
428.1037442379197
 21
-757.4760121923031
 31
0.0
  0
LINE
  5
165
330
1F
100
AcDbEntity
  8
0-0
  6
JWW_DASHED1
 62
   120
370
     5
100
AcDbLine
 10
390.1037442379193
 20
-785.5765172570879
 30
0.0
 11
428.1037442379265
 21
-747.5765172570791
 31
0.0
  0
LINE
  5
166
330
1F
100
AcDbEntity
  8
0-0
  6
JWW_DASHED1
 62
   120
370
     5
100
AcDbLine
 10
390.1037442379193
 20
-775.6770223219247
 30
0.0
 11
428.1037442379129
 21
-737.6770223219298
 31
0.0
  0
LINE
  5
167
330
1F
100
AcDbEntity
  8
0-0
  6
JWW_DASHED1
 62
   120
370
     5
100
AcDbLine
 10
390.1037442379193
 20
-765.7775273867105
 30
0.0
 11
428.1037442379197
 21
-727.7775273867061
 31
0.0
  0
LINE
  5
168
330
1F
100
AcDbEntity
  8
0-0
  6
JWW_DASHED1
 62
   120
370
     5
100
AcDbLine
 10
390.1037442379193
 20
-755.8780324514952
 30
0.0
 11
428.1037442379129
 21
-717.878032451498
 31
0.0
  0
LINE
  5
169
330
1F
100
AcDbEntity
  8
0-0
  6
JWW_DASHED1
 62
   120
370
     5
100
AcDbLine
 10
390.1037442379193
 20
-745.9785375163314
 30
0.0
 11
428.1037442379163
 21
-707.9785375163331
 31
0.0
  0
LINE
  5
16A
330
1F
100
AcDbEntity
  8
0-0
  6
JWW_DASHED1
 62
   120
370
     5
100
AcDbLine
 10
390.1037442379193
 20
-736.0790425811167
 30
0.0
 11
428.1037442379231
 21
-698.0790425811092
 31
0.0
  0
LINE
  5
16B
330
1F
100
AcDbEntity
  8
0-0
  6
JWW_DASHED1
 62
   120
370
     5
100
AcDbLine
 10
390.1037442379193
 20
-726.1795476458997
 30
0.0
 11
428.1037442379163
 21
-688.179547645901
 31
0.0
  0
LINE
  5
16C
330
1F
100
AcDbEntity
  8
0-0
  6
JWW_DASHED1
 62
   120
370
     5
100
AcDbLine
 10
390.1037442379193
 20
-716.2800527107302
 30
0.0
 11
428.1037442379197
 21
-678.2800527107362
 31
0.0
  0
LINE
  5
16D
330
1F
100
AcDbEntity
  8
0-0
  6
JWW_DASHED1
 62
   120
370
     5
100
AcDbLine
 10
390.1037442379193
 20
-706.3805577755235
 30
0.0
 11
428.1037442379265
 21
-668.3805577755122
 31
0.0
  0
LINE
  5
16E
330
1F
100
AcDbEntity
  8
0-0
  6
JWW_DASHED1
 62
   120
370
     5
100
AcDbLine
 10
390.1037442379193
 20
-696.4810628402988
 30
0.0
 11
428.1037442379197
 21
-658.4810628403042
 31
0.0
  0
LINE
  5
16F
330
1F
100
AcDbEntity
  8
0-0
  6
JWW_DASHED1
 62
   120
370
     5
100
AcDbLine
 10
390.1037442379193
 20
-686.5815679051409
 30
0.0
 11
428.1037442379197
 21
-648.5815679051392
 31
0.0
  0
LINE
  5
170
330
1F
100
AcDbEntity
  8
0-0
  6
JWW_DASHED1
 62
   120
370
     5
100
AcDbLine
 10
390.1037442379193
 20
-676.6820729699266
 30
0.0
 11
428.1037442379265
 21
-638.6820729699153
 31
0.0
  0
LINE
  5
171
330
1F
100
AcDbEntity
  8
0-0
  6
JWW_DASHED1
 62
   120
370
     5
100
AcDbLine
 10
390.1037442379193
 20
-666.7825780347088
 30
0.0
 11
428.1037442379197
 21
-628.7825780347071
 31
0.0
  0
LINE
  5
172
330
1F
100
AcDbEntity
  8
0-0
  6
JWW_DASHED1
 62
   120
370
     5
100
AcDbLine
 10
390.1037442379193
 20
-656.8830830995474
 30
0.0
 11
428.1037442379231
 21
-618.8830830995423
 31
0.0
  0
LINE
  5
173
330
1F
100
AcDbEntity
  8
0-0
  6
JWW_DASHED1
 62
   120
370
     5
100
AcDbLine
 10
390.1037442379193
 20
-646.9835881643281
 30
0.0
 11
428.1037442379163
 21
-608.9835881643343
 31
0.0
  0
LINE
  5
174
330
1F
100
AcDbEntity
  8
0-0
  6
JWW_DASHED1
 62
   120
370
     5
100
AcDbLine
 10
390.1037442379193
 20
-637.0840932291153
 30
0.0
 11
428.1037442379231
 21
-599.0840932291103
 31
0.0
  0
LINE
  5
175
330
1F
100
AcDbEntity
  8
0-0
  6
JWW_DASHED1
 62
   120
370
     5
100
AcDbLine
 10
390.1037442379193
 20
-627.1845982939537
 30
0.0
 11
428.1037442379265
 21
-589.1845982939453
 31
0.0
  0
LINE
  5
176
330
1F
100
AcDbEntity
  8
0-0
  6
JWW_DASHED1
 62
   120
370
     5
100
AcDbLine
 10
390.1037442379193
 20
-617.2851033587344
 30
0.0
 11
428.1037442379197
 21
-579.2851033587373
 31
0.0
  0
LINE
  5
177
330
1F
100
AcDbEntity
  8
0-0
  6
JWW_DASHED1
 62
   120
370
     5
100
AcDbLine
 10
390.1037442379193
 20
-607.3856084235144
 30
0.0
 11
428.1037442379265
 21
-569.3856084235136
 31
0.0
  0
LINE
  5
178
330
1F
100
AcDbEntity
  8
0-0
  6
JWW_DASHED1
 62
   120
370
     5
100
AcDbLine
 10
390.1037442379193
 20
-597.4861134883619
 30
0.0
 11
428.1037442379129
 21
-559.4861134883643
 31
0.0
  0
LINE
  5
179
330
1F
100
AcDbEntity
  8
0-0
  6
JWW_DASHED1
 62
   120
370
     5
100
AcDbLine
 10
390.1037442379193
 20
-587.5866185531448
 30
0.0
 11
428.1037442379197
 21
-549.5866185531404
 31
0.0
  0
LINE
  5
17A
330
1F
100
AcDbEntity
  8
0-0
  6
JWW_DASHED1
 62
   120
370
     5
100
AcDbLine
 10
390.1037442379193
 20
-577.6871236179251
 30
0.0
 11
428.1037442379265
 21
-539.6871236179162
 31
0.0
  0
LINE
  5
17B
330
1F
100
AcDbEntity
  8
0-0
  6
JWW_DASHED1
 62
   120
370
     5
100
AcDbLine
 10
390.1037442379193
 20
-567.7876286827648
 30
0.0
 11
428.1037442379129
 21
-529.7876286827671
 31
0.0
  0
LINE
  5
17C
330
1F
100
AcDbEntity
  8
0-0
  6
JWW_DASHED1
 62
   120
370
     5
100
AcDbLine
 10
390.1037442379193
 20
-557.8881337475452
 30
0.0
 11
428.1037442379231
 21
-519.8881337475432
 31
0.0
  0
LINE
  5
17D
330
1F
100
AcDbEntity
  8
0-0
  6
JWW_DASHED1
 62
   120
370
     5
100
AcDbLine
 10
390.1037442379193
 20
-547.9886388123306
 30
0.0
 11
428.1037442379129
 21
-509.9886388123354
 31
0.0
  0
LINE
  5
17E
330
1F
100
AcDbEntity
  8
0-0
  6
JWW_DASHED1
 62
   120
370
     5
100
AcDbLine
 10
390.1037442379193
 20
-538.089143877165
 30
0.0
 11
428.1037442379197
 21
-500.0891438771702
 31
0.0
  0
LINE
  5
17F
330
1F
100
AcDbEntity
  8
0-0
  6
JWW_DASHED1
 62
   120
370
     5
100
AcDbLine
 10
390.1037442379193
 20
-528.1896489419507
 30
0.0
 11
428.1037442379265
 21
-490.189648941947
 31
0.0
  0
LINE
  5
180
330
1F
100
AcDbEntity
  8
0-0
  6
JWW_DASHED1
 62
   120
370
     5
100
AcDbLine
 10
390.1037442379193
 20
-518.2901540067365
 30
0.0
 11
428.1037442379163
 21
-480.2901540067387
 31
0.0
  0
LINE
  5
181
330
1F
100
AcDbEntity
  8
0-0
  6
JWW_DASHED1
 62
   120
370
     5
100
AcDbLine
 10
390.1037442379193
 20
-508.3906590715748
 30
0.0
 11
428.1037442379197
 21
-470.3906590715735
 31
0.0
  0
LINE
  5
182
330
1F
100
AcDbEntity
  8
0-0
  6
JWW_DASHED1
 62
   120
370
     5
100
AcDbLine
 10
390.1037442379193
 20
-498.4911641363555
 30
0.0
 11
428.1037442379129
 21
-460.4911641363652
 31
0.0
  0
LINE
  5
183
330
1F
100
AcDbEntity
  8
0-0
  6
JWW_DASHED1
 62
   120
370
     5
100
AcDbLine
 10
390.1037442379193
 20
-488.5916692011429
 30
0.0
 11
428.1037442379197
 21
-450.5916692011417
 31
0.0
  0
LINE
  5
184
330
1F
100
AcDbEntity
  8
0-0
  6
JWW_DASHED1
 62
   120
370
     5
100
AcDbLine
 10
390.1037442379193
 20
-478.6921742659807
 30
0.0
 11
428.1037442379231
 21
-440.6921742659769
 31
0.0
  0
LINE
  5
185
330
1F
100
AcDbEntity
  8
0-0
  6
JWW_DASHED1
 62
   120
370
     5
100
AcDbLine
 10
390.1037442379193
 20
-468.7926793307673
 30
0.0
 11
428.1037442379129
 21
-430.7926793307682
 31
0.0
  0
LINE
  5
186
330
1F
100
AcDbEntity
  8
0-0
  6
JWW_DASHED1
 62
   120
370
     5
100
AcDbLine
 10
390.1037442379193
 20
-458.8931843955467
 30
0.0
 11
428.1037442379197
 21
-420.8931843955446
 31
0.0
  0
LINE
  5
187
330
1F
100
AcDbEntity
  8
0-0
  6
JWW_DASHED1
 62
   120
370
     5
100
AcDbLine
 10
390.1037442379193
 20
-448.9936894603807
 30
0.0
 11
428.1037442379265
 21
-410.9936894603799
 31
0.0
  0
LINE
  5
188
330
1F
100
AcDbEntity
  8
0-0
  6
JWW_DASHED1
 62
   120
370
     5
100
AcDbLine
 10
390.1037442379193
 20
-439.0941945251656
 30
0.0
 11
428.1037442379163
 21
-401.094194525172
 31
0.0
  0
LINE
  5
189
330
1F
100
AcDbEntity
  8
0-0
  6
JWW_DASHED1
 62
   120
370
     5
100
AcDbLine
 10
390.1037442379193
 20
-429.1946995899526
 30
0.0
 11
428.1037442379231
 21
-391.194699589948
 31
0.0
  0
LINE
  5
18A
330
1F
100
AcDbEntity
  8
0-0
  6
JWW_DASHED1
 62
   120
370
     5
100
AcDbLine
 10
390.1037442379193
 20
-419.2952046547917
 30
0.0
 11
428.1037442379265
 21
-381.2952046547828
 31
0.0
  0
LINE
  5
18B
330
1F
100
AcDbEntity
  8
0-0
  6
JWW_DASHED1
 62
   120
370
     5
100
AcDbLine
 10
390.1037442379193
 20
-409.395709719572
 30
0.0
 11
428.1037442379197
 21
-371.3957097195749
 31
0.0
  0
LINE
  5
18C
330
1F
100
AcDbEntity
  8
0-0
  6
JWW_DASHED1
 62
   120
370
     5
100
AcDbLine
 10
390.1037442379193
 20
-399.4962147843598
 30
0.0
 11
428.1037442379265
 21
-361.496214784351
 31
0.0
  0
LINE
  5
18D
330
1F
100
AcDbEntity
  8
0-0
  6
JWW_DASHED1
 62
   120
370
     5
100
AcDbLine
 10
390.1037442379193
 20
-389.5967198491921
 30
0.0
 11
428.1037442379197
 21
-351.5967198491964
 31
0.0
  0
LINE
  5
18E
330
1F
100
AcDbEntity
  8
0-0
  6
JWW_DASHED1
 62
   120
370
     5
100
AcDbLine
 10
390.1037442379193
 20
-379.6972249139817
 30
0.0
 11
428.1037442379197
 21
-341.6972249139779
 31
0.0
  0
LINE
  5
18F
330
1F
100
AcDbEntity
  8
0-0
  6
JWW_DASHED1
 62
   120
370
     5
100
AcDbLine
 10
390.1037442379193
 20
-369.797729978768
 30
0.0
 11
428.1037442379129
 21
-331.7977299787697
 31
0.0
  0
LINE
  5
190
330
1F
100
AcDbEntity
  8
0-0
  6
JWW_DASHED1
 62
   120
370
     5
100
AcDbLine
 10
390.1037442379193
 20
-359.8982350436036
 30
0.0
 11
428.1037442379163
 21
-321.8982350436049
 31
0.0
  0
LINE
  5
191
330
1F
100
AcDbEntity
  8
0-0
  6
JWW_DASHED1
 62
   120
370
     5
100
AcDbLine
 10
390.1037442379193
 20
-349.9987401083813
 30
0.0
 11
428.1037442379231
 21
-311.9987401083808
 31
0.0
  0
LINE
  5
192
330
1F
100
AcDbEntity
  8
0-0
  6
JWW_DASHED1
 62
   120
370
     5
100
AcDbLine
 10
390.1037442379193
 20
-340.0992451731667
 30
0.0
 11
428.1037442379163
 21
-302.099245173173
 31
0.0
  0
LINE
  5
193
330
1F
100
AcDbEntity
  8
0-0
  6
JWW_DASHED1
 62
   120
370
     5
100
AcDbLine
 10
390.1037442379193
 20
-330.1997502380027
 30
0.0
 11
428.1037442379197
 21
-292.1997502380078
 31
0.0
  0
LINE
  5
194
330
1F
100
AcDbEntity
  8
0-0
  6
JWW_DASHED1
 62
   120
370
     5
100
AcDbLine
 10
390.1037442379193
 20
-320.3002553027944
 30
0.0
 11
428.1037442379265
 21
-282.3002553027839
 31
0.0
  0
LINE
  5
195
330
1F
100
AcDbEntity
  8
0-0
  6
JWW_DASHED1
 62
   120
370
     5
100
AcDbLine
 10
390.1037442379193
 20
-310.4007603675709
 30
0.0
 11
428.1037442379197
 21
-272.400760367576
 31
0.0
  0
LINE
  5
196
330
1F
100
AcDbEntity
  8
0-0
  6
JWW_DASHED1
 62
   120
370
     5
100
AcDbLine
 10
390.1037442379193
 20
-300.5012654324129
 30
0.0
 11
428.1037442379197
 21
-262.5012654324108
 31
0.0
  0
LINE
  5
197
330
1F
100
AcDbEntity
  8
0-0
  6
JWW_DASHED1
 62
   120
370
     5
100
AcDbLine
 10
390.1037442379193
 20
-290.6017704971995
 30
0.0
 11
428.1037442379265
 21
-252.6017704971868
 31
0.0
  0
LINE
  5
198
330
1F
100
AcDbEntity
  8
0-0
  6
JWW_DASHED1
 62
   120
370
     5
100
AcDbLine
 10
390.1037442379193
 20
-280.7022755619811
 30
0.0
 11
428.1037442379197
 21
-242.702275561979
 31
0.0
  0
LINE
  5
199
330
1F
100
AcDbEntity
  8
0-0
  6
JWW_DASHED1
 62
   120
370
     5
100
AcDbLine
 10
390.1037442379193
 20
-270.8027806268193
 30
0.0
 11
428.1037442379231
 21
-232.8027806268138
 31
0.0
  0
LINE
  5
19A
330
1F
100
AcDbEntity
  8
0-0
  6
JWW_DASHED1
 62
   120
370
     5
100
AcDbLine
 10
390.1037442379193
 20
-260.9032856915995
 30
0.0
 11
428.1037442379163
 21
-222.9032856916059
 31
0.0
  0
LINE
  5
19B
330
1F
100
AcDbEntity
  8
0-0
  6
JWW_DASHED1
 62
   120
370
     5
100
AcDbLine
 10
390.1037442379193
 20
-251.0037907564156
 30
0.0
 11
428.1037442379197
 21
-213.0037907564117
 31
0.0
  0
LINE
  5
19C
330
1F
100
AcDbEntity
  8
0-0
  6
JWW_DASHED1
 62
   120
370
     5
100
AcDbLine
 10
390.1037442379193
 20
-241.104295821218
 30
0.0
 11
428.1037442379265
 21
-203.1042958212171
 31
0.0
  0
LINE
  5
19D
330
1F
100
AcDbEntity
  8
0-0
  6
JWW_DASHED1
 62
   120
370
     5
100
AcDbLine
 10
390.1037442379193
 20
-231.204800886005
 30
0.0
 11
428.1037442379197
 21
-193.2048008860093
 31
0.0
  0
LINE
  5
19E
330
1F
100
AcDbEntity
  8
0-0
  6
JWW_DASHED1
 62
   120
370
     5
100
AcDbLine
 10
390.1037442379193
 20
-221.3053059508151
 30
0.0
 11
428.1037442379231
 21
-183.3053059508147
 31
0.0
  0
LINE
  5
19F
330
1F
100
AcDbEntity
  8
0-0
  6
JWW_DASHED1
 62
   120
370
     5
100
AcDbLine
 10
390.1037442379193
 20
-211.4058110156328
 30
0.0
 11
428.1037442379129
 21
-173.4058110156359
 31
0.0
  0
LINE
  5
1A0
330
1F
100
AcDbEntity
  8
0-0
  6
JWW_DASHED1
 62
   120
370
     5
100
AcDbLine
 10
390.1037442379193
 20
-201.5063160804178
 30
0.0
 11
428.1037442379197
 21
-163.5063160804118
 31
0.0
  0
LINE
  5
1A1
330
1F
100
AcDbEntity
  8
0-0
  6
JWW_DASHED1
 62
   120
370
     5
100
AcDbLine
 10
390.1037442379193
 20
-191.6068211452479
 30
0.0
 11
428.1037442379231
 21
-153.6068211452475
 31
0.0
  0
LINE
  5
1A2
330
1F
100
AcDbEntity
  8
0-0
  6
JWW_DASHED1
 62
   120
370
     5
100
AcDbLine
 10
390.1037442379193
 20
-181.7073262100379
 30
0.0
 11
428.1037442379129
 21
-143.7073262100388
 31
0.0
  0
LINE
  5
1A3
330
1F
100
AcDbEntity
  8
0-0
  6
JWW_DASHED1
 62
   120
370
     5
100
AcDbLine
 10
390.1037442379193
 20
-171.807831274816
 30
0.0
 11
428.1037442379231
 21
-133.8078312748156
 31
0.0
  0
LINE
  5
1A4
330
1F
100
AcDbEntity
  8
0-0
  6
JWW_DASHED1
 62
   120
370
     5
100
AcDbLine
 10
390.1037442379193
 20
-161.9083363396543
 30
0.0
 11
428.1037442379265
 21
-123.9083363396504
 31
0.0
  0
LINE
  5
1A5
330
1F
100
AcDbEntity
  8
0-0
  6
JWW_DASHED1
 62
   120
370
     5
100
AcDbLine
 10
390.1037442379193
 20
-152.0088414044396
 30
0.0
 11
428.1037442379163
 21
-114.0088414044426
 31
0.0
  0
LINE
  5
1A6
330
1F
100
AcDbEntity
  8
0-0
  6
JWW_DASHED1
 62
   120
370
     5
100
AcDbLine
 10
390.1037442379193
 20
-142.1093464692224
 30
0.0
 11
428.1037442379265
 21
-104.1093464692186
 31
0.0
  0
LINE
  5
1A7
330
1F
100
AcDbEntity
  8
0-0
  6
JWW_DASHED1
 62
   120
370
     5
100
AcDbLine
 10
390.1037442379193
 20
-132.209851534064
 30
0.0
 11
428.1037442379265
 21
-94.2098515340534
 31
0.0
  0
LINE
  5
1A8
330
1F
100
AcDbEntity
  8
0-0
  6
JWW_DASHED1
 62
   120
370
     5
100
AcDbLine
 10
390.1037442379193
 20
-122.310356598846
 30
0.0
 11
428.1037442379197
 21
-84.31035659884557
 31
0.0
  0
LINE
  5
1A9
330
1F
100
AcDbEntity
  8
0-0
  6
JWW_DASHED1
 62
   120
370
     5
100
AcDbLine
 10
390.1037442379193
 20
-112.4108616636322
 30
0.0
 11
428.1037442379265
 21
-74.41086166362155
 31
0.0
  0
LINE
  5
1AA
330
1F
100
AcDbEntity
  8
0-0
  6
JWW_DASHED1
 62
   120
370
     5
100
AcDbLine
 10
390.1037442379193
 20
-102.5113667284653
 30
0.0
 11
428.1037442379231
 21
-64.51136672846488
 31
0.0
  0
LINE
  5
1AB
330
1F
100
AcDbEntity
  8
0-0
  6
JWW_DASHED1
 62
   120
370
     5
100
AcDbLine
 10
390.1037442379193
 20
-92.61187179325404
 30
0.0
 11
428.1037442379231
 21
-54.61187179324853
 31
0.0
  0
LINE
  5
1AC
330
1F
100
AcDbEntity
  8
0-0
  6
JWW_DASHED1
 62
   120
370
     5
100
AcDbLine
 10
390.1037442379193
 20
-82.71237685803769
 30
0.0
 11
428.1037442379129
 21
-44.7123768580407
 31
0.0
  0
LINE
  5
1AD
330
1F
100
AcDbEntity
  8
0-0
  6
JWW_DASHED1
 62
   120
370
     5
100
AcDbLine
 10
390.1037442379193
 20
-72.81288192286908
 30
0.0
 11
428.1037442379163
 21
-34.8128819228755
 31
0.0
  0
LINE
  5
1AE
330
1F
100
AcDbEntity
  8
0-0
  6
JWW_DASHED1
 62
   120
370
     5
100
AcDbLine
 10
390.1037442379193
 20
-62.91338698765315
 30
0.0
 11
428.1037442379265
 21
-24.91338698765148
 31
0.0
  0
LINE
  5
1AF
330
1F
100
AcDbEntity
  8
0-0
  6
JWW_DASHED1
 62
   120
370
     5
100
AcDbLine
 10
390.1037442379193
 20
-53.01389205243723
 30
0.0
 11
428.1037442379163
 21
-15.01389205244365
 31
0.0
  0
LINE
  5
1B0
330
1F
100
AcDbEntity
  8
0-0
  6
JWW_DASHED1
 62
   120
370
     5
100
AcDbLine
 10
390.1037442379193
 20
-43.11439711728354
 30
0.0
 11
428.1037442379197
 21
-5.114397117278457
 31
0.0
  0
LINE
  5
1B1
330
1F
100
AcDbEntity
  8
0-0
  6
JWW_DASHED1
 62
   120
370
     5
100
AcDbLine
 10
390.1037442379193
 20
-33.21490218206293
 30
0.0
 11
428.1037442379265
 21
4.785097817945143
 31
0.0
  0
LINE
  5
1B2
330
1F
100
AcDbEntity
  8
0-0
  6
JWW_DASHED1
 62
   120
370
     5
100
AcDbLine
 10
390.1037442379193
 20
-23.31540724684359
 30
0.0
 11
428.1037442379197
 21
14.6845927531534
 31
0.0
  0
LINE
  5
1B3
330
1F
100
AcDbEntity
  8
0-0
  6
JWW_DASHED1
 62
   120
370
     5
100
AcDbLine
 10
390.1037442379193
 20
-13.41591231168564
 30
0.0
 11
428.1037442379197
 21
24.58408768831816
 31
0.0
  0
LINE
  5
1B4
330
1F
100
AcDbEntity
  8
0-0
  6
JWW_DASHED1
 62
   120
370
     5
100
AcDbLine
 10
390.1037442379193
 20
-3.516417376469292
 30
0.0
 11
428.10374423793
 21
34.48358262354219
 31
0.0
  0
LINE
  5
1B5
330
1F
100
AcDbEntity
  8
0-0
  6
JWW_DASHED1
 62
   120
370
     5
100
AcDbLine
 10
390.1037442379193
 20
6.383077558746635
 30
0.0
 11
428.1037442379197
 21
44.38307755875044
 31
0.0
  0
LINE
  5
1B6
330
1F
100
AcDbEntity
  8
0-0
  6
JWW_DASHED1
 62
   120
370
     5
100
AcDbLine
 10
390.1037442379193
 20
16.28257249390799
 30
0.0
 11
428.1037442379231
 21
54.28257249391521
 31
0.0
  0
LINE
  5
1B7
330
1F
100
AcDbEntity
  8
0-0
  6
JWW_DASHED1
 62
   120
370
     5
100
AcDbLine
 10
390.1037442379193
 20
26.18206742912477
 30
0.0
 11
428.1037442379163
 21
64.18206742912304
 31
0.0
  0
LINE
  5
1B8
330
1F
100
AcDbEntity
  8
0-0
  6
JWW_DASHED1
 62
   120
370
     5
100
AcDbLine
 10
390.1037442379193
 20
36.08156236434667
 30
0.0
 11
428.1037442379231
 21
74.08156236434706
 31
0.0
  0
LINE
  5
1B9
330
1F
100
AcDbEntity
  8
0-0
  6
JWW_DASHED1
 62
   120
370
     5
100
AcDbLine
 10
390.1037442379193
 20
45.98105729950035
 30
0.0
 11
428.1037442379265
 21
83.98105729951226
 31
0.0
  0
LINE
  5
1BA
330
1F
100
AcDbEntity
  8
0-0
  6
JWW_DASHED1
 62
   120
370
     5
100
AcDbLine
 10
390.1037442379193
 20
55.88055223472608
 30
0.0
 11
428.1037442379197
 21
93.88055223472008
 31
0.0
  0
LINE
  5
1BB
330
1F
100
AcDbEntity
  8
0-0
  6
JWW_DASHED1
 62
   120
370
     5
100
AcDbLine
 10
390.1037442379193
 20
65.78004716993945
 30
0.0
 11
428.1037442379265
 21
103.7800471699441
 31
0.0
  0
LINE
  5
1BC
330
1F
100
AcDbEntity
  8
0-0
  6
JWW_DASHED1
 62
   120
370
     5
100
AcDbLine
 10
390.1037442379193
 20
75.67954210509527
 30
0.0
 11
428.1037442379129
 21
113.6795421050935
 31
0.0
  0
LINE
  5
1BD
330
1F
100
AcDbEntity
  8
0-0
  6
JWW_DASHED1
 62
   120
370
     5
100
AcDbLine
 10
390.1037442379193
 20
85.57903704031588
 30
0.0
 11
428.1037442379197
 21
123.5790370403171
 31
0.0
  0
LINE
  5
1BE
330
1F
100
AcDbEntity
  8
0-0
  6
JWW_DASHED1
 62
   120
370
     5
100
AcDbLine
 10
390.1037442379193
 20
95.4785319755301
 30
0.0
 11
428.1037442379265
 21
133.4785319755407
 31
0.0
  0
LINE
  5
1BF
330
1F
100
AcDbEntity
  8
0-0
  6
JWW_DASHED1
 62
   120
370
     5
100
AcDbLine
 10
390.1037442379193
 20
105.3780269106961
 30
0.0
 11
428.1037442379163
 21
143.3780269106902
 31
0.0
  0
LINE
  5
1C0
330
1F
100
AcDbEntity
  8
0-0
  6
JWW_DASHED1
 62
   120
370
     5
100
AcDbLine
 10
390.1037442379193
 20
115.2775218459087
 30
0.0
 11
428.1037442379231
 21
153.2775218459142
 31
0.0
  0
LINE
  5
1C1
330
1F
100
AcDbEntity
  8
0-0
  6
JWW_DASHED1
 62
   120
370
     5
100
AcDbLine
 10
390.1037442379193
 20
125.1770167811272
 30
0.0
 11
428.1037442379265
 21
163.1770167811318
 31
0.0
  0
LINE
  5
1C2
330
1F
100
AcDbEntity
  8
0-0
  6
JWW_DASHED1
 62
   120
370
     5
100
AcDbLine
 10
390.1037442379193
 20
135.0765117162894
 30
0.0
 11
428.1037442379197
 21
173.0765117162872
 31
0.0
  0
LINE
  5
1C3
330
1F
100
AcDbEntity
  8
0-0
  6
JWW_DASHED1
 62
   120
370
     5
100
AcDbLine
 10
390.1037442379193
 20
144.97600665151
 30
0.0
 11
428.1037442379265
 21
182.9760066515108
 31
0.0
  0
LINE
  5
1C4
330
1F
100
AcDbEntity
  8
0-0
  6
JWW_DASHED1
 62
   120
370
     5
100
AcDbLine
 10
390.1037442379193
 20
154.8755015867174
 30
0.0
 11
428.1037442379163
 21
192.8755015867191
 31
0.0
  0
LINE
  5
1C5
330
1F
100
AcDbEntity
  8
0-0
  6
JWW_DASHED1
 62
   120
370
     5
100
AcDbLine
 10
390.1037442379193
 20
164.7749965218796
 30
0.0
 11
428.1037442379197
 21
202.7749965218838
 31
0.0
  0
LINE
  5
1C6
330
1F
100
AcDbEntity
  8
0-0
  6
JWW_DASHED1
 62
   120
370
     5
100
AcDbLine
 10
390.1037442379193
 20
174.6744914571019
 30
0.0
 11
428.1037442379129
 21
212.6744914570921
 31
0.0
  0
LINE
  5
1C7
330
1F
100
AcDbEntity
  8
0-0
  6
JWW_DASHED1
 62
   120
370
     5
100
AcDbLine
 10
390.1037442379193
 20
184.5739863923119
 30
0.0
 11
428.1037442379197
 21
222.5739863923157
 31
0.0
  0
LINE
  5
1C8
330
1F
100
AcDbEntity
  8
0-0
  6
JWW_DASHED1
 62
   120
370
     5
100
AcDbLine
 10
390.1037442379193
 20
194.4734813274805
 30
0.0
 11
428.1037442379231
 21
232.4734813274804
 31
0.0
  0
LINE
  5
1C9
330
1F
100
AcDbEntity
  8
0-0
  6
JWW_DASHED1
 62
   120
370
     5
100
AcDbLine
 10
390.1037442379193
 20
204.3729762626917
 30
0.0
 11
428.1037442379129
 21
242.3729762626887
 31
0.0
  0
LINE
  5
1CA
330
1F
100
AcDbEntity
  8
0-0
  6
JWW_DASHED1
 62
   120
370
     5
100
AcDbLine
 10
390.1037442379193
 20
214.2724711979123
 30
0.0
 11
428.1037442379231
 21
252.2724711979127
 31
0.0
  0
LINE
  5
1CB
330
1F
100
AcDbEntity
  8
0-0
  6
JWW_DASHED1
 62
   120
370
     5
100
AcDbLine
 10
390.1037442379193
 20
224.1719661330733
 30
0.0
 11
428.1037442379265
 21
262.1719661330779
 31
0.0
  0
LINE
  5
1CC
330
1F
100
AcDbEntity
  8
0-0
  6
JWW_DASHED1
 62
   120
370
     5
100
AcDbLine
 10
390.1037442379193
 20
234.0714610682879
 30
0.0
 11
428.1037442379163
 21
272.0714610682858
 31
0.0
  0
LINE
  5
1CD
330
1F
100
AcDbEntity
  8
0-0
  6
JWW_DASHED1
 62
   120
370
     5
100
AcDbLine
 10
390.1037442379193
 20
243.970956003506
 30
0.0
 11
428.1037442379265
 21
281.9709560035097
 31
0.0
  0
LINE
  5
1CE
330
1F
100
AcDbEntity
  8
0-0
  6
JWW_DASHED1
 62
   120
370
     5
100
AcDbLine
 10
390.1037442379193
 20
253.8704509386631
 30
0.0
 11
428.1037442379265
 21
291.8704509386749
 31
0.0
  0
LINE
  5
1CF
330
1F
100
AcDbEntity
  8
0-0
  6
JWW_DASHED1
 62
   120
370
     5
100
AcDbLine
 10
390.1037442379193
 20
263.7699458738807
 30
0.0
 11
428.1037442379197
 21
301.7699458738828
 31
0.0
  0
LINE
  5
1D0
330
1F
100
AcDbEntity
  8
0-0
  6
JWW_DASHED1
 62
   120
370
     5
100
AcDbLine
 10
390.1037442379193
 20
273.6694408090949
 30
0.0
 11
428.1037442379265
 21
311.6694408091068
 31
0.0
  0
LINE
  5
1D1
330
1F
100
AcDbEntity
  8
0-0
  6
JWW_DASHED1
 62
   120
370
     5
100
AcDbLine
 10
390.1037442379193
 20
283.5689357442644
 30
0.0
 11
428.10374423793
 21
321.5689357442716
 31
0.0
  0
LINE
  5
1D2
330
1F
100
AcDbEntity
  8
0-0
  6
JWW_DASHED1
 62
   120
370
     5
100
AcDbLine
 10
390.1037442379193
 20
293.4684306794739
 30
0.0
 11
428.1037442379231
 21
331.4684306794799
 31
0.0
  0
LINE
  5
1D3
330
1F
100
AcDbEntity
  8
0-0
  6
JWW_DASHED1
 62
   120
370
     5
100
AcDbLine
 10
390.1037442379193
 20
303.3679256146903
 30
0.0
 11
428.1037442379129
 21
341.3679256146877
 31
0.0
  0
LINE
  5
1D4
330
1F
100
AcDbEntity
  8
0-0
  6
JWW_DASHED1
 62
   120
370
     5
100
AcDbLine
 10
390.1037442379193
 20
313.267420549852
 30
0.0
 11
428.1037442379163
 21
351.2674205498529
 31
0.0
  0
LINE
  5
1D5
330
1F
100
AcDbEntity
  8
0-0
  6
JWW_DASHED1
 62
   120
370
     5
100
AcDbLine
 10
390.1037442379193
 20
323.1669154850752
 30
0.0
 11
428.1037442379265
 21
361.1669154850765
 31
0.0
  0
LINE
  5
1D6
330
1F
100
AcDbEntity
  8
0-0
  6
JWW_DASHED1
 62
   120
370
     5
100
AcDbLine
 10
390.1037442379193
 20
333.0664104202912
 30
0.0
 11
428.1037442379163
 21
371.0664104202843
 31
0.0
  0
LINE
  5
1D7
330
1F
100
AcDbEntity
  8
0-0
  6
JWW_DASHED1
 62
   120
370
     5
100
AcDbLine
 10
390.1037442379193
 20
342.9659053554465
 30
0.0
 11
428.1037442379197
 21
380.9659053554495
 31
0.0
  0
LINE
  5
1D8
330
1F
100
AcDbEntity
  8
0-0
  6
JWW_DASHED1
 62
   120
370
     5
100
AcDbLine
 10
390.1037442379193
 20
352.8654002906654
 30
0.0
 11
428.1037442379265
 21
390.8654002906735
 31
0.0
  0
LINE
  5
1D9
330
1F
100
AcDbEntity
  8
0-0
  6
JWW_DASHED1
 62
   120
370
     5
100
AcDbLine
 10
390.1037442379193
 20
362.7648952258584
 30
0.0
 11
428.1037442379163
 21
400.7648952258515
 31
0.0
  0
LINE
  5
1DA
330
1F
100
AcDbEntity
  8
0-0
  6
JWW_DASHED1
 62
   120
370
     5
100
AcDbLine
 10
390.1037442379193
 20
372.6643901610427
 30
0.0
 11
428.1037442379197
 21
410.6643901610465
 31
0.0
  0
LINE
  5
1DB
330
1F
100
AcDbEntity
  8
0-0
  6
JWW_DASHED1
 62
   120
370
     5
100
AcDbLine
 10
390.1037442379193
 20
382.5638850962582
 30
0.0
 11
428.10374423793
 21
420.5638850962706
 31
0.0
  0
LINE
  5
1DC
330
1F
100
AcDbEntity
  8
0-0
  6
JWW_DASHED1
 62
   120
370
     5
100
AcDbLine
 10
390.1037442379193
 20
392.4633800314251
 30
0.0
 11
428.1037442379163
 21
430.4633800314195
 31
0.0
  0
LINE
  5
1DD
330
1F
100
AcDbEntity
  8
0-0
  6
JWW_DASHED1
 62
   120
370
     5
100
AcDbLine
 10
390.1037442379193
 20
402.3628749666351
 30
0.0
 11
428.1037442379231
 21
440.3628749666436
 31
0.0
  0
LINE
  5
1DE
330
1F
100
AcDbEntity
  8
0-0
  6
JWW_DASHED1
 62
   120
370
     5
100
AcDbLine
 10
390.1037442379193
 20
412.2623699018536
 30
0.0
 11
428.1037442379163
 21
450.2623699018514
 31
0.0
  0
LINE
  5
1DF
330
1F
100
AcDbEntity
  8
0-0
  6
JWW_DASHED1
 62
   120
370
     5
100
AcDbLine
 10
390.1037442379193
 20
422.1618648370218
 30
0.0
 11
428.1037442379197
 21
460.1618648370166
 31
0.0
  0
LINE
  5
1E0
330
1F
100
AcDbEntity
  8
0-0
  6
JWW_DASHED1
 62
   120
370
     5
100
AcDbLine
 10
390.1037442379193
 20
432.0613597722296
 30
0.0
 11
428.1037442379265
 21
470.0613597722402
 31
0.0
  0
LINE
  5
1E1
330
1F
100
AcDbEntity
  8
0-0
  6
JWW_DASHED1
 62
   120
370
     5
100
AcDbLine
 10
390.1037442379193
 20
441.9608547074545
 30
0.0
 11
428.1037442379197
 21
479.9608547074484
 31
0.0
  0
LINE
  5
1E2
330
1F
100
AcDbEntity
  8
0-0
  6
JWW_DASHED1
 62
   120
370
     5
100
AcDbLine
 10
390.1037442379193
 20
451.8603496426047
 30
0.0
 11
428.1037442379197
 21
489.8603496426132
 31
0.0
  0
LINE
  5
1E3
330
1F
100
AcDbEntity
  8
0-0
  6
JWW_DASHED1
 62
   120
370
     5
100
AcDbLine
 10
390.1037442379193
 20
461.7598445778245
 30
0.0
 11
428.1037442379129
 21
499.7598445778215
 31
0.0
  0
LINE
  5
1E4
330
1F
100
AcDbEntity
  8
0-0
  6
JWW_DASHED1
 62
   120
370
     5
100
AcDbLine
 10
390.1037442379193
 20
471.6593395130438
 30
0.0
 11
428.1037442379197
 21
509.6593395130451
 31
0.0
  0
LINE
  5
1E5
330
1F
100
AcDbEntity
  8
0-0
  6
JWW_DASHED1
 62
   120
370
     5
100
AcDbLine
 10
390.1037442379193
 20
481.5588344482056
 30
0.0
 11
428.1037442379231
 21
519.5588344482103
 31
0.0
  0
LINE
  5
1E6
330
1F
100
AcDbEntity
  8
0-0
  6
JWW_DASHED1
 62
   120
370
     5
100
AcDbLine
 10
390.1037442379193
 20
491.4583293834241
 30
0.0
 11
428.1037442379163
 21
529.4583293834185
 31
0.0
  0
LINE
  5
1E7
330
1F
100
AcDbEntity
  8
0-0
  6
JWW_DASHED1
 62
   120
370
     5
100
AcDbLine
 10
390.1037442379193
 20
501.3578243186366
 30
0.0
 11
428.1037442379231
 21
539.3578243186416
 31
0.0
  0
LINE
  5
1E8
330
1F
100
AcDbEntity
  8
0-0
  6
JWW_DASHED1
 62
   120
370
     5
100
AcDbLine
 10
390.1037442379193
 20
511.2573192537984
 30
0.0
 11
428.1037442379265
 21
549.2573192538073
 31
0.0
  0
LINE
  5
1E9
330
1F
100
AcDbEntity
  8
0-0
  6
JWW_DASHED1
 62
   120
370
     5
100
AcDbLine
 10
390.1037442379193
 20
521.1568141890182
 30
0.0
 11
428.1037442379197
 21
559.1568141890151
 31
0.0
  0
LINE
  5
1EA
330
1F
100
AcDbEntity
  8
0-0
  6
JWW_DASHED1
 62
   120
370
     5
100
AcDbLine
 10
390.1037442379193
 20
531.0563091242366
 30
0.0
 11
428.1037442379265
 21
569.0563091242392
 31
0.0
  0
LINE
  5
1EB
330
1F
100
AcDbEntity
  8
0-0
  6
JWW_DASHED1
 62
   120
370
     5
100
AcDbLine
 10
390.1037442379193
 20
540.9558040593886
 30
0.0
 11
428.1037442379265
 21
578.9558040594039
 31
0.0
  0
LINE
  5
1EC
330
1F
100
AcDbEntity
  8
0-0
  6
JWW_DASHED1
 62
   120
370
     5
100
AcDbLine
 10
390.1037442379193
 20
550.8552989946079
 30
0.0
 11
428.1037442379197
 21
588.8552989946122
 31
0.0
  0
LINE
  5
1ED
330
1F
100
AcDbEntity
  8
0-0
  6
JWW_DASHED1
 62
   120
370
     5
100
AcDbLine
 10
390.1037442379193
 20
560.7547939298273
 30
0.0
 11
428.1037442379265
 21
598.7547939298362
 31
0.0
  0
LINE
  5
1EE
330
1F
100
AcDbEntity
  8
0-0
  6
JWW_DASHED1
 62
   120
370
     5
100
AcDbLine
 10
390.1037442379193
 20
570.654288864986
 30
0.0
 11
428.10374423793
 21
608.6542888649989
 31
0.0
  0
LINE
  5
1EF
330
1F
100
AcDbEntity
  8
0-0
  6
JWW_DASHED1
 62
   120
370
     5
100
AcDbLine
 10
390.1037442379193
 20
580.553783800208
 30
0.0
 11
428.1037442379231
 21
618.5537838002087
 31
0.0
  0
LINE
  5
1F0
330
1F
100
AcDbEntity
  8
0-0
  6
JWW_DASHED1
 62
   120
370
     5
100
AcDbLine
 10
390.1037442379193
 20
590.4532787354201
 30
0.0
 11
428.1037442379129
 21
628.453278735417
 31
0.0
  0
LINE
  5
1F1
330
1F
100
AcDbEntity
  8
0-0
  6
JWW_DASHED1
 62
   120
370
     5
100
AcDbLine
 10
390.1037442379193
 20
600.3527736705873
 30
0.0
 11
428.1037442379197
 21
638.3527736705822
 31
0.0
  0
LINE
  5
1F2
330
1F
100
AcDbEntity
  8
0-0
  6
JWW_DASHED1
 62
   120
370
     5
100
AcDbLine
 10
390.1037442379193
 20
610.2522686058021
 30
0.0
 11
428.1037442379265
 21
648.2522686058059
 31
0.0
  0
LINE
  5
1F3
330
1F
100
AcDbEntity
  8
0-0
  6
JWW_DASHED1
 62
   120
370
     5
100
AcDbLine
 10
390.1037442379193
 20
620.1517635410132
 30
0.0
 11
428.1037442379163
 21
658.1517635410141
 31
0.0
  0
LINE
  5
1F4
330
1F
100
AcDbEntity
  8
0-0
  6
JWW_DASHED1
 62
   120
370
     5
100
AcDbLine
 10
390.1037442379193
 20
630.0512584761776
 30
0.0
 11
428.1037442379197
 21
668.0512584761784
 31
0.0
  0
LINE
  5
1F5
330
1F
100
AcDbEntity
  8
0-0
  6
JWW_DASHED1
 62
   120
370
     5
100
AcDbLine
 10
390.1037442379193
 20
639.9507534113914
 30
0.0
 11
428.1037442379265
 21
677.950753411403
 31
0.0
  0
LINE
  5
1F6
330
1F
100
AcDbEntity
  8
0-0
  6
JWW_DASHED1
 62
   120
370
     5
100
AcDbLine
 10
390.1037442379193
 20
649.8502483466091
 30
0.0
 11
428.1037442379197
 21
687.8502483466111
 31
0.0
  0
LINE
  5
1F7
330
1F
100
AcDbEntity
  8
0-0
  6
JWW_DASHED1
 62
   120
370
     5
100
AcDbLine
 10
390.1037442379193
 20
659.7497432817713
 30
0.0
 11
428.1037442379231
 21
697.7497432817759
 31
0.0
  0
LINE
  5
1F8
330
1F
100
AcDbEntity
  8
0-0
  6
JWW_DASHED1
 62
   120
370
     5
100
AcDbLine
 10
390.1037442379193
 20
669.6492382169923
 30
0.0
 11
428.10374423793
 21
707.649238216999
 31
0.0
  0
LINE
  5
1F9
330
1F
100
AcDbEntity
  8
0-0
  6
JWW_DASHED1
 62
   120
370
     5
100
AcDbLine
 10
390.1037442379193
 20
679.5487331521992
 30
0.0
 11
428.1037442379197
 21
717.5487331522078
 31
0.0
  0
LINE
  5
1FA
330
1F
100
AcDbEntity
  8
0-0
  6
JWW_DASHED1
 62
   120
370
     5
100
AcDbLine
 10
390.1037442379193
 20
689.4482280873708
 30
0.0
 11
428.1037442379265
 21
727.448228087373
 31
0.0
  0
LINE
  5
1FB
330
1F
100
AcDbEntity
  8
0-0
  6
JWW_DASHED1
 62
   120
370
     5
100
AcDbLine
 10
390.1037442379193
 20
699.3477230225872
 30
0.0
 11
428.1037442379163
 21
737.3477230225799
 31
0.0
  0
LINE
  5
1FC
330
1F
100
AcDbEntity
  8
0-0
  6
JWW_DASHED1
 62
   120
370
     5
100
AcDbLine
 10
390.1037442379193
 20
709.2472179578035
 30
0.0
 11
428.1037442379265
 21
747.2472179578049
 31
0.0
  0
LINE
  5
1FD
330
1F
100
AcDbEntity
  8
0-0
  6
JWW_DASHED1
 62
   120
370
     5
100
AcDbLine
 10
390.1037442379193
 20
719.1467128929615
 30
0.0
 11
428.1037442379265
 21
757.1467128929696
 31
0.0
  0
LINE
  5
1FE
330
1F
100
AcDbEntity
  8
0-0
  6
JWW_DASHED1
 62
   120
370
     5
100
AcDbLine
 10
390.1037442379193
 20
729.0462078281809
 30
0.0
 11
428.1037442379197
 21
767.0462078281778
 31
0.0
  0
LINE
  5
1FF
330
1F
100
AcDbEntity
  8
0-0
  6
JWW_DASHED1
 62
   120
370
     5
100
AcDbLine
 10
390.1037442379193
 20
738.9457027633933
 30
0.0
 11
428.1037442379265
 21
776.9457027634014
 31
0.0
  0
LINE
  5
200
330
1F
100
AcDbEntity
  8
0-0
  6
JWW_DASHED1
 62
   120
370
     5
100
AcDbLine
 10
390.1037442379193
 20
748.845197698553
 30
0.0
 11
428.1037442379129
 21
786.8451976985509
 31
0.0
  0
LINE
  5
201
330
1F
100
AcDbEntity
  8
0-0
  6
JWW_DASHED1
 62
   120
370
     5
100
AcDbLine
 10
390.1037442379193
 20
758.7446926337693
 30
0.0
 11
428.1037442379197
 21
796.7446926337749
 31
0.0
  0
LINE
  5
202
330
1F
100
AcDbEntity
  8
0-0
  6
JWW_DASHED1
 62
   120
370
     5
100
AcDbLine
 10
390.1037442379193
 20
768.644187568987
 30
0.0
 11
428.10374423793
 21
806.6441875689985
 31
0.0
  0
LINE
  5
203
330
1F
100
AcDbEntity
  8
0-0
  6
JWW_DASHED1
 62
   120
370
     5
100
AcDbLine
 10
390.1037442379193
 20
778.5436825041539
 30
0.0
 11
428.1037442379163
 21
816.543682504147
 31
0.0
  0
LINE
  5
204
330
1F
100
AcDbEntity
  8
0-0
  6
JWW_DASHED1
 62
   120
370
     5
100
AcDbLine
 10
390.1037442379193
 20
788.4431774393638
 30
0.0
 11
428.1037442379231
 21
826.4431774393715
 31
0.0
  0
LINE
  5
205
330
1F
100
AcDbEntity
  8
0-0
  6
JWW_DASHED1
 62
   120
370
     5
100
AcDbLine
 10
390.1037442379193
 20
798.3426723745866
 30
0.0
 11
428.1037442379334
 21
836.3426723745952
 31
0.0
  0
LINE
  5
206
330
1F
100
AcDbEntity
  8
0-0
  6
JWW_DASHED1
 62
   120
370
     5
100
AcDbLine
 10
390.1037442379193
 20
808.2421673097506
 30
0.0
 11
428.1037442379197
 21
846.2421673097446
 31
0.0
  0
LINE
  5
207
330
1F
100
AcDbEntity
  8
0-0
  6
JWW_DASHED1
 62
   120
370
     5
100
AcDbLine
 10
390.1037442379193
 20
818.141662244958
 30
0.0
 11
428.1037442379265
 21
856.1416622449685
 31
0.0
  0
LINE
  5
208
330
1F
100
AcDbEntity
  8
0-0
  6
JWW_DASHED1
 62
   120
370
     5
100
AcDbLine
 10
390.1037442379193
 20
828.0411571801815
 30
0.0
 11
428.1037442379197
 21
866.0411571801764
 31
0.0
  0
LINE
  5
209
330
1F
100
AcDbEntity
  8
0-0
  6
JWW_DASHED1
 62
   120
370
     5
100
AcDbLine
 10
390.1037442379193
 20
847.8401470505622
 30
0.0
 11
428.1037442379197
 21
885.8401470505511
 31
0.0
  0
LINE
  5
20A
330
1F
100
AcDbEntity
  8
0-0
  6
JWW_DASHED1
 62
   120
370
     5
100
AcDbLine
 10
390.1037442379193
 20
837.9406521153433
 30
0.0
 11
428.1037442379197
 21
875.9406521153373
 31
0.0
  0
LINE
  5
20B
330
1F
100
AcDbEntity
  8
0-0
  6
JWW_DASHED1
 62
   120
370
     5
100
AcDbLine
 10
390.1037442379193
 20
-993.4659108961982
 30
0.0
 11
428.1037442379163
 21
-955.4659108961984
 31
0.0
  0
LINE
  5
20C
330
1F
100
AcDbEntity
  8
0-0
  6
JWW_DASHED1
 62
   120
370
     5
100
AcDbLine
 10
390.1037442379193
 20
-1003.365405831363
 30
0.0
 11
428.1037442379163
 21
-965.3654058313631
 31
0.0
  0
LINE
  5
20D
330
1F
100
AcDbEntity
  8
0-0
  6
JWW_DASHED1
 62
   120
370
     5
100
AcDbLine
 10
390.1037442379193
 20
-1013.264900766528
 30
0.0
 11
428.1037442379163
 21
-975.2649007665278
 31
0.0
  0
LINE
  5
20E
330
1F
100
AcDbEntity
  8
0-0
  6
JWW_DASHED1
 62
   120
370
     5
100
AcDbLine
 10
392.9044248171646
 20
-1020.363715122447
 30
0.0
 11
428.1037442379163
 21
-985.1643957016926
 31
0.0
  0
LINE
  5
20F
330
1F
100
AcDbEntity
  8
0-0
  6
JWW_DASHED1
 62
   120
370
     5
100
AcDbLine
 10
422.6029096226567
 20
-1020.363715122447
 30
0.0
 11
428.1037442379163
 21
-1014.862880507187
 31
0.0
  0
LINE
  5
210
330
1F
100
AcDbEntity
  8
0-0
  6
JWW_DASHED1
 62
   120
370
     5
100
AcDbLine
 10
402.8039197523289
 20
-1020.363715122447
 30
0.0
 11
428.1037442379163
 21
-995.0638906368574
 31
0.0
  0
LINE
  5
211
330
1F
100
AcDbEntity
  8
0-0
  6
JWW_DASHED1
 62
   120
370
     5
100
AcDbLine
 10
412.7034146874933
 20
-1020.363715122447
 30
0.0
 11
428.1037442379163
 21
-1004.963385572022
 31
0.0
  0
LINE
  5
212
330
1F
100
AcDbEntity
  8
0-0
  6
JWW_DASHED1
 62
   120
370
     5
100
AcDbLine
 10
390.1037442379193
 20
857.7396419857807
 30
0.0
 11
428.1037442379197
 21
895.7396419857696
 31
0.0
  0
LINE
  5
213
330
1F
100
AcDbEntity
  8
0-0
  6
JWW_DASHED1
 62
   120
370
     5
100
AcDbLine
 10
390.1037442379193
 20
867.6391369209991
 30
0.0
 11
428.1037442379197
 21
905.6391369209881
 31
0.0
  0
LINE
  5
214
330
1F
100
AcDbEntity
  8
0-0
  6
JWW_DASHED1
 62
   120
370
     5
100
AcDbLine
 10
390.1037442379193
 20
877.5386318562176
 30
0.0
 11
428.1037442379197
 21
915.5386318562066
 31
0.0
  0
LINE
  5
215
330
1F
100
AcDbEntity
  8
0-0
  6
JWW_DASHED1
 62
   120
370
     5
100
AcDbLine
 10
390.1037442379193
 20
887.4381267914357
 30
0.0
 11
428.1037442379197
 21
925.438126791425
 31
0.0
  0
LINE
  5
216
330
1F
100
AcDbEntity
  8
0-0
  6
JWW_DASHED1
 62
   120
370
     5
100
AcDbLine
 10
390.1037442379193
 20
897.3376217266547
 30
0.0
 11
428.1037442379197
 21
935.3376217266435
 31
0.0
  0
LINE
  5
217
330
1F
100
AcDbEntity
  8
0-0
  6
Continuous
 62
    92
370
    13
100
AcDbLine
 10
390.1037442379193
 20
1154.636284877555
 30
0.0
 11
390.1037442379193
 21
-1028.363715122446
 31
0.0
  0
LINE
  5
218
330
1F
100
AcDbEntity
  8
0-0
  6
Continuous
 62
    92
370
    13
100
AcDbLine
 10
428.1037442379197
 20
1154.636284877555
 30
0.0
 11
428.1037442379197
 21
-1028.363715122447
 31
0.0
  0
LINE
  5
219
330
1F
100
AcDbEntity
  8
0-0
  6
Continuous
 62
     7
370
     9
100
AcDbLine
 10
390.1037442379193
 20
1146.636284877556
 30
0.0
 11
428.1037442379197
 21
1146.636284877556
 31
0.0
  0
LINE
  5
21A
330
1F
100
AcDbEntity
  8
0-0
  6
JWW_DASHED1
 62
   120
370
     5
100
AcDbLine
 10
390.1037442379193
 20
907.2371166618732
 30
0.0
 11
428.1037442379197
 21
945.237116661862
 31
0.0
  0
LINE
  5
21B
330
1F
100
AcDbEntity
  8
0-0
  6
JWW_DASHED1
 62
   120
370
     5
100
AcDbLine
 10
390.1037442379193
 20
936.9356014675286
 30
0.0
 11
428.1037442379197
 21
974.9356014675175
 31
0.0
  0
LINE
  5
21C
330
1F
100
AcDbEntity
  8
0-0
  6
JWW_DASHED1
 62
   120
370
     5
100
AcDbLine
 10
390.1037442379193
 20
917.1366115970916
 30
0.0
 11
428.1037442379197
 21
955.1366115970804
 31
0.0
  0
LINE
  5
21D
330
1F
100
AcDbEntity
  8
0-0
  6
JWW_DASHED1
 62
   120
370
     5
100
AcDbLine
 10
390.1037442379193
 20
927.0361065323101
 30
0.0
 11
428.1037442379197
 21
965.036106532299
 31
0.0
  0
LINE
  5
21E
330
1F
100
AcDbEntity
  8
0-0
  6
JWW_DASHED1
 62
   120
370
     5
100
AcDbLine
 10
390.1037442379193
 20
956.7345913379655
 30
0.0
 11
428.1037442379197
 21
994.7345913379545
 31
0.0
  0
LINE
  5
21F
330
1F
100
AcDbEntity
  8
0-0
  6
JWW_DASHED1
 62
   120
370
     5
100
AcDbLine
 10
390.1037442379193
 20
946.835096402747
 30
0.0
 11
428.1037442379197
 21
984.835096402736
 31
0.0
  0
LINE
  5
220
330
1F
100
AcDbEntity
  8
0-0
  6
JWW_DASHED1
 62
   120
370
     5
100
AcDbLine
 10
390.1037442379193
 20
976.5335812084026
 30
0.0
 11
428.1037442379197
 21
1014.533581208391
 31
0.0
  0
LINE
  5
221
330
1F
100
AcDbEntity
  8
0-0
  6
JWW_DASHED1
 62
   120
370
     5
100
AcDbLine
 10
390.1037442379193
 20
966.634086273184
 30
0.0
 11
428.1037442379197
 21
1004.634086273173
 31
0.0
  0
LINE
  5
222
330
1F
100
AcDbEntity
  8
0-0
  6
JWW_DASHED1
 62
   120
370
     5
100
AcDbLine
 10
390.1037442379193
 20
996.3325710788395
 30
0.0
 11
428.1037442379197
 21
1034.332571078828
 31
0.0
  0
LINE
  5
223
330
1F
100
AcDbEntity
  8
0-0
  6
JWW_DASHED1
 62
   120
370
     5
100
AcDbLine
 10
390.1037442379193
 20
986.4330761436211
 30
0.0
 11
428.1037442379197
 21
1024.43307614361
 31
0.0
  0
LINE
  5
224
330
1F
100
AcDbEntity
  8
0-0
  6
JWW_DASHED1
 62
   120
370
     5
100
AcDbLine
 10
390.1037442379193
 20
1016.131560949276
 30
0.0
 11
428.1037442379197
 21
1054.131560949265
 31
0.0
  0
LINE
  5
225
330
1F
100
AcDbEntity
  8
0-0
  6
JWW_DASHED1
 62
   120
370
     5
100
AcDbLine
 10
390.1037442379193
 20
1006.232066014058
 30
0.0
 11
428.1037442379197
 21
1044.232066014046
 31
0.0
  0
LINE
  5
226
330
1F
100
AcDbEntity
  8
0-0
  6
JWW_DASHED1
 62
   120
370
     5
100
AcDbLine
 10
390.1037442379193
 20
1035.930550819714
 30
0.0
 11
428.1037442379197
 21
1073.930550819702
 31
0.0
  0
LINE
  5
227
330
1F
100
AcDbEntity
  8
0-0
  6
JWW_DASHED1
 62
   120
370
     5
100
AcDbLine
 10
390.1037442379193
 20
1026.031055884495
 30
0.0
 11
428.1037442379197
 21
1064.031055884484
 31
0.0
  0
LINE
  5
228
330
1F
100
AcDbEntity
  8
0-0
  6
JWW_DASHED1
 62
   120
370
     5
100
AcDbLine
 10
390.1037442379193
 20
1055.72954069015
 30
0.0
 11
428.1037442379197
 21
1093.729540690139
 31
0.0
  0
LINE
  5
229
330
1F
100
AcDbEntity
  8
0-0
  6
JWW_DASHED1
 62
   120
370
     5
100
AcDbLine
 10
390.1037442379193
 20
1045.830045754932
 30
0.0
 11
428.1037442379197
 21
1083.830045754921
 31
0.0
  0
LINE
  5
22A
330
1F
100
AcDbEntity
  8
0-0
  6
JWW_DASHED1
 62
   120
370
     5
100
AcDbLine
 10
390.1037442379193
 20
1075.528530560587
 30
0.0
 11
428.1037442379197
 21
1113.528530560576
 31
0.0
  0
LINE
  5
22B
330
1F
100
AcDbEntity
  8
0-0
  6
JWW_DASHED1
 62
   120
370
     5
100
AcDbLine
 10
390.1037442379193
 20
1065.629035625369
 30
0.0
 11
428.1037442379197
 21
1103.629035625358
 31
0.0
  0
LINE
  5
22C
330
1F
100
AcDbEntity
  8
0-0
  6
JWW_DASHED1
 62
   120
370
     5
100
AcDbLine
 10
390.1037442379193
 20
1095.327520431024
 30
0.0
 11
428.1037442379197
 21
1133.327520431013
 31
0.0
  0
LINE
  5
22D
330
1F
100
AcDbEntity
  8
0-0
  6
JWW_DASHED1
 62
   120
370
     5
100
AcDbLine
 10
390.1037442379193
 20
1085.428025495806
 30
0.0
 11
428.1037442379197
 21
1123.428025495795
 31
0.0
  0
LINE
  5
22E
330
1F
100
AcDbEntity
  8
0-0
  6
JWW_DASHED1
 62
   120
370
     5
100
AcDbLine
 10
390.1037442379193
 20
1105.227015366243
 30
0.0
 11
428.1037442379197
 21
1143.227015366232
 31
0.0
  0
LINE
  5
22F
330
1F
100
AcDbEntity
  8
0-0
  6
JWW_DASHED1
 62
   120
370
     5
100
AcDbLine
 10
390.1037442379193
 20
1134.925500171898
 30
0.0
 11
401.8145289435807
 21
1146.636284877556
 31
0.0
  0
LINE
  5
230
330
1F
100
AcDbEntity
  8
0-0
  6
JWW_DASHED1
 62
   120
370
     5
100
AcDbLine
 10
390.1037442379193
 20
1115.126510301461
 30
0.0
 11
421.6135188140237
 21
1146.636284877556
 31
0.0
  0
LINE
  5
231
330
1F
100
AcDbEntity
  8
0-0
  6
JWW_DASHED1
 62
   120
370
     5
100
AcDbLine
 10
390.1037442379193
 20
1125.02600523668
 30
0.0
 11
411.7140238788022
 21
1146.636284877556
 31
0.0
  0
LINE
  5
232
330
1F
100
AcDbEntity
  8
寸法
  6
Continuous
 62
   120
370
     5
100
AcDbLine
 10
-1302.896255762078
 20
-1036.863715122447
 30
0.0
 11
-852.8962557620782
 21
-1036.863715122447
 31
0.0
  0
LWPOLYLINE
  5
233
330
1F
100
AcDbEntity
  8
寸法
  6
Continuous
 62
     7
370
     9
100
AcDbPolyline
 90
        4
 70
     1
 43
3.0
 10
-1301.396255762078
 20
-1036.863715122447
 42
0.4142135623731
 10
-1302.896255762078
 20
-1035.363715122447
 42
0.4142135623731
 10
-1304.396255762078
 20
-1036.863715122447
 42
0.4142135623731
 10
-1302.896255762078
 20
-1038.363715122447
 42
0.4142135623731
  0
LINE
  5
234
330
1F
100
AcDbEntity
  8
寸法
  6
Continuous
 62
   120
370
     5
100
AcDbLine
 10
-772.8962557620777
 20
-1486.863715122447
 30
0.0
 11
-772.8962557620777
 21
-1086.863715122447
 31
0.0
  0
LINE
  5
235
330
1F
100
AcDbEntity
  8
寸法
  6
Continuous
 62
   120
370
     5
100
AcDbLine
 10
-802.8962557620777
 20
-1686.863715122446
 30
0.0
 11
-802.8962557620777
 21
-1086.863715122447
 31
0.0
  0
LINE
  5
236
330
1F
100
AcDbEntity
  8
寸法
  6
Continuous
 62
   120
370
     5
100
AcDbLine
 10
814.1037442379217
 20
-1286.863715122447
 30
0.0
 11
814.1037442379217
 21
-1086.863715122447
 31
0.0
  0
LINE
  5
237
330
1F
100
AcDbEntity
  8
寸法
  6
Continuous
 62
   120
370
     5
100
AcDbLine
 10
-772.8962557620777
 20
-1486.863715122447
 30
0.0
 11
811.103744237921
 21
-1486.863715122447
 31
0.0
  0
LINE
  5
238
330
1F
100
AcDbEntity
  8
寸法
  6
Continuous
 62
   120
370
     5
100
AcDbLine
 10
811.103744237921
 20
-1486.863715122447
 30
0.0
 11
811.103744237921
 21
-1086.863715122447
 31
0.0
  0
LINE
  5
239
330
1F
100
AcDbEntity
  8
寸法
  6
Continuous
 62
   120
370
     5
100
AcDbLine
 10
-802.8962557620777
 20
-1686.863715122446
 30
0.0
 11
841.103744237921
 21
-1686.863715122446
 31
0.0
  0
LINE
  5
23A
330
1F
100
AcDbEntity
  8
寸法
  6
Continuous
 62
   120
370
     5
100
AcDbLine
 10
841.103744237921
 20
-1686.863715122446
 30
0.0
 11
841.103744237921
 21
-1086.863715122447
 31
0.0
  0
LINE
  5
23B
330
1F
100
AcDbEntity
  8
寸法
  6
Continuous
 62
   120
370
     5
100
AcDbLine
 10
4.103744237921632
 20
-1286.863715122447
 30
0.0
 11
4.103744237921632
 21
-1086.863715122447
 31
0.0
  0
LINE
  5
23C
330
1F
100
AcDbEntity
  8
寸法
  6
Continuous
 62
   120
370
     5
100
AcDbLine
 10
4.103744237921632
 20
-1286.863715122447
 30
0.0
 11
814.1037442379217
 21
-1286.863715122447
 31
0.0
  0
LWPOLYLINE
  5
23D
330
1F
100
AcDbEntity
  8
寸法
  6
Continuous
 62
     7
370
     9
100
AcDbPolyline
 90
        4
 70
     1
 43
3.0
 10
-771.3962557620777
 20
-1486.863715122447
 42
0.4142135623731
 10
-772.8962557620777
 20
-1485.363715122447
 42
0.4142135623731
 10
-774.3962557620777
 20
-1486.863715122447
 42
0.4142135623731
 10
-772.8962557620777
 20
-1488.363715122447
 42
0.4142135623731
  0
LWPOLYLINE
  5
23E
330
1F
100
AcDbEntity
  8
寸法
  6
Continuous
 62
     7
370
     9
100
AcDbPolyline
 90
        4
 70
     1
 43
3.0
 10
-801.3962557620777
 20
-1686.863715122446
 42
0.4142135623731
 10
-802.8962557620777
 20
-1685.363715122446
 42
0.4142135623731
 10
-804.3962557620777
 20
-1686.863715122446
 42
0.4142135623731
 10
-802.8962557620777
 20
-1688.363715122446
 42
0.4142135623731
  0
LWPOLYLINE
  5
23F
330
1F
100
AcDbEntity
  8
寸法
  6
Continuous
 62
     7
370
     9
100
AcDbPolyline
 90
        4
 70
     1
 43
3.0
 10
815.6037442379217
 20
-1286.863715122447
 42
0.4142135623731
 10
814.1037442379217
 20
-1285.363715122447
 42
0.4142135623731
 10
812.6037442379217
 20
-1286.863715122447
 42
0.4142135623731
 10
814.1037442379217
 20
-1288.363715122446
 42
0.4142135623731
  0
LWPOLYLINE
  5
240
330
1F
100
AcDbEntity
  8
寸法
  6
Continuous
 62
     7
370
     9
100
AcDbPolyline
 90
        4
 70
     1
 43
3.0
 10
812.603744237921
 20
-1486.863715122447
 42
0.4142135623731
 10
811.103744237921
 20
-1485.363715122447
 42
0.4142135623731
 10
809.603744237921
 20
-1486.863715122447
 42
0.4142135623731
 10
811.103744237921
 20
-1488.363715122447
 42
0.4142135623731
  0
LWPOLYLINE
  5
241
330
1F
100
AcDbEntity
  8
寸法
  6
Continuous
 62
     7
370
     9
100
AcDbPolyline
 90
        4
 70
     1
 43
3.0
 10
842.603744237921
 20
-1686.863715122446
 42
0.4142135623731
 10
841.103744237921
 20
-1685.363715122446
 42
0.4142135623731
 10
839.603744237921
 20
-1686.863715122446
 42
0.4142135623731
 10
841.103744237921
 20
-1688.363715122446
 42
0.4142135623731
  0
LWPOLYLINE
  5
242
330
1F
100
AcDbEntity
  8
寸法
  6
Continuous
 62
     7
370
     9
100
AcDbPolyline
 90
        4
 70
     1
 43
3.0
 10
5.603744237921632
 20
-1286.863715122447
 42
0.4142135623731
 10
4.103744237921632
 20
-1285.363715122447
 42
0.4142135623731
 10
2.603744237921632
 20
-1286.863715122447
 42
0.4142135623731
 10
4.103744237921632
 20
-1288.363715122446
 42
0.4142135623731
  0
LINE
  5
243
330
1F
100
AcDbEntity
  8
寸法
  6
Continuous
 62
   120
370
     5
100
AcDbLine
 10
-1102.896255762078
 20
-1028.363715122447
 30
0.0
 11
-852.8962557620782
 21
-1028.363715122447
 31
0.0
  0
LWPOLYLINE
  5
244
330
1F
100
AcDbEntity
  8
寸法
  6
Continuous
 62
     7
370
     9
100
AcDbPolyline
 90
        4
 70
     1
 43
3.0
 10
-1101.396255762078
 20
-1028.363715122447
 42
0.4142135623731
 10
-1102.896255762078
 20
-1026.863715122447
 42
0.4142135623731
 10
-1104.396255762078
 20
-1028.363715122447
 42
0.4142135623731
 10
-1102.896255762078
 20
-1029.863715122447
 42
0.4142135623731
  0
LINE
  5
245
330
1F
100
AcDbEntity
  8
寸法
  6
Continuous
 62
   120
370
     5
100
AcDbLine
 10
-1302.896255762078
 20
1198.636284877554
 30
0.0
 11
-1302.896255762078
 21
-1036.863715122447
 31
0.0
  0
LINE
  5
246
330
1F
100
AcDbEntity
  8
寸法
  6
Continuous
 62
   120
370
     5
100
AcDbLine
 10
-1302.896255762078
 20
1198.636284877554
 30
0.0
 11
-852.8962557620782
 21
1198.636284877554
 31
0.0
  0
LWPOLYLINE
  5
247
330
1F
100
AcDbEntity
  8
寸法
  6
Continuous
 62
     7
370
     9
100
AcDbPolyline
 90
        4
 70
     1
 43
3.0
 10
-1301.396255762078
 20
1198.636284877554
 42
0.4142135623731
 10
-1302.896255762078
 20
1200.136284877554
 42
0.4142135623731
 10
-1304.396255762078
 20
1198.636284877554
 42
0.4142135623731
 10
-1302.896255762078
 20
1197.136284877554
 42
0.4142135623731
  0
LINE
  5
248
330
1F
100
AcDbEntity
  8
寸法
  6
Continuous
 62
   120
370
     5
100
AcDbLine
 10
-1102.896255762078
 20
1154.636284877553
 30
0.0
 11
-852.8962557620782
 21
1154.636284877553
 31
0.0
  0
LINE
  5
249
330
1F
100
AcDbEntity
  8
寸法
  6
Continuous
 62
   120
370
     5
100
AcDbLine
 10
-1102.896255762078
 20
1154.636284877553
 30
0.0
 11
-1102.896255762078
 21
-1028.363715122447
 31
0.0
  0
LWPOLYLINE
  5
24A
330
1F
100
AcDbEntity
  8
寸法
  6
Continuous
 62
     7
370
     9
100
AcDbPolyline
 90
        4
 70
     1
 43
3.0
 10
-1101.396255762078
 20
1154.636284877553
 42
0.4142135623731
 10
-1102.896255762078
 20
1156.136284877553
 42
0.4142135623731
 10
-1104.396255762078
 20
1154.636284877553
 42
0.4142135623731
 10
-1102.896255762078
 20
1153.136284877553
 42
0.4142135623731
  0
MTEXT
  5
24B
330
1F
100
AcDbEntity
  8
寸法
  6
Continuous
 62
     7
370
    70
100
AcDbMText
 10
-1317.896255762078
 20
-149.0387151224471
 30
0.0
 40
57.14999999999999
 41
412.5
 46
0.0
 71
     7
 72
     1
  1
{\fＭＳ ゴシック|b0|i0|c128|p49;枠外＝2,235}
 11
6.123031769111886E-17
 21
1.0
 31
0.0
 73
     1
 44
1.0
  0
MTEXT
  5
24C
330
1F
100
AcDbEntity
  8
寸法
  6
Continuous
 62
     7
370
    70
100
AcDbMText
 10
-1117.896255762078
 20
-155.0387151224463
 30
0.0
 40
57.14999999999999
 41
412.5
 46
0.0
 71
     7
 72
     1
  1
{\fＭＳ ゴシック|b0|i0|c128|p49;ＤＨ＝2,183}
 11
6.123031769111886E-17
 21
1.0
 31
0.0
 73
     1
 44
1.0
  0
MTEXT
  5
24D
330
1F
100
AcDbEntity
  8
寸法
  6
Continuous
 62
     7
370
   211
100
AcDbMText
 10
240.3537442379216
 20
-1280.788715122447
 30
0.0
 40
57.15
 41
337.5
 46
0.0
 71
     7
 72
     1
  1
{\fＭＳ ゴシック|b0|i0|c128|p49;ＤＷ＝810}
 73
     1
 44
1.0
  0
MTEXT
  5
24E
330
1F
100
AcDbEntity
  8
寸法
  6
Continuous
 62
     7
370
   211
100
AcDbMText
 10
-187.1462557620784
 20
-1480.788715122447
 30
0.0
 40
57.14999999999999
 41
412.5
 46
0.0
 71
     7
 72
     1
  1
{\fＭＳ ゴシック|b0|i0|c128|p49;枠内＝1,584}
 73
     1
 44
1.0
  0
MTEXT
  5
24F
330
1F
100
AcDbEntity
  8
寸法
  6
Continuous
 62
     7
370
   211
100
AcDbMText
 10
-187.1462557620784
 20
-1680.788715122447
 30
0.0
 40
57.14999999999999
 41
412.5
 46
0.0
 71
     7
 72
     1
  1
{\fＭＳ ゴシック|b0|i0|c128|p49;枠外＝1,644}
 73
     1
 44
1.0
  0
ENDSEC
  0
SECTION
  2
OBJECTS
  0
DICTIONARY
  5
C
330
0
100
AcDbDictionary
281
     1
  3
ACAD_GROUP
350
D
  3
ACAD_LAYOUT
350
1A
  3
ACAD_MATERIAL
350
3B
  3
ACAD_MLEADERSTYLE
350
251
  3
ACAD_MLINESTYLE
350
17
  3
ACAD_PLOTSETTINGS
350
19
  3
ACAD_PLOTSTYLENAME
350
E
  3
ACAD_TABLESTYLE
350
250
  3
ACAD_VISUALSTYLE
350
2A
  0
DICTIONARY
  5
D
102
{ACAD_REACTORS
330
C
102
}
330
C
100
AcDbDictionary
281
     1
  0
DICTIONARY
  5
1A
102
{ACAD_REACTORS
330
C
102
}
330
C
100
AcDbDictionary
281
     1
  3
Layout1
350
1E
  3
Layout2
350
26
  3
Model
350
22
  0
DICTIONARY
  5
3B
102
{ACAD_REACTORS
330
C
102
}
330
C
100
AcDbDictionary
281
     1
  3
ByBlock
350
3D
  3
ByLayer
350
3C
  3
Global
350
3E
  0
DICTIONARY
  5
251
102
{ACAD_REACTORS
330
C
102
}
330
C
100
AcDbDictionary
281
     1
  0
DICTIONARY
  5
17
102
{ACAD_REACTORS
330
C
102
}
330
C
100
AcDbDictionary
281
     1
  3
Standard
350
18
  0
DICTIONARY
  5
19
102
{ACAD_REACTORS
330
C
102
}
330
C
100
AcDbDictionary
281
     1
  0
ACDBDICTIONARYWDFLT
  5
E
102
{ACAD_REACTORS
330
C
102
}
330
C
100
AcDbDictionary
281
     1
  3
Normal
350
F
100
AcDbDictionaryWithDefault
340
F
  0
DICTIONARY
  5
250
102
{ACAD_REACTORS
330
C
102
}
330
C
100
AcDbDictionary
281
     1
  0
DICTIONARY
  5
2A
102
{ACAD_REACTORS
330
C
102
}
330
C
100
AcDbDictionary
281
     1
  3
2dWireframe
350
2F
  3
3D Hidden
350
31
  3
3dWireframe
350
30
  3
Basic
350
32
  3
Brighten
350
36
  3
ColorChange
350
3A
  3
Conceptual
350
34
  3
Dim
350
35
  3
Facepattern
350
39
  3
Flat
350
2B
  3
FlatWithEdges
350
2C
  3
Gouraud
350
2D
  3
GouraudWithEdges
350
2E
  3
Linepattern
350
38
  3
Realistic
350
33
  3
Thicken
350
37
  0
LAYOUT
  5
1E
102
{ACAD_REACTORS
330
1A
102
}
330
1A
100
AcDbPlotSettings
  1

  2
none_device
  4

  6

 40
0.0
 41
0.0
 42
0.0
 43
0.0
 44
0.0
 45
0.0
 46
0.0
 47
0.0
 48
0.0
 49
0.0
140
0.0
141
0.0
142
1.0
143
1.0
 70
   688
 72
     0
 73
     0
 74
     5
  7

 75
    16
 76
     0
 77
     5
 78
   300
147
1.0
148
0.0
149
0.0
100
AcDbLayout
  1
Layout1
 70
     1
 71
     1
 10
0.0
 20
0.0
 11
420.0
 21
297.0
 12
0.0
 22
0.0
 32
0.0
 14
1.000000000000000E+20
 24
1.000000000000000E+20
 34
1.000000000000000E+20
 15
-1.000000000000000E+20
 25
-1.000000000000000E+20
 35
-1.000000000000000E+20
146
0.0
 13
0.0
 23
0.0
 33
0.0
 16
1.0
 26
0.0
 36
0.0
 17
0.0
 27
1.0
 37
0.0
 76
     0
330
1B
  0
LAYOUT
  5
26
102
{ACAD_REACTORS
330
1A
102
}
330
1A
100
AcDbPlotSettings
  1

  2
none_device
  4

  6

 40
0.0
 41
0.0
 42
0.0
 43
0.0
 44
0.0
 45
0.0
 46
0.0
 47
0.0
 48
0.0
 49
0.0
140
0.0
141
0.0
142
1.0
143
1.0
 70
   688
 72
     0
 73
     0
 74
     5
  7

 75
    16
 76
     0
 77
     5
 78
   300
147
1.0
148
0.0
149
0.0
100
AcDbLayout
  1
Layout2
 70
     1
 71
     2
 10
0.0
 20
0.0
 11
0.0
 21
0.0
 12
0.0
 22
0.0
 32
0.0
 14
0.0
 24
0.0
 34
0.0
 15
0.0
 25
0.0
 35
0.0
146
0.0
 13
0.0
 23
0.0
 33
0.0
 16
1.0
 26
0.0
 36
0.0
 17
0.0
 27
1.0
 37
0.0
 76
     0
330
23
  0
LAYOUT
  5
22
102
{ACAD_REACTORS
330
1A
102
}
330
1A
100
AcDbPlotSettings
  1

  2
none_device
  4

  6

 40
0.0
 41
0.0
 42
0.0
 43
0.0
 44
0.0
 45
0.0
 46
0.0
 47
0.0
 48
0.0
 49
0.0
140
0.0
141
0.0
142
1.0
143
1.0
 70
  1712
 72
     0
 73
     0
 74
     0
  7

 75
     0
 76
     0
 77
     5
 78
   300
147
1.0
148
0.0
149
0.0
100
AcDbLayout
  1
Model
 70
     1
 71
     0
 10
-4455.0
 20
-3150.0
 11
4455.0
 21
3150.0
 12
0.0
 22
0.0
 32
0.0
 14
-4455.0
 24
-3150.0
 34
0.0
 15
4455.0
 25
3150.0
 35
0.0
146
0.0
 13
0.0
 23
0.0
 33
0.0
 16
1.0
 26
0.0
 36
0.0
 17
0.0
 27
1.0
 37
0.0
 76
     0
330
1F
331
29
  0
MATERIAL
  5
3D
102
{ACAD_REACTORS
330
3B
102
}
330
3B
100
AcDbMaterial
  1
ByBlock
 72
     1
 94
      127
  0
MATERIAL
  5
3C
102
{ACAD_REACTORS
330
3B
102
}
330
3B
100
AcDbMaterial
  1
ByLayer
 72
     1
 94
      127
  0
MATERIAL
  5
3E
102
{ACAD_REACTORS
330
3B
102
}
330
3B
100
AcDbMaterial
  1
Global
 72
     1
 94
      127
  0
MLINESTYLE
  5
18
102
{ACAD_REACTORS
330
17
102
}
330
17
100
AcDbMlineStyle
  2
Standard
 70
     0
  3

 62
   256
 51
90.0
 52
90.0
 71
     2
 49
0.5
 62
   256
  6
BYLAYER
 49
-0.5
 62
   256
  6
BYLAYER
  0
ACDBPLACEHOLDER
  5
F
102
{ACAD_REACTORS
330
E
102
}
330
E
  0
VISUALSTYLE
  5
2F
102
{ACAD_REACTORS
330
2A
102
}
330
2A
100
AcDbVisualStyle
  2
2dWireframe
 70
     4
177
     2
291
     0
 71
     0
176
     1
 72
     2
176
     1
 73
     0
176
     1
 90
        0
176
     1
 40
-0.6
176
     1
 41
-30.0
176
     1
 62
     5
 63
     7
421
 16777215
176
     1
 74
     1
176
     1
 91
        4
176
     1
 64
     7
176
     1
 65
   257
176
     1
 75
     1
176
     1
175
     1
176
     1
 42
1.0
176
     1
 92
        0
176
     1
 66
   257
176
     1
 43
1.0
176
     1
 76
     1
176
     1
 77
     6
176
     1
 78
     2
176
     1
 67
     7
176
     1
 79
     5
176
     1
170
     0
176
     1
171
     0
176
     1
290
     0
176
     1
 93
        1
176
     1
 44
0.0
176
     1
173
     0
176
     1
  0
VISUALSTYLE
  5
31
102
{ACAD_REACTORS
330
2A
102
}
330
2A
100
AcDbVisualStyle
  2
3D Hidden
 70
     6
177
     2
291
     0
 71
     1
176
     1
 72
     2
176
     1
 73
     2
176
     1
 90
        0
176
     1
 40
-0.6
176
     1
 41
-30.0
176
     1
 62
     5
 63
     7
421
 16777215
176
     1
 74
     2
176
     1
 91
        2
176
     1
 64
     7
176
     1
 65
   257
176
     1
 75
     2
176
     1
175
     1
176
     1
 42
40.0
176
     1
 92
        0
176
     1
 66
   257
176
     1
 43
1.0
176
     1
 76
     1
176
     1
 77
     6
176
     1
 78
     2
176
     1
 67
     7
176
     1
 79
     3
176
     1
170
     0
176
     1
171
     0
176
     1
290
     0
176
     1
 93
        1
176
     1
 44
0.0
176
     1
173
     0
176
     1
  0
VISUALSTYLE
  5
30
102
{ACAD_REACTORS
330
2A
102
}
330
2A
100
AcDbVisualStyle
  2
3dWireframe
 70
     5
177
     2
291
     0
 71
     0
176
     1
 72
     2
176
     1
 73
     0
176
     1
 90
        0
176
     1
 40
-0.6
176
     1
 41
-30.0
176
     1
 62
     5
 63
     7
421
 16777215
176
     1
 74
     1
176
     1
 91
        4
176
     1
 64
     7
176
     1
 65
   257
176
     1
 75
     1
176
     1
175
     1
176
     1
 42
1.0
176
     1
 92
        0
176
     1
 66
   257
176
     1
 43
1.0
176
     1
 76
     1
176
     1
 77
     6
176
     1
 78
     2
176
     1
 67
     7
176
     1
 79
     5
176
     1
170
     0
176
     1
171
     0
176
     1
290
     0
176
     1
 93
        1
176
     1
 44
0.0
176
     1
173
     0
176
     1
  0
VISUALSTYLE
  5
32
102
{ACAD_REACTORS
330
2A
102
}
330
2A
100
AcDbVisualStyle
  2
Basic
 70
     7
177
     2
291
     1
 71
     1
176
     1
 72
     0
176
     1
 73
     1
176
     1
 90
        0
176
     1
 40
-0.6
176
     1
 41
-30.0
176
     1
 62
     5
 63
     7
421
 16777215
176
     1
 74
     0
176
     1
 91
        4
176
     1
 64
     7
176
     1
 65
   257
176
     1
 75
     1
176
     1
175
     1
176
     1
 42
1.0
176
     1
 92
        8
176
     1
 66
     7
176
     1
 43
1.0
176
     1
 76
     1
176
     1
 77
     6
176
     1
 78
     2
176
     1
 67
     7
176
     1
 79
     5
176
     1
170
     0
176
     1
171
     0
176
     1
290
     0
176
     1
 93
        1
176
     1
 44
0.0
176
     1
173
     0
176
     1
  0
VISUALSTYLE
  5
36
102
{ACAD_REACTORS
330
2A
102
}
330
2A
100
AcDbVisualStyle
  2
Brighten
 70
    12
177
     2
291
     1
 71
     2
176
     1
 72
     2
176
     1
 73
     0
176
     1
 90
        0
176
     1
 40
-0.6
176
     1
 41
-30.0
176
     1
 62
     5
 63
     7
421
 16777215
176
     1
 74
     1
176
     1
 91
        4
176
     1
 64
     7
176
     1
 65
   257
176
     1
 75
     1
176
     1
175
     1
176
     1
 42
1.0
176
     1
 92
        8
176
     1
 66
     7
176
     1
 43
1.0
176
     1
 76
     1
176
     1
 77
     6
176
     1
 78
     2
176
     1
 67
     7
176
     1
 79
     5
176
     1
170
     0
176
     1
171
     0
176
     1
290
     0
176
     1
 93
        1
176
     1
 44
50.0
176
     1
173
     0
176
     1
  0
VISUALSTYLE
  5
3A
102
{ACAD_REACTORS
330
2A
102
}
330
2A
100
AcDbVisualStyle
  2
ColorChange
 70
    16
177
     2
291
     1
 71
     2
176
     1
 72
     2
176
     1
 73
     3
176
     1
 90
        0
176
     1
 40
-0.6
176
     1
 41
-30.0
176
     1
 62
     5
 63
     8
421
  8421504
176
     1
 74
     1
176
     1
 91
        4
176
     1
 64
     7
176
     1
 65
   257
176
     1
 75
     1
176
     1
175
     1
176
     1
 42
1.0
176
     1
 92
        8
176
     1
 66
     8
424
  8421504
176
     1
 43
1.0
176
     1
 76
     1
176
     1
 77
     6
176
     1
 78
     2
176
     1
 67
     7
176
     1
 79
     5
176
     1
170
     0
176
     1
171
     0
176
     1
290
     0
176
     1
 93
        1
176
     1
 44
0.0
176
     1
173
     0
176
     1
  0
VISUALSTYLE
  5
34
102
{ACAD_REACTORS
330
2A
102
}
330
2A
100
AcDbVisualStyle
  2
Conceptual
 70
     9
177
     2
291
     0
 71
     3
176
     1
 72
     2
176
     1
 73
     0
176
     1
 90
        0
176
     1
 40
-0.6
176
     1
 41
-30.0
176
     1
 62
     5
 63
     7
421
 16777215
176
     1
 74
     2
176
     1
 91
        2
176
     1
 64
     7
176
     1
 65
   257
176
     1
 75
     1
176
     1
175
     1
176
     1
 42
40.0
176
     1
 92
        8
176
     1
 66
     7
176
     1
 43
1.0
176
     1
 76
     1
176
     1
 77
     6
176
     1
 78
     2
176
     1
 67
     7
176
     1
 79
     3
176
     1
170
     0
176
     1
171
     0
176
     1
290
     0
176
     1
 93
        1
176
     1
 44
0.0
176
     1
173
     0
176
     1
  0
VISUALSTYLE
  5
35
102
{ACAD_REACTORS
330
2A
102
}
330
2A
100
AcDbVisualStyle
  2
Dim
 70
    11
177
     2
291
     1
 71
     2
176
     1
 72
     2
176
     1
 73
     0
176
     1
 90
        0
176
     1
 40
-0.6
176
     1
 41
-30.0
176
     1
 62
     5
 63
     7
421
 16777215
176
     1
 74
     1
176
     1
 91
        4
176
     1
 64
     7
176
     1
 65
   257
176
     1
 75
     1
176
     1
175
     1
176
     1
 42
1.0
176
     1
 92
        8
176
     1
 66
     7
176
     1
 43
1.0
176
     1
 76
     1
176
     1
 77
     6
176
     1
 78
     2
176
     1
 67
     7
176
     1
 79
     5
176
     1
170
     0
176
     1
171
     0
176
     1
290
     0
176
     1
 93
        1
176
     1
 44
-50.0
176
     1
173
     0
176
     1
  0
VISUALSTYLE
  5
39
102
{ACAD_REACTORS
330
2A
102
}
330
2A
100
AcDbVisualStyle
  2
Facepattern
 70
    15
177
     2
291
     1
 71
     2
176
     1
 72
     2
176
     1
 73
     0
176
     1
 90
        0
176
     1
 40
-0.6
176
     1
 41
-30.0
176
     1
 62
     5
 63
     7
421
 16777215
176
     1
 74
     1
176
     1
 91
        4
176
     1
 64
     7
176
     1
 65
   257
176
     1
 75
     1
176
     1
175
     1
176
     1
 42
1.0
176
     1
 92
        8
176
     1
 66
     7
176
     1
 43
1.0
176
     1
 76
     1
176
     1
 77
     6
176
     1
 78
     2
176
     1
 67
     7
176
     1
 79
     5
176
     1
170
     0
176
     1
171
     0
176
     1
290
     0
176
     1
 93
        1
176
     1
 44
0.0
176
     1
173
     0
176
     1
  0
VISUALSTYLE
  5
2B
102
{ACAD_REACTORS
330
2A
102
}
330
2A
100
AcDbVisualStyle
  2
Flat
 70
     0
177
     2
291
     1
 71
     2
176
     1
 72
     1
176
     1
 73
     1
176
     1
 90
        2
176
     1
 40
-0.6
176
     1
 41
30.0
176
     1
 62
     5
 63
     7
421
 16777215
176
     1
 74
     0
176
     1
 91
        4
176
     1
 64
     7
176
     1
 65
   257
176
     1
 75
     1
176
     1
175
     1
176
     1
 42
1.0
176
     1
 92
        8
176
     1
 66
     7
176
     1
 43
1.0
176
     1
 76
     1
176
     1
 77
     6
176
     1
 78
     2
176
     1
 67
     7
176
     1
 79
     5
176
     1
170
     0
176
     1
171
     0
176
     1
290
     0
176
     1
 93
       13
176
     1
 44
0.0
176
     1
173
     0
176
     1
  0
VISUALSTYLE
  5
2C
102
{ACAD_REACTORS
330
2A
102
}
330
2A
100
AcDbVisualStyle
  2
FlatWithEdges
 70
     1
177
     2
291
     1
 71
     2
176
     1
 72
     1
176
     1
 73
     1
176
     1
 90
        2
176
     1
 40
-0.6
176
     1
 41
30.0
176
     1
 62
     5
 63
     7
421
 16777215
176
     1
 74
     1
176
     1
 91
        4
176
     1
 64
     7
176
     1
 65
   257
176
     1
 75
     1
176
     1
175
     1
176
     1
 42
1.0
176
     1
 92
        0
176
     1
 66
   257
176
     1
 43
1.0
176
     1
 76
     1
176
     1
 77
     6
176
     1
 78
     2
176
     1
 67
     7
176
     1
 79
     5
176
     1
170
     0
176
     1
171
     0
176
     1
290
     0
176
     1
 93
       13
176
     1
 44
0.0
176
     1
173
     0
176
     1
  0
VISUALSTYLE
  5
2D
102
{ACAD_REACTORS
330
2A
102
}
330
2A
100
AcDbVisualStyle
  2
Gouraud
 70
     2
177
     2
291
     1
 71
     2
176
     1
 72
     2
176
     1
 73
     1
176
     1
 90
        2
176
     1
 40
-0.6
176
     1
 41
30.0
176
     1
 62
     5
 63
     7
421
 16777215
176
     1
 74
     0
176
     1
 91
        4
176
     1
 64
     7
176
     1
 65
   257
176
     1
 75
     1
176
     1
175
     1
176
     1
 42
1.0
176
     1
 92
        0
176
     1
 66
     7
176
     1
 43
1.0
176
     1
 76
     1
176
     1
 77
     6
176
     1
 78
     2
176
     1
 67
     7
176
     1
 79
     5
176
     1
170
     0
176
     1
171
     0
176
     1
290
     0
176
     1
 93
       13
176
     1
 44
0.0
176
     1
173
     0
176
     1
  0
VISUALSTYLE
  5
2E
102
{ACAD_REACTORS
330
2A
102
}
330
2A
100
AcDbVisualStyle
  2
GouraudWithEdges
 70
     3
177
     2
291
     1
 71
     2
176
     1
 72
     2
176
     1
 73
     1
176
     1
 90
        2
176
     1
 40
-0.6
176
     1
 41
30.0
176
     1
 62
     5
 63
     7
421
 16777215
176
     1
 74
     1
176
     1
 91
        4
176
     1
 64
     7
176
     1
 65
   257
176
     1
 75
     1
176
     1
175
     1
176
     1
 42
1.0
176
     1
 92
        0
176
     1
 66
   257
176
     1
 43
1.0
176
     1
 76
     1
176
     1
 77
     6
176
     1
 78
     2
176
     1
 67
     7
176
     1
 79
     5
176
     1
170
     0
176
     1
171
     0
176
     1
290
     0
176
     1
 93
       13
176
     1
 44
0.0
176
     1
173
     0
176
     1
  0
VISUALSTYLE
  5
38
102
{ACAD_REACTORS
330
2A
102
}
330
2A
100
AcDbVisualStyle
  2
Linepattern
 70
    14
177
     2
291
     1
 71
     2
176
     1
 72
     2
176
     1
 73
     0
176
     1
 90
        0
176
     1
 40
-0.6
176
     1
 41
-30.0
176
     1
 62
     5
 63
     7
421
 16777215
176
     1
 74
     1
176
     1
 91
        4
176
     1
 64
     7
176
     1
 65
   257
176
     1
 75
     7
176
     1
175
     7
176
     1
 42
1.0
176
     1
 92
        8
176
     1
 66
     7
176
     1
 43
1.0
176
     1
 76
     1
176
     1
 77
     6
176
     1
 78
     2
176
     1
 67
     7
176
     1
 79
     5
176
     1
170
     0
176
     1
171
     0
176
     1
290
     0
176
     1
 93
        1
176
     1
 44
0.0
176
     1
173
     0
176
     1
  0
VISUALSTYLE
  5
33
102
{ACAD_REACTORS
330
2A
102
}
330
2A
100
AcDbVisualStyle
  2
Realistic
 70
     8
177
     2
291
     0
 71
     2
176
     1
 72
     2
176
     1
 73
     0
176
     1
 90
        0
176
     1
 40
-0.6
176
     1
 41
-30.0
176
     1
 62
     5
 63
     7
421
 16777215
176
     1
 74
     1
176
     1
 91
        0
176
     1
 64
     7
176
     1
 65
   257
176
     1
 75
     1
176
     1
175
     1
176
     1
 42
1.0
176
     1
 92
        8
176
     1
 66
     8
424
  7895160
176
     1
 43
1.0
176
     1
 76
     1
176
     1
 77
     6
176
     1
 78
     2
176
     1
 67
     7
176
     1
 79
     5
176
     1
170
     0
176
     1
171
     0
176
     1
290
     0
176
     1
 93
       13
176
     1
 44
0.0
176
     1
173
     0
176
     1
  0
VISUALSTYLE
  5
37
102
{ACAD_REACTORS
330
2A
102
}
330
2A
100
AcDbVisualStyle
  2
Thicken
 70
    13
177
     2
291
     1
 71
     2
176
     1
 72
     2
176
     1
 73
     0
176
     1
 90
        0
176
     1
 40
-0.6
176
     1
 41
-30.0
176
     1
 62
     5
 63
     7
421
 16777215
176
     1
 74
     1
176
     1
 91
        4
176
     1
 64
     7
176
     1
 65
   257
176
     1
 75
     1
176
     1
175
     1
176
     1
 42
1.0
176
     1
 92
       12
176
     1
 66
     7
176
     1
 43
1.0
176
     1
 76
     1
176
     1
 77
     6
176
     1
 78
     2
176
     1
 67
     7
176
     1
 79
     5
176
     1
170
     0
176
     1
171
     0
176
     1
290
     0
176
     1
 93
        1
176
     1
 44
0.0
176
     1
173
     0
176
     1
  0
ENDSEC
  0
EOF
