  0
SECTION
  2
HEADER
  9
$ACADVER
  1
AC1024
  9
$ACADMAINTVER
 70
     6
  9
$DWGCODEPAGE
  3
ANSI_932
  9
$INSBASE
 10
0.0
 20
0.0
 30
0.0
  9
$EXTMIN
 10
-4455.0
 20
-3150.0
 30
0.0
  9
$EXTMAX
 10
4455.0
 20
3150.0
 30
0.0
  9
$LIMMIN
 10
-4455.0
 20
-3150.0
  9
$LIMMAX
 10
4455.0
 20
3150.0
  9
$ORTHOMODE
 70
     0
  9
$REGENMODE
 70
     1
  9
$FILLMODE
 70
     1
  9
$QTEXTMODE
 70
     0
  9
$MIRRTEXT
 70
     1
  9
$LTSCALE
 40
30.0
  9
$ATTMODE
 70
     1
  9
$TEXTSIZE
 40
2.5
  9
$TRACEWID
 40
1.0
  9
$TEXTSTYLE
  7
Standard
  9
$CLAYER
  8
0
  9
$CELTYPE
  6
ByLayer
  9
$CECOLOR
 62
   256
  9
$CELTSCALE
 40
1.0
  9
$DISPSILH
 70
     0
  9
$DIMSCALE
 40
1.0
  9
$DIMASZ
 40
2.5
  9
$DIMEXO
 40
0.625
  9
$DIMDLI
 40
3.75
  9
$DIMRND
 40
0.0
  9
$DIMDLE
 40
0.0
  9
$DIMEXE
 40
1.25
  9
$DIMTP
 40
0.0
  9
$DIMTM
 40
0.0
  9
$DIMTXT
 40
2.5
  9
$DIMCEN
 40
2.5
  9
$DIMTSZ
 40
0.0
  9
$DIMTOL
 70
     0
  9
$DIMLIM
 70
     0
  9
$DIMTIH
 70
     0
  9
$DIMTOH
 70
     0
  9
$DIMSE1
 70
     0
  9
$DIMSE2
 70
     0
  9
$DIMTAD
 70
     1
  9
$DIMZIN
 70
     8
  9
$DIMBLK
  1

  9
$DIMASO
 70
     1
  9
$DIMSHO
 70
     1
  9
$DIMPOST
  1

  9
$DIMAPOST
  1

  9
$DIMALT
 70
     0
  9
$DIMALTD
 70
     3
  9
$DIMALTF
 40
0.03937007874016
  9
$DIMLFAC
 40
1.0
  9
$DIMTOFL
 70
     1
  9
$DIMTVP
 40
0.0
  9
$DIMTIX
 70
     0
  9
$DIMSOXD
 70
     0
  9
$DIMSAH
 70
     0
  9
$DIMBLK1
  1

  9
$DIMBLK2
  1

  9
$DIMSTYLE
  2
ISO-25
  9
$DIMCLRD
 70
     0
  9
$DIMCLRE
 70
     0
  9
$DIMCLRT
 70
     0
  9
$DIMTFAC
 40
1.0
  9
$DIMGAP
 40
0.625
  9
$DIMJUST
 70
     0
  9
$DIMSD1
 70
     0
  9
$DIMSD2
 70
     0
  9
$DIMTOLJ
 70
     0
  9
$DIMTZIN
 70
     8
  9
$DIMALTZ
 70
     0
  9
$DIMALTTZ
 70
     0
  9
$DIMUPT
 70
     0
  9
$DIMDEC
 70
     2
  9
$DIMTDEC
 70
     2
  9
$DIMALTU
 70
     2
  9
$DIMALTTD
 70
     3
  9
$DIMTXSTY
  7
Standard
  9
$DIMAUNIT
 70
     0
  9
$DIMADEC
 70
     0
  9
$DIMALTRND
 40
0.0
  9
$DIMAZIN
 70
     0
  9
$DIMDSEP
 70
    44
  9
$DIMATFIT
 70
     3
  9
$DIMFRAC
 70
     0
  9
$DIMLDRBLK
  1

  9
$DIMLUNIT
 70
     2
  9
$DIMLWD
 70
    -2
  9
$DIMLWE
 70
    -2
  9
$DIMTMOVE
 70
     0
  9
$DIMFXL
 40
1.0
  9
$DIMFXLON
 70
     0
  9
$DIMJOGANG
 40
0.7853981633974483
  9
$DIMTFILL
 70
     0
  9
$DIMTFILLCLR
 70
     0
  9
$DIMARCSYM
 70
     0
  9
$DIMLTYPE
  6

  9
$DIMLTEX1
  6

  9
$DIMLTEX2
  6

  9
$DIMTXTDIRECTION
 70
     0
  9
$LUNITS
 70
     2
  9
$LUPREC
 70
     4
  9
$SKETCHINC
 40
1.0
  9
$FILLETRAD
 40
10.0
  9
$AUNITS
 70
     0
  9
$AUPREC
 70
     0
  9
$MENU
  1
.
  9
$ELEVATION
 40
0.0
  9
$PELEVATION
 40
0.0
  9
$THICKNESS
 40
0.0
  9
$LIMCHECK
 70
     0
  9
$CHAMFERA
 40
10.0
  9
$CHAMFERB
 40
10.0
  9
$CHAMFERC
 40
20.0
  9
$CHAMFERD
 40
0.0
  9
$SKPOLY
 70
     0
  9
$TDCREATE
 40
2457913.543755405
  9
$TDUCREATE
 40
2457913.168755405
  9
$TDUPDATE
 40
2457913.543755417
  9
$TDUUPDATE
 40
2457913.168755417
  9
$TDINDWG
 40
0.0000000116
  9
$TDUSRTIMER
 40
0.0000000116
  9
$USRTIMER
 70
     1
  9
$ANGBASE
 50
0.0
  9
$ANGDIR
 70
     0
  9
$PDMODE
 70
     0
  9
$PDSIZE
 40
0.0
  9
$PLINEWID
 40
0.0
  9
$SPLFRAME
 70
     0
  9
$SPLINETYPE
 70
     6
  9
$SPLINESEGS
 70
     8
  9
$HANDSEED
  5
28E
  9
$SURFTAB1
 70
     6
  9
$SURFTAB2
 70
     6
  9
$SURFTYPE
 70
     6
  9
$SURFU
 70
     6
  9
$SURFV
 70
     6
  9
$UCSBASE
  2

  9
$UCSNAME
  2

  9
$UCSORG
 10
0.0
 20
0.0
 30
0.0
  9
$UCSXDIR
 10
1.0
 20
0.0
 30
0.0
  9
$UCSYDIR
 10
0.0
 20
1.0
 30
0.0
  9
$UCSORTHOREF
  2

  9
$UCSORTHOVIEW
 70
     0
  9
$UCSORGTOP
 10
0.0
 20
0.0
 30
0.0
  9
$UCSORGBOTTOM
 10
0.0
 20
0.0
 30
0.0
  9
$UCSORGLEFT
 10
0.0
 20
0.0
 30
0.0
  9
$UCSORGRIGHT
 10
0.0
 20
0.0
 30
0.0
  9
$UCSORGFRONT
 10
0.0
 20
0.0
 30
0.0
  9
$UCSORGBACK
 10
0.0
 20
0.0
 30
0.0
  9
$PUCSBASE
  2

  9
$PUCSNAME
  2

  9
$PUCSORG
 10
0.0
 20
0.0
 30
0.0
  9
$PUCSXDIR
 10
1.0
 20
0.0
 30
0.0
  9
$PUCSYDIR
 10
0.0
 20
1.0
 30
0.0
  9
$PUCSORTHOREF
  2

  9
$PUCSORTHOVIEW
 70
     0
  9
$PUCSORGTOP
 10
0.0
 20
0.0
 30
0.0
  9
$PUCSORGBOTTOM
 10
0.0
 20
0.0
 30
0.0
  9
$PUCSORGLEFT
 10
0.0
 20
0.0
 30
0.0
  9
$PUCSORGRIGHT
 10
0.0
 20
0.0
 30
0.0
  9
$PUCSORGFRONT
 10
0.0
 20
0.0
 30
0.0
  9
$PUCSORGBACK
 10
0.0
 20
0.0
 30
0.0
  9
$USERI1
 70
     0
  9
$USERI2
 70
     0
  9
$USERI3
 70
     0
  9
$USERI4
 70
     0
  9
$USERI5
 70
     0
  9
$USERR1
 40
0.0
  9
$USERR2
 40
0.0
  9
$USERR3
 40
0.0
  9
$USERR4
 40
0.0
  9
$USERR5
 40
0.0
  9
$WORLDVIEW
 70
     1
  9
$SHADEDGE
 70
     3
  9
$SHADEDIF
 70
    70
  9
$TILEMODE
 70
     1
  9
$MAXACTVP
 70
    64
  9
$PINSBASE
 10
0.0
 20
0.0
 30
0.0
  9
$PLIMCHECK
 70
     0
  9
$PEXTMIN
 10
1.000000000000000E+20
 20
1.000000000000000E+20
 30
1.000000000000000E+20
  9
$PEXTMAX
 10
-1.000000000000000E+20
 20
-1.000000000000000E+20
 30
-1.000000000000000E+20
  9
$PLIMMIN
 10
0.0
 20
0.0
  9
$PLIMMAX
 10
420.0
 20
297.0
  9
$UNITMODE
 70
     0
  9
$VISRETAIN
 70
     1
  9
$PLINEGEN
 70
     0
  9
$PSLTSCALE
 70
     1
  9
$TREEDEPTH
 70
  3020
  9
$CMLSTYLE
  2
Standard
  9
$CMLJUST
 70
     0
  9
$CMLSCALE
 40
20.0
  9
$PROXYGRAPHICS
 70
     1
  9
$MEASUREMENT
 70
     1
  9
$CELWEIGHT
370
    -1
  9
$ENDCAPS
280
     0
  9
$JOINSTYLE
280
     0
  9
$LWDISPLAY
290
     0
  9
$INSUNITS
 70
     4
  9
$HYPERLINKBASE
  1

  9
$STYLESHEET
  1

  9
$XEDIT
290
     1
  9
$CEPSNTYPE
380
     0
  9
$PSTYLEMODE
290
     1
  9
$FINGERPRINTGUID
  2
{242AC1EF-7422-47F0-A8FA-FF8A8AF33210}
  9
$VERSIONGUID
  2
{FAEB1C32-E019-11D5-929B-00C0DF256EC4}
  9
$EXTNAMES
290
     1
  9
$PSVPSCALE
 40
0.0
  9
$OLESTARTUP
290
     0
  9
$SORTENTS
280
   127
  9
$INDEXCTL
280
     0
  9
$HIDETEXT
280
     1
  9
$XCLIPFRAME
280
     2
  9
$HALOGAP
280
     0
  9
$OBSCOLOR
 70
   257
  9
$OBSLTYPE
280
     0
  9
$INTERSECTIONDISPLAY
280
     0
  9
$INTERSECTIONCOLOR
 70
   257
  9
$DIMASSOC
280
     2
  9
$PROJECTNAME
  1

  9
$CAMERADISPLAY
290
     0
  9
$LENSLENGTH
 40
50.0
  9
$CAMERAHEIGHT
 40
0.0
  9
$STEPSPERSEC
 40
2.0
  9
$STEPSIZE
 40
6.0
  9
$3DDWFPREC
 40
2.0
  9
$PSOLWIDTH
 40
5.0
  9
$PSOLHEIGHT
 40
80.0
  9
$LOFTANG1
 40
1.570796326794897
  9
$LOFTANG2
 40
1.570796326794897
  9
$LOFTMAG1
 40
0.0
  9
$LOFTMAG2
 40
0.0
  9
$LOFTPARAM
 70
     7
  9
$LOFTNORMALS
280
     1
  9
$LATITUDE
 40
37.795
  9
$LONGITUDE
 40
-122.394
  9
$NORTHDIRECTION
 40
0.0
  9
$TIMEZONE
 70
 -8000
  9
$LIGHTGLYPHDISPLAY
280
     1
  9
$TILEMODELIGHTSYNCH
280
     1
  9
$SOLIDHIST
280
     1
  9
$SHOWHIST
280
     1
  9
$DWFFRAME
280
     2
  9
$DGNFRAME
280
     2
  9
$REALWORLDSCALE
290
     1
  9
$INTERFERECOLOR
 62
   256
  9
$CSHADOW
280
     0
  9
$SHADOWPLANELOCATION
 40
0.0
  0
ENDSEC
  0
SECTION
  2
CLASSES
  0
CLASS
  1
ACDBDICTIONARYWDFLT
  2
AcDbDictionaryWithDefault
  3
ObjectDBX Classes
 90
        0
 91
        4
280
     0
281
     0
  0
CLASS
  1
VISUALSTYLE
  2
AcDbVisualStyle
  3
ObjectDBX Classes
 90
     4095
 91
        4
280
     0
281
     0
  0
CLASS
  1
MATERIAL
  2
AcDbMaterial
  3
ObjectDBX Classes
 90
     1153
 91
        4
280
     0
281
     0
  0
ENDSEC
  0
SECTION
  2
TABLES
  0
TABLE
  2
VPORT
  5
8
330
0
100
AcDbSymbolTable
 70
     1
  0
VPORT
  5
29
330
8
100
AcDbSymbolTableRecord
100
AcDbViewportTableRecord
  2
*Active
 70
     0
 10
0.0
 20
0.0
 11
1.0
 21
1.0
 12
0.0
 22
0.0
 13
0.0
 23
0.0
 14
10.0
 24
10.0
 15
10.0
 25
10.0
 16
0.0
 26
0.0
 36
1.0
 17
0.0
 27
0.0
 37
0.0
 40
6930.000000000001
 41
1.414285714285714
 42
50.0
 43
0.0
 44
0.0
 50
0.0
 51
0.0
 71
     0
 72
 10000
 73
     1
 74
     3
 75
     0
 76
     0
 77
     0
 78
     0
281
     0
 65
     1
110
0.0
120
0.0
130
0.0
111
1.0
121
0.0
131
0.0
112
0.0
122
1.0
132
0.0
 79
     0
146
0.0
 60
     3
 61
     5
292
     1
282
     1
141
0.0
142
0.0
 63
   250
  0
ENDTAB
  0
TABLE
  2
LTYPE
  5
5
330
0
100
AcDbSymbolTable
 70
     2
  0
LTYPE
  5
14
330
5
100
AcDbSymbolTableRecord
100
AcDbLinetypeTableRecord
  2
ByBlock
 70
     0
  3

 72
    65
 73
     0
 40
0.0
  0
LTYPE
  5
15
330
5
100
AcDbSymbolTableRecord
100
AcDbLinetypeTableRecord
  2
ByLayer
 70
     0
  3

 72
    65
 73
     0
 40
0.0
  0
LTYPE
  5
16
330
5
100
AcDbSymbolTableRecord
100
AcDbLinetypeTableRecord
  2
Continuous
 70
     0
  3
Solid line
 72
    65
 73
     0
 40
0.0
  0
LTYPE
  5
3F
330
5
100
AcDbSymbolTableRecord
100
AcDbLinetypeTableRecord
  2
JWW_DASHED1
 70
     0
  3
-  --  --  --  --  --  --  --  -
 72
    65
 73
     2
 40
1.693333333333333
 49
0.8466666666666667
 74
     0
 49
-0.8466666666666667
 74
     0
  0
ENDTAB
  0
TABLE
  2
LAYER
  5
2
330
0
100
AcDbSymbolTable
 70
     3
  0
LAYER
  5
10
330
2
100
AcDbSymbolTableRecord
100
AcDbLayerTableRecord
  2
0
 70
     0
 62
     7
  6
Continuous
370
    -3
390
F
347
3E
  0
LAYER
  5
40
330
2
100
AcDbSymbolTableRecord
100
AcDbLayerTableRecord
  2
0-0
 70
     0
 62
     7
  6
Continuous
370
    -3
390
F
347
3E
  0
LAYER
  5
41
330
2
100
AcDbSymbolTableRecord
100
AcDbLayerTableRecord
  2
寸法
 70
     0
 62
     7
  6
Continuous
370
    -3
390
F
347
3E
  0
ENDTAB
  0
TABLE
  2
STYLE
  5
3
330
0
100
AcDbSymbolTable
 70
     1
  0
STYLE
  5
11
330
3
100
AcDbSymbolTableRecord
100
AcDbTextStyleTableRecord
  2
Standard
 70
     0
 40
0.0
 41
1.0
 50
0.0
 71
     0
 42
2.5
  3
txt
  4

  0
ENDTAB
  0
TABLE
  2
VIEW
  5
6
330
0
100
AcDbSymbolTable
 70
     0
  0
ENDTAB
  0
TABLE
  2
UCS
  5
7
330
0
100
AcDbSymbolTable
 70
     0
  0
ENDTAB
  0
TABLE
  2
APPID
  5
9
330
0
100
AcDbSymbolTable
 70
     1
  0
APPID
  5
12
330
9
100
AcDbSymbolTableRecord
100
AcDbRegAppTableRecord
  2
ACAD
 70
     0
  0
ENDTAB
  0
TABLE
  2
DIMSTYLE
  5
A
330
0
100
AcDbSymbolTable
 70
     1
100
AcDbDimStyleTable
  0
DIMSTYLE
105
27
330
A
100
AcDbSymbolTableRecord
100
AcDbDimStyleTableRecord
  2
ISO-25
 70
     0
 41
2.5
 42
0.625
 43
3.75
 44
1.25
 73
     0
 74
     0
 77
     1
 78
     8
140
2.5
141
2.5
143
0.03937007874016
147
0.625
171
     3
172
     1
178
     0
271
     2
272
     2
274
     3
278
    44
283
     0
284
     8
340
11
  0
ENDTAB
  0
TABLE
  2
BLOCK_RECORD
  5
1
330
0
100
AcDbSymbolTable
 70
     1
  0
BLOCK_RECORD
  5
1F
330
1
100
AcDbSymbolTableRecord
100
AcDbBlockTableRecord
  2
*Model_Space
340
22
 70
     0
280
     1
281
     0
  0
BLOCK_RECORD
  5
1B
330
1
100
AcDbSymbolTableRecord
100
AcDbBlockTableRecord
  2
*Paper_Space
340
1E
 70
     0
280
     1
281
     0
  0
BLOCK_RECORD
  5
23
330
1
100
AcDbSymbolTableRecord
100
AcDbBlockTableRecord
  2
*Paper_Space0
340
26
 70
     0
280
     1
281
     0
  0
ENDTAB
  0
ENDSEC
  0
SECTION
  2
BLOCKS
  0
BLOCK
  5
20
330
1F
100
AcDbEntity
  8
0
100
AcDbBlockBegin
  2
*Model_Space
 70
     0
 10
0.0
 20
0.0
 30
0.0
  3
*Model_Space
  1

  0
ENDBLK
  5
21
330
1F
100
AcDbEntity
  8
0
100
AcDbBlockEnd
  0
BLOCK
  5
1C
330
1B
100
AcDbEntity
 67
     1
  8
0
100
AcDbBlockBegin
  2
*Paper_Space
 70
     0
 10
0.0
 20
0.0
 30
0.0
  3
*Paper_Space
  1

  0
ENDBLK
  5
1D
330
1B
100
AcDbEntity
 67
     1
  8
0
100
AcDbBlockEnd
  0
BLOCK
  5
24
330
23
100
AcDbEntity
  8
0
100
AcDbBlockBegin
  2
*Paper_Space0
 70
     0
 10
0.0
 20
0.0
 30
0.0
  3
*Paper_Space0
  1

  0
ENDBLK
  5
25
330
23
100
AcDbEntity
  8
0
100
AcDbBlockEnd
  0
ENDSEC
  0
SECTION
  2
ENTITIES
  0
ARC
  5
42
330
1F
100
AcDbEntity
  8
0-0
  6
Continuous
 62
    92
370
    13
100
AcDbCircle
 10
-671.0062661171748
 20
12.77407722419394
 30
0.0
 40
1.5
100
AcDbArc
 50
90.0
 51
180.0
  0
LINE
  5
43
330
1F
100
AcDbEntity
  8
0-0
  6
Continuous
 62
    92
370
    13
100
AcDbLine
 10
-632.0062661171728
 20
14.27407722419343
 30
0.0
 11
-671.0062661171748
 21
14.27407722419343
 31
0.0
  0
ARC
  5
44
330
1F
100
AcDbEntity
  8
0-0
  6
Continuous
 62
    92
370
    13
100
AcDbCircle
 10
-632.0062661171728
 20
12.77407722419394
 30
0.0
 40
1.5
100
AcDbArc
 50
0.0
 51
90.00000000000001
  0
LINE
  5
45
330
1F
100
AcDbEntity
  8
0-0
  6
Continuous
 62
    92
370
    13
100
AcDbLine
 10
-630.5062661171742
 20
-106.2259227758061
 30
0.0
 11
-630.5062661171742
 21
12.77407722419394
 31
0.0
  0
ARC
  5
46
330
1F
100
AcDbEntity
  8
0-0
  6
Continuous
 62
    92
370
    13
100
AcDbCircle
 10
-632.0062661171728
 20
-106.2259227758061
 30
0.0
 40
1.5
100
AcDbArc
 50
270.0
 51
0.0
  0
LINE
  5
47
330
1F
100
AcDbEntity
  8
0-0
  6
Continuous
 62
    92
370
    13
100
AcDbLine
 10
-671.0062661171748
 20
-107.725922775806
 30
0.0
 11
-632.0062661171728
 21
-107.725922775806
 31
0.0
  0
LINE
  5
48
330
1F
100
AcDbEntity
  8
0-0
  6
Continuous
 62
    92
370
    13
100
AcDbLine
 10
-672.5062661171735
 20
-106.2259227758061
 30
0.0
 11
-672.5062661171735
 21
12.77407722419394
 31
0.0
  0
ARC
  5
49
330
1F
100
AcDbEntity
  8
0-0
  6
Continuous
 62
    92
370
    13
100
AcDbCircle
 10
-671.0062661171748
 20
-106.2259227758061
 30
0.0
 40
1.5
100
AcDbArc
 50
180.0
 51
270.0
  0
ARC
  5
4A
330
1F
100
AcDbEntity
  8
0-0
  6
Continuous
 62
     7
370
     9
100
AcDbCircle
 10
-651.5062661171738
 20
-76.32592277580602
 30
0.0
 40
15.0
100
AcDbArc
 50
180.0
 51
0.0
  0
ARC
  5
4B
330
1F
100
AcDbEntity
  8
0-0
  6
Continuous
 62
     7
370
     9
100
AcDbCircle
 10
-651.5062661171738
 20
-17.12592277580615
 30
0.0
 40
15.0
100
AcDbArc
 50
0.0
 51
180.0
  0
LINE
  5
4C
330
1F
100
AcDbEntity
  8
0-0
  6
Continuous
 62
     7
370
     9
100
AcDbLine
 10
-636.5062661171738
 20
-76.32592277580602
 30
0.0
 11
-636.5062661171738
 21
-17.12592277580615
 31
0.0
  0
LINE
  5
4D
330
1F
100
AcDbEntity
  8
0-0
  6
Continuous
 62
     7
370
     9
100
AcDbLine
 10
-666.5062661171738
 20
-17.12592277580615
 30
0.0
 11
-666.5062661171738
 21
-76.32592277580602
 31
0.0
  0
LINE
  5
4E
330
1F
100
AcDbEntity
  8
0-0
  6
JWW_DASHED1
 62
   120
370
     5
100
AcDbLine
 10
-702.5062661171735
 20
-1004.225922775806
 30
0.0
 11
-699.5062661171728
 21
-1004.225922775806
 31
0.0
  0
LINE
  5
4F
330
1F
100
AcDbEntity
  8
0-0
  6
Continuous
 62
    92
370
    13
100
AcDbLine
 10
884.4937338828258
 20
-1004.021143782969
 30
0.0
 11
884.4937338828258
 21
-1003.688157973311
 31
0.0
  0
ARC
  5
50
330
1F
100
AcDbEntity
  8
0-0
  6
Continuous
 62
    92
370
    13
100
AcDbCircle
 10
816.9937338828258
 20
12.77407722419394
 30
0.0
 40
1.5
100
AcDbArc
 50
90.0
 51
180.0
  0
LINE
  5
51
330
1F
100
AcDbEntity
  8
0-0
  6
Continuous
 62
    92
370
    13
100
AcDbLine
 10
855.9937338828279
 20
14.27407722419343
 30
0.0
 11
816.9937338828258
 21
14.27407722419343
 31
0.0
  0
ARC
  5
52
330
1F
100
AcDbEntity
  8
0-0
  6
Continuous
 62
    92
370
    13
100
AcDbCircle
 10
855.9937338828279
 20
12.77407722419394
 30
0.0
 40
1.5
100
AcDbArc
 50
0.0
 51
90.00000000000001
  0
LINE
  5
53
330
1F
100
AcDbEntity
  8
0-0
  6
Continuous
 62
    92
370
    13
100
AcDbLine
 10
857.4937338828265
 20
-106.2259227758061
 30
0.0
 11
857.4937338828265
 21
12.77407722419394
 31
0.0
  0
ARC
  5
54
330
1F
100
AcDbEntity
  8
0-0
  6
Continuous
 62
    92
370
    13
100
AcDbCircle
 10
855.9937338828279
 20
-106.2259227758061
 30
0.0
 40
1.5
100
AcDbArc
 50
270.0
 51
0.0
  0
LINE
  5
55
330
1F
100
AcDbEntity
  8
0-0
  6
Continuous
 62
    92
370
    13
100
AcDbLine
 10
816.9937338828258
 20
-107.725922775806
 30
0.0
 11
855.9937338828279
 21
-107.725922775806
 31
0.0
  0
LINE
  5
56
330
1F
100
AcDbEntity
  8
0-0
  6
Continuous
 62
    92
370
    13
100
AcDbLine
 10
815.4937338828255
 20
-106.2259227758061
 30
0.0
 11
815.4937338828255
 21
12.77407722419394
 31
0.0
  0
ARC
  5
57
330
1F
100
AcDbEntity
  8
0-0
  6
Continuous
 62
    92
370
    13
100
AcDbCircle
 10
816.9937338828258
 20
-106.2259227758061
 30
0.0
 40
1.5
100
AcDbArc
 50
180.0
 51
270.0
  0
ARC
  5
58
330
1F
100
AcDbEntity
  8
0-0
  6
Continuous
 62
     7
370
     9
100
AcDbCircle
 10
836.4937338828269
 20
-76.32592277580602
 30
0.0
 40
15.0
100
AcDbArc
 50
180.0
 51
0.0
  0
ARC
  5
59
330
1F
100
AcDbEntity
  8
0-0
  6
Continuous
 62
     7
370
     9
100
AcDbCircle
 10
836.4937338828269
 20
-17.12592277580615
 30
0.0
 40
15.0
100
AcDbArc
 50
0.0
 51
180.0
  0
LINE
  5
5A
330
1F
100
AcDbEntity
  8
0-0
  6
Continuous
 62
     7
370
     9
100
AcDbLine
 10
851.4937338828269
 20
-76.32592277580602
 30
0.0
 11
851.4937338828269
 21
-17.12592277580615
 31
0.0
  0
LINE
  5
5B
330
1F
100
AcDbEntity
  8
0-0
  6
Continuous
 62
     7
370
     9
100
AcDbLine
 10
821.4937338828269
 20
-17.12592277580615
 30
0.0
 11
821.4937338828269
 21
-76.32592277580602
 31
0.0
  0
LINE
  5
5C
330
1F
100
AcDbEntity
  8
0-0
  6
JWW_DASHED1
 62
   120
370
     5
100
AcDbLine
 10
887.4937338828265
 20
-1004.225922775806
 30
0.0
 11
884.4937338828258
 21
-1004.225922775806
 31
0.0
  0
LINE
  5
5D
330
1F
100
AcDbEntity
  8
0-0
  6
Continuous
 62
    92
370
    13
100
AcDbLine
 10
-699.5062661171728
 20
-1004.225922775806
 30
0.0
 11
884.4937338828258
 21
-1004.225922775806
 31
0.0
  0
LINE
  5
5E
330
1F
100
AcDbEntity
  8
0-0
  6
Continuous
 62
    92
370
    13
100
AcDbLine
 10
-699.5062661171728
 20
1192.774077224195
 30
0.0
 11
884.4937338828258
 21
1192.774077224195
 31
0.0
  0
LINE
  5
5F
330
1F
100
AcDbEntity
  8
0-0
  6
Continuous
 62
    92
370
    13
100
AcDbLine
 10
-729.5062661171728
 20
-1012.725922775806
 30
0.0
 11
-729.5062661171728
 21
1222.774077224195
 31
0.0
  0
LINE
  5
60
330
1F
100
AcDbEntity
  8
0-0
  6
JWW_DASHED1
 62
   120
370
     5
100
AcDbLine
 10
-702.5062661171735
 20
1178.774077224194
 30
0.0
 11
-702.5062661171735
 21
-1004.225922775806
 31
0.0
  0
LINE
  5
61
330
1F
100
AcDbEntity
  8
0-0
  6
JWW_DASHED1
 62
   120
370
     5
100
AcDbLine
 10
-699.5062661171728
 20
1178.774077224194
 30
0.0
 11
-702.5062661171735
 21
1178.774077224194
 31
0.0
  0
LINE
  5
62
330
1F
100
AcDbEntity
  8
0-0
  6
Continuous
 62
    92
370
    13
100
AcDbLine
 10
914.4937338828258
 20
-1012.725922775806
 30
0.0
 11
914.4937338828258
 21
1222.774077224195
 31
0.0
  0
LINE
  5
63
330
1F
100
AcDbEntity
  8
0-0
  6
Continuous
 62
    92
370
    13
100
AcDbLine
 10
884.4937338828258
 20
-1003.688157973311
 30
0.0
 11
884.4937338828258
 21
1222.774077224195
 31
0.0
  0
LINE
  5
64
330
1F
100
AcDbEntity
  8
0-0
  6
Continuous
 62
    92
370
    13
100
AcDbLine
 10
-729.5062661171728
 20
1222.774077224195
 30
0.0
 11
914.4937338828258
 21
1222.774077224195
 31
0.0
  0
LINE
  5
65
330
1F
100
AcDbEntity
  8
0-0
  6
JWW_DASHED1
 62
   120
370
     5
100
AcDbLine
 10
887.4937338828265
 20
1178.774077224194
 30
0.0
 11
887.4937338828265
 21
-1004.225922775806
 31
0.0
  0
LINE
  5
66
330
1F
100
AcDbEntity
  8
0-0
  6
JWW_DASHED1
 62
   120
370
     5
100
AcDbLine
 10
884.4937338828258
 20
1178.774077224194
 30
0.0
 11
887.4937338828265
 21
1178.774077224194
 31
0.0
  0
LINE
  5
67
330
1F
100
AcDbEntity
  8
0-0
  6
Continuous
 62
    92
370
    13
100
AcDbLine
 10
77.49373388282659
 20
-1004.225922775806
 30
0.0
 11
77.49373388282659
 21
1178.774077224194
 31
0.0
  0
LINE
  5
68
330
1F
100
AcDbEntity
  8
0-0
  6
JWW_DASHED1
 62
   120
370
     5
100
AcDbLine
 10
107.4937338828283
 20
-1004.225922775806
 30
0.0
 11
107.4937338828283
 21
1178.774077224194
 31
0.0
  0
LINE
  5
69
330
1F
100
AcDbEntity
  8
0-0
  6
Continuous
 62
    92
370
    13
100
AcDbLine
 10
884.4937338828258
 20
1178.774077224194
 30
0.0
 11
-699.5062661171728
 21
1178.774077224194
 31
0.0
  0
LINE
  5
6A
330
1F
100
AcDbEntity
  8
0-0
  6
Continuous
 62
    92
370
    13
100
AcDbLine
 10
-699.5062661171728
 20
-1012.725922775806
 30
0.0
 11
-699.5062661171728
 21
1222.774077224195
 31
0.0
  0
LINE
  5
6B
330
1F
100
AcDbEntity
  8
0-0
  6
Continuous
 62
    92
370
    13
100
AcDbLine
 10
-699.5062661171728
 20
-1012.725922775806
 30
0.0
 11
-729.5062661171728
 21
-1012.725922775806
 31
0.0
  0
LINE
  5
6C
330
1F
100
AcDbEntity
  8
0-0
  6
Continuous
 62
    92
370
    13
100
AcDbLine
 10
914.4937338828258
 20
-1012.725922775806
 30
0.0
 11
884.4937338828258
 21
-1012.725922775806
 31
0.0
  0
LINE
  5
6D
330
1F
100
AcDbEntity
  8
0-0
  6
Continuous
 62
    92
370
    13
100
AcDbLine
 10
884.4937338828258
 20
-1012.725922775806
 30
0.0
 11
884.4937338828258
 21
-1004.021143782969
 31
0.0
  0
LINE
  5
6E
330
1F
100
AcDbEntity
  8
0-0
  6
Continuous
 62
    92
370
    13
100
AcDbLine
 10
777.493733882826
 20
-863.2259227758065
 30
0.0
 11
187.4937338828271
 21
-863.2259227758065
 31
0.0
  0
LINE
  5
6F
330
1F
100
AcDbEntity
  8
0-0
  6
Continuous
 62
    92
370
    13
100
AcDbLine
 10
-2.506266117172276
 20
-863.2259227758065
 30
0.0
 11
-592.5062661171746
 21
-863.2259227758065
 31
0.0
  0
LINE
  5
70
330
1F
100
AcDbEntity
  8
0-0
  6
Continuous
 62
    92
370
    13
100
AcDbLine
 10
-592.5062661171746
 20
1043.774077224194
 30
0.0
 11
-2.506266117172276
 21
1043.774077224194
 31
0.0
  0
LINE
  5
71
330
1F
100
AcDbEntity
  8
0-0
  6
Continuous
 62
    92
370
    13
100
AcDbLine
 10
187.4937338828271
 20
1043.774077224194
 30
0.0
 11
777.493733882826
 21
1043.774077224194
 31
0.0
  0
LINE
  5
72
330
1F
100
AcDbEntity
  8
0-0
  6
Continuous
 62
    92
370
    13
100
AcDbLine
 10
777.493733882826
 20
-1004.225922775807
 30
0.0
 11
777.493733882826
 21
1178.774077224194
 31
0.0
  0
LINE
  5
73
330
1F
100
AcDbEntity
  8
0-0
  6
Continuous
 62
    92
370
    13
100
AcDbLine
 10
-592.5062661171746
 20
-1004.225922775807
 30
0.0
 11
-592.5062661171746
 21
1178.774077224194
 31
0.0
  0
LINE
  5
74
330
1F
100
AcDbEntity
  8
0-0
  6
Continuous
 62
    92
370
    13
100
AcDbLine
 10
-2.506266117172276
 20
-1004.225922775807
 30
0.0
 11
-2.506266117172276
 21
1178.774077224194
 31
0.0
  0
LINE
  5
75
330
1F
100
AcDbEntity
  8
0-0
  6
Continuous
 62
    92
370
    13
100
AcDbLine
 10
187.4937338828271
 20
1178.774077224194
 30
0.0
 11
187.4937338828271
 21
-1004.225922775807
 31
0.0
  0
LINE
  5
76
330
1F
100
AcDbEntity
  8
0-0
  6
JWW_DASHED1
 62
   120
370
     5
100
AcDbLine
 10
-592.5062661171729
 20
460.7493900647605
 30
0.0
 11
-9.48157895775073
 21
1043.774077224182
 31
0.0
  0
LINE
  5
77
330
1F
100
AcDbEntity
  8
0-0
  6
JWW_DASHED1
 62
   120
370
     5
100
AcDbLine
 10
-592.5062661171814
 20
470.6488849999683
 30
0.0
 11
-19.38107389295855
 21
1043.774077224191
 31
0.0
  0
LINE
  5
78
330
1F
100
AcDbEntity
  8
0-0
  6
JWW_DASHED1
 62
   120
370
     5
100
AcDbLine
 10
-592.50626611719
 20
480.5483799351762
 30
0.0
 11
-29.28056882816638
 21
1043.774077224199
 31
0.0
  0
LINE
  5
79
330
1F
100
AcDbEntity
  8
0-0
  6
JWW_DASHED1
 62
   120
370
     5
100
AcDbLine
 10
-592.5062661171703
 20
490.4478748703575
 30
0.0
 11
-39.18006376333499
 21
1043.774077224193
 31
0.0
  0
LINE
  5
7A
330
1F
100
AcDbEntity
  8
0-0
  6
JWW_DASHED1
 62
   120
370
     5
100
AcDbLine
 10
-592.5062661171788
 20
500.3473698055653
 30
0.0
 11
-49.07955869855645
 21
1043.774077224188
 31
0.0
  0
LINE
  5
7B
330
1F
100
AcDbEntity
  8
0-0
  6
JWW_DASHED1
 62
   120
370
     5
100
AcDbLine
 10
-592.5062661171712
 20
510.2468647407345
 30
0.0
 11
-58.97905363370801
 21
1043.774077224198
 31
0.0
  0
LINE
  5
7C
330
1F
100
AcDbEntity
  8
0-0
  6
JWW_DASHED1
 62
   120
370
     5
100
AcDbLine
 10
-592.5062661171678
 20
520.1463596759542
 30
0.0
 11
-68.87854856893118
 21
1043.774077224191
 31
0.0
  0
LINE
  5
7D
330
1F
100
AcDbEntity
  8
0-0
  6
JWW_DASHED1
 62
   120
370
     5
100
AcDbLine
 10
-592.5062661171763
 20
530.0458546111624
 30
0.0
 11
-78.7780435041518
 21
1043.774077224187
 31
0.0
  0
LINE
  5
7E
330
1F
100
AcDbEntity
  8
0-0
  6
JWW_DASHED1
 62
   120
370
     5
100
AcDbLine
 10
-592.506266117189
 20
539.9453495463115
 30
0.0
 11
-88.67753843930079
 21
1043.7740772242
 31
0.0
  0
LINE
  5
7F
330
1F
100
AcDbEntity
  8
0-0
  6
JWW_DASHED1
 62
   120
370
     5
100
AcDbLine
 10
-592.5062661171661
 20
549.8448444815508
 30
0.0
 11
-98.57703337452908
 21
1043.774077224188
 31
0.0
  0
LINE
  5
80
330
1F
100
AcDbEntity
  8
0-0
  6
JWW_DASHED1
 62
   120
370
     5
100
AcDbLine
 10
-592.5062661171737
 20
559.7443394167595
 30
0.0
 11
-108.4765283097488
 21
1043.774077224185
 31
0.0
  0
LINE
  5
81
330
1F
100
AcDbEntity
  8
0-0
  6
JWW_DASHED1
 62
   120
370
     5
100
AcDbLine
 10
-592.5062661171866
 20
569.6438343519085
 30
0.0
 11
-118.376023244897
 21
1043.774077224198
 31
0.0
  0
LINE
  5
82
330
1F
100
AcDbEntity
  8
0-0
  6
JWW_DASHED1
 62
   120
370
     5
100
AcDbLine
 10
-592.5062661171746
 20
579.5433292871363
 30
0.0
 11
-128.2755181801099
 21
1043.774077224201
 31
0.0
  0
LINE
  5
83
330
1F
100
AcDbEntity
  8
0-0
  6
JWW_DASHED1
 62
   120
370
     5
100
AcDbLine
 10
-592.5062661171712
 20
589.4428242223565
 30
0.0
 11
-138.1750131153451
 21
1043.774077224183
 31
0.0
  0
LINE
  5
84
330
1F
100
AcDbEntity
  8
0-0
  6
JWW_DASHED1
 62
   120
370
     5
100
AcDbLine
 10
-592.5062661171839
 20
599.3423191575056
 30
0.0
 11
-148.074508050494
 21
1043.774077224195
 31
0.0
  0
LINE
  5
85
330
1F
100
AcDbEntity
  8
0-0
  6
JWW_DASHED1
 62
   120
370
     5
100
AcDbLine
 10
-592.5062661171729
 20
609.2418140927325
 30
0.0
 11
-157.974002985707
 21
1043.774077224199
 31
0.0
  0
LINE
  5
86
330
1F
100
AcDbEntity
  8
0-0
  6
JWW_DASHED1
 62
   120
370
     5
100
AcDbLine
 10
-592.5062661171695
 20
619.1413090279523
 30
0.0
 11
-167.873497920931
 21
1043.774077224191
 31
0.0
  0
LINE
  5
87
330
1F
100
AcDbEntity
  8
0-0
  6
JWW_DASHED1
 62
   120
370
     5
100
AcDbLine
 10
-592.5062661171814
 20
629.0408039631021
 30
0.0
 11
-177.7729928560894
 21
1043.774077224194
 31
0.0
  0
LINE
  5
88
330
1F
100
AcDbEntity
  8
0-0
  6
JWW_DASHED1
 62
   120
370
     5
100
AcDbLine
 10
-592.50626611719
 20
638.9402988983104
 30
0.0
 11
-187.6724877912972
 21
1043.774077224203
 31
0.0
  0
LINE
  5
89
330
1F
100
AcDbEntity
  8
0-0
  6
JWW_DASHED1
 62
   120
370
     5
100
AcDbLine
 10
-592.5062661171661
 20
648.8397938335502
 30
0.0
 11
-197.5719827265281
 21
1043.774077224188
 31
0.0
  0
LINE
  5
8A
330
1F
100
AcDbEntity
  8
0-0
  6
JWW_DASHED1
 62
   120
370
     5
100
AcDbLine
 10
-592.5062661171797
 20
658.7392887686992
 30
0.0
 11
-207.4714776616873
 21
1043.774077224191
 31
0.0
  0
LINE
  5
8B
330
1F
100
AcDbEntity
  8
0-0
  6
JWW_DASHED1
 62
   120
370
     5
100
AcDbLine
 10
-592.5062661171874
 20
668.6387837039075
 30
0.0
 11
-217.3709725968943
 21
1043.7740772242
 31
0.0
  0
LINE
  5
8C
330
1F
100
AcDbEntity
  8
0-0
  6
JWW_DASHED1
 62
   120
370
     5
100
AcDbLine
 10
-592.5062661171797
 20
678.5382786391046
 30
0.0
 11
-227.2704675320808
 21
1043.774077224203
 31
0.0
  0
LINE
  5
8D
330
1F
100
AcDbEntity
  8
0-0
  6
JWW_DASHED1
 62
   120
370
     5
100
AcDbLine
 10
-592.5062661171771
 20
688.4377735742959
 30
0.0
 11
-237.1699624672826
 21
1043.77407722419
 31
0.0
  0
LINE
  5
8E
330
1F
100
AcDbEntity
  8
0-0
  6
JWW_DASHED1
 62
   120
370
     5
100
AcDbLine
 10
-592.5062661171849
 20
698.3372685095045
 30
0.0
 11
-247.0694574024905
 21
1043.774077224199
 31
0.0
  0
LINE
  5
8F
330
1F
100
AcDbEntity
  8
0-0
  6
JWW_DASHED1
 62
   120
370
     5
100
AcDbLine
 10
-592.5062661171661
 20
708.236763444685
 30
0.0
 11
-256.9689523376633
 21
1043.774077224187
 31
0.0
  0
LINE
  5
90
330
1F
100
AcDbEntity
  8
0-0
  6
JWW_DASHED1
 62
   120
370
     5
100
AcDbLine
 10
-592.5062661171746
 20
718.1362583798932
 30
0.0
 11
-266.8684472728797
 21
1043.774077224188
 31
0.0
  0
LINE
  5
91
330
1F
100
AcDbEntity
  8
0-0
  6
JWW_DASHED1
 62
   120
370
     5
100
AcDbLine
 10
-592.5062661171831
 20
728.0357533151011
 30
0.0
 11
-276.7679422080875
 21
1043.774077224196
 31
0.0
  0
LINE
  5
92
330
1F
100
AcDbEntity
  8
0-0
  6
JWW_DASHED1
 62
   120
370
     5
100
AcDbLine
 10
-592.5062661171763
 20
737.9352482502688
 30
0.0
 11
-286.667437143245
 21
1043.7740772242
 31
0.0
  0
LINE
  5
93
330
1F
100
AcDbEntity
  8
0-0
  6
JWW_DASHED1
 62
   120
370
     5
100
AcDbLine
 10
-592.506266117172
 20
747.83474318549
 30
0.0
 11
-296.5669320784759
 21
1043.774077224186
 31
0.0
  0
LINE
  5
94
330
1F
100
AcDbEntity
  8
0-0
  6
JWW_DASHED1
 62
   120
370
     5
100
AcDbLine
 10
-592.5062661171797
 20
757.7342381206981
 30
0.0
 11
-306.4664270136837
 21
1043.774077224195
 31
0.0
  0
LINE
  5
95
330
1F
100
AcDbEntity
  8
0-0
  6
JWW_DASHED1
 62
   120
370
     5
100
AcDbLine
 10
-592.5062661171746
 20
767.6337330558655
 30
0.0
 11
-316.3659219488421
 21
1043.774077224198
 31
0.0
  0
LINE
  5
96
330
1F
100
AcDbEntity
  8
0-0
  6
JWW_DASHED1
 62
   120
370
     5
100
AcDbLine
 10
-592.5062661171695
 20
777.533227991087
 30
0.0
 11
-326.2654168840661
 21
1043.77407722419
 31
0.0
  0
LINE
  5
97
330
1F
100
AcDbEntity
  8
0-0
  6
JWW_DASHED1
 62
   120
370
     5
100
AcDbLine
 10
-592.506266117178
 20
787.4327229262948
 30
0.0
 11
-336.1649118192799
 21
1043.774077224193
 31
0.0
  0
LINE
  5
98
330
1F
100
AcDbEntity
  8
0-0
  6
JWW_DASHED1
 62
   120
370
     5
100
AcDbLine
 10
-592.5062661171883
 20
797.3322178614459
 30
0.0
 11
-346.0644067544289
 21
1043.774077224205
 31
0.0
  0
LINE
  5
99
330
1F
100
AcDbEntity
  8
0-0
  6
JWW_DASHED1
 62
   120
370
     5
100
AcDbLine
 10
-592.5062661171669
 20
807.2317127966841
 30
0.0
 11
-355.9639016896631
 21
1043.774077224188
 31
0.0
  0
LINE
  5
9A
330
1F
100
AcDbEntity
  8
0-0
  6
JWW_DASHED1
 62
   120
370
     5
100
AcDbLine
 10
-592.5062661171754
 20
817.1312077318919
 30
0.0
 11
-365.8633966248761
 21
1043.774077224191
 31
0.0
  0
LINE
  5
9B
330
1F
100
AcDbEntity
  8
0-0
  6
JWW_DASHED1
 62
   120
370
     5
100
AcDbLine
 10
-592.5062661171883
 20
827.0307026670408
 30
0.0
 11
-375.7628915600251
 21
1043.774077224204
 31
0.0
  0
LINE
  5
9C
330
1F
100
AcDbEntity
  8
0-0
  6
JWW_DASHED1
 62
   120
370
     5
100
AcDbLine
 10
-592.5062661171644
 20
836.930197602281
 30
0.0
 11
-385.6623864952602
 21
1043.774077224185
 31
0.0
  0
LINE
  5
9D
330
1F
100
AcDbEntity
  8
0-0
  6
JWW_DASHED1
 62
   120
370
     5
100
AcDbLine
 10
-592.5062661171729
 20
846.8296925374889
 30
0.0
 11
-395.5618814304731
 21
1043.774077224188
 31
0.0
  0
LINE
  5
9E
330
1F
100
AcDbEntity
  8
0-0
  6
JWW_DASHED1
 62
   120
370
     5
100
AcDbLine
 10
-592.5062661171856
 20
856.7291874726379
 30
0.0
 11
-405.4613763656221
 21
1043.774077224202
 31
0.0
  0
LINE
  5
9F
330
1F
100
AcDbEntity
  8
0-0
  6
JWW_DASHED1
 62
   120
370
     5
100
AcDbLine
 10
-592.5062661171763
 20
866.6286824078636
 30
0.0
 11
-415.3608713008419
 21
1043.774077224198
 31
0.0
  0
LINE
  5
A0
330
1F
100
AcDbEntity
  8
0-0
  6
JWW_DASHED1
 62
   120
370
     5
100
AcDbLine
 10
-592.5062661171703
 20
876.528177343086
 30
0.0
 11
-425.2603662360685
 21
1043.774077224187
 31
0.0
  0
LINE
  5
A1
330
1F
100
AcDbEntity
  8
0-0
  6
JWW_DASHED1
 62
   120
370
     5
100
AcDbLine
 10
-592.5062661171831
 20
886.4276722782349
 30
0.0
 11
-435.1598611712183
 21
1043.7740772242
 31
0.0
  0
LINE
  5
A2
330
1F
100
AcDbEntity
  8
0-0
  6
JWW_DASHED1
 62
   120
370
     5
100
AcDbLine
 10
-592.5062661171746
 20
896.3271672134601
 30
0.0
 11
-445.0593561064381
 21
1043.774077224196
 31
0.0
  0
LINE
  5
A3
330
1F
100
AcDbEntity
  8
0-0
  6
JWW_DASHED1
 62
   120
370
     5
100
AcDbLine
 10
-592.506266117172
 20
906.2266621486242
 30
0.0
 11
-454.9588510416067
 21
1043.77407722419
 31
0.0
  0
LINE
  5
A4
330
1F
100
AcDbEntity
  8
0-0
  6
JWW_DASHED1
 62
   120
370
     5
100
AcDbLine
 10
-592.5062661171805
 20
916.126157083832
 30
0.0
 11
-464.8583459768145
 21
1043.774077224198
 31
0.0
  0
LINE
  5
A5
330
1F
100
AcDbEntity
  8
0-0
  6
JWW_DASHED1
 62
   120
370
     5
100
AcDbLine
 10
-592.506266117189
 20
926.0256520190399
 30
0.0
 11
-474.7578409120223
 21
1043.774077224206
 31
0.0
  0
LINE
  5
A6
330
1F
100
AcDbEntity
  8
0-0
  6
JWW_DASHED1
 62
   120
370
     5
100
AcDbLine
 10
-592.5062661171695
 20
935.9251469542207
 30
0.0
 11
-484.6573358472003
 21
1043.77407722419
 31
0.0
  0
LINE
  5
A7
330
1F
100
AcDbEntity
  8
0-0
  6
JWW_DASHED1
 62
   120
370
     5
100
AcDbLine
 10
-592.506266117178
 20
945.824641889429
 30
0.0
 11
-494.5568307824107
 21
1043.774077224196
 31
0.0
  0
LINE
  5
A8
330
1F
100
AcDbEntity
  8
0-0
  6
JWW_DASHED1
 62
   120
370
     5
100
AcDbLine
 10
-592.5062661171866
 20
955.7241368246368
 30
0.0
 11
-504.4563257176185
 21
1043.774077224204
 31
0.0
  0
LINE
  5
A9
330
1F
100
AcDbEntity
  8
0-0
  6
JWW_DASHED1
 62
   120
370
     5
100
AcDbLine
 10
-592.5062661171678
 20
965.6236317598177
 30
0.0
 11
-514.3558206527974
 21
1043.774077224188
 31
0.0
  0
LINE
  5
AA
330
1F
100
AcDbEntity
  8
0-0
  6
JWW_DASHED1
 62
   120
370
     5
100
AcDbLine
 10
-592.5062661171754
 20
975.523126695026
 30
0.0
 11
-524.2553155880078
 21
1043.774077224194
 31
0.0
  0
LINE
  5
AB
330
1F
100
AcDbEntity
  8
0-0
  6
JWW_DASHED1
 62
   120
370
     5
100
AcDbLine
 10
-592.5062661171839
 20
985.4226216302338
 30
0.0
 11
-534.1548105232148
 21
1043.774077224203
 31
0.0
  0
LINE
  5
AC
330
1F
100
AcDbEntity
  8
0-0
  6
JWW_DASHED1
 62
   120
370
     5
100
AcDbLine
 10
-592.5062661171644
 20
995.3221165654147
 30
0.0
 11
-544.0543054583944
 21
1043.774077224185
 31
0.0
  0
LINE
  5
AD
330
1F
100
AcDbEntity
  8
0-0
  6
JWW_DASHED1
 62
   120
370
     5
100
AcDbLine
 10
-592.5062661171729
 20
1005.221611500623
 30
0.0
 11
-553.9538003936032
 21
1043.774077224192
 31
0.0
  0
LINE
  5
AE
330
1F
100
AcDbEntity
  8
0-0
  6
JWW_DASHED1
 62
   120
370
     5
100
AcDbLine
 10
-592.5062661171814
 20
1015.121106435831
 30
0.0
 11
-563.8532953288118
 21
1043.7740772242
 31
0.0
  0
LINE
  5
AF
330
1F
100
AcDbEntity
  8
0-0
  6
JWW_DASHED1
 62
   120
370
     5
100
AcDbLine
 10
-592.506266117178
 20
1025.020601370996
 30
0.0
 11
-573.7527902639762
 21
1043.774077224198
 31
0.0
  0
LINE
  5
B0
330
1F
100
AcDbEntity
  8
0-0
  6
JWW_DASHED1
 62
   120
370
     5
100
AcDbLine
 10
-592.5062661171712
 20
1034.92009630622
 30
0.0
 11
-583.6522851991994
 21
1043.774077224191
 31
0.0
  0
LINE
  5
B1
330
1F
100
AcDbEntity
  8
0-0
  6
JWW_DASHED1
 62
   120
370
     5
100
AcDbLine
 10
-5.879056464643826
 20
-863.2259227758099
 30
0.0
 11
-2.506266117172276
 21
-859.8531324283384
 31
0.0
  0
LINE
  5
B2
330
1F
100
AcDbEntity
  8
0-0
  6
JWW_DASHED1
 62
   120
370
     5
100
AcDbLine
 10
-592.5062661171712
 20
450.8498951296
 30
0.0
 11
-2.506266117172276
 21
1040.8498951296
 31
0.0
  0
LINE
  5
B3
330
1F
100
AcDbEntity
  8
0-0
  6
JWW_DASHED1
 62
   120
370
     5
100
AcDbLine
 10
-15.77855139985165
 20
-863.2259227758019
 30
0.0
 11
-2.506266117172276
 21
-849.9536374931225
 31
0.0
  0
LINE
  5
B4
330
1F
100
AcDbEntity
  8
0-0
  6
JWW_DASHED1
 62
   120
370
     5
100
AcDbLine
 10
-25.6780463350194
 20
-863.2259227758078
 30
0.0
 11
-2.506266117172276
 21
-840.0541425579607
 31
0.0
  0
LINE
  5
B5
330
1F
100
AcDbEntity
  8
0-0
  6
JWW_DASHED1
 62
   120
370
     5
100
AcDbLine
 10
-35.57754127024002
 20
-863.2259227758126
 30
0.0
 11
-2.506266117172276
 21
-830.1546476227444
 31
0.0
  0
LINE
  5
B6
330
1F
100
AcDbEntity
  8
0-0
  6
JWW_DASHED1
 62
   120
370
     5
100
AcDbLine
 10
-45.47703620544785
 20
-863.2259227758041
 30
0.0
 11
-2.506266117172276
 21
-820.2551526875285
 31
0.0
  0
LINE
  5
B7
330
1F
100
AcDbEntity
  8
0-0
  6
JWW_DASHED1
 62
   120
370
     5
100
AcDbLine
 10
-55.37653114061645
 20
-863.2259227758099
 30
0.0
 11
-2.506266117172276
 21
-810.3556577523658
 31
0.0
  0
LINE
  5
B8
330
1F
100
AcDbEntity
  8
0-0
  6
JWW_DASHED1
 62
   120
370
     5
100
AcDbLine
 10
-65.27602607583621
 20
-863.2259227758138
 30
0.0
 11
-2.506266117172276
 21
-800.4561628171499
 31
0.0
  0
LINE
  5
B9
330
1F
100
AcDbEntity
  8
0-0
  6
JWW_DASHED1
 62
   120
370
     5
100
AcDbLine
 10
-75.17552101104404
 20
-863.2259227758053
 30
0.0
 11
-2.506266117172276
 21
-790.5566678819335
 31
0.0
  0
LINE
  5
BA
330
1F
100
AcDbEntity
  8
0-0
  6
JWW_DASHED1
 62
   120
370
     5
100
AcDbLine
 10
-85.07501594621264
 20
-863.2259227758126
 30
0.0
 11
-2.506266117172276
 21
-780.6571729467718
 31
0.0
  0
LINE
  5
BB
330
1F
100
AcDbEntity
  8
0-0
  6
JWW_DASHED1
 62
   120
370
     5
100
AcDbLine
 10
-94.97451088142132
 20
-863.2259227758044
 30
0.0
 11
-2.506266117172276
 21
-770.7576780115554
 31
0.0
  0
LINE
  5
BC
330
1F
100
AcDbEntity
  8
0-0
  6
JWW_DASHED1
 62
   120
370
     5
100
AcDbLine
 10
-104.8740058166411
 20
-863.2259227758078
 30
0.0
 11
-2.506266117172276
 21
-760.8581830763391
 31
0.0
  0
LINE
  5
BD
330
1F
100
AcDbEntity
  8
0-0
  6
JWW_DASHED1
 62
   120
370
     5
100
AcDbLine
 10
-114.7735007517901
 20
-863.2259227757951
 30
0.0
 11
-2.506266117172276
 21
-750.9586881411768
 31
0.0
  0
LINE
  5
BE
330
1F
100
AcDbEntity
  8
0-0
  6
JWW_DASHED1
 62
   120
370
     5
100
AcDbLine
 10
-124.6729956870184
 20
-863.225922775807
 30
0.0
 11
-2.506266117172276
 21
-741.0591932059605
 31
0.0
  0
LINE
  5
BF
330
1F
100
AcDbEntity
  8
0-0
  6
JWW_DASHED1
 62
   120
370
     5
100
AcDbLine
 10
-134.5724906222373
 20
-863.2259227758092
 30
0.0
 11
-2.506266117172276
 21
-731.1596982707441
 31
0.0
  0
LINE
  5
C0
330
1F
100
AcDbEntity
  8
0-0
  6
JWW_DASHED1
 62
   120
370
     5
100
AcDbLine
 10
-144.4719855573863
 20
-863.2259227757962
 30
0.0
 11
-2.506266117172276
 21
-721.2602033355828
 31
0.0
  0
LINE
  5
C1
330
1F
100
AcDbEntity
  8
0-0
  6
JWW_DASHED1
 62
   120
370
     5
100
AcDbLine
 10
-154.3714804926154
 20
-863.2259227758095
 30
0.0
 11
-2.506266117172276
 21
-711.3607084003664
 31
0.0
  0
LINE
  5
C2
330
1F
100
AcDbEntity
  8
0-0
  6
JWW_DASHED1
 62
   120
370
     5
100
AcDbLine
 10
-164.2709754278335
 20
-863.2259227758112
 30
0.0
 11
-2.506266117172276
 21
-701.4612134651496
 31
0.0
  0
LINE
  5
C3
330
1F
100
AcDbEntity
  8
0-0
  6
JWW_DASHED1
 62
   120
370
     5
100
AcDbLine
 10
-174.1704703629825
 20
-863.2259227757985
 30
0.0
 11
-2.506266117172276
 21
-691.5617185299878
 31
0.0
  0
LINE
  5
C4
330
1F
100
AcDbEntity
  8
0-0
  6
JWW_DASHED1
 62
   120
370
     5
100
AcDbLine
 10
-184.0699652982125
 20
-863.2259227758121
 30
0.0
 11
-2.506266117172276
 21
-681.6622235947715
 31
0.0
  0
LINE
  5
C5
330
1F
100
AcDbEntity
  8
0-0
  6
JWW_DASHED1
 62
   120
370
     5
100
AcDbLine
 10
-193.9694602333709
 20
-863.2259227758092
 30
0.0
 11
-2.506266117172276
 21
-671.7627286596097
 31
0.0
  0
LINE
  5
C6
330
1F
100
AcDbEntity
  8
0-0
  6
JWW_DASHED1
 62
   120
370
     5
100
AcDbLine
 10
-203.8689551685787
 20
-863.2259227758007
 30
0.0
 11
-2.506266117172276
 21
-661.8632337243943
 31
0.0
  0
LINE
  5
C7
330
1F
100
AcDbEntity
  8
0-0
  6
JWW_DASHED1
 62
   120
370
     5
100
AcDbLine
 10
-213.7684501038095
 20
-863.2259227758146
 30
0.0
 11
-2.506266117172276
 21
-651.963738789177
 31
0.0
  0
LINE
  5
C8
330
1F
100
AcDbEntity
  8
0-0
  6
JWW_DASHED1
 62
   120
370
     5
100
AcDbLine
 10
-223.6679450389679
 20
-863.2259227758112
 30
0.0
 11
-2.506266117172276
 21
-642.0642438540157
 31
0.0
  0
LINE
  5
C9
330
1F
100
AcDbEntity
  8
0-0
  6
JWW_DASHED1
 62
   120
370
     5
100
AcDbLine
 10
-233.5674399741757
 20
-863.2259227758024
 30
0.0
 11
-2.506266117172276
 21
-632.1647489187989
 31
0.0
  0
LINE
  5
CA
330
1F
100
AcDbEntity
  8
0-0
  6
JWW_DASHED1
 62
   120
370
     5
100
AcDbLine
 10
-243.4669349093827
 20
-863.2259227757938
 30
0.0
 11
-2.506266117172276
 21
-622.265253983583
 31
0.0
  0
LINE
  5
CB
330
1F
100
AcDbEntity
  8
0-0
  6
JWW_DASHED1
 62
   120
370
     5
100
AcDbLine
 10
-253.3664298445564
 20
-863.2259227758044
 30
0.0
 11
-2.506266117172276
 21
-612.3657590484212
 31
0.0
  0
LINE
  5
CC
330
1F
100
AcDbEntity
  8
0-0
  6
JWW_DASHED1
 62
   120
370
     5
100
AcDbLine
 10
-263.2659247797719
 20
-863.2259227758044
 30
0.0
 11
-2.506266117172276
 21
-602.4662641132053
 31
0.0
  0
LINE
  5
CD
330
1F
100
AcDbEntity
  8
0-0
  6
JWW_DASHED1
 62
   120
370
     5
100
AcDbLine
 10
-273.1654197149797
 20
-863.2259227757959
 30
0.0
 11
-2.506266117172276
 21
-592.566769177988
 31
0.0
  0
LINE
  5
CE
330
1F
100
AcDbEntity
  8
0-0
  6
JWW_DASHED1
 62
   120
370
     5
100
AcDbLine
 10
-283.0649146501526
 20
-863.225922775807
 30
0.0
 11
-2.506266117172276
 21
-582.6672742428262
 31
0.0
  0
LINE
  5
CF
330
1F
100
AcDbEntity
  8
0-0
  6
JWW_DASHED1
 62
   120
370
     5
100
AcDbLine
 10
-292.9644095853673
 20
-863.2259227758058
 30
0.0
 11
-2.506266117172276
 21
-572.7677793076108
 31
0.0
  0
LINE
  5
D0
330
1F
100
AcDbEntity
  8
0-0
  6
JWW_DASHED1
 62
   120
370
     5
100
AcDbLine
 10
-302.8639045205768
 20
-863.2259227757976
 30
0.0
 11
-2.506266117172276
 21
-562.8682843723935
 31
0.0
  0
LINE
  5
D1
330
1F
100
AcDbEntity
  8
0-0
  6
JWW_DASHED1
 62
   120
370
     5
100
AcDbLine
 10
-312.7633994557505
 20
-863.2259227758095
 30
0.0
 11
-2.506266117172276
 21
-552.9687894372317
 31
0.0
  0
LINE
  5
D2
330
1F
100
AcDbEntity
  8
0-0
  6
JWW_DASHED1
 62
   120
370
     5
100
AcDbLine
 10
-322.6628943909652
 20
-863.2259227758083
 30
0.0
 11
-2.506266117172276
 21
-543.0692945020159
 31
0.0
  0
LINE
  5
D3
330
1F
100
AcDbEntity
  8
0-0
  6
JWW_DASHED1
 62
   120
370
     5
100
AcDbLine
 10
-332.562389326173
 20
-863.2259227757996
 30
0.0
 11
-2.506266117172276
 21
-533.1697995668
 31
0.0
  0
LINE
  5
D4
330
1F
100
AcDbEntity
  8
0-0
  6
JWW_DASHED1
 62
   120
370
     5
100
AcDbLine
 10
-342.4618842613467
 20
-863.2259227758126
 30
0.0
 11
-2.506266117172276
 21
-523.2703046316373
 31
0.0
  0
LINE
  5
D5
330
1F
100
AcDbEntity
  8
0-0
  6
JWW_DASHED1
 62
   120
370
     5
100
AcDbLine
 10
-352.3613791965614
 20
-863.2259227758095
 30
0.0
 11
-2.506266117172276
 21
-513.3708096964209
 31
0.0
  0
LINE
  5
D6
330
1F
100
AcDbEntity
  8
0-0
  6
JWW_DASHED1
 62
   120
370
     5
100
AcDbLine
 10
-362.2608741317683
 20
-863.225922775801
 30
0.0
 11
-2.506266117172276
 21
-503.4713147612054
 31
0.0
  0
LINE
  5
D7
330
1F
100
AcDbEntity
  8
0-0
  6
JWW_DASHED1
 62
   120
370
     5
100
AcDbLine
 10
-372.1603690669446
 20
-863.2259227758151
 30
0.0
 11
-2.506266117172276
 21
-493.5718198260432
 31
0.0
  0
LINE
  5
D8
330
1F
100
AcDbEntity
  8
0-0
  6
JWW_DASHED1
 62
   120
370
     5
100
AcDbLine
 10
-382.0598640021524
 20
-863.225922775807
 30
0.0
 11
-2.506266117172276
 21
-483.6723248908273
 31
0.0
  0
LINE
  5
D9
330
1F
100
AcDbEntity
  8
0-0
  6
JWW_DASHED1
 62
   120
370
     5
100
AcDbLine
 10
-391.9593589373654
 20
-863.2259227758036
 30
0.0
 11
-2.506266117172276
 21
-473.7728299556101
 31
0.0
  0
LINE
  5
DA
330
1F
100
AcDbEntity
  8
0-0
  6
JWW_DASHED1
 62
   120
370
     5
100
AcDbLine
 10
-401.8588538725135
 20
-863.2259227757904
 30
0.0
 11
-2.506266117172276
 21
-463.8733350204491
 31
0.0
  0
LINE
  5
DB
330
1F
100
AcDbEntity
  8
0-0
  6
JWW_DASHED1
 62
   120
370
     5
100
AcDbLine
 10
-411.7583488077495
 20
-863.2259227758095
 30
0.0
 11
-2.506266117172276
 21
-453.9738400852319
 31
0.0
  0
LINE
  5
DC
330
1F
100
AcDbEntity
  8
0-0
  6
JWW_DASHED1
 62
   120
370
     5
100
AcDbLine
 10
-421.6578437429616
 20
-863.2259227758058
 30
0.0
 11
-2.506266117172276
 21
-444.074345150016
 31
0.0
  0
LINE
  5
DD
330
1F
100
AcDbEntity
  8
0-0
  6
JWW_DASHED1
 62
   120
370
     5
100
AcDbLine
 10
-431.5573386781106
 20
-863.2259227757925
 30
0.0
 11
-2.506266117172276
 21
-434.1748502148538
 31
0.0
  0
LINE
  5
DE
330
1F
100
AcDbEntity
  8
0-0
  6
JWW_DASHED1
 62
   120
370
     5
100
AcDbLine
 10
-441.4568336133465
 20
-863.2259227758126
 30
0.0
 11
-2.506266117172276
 21
-424.2753552796378
 31
0.0
  0
LINE
  5
DF
330
1F
100
AcDbEntity
  8
0-0
  6
JWW_DASHED1
 62
   120
370
     5
100
AcDbLine
 10
-451.3563285485578
 20
-863.225922775807
 30
0.0
 11
-2.506266117172276
 21
-414.3758603444215
 31
0.0
  0
LINE
  5
E0
330
1F
100
AcDbEntity
  8
0-0
  6
JWW_DASHED1
 62
   120
370
     5
100
AcDbLine
 10
-461.2558234837068
 20
-863.2259227757942
 30
0.0
 11
-2.506266117172276
 21
-404.4763654092597
 31
0.0
  0
LINE
  5
E1
330
1F
100
AcDbEntity
  8
0-0
  6
JWW_DASHED1
 62
   120
370
     5
100
AcDbLine
 10
-471.1553184189444
 20
-863.2259227758151
 30
0.0
 11
-2.506266117172276
 21
-394.5768704740433
 31
0.0
  0
LINE
  5
E2
330
1F
100
AcDbEntity
  8
0-0
  6
JWW_DASHED1
 62
   120
370
     5
100
AcDbLine
 10
-481.0548133541523
 20
-863.2259227758065
 30
0.0
 11
-2.506266117172276
 21
-384.6773755388266
 31
0.0
  0
LINE
  5
E3
330
1F
100
AcDbEntity
  8
0-0
  6
JWW_DASHED1
 62
   120
370
     5
100
AcDbLine
 10
-490.9543082893038
 20
-863.2259227757962
 30
0.0
 11
-2.506266117172276
 21
-374.7778806036652
 31
0.0
  0
LINE
  5
E4
330
1F
100
AcDbEntity
  8
0-0
  6
JWW_DASHED1
 62
   120
370
     5
100
AcDbLine
 10
-500.8538032245406
 20
-863.2259227758173
 30
0.0
 11
-2.506266117172276
 21
-364.8783856684489
 31
0.0
  0
LINE
  5
E5
330
1F
100
AcDbEntity
  8
0-0
  6
JWW_DASHED1
 62
   120
370
     5
100
AcDbLine
 10
-510.7532981596922
 20
-863.2259227758061
 30
0.0
 11
-2.506266117172276
 21
-354.9788907332871
 31
0.0
  0
LINE
  5
E6
330
1F
100
AcDbEntity
  8
0-0
  6
JWW_DASHED1
 62
   120
370
     5
100
AcDbLine
 10
-520.6527930949001
 20
-863.225922775798
 30
0.0
 11
-2.506266117172276
 21
-345.0793957980707
 31
0.0
  0
LINE
  5
E7
330
1F
100
AcDbEntity
  8
0-0
  6
JWW_DASHED1
 62
   120
370
     5
100
AcDbLine
 10
-530.5522880301079
 20
-863.2259227757894
 30
0.0
 11
-2.506266117172276
 21
-335.1799008628544
 31
0.0
  0
LINE
  5
E8
330
1F
100
AcDbEntity
  8
0-0
  6
JWW_DASHED1
 62
   120
370
     5
100
AcDbLine
 10
-540.4517829652875
 20
-863.2259227758075
 30
0.0
 11
-2.506266117172276
 21
-325.2804059276926
 31
0.0
  0
LINE
  5
E9
330
1F
100
AcDbEntity
  8
0-0
  6
JWW_DASHED1
 62
   120
370
     5
100
AcDbLine
 10
-550.3512779004963
 20
-863.2259227758002
 30
0.0
 11
-2.506266117172276
 21
-315.3809109924762
 31
0.0
  0
LINE
  5
EA
330
1F
100
AcDbEntity
  8
0-0
  6
JWW_DASHED1
 62
   120
370
     5
100
AcDbLine
 10
-560.2507728357041
 20
-863.2259227757917
 30
0.0
 11
-2.506266117172276
 21
-305.4814160572599
 31
0.0
  0
LINE
  5
EB
330
1F
100
AcDbEntity
  8
0-0
  6
JWW_DASHED1
 62
   120
370
     5
100
AcDbLine
 10
-570.1502677708846
 20
-863.2259227758099
 30
0.0
 11
-2.506266117172276
 21
-295.5819211220981
 31
0.0
  0
LINE
  5
EC
330
1F
100
AcDbEntity
  8
0-0
  6
JWW_DASHED1
 62
   120
370
     5
100
AcDbLine
 10
-580.0497627060925
 20
-863.2259227758015
 30
0.0
 11
-2.506266117172276
 21
-285.6824261868817
 31
0.0
  0
LINE
  5
ED
330
1F
100
AcDbEntity
  8
0-0
  6
JWW_DASHED1
 62
   120
370
     5
100
AcDbLine
 10
-589.9492576413003
 20
-863.2259227757934
 30
0.0
 11
-2.506266117172276
 21
-275.7829312516654
 31
0.0
  0
LINE
  5
EE
330
1F
100
AcDbEntity
  8
0-0
  6
JWW_DASHED1
 62
   120
370
     5
100
AcDbLine
 10
-592.5062661171686
 20
-855.8834363164996
 30
0.0
 11
-2.506266117172276
 21
-265.8834363165036
 31
0.0
  0
LINE
  5
EF
330
1F
100
AcDbEntity
  8
0-0
  6
JWW_DASHED1
 62
   120
370
     5
100
AcDbLine
 10
-592.5062661171771
 20
-845.9839413812921
 30
0.0
 11
-2.506266117172276
 21
-255.9839413812872
 31
0.0
  0
LINE
  5
F0
330
1F
100
AcDbEntity
  8
0-0
  6
JWW_DASHED1
 62
   120
370
     5
100
AcDbLine
 10
-592.5062661171849
 20
-836.0844464460839
 30
0.0
 11
-2.506266117172276
 21
-246.0844464460709
 31
0.0
  0
LINE
  5
F1
330
1F
100
AcDbEntity
  8
0-0
  6
JWW_DASHED1
 62
   120
370
     5
100
AcDbLine
 10
-592.5062661171661
 20
-826.1849515109034
 30
0.0
 11
-2.506266117172276
 21
-236.1849515109091
 31
0.0
  0
LINE
  5
F2
330
1F
100
AcDbEntity
  8
0-0
  6
JWW_DASHED1
 62
   120
370
     5
100
AcDbLine
 10
-592.5062661171746
 20
-816.2854565756942
 30
0.0
 11
-2.506266117172276
 21
-226.2854565756927
 31
0.0
  0
LINE
  5
F3
330
1F
100
AcDbEntity
  8
0-0
  6
JWW_DASHED1
 62
   120
370
     5
100
AcDbLine
 10
-592.5062661171831
 20
-806.3859616404867
 30
0.0
 11
-2.506266117172276
 21
-216.3859616404764
 31
0.0
  0
LINE
  5
F4
330
1F
100
AcDbEntity
  8
0-0
  6
JWW_DASHED1
 62
   120
370
     5
100
AcDbLine
 10
-592.5062661171644
 20
-796.4864667053063
 30
0.0
 11
-2.506266117172276
 21
-206.4864667053151
 31
0.0
  0
LINE
  5
F5
330
1F
100
AcDbEntity
  8
0-0
  6
JWW_DASHED1
 62
   120
370
     5
100
AcDbLine
 10
-592.506266117172
 20
-786.586971770098
 30
0.0
 11
-2.506266117172276
 21
-196.5869717700983
 31
0.0
  0
LINE
  5
F6
330
1F
100
AcDbEntity
  8
0-0
  6
JWW_DASHED1
 62
   120
370
     5
100
AcDbLine
 10
-592.5062661171797
 20
-776.6874768348898
 30
0.0
 11
-2.506266117172276
 21
-186.6874768348819
 31
0.0
  0
LINE
  5
F7
330
1F
100
AcDbEntity
  8
0-0
  6
JWW_DASHED1
 62
   120
370
     5
100
AcDbLine
 10
-592.5062661171934
 20
-766.7879818997403
 30
0.0
 11
-2.506266117172276
 21
-176.7879818997202
 31
0.0
  0
LINE
  5
F8
330
1F
100
AcDbEntity
  8
0-0
  6
JWW_DASHED1
 62
   120
370
     5
100
AcDbLine
 10
-592.5062661171695
 20
-756.888486964501
 30
0.0
 11
-2.506266117172276
 21
-166.8884869645042
 31
0.0
  0
LINE
  5
F9
330
1F
100
AcDbEntity
  8
0-0
  6
JWW_DASHED1
 62
   120
370
     5
100
AcDbLine
 10
-592.506266117178
 20
-746.9889920292923
 30
0.0
 11
-2.506266117172276
 21
-156.9889920292875
 31
0.0
  0
LINE
  5
FA
330
1F
100
AcDbEntity
  8
0-0
  6
JWW_DASHED1
 62
   120
370
     5
100
AcDbLine
 10
-592.50626611719
 20
-737.0894970941433
 30
0.0
 11
-2.506266117172276
 21
-147.0894970941257
 31
0.0
  0
LINE
  5
FB
330
1F
100
AcDbEntity
  8
0-0
  6
JWW_DASHED1
 62
   120
370
     5
100
AcDbLine
 10
-592.5062661171686
 20
-727.1900021589056
 30
0.0
 11
-2.506266117172276
 21
-137.1900021589089
 31
0.0
  0
LINE
  5
FC
330
1F
100
AcDbEntity
  8
0-0
  6
JWW_DASHED1
 62
   120
370
     5
100
AcDbLine
 10
-592.5062661171746
 20
-717.2905072236953
 30
0.0
 11
-2.506266117172276
 21
-127.2905072236934
 31
0.0
  0
LINE
  5
FD
330
1F
100
AcDbEntity
  8
0-0
  6
JWW_DASHED1
 62
   120
370
     5
100
AcDbLine
 10
-592.5062661171883
 20
-707.3910122885462
 30
0.0
 11
-2.506266117172276
 21
-117.3910122885312
 31
0.0
  0
LINE
  5
FE
330
1F
100
AcDbEntity
  8
0-0
  6
JWW_DASHED1
 62
   120
370
     5
100
AcDbLine
 10
-592.5062661171661
 20
-697.4915173533086
 30
0.0
 11
-2.506266117172276
 21
-107.4915173533148
 31
0.0
  0
LINE
  5
FF
330
1F
100
AcDbEntity
  8
0-0
  6
JWW_DASHED1
 62
   120
370
     5
100
AcDbLine
 10
-592.5062661171729
 20
-687.5920224180991
 30
0.0
 11
-2.506266117172276
 21
-97.5920224180989
 31
0.0
  0
LINE
  5
100
330
1F
100
AcDbEntity
  8
0-0
  6
JWW_DASHED1
 62
   120
370
     5
100
AcDbLine
 10
-592.5062661171849
 20
-677.6925274829492
 30
0.0
 11
-2.506266117172276
 21
-87.69252748293712
 31
0.0
  0
LINE
  5
101
330
1F
100
AcDbEntity
  8
0-0
  6
JWW_DASHED1
 62
   120
370
     5
100
AcDbLine
 10
-592.5062661171797
 20
-667.7930325477272
 30
0.0
 11
-2.506266117172276
 21
-77.79303254772034
 31
0.0
  0
LINE
  5
102
330
1F
100
AcDbEntity
  8
0-0
  6
JWW_DASHED1
 62
   120
370
     5
100
AcDbLine
 10
-592.5062661171729
 20
-657.8935376125313
 30
0.0
 11
-2.506266117172276
 21
-67.89353761253085
 31
0.0
  0
LINE
  5
103
330
1F
100
AcDbEntity
  8
0-0
  6
JWW_DASHED1
 62
   120
370
     5
100
AcDbLine
 10
-592.5062661171831
 20
-647.994042677353
 30
0.0
 11
-2.506266117172276
 21
-57.99404267734221
 31
0.0
  0
LINE
  5
104
330
1F
100
AcDbEntity
  8
0-0
  6
JWW_DASHED1
 62
   120
370
     5
100
AcDbLine
 10
-592.5062661171917
 20
-638.0945477421443
 30
0.0
 11
-2.506266117172276
 21
-48.09454774212586
 31
0.0
  0
LINE
  5
105
330
1F
100
AcDbEntity
  8
0-0
  6
JWW_DASHED1
 62
   120
370
     5
100
AcDbLine
 10
-592.5062661171729
 20
-628.1950528069641
 30
0.0
 11
-2.506266117172276
 21
-38.19505280696365
 31
0.0
  0
LINE
  5
106
330
1F
100
AcDbEntity
  8
0-0
  6
JWW_DASHED1
 62
   120
370
     5
100
AcDbLine
 10
-592.5062661171814
 20
-618.2955578717564
 30
0.0
 11
-2.506266117172276
 21
-28.29555787174815
 31
0.0
  0
LINE
  5
107
330
1F
100
AcDbEntity
  8
0-0
  6
JWW_DASHED1
 62
   120
370
     5
100
AcDbLine
 10
-592.5062661171883
 20
-608.3960629365473
 30
0.0
 11
-2.506266117172276
 21
-18.3960629365318
 31
0.0
  0
LINE
  5
108
330
1F
100
AcDbEntity
  8
0-0
  6
JWW_DASHED1
 62
   120
370
     5
100
AcDbLine
 10
-592.5062661171695
 20
-598.4965680013672
 30
0.0
 11
-2.506266117172276
 21
-8.496568001370015
 31
0.0
  0
LINE
  5
109
330
1F
100
AcDbEntity
  8
0-0
  6
JWW_DASHED1
 62
   120
370
     5
100
AcDbLine
 10
-592.506266117178
 20
-588.5970730661594
 30
0.0
 11
-2.506266117172276
 21
1.402926933846764
 31
0.0
  0
LINE
  5
10A
330
1F
100
AcDbEntity
  8
0-0
  6
JWW_DASHED1
 62
   120
370
     5
100
AcDbLine
 10
-592.5062661171866
 20
-578.6975781309511
 30
0.0
 11
-2.506266117172276
 21
11.30242186906354
 31
0.0
  0
LINE
  5
10B
330
1F
100
AcDbEntity
  8
0-0
  6
JWW_DASHED1
 62
   120
370
     5
100
AcDbLine
 10
-592.5062661171695
 20
-568.7980831957723
 30
0.0
 11
-2.506266117172276
 21
21.20191680422533
 31
0.0
  0
LINE
  5
10C
330
1F
100
AcDbEntity
  8
0-0
  6
JWW_DASHED1
 62
   120
370
     5
100
AcDbLine
 10
-592.5062661171763
 20
-558.8985882605622
 30
0.0
 11
-2.506266117172276
 21
31.10141173944125
 31
0.0
  0
LINE
  5
10D
330
1F
100
AcDbEntity
  8
0-0
  6
JWW_DASHED1
 62
   120
370
     5
100
AcDbLine
 10
-592.5062661171839
 20
-548.999093325354
 30
0.0
 11
-2.506266117172276
 21
41.00090667465718
 31
0.0
  0
LINE
  5
10E
330
1F
100
AcDbEntity
  8
0-0
  6
JWW_DASHED1
 62
   120
370
     5
100
AcDbLine
 10
-592.5062661171678
 20
-539.0995983901761
 30
0.0
 11
-2.506266117172276
 21
50.90040160981896
 31
0.0
  0
LINE
  5
10F
330
1F
100
AcDbEntity
  8
0-0
  6
JWW_DASHED1
 62
   120
370
     5
100
AcDbLine
 10
-592.5062661171729
 20
-529.2001034549653
 30
0.0
 11
-2.506266117172276
 21
60.79989654503532
 31
0.0
  0
LINE
  5
110
330
1F
100
AcDbEntity
  8
0-0
  6
JWW_DASHED1
 62
   120
370
     5
100
AcDbLine
 10
-592.5062661171814
 20
-519.300608519757
 30
0.0
 11
-2.506266117172276
 21
70.69939148025168
 31
0.0
  0
LINE
  5
111
330
1F
100
AcDbEntity
  8
0-0
  6
JWW_DASHED1
 62
   120
370
     5
100
AcDbLine
 10
-592.5062661171661
 20
-509.4011135845793
 30
0.0
 11
-2.506266117172276
 21
80.59888641541346
 31
0.0
  0
LINE
  5
112
330
1F
100
AcDbEntity
  8
0-0
  6
JWW_DASHED1
 62
   120
370
     5
100
AcDbLine
 10
-592.5062661171712
 20
-499.5016186493682
 30
0.0
 11
-2.506266117172276
 21
90.49838135063067
 31
0.0
  0
LINE
  5
113
330
1F
100
AcDbEntity
  8
0-0
  6
JWW_DASHED1
 62
   120
370
     5
100
AcDbLine
 10
-592.5062661171797
 20
-489.6021237141603
 30
0.0
 11
-2.506266117172276
 21
100.397876285847
 31
0.0
  0
LINE
  5
114
330
1F
100
AcDbEntity
  8
0-0
  6
JWW_DASHED1
 62
   120
370
     5
100
AcDbLine
 10
-592.5062661171917
 20
-479.7026287790114
 30
0.0
 11
-2.506266117172276
 21
110.2973712210084
 31
0.0
  0
LINE
  5
115
330
1F
100
AcDbEntity
  8
0-0
  6
JWW_DASHED1
 62
   120
370
     5
100
AcDbLine
 10
-592.5062661171678
 20
-469.8031338437711
 30
0.0
 11
-2.506266117172276
 21
120.1968661562247
 31
0.0
  0
LINE
  5
116
330
1F
100
AcDbEntity
  8
0-0
  6
JWW_DASHED1
 62
   120
370
     5
100
AcDbLine
 10
-592.5062661171763
 20
-459.9036389085633
 30
0.0
 11
-2.506266117172276
 21
130.0963610914411
 31
0.0
  0
LINE
  5
117
330
1F
100
AcDbEntity
  8
0-0
  6
JWW_DASHED1
 62
   120
370
     5
100
AcDbLine
 10
-592.50626611719
 20
-450.0041439734143
 30
0.0
 11
-2.506266117172276
 21
139.9958560266029
 31
0.0
  0
LINE
  5
118
330
1F
100
AcDbEntity
  8
0-0
  6
JWW_DASHED1
 62
   120
370
     5
100
AcDbLine
 10
-592.5062661171695
 20
-440.1046490381775
 30
0.0
 11
-2.506266117172276
 21
149.8953509618192
 31
0.0
  0
LINE
  5
119
330
1F
100
AcDbEntity
  8
0-0
  6
JWW_DASHED1
 62
   120
370
     5
100
AcDbLine
 10
-592.5062661171746
 20
-430.2051541029663
 30
0.0
 11
-2.506266117172276
 21
159.7948458970356
 31
0.0
  0
LINE
  5
11A
330
1F
100
AcDbEntity
  8
0-0
  6
JWW_DASHED1
 62
   120
370
     5
100
AcDbLine
 10
-592.5062661171866
 20
-420.3056591678173
 30
0.0
 11
-2.506266117172276
 21
169.6943408321974
 31
0.0
  0
LINE
  5
11B
330
1F
100
AcDbEntity
  8
0-0
  6
JWW_DASHED1
 62
   120
370
     5
100
AcDbLine
 10
-592.5062661171678
 20
-410.4061642325813
 30
0.0
 11
-2.506266117172276
 21
179.5938357674137
 31
0.0
  0
LINE
  5
11C
330
1F
100
AcDbEntity
  8
0-0
  6
JWW_DASHED1
 62
   120
370
     5
100
AcDbLine
 10
-592.5062661171712
 20
-400.5066692973692
 30
0.0
 11
-2.506266117172276
 21
189.4933307026301
 31
0.0
  0
LINE
  5
11D
330
1F
100
AcDbEntity
  8
0-0
  6
JWW_DASHED1
 62
   120
370
     5
100
AcDbLine
 10
-592.5062661171849
 20
-390.6071743622202
 30
0.0
 11
-2.506266117172276
 21
199.3928256377918
 31
0.0
  0
LINE
  5
11E
330
1F
100
AcDbEntity
  8
0-0
  6
JWW_DASHED1
 62
   120
370
     5
100
AcDbLine
 10
-592.5062661171934
 20
-380.7076794270124
 30
0.0
 11
-2.506266117172276
 21
209.2923205730078
 31
0.0
  0
LINE
  5
11F
330
1F
100
AcDbEntity
  8
0-0
  6
JWW_DASHED1
 62
   120
370
     5
100
AcDbLine
 10
-592.5062661171695
 20
-370.8081844917722
 30
0.0
 11
-2.506266117172276
 21
219.1918155082241
 31
0.0
  0
LINE
  5
120
330
1F
100
AcDbEntity
  8
0-0
  6
JWW_DASHED1
 62
   120
370
     5
100
AcDbLine
 10
-592.5062661171814
 20
-360.9086895566232
 30
0.0
 11
-2.506266117172276
 21
229.0913104433863
 31
0.0
  0
LINE
  5
121
330
1F
100
AcDbEntity
  8
0-0
  6
JWW_DASHED1
 62
   120
370
     5
100
AcDbLine
 10
-592.50626611719
 20
-351.0091946214154
 30
0.0
 11
-2.506266117172276
 21
238.9908053786027
 31
0.0
  0
LINE
  5
122
330
1F
100
AcDbEntity
  8
0-0
  6
JWW_DASHED1
 62
   120
370
     5
100
AcDbLine
 10
-592.5062661171712
 20
-341.1096996862344
 30
0.0
 11
-2.506266117172276
 21
248.8903003137645
 31
0.0
  0
LINE
  5
123
330
1F
100
AcDbEntity
  8
0-0
  6
JWW_DASHED1
 62
   120
370
     5
100
AcDbLine
 10
-592.5062661171797
 20
-331.2102047510261
 30
0.0
 11
-2.506266117172276
 21
258.7897952489812
 31
0.0
  0
LINE
  5
124
330
1F
100
AcDbEntity
  8
0-0
  6
JWW_DASHED1
 62
   120
370
     5
100
AcDbLine
 10
-592.5062661171883
 20
-321.3107098158183
 30
0.0
 11
-2.506266117172276
 21
268.6892901841971
 31
0.0
  0
LINE
  5
125
330
1F
100
AcDbEntity
  8
0-0
  6
JWW_DASHED1
 62
   120
370
     5
100
AcDbLine
 10
-592.5062661171695
 20
-311.4112148806378
 30
0.0
 11
-2.506266117172276
 21
278.5887851193594
 31
0.0
  0
LINE
  5
126
330
1F
100
AcDbEntity
  8
0-0
  6
JWW_DASHED1
 62
   120
370
     5
100
AcDbLine
 10
-592.5062661171763
 20
-301.5117199454291
 30
0.0
 11
-2.506266117172276
 21
288.4882800545753
 31
0.0
  0
LINE
  5
127
330
1F
100
AcDbEntity
  8
0-0
  6
JWW_DASHED1
 62
   120
370
     5
100
AcDbLine
 10
-592.5062661171849
 20
-291.6122250102213
 30
0.0
 11
-2.506266117172276
 21
298.3877749897916
 31
0.0
  0
LINE
  5
128
330
1F
100
AcDbEntity
  8
0-0
  6
JWW_DASHED1
 62
   120
370
     5
100
AcDbLine
 10
-592.5062661171712
 20
-281.7127300750458
 30
0.0
 11
-2.506266117172276
 21
308.287269924953
 31
0.0
  0
LINE
  5
129
330
1F
100
AcDbEntity
  8
0-0
  6
JWW_DASHED1
 62
   120
370
     5
100
AcDbLine
 10
-592.5062661171754
 20
-271.8132351398334
 30
0.0
 11
-2.506266117172276
 21
318.1867648601698
 31
0.0
  0
LINE
  5
12A
330
1F
100
AcDbEntity
  8
0-0
  6
JWW_DASHED1
 62
   120
370
     5
100
AcDbLine
 10
-592.5062661171831
 20
-261.9137402046242
 30
0.0
 11
-2.506266117172276
 21
328.0862597953866
 31
0.0
  0
LINE
  5
12B
330
1F
100
AcDbEntity
  8
0-0
  6
JWW_DASHED1
 62
   120
370
     5
100
AcDbLine
 10
-592.5062661171695
 20
-252.0142452694488
 30
0.0
 11
-2.506266117172276
 21
337.9857547305475
 31
0.0
  0
LINE
  5
12C
330
1F
100
AcDbEntity
  8
0-0
  6
JWW_DASHED1
 62
   120
370
     5
100
AcDbLine
 10
-592.506266117172
 20
-242.1147503342354
 30
0.0
 11
-2.506266117172276
 21
347.8852496657647
 31
0.0
  0
LINE
  5
12D
330
1F
100
AcDbEntity
  8
0-0
  6
JWW_DASHED1
 62
   120
370
     5
100
AcDbLine
 10
-592.5062661171797
 20
-232.2152553990272
 30
0.0
 11
-2.506266117172276
 21
357.7847446009806
 31
0.0
  0
LINE
  5
12E
330
1F
100
AcDbEntity
  8
0-0
  6
JWW_DASHED1
 62
   120
370
     5
100
AcDbLine
 10
-592.5062661171661
 20
-222.3157604638517
 30
0.0
 11
-2.506266117172276
 21
367.6842395361429
 31
0.0
  0
LINE
  5
12F
330
1F
100
AcDbEntity
  8
0-0
  6
JWW_DASHED1
 62
   120
370
     5
100
AcDbLine
 10
-592.5062661171703
 20
-212.4162655286388
 30
0.0
 11
-2.506266117172276
 21
377.5837344713584
 31
0.0
  0
LINE
  5
130
330
1F
100
AcDbEntity
  8
0-0
  6
JWW_DASHED1
 62
   120
370
     5
100
AcDbLine
 10
-592.506266117178
 20
-202.5167705934306
 30
0.0
 11
-2.506266117172276
 21
387.4832294065751
 31
0.0
  0
LINE
  5
131
330
1F
100
AcDbEntity
  8
0-0
  6
JWW_DASHED1
 62
   120
370
     5
100
AcDbLine
 10
-592.5062661171908
 20
-192.6172756582816
 30
0.0
 11
-2.506266117172276
 21
397.382724341736
 31
0.0
  0
LINE
  5
132
330
1F
100
AcDbEntity
  8
0-0
  6
JWW_DASHED1
 62
   120
370
     5
100
AcDbLine
 10
-592.5062661171678
 20
-182.7177807230418
 30
0.0
 11
-2.506266117172276
 21
407.2822192769532
 31
0.0
  0
LINE
  5
133
330
1F
100
AcDbEntity
  8
0-0
  6
JWW_DASHED1
 62
   120
370
     5
100
AcDbLine
 10
-592.5062661171754
 20
-172.8182857878335
 30
0.0
 11
-2.506266117172276
 21
417.1817142121696
 31
0.0
  0
LINE
  5
134
330
1F
100
AcDbEntity
  8
0-0
  6
JWW_DASHED1
 62
   120
370
     5
100
AcDbLine
 10
-592.5062661171883
 20
-162.9187908526845
 30
0.0
 11
-2.506266117172276
 21
427.0812091473318
 31
0.0
  0
LINE
  5
135
330
1F
100
AcDbEntity
  8
0-0
  6
JWW_DASHED1
 62
   120
370
     5
100
AcDbLine
 10
-592.5062661171712
 20
-153.0192959174511
 30
0.0
 11
-2.506266117172276
 21
436.9807040825477
 31
0.0
  0
LINE
  5
136
330
1F
100
AcDbEntity
  8
0-0
  6
JWW_DASHED1
 62
   120
370
     5
100
AcDbLine
 10
-592.5062661171729
 20
-143.1198009822365
 30
0.0
 11
-2.506266117172276
 21
446.8801990177641
 31
0.0
  0
LINE
  5
137
330
1F
100
AcDbEntity
  8
0-0
  6
JWW_DASHED1
 62
   120
370
     5
100
AcDbLine
 10
-592.5062661171856
 20
-133.2203060470875
 30
0.0
 11
-2.506266117172276
 21
456.7796939529255
 31
0.0
  0
LINE
  5
138
330
1F
100
AcDbEntity
  8
0-0
  6
JWW_DASHED1
 62
   120
370
     5
100
AcDbLine
 10
-592.5062661171686
 20
-123.3208111118541
 30
0.0
 11
-2.506266117172276
 21
466.6791888881422
 31
0.0
  0
LINE
  5
139
330
1F
100
AcDbEntity
  8
0-0
  6
JWW_DASHED1
 62
   120
370
     5
100
AcDbLine
 10
-592.5062661171746
 20
-113.4213161766987
 30
0.0
 11
-2.506266117172276
 21
476.5786838233036
 31
0.0
  0
LINE
  5
13A
330
1F
100
AcDbEntity
  8
0-0
  6
JWW_DASHED1
 62
   120
370
     5
100
AcDbLine
 10
-592.5062661171831
 20
-103.5218212414904
 30
0.0
 11
-2.506266117172276
 21
486.4781787585208
 31
0.0
  0
LINE
  5
13B
330
1F
100
AcDbEntity
  8
0-0
  6
JWW_DASHED1
 62
   120
370
     5
100
AcDbLine
 10
-592.5062661171917
 20
-93.62232630628259
 30
0.0
 11
-2.506266117172276
 21
496.3776736937367
 31
0.0
  0
LINE
  5
13C
330
1F
100
AcDbEntity
  8
0-0
  6
JWW_DASHED1
 62
   120
370
     5
100
AcDbLine
 10
-592.5062661171729
 20
-83.72283137110162
 30
0.0
 11
-2.506266117172276
 21
506.2771686288981
 31
0.0
  0
LINE
  5
13D
330
1F
100
AcDbEntity
  8
0-0
  6
JWW_DASHED1
 62
   120
370
     5
100
AcDbLine
 10
-592.5062661171814
 20
-73.8233364358938
 30
0.0
 11
-2.506266117172276
 21
516.1766635641153
 31
0.0
  0
LINE
  5
13E
330
1F
100
AcDbEntity
  8
0-0
  6
JWW_DASHED1
 62
   120
370
     5
100
AcDbLine
 10
-592.506266117189
 20
-63.92384150068555
 30
0.0
 11
-2.506266117172276
 21
526.0761584993312
 31
0.0
  0
LINE
  5
13F
330
1F
100
AcDbEntity
  8
0-0
  6
JWW_DASHED1
 62
   120
370
     5
100
AcDbLine
 10
-592.5062661171695
 20
-54.02434656550458
 30
0.0
 11
-2.506266117172276
 21
535.975653434493
 31
0.0
  0
LINE
  5
140
330
1F
100
AcDbEntity
  8
0-0
  6
JWW_DASHED1
 62
   120
370
     5
100
AcDbLine
 10
-592.5062661171788
 20
-44.12485163029675
 30
0.0
 11
-2.506266117172276
 21
545.8751483697089
 31
0.0
  0
LINE
  5
141
330
1F
100
AcDbEntity
  8
0-0
  6
JWW_DASHED1
 62
   120
370
     5
100
AcDbLine
 10
-592.5062661171866
 20
-34.2253566950885
 30
0.0
 11
-2.506266117172276
 21
555.7746433049257
 31
0.0
  0
LINE
  5
142
330
1F
100
AcDbEntity
  8
0-0
  6
JWW_DASHED1
 62
   120
370
     5
100
AcDbLine
 10
-592.5062661171678
 20
-24.32586175990753
 30
0.0
 11
-2.506266117172276
 21
565.674138240087
 31
0.0
  0
LINE
  5
143
330
1F
100
AcDbEntity
  8
0-0
  6
JWW_DASHED1
 62
   120
370
     5
100
AcDbLine
 10
-592.5062661171763
 20
-14.42636682469971
 30
0.0
 11
-2.506266117172276
 21
575.5736331753042
 31
0.0
  0
LINE
  5
144
330
1F
100
AcDbEntity
  8
0-0
  6
JWW_DASHED1
 62
   120
370
     5
100
AcDbLine
 10
-592.5062661171849
 20
-4.526871889492305
 30
0.0
 11
-2.506266117172276
 21
585.4731281105202
 31
0.0
  0
LINE
  5
145
330
1F
100
AcDbEntity
  8
0-0
  6
JWW_DASHED1
 62
   120
370
     5
100
AcDbLine
 10
-592.5062661171729
 20
5.372623045681841
 30
0.0
 11
-2.506266117172276
 21
595.3726230456815
 31
0.0
  0
LINE
  5
146
330
1F
100
AcDbEntity
  8
0-0
  6
JWW_DASHED1
 62
   120
370
     5
100
AcDbLine
 10
-592.5062661171729
 20
15.27211798089734
 30
0.0
 11
-2.506266117172276
 21
605.2721179808979
 31
0.0
  0
LINE
  5
147
330
1F
100
AcDbEntity
  8
0-0
  6
JWW_DASHED1
 62
   120
370
     5
100
AcDbLine
 10
-592.5062661171822
 20
25.17161291610474
 30
0.0
 11
-2.506266117172276
 21
615.1716129161142
 31
0.0
  0
LINE
  5
148
330
1F
100
AcDbEntity
  8
0-0
  6
JWW_DASHED1
 62
   120
370
     5
100
AcDbLine
 10
-592.5062661171703
 20
35.07110785127889
 30
0.0
 11
-2.506266117172276
 21
625.0711078512765
 31
0.0
  0
LINE
  5
149
330
1F
100
AcDbEntity
  8
0-0
  6
JWW_DASHED1
 62
   120
370
     5
100
AcDbLine
 10
-592.5062661171712
 20
44.97060278649439
 30
0.0
 11
-2.506266117172276
 21
634.9706027864923
 31
0.0
  0
LINE
  5
14A
330
1F
100
AcDbEntity
  8
0-0
  6
JWW_DASHED1
 62
   120
370
     5
100
AcDbLine
 10
-592.5062661171797
 20
54.87009772170179
 30
0.0
 11
-2.506266117172276
 21
644.8700977217092
 31
0.0
  0
LINE
  5
14B
330
1F
100
AcDbEntity
  8
0-0
  6
JWW_DASHED1
 62
   120
370
     5
100
AcDbLine
 10
-592.5062661171839
 20
64.76959265685932
 30
0.0
 11
-2.506266117172276
 21
654.7695926568709
 31
0.0
  0
LINE
  5
14C
330
1F
100
AcDbEntity
  8
0-0
  6
JWW_DASHED1
 62
   120
370
     5
100
AcDbLine
 10
-592.5062661171678
 20
74.66908759209144
 30
0.0
 11
-2.506266117172276
 21
664.6690875920876
 31
0.0
  0
LINE
  5
14D
330
1F
100
AcDbEntity
  8
0-0
  6
JWW_DASHED1
 62
   120
370
     5
100
AcDbLine
 10
-592.5062661171814
 20
84.56858252724044
 30
0.0
 11
-2.506266117172276
 21
674.5685825272494
 31
0.0
  0
LINE
  5
14E
330
1F
100
AcDbEntity
  8
0-0
  6
JWW_DASHED1
 62
   120
370
     5
100
AcDbLine
 10
-592.50626611719
 20
94.46807746244826
 30
0.0
 11
-2.506266117172276
 21
684.4680774624658
 31
0.0
  0
LINE
  5
14F
330
1F
100
AcDbEntity
  8
0-0
  6
JWW_DASHED1
 62
   120
370
     5
100
AcDbLine
 10
-592.5062661171661
 20
104.3675723976885
 30
0.0
 11
-2.506266117172276
 21
694.3675723976813
 31
0.0
  0
LINE
  5
150
330
1F
100
AcDbEntity
  8
0-0
  6
JWW_DASHED1
 62
   120
370
     5
100
AcDbLine
 10
-592.5062661171797
 20
114.2670673328371
 30
0.0
 11
-2.506266117172276
 21
704.2670673328436
 31
0.0
  0
LINE
  5
151
330
1F
100
AcDbEntity
  8
0-0
  6
JWW_DASHED1
 62
   120
370
     5
100
AcDbLine
 10
-592.5062661171866
 20
124.1665622680453
 30
0.0
 11
-2.506266117172276
 21
714.1665622680595
 31
0.0
  0
LINE
  5
152
330
1F
100
AcDbEntity
  8
0-0
  6
JWW_DASHED1
 62
   120
370
     5
100
AcDbLine
 10
-592.5062661171729
 20
134.0660572032766
 30
0.0
 11
-2.506266117172276
 21
724.0660572032766
 31
0.0
  0
LINE
  5
153
330
1F
100
AcDbEntity
  8
0-0
  6
JWW_DASHED1
 62
   120
370
     5
100
AcDbLine
 10
-592.5062661171763
 20
143.9655521384345
 30
0.0
 11
-2.506266117172276
 21
733.9655521384384
 31
0.0
  0
LINE
  5
154
330
1F
100
AcDbEntity
  8
0-0
  6
JWW_DASHED1
 62
   120
370
     5
100
AcDbLine
 10
-592.5062661171849
 20
153.8650470736424
 30
0.0
 11
-2.506266117172276
 21
743.8650470736548
 31
0.0
  0
LINE
  5
155
330
1F
100
AcDbEntity
  8
0-0
  6
JWW_DASHED1
 62
   120
370
     5
100
AcDbLine
 10
-592.5062661171703
 20
163.7645420088728
 30
0.0
 11
-2.506266117172276
 21
753.7645420088711
 31
0.0
  0
LINE
  5
156
330
1F
100
AcDbEntity
  8
0-0
  6
JWW_DASHED1
 62
   120
370
     5
100
AcDbLine
 10
-592.5062661171746
 20
173.6640369440303
 30
0.0
 11
-2.506266117172276
 21
763.6640369440325
 31
0.0
  0
LINE
  5
157
330
1F
100
AcDbEntity
  8
0-0
  6
JWW_DASHED1
 62
   120
370
     5
100
AcDbLine
 10
-592.5062661171814
 20
183.5635318792394
 30
0.0
 11
-2.506266117172276
 21
773.5635318792484
 31
0.0
  0
LINE
  5
158
330
1F
100
AcDbEntity
  8
0-0
  6
JWW_DASHED1
 62
   120
370
     5
100
AcDbLine
 10
-592.5062661171908
 20
193.4630268144468
 30
0.0
 11
-2.506266117172276
 21
783.4630268144648
 31
0.0
  0
LINE
  5
159
330
1F
100
AcDbEntity
  8
0-0
  6
JWW_DASHED1
 62
   120
370
     5
100
AcDbLine
 10
-592.506266117172
 20
203.3625217496273
 30
0.0
 11
-2.506266117172276
 21
793.362521749627
 31
0.0
  0
LINE
  5
15A
330
1F
100
AcDbEntity
  8
0-0
  6
JWW_DASHED1
 62
   120
370
     5
100
AcDbLine
 10
-592.5062661171797
 20
213.2620166848356
 30
0.0
 11
-2.506266117172276
 21
803.2620166848434
 31
0.0
  0
LINE
  5
15B
330
1F
100
AcDbEntity
  8
0-0
  6
JWW_DASHED1
 62
   120
370
     5
100
AcDbLine
 10
-592.5062661171883
 20
223.1615116200443
 30
0.0
 11
-2.506266117172276
 21
813.1615116200601
 31
0.0
  0
LINE
  5
15C
330
1F
100
AcDbEntity
  8
0-0
  6
JWW_DASHED1
 62
   120
370
     5
100
AcDbLine
 10
-592.5062661171695
 20
233.0610065552244
 30
0.0
 11
-2.506266117172276
 21
823.0610065552215
 31
0.0
  0
LINE
  5
15D
330
1F
100
AcDbEntity
  8
0-0
  6
JWW_DASHED1
 62
   120
370
     5
100
AcDbLine
 10
-592.506266117178
 20
242.9605014904326
 30
0.0
 11
-2.506266117172276
 21
832.9605014904379
 31
0.0
  0
LINE
  5
15E
330
1F
100
AcDbEntity
  8
0-0
  6
JWW_DASHED1
 62
   120
370
     5
100
AcDbLine
 10
-592.5062661171866
 20
252.8599964256405
 30
0.0
 11
-2.506266117172276
 21
842.8599964256538
 31
0.0
  0
LINE
  5
15F
330
1F
100
AcDbEntity
  8
0-0
  6
JWW_DASHED1
 62
   120
370
     5
100
AcDbLine
 10
-592.5062661171669
 20
262.7594913608214
 30
0.0
 11
-2.506266117172276
 21
852.759491360816
 31
0.0
  0
LINE
  5
160
330
1F
100
AcDbEntity
  8
0-0
  6
JWW_DASHED1
 62
   120
370
     5
100
AcDbLine
 10
-592.5062661171754
 20
272.6589862960292
 30
0.0
 11
-2.506266117172276
 21
862.6589862960319
 31
0.0
  0
LINE
  5
161
330
1F
100
AcDbEntity
  8
0-0
  6
JWW_DASHED1
 62
   120
370
     5
100
AcDbLine
 10
-592.5062661171856
 20
282.5584812312081
 30
0.0
 11
-2.506266117172276
 21
872.5584812312214
 31
0.0
  0
LINE
  5
162
330
1F
100
AcDbEntity
  8
0-0
  6
JWW_DASHED1
 62
   120
370
     5
100
AcDbLine
 10
-592.5062661171737
 20
292.457976166409
 30
0.0
 11
-2.506266117172276
 21
882.4579761664108
 31
0.0
  0
LINE
  5
163
330
1F
100
AcDbEntity
  8
0-0
  6
JWW_DASHED1
 62
   120
370
     5
100
AcDbLine
 10
-592.5062661171729
 20
302.3574711016263
 30
0.0
 11
-2.506266117172276
 21
892.3574711016269
 31
0.0
  0
LINE
  5
164
330
1F
100
AcDbEntity
  8
0-0
  6
JWW_DASHED1
 62
   120
370
     5
100
AcDbLine
 10
-592.5062661171849
 20
312.2569660367761
 30
0.0
 11
-2.506266117172276
 21
902.2569660367886
 31
0.0
  0
LINE
  5
165
330
1F
100
AcDbEntity
  8
0-0
  6
JWW_DASHED1
 62
   120
370
     5
100
AcDbLine
 10
-592.5062661171712
 20
322.1564609720061
 30
0.0
 11
-2.506266117172276
 21
912.1564609720045
 31
0.0
  0
LINE
  5
166
330
1F
100
AcDbEntity
  8
0-0
  6
JWW_DASHED1
 62
   120
370
     5
100
AcDbLine
 10
-592.5062661171703
 20
332.0559559072233
 30
0.0
 11
-2.506266117172276
 21
922.0559559072213
 31
0.0
  0
LINE
  5
167
330
1F
100
AcDbEntity
  8
0-0
  6
JWW_DASHED1
 62
   120
370
     5
100
AcDbLine
 10
-592.5062661171831
 20
341.9554508423723
 30
0.0
 11
-2.506266117172276
 21
931.9554508423831
 31
0.0
  0
LINE
  5
168
330
1F
100
AcDbEntity
  8
0-0
  6
JWW_DASHED1
 62
   120
370
     5
100
AcDbLine
 10
-592.50626611719
 20
351.8549457775815
 30
0.0
 11
-2.506266117172276
 21
941.854945777599
 31
0.0
  0
LINE
  5
169
330
1F
100
AcDbEntity
  8
0-0
  6
JWW_DASHED1
 62
   120
370
     5
100
AcDbLine
 10
-592.5062661171678
 20
361.7544407128204
 30
0.0
 11
-2.506266117172276
 21
951.7544407128154
 31
0.0
  0
LINE
  5
16A
330
1F
100
AcDbEntity
  8
0-0
  6
JWW_DASHED1
 62
   120
370
     5
100
AcDbLine
 10
-592.5062661171805
 20
371.6539356479693
 30
0.0
 11
-2.506266117172276
 21
961.653935647977
 31
0.0
  0
LINE
  5
16B
330
1F
100
AcDbEntity
  8
0-0
  6
JWW_DASHED1
 62
   120
370
     5
100
AcDbLine
 10
-592.506266117189
 20
381.5534305831771
 30
0.0
 11
-2.506266117172276
 21
971.5534305831934
 31
0.0
  0
LINE
  5
16C
330
1F
100
AcDbEntity
  8
0-0
  6
JWW_DASHED1
 62
   120
370
     5
100
AcDbLine
 10
-592.5062661171754
 20
391.4529255184071
 30
0.0
 11
-2.506266117172276
 21
981.4529255184102
 31
0.0
  0
LINE
  5
16D
330
1F
100
AcDbEntity
  8
0-0
  6
JWW_DASHED1
 62
   120
370
     5
100
AcDbLine
 10
-592.506266117178
 20
401.3524204535664
 30
0.0
 11
-2.506266117172276
 21
991.3524204535715
 31
0.0
  0
LINE
  5
16E
330
1F
100
AcDbEntity
  8
0-0
  6
JWW_DASHED1
 62
   120
370
     5
100
AcDbLine
 10
-592.5062661171866
 20
411.2519153887743
 30
0.0
 11
-2.506266117172276
 21
1001.251915388788
 31
0.0
  0
LINE
  5
16F
330
1F
100
AcDbEntity
  8
0-0
  6
JWW_DASHED1
 62
   120
370
     5
100
AcDbLine
 10
-592.5062661171729
 20
421.1514103240038
 30
0.0
 11
-2.506266117172276
 21
1011.151410324005
 31
0.0
  0
LINE
  5
170
330
1F
100
AcDbEntity
  8
0-0
  6
JWW_DASHED1
 62
   120
370
     5
100
AcDbLine
 10
-592.5062661171754
 20
431.0509052591634
 30
0.0
 11
-2.506266117172276
 21
1021.050905259166
 31
0.0
  0
LINE
  5
171
330
1F
100
AcDbEntity
  8
0-0
  6
JWW_DASHED1
 62
   120
370
     5
100
AcDbLine
 10
-592.5062661171839
 20
440.9504001943712
 30
0.0
 11
-2.506266117172276
 21
1030.950400194383
 31
0.0
  0
LINE
  5
172
330
1F
100
AcDbEntity
  8
0-0
  6
JWW_DASHED1
 62
   120
370
     5
100
AcDbLine
 10
187.4937338828288
 20
460.7493900647605
 30
0.0
 11
770.5184210422509
 21
1043.774077224182
 31
0.0
  0
LINE
  5
173
330
1F
100
AcDbEntity
  8
0-0
  6
JWW_DASHED1
 62
   120
370
     5
100
AcDbLine
 10
187.4937338828203
 20
470.6488849999683
 30
0.0
 11
760.6189261070431
 21
1043.774077224191
 31
0.0
  0
LINE
  5
174
330
1F
100
AcDbEntity
  8
0-0
  6
JWW_DASHED1
 62
   120
370
     5
100
AcDbLine
 10
187.4937338828118
 20
480.5483799351762
 30
0.0
 11
750.7194311718353
 21
1043.774077224199
 31
0.0
  0
LINE
  5
175
330
1F
100
AcDbEntity
  8
0-0
  6
JWW_DASHED1
 62
   120
370
     5
100
AcDbLine
 10
187.4937338828314
 20
490.4478748703575
 30
0.0
 11
740.8199362366666
 21
1043.774077224193
 31
0.0
  0
LINE
  5
176
330
1F
100
AcDbEntity
  8
0-0
  6
JWW_DASHED1
 62
   120
370
     5
100
AcDbLine
 10
187.4937338828229
 20
500.3473698055653
 30
0.0
 11
730.9204413014452
 21
1043.774077224188
 31
0.0
  0
LINE
  5
177
330
1F
100
AcDbEntity
  8
0-0
  6
JWW_DASHED1
 62
   120
370
     5
100
AcDbLine
 10
187.4937338828306
 20
510.2468647407345
 30
0.0
 11
721.0209463662936
 21
1043.774077224198
 31
0.0
  0
LINE
  5
178
330
1F
100
AcDbEntity
  8
0-0
  6
JWW_DASHED1
 62
   120
370
     5
100
AcDbLine
 10
187.493733882834
 20
520.1463596759542
 30
0.0
 11
711.1214514310705
 21
1043.774077224191
 31
0.0
  0
LINE
  5
179
330
1F
100
AcDbEntity
  8
0-0
  6
JWW_DASHED1
 62
   120
370
     5
100
AcDbLine
 10
187.4937338828254
 20
530.0458546111624
 30
0.0
 11
701.2219564958499
 21
1043.774077224187
 31
0.0
  0
LINE
  5
17A
330
1F
100
AcDbEntity
  8
0-0
  6
JWW_DASHED1
 62
   120
370
     5
100
AcDbLine
 10
187.4937338828126
 20
539.9453495463115
 30
0.0
 11
691.3224615607008
 21
1043.7740772242
 31
0.0
  0
LINE
  5
17B
330
1F
100
AcDbEntity
  8
0-0
  6
JWW_DASHED1
 62
   120
370
     5
100
AcDbLine
 10
187.4937338828357
 20
549.8448444815508
 30
0.0
 11
681.4229666254726
 21
1043.774077224188
 31
0.0
  0
LINE
  5
17C
330
1F
100
AcDbEntity
  8
0-0
  6
JWW_DASHED1
 62
   120
370
     5
100
AcDbLine
 10
187.493733882828
 20
559.7443394167595
 30
0.0
 11
671.5234716902528
 21
1043.774077224185
 31
0.0
  0
LINE
  5
17D
330
1F
100
AcDbEntity
  8
0-0
  6
JWW_DASHED1
 62
   120
370
     5
100
AcDbLine
 10
187.4937338828152
 20
569.6438343519085
 30
0.0
 11
661.6239767551046
 21
1043.774077224198
 31
0.0
  0
LINE
  5
17E
330
1F
100
AcDbEntity
  8
0-0
  6
JWW_DASHED1
 62
   120
370
     5
100
AcDbLine
 10
187.4937338828271
 20
579.5433292871363
 30
0.0
 11
651.7244818198917
 21
1043.774077224201
 31
0.0
  0
LINE
  5
17F
330
1F
100
AcDbEntity
  8
0-0
  6
JWW_DASHED1
 62
   120
370
     5
100
AcDbLine
 10
187.4937338828306
 20
589.4428242223565
 30
0.0
 11
641.8249868846566
 21
1043.774077224183
 31
0.0
  0
LINE
  5
180
330
1F
100
AcDbEntity
  8
0-0
  6
JWW_DASHED1
 62
   120
370
     5
100
AcDbLine
 10
187.4937338828178
 20
599.3423191575056
 30
0.0
 11
631.9254919495077
 21
1043.774077224195
 31
0.0
  0
LINE
  5
181
330
1F
100
AcDbEntity
  8
0-0
  6
JWW_DASHED1
 62
   120
370
     5
100
AcDbLine
 10
187.4937338828288
 20
609.2418140927325
 30
0.0
 11
622.0259970142947
 21
1043.774077224199
 31
0.0
  0
LINE
  5
182
330
1F
100
AcDbEntity
  8
0-0
  6
JWW_DASHED1
 62
   120
370
     5
100
AcDbLine
 10
187.4937338828323
 20
619.1413090279523
 30
0.0
 11
612.1265020790706
 21
1043.774077224191
 31
0.0
  0
LINE
  5
183
330
1F
100
AcDbEntity
  8
0-0
  6
JWW_DASHED1
 62
   120
370
     5
100
AcDbLine
 10
187.4937338828203
 20
629.0408039631021
 30
0.0
 11
602.2270071439123
 21
1043.774077224194
 31
0.0
  0
LINE
  5
184
330
1F
100
AcDbEntity
  8
0-0
  6
JWW_DASHED1
 62
   120
370
     5
100
AcDbLine
 10
187.4937338828118
 20
638.9402988983104
 30
0.0
 11
592.3275122087044
 21
1043.774077224203
 31
0.0
  0
LINE
  5
185
330
1F
100
AcDbEntity
  8
0-0
  6
JWW_DASHED1
 62
   120
370
     5
100
AcDbLine
 10
187.4937338828357
 20
648.8397938335502
 30
0.0
 11
582.4280172734736
 21
1043.774077224188
 31
0.0
  0
LINE
  5
186
330
1F
100
AcDbEntity
  8
0-0
  6
JWW_DASHED1
 62
   120
370
     5
100
AcDbLine
 10
187.493733882822
 20
658.7392887686992
 30
0.0
 11
572.5285223383144
 21
1043.774077224191
 31
0.0
  0
LINE
  5
187
330
1F
100
AcDbEntity
  8
0-0
  6
JWW_DASHED1
 62
   120
370
     5
100
AcDbLine
 10
187.4937338828144
 20
668.6387837039075
 30
0.0
 11
562.6290274031074
 21
1043.7740772242
 31
0.0
  0
LINE
  5
188
330
1F
100
AcDbEntity
  8
0-0
  6
JWW_DASHED1
 62
   120
370
     5
100
AcDbLine
 10
187.493733882822
 20
678.5382786391046
 30
0.0
 11
552.7295324679209
 21
1043.774077224203
 31
0.0
  0
LINE
  5
189
330
1F
100
AcDbEntity
  8
0-0
  6
JWW_DASHED1
 62
   120
370
     5
100
AcDbLine
 10
187.4937338828246
 20
688.4377735742959
 30
0.0
 11
542.8300375327191
 21
1043.77407722419
 31
0.0
  0
LINE
  5
18A
330
1F
100
AcDbEntity
  8
0-0
  6
JWW_DASHED1
 62
   120
370
     5
100
AcDbLine
 10
187.4937338828169
 20
698.3372685095045
 30
0.0
 11
532.9305425975112
 21
1043.774077224199
 31
0.0
  0
LINE
  5
18B
330
1F
100
AcDbEntity
  8
0-0
  6
JWW_DASHED1
 62
   120
370
     5
100
AcDbLine
 10
187.4937338828357
 20
708.236763444685
 30
0.0
 11
523.0310476623383
 21
1043.774077224187
 31
0.0
  0
LINE
  5
18C
330
1F
100
AcDbEntity
  8
0-0
  6
JWW_DASHED1
 62
   120
370
     5
100
AcDbLine
 10
187.4937338828271
 20
718.1362583798932
 30
0.0
 11
513.131552727122
 21
1043.774077224188
 31
0.0
  0
LINE
  5
18D
330
1F
100
AcDbEntity
  8
0-0
  6
JWW_DASHED1
 62
   120
370
     5
100
AcDbLine
 10
187.4937338828186
 20
728.0357533151011
 30
0.0
 11
503.2320577919142
 21
1043.774077224196
 31
0.0
  0
LINE
  5
18E
330
1F
100
AcDbEntity
  8
0-0
  6
JWW_DASHED1
 62
   120
370
     5
100
AcDbLine
 10
187.4937338828254
 20
737.9352482502688
 30
0.0
 11
493.3325628567567
 21
1043.7740772242
 31
0.0
  0
LINE
  5
18F
330
1F
100
AcDbEntity
  8
0-0
  6
JWW_DASHED1
 62
   120
370
     5
100
AcDbLine
 10
187.4937338828297
 20
747.83474318549
 30
0.0
 11
483.4330679215258
 21
1043.774077224186
 31
0.0
  0
LINE
  5
190
330
1F
100
AcDbEntity
  8
0-0
  6
JWW_DASHED1
 62
   120
370
     5
100
AcDbLine
 10
187.493733882822
 20
757.7342381206981
 30
0.0
 11
473.533572986318
 21
1043.774077224195
 31
0.0
  0
LINE
  5
191
330
1F
100
AcDbEntity
  8
0-0
  6
JWW_DASHED1
 62
   120
370
     5
100
AcDbLine
 10
187.4937338828271
 20
767.6337330558655
 30
0.0
 11
463.6340780511596
 21
1043.774077224198
 31
0.0
  0
LINE
  5
192
330
1F
100
AcDbEntity
  8
0-0
  6
JWW_DASHED1
 62
   120
370
     5
100
AcDbLine
 10
187.4937338828323
 20
777.533227991087
 30
0.0
 11
453.7345831159356
 21
1043.77407722419
 31
0.0
  0
LINE
  5
193
330
1F
100
AcDbEntity
  8
0-0
  6
JWW_DASHED1
 62
   120
370
     5
100
AcDbLine
 10
187.4937338828237
 20
787.4327229262948
 30
0.0
 11
443.8350881807218
 21
1043.774077224193
 31
0.0
  0
LINE
  5
194
330
1F
100
AcDbEntity
  8
0-0
  6
JWW_DASHED1
 62
   120
370
     5
100
AcDbLine
 10
187.4937338828135
 20
797.3322178614459
 30
0.0
 11
433.9355932455728
 21
1043.774077224205
 31
0.0
  0
LINE
  5
195
330
1F
100
AcDbEntity
  8
0-0
  6
JWW_DASHED1
 62
   120
370
     5
100
AcDbLine
 10
187.4937338828348
 20
807.2317127966841
 30
0.0
 11
424.0360983103386
 21
1043.774077224188
 31
0.0
  0
LINE
  5
196
330
1F
100
AcDbEntity
  8
0-0
  6
JWW_DASHED1
 62
   120
370
     5
100
AcDbLine
 10
187.4937338828263
 20
817.1312077318919
 30
0.0
 11
414.1366033751256
 21
1043.774077224191
 31
0.0
  0
LINE
  5
197
330
1F
100
AcDbEntity
  8
0-0
  6
JWW_DASHED1
 62
   120
370
     5
100
AcDbLine
 10
187.4937338828135
 20
827.0307026670408
 30
0.0
 11
404.2371084399766
 21
1043.774077224204
 31
0.0
  0
LINE
  5
198
330
1F
100
AcDbEntity
  8
0-0
  6
JWW_DASHED1
 62
   120
370
     5
100
AcDbLine
 10
187.4937338828374
 20
836.930197602281
 30
0.0
 11
394.3376135047415
 21
1043.774077224185
 31
0.0
  0
LINE
  5
199
330
1F
100
AcDbEntity
  8
0-0
  6
JWW_DASHED1
 62
   120
370
     5
100
AcDbLine
 10
187.4937338828288
 20
846.8296925374889
 30
0.0
 11
384.4381185695286
 21
1043.774077224188
 31
0.0
  0
LINE
  5
19A
330
1F
100
AcDbEntity
  8
0-0
  6
JWW_DASHED1
 62
   120
370
     5
100
AcDbLine
 10
187.4937338828161
 20
856.7291874726379
 30
0.0
 11
374.5386236343796
 21
1043.774077224202
 31
0.0
  0
LINE
  5
19B
330
1F
100
AcDbEntity
  8
0-0
  6
JWW_DASHED1
 62
   120
370
     5
100
AcDbLine
 10
187.4937338828254
 20
866.6286824078636
 30
0.0
 11
364.6391286991598
 21
1043.774077224198
 31
0.0
  0
LINE
  5
19C
330
1F
100
AcDbEntity
  8
0-0
  6
JWW_DASHED1
 62
   120
370
     5
100
AcDbLine
 10
187.4937338828314
 20
876.528177343086
 30
0.0
 11
354.7396337639332
 21
1043.774077224187
 31
0.0
  0
LINE
  5
19D
330
1F
100
AcDbEntity
  8
0-0
  6
JWW_DASHED1
 62
   120
370
     5
100
AcDbLine
 10
187.4937338828186
 20
886.4276722782349
 30
0.0
 11
344.8401388287834
 21
1043.7740772242
 31
0.0
  0
LINE
  5
19E
330
1F
100
AcDbEntity
  8
0-0
  6
JWW_DASHED1
 62
   120
370
     5
100
AcDbLine
 10
187.4937338828271
 20
896.3271672134601
 30
0.0
 11
334.9406438935636
 21
1043.774077224196
 31
0.0
  0
LINE
  5
19F
330
1F
100
AcDbEntity
  8
0-0
  6
JWW_DASHED1
 62
   120
370
     5
100
AcDbLine
 10
187.4937338828297
 20
906.2266621486242
 30
0.0
 11
325.041148958395
 21
1043.77407722419
 31
0.0
  0
LINE
  5
1A0
330
1F
100
AcDbEntity
  8
0-0
  6
JWW_DASHED1
 62
   120
370
     5
100
AcDbLine
 10
187.4937338828212
 20
916.126157083832
 30
0.0
 11
315.1416540231872
 21
1043.774077224198
 31
0.0
  0
LINE
  5
1A1
330
1F
100
AcDbEntity
  8
0-0
  6
JWW_DASHED1
 62
   120
370
     5
100
AcDbLine
 10
187.4937338828126
 20
926.0256520190399
 30
0.0
 11
305.2421590879794
 21
1043.774077224206
 31
0.0
  0
LINE
  5
1A2
330
1F
100
AcDbEntity
  8
0-0
  6
JWW_DASHED1
 62
   120
370
     5
100
AcDbLine
 10
187.4937338828323
 20
935.9251469542207
 30
0.0
 11
295.3426641528014
 21
1043.77407722419
 31
0.0
  0
LINE
  5
1A3
330
1F
100
AcDbEntity
  8
0-0
  6
JWW_DASHED1
 62
   120
370
     5
100
AcDbLine
 10
187.4937338828237
 20
945.824641889429
 30
0.0
 11
285.443169217591
 21
1043.774077224196
 31
0.0
  0
LINE
  5
1A4
330
1F
100
AcDbEntity
  8
0-0
  6
JWW_DASHED1
 62
   120
370
     5
100
AcDbLine
 10
187.4937338828152
 20
955.7241368246368
 30
0.0
 11
275.5436742823832
 21
1043.774077224204
 31
0.0
  0
LINE
  5
1A5
330
1F
100
AcDbEntity
  8
0-0
  6
JWW_DASHED1
 62
   120
370
     5
100
AcDbLine
 10
187.493733882834
 20
965.6236317598177
 30
0.0
 11
265.6441793472043
 21
1043.774077224188
 31
0.0
  0
LINE
  5
1A6
330
1F
100
AcDbEntity
  8
0-0
  6
JWW_DASHED1
 62
   120
370
     5
100
AcDbLine
 10
187.4937338828263
 20
975.523126695026
 30
0.0
 11
255.7446844119939
 21
1043.774077224194
 31
0.0
  0
LINE
  5
1A7
330
1F
100
AcDbEntity
  8
0-0
  6
JWW_DASHED1
 62
   120
370
     5
100
AcDbLine
 10
187.4937338828178
 20
985.4226216302338
 30
0.0
 11
245.845189476787
 21
1043.774077224203
 31
0.0
  0
LINE
  5
1A8
330
1F
100
AcDbEntity
  8
0-0
  6
JWW_DASHED1
 62
   120
370
     5
100
AcDbLine
 10
187.4937338828374
 20
995.3221165654147
 30
0.0
 11
235.9456945416073
 21
1043.774077224185
 31
0.0
  0
LINE
  5
1A9
330
1F
100
AcDbEntity
  8
0-0
  6
JWW_DASHED1
 62
   120
370
     5
100
AcDbLine
 10
187.4937338828288
 20
1005.221611500623
 30
0.0
 11
226.0461996063986
 21
1043.774077224192
 31
0.0
  0
LINE
  5
1AA
330
1F
100
AcDbEntity
  8
0-0
  6
JWW_DASHED1
 62
   120
370
     5
100
AcDbLine
 10
187.4937338828203
 20
1015.121106435831
 30
0.0
 11
216.1467046711899
 21
1043.7740772242
 31
0.0
  0
LINE
  5
1AB
330
1F
100
AcDbEntity
  8
0-0
  6
JWW_DASHED1
 62
   120
370
     5
100
AcDbLine
 10
187.4937338828237
 20
1025.020601370996
 30
0.0
 11
206.2472097360256
 21
1043.774077224198
 31
0.0
  0
LINE
  5
1AC
330
1F
100
AcDbEntity
  8
0-0
  6
JWW_DASHED1
 62
   120
370
     5
100
AcDbLine
 10
187.4937338828306
 20
1034.92009630622
 30
0.0
 11
196.3477148008024
 21
1043.774077224191
 31
0.0
  0
LINE
  5
1AD
330
1F
100
AcDbEntity
  8
0-0
  6
JWW_DASHED1
 62
   120
370
     5
100
AcDbLine
 10
774.1209435353578
 20
-863.2259227758099
 30
0.0
 11
777.4937338828294
 21
-859.8531324283384
 31
0.0
  0
LINE
  5
1AE
330
1F
100
AcDbEntity
  8
0-0
  6
JWW_DASHED1
 62
   120
370
     5
100
AcDbLine
 10
187.4937338828306
 20
450.8498951296
 30
0.0
 11
777.4937338828294
 21
1040.8498951296
 31
0.0
  0
LINE
  5
1AF
330
1F
100
AcDbEntity
  8
0-0
  6
JWW_DASHED1
 62
   120
370
     5
100
AcDbLine
 10
764.22144860015
 20
-863.2259227758019
 30
0.0
 11
777.4937338828294
 21
-849.9536374931225
 31
0.0
  0
LINE
  5
1B0
330
1F
100
AcDbEntity
  8
0-0
  6
JWW_DASHED1
 62
   120
370
     5
100
AcDbLine
 10
754.3219536649823
 20
-863.2259227758078
 30
0.0
 11
777.4937338828294
 21
-840.0541425579607
 31
0.0
  0
LINE
  5
1B1
330
1F
100
AcDbEntity
  8
0-0
  6
JWW_DASHED1
 62
   120
370
     5
100
AcDbLine
 10
744.4224587297616
 20
-863.2259227758126
 30
0.0
 11
777.4937338828294
 21
-830.1546476227444
 31
0.0
  0
LINE
  5
1B2
330
1F
100
AcDbEntity
  8
0-0
  6
JWW_DASHED1
 62
   120
370
     5
100
AcDbLine
 10
734.5229637945538
 20
-863.2259227758041
 30
0.0
 11
777.4937338828294
 21
-820.2551526875285
 31
0.0
  0
LINE
  5
1B3
330
1F
100
AcDbEntity
  8
0-0
  6
JWW_DASHED1
 62
   120
370
     5
100
AcDbLine
 10
724.6234688593852
 20
-863.2259227758099
 30
0.0
 11
777.4937338828294
 21
-810.3556577523658
 31
0.0
  0
LINE
  5
1B4
330
1F
100
AcDbEntity
  8
0-0
  6
JWW_DASHED1
 62
   120
370
     5
100
AcDbLine
 10
714.7239739241654
 20
-863.2259227758138
 30
0.0
 11
777.4937338828294
 21
-800.4561628171499
 31
0.0
  0
LINE
  5
1B5
330
1F
100
AcDbEntity
  8
0-0
  6
JWW_DASHED1
 62
   120
370
     5
100
AcDbLine
 10
704.8244789889576
 20
-863.2259227758053
 30
0.0
 11
777.4937338828294
 21
-790.5566678819335
 31
0.0
  0
LINE
  5
1B6
330
1F
100
AcDbEntity
  8
0-0
  6
JWW_DASHED1
 62
   120
370
     5
100
AcDbLine
 10
694.924984053789
 20
-863.2259227758126
 30
0.0
 11
777.4937338828294
 21
-780.6571729467718
 31
0.0
  0
LINE
  5
1B7
330
1F
100
AcDbEntity
  8
0-0
  6
JWW_DASHED1
 62
   120
370
     5
100
AcDbLine
 10
685.0254891185804
 20
-863.2259227758044
 30
0.0
 11
777.4937338828294
 21
-770.7576780115554
 31
0.0
  0
LINE
  5
1B8
330
1F
100
AcDbEntity
  8
0-0
  6
JWW_DASHED1
 62
   120
370
     5
100
AcDbLine
 10
675.1259941833606
 20
-863.2259227758078
 30
0.0
 11
777.4937338828294
 21
-760.8581830763391
 31
0.0
  0
LINE
  5
1B9
330
1F
100
AcDbEntity
  8
0-0
  6
JWW_DASHED1
 62
   120
370
     5
100
AcDbLine
 10
665.2264992482116
 20
-863.2259227757951
 30
0.0
 11
777.4937338828294
 21
-750.9586881411768
 31
0.0
  0
LINE
  5
1BA
330
1F
100
AcDbEntity
  8
0-0
  6
JWW_DASHED1
 62
   120
370
     5
100
AcDbLine
 10
655.3270043129833
 20
-863.225922775807
 30
0.0
 11
777.4937338828294
 21
-741.0591932059605
 31
0.0
  0
LINE
  5
1BB
330
1F
100
AcDbEntity
  8
0-0
  6
JWW_DASHED1
 62
   120
370
     5
100
AcDbLine
 10
645.4275093777644
 20
-863.2259227758092
 30
0.0
 11
777.4937338828294
 21
-731.1596982707441
 31
0.0
  0
LINE
  5
1BC
330
1F
100
AcDbEntity
  8
0-0
  6
JWW_DASHED1
 62
   120
370
     5
100
AcDbLine
 10
635.5280144426154
 20
-863.2259227757962
 30
0.0
 11
777.4937338828294
 21
-721.2602033355828
 31
0.0
  0
LINE
  5
1BD
330
1F
100
AcDbEntity
  8
0-0
  6
JWW_DASHED1
 62
   120
370
     5
100
AcDbLine
 10
625.6285195073863
 20
-863.2259227758095
 30
0.0
 11
777.4937338828294
 21
-711.3607084003664
 31
0.0
  0
LINE
  5
1BE
330
1F
100
AcDbEntity
  8
0-0
  6
JWW_DASHED1
 62
   120
370
     5
100
AcDbLine
 10
615.7290245721682
 20
-863.2259227758112
 30
0.0
 11
777.4937338828294
 21
-701.4612134651496
 31
0.0
  0
LINE
  5
1BF
330
1F
100
AcDbEntity
  8
0-0
  6
JWW_DASHED1
 62
   120
370
     5
100
AcDbLine
 10
605.8295296370192
 20
-863.2259227757985
 30
0.0
 11
777.4937338828294
 21
-691.5617185299878
 31
0.0
  0
LINE
  5
1C0
330
1F
100
AcDbEntity
  8
0-0
  6
JWW_DASHED1
 62
   120
370
     5
100
AcDbLine
 10
595.9300347017892
 20
-863.2259227758121
 30
0.0
 11
777.4937338828294
 21
-681.6622235947715
 31
0.0
  0
LINE
  5
1C1
330
1F
100
AcDbEntity
  8
0-0
  6
JWW_DASHED1
 62
   120
370
     5
100
AcDbLine
 10
586.0305397666308
 20
-863.2259227758092
 30
0.0
 11
777.4937338828294
 21
-671.7627286596097
 31
0.0
  0
LINE
  5
1C2
330
1F
100
AcDbEntity
  8
0-0
  6
JWW_DASHED1
 62
   120
370
     5
100
AcDbLine
 10
576.131044831423
 20
-863.2259227758007
 30
0.0
 11
777.4937338828294
 21
-661.8632337243943
 31
0.0
  0
LINE
  5
1C3
330
1F
100
AcDbEntity
  8
0-0
  6
JWW_DASHED1
 62
   120
370
     5
100
AcDbLine
 10
566.2315498961922
 20
-863.2259227758146
 30
0.0
 11
777.4937338828294
 21
-651.963738789177
 31
0.0
  0
LINE
  5
1C4
330
1F
100
AcDbEntity
  8
0-0
  6
JWW_DASHED1
 62
   120
370
     5
100
AcDbLine
 10
556.3320549610338
 20
-863.2259227758112
 30
0.0
 11
777.4937338828294
 21
-642.0642438540157
 31
0.0
  0
LINE
  5
1C5
330
1F
100
AcDbEntity
  8
0-0
  6
JWW_DASHED1
 62
   120
370
     5
100
AcDbLine
 10
546.432560025826
 20
-863.2259227758024
 30
0.0
 11
777.4937338828294
 21
-632.1647489187989
 31
0.0
  0
LINE
  5
1C6
330
1F
100
AcDbEntity
  8
0-0
  6
JWW_DASHED1
 62
   120
370
     5
100
AcDbLine
 10
536.533065090619
 20
-863.2259227757938
 30
0.0
 11
777.4937338828294
 21
-622.265253983583
 31
0.0
  0
LINE
  5
1C7
330
1F
100
AcDbEntity
  8
0-0
  6
JWW_DASHED1
 62
   120
370
     5
100
AcDbLine
 10
526.6335701554452
 20
-863.2259227758044
 30
0.0
 11
777.4937338828294
 21
-612.3657590484212
 31
0.0
  0
LINE
  5
1C8
330
1F
100
AcDbEntity
  8
0-0
  6
JWW_DASHED1
 62
   120
370
     5
100
AcDbLine
 10
516.7340752202298
 20
-863.2259227758044
 30
0.0
 11
777.4937338828294
 21
-602.4662641132053
 31
0.0
  0
LINE
  5
1C9
330
1F
100
AcDbEntity
  8
0-0
  6
JWW_DASHED1
 62
   120
370
     5
100
AcDbLine
 10
506.834580285022
 20
-863.2259227757959
 30
0.0
 11
777.4937338828294
 21
-592.566769177988
 31
0.0
  0
LINE
  5
1CA
330
1F
100
AcDbEntity
  8
0-0
  6
JWW_DASHED1
 62
   120
370
     5
100
AcDbLine
 10
496.9350853498491
 20
-863.225922775807
 30
0.0
 11
777.4937338828294
 21
-582.6672742428262
 31
0.0
  0
LINE
  5
1CB
330
1F
100
AcDbEntity
  8
0-0
  6
JWW_DASHED1
 62
   120
370
     5
100
AcDbLine
 10
487.0355904146344
 20
-863.2259227758058
 30
0.0
 11
777.4937338828294
 21
-572.7677793076108
 31
0.0
  0
LINE
  5
1CC
330
1F
100
AcDbEntity
  8
0-0
  6
JWW_DASHED1
 62
   120
370
     5
100
AcDbLine
 10
477.1360954794249
 20
-863.2259227757976
 30
0.0
 11
777.4937338828294
 21
-562.8682843723935
 31
0.0
  0
LINE
  5
1CD
330
1F
100
AcDbEntity
  8
0-0
  6
JWW_DASHED1
 62
   120
370
     5
100
AcDbLine
 10
467.2366005442512
 20
-863.2259227758095
 30
0.0
 11
777.4937338828294
 21
-552.9687894372317
 31
0.0
  0
LINE
  5
1CE
330
1F
100
AcDbEntity
  8
0-0
  6
JWW_DASHED1
 62
   120
370
     5
100
AcDbLine
 10
457.3371056090365
 20
-863.2259227758083
 30
0.0
 11
777.4937338828294
 21
-543.0692945020159
 31
0.0
  0
LINE
  5
1CF
330
1F
100
AcDbEntity
  8
0-0
  6
JWW_DASHED1
 62
   120
370
     5
100
AcDbLine
 10
447.4376106738287
 20
-863.2259227757996
 30
0.0
 11
777.4937338828294
 21
-533.1697995668
 31
0.0
  0
LINE
  5
1D0
330
1F
100
AcDbEntity
  8
0-0
  6
JWW_DASHED1
 62
   120
370
     5
100
AcDbLine
 10
437.538115738655
 20
-863.2259227758126
 30
0.0
 11
777.4937338828294
 21
-523.2703046316373
 31
0.0
  0
LINE
  5
1D1
330
1F
100
AcDbEntity
  8
0-0
  6
JWW_DASHED1
 62
   120
370
     5
100
AcDbLine
 10
427.6386208034403
 20
-863.2259227758095
 30
0.0
 11
777.4937338828294
 21
-513.3708096964209
 31
0.0
  0
LINE
  5
1D2
330
1F
100
AcDbEntity
  8
0-0
  6
JWW_DASHED1
 62
   120
370
     5
100
AcDbLine
 10
417.7391258682334
 20
-863.225922775801
 30
0.0
 11
777.4937338828294
 21
-503.4713147612054
 31
0.0
  0
LINE
  5
1D3
330
1F
100
AcDbEntity
  8
0-0
  6
JWW_DASHED1
 62
   120
370
     5
100
AcDbLine
 10
407.8396309330571
 20
-863.2259227758151
 30
0.0
 11
777.4937338828294
 21
-493.5718198260432
 31
0.0
  0
LINE
  5
1D4
330
1F
100
AcDbEntity
  8
0-0
  6
JWW_DASHED1
 62
   120
370
     5
100
AcDbLine
 10
397.9401359978493
 20
-863.225922775807
 30
0.0
 11
777.4937338828294
 21
-483.6723248908273
 31
0.0
  0
LINE
  5
1D5
330
1F
100
AcDbEntity
  8
0-0
  6
JWW_DASHED1
 62
   120
370
     5
100
AcDbLine
 10
388.0406410626363
 20
-863.2259227758036
 30
0.0
 11
777.4937338828294
 21
-473.7728299556101
 31
0.0
  0
LINE
  5
1D6
330
1F
100
AcDbEntity
  8
0-0
  6
JWW_DASHED1
 62
   120
370
     5
100
AcDbLine
 10
378.1411461274882
 20
-863.2259227757904
 30
0.0
 11
777.4937338828294
 21
-463.8733350204491
 31
0.0
  0
LINE
  5
1D7
330
1F
100
AcDbEntity
  8
0-0
  6
JWW_DASHED1
 62
   120
370
     5
100
AcDbLine
 10
368.2416511922522
 20
-863.2259227758095
 30
0.0
 11
777.4937338828294
 21
-453.9738400852319
 31
0.0
  0
LINE
  5
1D8
330
1F
100
AcDbEntity
  8
0-0
  6
JWW_DASHED1
 62
   120
370
     5
100
AcDbLine
 10
358.3421562570401
 20
-863.2259227758058
 30
0.0
 11
777.4937338828294
 21
-444.074345150016
 31
0.0
  0
LINE
  5
1D9
330
1F
100
AcDbEntity
  8
0-0
  6
JWW_DASHED1
 62
   120
370
     5
100
AcDbLine
 10
348.4426613218911
 20
-863.2259227757925
 30
0.0
 11
777.4937338828294
 21
-434.1748502148538
 31
0.0
  0
LINE
  5
1DA
330
1F
100
AcDbEntity
  8
0-0
  6
JWW_DASHED1
 62
   120
370
     5
100
AcDbLine
 10
338.5431663866552
 20
-863.2259227758126
 30
0.0
 11
777.4937338828294
 21
-424.2753552796378
 31
0.0
  0
LINE
  5
1DB
330
1F
100
AcDbEntity
  8
0-0
  6
JWW_DASHED1
 62
   120
370
     5
100
AcDbLine
 10
328.6436714514439
 20
-863.225922775807
 30
0.0
 11
777.4937338828294
 21
-414.3758603444215
 31
0.0
  0
LINE
  5
1DC
330
1F
100
AcDbEntity
  8
0-0
  6
JWW_DASHED1
 62
   120
370
     5
100
AcDbLine
 10
318.7441765162949
 20
-863.2259227757942
 30
0.0
 11
777.4937338828294
 21
-404.4763654092597
 31
0.0
  0
LINE
  5
1DD
330
1F
100
AcDbEntity
  8
0-0
  6
JWW_DASHED1
 62
   120
370
     5
100
AcDbLine
 10
308.8446815810573
 20
-863.2259227758151
 30
0.0
 11
777.4937338828294
 21
-394.5768704740433
 31
0.0
  0
LINE
  5
1DE
330
1F
100
AcDbEntity
  8
0-0
  6
JWW_DASHED1
 62
   120
370
     5
100
AcDbLine
 10
298.9451866458494
 20
-863.2259227758065
 30
0.0
 11
777.4937338828294
 21
-384.6773755388266
 31
0.0
  0
LINE
  5
1DF
330
1F
100
AcDbEntity
  8
0-0
  6
JWW_DASHED1
 62
   120
370
     5
100
AcDbLine
 10
289.0456917106979
 20
-863.2259227757962
 30
0.0
 11
777.4937338828294
 21
-374.7778806036652
 31
0.0
  0
LINE
  5
1E0
330
1F
100
AcDbEntity
  8
0-0
  6
JWW_DASHED1
 62
   120
370
     5
100
AcDbLine
 10
279.1461967754611
 20
-863.2259227758173
 30
0.0
 11
777.4937338828294
 21
-364.8783856684489
 31
0.0
  0
LINE
  5
1E1
330
1F
100
AcDbEntity
  8
0-0
  6
JWW_DASHED1
 62
   120
370
     5
100
AcDbLine
 10
269.2467018403095
 20
-863.2259227758061
 30
0.0
 11
777.4937338828294
 21
-354.9788907332871
 31
0.0
  0
LINE
  5
1E2
330
1F
100
AcDbEntity
  8
0-0
  6
JWW_DASHED1
 62
   120
370
     5
100
AcDbLine
 10
259.3472069051017
 20
-863.225922775798
 30
0.0
 11
777.4937338828294
 21
-345.0793957980707
 31
0.0
  0
LINE
  5
1E3
330
1F
100
AcDbEntity
  8
0-0
  6
JWW_DASHED1
 62
   120
370
     5
100
AcDbLine
 10
249.4477119698939
 20
-863.2259227757894
 30
0.0
 11
777.4937338828294
 21
-335.1799008628544
 31
0.0
  0
LINE
  5
1E4
330
1F
100
AcDbEntity
  8
0-0
  6
JWW_DASHED1
 62
   120
370
     5
100
AcDbLine
 10
239.5482170347142
 20
-863.2259227758075
 30
0.0
 11
777.4937338828294
 21
-325.2804059276926
 31
0.0
  0
LINE
  5
1E5
330
1F
100
AcDbEntity
  8
0-0
  6
JWW_DASHED1
 62
   120
370
     5
100
AcDbLine
 10
229.6487220995055
 20
-863.2259227758002
 30
0.0
 11
777.4937338828294
 21
-315.3809109924762
 31
0.0
  0
LINE
  5
1E6
330
1F
100
AcDbEntity
  8
0-0
  6
JWW_DASHED1
 62
   120
370
     5
100
AcDbLine
 10
219.7492271642977
 20
-863.2259227757917
 30
0.0
 11
777.4937338828294
 21
-305.4814160572599
 31
0.0
  0
LINE
  5
1E7
330
1F
100
AcDbEntity
  8
0-0
  6
JWW_DASHED1
 62
   120
370
     5
100
AcDbLine
 10
209.8497322291171
 20
-863.2259227758099
 30
0.0
 11
777.4937338828294
 21
-295.5819211220981
 31
0.0
  0
LINE
  5
1E8
330
1F
100
AcDbEntity
  8
0-0
  6
JWW_DASHED1
 62
   120
370
     5
100
AcDbLine
 10
199.9502372939093
 20
-863.2259227758015
 30
0.0
 11
777.4937338828294
 21
-285.6824261868817
 31
0.0
  0
LINE
  5
1E9
330
1F
100
AcDbEntity
  8
0-0
  6
JWW_DASHED1
 62
   120
370
     5
100
AcDbLine
 10
190.0507423587015
 20
-863.2259227757934
 30
0.0
 11
777.4937338828294
 21
-275.7829312516654
 31
0.0
  0
LINE
  5
1EA
330
1F
100
AcDbEntity
  8
0-0
  6
JWW_DASHED1
 62
   120
370
     5
100
AcDbLine
 10
187.4937338828331
 20
-855.8834363164996
 30
0.0
 11
777.4937338828294
 21
-265.8834363165036
 31
0.0
  0
LINE
  5
1EB
330
1F
100
AcDbEntity
  8
0-0
  6
JWW_DASHED1
 62
   120
370
     5
100
AcDbLine
 10
187.4937338828246
 20
-845.9839413812921
 30
0.0
 11
777.4937338828294
 21
-255.9839413812872
 31
0.0
  0
LINE
  5
1EC
330
1F
100
AcDbEntity
  8
0-0
  6
JWW_DASHED1
 62
   120
370
     5
100
AcDbLine
 10
187.4937338828169
 20
-836.0844464460839
 30
0.0
 11
777.4937338828294
 21
-246.0844464460709
 31
0.0
  0
LINE
  5
1ED
330
1F
100
AcDbEntity
  8
0-0
  6
JWW_DASHED1
 62
   120
370
     5
100
AcDbLine
 10
187.4937338828357
 20
-826.1849515109034
 30
0.0
 11
777.4937338828294
 21
-236.1849515109091
 31
0.0
  0
LINE
  5
1EE
330
1F
100
AcDbEntity
  8
0-0
  6
JWW_DASHED1
 62
   120
370
     5
100
AcDbLine
 10
187.4937338828271
 20
-816.2854565756942
 30
0.0
 11
777.4937338828294
 21
-226.2854565756927
 31
0.0
  0
LINE
  5
1EF
330
1F
100
AcDbEntity
  8
0-0
  6
JWW_DASHED1
 62
   120
370
     5
100
AcDbLine
 10
187.4937338828186
 20
-806.3859616404867
 30
0.0
 11
777.4937338828294
 21
-216.3859616404764
 31
0.0
  0
LINE
  5
1F0
330
1F
100
AcDbEntity
  8
0-0
  6
JWW_DASHED1
 62
   120
370
     5
100
AcDbLine
 10
187.4937338828374
 20
-796.4864667053063
 30
0.0
 11
777.4937338828294
 21
-206.4864667053151
 31
0.0
  0
LINE
  5
1F1
330
1F
100
AcDbEntity
  8
0-0
  6
JWW_DASHED1
 62
   120
370
     5
100
AcDbLine
 10
187.4937338828297
 20
-786.586971770098
 30
0.0
 11
777.4937338828294
 21
-196.5869717700983
 31
0.0
  0
LINE
  5
1F2
330
1F
100
AcDbEntity
  8
0-0
  6
JWW_DASHED1
 62
   120
370
     5
100
AcDbLine
 10
187.493733882822
 20
-776.6874768348898
 30
0.0
 11
777.4937338828294
 21
-186.6874768348819
 31
0.0
  0
LINE
  5
1F3
330
1F
100
AcDbEntity
  8
0-0
  6
JWW_DASHED1
 62
   120
370
     5
100
AcDbLine
 10
187.4937338828084
 20
-766.7879818997403
 30
0.0
 11
777.4937338828294
 21
-176.7879818997202
 31
0.0
  0
LINE
  5
1F4
330
1F
100
AcDbEntity
  8
0-0
  6
JWW_DASHED1
 62
   120
370
     5
100
AcDbLine
 10
187.4937338828323
 20
-756.888486964501
 30
0.0
 11
777.4937338828294
 21
-166.8884869645042
 31
0.0
  0
LINE
  5
1F5
330
1F
100
AcDbEntity
  8
0-0
  6
JWW_DASHED1
 62
   120
370
     5
100
AcDbLine
 10
187.4937338828237
 20
-746.9889920292923
 30
0.0
 11
777.4937338828294
 21
-156.9889920292875
 31
0.0
  0
LINE
  5
1F6
330
1F
100
AcDbEntity
  8
0-0
  6
JWW_DASHED1
 62
   120
370
     5
100
AcDbLine
 10
187.4937338828118
 20
-737.0894970941433
 30
0.0
 11
777.4937338828294
 21
-147.0894970941257
 31
0.0
  0
LINE
  5
1F7
330
1F
100
AcDbEntity
  8
0-0
  6
JWW_DASHED1
 62
   120
370
     5
100
AcDbLine
 10
187.4937338828331
 20
-727.1900021589056
 30
0.0
 11
777.4937338828294
 21
-137.1900021589089
 31
0.0
  0
LINE
  5
1F8
330
1F
100
AcDbEntity
  8
0-0
  6
JWW_DASHED1
 62
   120
370
     5
100
AcDbLine
 10
187.4937338828271
 20
-717.2905072236953
 30
0.0
 11
777.4937338828294
 21
-127.2905072236934
 31
0.0
  0
LINE
  5
1F9
330
1F
100
AcDbEntity
  8
0-0
  6
JWW_DASHED1
 62
   120
370
     5
100
AcDbLine
 10
187.4937338828135
 20
-707.3910122885462
 30
0.0
 11
777.4937338828294
 21
-117.3910122885312
 31
0.0
  0
LINE
  5
1FA
330
1F
100
AcDbEntity
  8
0-0
  6
JWW_DASHED1
 62
   120
370
     5
100
AcDbLine
 10
187.4937338828357
 20
-697.4915173533086
 30
0.0
 11
777.4937338828294
 21
-107.4915173533148
 31
0.0
  0
LINE
  5
1FB
330
1F
100
AcDbEntity
  8
0-0
  6
JWW_DASHED1
 62
   120
370
     5
100
AcDbLine
 10
187.4937338828288
 20
-687.5920224180991
 30
0.0
 11
777.4937338828294
 21
-97.5920224180989
 31
0.0
  0
LINE
  5
1FC
330
1F
100
AcDbEntity
  8
0-0
  6
JWW_DASHED1
 62
   120
370
     5
100
AcDbLine
 10
187.4937338828169
 20
-677.6925274829492
 30
0.0
 11
777.4937338828294
 21
-87.69252748293712
 31
0.0
  0
LINE
  5
1FD
330
1F
100
AcDbEntity
  8
0-0
  6
JWW_DASHED1
 62
   120
370
     5
100
AcDbLine
 10
187.493733882822
 20
-667.7930325477272
 30
0.0
 11
777.4937338828294
 21
-77.79303254772034
 31
0.0
  0
LINE
  5
1FE
330
1F
100
AcDbEntity
  8
0-0
  6
JWW_DASHED1
 62
   120
370
     5
100
AcDbLine
 10
187.4937338828288
 20
-657.8935376125313
 30
0.0
 11
777.4937338828294
 21
-67.89353761253085
 31
0.0
  0
LINE
  5
1FF
330
1F
100
AcDbEntity
  8
0-0
  6
JWW_DASHED1
 62
   120
370
     5
100
AcDbLine
 10
187.4937338828186
 20
-647.994042677353
 30
0.0
 11
777.4937338828294
 21
-57.99404267734221
 31
0.0
  0
LINE
  5
200
330
1F
100
AcDbEntity
  8
0-0
  6
JWW_DASHED1
 62
   120
370
     5
100
AcDbLine
 10
187.4937338828101
 20
-638.0945477421443
 30
0.0
 11
777.4937338828294
 21
-48.09454774212586
 31
0.0
  0
LINE
  5
201
330
1F
100
AcDbEntity
  8
0-0
  6
JWW_DASHED1
 62
   120
370
     5
100
AcDbLine
 10
187.4937338828288
 20
-628.1950528069641
 30
0.0
 11
777.4937338828294
 21
-38.19505280696365
 31
0.0
  0
LINE
  5
202
330
1F
100
AcDbEntity
  8
0-0
  6
JWW_DASHED1
 62
   120
370
     5
100
AcDbLine
 10
187.4937338828203
 20
-618.2955578717564
 30
0.0
 11
777.4937338828294
 21
-28.29555787174815
 31
0.0
  0
LINE
  5
203
330
1F
100
AcDbEntity
  8
0-0
  6
JWW_DASHED1
 62
   120
370
     5
100
AcDbLine
 10
187.4937338828135
 20
-608.3960629365473
 30
0.0
 11
777.4937338828294
 21
-18.3960629365318
 31
0.0
  0
LINE
  5
204
330
1F
100
AcDbEntity
  8
0-0
  6
JWW_DASHED1
 62
   120
370
     5
100
AcDbLine
 10
187.4937338828323
 20
-598.4965680013672
 30
0.0
 11
777.4937338828294
 21
-8.496568001370015
 31
0.0
  0
LINE
  5
205
330
1F
100
AcDbEntity
  8
0-0
  6
JWW_DASHED1
 62
   120
370
     5
100
AcDbLine
 10
187.4937338828237
 20
-588.5970730661594
 30
0.0
 11
777.4937338828294
 21
1.402926933846764
 31
0.0
  0
LINE
  5
206
330
1F
100
AcDbEntity
  8
0-0
  6
JWW_DASHED1
 62
   120
370
     5
100
AcDbLine
 10
187.4937338828152
 20
-578.6975781309511
 30
0.0
 11
777.4937338828294
 21
11.30242186906354
 31
0.0
  0
LINE
  5
207
330
1F
100
AcDbEntity
  8
0-0
  6
JWW_DASHED1
 62
   120
370
     5
100
AcDbLine
 10
187.4937338828323
 20
-568.7980831957723
 30
0.0
 11
777.4937338828294
 21
21.20191680422533
 31
0.0
  0
LINE
  5
208
330
1F
100
AcDbEntity
  8
0-0
  6
JWW_DASHED1
 62
   120
370
     5
100
AcDbLine
 10
187.4937338828254
 20
-558.8985882605622
 30
0.0
 11
777.4937338828294
 21
31.10141173944125
 31
0.0
  0
LINE
  5
209
330
1F
100
AcDbEntity
  8
0-0
  6
JWW_DASHED1
 62
   120
370
     5
100
AcDbLine
 10
187.4937338828178
 20
-548.999093325354
 30
0.0
 11
777.4937338828294
 21
41.00090667465718
 31
0.0
  0
LINE
  5
20A
330
1F
100
AcDbEntity
  8
0-0
  6
JWW_DASHED1
 62
   120
370
     5
100
AcDbLine
 10
187.493733882834
 20
-539.0995983901761
 30
0.0
 11
777.4937338828294
 21
50.90040160981896
 31
0.0
  0
LINE
  5
20B
330
1F
100
AcDbEntity
  8
0-0
  6
JWW_DASHED1
 62
   120
370
     5
100
AcDbLine
 10
187.4937338828288
 20
-529.2001034549653
 30
0.0
 11
777.4937338828294
 21
60.79989654503532
 31
0.0
  0
LINE
  5
20C
330
1F
100
AcDbEntity
  8
0-0
  6
JWW_DASHED1
 62
   120
370
     5
100
AcDbLine
 10
187.4937338828203
 20
-519.300608519757
 30
0.0
 11
777.4937338828294
 21
70.69939148025168
 31
0.0
  0
LINE
  5
20D
330
1F
100
AcDbEntity
  8
0-0
  6
JWW_DASHED1
 62
   120
370
     5
100
AcDbLine
 10
187.4937338828357
 20
-509.4011135845793
 30
0.0
 11
777.4937338828294
 21
80.59888641541346
 31
0.0
  0
LINE
  5
20E
330
1F
100
AcDbEntity
  8
0-0
  6
JWW_DASHED1
 62
   120
370
     5
100
AcDbLine
 10
187.4937338828306
 20
-499.5016186493682
 30
0.0
 11
777.4937338828294
 21
90.49838135063067
 31
0.0
  0
LINE
  5
20F
330
1F
100
AcDbEntity
  8
0-0
  6
JWW_DASHED1
 62
   120
370
     5
100
AcDbLine
 10
187.493733882822
 20
-489.6021237141603
 30
0.0
 11
777.4937338828294
 21
100.397876285847
 31
0.0
  0
LINE
  5
210
330
1F
100
AcDbEntity
  8
0-0
  6
JWW_DASHED1
 62
   120
370
     5
100
AcDbLine
 10
187.4937338828101
 20
-479.7026287790114
 30
0.0
 11
777.4937338828294
 21
110.2973712210084
 31
0.0
  0
LINE
  5
211
330
1F
100
AcDbEntity
  8
0-0
  6
JWW_DASHED1
 62
   120
370
     5
100
AcDbLine
 10
187.493733882834
 20
-469.8031338437711
 30
0.0
 11
777.4937338828294
 21
120.1968661562247
 31
0.0
  0
LINE
  5
212
330
1F
100
AcDbEntity
  8
0-0
  6
JWW_DASHED1
 62
   120
370
     5
100
AcDbLine
 10
187.4937338828254
 20
-459.9036389085633
 30
0.0
 11
777.4937338828294
 21
130.0963610914411
 31
0.0
  0
LINE
  5
213
330
1F
100
AcDbEntity
  8
0-0
  6
JWW_DASHED1
 62
   120
370
     5
100
AcDbLine
 10
187.4937338828118
 20
-450.0041439734143
 30
0.0
 11
777.4937338828294
 21
139.9958560266029
 31
0.0
  0
LINE
  5
214
330
1F
100
AcDbEntity
  8
0-0
  6
JWW_DASHED1
 62
   120
370
     5
100
AcDbLine
 10
187.4937338828323
 20
-440.1046490381775
 30
0.0
 11
777.4937338828294
 21
149.8953509618192
 31
0.0
  0
LINE
  5
215
330
1F
100
AcDbEntity
  8
0-0
  6
JWW_DASHED1
 62
   120
370
     5
100
AcDbLine
 10
187.4937338828271
 20
-430.2051541029663
 30
0.0
 11
777.4937338828294
 21
159.7948458970356
 31
0.0
  0
LINE
  5
216
330
1F
100
AcDbEntity
  8
0-0
  6
JWW_DASHED1
 62
   120
370
     5
100
AcDbLine
 10
187.4937338828152
 20
-420.3056591678173
 30
0.0
 11
777.4937338828294
 21
169.6943408321974
 31
0.0
  0
LINE
  5
217
330
1F
100
AcDbEntity
  8
0-0
  6
JWW_DASHED1
 62
   120
370
     5
100
AcDbLine
 10
187.493733882834
 20
-410.4061642325813
 30
0.0
 11
777.4937338828294
 21
179.5938357674137
 31
0.0
  0
LINE
  5
218
330
1F
100
AcDbEntity
  8
0-0
  6
JWW_DASHED1
 62
   120
370
     5
100
AcDbLine
 10
187.4937338828306
 20
-400.5066692973692
 30
0.0
 11
777.4937338828294
 21
189.4933307026301
 31
0.0
  0
LINE
  5
219
330
1F
100
AcDbEntity
  8
0-0
  6
JWW_DASHED1
 62
   120
370
     5
100
AcDbLine
 10
187.4937338828169
 20
-390.6071743622202
 30
0.0
 11
777.4937338828294
 21
199.3928256377918
 31
0.0
  0
LINE
  5
21A
330
1F
100
AcDbEntity
  8
0-0
  6
JWW_DASHED1
 62
   120
370
     5
100
AcDbLine
 10
187.4937338828084
 20
-380.7076794270124
 30
0.0
 11
777.4937338828294
 21
209.2923205730078
 31
0.0
  0
LINE
  5
21B
330
1F
100
AcDbEntity
  8
0-0
  6
JWW_DASHED1
 62
   120
370
     5
100
AcDbLine
 10
187.4937338828323
 20
-370.8081844917722
 30
0.0
 11
777.4937338828294
 21
219.1918155082241
 31
0.0
  0
LINE
  5
21C
330
1F
100
AcDbEntity
  8
0-0
  6
JWW_DASHED1
 62
   120
370
     5
100
AcDbLine
 10
187.4937338828203
 20
-360.9086895566232
 30
0.0
 11
777.4937338828294
 21
229.0913104433863
 31
0.0
  0
LINE
  5
21D
330
1F
100
AcDbEntity
  8
0-0
  6
JWW_DASHED1
 62
   120
370
     5
100
AcDbLine
 10
187.4937338828118
 20
-351.0091946214154
 30
0.0
 11
777.4937338828294
 21
238.9908053786027
 31
0.0
  0
LINE
  5
21E
330
1F
100
AcDbEntity
  8
0-0
  6
JWW_DASHED1
 62
   120
370
     5
100
AcDbLine
 10
187.4937338828306
 20
-341.1096996862344
 30
0.0
 11
777.4937338828294
 21
248.8903003137645
 31
0.0
  0
LINE
  5
21F
330
1F
100
AcDbEntity
  8
0-0
  6
JWW_DASHED1
 62
   120
370
     5
100
AcDbLine
 10
187.493733882822
 20
-331.2102047510261
 30
0.0
 11
777.4937338828294
 21
258.7897952489812
 31
0.0
  0
LINE
  5
220
330
1F
100
AcDbEntity
  8
0-0
  6
JWW_DASHED1
 62
   120
370
     5
100
AcDbLine
 10
187.4937338828135
 20
-321.3107098158183
 30
0.0
 11
777.4937338828294
 21
268.6892901841971
 31
0.0
  0
LINE
  5
221
330
1F
100
AcDbEntity
  8
0-0
  6
JWW_DASHED1
 62
   120
370
     5
100
AcDbLine
 10
187.4937338828323
 20
-311.4112148806378
 30
0.0
 11
777.4937338828294
 21
278.5887851193594
 31
0.0
  0
LINE
  5
222
330
1F
100
AcDbEntity
  8
0-0
  6
JWW_DASHED1
 62
   120
370
     5
100
AcDbLine
 10
187.4937338828254
 20
-301.5117199454291
 30
0.0
 11
777.4937338828294
 21
288.4882800545753
 31
0.0
  0
LINE
  5
223
330
1F
100
AcDbEntity
  8
0-0
  6
JWW_DASHED1
 62
   120
370
     5
100
AcDbLine
 10
187.4937338828169
 20
-291.6122250102213
 30
0.0
 11
777.4937338828294
 21
298.3877749897916
 31
0.0
  0
LINE
  5
224
330
1F
100
AcDbEntity
  8
0-0
  6
JWW_DASHED1
 62
   120
370
     5
100
AcDbLine
 10
187.4937338828306
 20
-281.7127300750458
 30
0.0
 11
777.4937338828294
 21
308.287269924953
 31
0.0
  0
LINE
  5
225
330
1F
100
AcDbEntity
  8
0-0
  6
JWW_DASHED1
 62
   120
370
     5
100
AcDbLine
 10
187.4937338828263
 20
-271.8132351398334
 30
0.0
 11
777.4937338828294
 21
318.1867648601698
 31
0.0
  0
LINE
  5
226
330
1F
100
AcDbEntity
  8
0-0
  6
JWW_DASHED1
 62
   120
370
     5
100
AcDbLine
 10
187.4937338828186
 20
-261.9137402046242
 30
0.0
 11
777.4937338828294
 21
328.0862597953866
 31
0.0
  0
LINE
  5
227
330
1F
100
AcDbEntity
  8
0-0
  6
JWW_DASHED1
 62
   120
370
     5
100
AcDbLine
 10
187.4937338828323
 20
-252.0142452694488
 30
0.0
 11
777.4937338828294
 21
337.9857547305475
 31
0.0
  0
LINE
  5
228
330
1F
100
AcDbEntity
  8
0-0
  6
JWW_DASHED1
 62
   120
370
     5
100
AcDbLine
 10
187.4937338828297
 20
-242.1147503342354
 30
0.0
 11
777.4937338828294
 21
347.8852496657647
 31
0.0
  0
LINE
  5
229
330
1F
100
AcDbEntity
  8
0-0
  6
JWW_DASHED1
 62
   120
370
     5
100
AcDbLine
 10
187.493733882822
 20
-232.2152553990272
 30
0.0
 11
777.4937338828294
 21
357.7847446009806
 31
0.0
  0
LINE
  5
22A
330
1F
100
AcDbEntity
  8
0-0
  6
JWW_DASHED1
 62
   120
370
     5
100
AcDbLine
 10
187.4937338828357
 20
-222.3157604638517
 30
0.0
 11
777.4937338828294
 21
367.6842395361429
 31
0.0
  0
LINE
  5
22B
330
1F
100
AcDbEntity
  8
0-0
  6
JWW_DASHED1
 62
   120
370
     5
100
AcDbLine
 10
187.4937338828314
 20
-212.4162655286388
 30
0.0
 11
777.4937338828294
 21
377.5837344713584
 31
0.0
  0
LINE
  5
22C
330
1F
100
AcDbEntity
  8
0-0
  6
JWW_DASHED1
 62
   120
370
     5
100
AcDbLine
 10
187.4937338828237
 20
-202.5167705934306
 30
0.0
 11
777.4937338828294
 21
387.4832294065751
 31
0.0
  0
LINE
  5
22D
330
1F
100
AcDbEntity
  8
0-0
  6
JWW_DASHED1
 62
   120
370
     5
100
AcDbLine
 10
187.4937338828109
 20
-192.6172756582816
 30
0.0
 11
777.4937338828294
 21
397.382724341736
 31
0.0
  0
LINE
  5
22E
330
1F
100
AcDbEntity
  8
0-0
  6
JWW_DASHED1
 62
   120
370
     5
100
AcDbLine
 10
187.493733882834
 20
-182.7177807230418
 30
0.0
 11
777.4937338828294
 21
407.2822192769532
 31
0.0
  0
LINE
  5
22F
330
1F
100
AcDbEntity
  8
0-0
  6
JWW_DASHED1
 62
   120
370
     5
100
AcDbLine
 10
187.4937338828263
 20
-172.8182857878335
 30
0.0
 11
777.4937338828294
 21
417.1817142121696
 31
0.0
  0
LINE
  5
230
330
1F
100
AcDbEntity
  8
0-0
  6
JWW_DASHED1
 62
   120
370
     5
100
AcDbLine
 10
187.4937338828135
 20
-162.9187908526845
 30
0.0
 11
777.4937338828294
 21
427.0812091473318
 31
0.0
  0
LINE
  5
231
330
1F
100
AcDbEntity
  8
0-0
  6
JWW_DASHED1
 62
   120
370
     5
100
AcDbLine
 10
187.4937338828306
 20
-153.0192959174511
 30
0.0
 11
777.4937338828294
 21
436.9807040825477
 31
0.0
  0
LINE
  5
232
330
1F
100
AcDbEntity
  8
0-0
  6
JWW_DASHED1
 62
   120
370
     5
100
AcDbLine
 10
187.4937338828288
 20
-143.1198009822365
 30
0.0
 11
777.4937338828294
 21
446.8801990177641
 31
0.0
  0
LINE
  5
233
330
1F
100
AcDbEntity
  8
0-0
  6
JWW_DASHED1
 62
   120
370
     5
100
AcDbLine
 10
187.4937338828161
 20
-133.2203060470875
 30
0.0
 11
777.4937338828294
 21
456.7796939529255
 31
0.0
  0
LINE
  5
234
330
1F
100
AcDbEntity
  8
0-0
  6
JWW_DASHED1
 62
   120
370
     5
100
AcDbLine
 10
187.4937338828331
 20
-123.3208111118541
 30
0.0
 11
777.4937338828294
 21
466.6791888881422
 31
0.0
  0
LINE
  5
235
330
1F
100
AcDbEntity
  8
0-0
  6
JWW_DASHED1
 62
   120
370
     5
100
AcDbLine
 10
187.4937338828271
 20
-113.4213161766987
 30
0.0
 11
777.4937338828294
 21
476.5786838233036
 31
0.0
  0
LINE
  5
236
330
1F
100
AcDbEntity
  8
0-0
  6
JWW_DASHED1
 62
   120
370
     5
100
AcDbLine
 10
187.4937338828186
 20
-103.5218212414904
 30
0.0
 11
777.4937338828294
 21
486.4781787585208
 31
0.0
  0
LINE
  5
237
330
1F
100
AcDbEntity
  8
0-0
  6
JWW_DASHED1
 62
   120
370
     5
100
AcDbLine
 10
187.4937338828101
 20
-93.62232630628259
 30
0.0
 11
777.4937338828294
 21
496.3776736937367
 31
0.0
  0
LINE
  5
238
330
1F
100
AcDbEntity
  8
0-0
  6
JWW_DASHED1
 62
   120
370
     5
100
AcDbLine
 10
187.4937338828288
 20
-83.72283137110162
 30
0.0
 11
777.4937338828294
 21
506.2771686288981
 31
0.0
  0
LINE
  5
239
330
1F
100
AcDbEntity
  8
0-0
  6
JWW_DASHED1
 62
   120
370
     5
100
AcDbLine
 10
187.4937338828203
 20
-73.8233364358938
 30
0.0
 11
777.4937338828294
 21
516.1766635641153
 31
0.0
  0
LINE
  5
23A
330
1F
100
AcDbEntity
  8
0-0
  6
JWW_DASHED1
 62
   120
370
     5
100
AcDbLine
 10
187.4937338828126
 20
-63.92384150068555
 30
0.0
 11
777.4937338828294
 21
526.0761584993312
 31
0.0
  0
LINE
  5
23B
330
1F
100
AcDbEntity
  8
0-0
  6
JWW_DASHED1
 62
   120
370
     5
100
AcDbLine
 10
187.4937338828323
 20
-54.02434656550458
 30
0.0
 11
777.4937338828294
 21
535.975653434493
 31
0.0
  0
LINE
  5
23C
330
1F
100
AcDbEntity
  8
0-0
  6
JWW_DASHED1
 62
   120
370
     5
100
AcDbLine
 10
187.4937338828229
 20
-44.12485163029675
 30
0.0
 11
777.4937338828294
 21
545.8751483697089
 31
0.0
  0
LINE
  5
23D
330
1F
100
AcDbEntity
  8
0-0
  6
JWW_DASHED1
 62
   120
370
     5
100
AcDbLine
 10
187.4937338828152
 20
-34.2253566950885
 30
0.0
 11
777.4937338828294
 21
555.7746433049257
 31
0.0
  0
LINE
  5
23E
330
1F
100
AcDbEntity
  8
0-0
  6
JWW_DASHED1
 62
   120
370
     5
100
AcDbLine
 10
187.493733882834
 20
-24.32586175990753
 30
0.0
 11
777.4937338828294
 21
565.674138240087
 31
0.0
  0
LINE
  5
23F
330
1F
100
AcDbEntity
  8
0-0
  6
JWW_DASHED1
 62
   120
370
     5
100
AcDbLine
 10
187.4937338828254
 20
-14.42636682469971
 30
0.0
 11
777.4937338828294
 21
575.5736331753042
 31
0.0
  0
LINE
  5
240
330
1F
100
AcDbEntity
  8
0-0
  6
JWW_DASHED1
 62
   120
370
     5
100
AcDbLine
 10
187.4937338828169
 20
-4.526871889492305
 30
0.0
 11
777.4937338828294
 21
585.4731281105202
 31
0.0
  0
LINE
  5
241
330
1F
100
AcDbEntity
  8
0-0
  6
JWW_DASHED1
 62
   120
370
     5
100
AcDbLine
 10
187.4937338828288
 20
5.372623045681841
 30
0.0
 11
777.4937338828294
 21
595.3726230456815
 31
0.0
  0
LINE
  5
242
330
1F
100
AcDbEntity
  8
0-0
  6
JWW_DASHED1
 62
   120
370
     5
100
AcDbLine
 10
187.4937338828288
 20
15.27211798089734
 30
0.0
 11
777.4937338828294
 21
605.2721179808979
 31
0.0
  0
LINE
  5
243
330
1F
100
AcDbEntity
  8
0-0
  6
JWW_DASHED1
 62
   120
370
     5
100
AcDbLine
 10
187.4937338828195
 20
25.17161291610474
 30
0.0
 11
777.4937338828294
 21
615.1716129161142
 31
0.0
  0
LINE
  5
244
330
1F
100
AcDbEntity
  8
0-0
  6
JWW_DASHED1
 62
   120
370
     5
100
AcDbLine
 10
187.4937338828314
 20
35.07110785127889
 30
0.0
 11
777.4937338828294
 21
625.0711078512765
 31
0.0
  0
LINE
  5
245
330
1F
100
AcDbEntity
  8
0-0
  6
JWW_DASHED1
 62
   120
370
     5
100
AcDbLine
 10
187.4937338828306
 20
44.97060278649439
 30
0.0
 11
777.4937338828294
 21
634.9706027864923
 31
0.0
  0
LINE
  5
246
330
1F
100
AcDbEntity
  8
0-0
  6
JWW_DASHED1
 62
   120
370
     5
100
AcDbLine
 10
187.493733882822
 20
54.87009772170179
 30
0.0
 11
777.4937338828294
 21
644.8700977217092
 31
0.0
  0
LINE
  5
247
330
1F
100
AcDbEntity
  8
0-0
  6
JWW_DASHED1
 62
   120
370
     5
100
AcDbLine
 10
187.4937338828178
 20
64.76959265685932
 30
0.0
 11
777.4937338828294
 21
654.7695926568709
 31
0.0
  0
LINE
  5
248
330
1F
100
AcDbEntity
  8
0-0
  6
JWW_DASHED1
 62
   120
370
     5
100
AcDbLine
 10
187.493733882834
 20
74.66908759209144
 30
0.0
 11
777.4937338828294
 21
664.6690875920876
 31
0.0
  0
LINE
  5
249
330
1F
100
AcDbEntity
  8
0-0
  6
JWW_DASHED1
 62
   120
370
     5
100
AcDbLine
 10
187.4937338828203
 20
84.56858252724044
 30
0.0
 11
777.4937338828294
 21
674.5685825272494
 31
0.0
  0
LINE
  5
24A
330
1F
100
AcDbEntity
  8
0-0
  6
JWW_DASHED1
 62
   120
370
     5
100
AcDbLine
 10
187.4937338828118
 20
94.46807746244826
 30
0.0
 11
777.4937338828294
 21
684.4680774624658
 31
0.0
  0
LINE
  5
24B
330
1F
100
AcDbEntity
  8
0-0
  6
JWW_DASHED1
 62
   120
370
     5
100
AcDbLine
 10
187.4937338828357
 20
104.3675723976885
 30
0.0
 11
777.4937338828294
 21
694.3675723976813
 31
0.0
  0
LINE
  5
24C
330
1F
100
AcDbEntity
  8
0-0
  6
JWW_DASHED1
 62
   120
370
     5
100
AcDbLine
 10
187.493733882822
 20
114.2670673328371
 30
0.0
 11
777.4937338828294
 21
704.2670673328436
 31
0.0
  0
LINE
  5
24D
330
1F
100
AcDbEntity
  8
0-0
  6
JWW_DASHED1
 62
   120
370
     5
100
AcDbLine
 10
187.4937338828152
 20
124.1665622680453
 30
0.0
 11
777.4937338828294
 21
714.1665622680595
 31
0.0
  0
LINE
  5
24E
330
1F
100
AcDbEntity
  8
0-0
  6
JWW_DASHED1
 62
   120
370
     5
100
AcDbLine
 10
187.4937338828288
 20
134.0660572032766
 30
0.0
 11
777.4937338828294
 21
724.0660572032766
 31
0.0
  0
LINE
  5
24F
330
1F
100
AcDbEntity
  8
0-0
  6
JWW_DASHED1
 62
   120
370
     5
100
AcDbLine
 10
187.4937338828254
 20
143.9655521384345
 30
0.0
 11
777.4937338828294
 21
733.9655521384384
 31
0.0
  0
LINE
  5
250
330
1F
100
AcDbEntity
  8
0-0
  6
JWW_DASHED1
 62
   120
370
     5
100
AcDbLine
 10
187.4937338828169
 20
153.8650470736424
 30
0.0
 11
777.4937338828294
 21
743.8650470736548
 31
0.0
  0
LINE
  5
251
330
1F
100
AcDbEntity
  8
0-0
  6
JWW_DASHED1
 62
   120
370
     5
100
AcDbLine
 10
187.4937338828314
 20
163.7645420088728
 30
0.0
 11
777.4937338828294
 21
753.7645420088711
 31
0.0
  0
LINE
  5
252
330
1F
100
AcDbEntity
  8
0-0
  6
JWW_DASHED1
 62
   120
370
     5
100
AcDbLine
 10
187.4937338828271
 20
173.6640369440303
 30
0.0
 11
777.4937338828294
 21
763.6640369440325
 31
0.0
  0
LINE
  5
253
330
1F
100
AcDbEntity
  8
0-0
  6
JWW_DASHED1
 62
   120
370
     5
100
AcDbLine
 10
187.4937338828203
 20
183.5635318792394
 30
0.0
 11
777.4937338828294
 21
773.5635318792484
 31
0.0
  0
LINE
  5
254
330
1F
100
AcDbEntity
  8
0-0
  6
JWW_DASHED1
 62
   120
370
     5
100
AcDbLine
 10
187.4937338828109
 20
193.4630268144468
 30
0.0
 11
777.4937338828294
 21
783.4630268144648
 31
0.0
  0
LINE
  5
255
330
1F
100
AcDbEntity
  8
0-0
  6
JWW_DASHED1
 62
   120
370
     5
100
AcDbLine
 10
187.4937338828297
 20
203.3625217496273
 30
0.0
 11
777.4937338828294
 21
793.362521749627
 31
0.0
  0
LINE
  5
256
330
1F
100
AcDbEntity
  8
0-0
  6
JWW_DASHED1
 62
   120
370
     5
100
AcDbLine
 10
187.493733882822
 20
213.2620166848356
 30
0.0
 11
777.4937338828294
 21
803.2620166848434
 31
0.0
  0
LINE
  5
257
330
1F
100
AcDbEntity
  8
0-0
  6
JWW_DASHED1
 62
   120
370
     5
100
AcDbLine
 10
187.4937338828135
 20
223.1615116200443
 30
0.0
 11
777.4937338828294
 21
813.1615116200601
 31
0.0
  0
LINE
  5
258
330
1F
100
AcDbEntity
  8
0-0
  6
JWW_DASHED1
 62
   120
370
     5
100
AcDbLine
 10
187.4937338828323
 20
233.0610065552244
 30
0.0
 11
777.4937338828294
 21
823.0610065552215
 31
0.0
  0
LINE
  5
259
330
1F
100
AcDbEntity
  8
0-0
  6
JWW_DASHED1
 62
   120
370
     5
100
AcDbLine
 10
187.4937338828237
 20
242.9605014904326
 30
0.0
 11
777.4937338828294
 21
832.9605014904379
 31
0.0
  0
LINE
  5
25A
330
1F
100
AcDbEntity
  8
0-0
  6
JWW_DASHED1
 62
   120
370
     5
100
AcDbLine
 10
187.4937338828152
 20
252.8599964256405
 30
0.0
 11
777.4937338828294
 21
842.8599964256538
 31
0.0
  0
LINE
  5
25B
330
1F
100
AcDbEntity
  8
0-0
  6
JWW_DASHED1
 62
   120
370
     5
100
AcDbLine
 10
187.4937338828348
 20
262.7594913608214
 30
0.0
 11
777.4937338828294
 21
852.759491360816
 31
0.0
  0
LINE
  5
25C
330
1F
100
AcDbEntity
  8
0-0
  6
JWW_DASHED1
 62
   120
370
     5
100
AcDbLine
 10
187.4937338828263
 20
272.6589862960292
 30
0.0
 11
777.4937338828294
 21
862.6589862960319
 31
0.0
  0
LINE
  5
25D
330
1F
100
AcDbEntity
  8
0-0
  6
JWW_DASHED1
 62
   120
370
     5
100
AcDbLine
 10
187.4937338828161
 20
282.5584812312081
 30
0.0
 11
777.4937338828294
 21
872.5584812312214
 31
0.0
  0
LINE
  5
25E
330
1F
100
AcDbEntity
  8
0-0
  6
JWW_DASHED1
 62
   120
370
     5
100
AcDbLine
 10
187.493733882828
 20
292.457976166409
 30
0.0
 11
777.4937338828294
 21
882.4579761664108
 31
0.0
  0
LINE
  5
25F
330
1F
100
AcDbEntity
  8
0-0
  6
JWW_DASHED1
 62
   120
370
     5
100
AcDbLine
 10
187.4937338828288
 20
302.3574711016263
 30
0.0
 11
777.4937338828294
 21
892.3574711016269
 31
0.0
  0
LINE
  5
260
330
1F
100
AcDbEntity
  8
0-0
  6
JWW_DASHED1
 62
   120
370
     5
100
AcDbLine
 10
187.4937338828169
 20
312.2569660367761
 30
0.0
 11
777.4937338828294
 21
902.2569660367886
 31
0.0
  0
LINE
  5
261
330
1F
100
AcDbEntity
  8
0-0
  6
JWW_DASHED1
 62
   120
370
     5
100
AcDbLine
 10
187.4937338828306
 20
322.1564609720061
 30
0.0
 11
777.4937338828294
 21
912.1564609720045
 31
0.0
  0
LINE
  5
262
330
1F
100
AcDbEntity
  8
0-0
  6
JWW_DASHED1
 62
   120
370
     5
100
AcDbLine
 10
187.4937338828314
 20
332.0559559072233
 30
0.0
 11
777.4937338828294
 21
922.0559559072213
 31
0.0
  0
LINE
  5
263
330
1F
100
AcDbEntity
  8
0-0
  6
JWW_DASHED1
 62
   120
370
     5
100
AcDbLine
 10
187.4937338828186
 20
341.9554508423723
 30
0.0
 11
777.4937338828294
 21
931.9554508423831
 31
0.0
  0
LINE
  5
264
330
1F
100
AcDbEntity
  8
0-0
  6
JWW_DASHED1
 62
   120
370
     5
100
AcDbLine
 10
187.4937338828118
 20
351.8549457775815
 30
0.0
 11
777.4937338828294
 21
941.854945777599
 31
0.0
  0
LINE
  5
265
330
1F
100
AcDbEntity
  8
0-0
  6
JWW_DASHED1
 62
   120
370
     5
100
AcDbLine
 10
187.493733882834
 20
361.7544407128204
 30
0.0
 11
777.4937338828294
 21
951.7544407128154
 31
0.0
  0
LINE
  5
266
330
1F
100
AcDbEntity
  8
0-0
  6
JWW_DASHED1
 62
   120
370
     5
100
AcDbLine
 10
187.4937338828212
 20
371.6539356479693
 30
0.0
 11
777.4937338828294
 21
961.653935647977
 31
0.0
  0
LINE
  5
267
330
1F
100
AcDbEntity
  8
0-0
  6
JWW_DASHED1
 62
   120
370
     5
100
AcDbLine
 10
187.4937338828126
 20
381.5534305831771
 30
0.0
 11
777.4937338828294
 21
971.5534305831934
 31
0.0
  0
LINE
  5
268
330
1F
100
AcDbEntity
  8
0-0
  6
JWW_DASHED1
 62
   120
370
     5
100
AcDbLine
 10
187.4937338828263
 20
391.4529255184071
 30
0.0
 11
777.4937338828294
 21
981.4529255184102
 31
0.0
  0
LINE
  5
269
330
1F
100
AcDbEntity
  8
0-0
  6
JWW_DASHED1
 62
   120
370
     5
100
AcDbLine
 10
187.4937338828237
 20
401.3524204535664
 30
0.0
 11
777.4937338828294
 21
991.3524204535715
 31
0.0
  0
LINE
  5
26A
330
1F
100
AcDbEntity
  8
0-0
  6
JWW_DASHED1
 62
   120
370
     5
100
AcDbLine
 10
187.4937338828152
 20
411.2519153887743
 30
0.0
 11
777.4937338828294
 21
1001.251915388788
 31
0.0
  0
LINE
  5
26B
330
1F
100
AcDbEntity
  8
0-0
  6
JWW_DASHED1
 62
   120
370
     5
100
AcDbLine
 10
187.4937338828288
 20
421.1514103240038
 30
0.0
 11
777.4937338828294
 21
1011.151410324005
 31
0.0
  0
LINE
  5
26C
330
1F
100
AcDbEntity
  8
0-0
  6
JWW_DASHED1
 62
   120
370
     5
100
AcDbLine
 10
187.4937338828263
 20
431.0509052591634
 30
0.0
 11
777.4937338828294
 21
1021.050905259166
 31
0.0
  0
LINE
  5
26D
330
1F
100
AcDbEntity
  8
0-0
  6
JWW_DASHED1
 62
   120
370
     5
100
AcDbLine
 10
187.4937338828178
 20
440.9504001943712
 30
0.0
 11
777.4937338828294
 21
1030.950400194383
 31
0.0
  0
LINE
  5
26E
330
1F
100
AcDbEntity
  8
寸法
  6
Continuous
 62
   120
370
     5
100
AcDbLine
 10
-1229.506266117173
 20
-1012.725922775806
 30
0.0
 11
-779.5062661171734
 21
-1012.725922775806
 31
0.0
  0
LWPOLYLINE
  5
26F
330
1F
100
AcDbEntity
  8
寸法
  6
Continuous
 62
     7
370
     9
100
AcDbPolyline
 90
        4
 70
     1
 43
3.0
 10
-1228.006266117173
 20
-1012.725922775806
 42
0.4142135623731
 10
-1229.506266117173
 20
-1011.225922775806
 42
0.4142135623731
 10
-1231.006266117173
 20
-1012.725922775806
 42
0.4142135623731
 10
-1229.506266117173
 20
-1014.225922775806
 42
0.4142135623731
  0
LINE
  5
270
330
1F
100
AcDbEntity
  8
寸法
  6
Continuous
 62
   120
370
     5
100
AcDbLine
 10
-699.5062661171728
 20
-1462.725922775806
 30
0.0
 11
-699.5062661171728
 21
-1062.725922775806
 31
0.0
  0
LINE
  5
271
330
1F
100
AcDbEntity
  8
寸法
  6
Continuous
 62
   120
370
     5
100
AcDbLine
 10
-729.5062661171728
 20
-1662.725922775805
 30
0.0
 11
-729.5062661171728
 21
-1062.725922775806
 31
0.0
  0
LINE
  5
272
330
1F
100
AcDbEntity
  8
寸法
  6
Continuous
 62
   120
370
     5
100
AcDbLine
 10
887.4937338828265
 20
-1262.725922775806
 30
0.0
 11
887.4937338828265
 21
-1062.725922775806
 31
0.0
  0
LINE
  5
273
330
1F
100
AcDbEntity
  8
寸法
  6
Continuous
 62
   120
370
     5
100
AcDbLine
 10
-699.5062661171728
 20
-1462.725922775806
 30
0.0
 11
884.4937338828258
 21
-1462.725922775806
 31
0.0
  0
LINE
  5
274
330
1F
100
AcDbEntity
  8
寸法
  6
Continuous
 62
   120
370
     5
100
AcDbLine
 10
884.4937338828258
 20
-1462.725922775806
 30
0.0
 11
884.4937338828258
 21
-1062.725922775806
 31
0.0
  0
LINE
  5
275
330
1F
100
AcDbEntity
  8
寸法
  6
Continuous
 62
   120
370
     5
100
AcDbLine
 10
-729.5062661171728
 20
-1662.725922775805
 30
0.0
 11
914.4937338828258
 21
-1662.725922775805
 31
0.0
  0
LINE
  5
276
330
1F
100
AcDbEntity
  8
寸法
  6
Continuous
 62
   120
370
     5
100
AcDbLine
 10
914.4937338828258
 20
-1662.725922775805
 30
0.0
 11
914.4937338828258
 21
-1062.725922775806
 31
0.0
  0
LINE
  5
277
330
1F
100
AcDbEntity
  8
寸法
  6
Continuous
 62
   120
370
     5
100
AcDbLine
 10
77.49373388282659
 20
-1262.725922775806
 30
0.0
 11
77.49373388282659
 21
-1062.725922775806
 31
0.0
  0
LINE
  5
278
330
1F
100
AcDbEntity
  8
寸法
  6
Continuous
 62
   120
370
     5
100
AcDbLine
 10
77.49373388282659
 20
-1262.725922775806
 30
0.0
 11
887.4937338828265
 21
-1262.725922775806
 31
0.0
  0
LWPOLYLINE
  5
279
330
1F
100
AcDbEntity
  8
寸法
  6
Continuous
 62
     7
370
     9
100
AcDbPolyline
 90
        4
 70
     1
 43
3.0
 10
-698.0062661171727
 20
-1462.725922775806
 42
0.4142135623731
 10
-699.5062661171728
 20
-1461.225922775806
 42
0.4142135623731
 10
-701.0062661171728
 20
-1462.725922775806
 42
0.4142135623731
 10
-699.5062661171728
 20
-1464.225922775806
 42
0.4142135623731
  0
LWPOLYLINE
  5
27A
330
1F
100
AcDbEntity
  8
寸法
  6
Continuous
 62
     7
370
     9
100
AcDbPolyline
 90
        4
 70
     1
 43
3.0
 10
-728.0062661171727
 20
-1662.725922775805
 42
0.4142135623731
 10
-729.5062661171728
 20
-1661.225922775805
 42
0.4142135623731
 10
-731.0062661171728
 20
-1662.725922775805
 42
0.4142135623731
 10
-729.5062661171728
 20
-1664.225922775805
 42
0.4142135623731
  0
LWPOLYLINE
  5
27B
330
1F
100
AcDbEntity
  8
寸法
  6
Continuous
 62
     7
370
     9
100
AcDbPolyline
 90
        4
 70
     1
 43
3.0
 10
888.9937338828266
 20
-1262.725922775806
 42
0.4142135623731
 10
887.4937338828265
 20
-1261.225922775806
 42
0.4142135623731
 10
885.9937338828265
 20
-1262.725922775806
 42
0.4142135623731
 10
887.4937338828265
 20
-1264.225922775806
 42
0.4142135623731
  0
LWPOLYLINE
  5
27C
330
1F
100
AcDbEntity
  8
寸法
  6
Continuous
 62
     7
370
     9
100
AcDbPolyline
 90
        4
 70
     1
 43
3.0
 10
885.993733882826
 20
-1462.725922775806
 42
0.4142135623731
 10
884.4937338828258
 20
-1461.225922775806
 42
0.4142135623731
 10
882.9937338828258
 20
-1462.725922775806
 42
0.4142135623731
 10
884.4937338828258
 20
-1464.225922775806
 42
0.4142135623731
  0
LWPOLYLINE
  5
27D
330
1F
100
AcDbEntity
  8
寸法
  6
Continuous
 62
     7
370
     9
100
AcDbPolyline
 90
        4
 70
     1
 43
3.0
 10
915.993733882826
 20
-1662.725922775805
 42
0.4142135623731
 10
914.4937338828258
 20
-1661.225922775805
 42
0.4142135623731
 10
912.9937338828258
 20
-1662.725922775805
 42
0.4142135623731
 10
914.4937338828258
 20
-1664.225922775805
 42
0.4142135623731
  0
LWPOLYLINE
  5
27E
330
1F
100
AcDbEntity
  8
寸法
  6
Continuous
 62
     7
370
     9
100
AcDbPolyline
 90
        4
 70
     1
 43
3.0
 10
78.99373388282658
 20
-1262.725922775806
 42
0.4142135623731
 10
77.49373388282659
 20
-1261.225922775806
 42
0.4142135623731
 10
75.99373388282659
 20
-1262.725922775806
 42
0.4142135623731
 10
77.49373388282659
 20
-1264.225922775806
 42
0.4142135623731
  0
LINE
  5
27F
330
1F
100
AcDbEntity
  8
寸法
  6
Continuous
 62
   120
370
     5
100
AcDbLine
 10
-1029.506266117173
 20
-1004.225922775806
 30
0.0
 11
-779.5062661171734
 21
-1004.225922775806
 31
0.0
  0
LWPOLYLINE
  5
280
330
1F
100
AcDbEntity
  8
寸法
  6
Continuous
 62
     7
370
     9
100
AcDbPolyline
 90
        4
 70
     1
 43
3.0
 10
-1028.006266117173
 20
-1004.225922775806
 42
0.4142135623731
 10
-1029.506266117173
 20
-1002.725922775806
 42
0.4142135623731
 10
-1031.006266117172
 20
-1004.225922775806
 42
0.4142135623731
 10
-1029.506266117173
 20
-1005.725922775806
 42
0.4142135623731
  0
LINE
  5
281
330
1F
100
AcDbEntity
  8
寸法
  6
Continuous
 62
   120
370
     5
100
AcDbLine
 10
-1229.506266117173
 20
1222.774077224195
 30
0.0
 11
-1229.506266117173
 21
-1012.725922775806
 31
0.0
  0
LINE
  5
282
330
1F
100
AcDbEntity
  8
寸法
  6
Continuous
 62
   120
370
     5
100
AcDbLine
 10
-1229.506266117173
 20
1222.774077224195
 30
0.0
 11
-779.5062661171734
 21
1222.774077224195
 31
0.0
  0
LWPOLYLINE
  5
283
330
1F
100
AcDbEntity
  8
寸法
  6
Continuous
 62
     7
370
     9
100
AcDbPolyline
 90
        4
 70
     1
 43
3.0
 10
-1228.006266117173
 20
1222.774077224195
 42
0.4142135623731
 10
-1229.506266117173
 20
1224.274077224195
 42
0.4142135623731
 10
-1231.006266117173
 20
1222.774077224195
 42
0.4142135623731
 10
-1229.506266117173
 20
1221.274077224195
 42
0.4142135623731
  0
LINE
  5
284
330
1F
100
AcDbEntity
  8
寸法
  6
Continuous
 62
   120
370
     5
100
AcDbLine
 10
-1029.506266117173
 20
1178.774077224194
 30
0.0
 11
-779.5062661171734
 21
1178.774077224194
 31
0.0
  0
LINE
  5
285
330
1F
100
AcDbEntity
  8
寸法
  6
Continuous
 62
   120
370
     5
100
AcDbLine
 10
-1029.506266117173
 20
1178.774077224194
 30
0.0
 11
-1029.506266117173
 21
-1004.225922775806
 31
0.0
  0
LWPOLYLINE
  5
286
330
1F
100
AcDbEntity
  8
寸法
  6
Continuous
 62
     7
370
     9
100
AcDbPolyline
 90
        4
 70
     1
 43
3.0
 10
-1028.006266117173
 20
1178.774077224194
 42
0.4142135623731
 10
-1029.506266117173
 20
1180.274077224194
 42
0.4142135623731
 10
-1031.006266117172
 20
1178.774077224194
 42
0.4142135623731
 10
-1029.506266117173
 20
1177.274077224194
 42
0.4142135623731
  0
MTEXT
  5
287
330
1F
100
AcDbEntity
  8
寸法
  6
Continuous
 62
     7
370
    70
100
AcDbMText
 10
-1244.506266117173
 20
-124.9009227758062
 30
0.0
 40
57.14999999999999
 41
412.5
 46
0.0
 71
     7
 72
     1
  1
{\fＭＳ ゴシック|b0|i0|c128|p49;枠外＝2,235}
 11
6.123031769111886E-17
 21
1.0
 31
0.0
 73
     1
 44
1.0
  0
MTEXT
  5
288
330
1F
100
AcDbEntity
  8
寸法
  6
Continuous
 62
     7
370
    70
100
AcDbMText
 10
-1044.506266117173
 20
-130.9009227758054
 30
0.0
 40
57.14999999999999
 41
412.5
 46
0.0
 71
     7
 72
     1
  1
{\fＭＳ ゴシック|b0|i0|c128|p49;ＤＨ＝2,183}
 11
6.123031769111886E-17
 21
1.0
 31
0.0
 73
     1
 44
1.0
  0
MTEXT
  5
289
330
1F
100
AcDbEntity
  8
寸法
  6
Continuous
 62
     7
370
   211
100
AcDbMText
 10
313.7437338828266
 20
-1256.650922775806
 30
0.0
 40
57.15
 41
337.5
 46
0.0
 71
     7
 72
     1
  1
{\fＭＳ ゴシック|b0|i0|c128|p49;ＤＷ＝810}
 73
     1
 44
1.0
  0
MTEXT
  5
28A
330
1F
100
AcDbEntity
  8
寸法
  6
Continuous
 62
     7
370
   211
100
AcDbMText
 10
-113.7562661171734
 20
-1456.650922775806
 30
0.0
 40
57.14999999999999
 41
412.5
 46
0.0
 71
     7
 72
     1
  1
{\fＭＳ ゴシック|b0|i0|c128|p49;枠内＝1,584}
 73
     1
 44
1.0
  0
MTEXT
  5
28B
330
1F
100
AcDbEntity
  8
寸法
  6
Continuous
 62
     7
370
   211
100
AcDbMText
 10
-113.7562661171734
 20
-1656.650922775806
 30
0.0
 40
57.14999999999999
 41
412.5
 46
0.0
 71
     7
 72
     1
  1
{\fＭＳ ゴシック|b0|i0|c128|p49;枠外＝1,644}
 73
     1
 44
1.0
  0
ENDSEC
  0
SECTION
  2
OBJECTS
  0
DICTIONARY
  5
C
330
0
100
AcDbDictionary
281
     1
  3
ACAD_GROUP
350
D
  3
ACAD_LAYOUT
350
1A
  3
ACAD_MATERIAL
350
3B
  3
ACAD_MLEADERSTYLE
350
28D
  3
ACAD_MLINESTYLE
350
17
  3
ACAD_PLOTSETTINGS
350
19
  3
ACAD_PLOTSTYLENAME
350
E
  3
ACAD_TABLESTYLE
350
28C
  3
ACAD_VISUALSTYLE
350
2A
  0
DICTIONARY
  5
D
102
{ACAD_REACTORS
330
C
102
}
330
C
100
AcDbDictionary
281
     1
  0
DICTIONARY
  5
1A
102
{ACAD_REACTORS
330
C
102
}
330
C
100
AcDbDictionary
281
     1
  3
Layout1
350
1E
  3
Layout2
350
26
  3
Model
350
22
  0
DICTIONARY
  5
3B
102
{ACAD_REACTORS
330
C
102
}
330
C
100
AcDbDictionary
281
     1
  3
ByBlock
350
3D
  3
ByLayer
350
3C
  3
Global
350
3E
  0
DICTIONARY
  5
28D
102
{ACAD_REACTORS
330
C
102
}
330
C
100
AcDbDictionary
281
     1
  0
DICTIONARY
  5
17
102
{ACAD_REACTORS
330
C
102
}
330
C
100
AcDbDictionary
281
     1
  3
Standard
350
18
  0
DICTIONARY
  5
19
102
{ACAD_REACTORS
330
C
102
}
330
C
100
AcDbDictionary
281
     1
  0
ACDBDICTIONARYWDFLT
  5
E
102
{ACAD_REACTORS
330
C
102
}
330
C
100
AcDbDictionary
281
     1
  3
Normal
350
F
100
AcDbDictionaryWithDefault
340
F
  0
DICTIONARY
  5
28C
102
{ACAD_REACTORS
330
C
102
}
330
C
100
AcDbDictionary
281
     1
  0
DICTIONARY
  5
2A
102
{ACAD_REACTORS
330
C
102
}
330
C
100
AcDbDictionary
281
     1
  3
2dWireframe
350
2F
  3
3D Hidden
350
31
  3
3dWireframe
350
30
  3
Basic
350
32
  3
Brighten
350
36
  3
ColorChange
350
3A
  3
Conceptual
350
34
  3
Dim
350
35
  3
Facepattern
350
39
  3
Flat
350
2B
  3
FlatWithEdges
350
2C
  3
Gouraud
350
2D
  3
GouraudWithEdges
350
2E
  3
Linepattern
350
38
  3
Realistic
350
33
  3
Thicken
350
37
  0
LAYOUT
  5
1E
102
{ACAD_REACTORS
330
1A
102
}
330
1A
100
AcDbPlotSettings
  1

  2
none_device
  4

  6

 40
0.0
 41
0.0
 42
0.0
 43
0.0
 44
0.0
 45
0.0
 46
0.0
 47
0.0
 48
0.0
 49
0.0
140
0.0
141
0.0
142
1.0
143
1.0
 70
   688
 72
     0
 73
     0
 74
     5
  7

 75
    16
 76
     0
 77
     5
 78
   300
147
1.0
148
0.0
149
0.0
100
AcDbLayout
  1
Layout1
 70
     1
 71
     1
 10
0.0
 20
0.0
 11
420.0
 21
297.0
 12
0.0
 22
0.0
 32
0.0
 14
1.000000000000000E+20
 24
1.000000000000000E+20
 34
1.000000000000000E+20
 15
-1.000000000000000E+20
 25
-1.000000000000000E+20
 35
-1.000000000000000E+20
146
0.0
 13
0.0
 23
0.0
 33
0.0
 16
1.0
 26
0.0
 36
0.0
 17
0.0
 27
1.0
 37
0.0
 76
     0
330
1B
  0
LAYOUT
  5
26
102
{ACAD_REACTORS
330
1A
102
}
330
1A
100
AcDbPlotSettings
  1

  2
none_device
  4

  6

 40
0.0
 41
0.0
 42
0.0
 43
0.0
 44
0.0
 45
0.0
 46
0.0
 47
0.0
 48
0.0
 49
0.0
140
0.0
141
0.0
142
1.0
143
1.0
 70
   688
 72
     0
 73
     0
 74
     5
  7

 75
    16
 76
     0
 77
     5
 78
   300
147
1.0
148
0.0
149
0.0
100
AcDbLayout
  1
Layout2
 70
     1
 71
     2
 10
0.0
 20
0.0
 11
0.0
 21
0.0
 12
0.0
 22
0.0
 32
0.0
 14
0.0
 24
0.0
 34
0.0
 15
0.0
 25
0.0
 35
0.0
146
0.0
 13
0.0
 23
0.0
 33
0.0
 16
1.0
 26
0.0
 36
0.0
 17
0.0
 27
1.0
 37
0.0
 76
     0
330
23
  0
LAYOUT
  5
22
102
{ACAD_REACTORS
330
1A
102
}
330
1A
100
AcDbPlotSettings
  1

  2
none_device
  4

  6

 40
0.0
 41
0.0
 42
0.0
 43
0.0
 44
0.0
 45
0.0
 46
0.0
 47
0.0
 48
0.0
 49
0.0
140
0.0
141
0.0
142
1.0
143
1.0
 70
  1712
 72
     0
 73
     0
 74
     0
  7

 75
     0
 76
     0
 77
     5
 78
   300
147
1.0
148
0.0
149
0.0
100
AcDbLayout
  1
Model
 70
     1
 71
     0
 10
-4455.0
 20
-3150.0
 11
4455.0
 21
3150.0
 12
0.0
 22
0.0
 32
0.0
 14
-4455.0
 24
-3150.0
 34
0.0
 15
4455.0
 25
3150.0
 35
0.0
146
0.0
 13
0.0
 23
0.0
 33
0.0
 16
1.0
 26
0.0
 36
0.0
 17
0.0
 27
1.0
 37
0.0
 76
     0
330
1F
331
29
  0
MATERIAL
  5
3D
102
{ACAD_REACTORS
330
3B
102
}
330
3B
100
AcDbMaterial
  1
ByBlock
 72
     1
 94
      127
  0
MATERIAL
  5
3C
102
{ACAD_REACTORS
330
3B
102
}
330
3B
100
AcDbMaterial
  1
ByLayer
 72
     1
 94
      127
  0
MATERIAL
  5
3E
102
{ACAD_REACTORS
330
3B
102
}
330
3B
100
AcDbMaterial
  1
Global
 72
     1
 94
      127
  0
MLINESTYLE
  5
18
102
{ACAD_REACTORS
330
17
102
}
330
17
100
AcDbMlineStyle
  2
Standard
 70
     0
  3

 62
   256
 51
90.0
 52
90.0
 71
     2
 49
0.5
 62
   256
  6
BYLAYER
 49
-0.5
 62
   256
  6
BYLAYER
  0
ACDBPLACEHOLDER
  5
F
102
{ACAD_REACTORS
330
E
102
}
330
E
  0
VISUALSTYLE
  5
2F
102
{ACAD_REACTORS
330
2A
102
}
330
2A
100
AcDbVisualStyle
  2
2dWireframe
 70
     4
177
     2
291
     0
 71
     0
176
     1
 72
     2
176
     1
 73
     0
176
     1
 90
        0
176
     1
 40
-0.6
176
     1
 41
-30.0
176
     1
 62
     5
 63
     7
421
 16777215
176
     1
 74
     1
176
     1
 91
        4
176
     1
 64
     7
176
     1
 65
   257
176
     1
 75
     1
176
     1
175
     1
176
     1
 42
1.0
176
     1
 92
        0
176
     1
 66
   257
176
     1
 43
1.0
176
     1
 76
     1
176
     1
 77
     6
176
     1
 78
     2
176
     1
 67
     7
176
     1
 79
     5
176
     1
170
     0
176
     1
171
     0
176
     1
290
     0
176
     1
 93
        1
176
     1
 44
0.0
176
     1
173
     0
176
     1
  0
VISUALSTYLE
  5
31
102
{ACAD_REACTORS
330
2A
102
}
330
2A
100
AcDbVisualStyle
  2
3D Hidden
 70
     6
177
     2
291
     0
 71
     1
176
     1
 72
     2
176
     1
 73
     2
176
     1
 90
        0
176
     1
 40
-0.6
176
     1
 41
-30.0
176
     1
 62
     5
 63
     7
421
 16777215
176
     1
 74
     2
176
     1
 91
        2
176
     1
 64
     7
176
     1
 65
   257
176
     1
 75
     2
176
     1
175
     1
176
     1
 42
40.0
176
     1
 92
        0
176
     1
 66
   257
176
     1
 43
1.0
176
     1
 76
     1
176
     1
 77
     6
176
     1
 78
     2
176
     1
 67
     7
176
     1
 79
     3
176
     1
170
     0
176
     1
171
     0
176
     1
290
     0
176
     1
 93
        1
176
     1
 44
0.0
176
     1
173
     0
176
     1
  0
VISUALSTYLE
  5
30
102
{ACAD_REACTORS
330
2A
102
}
330
2A
100
AcDbVisualStyle
  2
3dWireframe
 70
     5
177
     2
291
     0
 71
     0
176
     1
 72
     2
176
     1
 73
     0
176
     1
 90
        0
176
     1
 40
-0.6
176
     1
 41
-30.0
176
     1
 62
     5
 63
     7
421
 16777215
176
     1
 74
     1
176
     1
 91
        4
176
     1
 64
     7
176
     1
 65
   257
176
     1
 75
     1
176
     1
175
     1
176
     1
 42
1.0
176
     1
 92
        0
176
     1
 66
   257
176
     1
 43
1.0
176
     1
 76
     1
176
     1
 77
     6
176
     1
 78
     2
176
     1
 67
     7
176
     1
 79
     5
176
     1
170
     0
176
     1
171
     0
176
     1
290
     0
176
     1
 93
        1
176
     1
 44
0.0
176
     1
173
     0
176
     1
  0
VISUALSTYLE
  5
32
102
{ACAD_REACTORS
330
2A
102
}
330
2A
100
AcDbVisualStyle
  2
Basic
 70
     7
177
     2
291
     1
 71
     1
176
     1
 72
     0
176
     1
 73
     1
176
     1
 90
        0
176
     1
 40
-0.6
176
     1
 41
-30.0
176
     1
 62
     5
 63
     7
421
 16777215
176
     1
 74
     0
176
     1
 91
        4
176
     1
 64
     7
176
     1
 65
   257
176
     1
 75
     1
176
     1
175
     1
176
     1
 42
1.0
176
     1
 92
        8
176
     1
 66
     7
176
     1
 43
1.0
176
     1
 76
     1
176
     1
 77
     6
176
     1
 78
     2
176
     1
 67
     7
176
     1
 79
     5
176
     1
170
     0
176
     1
171
     0
176
     1
290
     0
176
     1
 93
        1
176
     1
 44
0.0
176
     1
173
     0
176
     1
  0
VISUALSTYLE
  5
36
102
{ACAD_REACTORS
330
2A
102
}
330
2A
100
AcDbVisualStyle
  2
Brighten
 70
    12
177
     2
291
     1
 71
     2
176
     1
 72
     2
176
     1
 73
     0
176
     1
 90
        0
176
     1
 40
-0.6
176
     1
 41
-30.0
176
     1
 62
     5
 63
     7
421
 16777215
176
     1
 74
     1
176
     1
 91
        4
176
     1
 64
     7
176
     1
 65
   257
176
     1
 75
     1
176
     1
175
     1
176
     1
 42
1.0
176
     1
 92
        8
176
     1
 66
     7
176
     1
 43
1.0
176
     1
 76
     1
176
     1
 77
     6
176
     1
 78
     2
176
     1
 67
     7
176
     1
 79
     5
176
     1
170
     0
176
     1
171
     0
176
     1
290
     0
176
     1
 93
        1
176
     1
 44
50.0
176
     1
173
     0
176
     1
  0
VISUALSTYLE
  5
3A
102
{ACAD_REACTORS
330
2A
102
}
330
2A
100
AcDbVisualStyle
  2
ColorChange
 70
    16
177
     2
291
     1
 71
     2
176
     1
 72
     2
176
     1
 73
     3
176
     1
 90
        0
176
     1
 40
-0.6
176
     1
 41
-30.0
176
     1
 62
     5
 63
     8
421
  8421504
176
     1
 74
     1
176
     1
 91
        4
176
     1
 64
     7
176
     1
 65
   257
176
     1
 75
     1
176
     1
175
     1
176
     1
 42
1.0
176
     1
 92
        8
176
     1
 66
     8
424
  8421504
176
     1
 43
1.0
176
     1
 76
     1
176
     1
 77
     6
176
     1
 78
     2
176
     1
 67
     7
176
     1
 79
     5
176
     1
170
     0
176
     1
171
     0
176
     1
290
     0
176
     1
 93
        1
176
     1
 44
0.0
176
     1
173
     0
176
     1
  0
VISUALSTYLE
  5
34
102
{ACAD_REACTORS
330
2A
102
}
330
2A
100
AcDbVisualStyle
  2
Conceptual
 70
     9
177
     2
291
     0
 71
     3
176
     1
 72
     2
176
     1
 73
     0
176
     1
 90
        0
176
     1
 40
-0.6
176
     1
 41
-30.0
176
     1
 62
     5
 63
     7
421
 16777215
176
     1
 74
     2
176
     1
 91
        2
176
     1
 64
     7
176
     1
 65
   257
176
     1
 75
     1
176
     1
175
     1
176
     1
 42
40.0
176
     1
 92
        8
176
     1
 66
     7
176
     1
 43
1.0
176
     1
 76
     1
176
     1
 77
     6
176
     1
 78
     2
176
     1
 67
     7
176
     1
 79
     3
176
     1
170
     0
176
     1
171
     0
176
     1
290
     0
176
     1
 93
        1
176
     1
 44
0.0
176
     1
173
     0
176
     1
  0
VISUALSTYLE
  5
35
102
{ACAD_REACTORS
330
2A
102
}
330
2A
100
AcDbVisualStyle
  2
Dim
 70
    11
177
     2
291
     1
 71
     2
176
     1
 72
     2
176
     1
 73
     0
176
     1
 90
        0
176
     1
 40
-0.6
176
     1
 41
-30.0
176
     1
 62
     5
 63
     7
421
 16777215
176
     1
 74
     1
176
     1
 91
        4
176
     1
 64
     7
176
     1
 65
   257
176
     1
 75
     1
176
     1
175
     1
176
     1
 42
1.0
176
     1
 92
        8
176
     1
 66
     7
176
     1
 43
1.0
176
     1
 76
     1
176
     1
 77
     6
176
     1
 78
     2
176
     1
 67
     7
176
     1
 79
     5
176
     1
170
     0
176
     1
171
     0
176
     1
290
     0
176
     1
 93
        1
176
     1
 44
-50.0
176
     1
173
     0
176
     1
  0
VISUALSTYLE
  5
39
102
{ACAD_REACTORS
330
2A
102
}
330
2A
100
AcDbVisualStyle
  2
Facepattern
 70
    15
177
     2
291
     1
 71
     2
176
     1
 72
     2
176
     1
 73
     0
176
     1
 90
        0
176
     1
 40
-0.6
176
     1
 41
-30.0
176
     1
 62
     5
 63
     7
421
 16777215
176
     1
 74
     1
176
     1
 91
        4
176
     1
 64
     7
176
     1
 65
   257
176
     1
 75
     1
176
     1
175
     1
176
     1
 42
1.0
176
     1
 92
        8
176
     1
 66
     7
176
     1
 43
1.0
176
     1
 76
     1
176
     1
 77
     6
176
     1
 78
     2
176
     1
 67
     7
176
     1
 79
     5
176
     1
170
     0
176
     1
171
     0
176
     1
290
     0
176
     1
 93
        1
176
     1
 44
0.0
176
     1
173
     0
176
     1
  0
VISUALSTYLE
  5
2B
102
{ACAD_REACTORS
330
2A
102
}
330
2A
100
AcDbVisualStyle
  2
Flat
 70
     0
177
     2
291
     1
 71
     2
176
     1
 72
     1
176
     1
 73
     1
176
     1
 90
        2
176
     1
 40
-0.6
176
     1
 41
30.0
176
     1
 62
     5
 63
     7
421
 16777215
176
     1
 74
     0
176
     1
 91
        4
176
     1
 64
     7
176
     1
 65
   257
176
     1
 75
     1
176
     1
175
     1
176
     1
 42
1.0
176
     1
 92
        8
176
     1
 66
     7
176
     1
 43
1.0
176
     1
 76
     1
176
     1
 77
     6
176
     1
 78
     2
176
     1
 67
     7
176
     1
 79
     5
176
     1
170
     0
176
     1
171
     0
176
     1
290
     0
176
     1
 93
       13
176
     1
 44
0.0
176
     1
173
     0
176
     1
  0
VISUALSTYLE
  5
2C
102
{ACAD_REACTORS
330
2A
102
}
330
2A
100
AcDbVisualStyle
  2
FlatWithEdges
 70
     1
177
     2
291
     1
 71
     2
176
     1
 72
     1
176
     1
 73
     1
176
     1
 90
        2
176
     1
 40
-0.6
176
     1
 41
30.0
176
     1
 62
     5
 63
     7
421
 16777215
176
     1
 74
     1
176
     1
 91
        4
176
     1
 64
     7
176
     1
 65
   257
176
     1
 75
     1
176
     1
175
     1
176
     1
 42
1.0
176
     1
 92
        0
176
     1
 66
   257
176
     1
 43
1.0
176
     1
 76
     1
176
     1
 77
     6
176
     1
 78
     2
176
     1
 67
     7
176
     1
 79
     5
176
     1
170
     0
176
     1
171
     0
176
     1
290
     0
176
     1
 93
       13
176
     1
 44
0.0
176
     1
173
     0
176
     1
  0
VISUALSTYLE
  5
2D
102
{ACAD_REACTORS
330
2A
102
}
330
2A
100
AcDbVisualStyle
  2
Gouraud
 70
     2
177
     2
291
     1
 71
     2
176
     1
 72
     2
176
     1
 73
     1
176
     1
 90
        2
176
     1
 40
-0.6
176
     1
 41
30.0
176
     1
 62
     5
 63
     7
421
 16777215
176
     1
 74
     0
176
     1
 91
        4
176
     1
 64
     7
176
     1
 65
   257
176
     1
 75
     1
176
     1
175
     1
176
     1
 42
1.0
176
     1
 92
        0
176
     1
 66
     7
176
     1
 43
1.0
176
     1
 76
     1
176
     1
 77
     6
176
     1
 78
     2
176
     1
 67
     7
176
     1
 79
     5
176
     1
170
     0
176
     1
171
     0
176
     1
290
     0
176
     1
 93
       13
176
     1
 44
0.0
176
     1
173
     0
176
     1
  0
VISUALSTYLE
  5
2E
102
{ACAD_REACTORS
330
2A
102
}
330
2A
100
AcDbVisualStyle
  2
GouraudWithEdges
 70
     3
177
     2
291
     1
 71
     2
176
     1
 72
     2
176
     1
 73
     1
176
     1
 90
        2
176
     1
 40
-0.6
176
     1
 41
30.0
176
     1
 62
     5
 63
     7
421
 16777215
176
     1
 74
     1
176
     1
 91
        4
176
     1
 64
     7
176
     1
 65
   257
176
     1
 75
     1
176
     1
175
     1
176
     1
 42
1.0
176
     1
 92
        0
176
     1
 66
   257
176
     1
 43
1.0
176
     1
 76
     1
176
     1
 77
     6
176
     1
 78
     2
176
     1
 67
     7
176
     1
 79
     5
176
     1
170
     0
176
     1
171
     0
176
     1
290
     0
176
     1
 93
       13
176
     1
 44
0.0
176
     1
173
     0
176
     1
  0
VISUALSTYLE
  5
38
102
{ACAD_REACTORS
330
2A
102
}
330
2A
100
AcDbVisualStyle
  2
Linepattern
 70
    14
177
     2
291
     1
 71
     2
176
     1
 72
     2
176
     1
 73
     0
176
     1
 90
        0
176
     1
 40
-0.6
176
     1
 41
-30.0
176
     1
 62
     5
 63
     7
421
 16777215
176
     1
 74
     1
176
     1
 91
        4
176
     1
 64
     7
176
     1
 65
   257
176
     1
 75
     7
176
     1
175
     7
176
     1
 42
1.0
176
     1
 92
        8
176
     1
 66
     7
176
     1
 43
1.0
176
     1
 76
     1
176
     1
 77
     6
176
     1
 78
     2
176
     1
 67
     7
176
     1
 79
     5
176
     1
170
     0
176
     1
171
     0
176
     1
290
     0
176
     1
 93
        1
176
     1
 44
0.0
176
     1
173
     0
176
     1
  0
VISUALSTYLE
  5
33
102
{ACAD_REACTORS
330
2A
102
}
330
2A
100
AcDbVisualStyle
  2
Realistic
 70
     8
177
     2
291
     0
 71
     2
176
     1
 72
     2
176
     1
 73
     0
176
     1
 90
        0
176
     1
 40
-0.6
176
     1
 41
-30.0
176
     1
 62
     5
 63
     7
421
 16777215
176
     1
 74
     1
176
     1
 91
        0
176
     1
 64
     7
176
     1
 65
   257
176
     1
 75
     1
176
     1
175
     1
176
     1
 42
1.0
176
     1
 92
        8
176
     1
 66
     8
424
  7895160
176
     1
 43
1.0
176
     1
 76
     1
176
     1
 77
     6
176
     1
 78
     2
176
     1
 67
     7
176
     1
 79
     5
176
     1
170
     0
176
     1
171
     0
176
     1
290
     0
176
     1
 93
       13
176
     1
 44
0.0
176
     1
173
     0
176
     1
  0
VISUALSTYLE
  5
37
102
{ACAD_REACTORS
330
2A
102
}
330
2A
100
AcDbVisualStyle
  2
Thicken
 70
    13
177
     2
291
     1
 71
     2
176
     1
 72
     2
176
     1
 73
     0
176
     1
 90
        0
176
     1
 40
-0.6
176
     1
 41
-30.0
176
     1
 62
     5
 63
     7
421
 16777215
176
     1
 74
     1
176
     1
 91
        4
176
     1
 64
     7
176
     1
 65
   257
176
     1
 75
     1
176
     1
175
     1
176
     1
 42
1.0
176
     1
 92
       12
176
     1
 66
     7
176
     1
 43
1.0
176
     1
 76
     1
176
     1
 77
     6
176
     1
 78
     2
176
     1
 67
     7
176
     1
 79
     5
176
     1
170
     0
176
     1
171
     0
176
     1
290
     0
176
     1
 93
        1
176
     1
 44
0.0
176
     1
173
     0
176
     1
  0
ENDSEC
  0
EOF
