  0
SECTION
  2
HEADER
  9
$ACADVER
  1
AC1024
  9
$ACADMAINTVER
 70
     6
  9
$DWGCODEPAGE
  3
ANSI_932
  9
$INSBASE
 10
0.0
 20
0.0
 30
0.0
  9
$EXTMIN
 10
-4455.0
 20
-3150.0
 30
0.0
  9
$EXTMAX
 10
4455.0
 20
3150.0
 30
0.0
  9
$LIMMIN
 10
-4455.0
 20
-3150.0
  9
$LIMMAX
 10
4455.0
 20
3150.0
  9
$ORTHOMODE
 70
     0
  9
$REGENMODE
 70
     1
  9
$FILLMODE
 70
     1
  9
$QTEXTMODE
 70
     0
  9
$MIRRTEXT
 70
     1
  9
$LTSCALE
 40
30.0
  9
$ATTMODE
 70
     1
  9
$TEXTSIZE
 40
2.5
  9
$TRACEWID
 40
1.0
  9
$TEXTSTYLE
  7
Standard
  9
$CLAYER
  8
0
  9
$CELTYPE
  6
ByLayer
  9
$CECOLOR
 62
   256
  9
$CELTSCALE
 40
1.0
  9
$DISPSILH
 70
     0
  9
$DIMSCALE
 40
1.0
  9
$DIMASZ
 40
2.5
  9
$DIMEXO
 40
0.625
  9
$DIMDLI
 40
3.75
  9
$DIMRND
 40
0.0
  9
$DIMDLE
 40
0.0
  9
$DIMEXE
 40
1.25
  9
$DIMTP
 40
0.0
  9
$DIMTM
 40
0.0
  9
$DIMTXT
 40
2.5
  9
$DIMCEN
 40
2.5
  9
$DIMTSZ
 40
0.0
  9
$DIMTOL
 70
     0
  9
$DIMLIM
 70
     0
  9
$DIMTIH
 70
     0
  9
$DIMTOH
 70
     0
  9
$DIMSE1
 70
     0
  9
$DIMSE2
 70
     0
  9
$DIMTAD
 70
     1
  9
$DIMZIN
 70
     8
  9
$DIMBLK
  1

  9
$DIMASO
 70
     1
  9
$DIMSHO
 70
     1
  9
$DIMPOST
  1

  9
$DIMAPOST
  1

  9
$DIMALT
 70
     0
  9
$DIMALTD
 70
     3
  9
$DIMALTF
 40
0.03937007874016
  9
$DIMLFAC
 40
1.0
  9
$DIMTOFL
 70
     1
  9
$DIMTVP
 40
0.0
  9
$DIMTIX
 70
     0
  9
$DIMSOXD
 70
     0
  9
$DIMSAH
 70
     0
  9
$DIMBLK1
  1

  9
$DIMBLK2
  1

  9
$DIMSTYLE
  2
ISO-25
  9
$DIMCLRD
 70
     0
  9
$DIMCLRE
 70
     0
  9
$DIMCLRT
 70
     0
  9
$DIMTFAC
 40
1.0
  9
$DIMGAP
 40
0.625
  9
$DIMJUST
 70
     0
  9
$DIMSD1
 70
     0
  9
$DIMSD2
 70
     0
  9
$DIMTOLJ
 70
     0
  9
$DIMTZIN
 70
     8
  9
$DIMALTZ
 70
     0
  9
$DIMALTTZ
 70
     0
  9
$DIMUPT
 70
     0
  9
$DIMDEC
 70
     2
  9
$DIMTDEC
 70
     2
  9
$DIMALTU
 70
     2
  9
$DIMALTTD
 70
     3
  9
$DIMTXSTY
  7
Standard
  9
$DIMAUNIT
 70
     0
  9
$DIMADEC
 70
     0
  9
$DIMALTRND
 40
0.0
  9
$DIMAZIN
 70
     0
  9
$DIMDSEP
 70
    44
  9
$DIMATFIT
 70
     3
  9
$DIMFRAC
 70
     0
  9
$DIMLDRBLK
  1

  9
$DIMLUNIT
 70
     2
  9
$DIMLWD
 70
    -2
  9
$DIMLWE
 70
    -2
  9
$DIMTMOVE
 70
     0
  9
$DIMFXL
 40
1.0
  9
$DIMFXLON
 70
     0
  9
$DIMJOGANG
 40
0.7853981633974483
  9
$DIMTFILL
 70
     0
  9
$DIMTFILLCLR
 70
     0
  9
$DIMARCSYM
 70
     0
  9
$DIMLTYPE
  6

  9
$DIMLTEX1
  6

  9
$DIMLTEX2
  6

  9
$DIMTXTDIRECTION
 70
     0
  9
$LUNITS
 70
     2
  9
$LUPREC
 70
     4
  9
$SKETCHINC
 40
1.0
  9
$FILLETRAD
 40
10.0
  9
$AUNITS
 70
     0
  9
$AUPREC
 70
     0
  9
$MENU
  1
.
  9
$ELEVATION
 40
0.0
  9
$PELEVATION
 40
0.0
  9
$THICKNESS
 40
0.0
  9
$LIMCHECK
 70
     0
  9
$CHAMFERA
 40
10.0
  9
$CHAMFERB
 40
10.0
  9
$CHAMFERC
 40
20.0
  9
$CHAMFERD
 40
0.0
  9
$SKPOLY
 70
     0
  9
$TDCREATE
 40
2457913.543694826
  9
$TDUCREATE
 40
2457913.168694826
  9
$TDUPDATE
 40
2457913.543694838
  9
$TDUUPDATE
 40
2457913.168694838
  9
$TDINDWG
 40
0.0000000116
  9
$TDUSRTIMER
 40
0.0000000116
  9
$USRTIMER
 70
     1
  9
$ANGBASE
 50
0.0
  9
$ANGDIR
 70
     0
  9
$PDMODE
 70
     0
  9
$PDSIZE
 40
0.0
  9
$PLINEWID
 40
0.0
  9
$SPLFRAME
 70
     0
  9
$SPLINETYPE
 70
     6
  9
$SPLINESEGS
 70
     8
  9
$HANDSEED
  5
55E
  9
$SURFTAB1
 70
     6
  9
$SURFTAB2
 70
     6
  9
$SURFTYPE
 70
     6
  9
$SURFU
 70
     6
  9
$SURFV
 70
     6
  9
$UCSBASE
  2

  9
$UCSNAME
  2

  9
$UCSORG
 10
0.0
 20
0.0
 30
0.0
  9
$UCSXDIR
 10
1.0
 20
0.0
 30
0.0
  9
$UCSYDIR
 10
0.0
 20
1.0
 30
0.0
  9
$UCSORTHOREF
  2

  9
$UCSORTHOVIEW
 70
     0
  9
$UCSORGTOP
 10
0.0
 20
0.0
 30
0.0
  9
$UCSORGBOTTOM
 10
0.0
 20
0.0
 30
0.0
  9
$UCSORGLEFT
 10
0.0
 20
0.0
 30
0.0
  9
$UCSORGRIGHT
 10
0.0
 20
0.0
 30
0.0
  9
$UCSORGFRONT
 10
0.0
 20
0.0
 30
0.0
  9
$UCSORGBACK
 10
0.0
 20
0.0
 30
0.0
  9
$PUCSBASE
  2

  9
$PUCSNAME
  2

  9
$PUCSORG
 10
0.0
 20
0.0
 30
0.0
  9
$PUCSXDIR
 10
1.0
 20
0.0
 30
0.0
  9
$PUCSYDIR
 10
0.0
 20
1.0
 30
0.0
  9
$PUCSORTHOREF
  2

  9
$PUCSORTHOVIEW
 70
     0
  9
$PUCSORGTOP
 10
0.0
 20
0.0
 30
0.0
  9
$PUCSORGBOTTOM
 10
0.0
 20
0.0
 30
0.0
  9
$PUCSORGLEFT
 10
0.0
 20
0.0
 30
0.0
  9
$PUCSORGRIGHT
 10
0.0
 20
0.0
 30
0.0
  9
$PUCSORGFRONT
 10
0.0
 20
0.0
 30
0.0
  9
$PUCSORGBACK
 10
0.0
 20
0.0
 30
0.0
  9
$USERI1
 70
     0
  9
$USERI2
 70
     0
  9
$USERI3
 70
     0
  9
$USERI4
 70
     0
  9
$USERI5
 70
     0
  9
$USERR1
 40
0.0
  9
$USERR2
 40
0.0
  9
$USERR3
 40
0.0
  9
$USERR4
 40
0.0
  9
$USERR5
 40
0.0
  9
$WORLDVIEW
 70
     1
  9
$SHADEDGE
 70
     3
  9
$SHADEDIF
 70
    70
  9
$TILEMODE
 70
     1
  9
$MAXACTVP
 70
    64
  9
$PINSBASE
 10
0.0
 20
0.0
 30
0.0
  9
$PLIMCHECK
 70
     0
  9
$PEXTMIN
 10
1.000000000000000E+20
 20
1.000000000000000E+20
 30
1.000000000000000E+20
  9
$PEXTMAX
 10
-1.000000000000000E+20
 20
-1.000000000000000E+20
 30
-1.000000000000000E+20
  9
$PLIMMIN
 10
0.0
 20
0.0
  9
$PLIMMAX
 10
420.0
 20
297.0
  9
$UNITMODE
 70
     0
  9
$VISRETAIN
 70
     1
  9
$PLINEGEN
 70
     0
  9
$PSLTSCALE
 70
     1
  9
$TREEDEPTH
 70
  3020
  9
$CMLSTYLE
  2
Standard
  9
$CMLJUST
 70
     0
  9
$CMLSCALE
 40
20.0
  9
$PROXYGRAPHICS
 70
     1
  9
$MEASUREMENT
 70
     1
  9
$CELWEIGHT
370
    -1
  9
$ENDCAPS
280
     0
  9
$JOINSTYLE
280
     0
  9
$LWDISPLAY
290
     0
  9
$INSUNITS
 70
     4
  9
$HYPERLINKBASE
  1

  9
$STYLESHEET
  1

  9
$XEDIT
290
     1
  9
$CEPSNTYPE
380
     0
  9
$PSTYLEMODE
290
     1
  9
$FINGERPRINTGUID
  2
{047D7404-B3DA-4DE9-BA12-355B0B382730}
  9
$VERSIONGUID
  2
{FAEB1C32-E019-11D5-929B-00C0DF256EC4}
  9
$EXTNAMES
290
     1
  9
$PSVPSCALE
 40
0.0
  9
$OLESTARTUP
290
     0
  9
$SORTENTS
280
   127
  9
$INDEXCTL
280
     0
  9
$HIDETEXT
280
     1
  9
$XCLIPFRAME
280
     2
  9
$HALOGAP
280
     0
  9
$OBSCOLOR
 70
   257
  9
$OBSLTYPE
280
     0
  9
$INTERSECTIONDISPLAY
280
     0
  9
$INTERSECTIONCOLOR
 70
   257
  9
$DIMASSOC
280
     2
  9
$PROJECTNAME
  1

  9
$CAMERADISPLAY
290
     0
  9
$LENSLENGTH
 40
50.0
  9
$CAMERAHEIGHT
 40
0.0
  9
$STEPSPERSEC
 40
2.0
  9
$STEPSIZE
 40
6.0
  9
$3DDWFPREC
 40
2.0
  9
$PSOLWIDTH
 40
5.0
  9
$PSOLHEIGHT
 40
80.0
  9
$LOFTANG1
 40
1.570796326794897
  9
$LOFTANG2
 40
1.570796326794897
  9
$LOFTMAG1
 40
0.0
  9
$LOFTMAG2
 40
0.0
  9
$LOFTPARAM
 70
     7
  9
$LOFTNORMALS
280
     1
  9
$LATITUDE
 40
37.795
  9
$LONGITUDE
 40
-122.394
  9
$NORTHDIRECTION
 40
0.0
  9
$TIMEZONE
 70
 -8000
  9
$LIGHTGLYPHDISPLAY
280
     1
  9
$TILEMODELIGHTSYNCH
280
     1
  9
$SOLIDHIST
280
     1
  9
$SHOWHIST
280
     1
  9
$DWFFRAME
280
     2
  9
$DGNFRAME
280
     2
  9
$REALWORLDSCALE
290
     1
  9
$INTERFERECOLOR
 62
   256
  9
$CSHADOW
280
     0
  9
$SHADOWPLANELOCATION
 40
0.0
  0
ENDSEC
  0
SECTION
  2
CLASSES
  0
CLASS
  1
ACDBDICTIONARYWDFLT
  2
AcDbDictionaryWithDefault
  3
ObjectDBX Classes
 90
        0
 91
        4
280
     0
281
     0
  0
CLASS
  1
VISUALSTYLE
  2
AcDbVisualStyle
  3
ObjectDBX Classes
 90
     4095
 91
        4
280
     0
281
     0
  0
CLASS
  1
MATERIAL
  2
AcDbMaterial
  3
ObjectDBX Classes
 90
     1153
 91
        4
280
     0
281
     0
  0
ENDSEC
  0
SECTION
  2
TABLES
  0
TABLE
  2
VPORT
  5
8
330
0
100
AcDbSymbolTable
 70
     1
  0
VPORT
  5
29
330
8
100
AcDbSymbolTableRecord
100
AcDbViewportTableRecord
  2
*Active
 70
     0
 10
0.0
 20
0.0
 11
1.0
 21
1.0
 12
0.0
 22
0.0
 13
0.0
 23
0.0
 14
10.0
 24
10.0
 15
10.0
 25
10.0
 16
0.0
 26
0.0
 36
1.0
 17
0.0
 27
0.0
 37
0.0
 40
6930.000000000001
 41
1.414285714285714
 42
50.0
 43
0.0
 44
0.0
 50
0.0
 51
0.0
 71
     0
 72
 10000
 73
     1
 74
     3
 75
     0
 76
     0
 77
     0
 78
     0
281
     0
 65
     1
110
0.0
120
0.0
130
0.0
111
1.0
121
0.0
131
0.0
112
0.0
122
1.0
132
0.0
 79
     0
146
0.0
 60
     3
 61
     5
292
     1
282
     1
141
0.0
142
0.0
 63
   250
  0
ENDTAB
  0
TABLE
  2
LTYPE
  5
5
330
0
100
AcDbSymbolTable
 70
     2
  0
LTYPE
  5
14
330
5
100
AcDbSymbolTableRecord
100
AcDbLinetypeTableRecord
  2
ByBlock
 70
     0
  3

 72
    65
 73
     0
 40
0.0
  0
LTYPE
  5
15
330
5
100
AcDbSymbolTableRecord
100
AcDbLinetypeTableRecord
  2
ByLayer
 70
     0
  3

 72
    65
 73
     0
 40
0.0
  0
LTYPE
  5
16
330
5
100
AcDbSymbolTableRecord
100
AcDbLinetypeTableRecord
  2
Continuous
 70
     0
  3
Solid line
 72
    65
 73
     0
 40
0.0
  0
LTYPE
  5
3F
330
5
100
AcDbSymbolTableRecord
100
AcDbLinetypeTableRecord
  2
JWW_DASHED1
 70
     0
  3
-  --  --  --  --  --  --  --  -
 72
    65
 73
     2
 40
1.693333333333333
 49
0.8466666666666667
 74
     0
 49
-0.8466666666666667
 74
     0
  0
ENDTAB
  0
TABLE
  2
LAYER
  5
2
330
0
100
AcDbSymbolTable
 70
     3
  0
LAYER
  5
10
330
2
100
AcDbSymbolTableRecord
100
AcDbLayerTableRecord
  2
0
 70
     0
 62
     7
  6
Continuous
370
    -3
390
F
347
3E
  0
LAYER
  5
40
330
2
100
AcDbSymbolTableRecord
100
AcDbLayerTableRecord
  2
0-0
 70
     0
 62
     7
  6
Continuous
370
    -3
390
F
347
3E
  0
LAYER
  5
41
330
2
100
AcDbSymbolTableRecord
100
AcDbLayerTableRecord
  2
寸法
 70
     0
 62
     7
  6
Continuous
370
    -3
390
F
347
3E
  0
ENDTAB
  0
TABLE
  2
STYLE
  5
3
330
0
100
AcDbSymbolTable
 70
     1
  0
STYLE
  5
11
330
3
100
AcDbSymbolTableRecord
100
AcDbTextStyleTableRecord
  2
Standard
 70
     0
 40
0.0
 41
1.0
 50
0.0
 71
     0
 42
2.5
  3
txt
  4

  0
ENDTAB
  0
TABLE
  2
VIEW
  5
6
330
0
100
AcDbSymbolTable
 70
     0
  0
ENDTAB
  0
TABLE
  2
UCS
  5
7
330
0
100
AcDbSymbolTable
 70
     0
  0
ENDTAB
  0
TABLE
  2
APPID
  5
9
330
0
100
AcDbSymbolTable
 70
     1
  0
APPID
  5
12
330
9
100
AcDbSymbolTableRecord
100
AcDbRegAppTableRecord
  2
ACAD
 70
     0
  0
ENDTAB
  0
TABLE
  2
DIMSTYLE
  5
A
330
0
100
AcDbSymbolTable
 70
     1
100
AcDbDimStyleTable
  0
DIMSTYLE
105
27
330
A
100
AcDbSymbolTableRecord
100
AcDbDimStyleTableRecord
  2
ISO-25
 70
     0
 41
2.5
 42
0.625
 43
3.75
 44
1.25
 73
     0
 74
     0
 77
     1
 78
     8
140
2.5
141
2.5
143
0.03937007874016
147
0.625
171
     3
172
     1
178
     0
271
     2
272
     2
274
     3
278
    44
283
     0
284
     8
340
11
  0
ENDTAB
  0
TABLE
  2
BLOCK_RECORD
  5
1
330
0
100
AcDbSymbolTable
 70
     1
  0
BLOCK_RECORD
  5
1F
330
1
100
AcDbSymbolTableRecord
100
AcDbBlockTableRecord
  2
*Model_Space
340
22
 70
     0
280
     1
281
     0
  0
BLOCK_RECORD
  5
1B
330
1
100
AcDbSymbolTableRecord
100
AcDbBlockTableRecord
  2
*Paper_Space
340
1E
 70
     0
280
     1
281
     0
  0
BLOCK_RECORD
  5
23
330
1
100
AcDbSymbolTableRecord
100
AcDbBlockTableRecord
  2
*Paper_Space0
340
26
 70
     0
280
     1
281
     0
  0
ENDTAB
  0
ENDSEC
  0
SECTION
  2
BLOCKS
  0
BLOCK
  5
20
330
1F
100
AcDbEntity
  8
0
100
AcDbBlockBegin
  2
*Model_Space
 70
     0
 10
0.0
 20
0.0
 30
0.0
  3
*Model_Space
  1

  0
ENDBLK
  5
21
330
1F
100
AcDbEntity
  8
0
100
AcDbBlockEnd
  0
BLOCK
  5
1C
330
1B
100
AcDbEntity
 67
     1
  8
0
100
AcDbBlockBegin
  2
*Paper_Space
 70
     0
 10
0.0
 20
0.0
 30
0.0
  3
*Paper_Space
  1

  0
ENDBLK
  5
1D
330
1B
100
AcDbEntity
 67
     1
  8
0
100
AcDbBlockEnd
  0
BLOCK
  5
24
330
23
100
AcDbEntity
  8
0
100
AcDbBlockBegin
  2
*Paper_Space0
 70
     0
 10
0.0
 20
0.0
 30
0.0
  3
*Paper_Space0
  1

  0
ENDBLK
  5
25
330
23
100
AcDbEntity
  8
0
100
AcDbBlockEnd
  0
ENDSEC
  0
SECTION
  2
ENTITIES
  0
ARC
  5
42
330
1F
100
AcDbEntity
  8
0-0
  6
Continuous
 62
    92
370
    13
100
AcDbCircle
 10
-705.2551963845118
 20
-44.17125081566557
 30
0.0
 40
1.5
100
AcDbArc
 50
90.0
 51
180.0
  0
LINE
  5
43
330
1F
100
AcDbEntity
  8
0-0
  6
Continuous
 62
    92
370
    13
100
AcDbLine
 10
-666.2551963845098
 20
-42.67125081566608
 30
0.0
 11
-705.2551963845118
 21
-42.67125081566608
 31
0.0
  0
ARC
  5
44
330
1F
100
AcDbEntity
  8
0-0
  6
Continuous
 62
    92
370
    13
100
AcDbCircle
 10
-666.2551963845098
 20
-44.17125081566557
 30
0.0
 40
1.5
100
AcDbArc
 50
0.0
 51
90.00000000000001
  0
LINE
  5
45
330
1F
100
AcDbEntity
  8
0-0
  6
Continuous
 62
    92
370
    13
100
AcDbLine
 10
-664.7551963845111
 20
-163.1712508156656
 30
0.0
 11
-664.7551963845111
 21
-44.17125081566557
 31
0.0
  0
ARC
  5
46
330
1F
100
AcDbEntity
  8
0-0
  6
Continuous
 62
    92
370
    13
100
AcDbCircle
 10
-666.2551963845098
 20
-163.1712508156656
 30
0.0
 40
1.5
100
AcDbArc
 50
270.0
 51
0.0
  0
LINE
  5
47
330
1F
100
AcDbEntity
  8
0-0
  6
Continuous
 62
    92
370
    13
100
AcDbLine
 10
-705.2551963845118
 20
-164.6712508156656
 30
0.0
 11
-666.2551963845098
 21
-164.6712508156656
 31
0.0
  0
LINE
  5
48
330
1F
100
AcDbEntity
  8
0-0
  6
Continuous
 62
    92
370
    13
100
AcDbLine
 10
-706.7551963845104
 20
-163.1712508156656
 30
0.0
 11
-706.7551963845104
 21
-44.17125081566557
 31
0.0
  0
ARC
  5
49
330
1F
100
AcDbEntity
  8
0-0
  6
Continuous
 62
    92
370
    13
100
AcDbCircle
 10
-705.2551963845118
 20
-163.1712508156656
 30
0.0
 40
1.5
100
AcDbArc
 50
180.0
 51
270.0
  0
ARC
  5
4A
330
1F
100
AcDbEntity
  8
0-0
  6
Continuous
 62
     7
370
     9
100
AcDbCircle
 10
-685.7551963845108
 20
-133.2712508156656
 30
0.0
 40
15.0
100
AcDbArc
 50
180.0
 51
0.0
  0
ARC
  5
4B
330
1F
100
AcDbEntity
  8
0-0
  6
Continuous
 62
     7
370
     9
100
AcDbCircle
 10
-685.7551963845108
 20
-74.07125081566566
 30
0.0
 40
15.0
100
AcDbArc
 50
0.0
 51
180.0
  0
LINE
  5
4C
330
1F
100
AcDbEntity
  8
0-0
  6
Continuous
 62
     7
370
     9
100
AcDbLine
 10
-670.7551963845108
 20
-133.2712508156656
 30
0.0
 11
-670.7551963845108
 21
-74.07125081566566
 31
0.0
  0
LINE
  5
4D
330
1F
100
AcDbEntity
  8
0-0
  6
Continuous
 62
     7
370
     9
100
AcDbLine
 10
-700.7551963845108
 20
-74.07125081566566
 30
0.0
 11
-700.7551963845108
 21
-133.2712508156656
 31
0.0
  0
LINE
  5
4E
330
1F
100
AcDbEntity
  8
0-0
  6
JWW_DASHED1
 62
   120
370
     5
100
AcDbLine
 10
-736.7551963845104
 20
-1061.171250815665
 30
0.0
 11
-733.7551963845098
 21
-1061.171250815665
 31
0.0
  0
LINE
  5
4F
330
1F
100
AcDbEntity
  8
0-0
  6
Continuous
 62
    92
370
    13
100
AcDbLine
 10
850.2448036154889
 20
-1060.966471822829
 30
0.0
 11
850.2448036154889
 21
-1060.63348601317
 31
0.0
  0
ARC
  5
50
330
1F
100
AcDbEntity
  8
0-0
  6
Continuous
 62
    92
370
    13
100
AcDbCircle
 10
782.7448036154889
 20
-44.17125081566557
 30
0.0
 40
1.5
100
AcDbArc
 50
90.0
 51
180.0
  0
LINE
  5
51
330
1F
100
AcDbEntity
  8
0-0
  6
Continuous
 62
    92
370
    13
100
AcDbLine
 10
821.7448036154909
 20
-42.67125081566608
 30
0.0
 11
782.7448036154889
 21
-42.67125081566608
 31
0.0
  0
ARC
  5
52
330
1F
100
AcDbEntity
  8
0-0
  6
Continuous
 62
    92
370
    13
100
AcDbCircle
 10
821.7448036154909
 20
-44.17125081566557
 30
0.0
 40
1.5
100
AcDbArc
 50
0.0
 51
90.00000000000001
  0
LINE
  5
53
330
1F
100
AcDbEntity
  8
0-0
  6
Continuous
 62
    92
370
    13
100
AcDbLine
 10
823.2448036154896
 20
-163.1712508156656
 30
0.0
 11
823.2448036154896
 21
-44.17125081566557
 31
0.0
  0
ARC
  5
54
330
1F
100
AcDbEntity
  8
0-0
  6
Continuous
 62
    92
370
    13
100
AcDbCircle
 10
821.7448036154909
 20
-163.1712508156656
 30
0.0
 40
1.5
100
AcDbArc
 50
270.0
 51
0.0
  0
LINE
  5
55
330
1F
100
AcDbEntity
  8
0-0
  6
Continuous
 62
    92
370
    13
100
AcDbLine
 10
782.7448036154889
 20
-164.6712508156656
 30
0.0
 11
821.7448036154909
 21
-164.6712508156656
 31
0.0
  0
LINE
  5
56
330
1F
100
AcDbEntity
  8
0-0
  6
Continuous
 62
    92
370
    13
100
AcDbLine
 10
781.2448036154885
 20
-163.1712508156656
 30
0.0
 11
781.2448036154885
 21
-44.17125081566557
 31
0.0
  0
ARC
  5
57
330
1F
100
AcDbEntity
  8
0-0
  6
Continuous
 62
    92
370
    13
100
AcDbCircle
 10
782.7448036154889
 20
-163.1712508156656
 30
0.0
 40
1.5
100
AcDbArc
 50
180.0
 51
270.0
  0
ARC
  5
58
330
1F
100
AcDbEntity
  8
0-0
  6
Continuous
 62
     7
370
     9
100
AcDbCircle
 10
802.2448036154899
 20
-133.2712508156656
 30
0.0
 40
15.0
100
AcDbArc
 50
180.0
 51
0.0
  0
ARC
  5
59
330
1F
100
AcDbEntity
  8
0-0
  6
Continuous
 62
     7
370
     9
100
AcDbCircle
 10
802.2448036154899
 20
-74.07125081566566
 30
0.0
 40
15.0
100
AcDbArc
 50
0.0
 51
180.0
  0
LINE
  5
5A
330
1F
100
AcDbEntity
  8
0-0
  6
Continuous
 62
     7
370
     9
100
AcDbLine
 10
817.2448036154899
 20
-133.2712508156656
 30
0.0
 11
817.2448036154899
 21
-74.07125081566566
 31
0.0
  0
LINE
  5
5B
330
1F
100
AcDbEntity
  8
0-0
  6
Continuous
 62
     7
370
     9
100
AcDbLine
 10
787.2448036154899
 20
-74.07125081566566
 30
0.0
 11
787.2448036154899
 21
-133.2712508156656
 31
0.0
  0
LINE
  5
5C
330
1F
100
AcDbEntity
  8
0-0
  6
JWW_DASHED1
 62
   120
370
     5
100
AcDbLine
 10
853.2448036154896
 20
-1061.171250815665
 30
0.0
 11
850.2448036154889
 21
-1061.171250815665
 31
0.0
  0
LINE
  5
5D
330
1F
100
AcDbEntity
  8
0-0
  6
Continuous
 62
    92
370
    13
100
AcDbLine
 10
-733.7551963845098
 20
-1061.171250815665
 30
0.0
 11
850.2448036154889
 21
-1061.171250815665
 31
0.0
  0
LINE
  5
5E
330
1F
100
AcDbEntity
  8
0-0
  6
Continuous
 62
    92
370
    13
100
AcDbLine
 10
-733.7551963845098
 20
1135.828749184335
 30
0.0
 11
850.2448036154889
 21
1135.828749184335
 31
0.0
  0
LINE
  5
5F
330
1F
100
AcDbEntity
  8
0-0
  6
Continuous
 62
    92
370
    13
100
AcDbLine
 10
-763.7551963845098
 20
-1069.671250815665
 30
0.0
 11
-763.7551963845098
 21
1165.828749184335
 31
0.0
  0
LINE
  5
60
330
1F
100
AcDbEntity
  8
0-0
  6
JWW_DASHED1
 62
   120
370
     5
100
AcDbLine
 10
-736.7551963845104
 20
1121.828749184335
 30
0.0
 11
-736.7551963845104
 21
-1061.171250815665
 31
0.0
  0
LINE
  5
61
330
1F
100
AcDbEntity
  8
0-0
  6
JWW_DASHED1
 62
   120
370
     5
100
AcDbLine
 10
-733.7551963845098
 20
1121.828749184335
 30
0.0
 11
-736.7551963845104
 21
1121.828749184335
 31
0.0
  0
LINE
  5
62
330
1F
100
AcDbEntity
  8
0-0
  6
Continuous
 62
    92
370
    13
100
AcDbLine
 10
880.2448036154889
 20
-1069.671250815665
 30
0.0
 11
880.2448036154889
 21
1165.828749184335
 31
0.0
  0
LINE
  5
63
330
1F
100
AcDbEntity
  8
0-0
  6
Continuous
 62
    92
370
    13
100
AcDbLine
 10
850.2448036154889
 20
-1060.63348601317
 30
0.0
 11
850.2448036154889
 21
1165.828749184335
 31
0.0
  0
LINE
  5
64
330
1F
100
AcDbEntity
  8
0-0
  6
Continuous
 62
    92
370
    13
100
AcDbLine
 10
-763.7551963845098
 20
1165.828749184335
 30
0.0
 11
880.2448036154889
 21
1165.828749184335
 31
0.0
  0
LINE
  5
65
330
1F
100
AcDbEntity
  8
0-0
  6
JWW_DASHED1
 62
   120
370
     5
100
AcDbLine
 10
853.2448036154896
 20
1121.828749184335
 30
0.0
 11
853.2448036154896
 21
-1061.171250815665
 31
0.0
  0
LINE
  5
66
330
1F
100
AcDbEntity
  8
0-0
  6
JWW_DASHED1
 62
   120
370
     5
100
AcDbLine
 10
850.2448036154889
 20
1121.828749184335
 30
0.0
 11
853.2448036154896
 21
1121.828749184335
 31
0.0
  0
LINE
  5
67
330
1F
100
AcDbEntity
  8
0-0
  6
Continuous
 62
    92
370
    13
100
AcDbLine
 10
43.24480361548952
 20
-1061.171250815665
 30
0.0
 11
43.24480361548952
 21
1121.828749184335
 31
0.0
  0
LINE
  5
68
330
1F
100
AcDbEntity
  8
0-0
  6
JWW_DASHED1
 62
   120
370
     5
100
AcDbLine
 10
73.24480361549122
 20
-1061.171250815665
 30
0.0
 11
73.24480361549122
 21
1121.828749184335
 31
0.0
  0
LINE
  5
69
330
1F
100
AcDbEntity
  8
0-0
  6
Continuous
 62
    92
370
    13
100
AcDbLine
 10
850.2448036154889
 20
1121.828749184335
 30
0.0
 11
-733.7551963845098
 21
1121.828749184335
 31
0.0
  0
LINE
  5
6A
330
1F
100
AcDbEntity
  8
0-0
  6
Continuous
 62
    92
370
    13
100
AcDbLine
 10
-733.7551963845098
 20
-1069.671250815665
 30
0.0
 11
-733.7551963845098
 21
1165.828749184335
 31
0.0
  0
LINE
  5
6B
330
1F
100
AcDbEntity
  8
0-0
  6
Continuous
 62
    92
370
    13
100
AcDbLine
 10
-733.7551963845098
 20
-1069.671250815665
 30
0.0
 11
-763.7551963845098
 21
-1069.671250815665
 31
0.0
  0
LINE
  5
6C
330
1F
100
AcDbEntity
  8
0-0
  6
Continuous
 62
    92
370
    13
100
AcDbLine
 10
880.2448036154889
 20
-1069.671250815665
 30
0.0
 11
850.2448036154889
 21
-1069.671250815665
 31
0.0
  0
LINE
  5
6D
330
1F
100
AcDbEntity
  8
0-0
  6
Continuous
 62
    92
370
    13
100
AcDbLine
 10
850.2448036154889
 20
-1069.671250815665
 30
0.0
 11
850.2448036154889
 21
-1060.966471822829
 31
0.0
  0
LINE
  5
6E
330
1F
100
AcDbEntity
  8
0-0
  6
Continuous
 62
    92
370
    13
100
AcDbLine
 10
743.244803615489
 20
-920.171250815666
 30
0.0
 11
153.2448036154901
 21
-920.171250815666
 31
0.0
  0
LINE
  5
6F
330
1F
100
AcDbEntity
  8
0-0
  6
Continuous
 62
    92
370
    13
100
AcDbLine
 10
-36.75519638450935
 20
-920.171250815666
 30
0.0
 11
-626.7551963845116
 21
-920.171250815666
 31
0.0
  0
LINE
  5
70
330
1F
100
AcDbEntity
  8
0-0
  6
Continuous
 62
    92
370
    13
100
AcDbLine
 10
-626.7551963845116
 20
-1061.171250815666
 30
0.0
 11
-626.7551963845116
 21
1121.828749184335
 31
0.0
  0
LINE
  5
71
330
1F
100
AcDbEntity
  8
0-0
  6
Continuous
 62
    92
370
    13
100
AcDbLine
 10
-36.75519638450935
 20
-1061.171250815666
 30
0.0
 11
-36.75519638450935
 21
1121.828749184335
 31
0.0
  0
LINE
  5
72
330
1F
100
AcDbEntity
  8
0-0
  6
Continuous
 62
    92
370
    13
100
AcDbLine
 10
153.2448036154901
 20
1121.828749184335
 30
0.0
 11
153.2448036154901
 21
-1061.171250815666
 31
0.0
  0
LINE
  5
73
330
1F
100
AcDbEntity
  8
0-0
  6
Continuous
 62
    92
370
    13
100
AcDbLine
 10
743.244803615489
 20
-1061.171250815666
 30
0.0
 11
743.244803615489
 21
1121.828749184335
 31
0.0
  0
LINE
  5
74
330
1F
100
AcDbEntity
  8
0-0
  6
Continuous
 62
    92
370
    13
100
AcDbLine
 10
-626.7551963845116
 20
986.8287491843346
 30
0.0
 11
-36.75519638450935
 21
986.8287491843346
 31
0.0
  0
LINE
  5
75
330
1F
100
AcDbEntity
  8
0-0
  6
Continuous
 62
    92
370
    13
100
AcDbLine
 10
153.2448036154901
 20
986.8287491843346
 30
0.0
 11
743.244803615489
 21
986.8287491843346
 31
0.0
  0
LINE
  5
76
330
1F
100
AcDbEntity
  8
0-0
  6
Continuous
 62
    92
370
    13
100
AcDbLine
 10
403.2448036154912
 20
986.8287491843346
 30
0.0
 11
403.2448036154912
 21
-920.171250815666
 31
0.0
  0
LINE
  5
77
330
1F
100
AcDbEntity
  8
0-0
  6
Continuous
 62
    92
370
    13
100
AcDbLine
 10
493.2448036154913
 20
986.8287491843346
 30
0.0
 11
493.2448036154913
 21
-920.171250815666
 31
0.0
  0
LINE
  5
78
330
1F
100
AcDbEntity
  8
0-0
  6
Continuous
 62
    92
370
    13
100
AcDbLine
 10
-376.7551963845105
 20
986.8287491843346
 30
0.0
 11
-376.7551963845105
 21
-920.171250815666
 31
0.0
  0
LINE
  5
79
330
1F
100
AcDbEntity
  8
0-0
  6
Continuous
 62
    92
370
    13
100
AcDbLine
 10
-286.7551963845105
 20
986.8287491843346
 30
0.0
 11
-286.7551963845105
 21
-920.171250815666
 31
0.0
  0
LINE
  5
7A
330
1F
100
AcDbEntity
  8
0-0
  6
JWW_DASHED1
 62
   120
370
     5
100
AcDbLine
 10
-380.05299143225
 20
-920.1712508156755
 30
0.0
 11
-376.7551963845011
 21
-916.8734557679265
 31
0.0
  0
LINE
  5
7B
330
1F
100
AcDbEntity
  8
0-0
  6
JWW_DASHED1
 62
   120
370
     5
100
AcDbLine
 10
-387.1240592455312
 20
-920.1712508156712
 30
0.0
 11
-376.7551963845049
 21
-909.8023879546454
 31
0.0
  0
LINE
  5
7C
330
1F
100
AcDbEntity
  8
0-0
  6
JWW_DASHED1
 62
   120
370
     5
100
AcDbLine
 10
-394.1951270588124
 20
-920.171250815667
 30
0.0
 11
-376.7551963845088
 21
-902.7313201413638
 31
0.0
  0
LINE
  5
7D
330
1F
100
AcDbEntity
  8
0-0
  6
JWW_DASHED1
 62
   120
370
     5
100
AcDbLine
 10
-401.2661948720936
 20
-920.1712508156626
 30
0.0
 11
-376.7551963845131
 21
-895.660252328082
 31
0.0
  0
LINE
  5
7E
330
1F
100
AcDbEntity
  8
0-0
  6
JWW_DASHED1
 62
   120
370
     5
100
AcDbLine
 10
-408.3372626853749
 20
-920.1712508156585
 30
0.0
 11
-376.7551963845168
 21
-888.5891845148009
 31
0.0
  0
LINE
  5
7F
330
1F
100
AcDbEntity
  8
0-0
  6
JWW_DASHED1
 62
   120
370
     5
100
AcDbLine
 10
-415.408330498656
 20
-920.1712508156546
 30
0.0
 11
-376.7551963845211
 21
-881.5181167015193
 31
0.0
  0
LINE
  5
80
330
1F
100
AcDbEntity
  8
0-0
  6
JWW_DASHED1
 62
   120
370
     5
100
AcDbLine
 10
-422.4793983119074
 20
-920.1712508156746
 30
0.0
 11
-376.7551963844986
 21
-874.4470488882657
 31
0.0
  0
LINE
  5
81
330
1F
100
AcDbEntity
  8
0-0
  6
JWW_DASHED1
 62
   120
370
     5
100
AcDbLine
 10
-429.5504661251917
 20
-920.1712508156734
 30
0.0
 11
-376.755196384502
 21
-867.3759810749837
 31
0.0
  0
LINE
  5
82
330
1F
100
AcDbEntity
  8
0-0
  6
JWW_DASHED1
 62
   120
370
     5
100
AcDbLine
 10
-436.6215339384729
 20
-920.171250815669
 30
0.0
 11
-376.7551963845058
 21
-860.3049132617024
 31
0.0
  0
LINE
  5
83
330
1F
100
AcDbEntity
  8
0-0
  6
JWW_DASHED1
 62
   120
370
     5
100
AcDbLine
 10
-443.6926017517541
 20
-920.1712508156648
 30
0.0
 11
-376.7551963845096
 21
-853.2338454484208
 31
0.0
  0
LINE
  5
84
330
1F
100
AcDbEntity
  8
0-0
  6
JWW_DASHED1
 62
   120
370
     5
100
AcDbLine
 10
-450.7636695650353
 20
-920.171250815661
 30
0.0
 11
-376.7551963845139
 21
-846.1627776351392
 31
0.0
  0
LINE
  5
85
330
1F
100
AcDbEntity
  8
0-0
  6
JWW_DASHED1
 62
   120
370
     5
100
AcDbLine
 10
-457.8347373783166
 20
-920.1712508156568
 30
0.0
 11
-376.7551963845177
 21
-839.0917098218575
 31
0.0
  0
LINE
  5
86
330
1F
100
AcDbEntity
  8
0-0
  6
JWW_DASHED1
 62
   120
370
     5
100
AcDbLine
 10
-464.9058051915982
 20
-920.1712508156523
 30
0.0
 11
-376.7551963845224
 21
-832.0206420085767
 31
0.0
  0
LINE
  5
87
330
1F
100
AcDbEntity
  8
0-0
  6
JWW_DASHED1
 62
   120
370
     5
100
AcDbLine
 10
-471.9768730048794
 20
-920.1712508156482
 30
0.0
 11
-376.7551963845258
 21
-824.9495741952951
 31
0.0
  0
LINE
  5
88
330
1F
100
AcDbEntity
  8
0-0
  6
JWW_DASHED1
 62
   120
370
     5
100
AcDbLine
 10
-479.0479408181857
 20
-920.1712508156694
 30
0.0
 11
-376.7551963844994
 21
-817.8785063819827
 31
0.0
  0
LINE
  5
89
330
1F
100
AcDbEntity
  8
0-0
  6
JWW_DASHED1
 62
   120
370
     5
100
AcDbLine
 10
-486.1190086314733
 20
-920.1712508156717
 30
0.0
 11
-376.7551963845024
 21
-810.8074385687003
 31
0.0
  0
LINE
  5
8A
330
1F
100
AcDbEntity
  8
0-0
  6
JWW_DASHED1
 62
   120
370
     5
100
AcDbLine
 10
-493.1900764446957
 20
-920.1712508156631
 30
0.0
 11
-376.7551963845105
 21
-803.7363707554779
 31
0.0
  0
LINE
  5
8B
330
1F
100
AcDbEntity
  8
0-0
  6
JWW_DASHED1
 62
   120
370
     5
100
AcDbLine
 10
-500.2611442579774
 20
-920.1712508156588
 30
0.0
 11
-376.7551963845148
 21
-796.6653029421961
 31
0.0
  0
LINE
  5
8C
330
1F
100
AcDbEntity
  8
0-0
  6
JWW_DASHED1
 62
   120
370
     5
100
AcDbLine
 10
-507.3322120712586
 20
-920.1712508156546
 30
0.0
 11
-376.755196384519
 21
-789.594235128915
 31
0.0
  0
LINE
  5
8D
330
1F
100
AcDbEntity
  8
0-0
  6
JWW_DASHED1
 62
   120
370
     5
100
AcDbLine
 10
-514.4032798845398
 20
-920.1712508156503
 30
0.0
 11
-376.7551963845233
 21
-782.5231673156337
 31
0.0
  0
LINE
  5
8E
330
1F
100
AcDbEntity
  8
0-0
  6
JWW_DASHED1
 62
   120
370
     5
100
AcDbLine
 10
-521.4743476978432
 20
-920.1712508156687
 30
0.0
 11
-376.7551963844969
 21
-775.4520995023219
 31
0.0
  0
LINE
  5
8F
330
1F
100
AcDbEntity
  8
0-0
  6
JWW_DASHED1
 62
   120
370
     5
100
AcDbLine
 10
-528.5454155111244
 20
-920.1712508156639
 30
0.0
 11
-376.7551963845007
 21
-768.3810316890406
 31
0.0
  0
LINE
  5
90
330
1F
100
AcDbEntity
  8
0-0
  6
JWW_DASHED1
 62
   120
370
     5
100
AcDbLine
 10
-535.616483324415
 20
-920.171250815669
 30
0.0
 11
-376.7551963845032
 21
-761.3099638757573
 31
0.0
  0
LINE
  5
91
330
1F
100
AcDbEntity
  8
0-0
  6
JWW_DASHED1
 62
   120
370
     5
100
AcDbLine
 10
-542.6875511376962
 20
-920.1712508156648
 30
0.0
 11
-376.7551963845075
 21
-754.2388960624761
 31
0.0
  0
LINE
  5
92
330
1F
100
AcDbEntity
  8
0-0
  6
JWW_DASHED1
 62
   120
370
     5
100
AcDbLine
 10
-549.7586189509774
 20
-920.1712508156605
 30
0.0
 11
-376.7551963845117
 21
-747.1678282491947
 31
0.0
  0
LINE
  5
93
330
1F
100
AcDbEntity
  8
0-0
  6
JWW_DASHED1
 62
   120
370
     5
100
AcDbLine
 10
-556.8296867642002
 20
-920.1712508156523
 30
0.0
 11
-376.7551963845199
 21
-740.096760435972
 31
0.0
  0
LINE
  5
94
330
1F
100
AcDbEntity
  8
0-0
  6
JWW_DASHED1
 62
   120
370
     5
100
AcDbLine
 10
-563.9007545774815
 20
-920.1712508156482
 30
0.0
 11
-376.7551963845241
 21
-733.0256926226908
 31
0.0
  0
LINE
  5
95
330
1F
100
AcDbEntity
  8
0-0
  6
JWW_DASHED1
 62
   120
370
     5
100
AcDbLine
 10
-570.9718223907819
 20
-920.1712508156636
 30
0.0
 11
-376.7551963844977
 21
-725.9546248093789
 31
0.0
  0
LINE
  5
96
330
1F
100
AcDbEntity
  8
0-0
  6
JWW_DASHED1
 62
   120
370
     5
100
AcDbLine
 10
-578.0428902040627
 20
-920.1712508156585
 30
0.0
 11
-376.7551963845024
 21
-718.8835569960982
 31
0.0
  0
LINE
  5
97
330
1F
100
AcDbEntity
  8
0-0
  6
JWW_DASHED1
 62
   120
370
     5
100
AcDbLine
 10
-585.1139580173567
 20
-920.171250815667
 30
0.0
 11
-376.7551963845041
 21
-711.8124891828144
 31
0.0
  0
LINE
  5
98
330
1F
100
AcDbEntity
  8
0-0
  6
JWW_DASHED1
 62
   120
370
     5
100
AcDbLine
 10
-592.1850258306379
 20
-920.1712508156626
 30
0.0
 11
-376.7551963845083
 21
-704.741421369533
 31
0.0
  0
LINE
  5
99
330
1F
100
AcDbEntity
  8
0-0
  6
JWW_DASHED1
 62
   120
370
     5
100
AcDbLine
 10
-599.2560936439191
 20
-920.1712508156588
 30
0.0
 11
-376.7551963845126
 21
-697.6703535562519
 31
0.0
  0
LINE
  5
9A
330
1F
100
AcDbEntity
  8
0-0
  6
JWW_DASHED1
 62
   120
370
     5
100
AcDbLine
 10
-606.3271614572008
 20
-920.1712508156551
 30
0.0
 11
-376.7551963845165
 21
-690.5992857429707
 31
0.0
  0
LINE
  5
9B
330
1F
100
AcDbEntity
  8
0-0
  6
JWW_DASHED1
 62
   120
370
     5
100
AcDbLine
 10
-613.3982292704819
 20
-920.1712508156503
 30
0.0
 11
-376.7551963845207
 21
-683.528217929689
 31
0.0
  0
LINE
  5
9C
330
1F
100
AcDbEntity
  8
0-0
  6
JWW_DASHED1
 62
   120
370
     5
100
AcDbLine
 10
-620.469297083721
 20
-920.1712508156585
 30
0.0
 11
-376.7551963844994
 21
-676.4571501164368
 31
0.0
  0
LINE
  5
9D
330
1F
100
AcDbEntity
  8
0-0
  6
JWW_DASHED1
 62
   120
370
     5
100
AcDbLine
 10
-626.7551963845077
 20
-919.3860823031602
 30
0.0
 11
-376.7551963845011
 21
-669.3860823031533
 31
0.0
  0
LINE
  5
9E
330
1F
100
AcDbEntity
  8
0-0
  6
JWW_DASHED1
 62
   120
370
     5
100
AcDbLine
 10
-626.755196384512
 20
-912.3150144898785
 30
0.0
 11
-376.7551963845054
 21
-662.3150144898718
 31
0.0
  0
LINE
  5
9F
330
1F
100
AcDbEntity
  8
0-0
  6
JWW_DASHED1
 62
   120
370
     5
100
AcDbLine
 10
-626.7551963845162
 20
-905.2439466765971
 30
0.0
 11
-376.7551963845092
 21
-655.2439466765906
 31
0.0
  0
LINE
  5
A0
330
1F
100
AcDbEntity
  8
0-0
  6
JWW_DASHED1
 62
   120
370
     5
100
AcDbLine
 10
-626.7551963845201
 20
-898.1728788633156
 30
0.0
 11
-376.7551963845134
 21
-648.1728788633089
 31
0.0
  0
LINE
  5
A1
330
1F
100
AcDbEntity
  8
0-0
  6
JWW_DASHED1
 62
   120
370
     5
100
AcDbLine
 10
-626.7551963845243
 20
-891.1018110500344
 30
0.0
 11
-376.7551963845173
 21
-641.1018110500278
 31
0.0
  0
LINE
  5
A2
330
1F
100
AcDbEntity
  8
0-0
  6
JWW_DASHED1
 62
   120
370
     5
100
AcDbLine
 10
-626.7551963845282
 20
-884.0307432367528
 30
0.0
 11
-376.7551963845211
 21
-634.030743236746
 31
0.0
  0
LINE
  5
A3
330
1F
100
AcDbEntity
  8
0-0
  6
JWW_DASHED1
 62
   120
370
     5
100
AcDbLine
 10
-626.7551963845325
 20
-876.9596754234716
 30
0.0
 11
-376.7551963845253
 21
-626.9596754234649
 31
0.0
  0
LINE
  5
A4
330
1F
100
AcDbEntity
  8
0-0
  6
JWW_DASHED1
 62
   120
370
     5
100
AcDbLine
 10
-626.7551963845209
 20
-869.8886076101745
 30
0.0
 11
-376.7551963845007
 21
-619.8886076101543
 31
0.0
  0
LINE
  5
A5
330
1F
100
AcDbEntity
  8
0-0
  6
JWW_DASHED1
 62
   120
370
     5
100
AcDbLine
 10
-626.755196384509
 20
-862.8175397968771
 30
0.0
 11
-376.7551963845015
 21
-612.81753979687
 31
0.0
  0
LINE
  5
A6
330
1F
100
AcDbEntity
  8
0-0
  6
JWW_DASHED1
 62
   120
370
     5
100
AcDbLine
 10
-626.7551963845171
 20
-855.7464719836544
 30
0.0
 11
-376.75519638451
 21
-605.7464719836477
 31
0.0
  0
LINE
  5
A7
330
1F
100
AcDbEntity
  8
0-0
  6
JWW_DASHED1
 62
   120
370
     5
100
AcDbLine
 10
-626.7551963845214
 20
-848.6754041703731
 30
0.0
 11
-376.7551963845141
 21
-598.675404170366
 31
0.0
  0
LINE
  5
A8
330
1F
100
AcDbEntity
  8
0-0
  6
JWW_DASHED1
 62
   120
370
     5
100
AcDbLine
 10
-626.7551963845252
 20
-841.6043363570915
 30
0.0
 11
-376.7551963845183
 21
-591.6043363570847
 31
0.0
  0
LINE
  5
A9
330
1F
100
AcDbEntity
  8
0-0
  6
JWW_DASHED1
 62
   120
370
     5
100
AcDbLine
 10
-626.7551963845291
 20
-834.5332685438099
 30
0.0
 11
-376.7551963845218
 21
-584.5332685438026
 31
0.0
  0
LINE
  5
AA
330
1F
100
AcDbEntity
  8
0-0
  6
JWW_DASHED1
 62
   120
370
     5
100
AcDbLine
 10
-626.7551963845184
 20
-827.4622007305137
 30
0.0
 11
-376.7551963844975
 21
-577.4622007304926
 31
0.0
  0
LINE
  5
AB
330
1F
100
AcDbEntity
  8
0-0
  6
JWW_DASHED1
 62
   120
370
     5
100
AcDbLine
 10
-626.7551963845223
 20
-820.3911329172324
 30
0.0
 11
-376.7551963845015
 21
-570.3911329172112
 31
0.0
  0
LINE
  5
AC
330
1F
100
AcDbEntity
  8
0-0
  6
JWW_DASHED1
 62
   120
370
     5
100
AcDbLine
 10
-626.7551963845099
 20
-813.3200651039342
 30
0.0
 11
-376.7551963845024
 21
-563.3200651039267
 31
0.0
  0
LINE
  5
AD
330
1F
100
AcDbEntity
  8
0-0
  6
JWW_DASHED1
 62
   120
370
     5
100
AcDbLine
 10
-626.7551963845137
 20
-806.2489972906526
 30
0.0
 11
-376.7551963845066
 21
-556.2489972906454
 31
0.0
  0
LINE
  5
AE
330
1F
100
AcDbEntity
  8
0-0
  6
JWW_DASHED1
 62
   120
370
     5
100
AcDbLine
 10
-626.7551963845175
 20
-799.1779294773709
 30
0.0
 11
-376.7551963845109
 21
-549.1779294773643
 31
0.0
  0
LINE
  5
AF
330
1F
100
AcDbEntity
  8
0-0
  6
JWW_DASHED1
 62
   120
370
     5
100
AcDbLine
 10
-626.755196384526
 20
-792.1068616641485
 30
0.0
 11
-376.7551963845192
 21
-542.1068616641419
 31
0.0
  0
LINE
  5
B0
330
1F
100
AcDbEntity
  8
0-0
  6
JWW_DASHED1
 62
   120
370
     5
100
AcDbLine
 10
-626.7551963845299
 20
-785.0357938508668
 30
0.0
 11
-376.7551963845233
 21
-535.0357938508606
 31
0.0
  0
LINE
  5
B1
330
1F
100
AcDbEntity
  8
0-0
  6
JWW_DASHED1
 62
   120
370
     5
100
AcDbLine
 10
-626.7551963845196
 20
-777.964726037571
 30
0.0
 11
-376.7551963844986
 21
-527.9647260375505
 31
0.0
  0
LINE
  5
B2
330
1F
100
AcDbEntity
  8
0-0
  6
JWW_DASHED1
 62
   120
370
     5
100
AcDbLine
 10
-626.7551963845235
 20
-770.8936582242895
 30
0.0
 11
-376.7551963845028
 21
-520.8936582242687
 31
0.0
  0
LINE
  5
B3
330
1F
100
AcDbEntity
  8
0-0
  6
JWW_DASHED1
 62
   120
370
     5
100
AcDbLine
 10
-626.7551963845107
 20
-763.8225904109912
 30
0.0
 11
-376.7551963845038
 21
-513.8225904109846
 31
0.0
  0
LINE
  5
B4
330
1F
100
AcDbEntity
  8
0-0
  6
JWW_DASHED1
 62
   120
370
     5
100
AcDbLine
 10
-626.7551963845145
 20
-756.75152259771
 30
0.0
 11
-376.7551963845075
 21
-506.7515225977025
 31
0.0
  0
LINE
  5
B5
330
1F
100
AcDbEntity
  8
0-0
  6
JWW_DASHED1
 62
   120
370
     5
100
AcDbLine
 10
-626.7551963845189
 20
-749.6804547844284
 30
0.0
 11
-376.7551963845117
 21
-499.6804547844213
 31
0.0
  0
LINE
  5
B6
330
1F
100
AcDbEntity
  8
0-0
  6
JWW_DASHED1
 62
   120
370
     5
100
AcDbLine
 10
-626.7551963845226
 20
-742.6093869711467
 30
0.0
 11
-376.7551963845158
 21
-492.6093869711401
 31
0.0
  0
LINE
  5
B7
330
1F
100
AcDbEntity
  8
0-0
  6
JWW_DASHED1
 62
   120
370
     5
100
AcDbLine
 10
-626.7551963845265
 20
-735.5383191578655
 30
0.0
 11
-376.7551963845199
 21
-485.5383191578584
 31
0.0
  0
LINE
  5
B8
330
1F
100
AcDbEntity
  8
0-0
  6
JWW_DASHED1
 62
   120
370
     5
100
AcDbLine
 10
-626.7551963845308
 20
-728.4672513445843
 30
0.0
 11
-376.7551963845236
 21
-478.4672513445768
 31
0.0
  0
LINE
  5
B9
330
1F
100
AcDbEntity
  8
0-0
  6
JWW_DASHED1
 62
   120
370
     5
100
AcDbLine
 10
-626.7551963845073
 20
-721.3961835313299
 30
0.0
 11
-376.7551963845007
 21
-471.3961835313228
 31
0.0
  0
LINE
  5
BA
330
1F
100
AcDbEntity
  8
0-0
  6
JWW_DASHED1
 62
   120
370
     5
100
AcDbLine
 10
-626.7551963845116
 20
-714.3251157180483
 30
0.0
 11
-376.7551963845047
 21
-464.3251157180416
 31
0.0
  0
LINE
  5
BB
330
1F
100
AcDbEntity
  8
0-0
  6
JWW_DASHED1
 62
   120
370
     5
100
AcDbLine
 10
-626.7551963845154
 20
-707.254047904767
 30
0.0
 11
-376.7551963845083
 21
-457.2540479047595
 31
0.0
  0
LINE
  5
BC
330
1F
100
AcDbEntity
  8
0-0
  6
JWW_DASHED1
 62
   120
370
     5
100
AcDbLine
 10
-626.7551963845196
 20
-700.1829800914853
 30
0.0
 11
-376.7551963845126
 21
-450.1829800914783
 31
0.0
  0
LINE
  5
BD
330
1F
100
AcDbEntity
  8
0-0
  6
JWW_DASHED1
 62
   120
370
     5
100
AcDbLine
 10
-626.7551963845235
 20
-693.1119122782043
 30
0.0
 11
-376.7551963845166
 21
-443.1119122781971
 31
0.0
  0
LINE
  5
BE
330
1F
100
AcDbEntity
  8
0-0
  6
JWW_DASHED1
 62
   120
370
     5
100
AcDbLine
 10
-626.7551963845274
 20
-686.0408444649225
 30
0.0
 11
-376.7551963845207
 21
-436.0408444649154
 31
0.0
  0
LINE
  5
BF
330
1F
100
AcDbEntity
  8
0-0
  6
JWW_DASHED1
 62
   120
370
     5
100
AcDbLine
 10
-626.7551963845316
 20
-678.9697766516409
 30
0.0
 11
-376.7551963845245
 21
-428.9697766516338
 31
0.0
  0
LINE
  5
C0
330
1F
100
AcDbEntity
  8
0-0
  6
JWW_DASHED1
 62
   120
370
     5
100
AcDbLine
 10
-626.7551963845223
 20
-671.8987088383461
 30
0.0
 11
-376.7551963845009
 21
-421.8987088383249
 31
0.0
  0
LINE
  5
C1
330
1F
100
AcDbEntity
  8
0-0
  6
JWW_DASHED1
 62
   120
370
     5
100
AcDbLine
 10
-626.7551963845082
 20
-664.8276410250465
 30
0.0
 11
-376.7551963845013
 21
-414.8276410250398
 31
0.0
  0
LINE
  5
C2
330
1F
100
AcDbEntity
  8
0-0
  6
JWW_DASHED1
 62
   120
370
     5
100
AcDbLine
 10
-626.7551963845162
 20
-657.7565732118242
 30
0.0
 11
-376.7551963845094
 21
-407.7565732118171
 31
0.0
  0
LINE
  5
C3
330
1F
100
AcDbEntity
  8
0-0
  6
JWW_DASHED1
 62
   120
370
     5
100
AcDbLine
 10
-626.7551963845206
 20
-650.6855053985425
 30
0.0
 11
-376.7551963845134
 21
-400.6855053985354
 31
0.0
  0
LINE
  5
C4
330
1F
100
AcDbEntity
  8
0-0
  6
JWW_DASHED1
 62
   120
370
     5
100
AcDbLine
 10
-626.7551963845243
 20
-643.6144375852613
 30
0.0
 11
-376.7551963845175
 21
-393.6144375852542
 31
0.0
  0
LINE
  5
C5
330
1F
100
AcDbEntity
  8
0-0
  6
JWW_DASHED1
 62
   120
370
     5
100
AcDbLine
 10
-626.7551963845282
 20
-636.5433697719797
 30
0.0
 11
-376.7551963845218
 21
-386.5433697719729
 31
0.0
  0
LINE
  5
C6
330
1F
100
AcDbEntity
  8
0-0
  6
JWW_DASHED1
 62
   120
370
     5
100
AcDbLine
 10
-626.7551963845325
 20
-629.472301958698
 30
0.0
 11
-376.7551963845096
 21
-379.4723019586755
 31
0.0
  0
LINE
  5
C7
330
1F
100
AcDbEntity
  8
0-0
  6
JWW_DASHED1
 62
   120
370
     5
100
AcDbLine
 10
-626.7551963845231
 20
-622.401234145403
 30
0.0
 11
-376.7551963845024
 21
-372.4012341453824
 31
0.0
  0
LINE
  5
C8
330
1F
100
AcDbEntity
  8
0-0
  6
JWW_DASHED1
 62
   120
370
     5
100
AcDbLine
 10
-626.755196384509
 20
-615.3301663321035
 30
0.0
 11
-376.7551963845021
 21
-365.3301663320969
 31
0.0
  0
LINE
  5
C9
330
1F
100
AcDbEntity
  8
0-0
  6
JWW_DASHED1
 62
   120
370
     5
100
AcDbLine
 10
-626.7551963845133
 20
-608.2590985188224
 30
0.0
 11
-376.755196384506
 21
-358.2590985188148
 31
0.0
  0
LINE
  5
CA
330
1F
100
AcDbEntity
  8
0-0
  6
JWW_DASHED1
 62
   120
370
     5
100
AcDbLine
 10
-626.7551963845171
 20
-601.1880307055408
 30
0.0
 11
-376.75519638451
 21
-351.1880307055336
 31
0.0
  0
LINE
  5
CB
330
1F
100
AcDbEntity
  8
0-0
  6
JWW_DASHED1
 62
   120
370
     5
100
AcDbLine
 10
-626.7551963845252
 20
-594.1169628923179
 30
0.0
 11
-376.7551963845183
 21
-344.1169628923112
 31
0.0
  0
LINE
  5
CC
330
1F
100
AcDbEntity
  8
0-0
  6
JWW_DASHED1
 62
   120
370
     5
100
AcDbLine
 10
-626.7551963845291
 20
-587.0458950790367
 30
0.0
 11
-376.7551963845226
 21
-337.04589507903
 31
0.0
  0
LINE
  5
CD
330
1F
100
AcDbEntity
  8
0-0
  6
JWW_DASHED1
 62
   120
370
     5
100
AcDbLine
 10
-626.7551963845206
 20
-579.9748272657423
 30
0.0
 11
-376.7551963845
 21
-329.9748272657215
 31
0.0
  0
LINE
  5
CE
330
1F
100
AcDbEntity
  8
0-0
  6
JWW_DASHED1
 62
   120
370
     5
100
AcDbLine
 10
-626.7551963845243
 20
-572.9037594524606
 30
0.0
 11
-376.7551963845038
 21
-322.9037594524403
 31
0.0
  0
LINE
  5
CF
330
1F
100
AcDbEntity
  8
0-0
  6
JWW_DASHED1
 62
   120
370
     5
100
AcDbLine
 10
-626.7551963845099
 20
-565.8326916391607
 30
0.0
 11
-376.7551963845028
 21
-315.8326916391539
 31
0.0
  0
LINE
  5
D0
330
1F
100
AcDbEntity
  8
0-0
  6
JWW_DASHED1
 62
   120
370
     5
100
AcDbLine
 10
-626.7551963845141
 20
-558.7616238258794
 30
0.0
 11
-376.7551963845069
 21
-308.7616238258719
 31
0.0
  0
LINE
  5
D1
330
1F
100
AcDbEntity
  8
0-0
  6
JWW_DASHED1
 62
   120
370
     5
100
AcDbLine
 10
-626.755196384518
 20
-551.6905560125978
 30
0.0
 11
-376.7551963845109
 21
-301.6905560125907
 31
0.0
  0
LINE
  5
D2
330
1F
100
AcDbEntity
  8
0-0
  6
JWW_DASHED1
 62
   120
370
     5
100
AcDbLine
 10
-626.7551963845218
 20
-544.6194881993162
 30
0.0
 11
-376.7551963845151
 21
-294.6194881993094
 31
0.0
  0
LINE
  5
D3
330
1F
100
AcDbEntity
  8
0-0
  6
JWW_DASHED1
 62
   120
370
     5
100
AcDbLine
 10
-626.755196384526
 20
-537.5484203860349
 30
0.0
 11
-376.7551963845188
 21
-287.5484203860277
 31
0.0
  0
LINE
  5
D4
330
1F
100
AcDbEntity
  8
0-0
  6
JWW_DASHED1
 62
   120
370
     5
100
AcDbLine
 10
-626.7551963845303
 20
-530.4773525727537
 30
0.0
 11
-376.7551963845228
 21
-280.4773525727462
 31
0.0
  0
LINE
  5
D5
330
1F
100
AcDbEntity
  8
0-0
  6
JWW_DASHED1
 62
   120
370
     5
100
AcDbLine
 10
-626.7551963845226
 20
-523.4062847595151
 30
0.0
 11
-376.7551963844998
 21
-273.4062847594922
 31
0.0
  0
LINE
  5
D6
330
1F
100
AcDbEntity
  8
0-0
  6
JWW_DASHED1
 62
   120
370
     5
100
AcDbLine
 10
-626.7551963845107
 20
-516.3352169462177
 30
0.0
 11
-376.7551963845041
 21
-266.335216946211
 31
0.0
  0
LINE
  5
D7
330
1F
100
AcDbEntity
  8
0-0
  6
JWW_DASHED1
 62
   120
370
     5
100
AcDbLine
 10
-626.755196384515
 20
-509.2641491329365
 30
0.0
 11
-376.7551963845079
 21
-259.2641491329298
 31
0.0
  0
LINE
  5
D8
330
1F
100
AcDbEntity
  8
0-0
  6
JWW_DASHED1
 62
   120
370
     5
100
AcDbLine
 10
-626.7551963845189
 20
-502.1930813196553
 30
0.0
 11
-376.7551963845117
 21
-252.1930813196477
 31
0.0
  0
LINE
  5
D9
330
1F
100
AcDbEntity
  8
0-0
  6
JWW_DASHED1
 62
   120
370
     5
100
AcDbLine
 10
-626.7551963845226
 20
-495.1220135063732
 30
0.0
 11
-376.755196384516
 21
-245.1220135063665
 31
0.0
  0
LINE
  5
DA
330
1F
100
AcDbEntity
  8
0-0
  6
JWW_DASHED1
 62
   120
370
     5
100
AcDbLine
 10
-626.7551963845269
 20
-488.050945693092
 30
0.0
 11
-376.7551963845202
 21
-238.0509456930853
 31
0.0
  0
LINE
  5
DB
330
1F
100
AcDbEntity
  8
0-0
  6
JWW_DASHED1
 62
   120
370
     5
100
AcDbLine
 10
-626.7551963845311
 20
-480.9798778798108
 30
0.0
 11
-376.7551963845236
 21
-230.9798778798032
 31
0.0
  0
LINE
  5
DC
330
1F
100
AcDbEntity
  8
0-0
  6
JWW_DASHED1
 62
   120
370
     5
100
AcDbLine
 10
-626.7551963845226
 20
-473.9088100665172
 30
0.0
 11
-376.755196384502
 21
-223.9088100664964
 31
0.0
  0
LINE
  5
DD
330
1F
100
AcDbEntity
  8
0-0
  6
JWW_DASHED1
 62
   120
370
     5
100
AcDbLine
 10
-626.7551963845073
 20
-466.8377422532163
 30
0.0
 11
-376.7551963845004
 21
-216.8377422532092
 31
0.0
  0
LINE
  5
DE
330
1F
100
AcDbEntity
  8
0-0
  6
JWW_DASHED1
 62
   120
370
     5
100
AcDbLine
 10
-626.7551963845158
 20
-459.7666744399936
 30
0.0
 11
-376.7551963845088
 21
-209.7666744399868
 31
0.0
  0
LINE
  5
DF
330
1F
100
AcDbEntity
  8
0-0
  6
JWW_DASHED1
 62
   120
370
     5
100
AcDbLine
 10
-626.7551963845196
 20
-452.6956066267122
 30
0.0
 11
-376.7551963845131
 21
-202.6956066267052
 31
0.0
  0
LINE
  5
E0
330
1F
100
AcDbEntity
  8
0-0
  6
JWW_DASHED1
 62
   120
370
     5
100
AcDbLine
 10
-626.755196384524
 20
-445.6245388134307
 30
0.0
 11
-376.7551963845168
 21
-195.6245388134236
 31
0.0
  0
LINE
  5
E1
330
1F
100
AcDbEntity
  8
0-0
  6
JWW_DASHED1
 62
   120
370
     5
100
AcDbLine
 10
-626.7551963845277
 20
-438.5534710001494
 30
0.0
 11
-376.7551963845209
 21
-188.5534710001423
 31
0.0
  0
LINE
  5
E2
330
1F
100
AcDbEntity
  8
0-0
  6
JWW_DASHED1
 62
   120
370
     5
100
AcDbLine
 10
-626.755196384532
 20
-431.4824031868677
 30
0.0
 11
-376.755196384525
 21
-181.4824031868607
 31
0.0
  0
LINE
  5
E3
330
1F
100
AcDbEntity
  8
0-0
  6
JWW_DASHED1
 62
   120
370
     5
100
AcDbLine
 10
-626.755196384524
 20
-424.4113353735742
 30
0.0
 11
-376.7551963845034
 21
-174.4113353735539
 31
0.0
  0
LINE
  5
E4
330
1F
100
AcDbEntity
  8
0-0
  6
JWW_DASHED1
 62
   120
370
     5
100
AcDbLine
 10
-626.7551963845082
 20
-417.3402675602734
 30
0.0
 11
-376.7551963845013
 21
-167.3402675602663
 31
0.0
  0
LINE
  5
E5
330
1F
100
AcDbEntity
  8
0-0
  6
JWW_DASHED1
 62
   120
370
     5
100
AcDbLine
 10
-626.7551963845124
 20
-410.2691997469918
 30
0.0
 11
-376.7551963845052
 21
-160.2691997469846
 31
0.0
  0
LINE
  5
E6
330
1F
100
AcDbEntity
  8
0-0
  6
JWW_DASHED1
 62
   120
370
     5
100
AcDbLine
 10
-626.7551963845162
 20
-403.1981319337101
 30
0.0
 11
-376.7551963845094
 21
-153.1981319337034
 31
0.0
  0
LINE
  5
E7
330
1F
100
AcDbEntity
  8
0-0
  6
JWW_DASHED1
 62
   120
370
     5
100
AcDbLine
 10
-626.7551963845201
 20
-396.1270641204289
 30
0.0
 11
-376.7551963845137
 21
-146.1270641204218
 31
0.0
  0
LINE
  5
E8
330
1F
100
AcDbEntity
  8
0-0
  6
JWW_DASHED1
 62
   120
370
     5
100
AcDbLine
 10
-626.7551963845286
 20
-389.0559963072065
 30
0.0
 11
-376.7551963845218
 21
-139.0559963071994
 31
0.0
  0
LINE
  5
E9
330
1F
100
AcDbEntity
  8
0-0
  6
JWW_DASHED1
 62
   120
370
     5
100
AcDbLine
 10
-626.7551963845214
 20
-381.9849284939137
 30
0.0
 11
-376.7551963845007
 21
-131.9849284938926
 31
0.0
  0
LINE
  5
EA
330
1F
100
AcDbEntity
  8
0-0
  6
JWW_DASHED1
 62
   120
370
     5
100
AcDbLine
 10
-626.7551963845252
 20
-374.9138606806321
 30
0.0
 11
-376.7551963845049
 21
-124.9138606806114
 31
0.0
  0
LINE
  5
EB
330
1F
100
AcDbEntity
  8
0-0
  6
JWW_DASHED1
 62
   120
370
     5
100
AcDbLine
 10
-626.755196384509
 20
-367.84279286733
 30
0.0
 11
-376.7551963845021
 21
-117.8427928673233
 31
0.0
  0
LINE
  5
EC
330
1F
100
AcDbEntity
  8
0-0
  6
JWW_DASHED1
 62
   120
370
     5
100
AcDbLine
 10
-626.7551963845133
 20
-360.7717250540487
 30
0.0
 11
-376.755196384506
 21
-110.7717250540417
 31
0.0
  0
LINE
  5
ED
330
1F
100
AcDbEntity
  8
0-0
  6
JWW_DASHED1
 62
   120
370
     5
100
AcDbLine
 10
-626.7551963845171
 20
-353.7006572407672
 30
0.0
 11
-376.7551963845103
 21
-103.7006572407605
 31
0.0
  0
LINE
  5
EE
330
1F
100
AcDbEntity
  8
0-0
  6
JWW_DASHED1
 62
   120
370
     5
100
AcDbLine
 10
-626.7551963845211
 20
-346.6295894274859
 30
0.0
 11
-376.7551963845145
 21
-96.62958942747882
 31
0.0
  0
LINE
  5
EF
330
1F
100
AcDbEntity
  8
0-0
  6
JWW_DASHED1
 62
   120
370
     5
100
AcDbLine
 10
-626.7551963845252
 20
-339.5585216142047
 30
0.0
 11
-376.7551963845183
 21
-89.5585216141976
 31
0.0
  0
LINE
  5
F0
330
1F
100
AcDbEntity
  8
0-0
  6
JWW_DASHED1
 62
   120
370
     5
100
AcDbLine
 10
-626.7551963845294
 20
-332.4874538009231
 30
0.0
 11
-376.7551963845222
 21
-82.48745380091596
 31
0.0
  0
LINE
  5
F1
330
1F
100
AcDbEntity
  8
0-0
  6
JWW_DASHED1
 62
   120
370
     5
100
AcDbLine
 10
-626.7551963845269
 20
-325.4163859876895
 30
0.0
 11
-376.755196384506
 21
-75.41638598766885
 31
0.0
  0
LINE
  5
F2
330
1F
100
AcDbEntity
  8
0-0
  6
JWW_DASHED1
 62
   120
370
     5
100
AcDbLine
 10
-626.7551963845099
 20
-318.3453181743875
 30
0.0
 11
-376.7551963845032
 21
-68.34531817438038
 31
0.0
  0
LINE
  5
F3
330
1F
100
AcDbEntity
  8
0-0
  6
JWW_DASHED1
 62
   120
370
     5
100
AcDbLine
 10
-626.7551963845141
 20
-311.2742503611063
 30
0.0
 11
-376.7551963845075
 21
-61.27425036109916
 31
0.0
  0
LINE
  5
F4
330
1F
100
AcDbEntity
  8
0-0
  6
JWW_DASHED1
 62
   120
370
     5
100
AcDbLine
 10
-626.7551963845184
 20
-304.2031825478246
 30
0.0
 11
-376.7551963845111
 21
-54.20318254781752
 31
0.0
  0
LINE
  5
F5
330
1F
100
AcDbEntity
  8
0-0
  6
JWW_DASHED1
 62
   120
370
     5
100
AcDbLine
 10
-626.7551963845224
 20
-297.1321147345434
 30
0.0
 11
-376.7551963845154
 21
-47.13211473453588
 31
0.0
  0
LINE
  5
F6
330
1F
100
AcDbEntity
  8
0-0
  6
JWW_DASHED1
 62
   120
370
     5
100
AcDbLine
 10
-626.755196384526
 20
-290.0610469212618
 30
0.0
 11
-376.7551963845194
 21
-40.06104692125466
 31
0.0
  0
LINE
  5
F7
330
1F
100
AcDbEntity
  8
0-0
  6
JWW_DASHED1
 62
   120
370
     5
100
AcDbLine
 10
-626.7551963845303
 20
-282.98997910798
 30
0.0
 11
-376.7551963845231
 21
-32.98997910797301
 31
0.0
  0
LINE
  5
F8
330
1F
100
AcDbEntity
  8
0-0
  6
JWW_DASHED1
 62
   120
370
     5
100
AcDbLine
 10
-626.755196384524
 20
-275.9189112946883
 30
0.0
 11
-376.7551963845032
 21
-25.9189112946675
 31
0.0
  0
LINE
  5
F9
330
1F
100
AcDbEntity
  8
0-0
  6
JWW_DASHED1
 62
   120
370
     5
100
AcDbLine
 10
-626.7551963845067
 20
-268.8478434813857
 30
0.0
 11
-376.7551963844998
 21
-18.8478434813786
 31
0.0
  0
LINE
  5
FA
330
1F
100
AcDbEntity
  8
0-0
  6
JWW_DASHED1
 62
   120
370
     5
100
AcDbLine
 10
-626.755196384515
 20
-261.7767756681628
 30
0.0
 11
-376.7551963845083
 21
-11.77677566815622
 31
0.0
  0
LINE
  5
FB
330
1F
100
AcDbEntity
  8
0-0
  6
JWW_DASHED1
 62
   120
370
     5
100
AcDbLine
 10
-626.7551963845192
 20
-254.7057078548817
 30
0.0
 11
-376.7551963845122
 21
-4.705707854875003
 31
0.0
  0
LINE
  5
FC
330
1F
100
AcDbEntity
  8
0-0
  6
JWW_DASHED1
 62
   120
370
     5
100
AcDbLine
 10
-626.7551963845233
 20
-247.6346400416004
 30
0.0
 11
-376.755196384516
 21
2.365359958407067
 31
0.0
  0
LINE
  5
FD
330
1F
100
AcDbEntity
  8
0-0
  6
JWW_DASHED1
 62
   120
370
     5
100
AcDbLine
 10
-626.7551963845269
 20
-240.5635722283188
 30
0.0
 11
-376.7551963845202
 21
9.436427771688285
 31
0.0
  0
LINE
  5
FE
330
1F
100
AcDbEntity
  8
0-0
  6
JWW_DASHED1
 62
   120
370
     5
100
AcDbLine
 10
-626.7551963845311
 20
-233.4925044150372
 30
0.0
 11
-376.7551963845241
 21
16.5074955849695
 31
0.0
  0
LINE
  5
FF
330
1F
100
AcDbEntity
  8
0-0
  6
JWW_DASHED1
 62
   120
370
     5
100
AcDbLine
 10
-626.755196384525
 20
-226.4214366017457
 30
0.0
 11
-376.7551963845045
 21
23.5785633982746
 31
0.0
  0
LINE
  5
100
330
1F
100
AcDbEntity
  8
0-0
  6
JWW_DASHED1
 62
   120
370
     5
100
AcDbLine
 10
-626.7551963845075
 20
-219.3503687884428
 30
0.0
 11
-376.7551963845003
 21
30.64963121156434
 31
0.0
  0
LINE
  5
101
330
1F
100
AcDbEntity
  8
0-0
  6
JWW_DASHED1
 62
   120
370
     5
100
AcDbLine
 10
-626.7551963845118
 20
-212.2793009751616
 30
0.0
 11
-376.7551963845045
 21
37.72069902484556
 31
0.0
  0
LINE
  5
102
330
1F
100
AcDbEntity
  8
0-0
  6
JWW_DASHED1
 62
   120
370
     5
100
AcDbLine
 10
-626.7551963845156
 20
-205.2082331618799
 30
0.0
 11
-376.7551963845088
 21
44.7917668381272
 31
0.0
  0
LINE
  5
103
330
1F
100
AcDbEntity
  8
0-0
  6
JWW_DASHED1
 62
   120
370
     5
100
AcDbLine
 10
-626.7551963845199
 20
-198.1371653485983
 30
0.0
 11
-376.7551963845128
 21
51.86283465140842
 31
0.0
  0
LINE
  5
104
330
1F
100
AcDbEntity
  8
0-0
  6
JWW_DASHED1
 62
   120
370
     5
100
AcDbLine
 10
-626.755196384528
 20
-191.0660975353759
 30
0.0
 11
-376.7551963845211
 21
58.93390246463123
 31
0.0
  0
LINE
  5
105
330
1F
100
AcDbEntity
  8
0-0
  6
JWW_DASHED1
 62
   120
370
     5
100
AcDbLine
 10
-626.7551963845223
 20
-183.9950297220844
 30
0.0
 11
-376.7551963845017
 21
66.0049702779359
 31
0.0
  0
LINE
  5
106
330
1F
100
AcDbEntity
  8
0-0
  6
JWW_DASHED1
 62
   120
370
     5
100
AcDbLine
 10
-626.7551963845265
 20
-176.9239619088032
 30
0.0
 11
-376.755196384506
 21
73.07603809121711
 31
0.0
  0
LINE
  5
107
330
1F
100
AcDbEntity
  8
0-0
  6
JWW_DASHED1
 62
   120
370
     5
100
AcDbLine
 10
-626.7551963845084
 20
-169.8528940954998
 30
0.0
 11
-376.7551963845017
 21
80.14710590450686
 31
0.0
  0
LINE
  5
108
330
1F
100
AcDbEntity
  8
0-0
  6
JWW_DASHED1
 62
   120
370
     5
100
AcDbLine
 10
-626.7551963845126
 20
-162.7818262822186
 30
0.0
 11
-376.7551963845056
 21
87.2181737177885
 31
0.0
  0
LINE
  5
109
330
1F
100
AcDbEntity
  8
0-0
  6
JWW_DASHED1
 62
   120
370
     5
100
AcDbLine
 10
-626.7551963845167
 20
-155.7107584689374
 30
0.0
 11
-376.7551963845096
 21
94.28924153107015
 31
0.0
  0
LINE
  5
10A
330
1F
100
AcDbEntity
  8
0-0
  6
JWW_DASHED1
 62
   120
370
     5
100
AcDbLine
 10
-626.7551963845208
 20
-148.6396906556553
 30
0.0
 11
-376.7551963845137
 21
101.3603093443514
 31
0.0
  0
LINE
  5
10B
330
1F
100
AcDbEntity
  8
0-0
  6
JWW_DASHED1
 62
   120
370
     5
100
AcDbLine
 10
-626.7551963845245
 20
-141.5686228423741
 30
0.0
 11
-376.7551963845175
 21
108.431377157633
 31
0.0
  0
LINE
  5
10C
330
1F
100
AcDbEntity
  8
0-0
  6
JWW_DASHED1
 62
   120
370
     5
100
AcDbLine
 10
-626.7551963845286
 20
-134.4975550290929
 30
0.0
 11
-376.7551963845218
 21
115.5024449709142
 31
0.0
  0
LINE
  5
10D
330
1F
100
AcDbEntity
  8
0-0
  6
JWW_DASHED1
 62
   120
370
     5
100
AcDbLine
 10
-626.755196384528
 20
-127.4264872158611
 30
0.0
 11
-376.7551963845071
 21
122.5735127841596
 31
0.0
  0
LINE
  5
10E
330
1F
100
AcDbEntity
  8
0-0
  6
JWW_DASHED1
 62
   120
370
     5
100
AcDbLine
 10
-626.7551963845094
 20
-120.3554194025569
 30
0.0
 11
-376.7551963845026
 21
129.6445805974498
 31
0.0
  0
LINE
  5
10F
330
1F
100
AcDbEntity
  8
0-0
  6
JWW_DASHED1
 62
   120
370
     5
100
AcDbLine
 10
-626.7551963845135
 20
-113.2843515892757
 30
0.0
 11
-376.7551963845064
 21
136.7156484107314
 31
0.0
  0
LINE
  5
110
330
1F
100
AcDbEntity
  8
0-0
  6
JWW_DASHED1
 62
   120
370
     5
100
AcDbLine
 10
-626.7551963845175
 20
-106.2132837759944
 30
0.0
 11
-376.7551963845103
 21
143.7867162240131
 31
0.0
  0
LINE
  5
111
330
1F
100
AcDbEntity
  8
0-0
  6
JWW_DASHED1
 62
   120
370
     5
100
AcDbLine
 10
-626.7551963845214
 20
-99.14221596271237
 30
0.0
 11
-376.7551963845145
 21
150.8577840372943
 31
0.0
  0
LINE
  5
112
330
1F
100
AcDbEntity
  8
0-0
  6
JWW_DASHED1
 62
   120
370
     5
100
AcDbLine
 10
-626.7551963845254
 20
-92.07114814943115
 30
0.0
 11
-376.7551963845188
 21
157.9288518505755
 31
0.0
  0
LINE
  5
113
330
1F
100
AcDbEntity
  8
0-0
  6
JWW_DASHED1
 62
   120
370
     5
100
AcDbLine
 10
-626.7551963845294
 20
-85.00008033614994
 30
0.0
 11
-376.7551963845224
 21
164.9999196638576
 31
0.0
  0
LINE
  5
114
330
1F
100
AcDbEntity
  8
0-0
  6
JWW_DASHED1
 62
   120
370
     5
100
AcDbLine
 10
-626.7551963845248
 20
-77.92901252285934
 30
0.0
 11
-376.7551963845043
 21
172.0709874771614
 31
0.0
  0
LINE
  5
115
330
1F
100
AcDbEntity
  8
0-0
  6
JWW_DASHED1
 62
   120
370
     5
100
AcDbLine
 10
-626.755196384506
 20
-70.8579447095551
 30
0.0
 11
-376.755196384499
 21
179.142055290452
 31
0.0
  0
LINE
  5
116
330
1F
100
AcDbEntity
  8
0-0
  6
JWW_DASHED1
 62
   120
370
     5
100
AcDbLine
 10
-626.7551963845099
 20
-63.78687689627388
 30
0.0
 11
-376.755196384503
 21
186.2131231037332
 31
0.0
  0
LINE
  5
117
330
1F
100
AcDbEntity
  8
0-0
  6
JWW_DASHED1
 62
   120
370
     5
100
AcDbLine
 10
-626.7551963845184
 20
-56.7158090830515
 30
0.0
 11
-376.7551963845111
 21
193.284190916956
 31
0.0
  0
LINE
  5
118
330
1F
100
AcDbEntity
  8
0-0
  6
JWW_DASHED1
 62
   120
370
     5
100
AcDbLine
 10
-626.7551963845223
 20
-49.64474126976943
 30
0.0
 11
-376.7551963845154
 21
200.3552587302372
 31
0.0
  0
LINE
  5
119
330
1F
100
AcDbEntity
  8
0-0
  6
JWW_DASHED1
 62
   120
370
     5
100
AcDbLine
 10
-626.7551963845262
 20
-42.57367345648821
 30
0.0
 11
-376.7551963845196
 21
207.4263265435185
 31
0.0
  0
LINE
  5
11A
330
1F
100
AcDbEntity
  8
0-0
  6
JWW_DASHED1
 62
   120
370
     5
100
AcDbLine
 10
-626.7551963845303
 20
-35.50260564320699
 30
0.0
 11
-376.7551963845236
 21
214.4973943568001
 31
0.0
  0
LINE
  5
11B
330
1F
100
AcDbEntity
  8
0-0
  6
JWW_DASHED1
 62
   120
370
     5
100
AcDbLine
 10
-626.755196384526
 20
-28.43153782991725
 30
0.0
 11
-376.7551963845056
 21
221.5684621701035
 31
0.0
  0
LINE
  5
11C
330
1F
100
AcDbEntity
  8
0-0
  6
JWW_DASHED1
 62
   120
370
     5
100
AcDbLine
 10
-626.7551963845069
 20
-21.36047001661215
 30
0.0
 11
-376.7551963844998
 21
228.6395299833949
 31
0.0
  0
LINE
  5
11D
330
1F
100
AcDbEntity
  8
0-0
  6
JWW_DASHED1
 62
   120
370
     5
100
AcDbLine
 10
-626.7551963845109
 20
-14.28940220333094
 30
0.0
 11
-376.7551963845038
 21
235.7105977966762
 31
0.0
  0
LINE
  5
11E
330
1F
100
AcDbEntity
  8
0-0
  6
JWW_DASHED1
 62
   120
370
     5
100
AcDbLine
 10
-626.7551963845152
 20
-7.218334390049721
 30
0.0
 11
-376.7551963845079
 21
242.7816656099574
 31
0.0
  0
LINE
  5
11F
330
1F
100
AcDbEntity
  8
0-0
  6
JWW_DASHED1
 62
   120
370
     5
100
AcDbLine
 10
-626.7551963845189
 20
-0.1472665767676506
 30
0.0
 11
-376.7551963845122
 21
249.8527334232386
 31
0.0
  0
LINE
  5
120
330
1F
100
AcDbEntity
  8
0-0
  6
JWW_DASHED1
 62
   120
370
     5
100
AcDbLine
 10
-626.7551963845276
 20
6.923801236454308
 30
0.0
 11
-376.7551963845205
 21
256.9238012364614
 31
0.0
  0
LINE
  5
121
330
1F
100
AcDbEntity
  8
0-0
  6
JWW_DASHED1
 62
   120
370
     5
100
AcDbLine
 10
-626.7551963845233
 20
13.99486904974405
 30
0.0
 11
-376.7551963845028
 21
263.9948690497644
 31
0.0
  0
LINE
  5
122
330
1F
100
AcDbEntity
  8
0-0
  6
JWW_DASHED1
 62
   120
370
     5
100
AcDbLine
 10
-626.7551963845276
 20
21.06593686302527
 30
0.0
 11
-376.7551963845069
 21
271.065936863046
 31
0.0
  0
LINE
  5
123
330
1F
100
AcDbEntity
  8
0-0
  6
JWW_DASHED1
 62
   120
370
     5
100
AcDbLine
 10
-626.7551963845077
 20
28.13700467633079
 30
0.0
 11
-376.7551963845011
 21
278.137004676337
 31
0.0
  0
LINE
  5
124
330
1F
100
AcDbEntity
  8
0-0
  6
JWW_DASHED1
 62
   120
370
     5
100
AcDbLine
 10
-626.7551963845118
 20
35.20807248961201
 30
0.0
 11
-376.7551963845049
 21
285.2080724896191
 31
0.0
  0
LINE
  5
125
330
1F
100
AcDbEntity
  8
0-0
  6
JWW_DASHED1
 62
   120
370
     5
100
AcDbLine
 10
-626.755196384516
 20
42.27914030289323
 30
0.0
 11
-376.7551963845088
 21
292.2791403029003
 31
0.0
  0
LINE
  5
126
330
1F
100
AcDbEntity
  8
0-0
  6
JWW_DASHED1
 62
   120
370
     5
100
AcDbLine
 10
-626.7551963845199
 20
49.35020811617487
 30
0.0
 11
-376.7551963845131
 21
299.3502081161815
 31
0.0
  0
LINE
  5
127
330
1F
100
AcDbEntity
  8
0-0
  6
JWW_DASHED1
 62
   120
370
     5
100
AcDbLine
 10
-626.7551963845237
 20
56.42127592945651
 30
0.0
 11
-376.7551963845168
 21
306.4212759294636
 31
0.0
  0
LINE
  5
128
330
1F
100
AcDbEntity
  8
0-0
  6
JWW_DASHED1
 62
   120
370
     5
100
AcDbLine
 10
-626.755196384528
 20
63.49234374273773
 30
0.0
 11
-376.7551963845211
 21
313.4923437427448
 31
0.0
  0
LINE
  5
129
330
1F
100
AcDbEntity
  8
0-0
  6
JWW_DASHED1
 62
   120
370
     5
100
AcDbLine
 10
-626.7551963845243
 20
70.56341155602662
 30
0.0
 11
-376.7551963845038
 21
320.5634115560474
 31
0.0
  0
LINE
  5
12A
330
1F
100
AcDbEntity
  8
0-0
  6
JWW_DASHED1
 62
   120
370
     5
100
AcDbLine
 10
-626.7551963845087
 20
77.63447936927331
 30
0.0
 11
-376.755196384502
 21
327.63447936928
 31
0.0
  0
LINE
  5
12B
330
1F
100
AcDbEntity
  8
0-0
  6
JWW_DASHED1
 62
   120
370
     5
100
AcDbLine
 10
-626.7551963845126
 20
84.70554718255495
 30
0.0
 11
-376.7551963845058
 21
334.705547182562
 31
0.0
  0
LINE
  5
12C
330
1F
100
AcDbEntity
  8
0-0
  6
JWW_DASHED1
 62
   120
370
     5
100
AcDbLine
 10
-626.7551963845169
 20
91.77661499583617
 30
0.0
 11
-376.7551963845096
 21
341.7766149958433
 31
0.0
  0
LINE
  5
12D
330
1F
100
AcDbEntity
  8
0-0
  6
JWW_DASHED1
 62
   120
370
     5
100
AcDbLine
 10
-626.7551963845208
 20
98.84768280911781
 30
0.0
 11
-376.7551963845139
 21
348.8476828091245
 31
0.0
  0
LINE
  5
12E
330
1F
100
AcDbEntity
  8
0-0
  6
JWW_DASHED1
 62
   120
370
     5
100
AcDbLine
 10
-626.7551963845245
 20
105.9187506223995
 30
0.0
 11
-376.7551963845179
 21
355.9187506224061
 31
0.0
  0
LINE
  5
12F
330
1F
100
AcDbEntity
  8
0-0
  6
JWW_DASHED1
 62
   120
370
     5
100
AcDbLine
 10
-626.7551963845289
 20
112.9898184356807
 30
0.0
 11
-376.7551963845219
 21
362.9898184356878
 31
0.0
  0
LINE
  5
130
330
1F
100
AcDbEntity
  8
0-0
  6
JWW_DASHED1
 62
   120
370
     5
100
AcDbLine
 10
-626.7551963845258
 20
120.0608862489696
 30
0.0
 11
-376.7551963845049
 21
370.0608862489903
 31
0.0
  0
LINE
  5
131
330
1F
100
AcDbEntity
  8
0-0
  6
JWW_DASHED1
 62
   120
370
     5
100
AcDbLine
 10
-626.7551963845211
 20
127.1319540622593
 30
0.0
 11
-376.7551963844986
 21
377.1319540622817
 31
0.0
  0
LINE
  5
132
330
1F
100
AcDbEntity
  8
0-0
  6
JWW_DASHED1
 62
   120
370
     5
100
AcDbLine
 10
-626.7551963845094
 20
134.2030218755567
 30
0.0
 11
-376.7551963845026
 21
384.2030218755634
 31
0.0
  0
LINE
  5
133
330
1F
100
AcDbEntity
  8
0-0
  6
JWW_DASHED1
 62
   120
370
     5
100
AcDbLine
 10
-626.7551963845177
 20
141.2740896887791
 30
0.0
 11
-376.7551963845107
 21
391.2740896887862
 31
0.0
  0
LINE
  5
134
330
1F
100
AcDbEntity
  8
0-0
  6
JWW_DASHED1
 62
   120
370
     5
100
AcDbLine
 10
-626.7551963845218
 20
148.3451575020603
 30
0.0
 11
-376.7551963845148
 21
398.3451575020674
 31
0.0
  0
LINE
  5
135
330
1F
100
AcDbEntity
  8
0-0
  6
JWW_DASHED1
 62
   120
370
     5
100
AcDbLine
 10
-626.7551963845258
 20
155.4162253153424
 30
0.0
 11
-376.7551963845188
 21
405.416225315349
 31
0.0
  0
LINE
  5
136
330
1F
100
AcDbEntity
  8
0-0
  6
JWW_DASHED1
 62
   120
370
     5
100
AcDbLine
 10
-626.7551963845297
 20
162.4872931286236
 30
0.0
 11
-376.7551963845231
 21
412.4872931286303
 31
0.0
  0
LINE
  5
137
330
1F
100
AcDbEntity
  8
0-0
  6
JWW_DASHED1
 62
   120
370
     5
100
AcDbLine
 10
-626.7551963845272
 20
169.5583609419116
 30
0.0
 11
-376.7551963845062
 21
419.5583609419324
 31
0.0
  0
LINE
  5
138
330
1F
100
AcDbEntity
  8
0-0
  6
JWW_DASHED1
 62
   120
370
     5
100
AcDbLine
 10
-626.755196384506
 20
176.6294287552184
 30
0.0
 11
-376.7551963844992
 21
426.6294287552251
 31
0.0
  0
LINE
  5
139
330
1F
100
AcDbEntity
  8
0-0
  6
JWW_DASHED1
 62
   120
370
     5
100
AcDbLine
 10
-626.7551963845103
 20
183.7004965684997
 30
0.0
 11
-376.755196384503
 21
433.7004965685068
 31
0.0
  0
LINE
  5
13A
330
1F
100
AcDbEntity
  8
0-0
  6
JWW_DASHED1
 62
   120
370
     5
100
AcDbLine
 10
-626.7551963845145
 20
190.7715643817809
 30
0.0
 11
-376.7551963845073
 21
440.771564381788
 31
0.0
  0
LINE
  5
13B
330
1F
100
AcDbEntity
  8
0-0
  6
JWW_DASHED1
 62
   120
370
     5
100
AcDbLine
 10
-626.755196384518
 20
197.8426321950629
 30
0.0
 11
-376.7551963845115
 21
447.8426321950692
 31
0.0
  0
LINE
  5
13C
330
1F
100
AcDbEntity
  8
0-0
  6
JWW_DASHED1
 62
   120
370
     5
100
AcDbLine
 10
-626.7551963845267
 20
204.9137000082853
 30
0.0
 11
-376.7551963845196
 21
454.913700008292
 31
0.0
  0
LINE
  5
13D
330
1F
100
AcDbEntity
  8
0-0
  6
JWW_DASHED1
 62
   120
370
     5
100
AcDbLine
 10
-626.7551963845245
 20
211.9847678215725
 30
0.0
 11
-376.7551963845034
 21
461.9847678215937
 31
0.0
  0
LINE
  5
13E
330
1F
100
AcDbEntity
  8
0-0
  6
JWW_DASHED1
 62
   120
370
     5
100
AcDbLine
 10
-626.7551963845284
 20
219.0558356348542
 30
0.0
 11
-376.7551963845075
 21
469.0558356348753
 31
0.0
  0
LINE
  5
13F
330
1F
100
AcDbEntity
  8
0-0
  6
JWW_DASHED1
 62
   120
370
     5
100
AcDbLine
 10
-626.7551963845073
 20
226.126903448161
 30
0.0
 11
-376.7551963845003
 21
476.1269034481676
 31
0.0
  0
LINE
  5
140
330
1F
100
AcDbEntity
  8
0-0
  6
JWW_DASHED1
 62
   120
370
     5
100
AcDbLine
 10
-626.7551963845111
 20
233.1979712614426
 30
0.0
 11
-376.7551963845038
 21
483.1979712614497
 31
0.0
  0
LINE
  5
141
330
1F
100
AcDbEntity
  8
0-0
  6
JWW_DASHED1
 62
   120
370
     5
100
AcDbLine
 10
-626.7551963845154
 20
240.2690390747238
 30
0.0
 11
-376.7551963845081
 21
490.2690390747309
 31
0.0
  0
LINE
  5
142
330
1F
100
AcDbEntity
  8
0-0
  6
JWW_DASHED1
 62
   120
370
     5
100
AcDbLine
 10
-626.7551963845192
 20
247.340106888005
 30
0.0
 11
-376.7551963845122
 21
497.3401068880121
 31
0.0
  0
LINE
  5
143
330
1F
100
AcDbEntity
  8
0-0
  6
JWW_DASHED1
 62
   120
370
     5
100
AcDbLine
 10
-626.7551963845231
 20
254.4111747012871
 30
0.0
 11
-376.7551963845165
 21
504.4111747012934
 31
0.0
  0
LINE
  5
144
330
1F
100
AcDbEntity
  8
0-0
  6
JWW_DASHED1
 62
   120
370
     5
100
AcDbLine
 10
-626.7551963845274
 20
261.4822425145683
 30
0.0
 11
-376.7551963845202
 21
511.4822425145754
 31
0.0
  0
LINE
  5
145
330
1F
100
AcDbEntity
  8
0-0
  6
JWW_DASHED1
 62
   120
370
     5
100
AcDbLine
 10
-626.7551963845254
 20
268.5533103278555
 30
0.0
 11
-376.7551963845047
 21
518.5533103278763
 31
0.0
  0
LINE
  5
146
330
1F
100
AcDbEntity
  8
0-0
  6
JWW_DASHED1
 62
   120
370
     5
100
AcDbLine
 10
-626.7551963845077
 20
275.6243781411043
 30
0.0
 11
-376.7551963845011
 21
525.6243781411106
 31
0.0
  0
LINE
  5
147
330
1F
100
AcDbEntity
  8
0-0
  6
JWW_DASHED1
 62
   120
370
     5
100
AcDbLine
 10
-626.755196384512
 20
282.6954459543855
 30
0.0
 11
-376.7551963845049
 21
532.6954459543927
 31
0.0
  0
LINE
  5
148
330
1F
100
AcDbEntity
  8
0-0
  6
JWW_DASHED1
 62
   120
370
     5
100
AcDbLine
 10
-626.755196384516
 20
289.7665137676668
 30
0.0
 11
-376.7551963845092
 21
539.7665137676738
 31
0.0
  0
LINE
  5
149
330
1F
100
AcDbEntity
  8
0-0
  6
JWW_DASHED1
 62
   120
370
     5
100
AcDbLine
 10
-626.7551963845203
 20
296.837581580948
 30
0.0
 11
-376.7551963845132
 21
546.837581580955
 31
0.0
  0
LINE
  5
14A
330
1F
100
AcDbEntity
  8
0-0
  6
JWW_DASHED1
 62
   120
370
     5
100
AcDbLine
 10
-626.7551963845242
 20
303.9086493942296
 30
0.0
 11
-376.7551963845171
 21
553.9086493942367
 31
0.0
  0
LINE
  5
14B
330
1F
100
AcDbEntity
  8
0-0
  6
JWW_DASHED1
 62
   120
370
     5
100
AcDbLine
 10
-626.7551963845282
 20
310.9797172075113
 30
0.0
 11
-376.7551963845211
 21
560.9797172075183
 31
0.0
  0
LINE
  5
14C
330
1F
100
AcDbEntity
  8
0-0
  6
JWW_DASHED1
 62
   120
370
     5
100
AcDbLine
 10
-626.7551963845269
 20
318.0507850207976
 30
0.0
 11
-376.755196384506
 21
568.0507850208188
 31
0.0
  0
LINE
  5
14D
330
1F
100
AcDbEntity
  8
0-0
  6
JWW_DASHED1
 62
   120
370
     5
100
AcDbLine
 10
-626.7551963845308
 20
325.1218528340797
 30
0.0
 11
-376.7551963845103
 21
575.1218528341
 31
0.0
  0
LINE
  5
14E
330
1F
100
AcDbEntity
  8
0-0
  6
JWW_DASHED1
 62
   120
370
     5
100
AcDbLine
 10
-626.7551963845087
 20
332.1929206473873
 30
0.0
 11
-376.7551963845017
 21
582.192920647394
 31
0.0
  0
LINE
  5
14F
330
1F
100
AcDbEntity
  8
0-0
  6
JWW_DASHED1
 62
   120
370
     5
100
AcDbLine
 10
-626.7551963845169
 20
339.2639884606097
 30
0.0
 11
-376.75519638451
 21
589.2639884606167
 31
0.0
  0
LINE
  5
150
330
1F
100
AcDbEntity
  8
0-0
  6
JWW_DASHED1
 62
   120
370
     5
100
AcDbLine
 10
-626.7551963845211
 20
346.3350562738909
 30
0.0
 11
-376.7551963845139
 21
596.335056273898
 31
0.0
  0
LINE
  5
151
330
1F
100
AcDbEntity
  8
0-0
  6
JWW_DASHED1
 62
   120
370
     5
100
AcDbLine
 10
-626.755196384525
 20
353.4061240871725
 30
0.0
 11
-376.7551963845182
 21
603.4061240871793
 31
0.0
  0
LINE
  5
152
330
1F
100
AcDbEntity
  8
0-0
  6
JWW_DASHED1
 62
   120
370
     5
100
AcDbLine
 10
-626.7551963845289
 20
360.4771919004542
 30
0.0
 11
-376.7551963845222
 21
610.4771919004609
 31
0.0
  0
LINE
  5
153
330
1F
100
AcDbEntity
  8
0-0
  6
JWW_DASHED1
 62
   120
370
     5
100
AcDbLine
 10
-626.755196384528
 20
367.5482597137405
 30
0.0
 11
-376.7551963845073
 21
617.5482597137612
 31
0.0
  0
LINE
  5
154
330
1F
100
AcDbEntity
  8
0-0
  6
JWW_DASHED1
 62
   120
370
     5
100
AcDbLine
 10
-626.7551963845053
 20
374.6193275270486
 30
0.0
 11
-376.7551963844986
 21
624.6193275270552
 31
0.0
  0
LINE
  5
155
330
1F
100
AcDbEntity
  8
0-0
  6
JWW_DASHED1
 62
   120
370
     5
100
AcDbLine
 10
-626.7551963845096
 20
381.6903953403303
 30
0.0
 11
-376.7551963845026
 21
631.690395340337
 31
0.0
  0
LINE
  5
156
330
1F
100
AcDbEntity
  8
0-0
  6
JWW_DASHED1
 62
   120
370
     5
100
AcDbLine
 10
-626.7551963845135
 20
388.7614631536115
 30
0.0
 11
-376.7551963845064
 21
638.7614631536185
 31
0.0
  0
LINE
  5
157
330
1F
100
AcDbEntity
  8
0-0
  6
JWW_DASHED1
 62
   120
370
     5
100
AcDbLine
 10
-626.7551963845175
 20
395.8325309668927
 30
0.0
 11
-376.7551963845107
 21
645.8325309668998
 31
0.0
  0
LINE
  5
158
330
1F
100
AcDbEntity
  8
0-0
  6
JWW_DASHED1
 62
   120
370
     5
100
AcDbLine
 10
-626.7551963845216
 20
402.9035987801743
 30
0.0
 11
-376.7551963845148
 21
652.903598780181
 31
0.0
  0
LINE
  5
159
330
1F
100
AcDbEntity
  8
0-0
  6
JWW_DASHED1
 62
   120
370
     5
100
AcDbLine
 10
-626.7551963845297
 20
409.9746665933972
 30
0.0
 11
-376.7551963845231
 21
659.9746665934039
 31
0.0
  0
LINE
  5
15A
330
1F
100
AcDbEntity
  8
0-0
  6
JWW_DASHED1
 62
   120
370
     5
100
AcDbLine
 10
-626.7551963845291
 20
417.0457344066835
 30
0.0
 11
-376.7551963845086
 21
667.0457344067033
 31
0.0
  0
LINE
  5
15B
330
1F
100
AcDbEntity
  8
0-0
  6
JWW_DASHED1
 62
   120
370
     5
100
AcDbLine
 10
-626.7551963845065
 20
424.1168022199911
 30
0.0
 11
-376.7551963844994
 21
674.1168022199981
 31
0.0
  0
LINE
  5
15C
330
1F
100
AcDbEntity
  8
0-0
  6
JWW_DASHED1
 62
   120
370
     5
100
AcDbLine
 10
-626.7551963845103
 20
431.1878700332732
 30
0.0
 11
-376.7551963845034
 21
681.1878700332799
 31
0.0
  0
LINE
  5
15D
330
1F
100
AcDbEntity
  8
0-0
  6
JWW_DASHED1
 62
   120
370
     5
100
AcDbLine
 10
-626.7551963845145
 20
438.2589378465544
 30
0.0
 11
-376.7551963845077
 21
688.2589378465611
 31
0.0
  0
LINE
  5
15E
330
1F
100
AcDbEntity
  8
0-0
  6
JWW_DASHED1
 62
   120
370
     5
100
AcDbLine
 10
-626.7551963845184
 20
445.3300056598356
 30
0.0
 11
-376.7551963845115
 21
695.3300056598428
 31
0.0
  0
LINE
  5
15F
330
1F
100
AcDbEntity
  8
0-0
  6
JWW_DASHED1
 62
   120
370
     5
100
AcDbLine
 10
-626.7551963845224
 20
452.4010734731177
 30
0.0
 11
-376.7551963845158
 21
702.4010734731239
 31
0.0
  0
LINE
  5
160
330
1F
100
AcDbEntity
  8
0-0
  6
JWW_DASHED1
 62
   120
370
     5
100
AcDbLine
 10
-626.7551963845265
 20
459.4721412863989
 30
0.0
 11
-376.7551963845196
 21
709.4721412864056
 31
0.0
  0
LINE
  5
161
330
1F
100
AcDbEntity
  8
0-0
  6
JWW_DASHED1
 62
   120
370
     5
100
AcDbLine
 10
-626.7551963845265
 20
466.5432090996844
 30
0.0
 11
-376.7551963845058
 21
716.5432090997051
 31
0.0
  0
LINE
  5
162
330
1F
100
AcDbEntity
  8
0-0
  6
JWW_DASHED1
 62
   120
370
     5
100
AcDbLine
 10
-626.7551963845073
 20
473.6142769129341
 30
0.0
 11
-376.7551963845004
 21
723.6142769129411
 31
0.0
  0
LINE
  5
163
330
1F
100
AcDbEntity
  8
0-0
  6
JWW_DASHED1
 62
   120
370
     5
100
AcDbLine
 10
-626.7551963845116
 20
480.6853447262153
 30
0.0
 11
-376.7551963845045
 21
730.6853447262224
 31
0.0
  0
LINE
  5
164
330
1F
100
AcDbEntity
  8
0-0
  6
JWW_DASHED1
 62
   120
370
     5
100
AcDbLine
 10
-626.7551963845154
 20
487.7564125394974
 30
0.0
 11
-376.7551963845086
 21
737.756412539504
 31
0.0
  0
LINE
  5
165
330
1F
100
AcDbEntity
  8
0-0
  6
JWW_DASHED1
 62
   120
370
     5
100
AcDbLine
 10
-626.7551963845196
 20
494.8274803527786
 30
0.0
 11
-376.7551963845124
 21
744.8274803527856
 31
0.0
  0
LINE
  5
166
330
1F
100
AcDbEntity
  8
0-0
  6
JWW_DASHED1
 62
   120
370
     5
100
AcDbLine
 10
-626.7551963845235
 20
501.8985481660598
 30
0.0
 11
-376.7551963845166
 21
751.8985481660668
 31
0.0
  0
LINE
  5
167
330
1F
100
AcDbEntity
  8
0-0
  6
JWW_DASHED1
 62
   120
370
     5
100
AcDbLine
 10
-626.7551963845274
 20
508.9696159793419
 30
0.0
 11
-376.7551963845207
 21
758.9696159793481
 31
0.0
  0
LINE
  5
168
330
1F
100
AcDbEntity
  8
0-0
  6
JWW_DASHED1
 62
   120
370
     5
100
AcDbLine
 10
-626.7551963845276
 20
516.040683792627
 30
0.0
 11
-376.7551963845069
 21
766.0406837926477
 31
0.0
  0
LINE
  5
169
330
1F
100
AcDbEntity
  8
0-0
  6
JWW_DASHED1
 62
   120
370
     5
100
AcDbLine
 10
-626.7551963845316
 20
523.1117516059085
 30
0.0
 11
-376.7551963845111
 21
773.1117516059289
 31
0.0
  0
LINE
  5
16A
330
1F
100
AcDbEntity
  8
0-0
  6
JWW_DASHED1
 62
   120
370
     5
100
AcDbLine
 10
-626.7551963845079
 20
530.1828194192175
 30
0.0
 11
-376.7551963845009
 21
780.1828194192246
 31
0.0
  0
LINE
  5
16B
330
1F
100
AcDbEntity
  8
0-0
  6
JWW_DASHED1
 62
   120
370
     5
100
AcDbLine
 10
-626.7551963845162
 20
537.2538872324403
 30
0.0
 11
-376.7551963845094
 21
787.253887232447
 31
0.0
  0
LINE
  5
16C
330
1F
100
AcDbEntity
  8
0-0
  6
JWW_DASHED1
 62
   120
370
     5
100
AcDbLine
 10
-626.7551963845206
 20
544.3249550457215
 30
0.0
 11
-376.7551963845134
 21
794.3249550457285
 31
0.0
  0
LINE
  5
16D
330
1F
100
AcDbEntity
  8
0-0
  6
JWW_DASHED1
 62
   120
370
     5
100
AcDbLine
 10
-626.7551963845243
 20
551.3960228590026
 30
0.0
 11
-376.7551963845175
 21
801.3960228590098
 31
0.0
  0
LINE
  5
16E
330
1F
100
AcDbEntity
  8
0-0
  6
JWW_DASHED1
 62
   120
370
     5
100
AcDbLine
 10
-626.7551963845282
 20
558.4670906722847
 30
0.0
 11
-376.7551963845214
 21
808.4670906722915
 31
0.0
  0
LINE
  5
16F
330
1F
100
AcDbEntity
  8
0-0
  6
JWW_DASHED1
 62
   120
370
     5
100
AcDbLine
 10
-626.7551963845289
 20
565.5381584855694
 30
0.0
 11
-376.7551963845081
 21
815.5381584855902
 31
0.0
  0
LINE
  5
170
330
1F
100
AcDbEntity
  8
0-0
  6
JWW_DASHED1
 62
   120
370
     5
100
AcDbLine
 10
-626.755196384505
 20
572.6092262988788
 30
0.0
 11
-376.755196384498
 21
822.6092262988859
 31
0.0
  0
LINE
  5
171
330
1F
100
AcDbEntity
  8
0-0
  6
JWW_DASHED1
 62
   120
370
     5
100
AcDbLine
 10
-626.7551963845087
 20
579.6802941121605
 30
0.0
 11
-376.755196384502
 21
829.6802941121671
 31
0.0
  0
LINE
  5
172
330
1F
100
AcDbEntity
  8
0-0
  6
JWW_DASHED1
 62
   120
370
     5
100
AcDbLine
 10
-626.755196384513
 20
586.7513619254416
 30
0.0
 11
-376.755196384506
 21
836.7513619254488
 31
0.0
  0
LINE
  5
173
330
1F
100
AcDbEntity
  8
0-0
  6
JWW_DASHED1
 62
   120
370
     5
100
AcDbLine
 10
-626.7551963845171
 20
593.8224297387233
 30
0.0
 11
-376.75519638451
 21
843.8224297387303
 31
0.0
  0
LINE
  5
174
330
1F
100
AcDbEntity
  8
0-0
  6
JWW_DASHED1
 62
   120
370
     5
100
AcDbLine
 10
-626.7551963845208
 20
600.893497552005
 30
0.0
 11
-376.7551963845141
 21
850.8934975520116
 31
0.0
  0
LINE
  5
175
330
1F
100
AcDbEntity
  8
0-0
  6
JWW_DASHED1
 62
   120
370
     5
100
AcDbLine
 10
-626.7551963845292
 20
607.9645653652274
 30
0.0
 11
-376.7551963845224
 21
857.964565365234
 31
0.0
  0
LINE
  5
176
330
1F
100
AcDbEntity
  8
0-0
  6
JWW_DASHED1
 62
   120
370
     5
100
AcDbLine
 10
-626.7551963845303
 20
615.035633178512
 30
0.0
 11
-376.7551963845096
 21
865.0356331785322
 31
0.0
  0
LINE
  5
177
330
1F
100
AcDbEntity
  8
0-0
  6
JWW_DASHED1
 62
   120
370
     5
100
AcDbLine
 10
-626.7551963845058
 20
622.1067009918218
 30
0.0
 11
-376.755196384499
 21
872.1067009918288
 31
0.0
  0
LINE
  5
178
330
1F
100
AcDbEntity
  8
0-0
  6
JWW_DASHED1
 62
   120
370
     5
100
AcDbLine
 10
-626.7551963845096
 20
629.1777688051034
 30
0.0
 11
-376.7551963845028
 21
879.17776880511
 31
0.0
  0
LINE
  5
179
330
1F
100
AcDbEntity
  8
0-0
  6
JWW_DASHED1
 62
   120
370
     5
100
AcDbLine
 10
-626.755196384514
 20
636.2488366183846
 30
0.0
 11
-376.7551963845069
 21
886.2488366183912
 31
0.0
  0
LINE
  5
17A
330
1F
100
AcDbEntity
  8
0-0
  6
JWW_DASHED1
 62
   120
370
     5
100
AcDbLine
 10
-626.7551963845177
 20
643.3199044316661
 30
0.0
 11
-376.7551963845109
 21
893.3199044316733
 31
0.0
  0
LINE
  5
17B
330
1F
100
AcDbEntity
  8
0-0
  6
JWW_DASHED1
 62
   120
370
     5
100
AcDbLine
 10
-626.7551963845216
 20
650.3909722449479
 30
0.0
 11
-376.7551963845149
 21
900.3909722449546
 31
0.0
  0
LINE
  5
17C
330
1F
100
AcDbEntity
  8
0-0
  6
JWW_DASHED1
 62
   120
370
     5
100
AcDbLine
 10
-626.7551963845258
 20
657.4620400582291
 30
0.0
 11
-376.755196384519
 21
907.4620400582357
 31
0.0
  0
LINE
  5
17D
330
1F
100
AcDbEntity
  8
0-0
  6
JWW_DASHED1
 62
   120
370
     5
100
AcDbLine
 10
-626.7551963845269
 20
664.5331078715133
 30
0.0
 11
-376.7551963845064
 21
914.533107871534
 31
0.0
  0
LINE
  5
17E
330
1F
100
AcDbEntity
  8
0-0
  6
JWW_DASHED1
 62
   120
370
     5
100
AcDbLine
 10
-626.7551963845067
 20
671.6041756847646
 30
0.0
 11
-376.7551963844996
 21
921.6041756847717
 31
0.0
  0
LINE
  5
17F
330
1F
100
AcDbEntity
  8
0-0
  6
JWW_DASHED1
 62
   120
370
     5
100
AcDbLine
 10
-626.7551963845106
 20
678.6752434980464
 30
0.0
 11
-376.7551963845037
 21
928.675243498053
 31
0.0
  0
LINE
  5
180
330
1F
100
AcDbEntity
  8
0-0
  6
JWW_DASHED1
 62
   120
370
     5
100
AcDbLine
 10
-626.7551963845148
 20
685.7463113113275
 30
0.0
 11
-376.7551963845077
 21
935.7463113113347
 31
0.0
  0
LINE
  5
181
330
1F
100
AcDbEntity
  8
0-0
  6
JWW_DASHED1
 62
   120
370
     5
100
AcDbLine
 10
-626.7551963845189
 20
692.8173791246091
 30
0.0
 11
-376.7551963845117
 21
942.8173791246163
 31
0.0
  0
LINE
  5
182
330
1F
100
AcDbEntity
  8
0-0
  6
JWW_DASHED1
 62
   120
370
     5
100
AcDbLine
 10
-626.7551963845224
 20
699.8884469378909
 30
0.0
 11
-376.7551963845158
 21
949.8884469378975
 31
0.0
  0
LINE
  5
183
330
1F
100
AcDbEntity
  8
0-0
  6
JWW_DASHED1
 62
   120
370
     5
100
AcDbLine
 10
-626.7551963845267
 20
706.959514751172
 30
0.0
 11
-376.75519638452
 21
956.9595147511786
 31
0.0
  0
LINE
  5
184
330
1F
100
AcDbEntity
  8
0-0
  6
JWW_DASHED1
 62
   120
370
     5
100
AcDbLine
 10
-626.7551963845284
 20
714.0305825644558
 30
0.0
 11
-376.7551963845079
 21
964.0305825644762
 31
0.0
  0
LINE
  5
185
330
1F
100
AcDbEntity
  8
0-0
  6
JWW_DASHED1
 62
   120
370
     5
100
AcDbLine
 10
-626.7551963845326
 20
721.1016503777371
 30
0.0
 11
-376.7551963845122
 21
971.1016503777573
 31
0.0
  0
LINE
  5
186
330
1F
100
AcDbEntity
  8
0-0
  6
JWW_DASHED1
 62
   120
370
     5
100
AcDbLine
 10
-626.7551963845073
 20
728.1727181910476
 30
0.0
 11
-376.7551963845004
 21
978.1727181910547
 31
0.0
  0
LINE
  5
187
330
1F
100
AcDbEntity
  8
0-0
  6
JWW_DASHED1
 62
   120
370
     5
100
AcDbLine
 10
-626.7551963845156
 20
735.2437860042705
 30
0.0
 11
-376.7551963845086
 21
985.2437860042776
 31
0.0
  0
LINE
  5
188
330
1F
100
AcDbEntity
  8
0-0
  6
JWW_DASHED1
 62
   120
370
     5
100
AcDbLine
 10
-626.7551963845196
 20
742.3148538175521
 30
0.0
 11
-382.2413010177344
 21
986.8287491843372
 31
0.0
  0
LINE
  5
189
330
1F
100
AcDbEntity
  8
0-0
  6
JWW_DASHED1
 62
   120
370
     5
100
AcDbLine
 10
-626.755196384524
 20
749.3859216308333
 30
0.0
 11
-389.3123688310159
 21
986.8287491843414
 31
0.0
  0
LINE
  5
18A
330
1F
100
AcDbEntity
  8
0-0
  6
JWW_DASHED1
 62
   120
370
     5
100
AcDbLine
 10
-626.7551963845277
 20
756.4569894441145
 30
0.0
 11
-396.383436644297
 21
986.8287491843457
 31
0.0
  0
LINE
  5
18B
330
1F
100
AcDbEntity
  8
0-0
  6
JWW_DASHED1
 62
   120
370
     5
100
AcDbLine
 10
-626.7551963845299
 20
763.5280572573984
 30
0.0
 11
-403.4545044575924
 21
986.8287491843355
 31
0.0
  0
LINE
  5
18C
330
1F
100
AcDbEntity
  8
0-0
  6
JWW_DASHED1
 62
   120
370
     5
100
AcDbLine
 10
-626.7551963845038
 20
770.5991250707093
 30
0.0
 11
-410.5255722708913
 21
986.8287491843223
 31
0.0
  0
LINE
  5
18D
330
1F
100
AcDbEntity
  8
0-0
  6
JWW_DASHED1
 62
   120
370
     5
100
AcDbLine
 10
-626.7551963845082
 20
777.6701928839906
 30
0.0
 11
-417.5966400841725
 21
986.8287491843265
 31
0.0
  0
LINE
  5
18E
330
1F
100
AcDbEntity
  8
0-0
  6
JWW_DASHED1
 62
   120
370
     5
100
AcDbLine
 10
-626.7551963845121
 20
784.7412606972723
 30
0.0
 11
-424.667707897454
 21
986.8287491843304
 31
0.0
  0
LINE
  5
18F
330
1F
100
AcDbEntity
  8
0-0
  6
JWW_DASHED1
 62
   120
370
     5
100
AcDbLine
 10
-626.7551963845162
 20
791.8123285105539
 30
0.0
 11
-431.7387757107352
 21
986.8287491843346
 31
0.0
  0
LINE
  5
190
330
1F
100
AcDbEntity
  8
0-0
  6
JWW_DASHED1
 62
   120
370
     5
100
AcDbLine
 10
-626.7551963845203
 20
798.8833963238351
 30
0.0
 11
-438.8098435240164
 21
986.8287491843389
 31
0.0
  0
LINE
  5
191
330
1F
100
AcDbEntity
  8
0-0
  6
JWW_DASHED1
 62
   120
370
     5
100
AcDbLine
 10
-626.7551963845286
 20
805.9544641370575
 30
0.0
 11
-445.8809113372388
 21
986.8287491843474
 31
0.0
  0
LINE
  5
192
330
1F
100
AcDbEntity
  8
0-0
  6
JWW_DASHED1
 62
   120
370
     5
100
AcDbLine
 10
-626.7551963845311
 20
813.0255319503403
 30
0.0
 11
-452.9519791505313
 21
986.8287491843406
 31
0.0
  0
LINE
  5
193
330
1F
100
AcDbEntity
  8
0-0
  6
JWW_DASHED1
 62
   120
370
     5
100
AcDbLine
 10
-626.755196384505
 20
820.0965997636523
 30
0.0
 11
-460.0230469638329
 21
986.8287491843244
 31
0.0
  0
LINE
  5
194
330
1F
100
AcDbEntity
  8
0-0
  6
JWW_DASHED1
 62
   120
370
     5
100
AcDbLine
 10
-626.755196384509
 20
827.1676675769336
 30
0.0
 11
-467.0941147771142
 21
986.8287491843287
 31
0.0
  0
LINE
  5
195
330
1F
100
AcDbEntity
  8
0-0
  6
JWW_DASHED1
 62
   120
370
     5
100
AcDbLine
 10
-626.755196384513
 20
834.2387353902152
 30
0.0
 11
-474.1651825903956
 21
986.8287491843325
 31
0.0
  0
LINE
  5
196
330
1F
100
AcDbEntity
  8
0-0
  6
JWW_DASHED1
 62
   120
370
     5
100
AcDbLine
 10
-626.7551963845171
 20
841.3098032034968
 30
0.0
 11
-481.2362504036768
 21
986.8287491843372
 31
0.0
  0
LINE
  5
197
330
1F
100
AcDbEntity
  8
0-0
  6
JWW_DASHED1
 62
   120
370
     5
100
AcDbLine
 10
-626.7551963845211
 20
848.380871016778
 30
0.0
 11
-488.307318216958
 21
986.8287491843411
 31
0.0
  0
LINE
  5
198
330
1F
100
AcDbEntity
  8
0-0
  6
JWW_DASHED1
 62
   120
370
     5
100
AcDbLine
 10
-626.755196384525
 20
855.4519388300597
 30
0.0
 11
-495.3783860302394
 21
986.8287491843453
 31
0.0
  0
LINE
  5
199
330
1F
100
AcDbEntity
  8
0-0
  6
JWW_DASHED1
 62
   120
370
     5
100
AcDbLine
 10
-626.755196384528
 20
862.5230066433421
 30
0.0
 11
-502.4494538435285
 21
986.8287491843414
 31
0.0
  0
LINE
  5
19A
330
1F
100
AcDbEntity
  8
0-0
  6
JWW_DASHED1
 62
   120
370
     5
100
AcDbLine
 10
-626.7551963845058
 20
869.5940744565953
 30
0.0
 11
-509.5205216567746
 21
986.828749184326
 31
0.0
  0
LINE
  5
19B
330
1F
100
AcDbEntity
  8
0-0
  6
JWW_DASHED1
 62
   120
370
     5
100
AcDbLine
 10
-626.7551963845099
 20
876.6651422698765
 30
0.0
 11
-516.591589470056
 21
986.8287491843304
 31
0.0
  0
LINE
  5
19C
330
1F
100
AcDbEntity
  8
0-0
  6
JWW_DASHED1
 62
   120
370
     5
100
AcDbLine
 10
-626.755196384514
 20
883.7362100831582
 30
0.0
 11
-523.6626572833372
 21
986.8287491843346
 31
0.0
  0
LINE
  5
19D
330
1F
100
AcDbEntity
  8
0-0
  6
JWW_DASHED1
 62
   120
370
     5
100
AcDbLine
 10
-626.755196384518
 20
890.8072778964397
 30
0.0
 11
-530.7337250966184
 21
986.8287491843389
 31
0.0
  0
LINE
  5
19E
330
1F
100
AcDbEntity
  8
0-0
  6
JWW_DASHED1
 62
   120
370
     5
100
AcDbLine
 10
-626.755196384522
 20
897.878345709721
 30
0.0
 11
-537.8047929098999
 21
986.8287491843431
 31
0.0
  0
LINE
  5
19F
330
1F
100
AcDbEntity
  8
0-0
  6
JWW_DASHED1
 62
   120
370
     5
100
AcDbLine
 10
-626.7551963845262
 20
904.9494135230022
 30
0.0
 11
-544.8758607231811
 21
986.8287491843474
 31
0.0
  0
LINE
  5
1A0
330
1F
100
AcDbEntity
  8
0-0
  6
JWW_DASHED1
 62
   120
370
     5
100
AcDbLine
 10
-626.7551963845294
 20
912.0204813362843
 30
0.0
 11
-551.9469285364672
 21
986.8287491843465
 31
0.0
  0
LINE
  5
1A1
330
1F
100
AcDbEntity
  8
0-0
  6
JWW_DASHED1
 62
   120
370
     5
100
AcDbLine
 10
-626.7551963845335
 20
919.0915491495659
 30
0.0
 11
-559.017996349748
 21
986.8287491843516
 31
0.0
  0
LINE
  5
1A2
330
1F
100
AcDbEntity
  8
0-0
  6
JWW_DASHED1
 62
   120
370
     5
100
AcDbLine
 10
-626.7551963845065
 20
926.1626169628782
 30
0.0
 11
-566.0890641630567
 21
986.8287491843282
 31
0.0
  0
LINE
  5
1A3
330
1F
100
AcDbEntity
  8
0-0
  6
JWW_DASHED1
 62
   120
370
     5
100
AcDbLine
 10
-626.7551963845107
 20
933.2336847761594
 30
0.0
 11
-573.1601319763379
 21
986.8287491843325
 31
0.0
  0
LINE
  5
1A4
330
1F
100
AcDbEntity
  8
0-0
  6
JWW_DASHED1
 62
   120
370
     5
100
AcDbLine
 10
-626.755196384519
 20
940.3047525893824
 30
0.0
 11
-580.2311997895604
 21
986.8287491843411
 31
0.0
  0
LINE
  5
1A5
330
1F
100
AcDbEntity
  8
0-0
  6
JWW_DASHED1
 62
   120
370
     5
100
AcDbLine
 10
-626.7551963845231
 20
947.375820402664
 30
0.0
 11
-587.3022676028415
 21
986.8287491843453
 31
0.0
  0
LINE
  5
1A6
330
1F
100
AcDbEntity
  8
0-0
  6
JWW_DASHED1
 62
   120
370
     5
100
AcDbLine
 10
-626.7551963845272
 20
954.4468882159451
 30
0.0
 11
-594.3733354161229
 21
986.8287491843491
 31
0.0
  0
LINE
  5
1A7
330
1F
100
AcDbEntity
  8
0-0
  6
JWW_DASHED1
 62
   120
370
     5
100
AcDbLine
 10
-626.7551963845308
 20
961.5179560292272
 30
0.0
 11
-601.4444032294059
 21
986.8287491843516
 31
0.0
  0
LINE
  5
1A8
330
1F
100
AcDbEntity
  8
0-0
  6
JWW_DASHED1
 62
   120
370
     5
100
AcDbLine
 10
-626.7551963845192
 20
968.5890238425238
 30
0.0
 11
-608.5154710427023
 21
986.8287491843406
 31
0.0
  0
LINE
  5
1A9
330
1F
100
AcDbEntity
  8
0-0
  6
JWW_DASHED1
 62
   120
370
     5
100
AcDbLine
 10
-626.7551963845073
 20
975.6600916558212
 30
0.0
 11
-615.5865388559984
 21
986.8287491843304
 31
0.0
  0
LINE
  5
1AA
330
1F
100
AcDbEntity
  8
0-0
  6
JWW_DASHED1
 62
   120
370
     5
100
AcDbLine
 10
-626.7551963845114
 20
982.7311594691029
 30
0.0
 11
-622.6576066692796
 21
986.8287491843346
 31
0.0
  0
LINE
  5
1AB
330
1F
100
AcDbEntity
  8
0-0
  6
JWW_DASHED1
 62
   120
370
     5
100
AcDbLine
 10
-40.05299143224887
 20
-920.1712508156755
 30
0.0
 11
-36.75519638449997
 21
-916.8734557679265
 31
0.0
  0
LINE
  5
1AC
330
1F
100
AcDbEntity
  8
0-0
  6
JWW_DASHED1
 62
   120
370
     5
100
AcDbLine
 10
-47.12405924553009
 20
-920.1712508156712
 30
0.0
 11
-36.7551963845038
 21
-909.8023879546454
 31
0.0
  0
LINE
  5
1AD
330
1F
100
AcDbEntity
  8
0-0
  6
JWW_DASHED1
 62
   120
370
     5
100
AcDbLine
 10
-54.19512705881131
 20
-920.171250815667
 30
0.0
 11
-36.75519638450764
 21
-902.7313201413638
 31
0.0
  0
LINE
  5
1AE
330
1F
100
AcDbEntity
  8
0-0
  6
JWW_DASHED1
 62
   120
370
     5
100
AcDbLine
 10
-61.26619487209253
 20
-920.1712508156626
 30
0.0
 11
-36.7551963845119
 21
-895.660252328082
 31
0.0
  0
LINE
  5
1AF
330
1F
100
AcDbEntity
  8
0-0
  6
JWW_DASHED1
 62
   120
370
     5
100
AcDbLine
 10
-68.33726268537374
 20
-920.1712508156585
 30
0.0
 11
-36.75519638451574
 21
-888.5891845148009
 31
0.0
  0
LINE
  5
1B0
330
1F
100
AcDbEntity
  8
0-0
  6
JWW_DASHED1
 62
   120
370
     5
100
AcDbLine
 10
-75.40833049865496
 20
-920.1712508156546
 30
0.0
 11
-36.75519638452
 21
-881.5181167015193
 31
0.0
  0
LINE
  5
1B1
330
1F
100
AcDbEntity
  8
0-0
  6
JWW_DASHED1
 62
   120
370
     5
100
AcDbLine
 10
-82.47939831190634
 20
-920.1712508156746
 30
0.0
 11
-36.75519638449741
 21
-874.4470488882657
 31
0.0
  0
LINE
  5
1B2
330
1F
100
AcDbEntity
  8
0-0
  6
JWW_DASHED1
 62
   120
370
     5
100
AcDbLine
 10
-89.55046612519054
 20
-920.1712508156734
 30
0.0
 11
-36.75519638450082
 21
-867.3759810749837
 31
0.0
  0
LINE
  5
1B3
330
1F
100
AcDbEntity
  8
0-0
  6
JWW_DASHED1
 62
   120
370
     5
100
AcDbLine
 10
-96.62153393847176
 20
-920.171250815669
 30
0.0
 11
-36.75519638450466
 21
-860.3049132617024
 31
0.0
  0
LINE
  5
1B4
330
1F
100
AcDbEntity
  8
0-0
  6
JWW_DASHED1
 62
   120
370
     5
100
AcDbLine
 10
-103.692601751753
 20
-920.1712508156648
 30
0.0
 11
-36.75519638450849
 21
-853.2338454484208
 31
0.0
  0
LINE
  5
1B5
330
1F
100
AcDbEntity
  8
0-0
  6
JWW_DASHED1
 62
   120
370
     5
100
AcDbLine
 10
-110.7636695650342
 20
-920.171250815661
 30
0.0
 11
-36.75519638451276
 21
-846.1627776351392
 31
0.0
  0
LINE
  5
1B6
330
1F
100
AcDbEntity
  8
0-0
  6
JWW_DASHED1
 62
   120
370
     5
100
AcDbLine
 10
-117.8347373783154
 20
-920.1712508156568
 30
0.0
 11
-36.75519638451659
 21
-839.0917098218575
 31
0.0
  0
LINE
  5
1B7
330
1F
100
AcDbEntity
  8
0-0
  6
JWW_DASHED1
 62
   120
370
     5
100
AcDbLine
 10
-124.9058051915971
 20
-920.1712508156523
 30
0.0
 11
-36.75519638452128
 21
-832.0206420085767
 31
0.0
  0
LINE
  5
1B8
330
1F
100
AcDbEntity
  8
0-0
  6
JWW_DASHED1
 62
   120
370
     5
100
AcDbLine
 10
-131.9768730048783
 20
-920.1712508156482
 30
0.0
 11
-36.75519638452469
 21
-824.9495741952951
 31
0.0
  0
LINE
  5
1B9
330
1F
100
AcDbEntity
  8
0-0
  6
JWW_DASHED1
 62
   120
370
     5
100
AcDbLine
 10
-139.0479408181846
 20
-920.1712508156694
 30
0.0
 11
-36.75519638449826
 21
-817.8785063819827
 31
0.0
  0
LINE
  5
1BA
330
1F
100
AcDbEntity
  8
0-0
  6
JWW_DASHED1
 62
   120
370
     5
100
AcDbLine
 10
-146.1190086314722
 20
-920.1712508156717
 30
0.0
 11
-36.75519638450125
 21
-810.8074385687003
 31
0.0
  0
LINE
  5
1BB
330
1F
100
AcDbEntity
  8
0-0
  6
JWW_DASHED1
 62
   120
370
     5
100
AcDbLine
 10
-153.1900764446946
 20
-920.1712508156631
 30
0.0
 11
-36.75519638450935
 21
-803.7363707554779
 31
0.0
  0
LINE
  5
1BC
330
1F
100
AcDbEntity
  8
0-0
  6
JWW_DASHED1
 62
   120
370
     5
100
AcDbLine
 10
-160.2611442579763
 20
-920.1712508156588
 30
0.0
 11
-36.75519638451361
 21
-796.6653029421961
 31
0.0
  0
LINE
  5
1BD
330
1F
100
AcDbEntity
  8
0-0
  6
JWW_DASHED1
 62
   120
370
     5
100
AcDbLine
 10
-167.3322120712575
 20
-920.1712508156546
 30
0.0
 11
-36.75519638451787
 21
-789.594235128915
 31
0.0
  0
LINE
  5
1BE
330
1F
100
AcDbEntity
  8
0-0
  6
JWW_DASHED1
 62
   120
370
     5
100
AcDbLine
 10
-174.4032798845387
 20
-920.1712508156503
 30
0.0
 11
-36.75519638452214
 21
-782.5231673156337
 31
0.0
  0
LINE
  5
1BF
330
1F
100
AcDbEntity
  8
0-0
  6
JWW_DASHED1
 62
   120
370
     5
100
AcDbLine
 10
-181.4743476978421
 20
-920.1712508156687
 30
0.0
 11
-36.7551963844957
 21
-775.4520995023219
 31
0.0
  0
LINE
  5
1C0
330
1F
100
AcDbEntity
  8
0-0
  6
JWW_DASHED1
 62
   120
370
     5
100
AcDbLine
 10
-188.5454155111233
 20
-920.1712508156639
 30
0.0
 11
-36.75519638449954
 21
-768.3810316890406
 31
0.0
  0
LINE
  5
1C1
330
1F
100
AcDbEntity
  8
0-0
  6
JWW_DASHED1
 62
   120
370
     5
100
AcDbLine
 10
-195.6164833244139
 20
-920.171250815669
 30
0.0
 11
-36.7551963845021
 21
-761.3099638757573
 31
0.0
  0
LINE
  5
1C2
330
1F
100
AcDbEntity
  8
0-0
  6
JWW_DASHED1
 62
   120
370
     5
100
AcDbLine
 10
-202.6875511376951
 20
-920.1712508156648
 30
0.0
 11
-36.75519638450636
 21
-754.2388960624761
 31
0.0
  0
LINE
  5
1C3
330
1F
100
AcDbEntity
  8
0-0
  6
JWW_DASHED1
 62
   120
370
     5
100
AcDbLine
 10
-209.7586189509763
 20
-920.1712508156605
 30
0.0
 11
-36.75519638451063
 21
-747.1678282491947
 31
0.0
  0
LINE
  5
1C4
330
1F
100
AcDbEntity
  8
0-0
  6
JWW_DASHED1
 62
   120
370
     5
100
AcDbLine
 10
-216.8296867641991
 20
-920.1712508156523
 30
0.0
 11
-36.75519638451873
 21
-740.096760435972
 31
0.0
  0
LINE
  5
1C5
330
1F
100
AcDbEntity
  8
0-0
  6
JWW_DASHED1
 62
   120
370
     5
100
AcDbLine
 10
-223.9007545774804
 20
-920.1712508156482
 30
0.0
 11
-36.75519638452299
 21
-733.0256926226908
 31
0.0
  0
LINE
  5
1C6
330
1F
100
AcDbEntity
  8
0-0
  6
JWW_DASHED1
 62
   120
370
     5
100
AcDbLine
 10
-230.9718223907808
 20
-920.1712508156636
 30
0.0
 11
-36.75519638449656
 21
-725.9546248093789
 31
0.0
  0
LINE
  5
1C7
330
1F
100
AcDbEntity
  8
0-0
  6
JWW_DASHED1
 62
   120
370
     5
100
AcDbLine
 10
-238.0428902040616
 20
-920.1712508156585
 30
0.0
 11
-36.75519638450125
 21
-718.8835569960982
 31
0.0
  0
LINE
  5
1C8
330
1F
100
AcDbEntity
  8
0-0
  6
JWW_DASHED1
 62
   120
370
     5
100
AcDbLine
 10
-245.1139580173556
 20
-920.171250815667
 30
0.0
 11
-36.75519638450295
 21
-711.8124891828144
 31
0.0
  0
LINE
  5
1C9
330
1F
100
AcDbEntity
  8
0-0
  6
JWW_DASHED1
 62
   120
370
     5
100
AcDbLine
 10
-252.1850258306367
 20
-920.1712508156626
 30
0.0
 11
-36.75519638450722
 21
-704.741421369533
 31
0.0
  0
LINE
  5
1CA
330
1F
100
AcDbEntity
  8
0-0
  6
JWW_DASHED1
 62
   120
370
     5
100
AcDbLine
 10
-259.256093643918
 20
-920.1712508156588
 30
0.0
 11
-36.75519638451148
 21
-697.6703535562519
 31
0.0
  0
LINE
  5
1CB
330
1F
100
AcDbEntity
  8
0-0
  6
JWW_DASHED1
 62
   120
370
     5
100
AcDbLine
 10
-266.3271614571997
 20
-920.1712508156551
 30
0.0
 11
-36.75519638451532
 21
-690.5992857429707
 31
0.0
  0
LINE
  5
1CC
330
1F
100
AcDbEntity
  8
0-0
  6
JWW_DASHED1
 62
   120
370
     5
100
AcDbLine
 10
-273.3982292704809
 20
-920.1712508156503
 30
0.0
 11
-36.75519638451958
 21
-683.528217929689
 31
0.0
  0
LINE
  5
1CD
330
1F
100
AcDbEntity
  8
0-0
  6
JWW_DASHED1
 62
   120
370
     5
100
AcDbLine
 10
-280.4692970837199
 20
-920.1712508156585
 30
0.0
 11
-36.75519638449826
 21
-676.4571501164368
 31
0.0
  0
LINE
  5
1CE
330
1F
100
AcDbEntity
  8
0-0
  6
JWW_DASHED1
 62
   120
370
     5
100
AcDbLine
 10
-286.7551963845066
 20
-919.3860823031602
 30
0.0
 11
-36.75519638449997
 21
-669.3860823031533
 31
0.0
  0
LINE
  5
1CF
330
1F
100
AcDbEntity
  8
0-0
  6
JWW_DASHED1
 62
   120
370
     5
100
AcDbLine
 10
-286.7551963845109
 20
-912.3150144898785
 30
0.0
 11
-36.75519638450423
 21
-662.3150144898718
 31
0.0
  0
LINE
  5
1D0
330
1F
100
AcDbEntity
  8
0-0
  6
JWW_DASHED1
 62
   120
370
     5
100
AcDbLine
 10
-286.7551963845151
 20
-905.2439466765971
 30
0.0
 11
-36.75519638450807
 21
-655.2439466765906
 31
0.0
  0
LINE
  5
1D1
330
1F
100
AcDbEntity
  8
0-0
  6
JWW_DASHED1
 62
   120
370
     5
100
AcDbLine
 10
-286.755196384519
 20
-898.1728788633156
 30
0.0
 11
-36.75519638451233
 21
-648.1728788633089
 31
0.0
  0
LINE
  5
1D2
330
1F
100
AcDbEntity
  8
0-0
  6
JWW_DASHED1
 62
   120
370
     5
100
AcDbLine
 10
-286.7551963845233
 20
-891.1018110500344
 30
0.0
 11
-36.75519638451617
 21
-641.1018110500278
 31
0.0
  0
LINE
  5
1D3
330
1F
100
AcDbEntity
  8
0-0
  6
JWW_DASHED1
 62
   120
370
     5
100
AcDbLine
 10
-286.755196384527
 20
-884.0307432367528
 30
0.0
 11
-36.75519638452
 21
-634.030743236746
 31
0.0
  0
LINE
  5
1D4
330
1F
100
AcDbEntity
  8
0-0
  6
JWW_DASHED1
 62
   120
370
     5
100
AcDbLine
 10
-286.7551963845314
 20
-876.9596754234716
 30
0.0
 11
-36.75519638452427
 21
-626.9596754234649
 31
0.0
  0
LINE
  5
1D5
330
1F
100
AcDbEntity
  8
0-0
  6
JWW_DASHED1
 62
   120
370
     5
100
AcDbLine
 10
-286.7551963845199
 20
-869.8886076101745
 30
0.0
 11
-36.75519638449954
 21
-619.8886076101543
 31
0.0
  0
LINE
  5
1D6
330
1F
100
AcDbEntity
  8
0-0
  6
JWW_DASHED1
 62
   120
370
     5
100
AcDbLine
 10
-286.7551963845079
 20
-862.8175397968771
 30
0.0
 11
-36.75519638450039
 21
-612.81753979687
 31
0.0
  0
LINE
  5
1D7
330
1F
100
AcDbEntity
  8
0-0
  6
JWW_DASHED1
 62
   120
370
     5
100
AcDbLine
 10
-286.755196384516
 20
-855.7464719836544
 30
0.0
 11
-36.75519638450892
 21
-605.7464719836477
 31
0.0
  0
LINE
  5
1D8
330
1F
100
AcDbEntity
  8
0-0
  6
JWW_DASHED1
 62
   120
370
     5
100
AcDbLine
 10
-286.7551963845202
 20
-848.6754041703731
 30
0.0
 11
-36.75519638451297
 21
-598.675404170366
 31
0.0
  0
LINE
  5
1D9
330
1F
100
AcDbEntity
  8
0-0
  6
JWW_DASHED1
 62
   120
370
     5
100
AcDbLine
 10
-286.7551963845241
 20
-841.6043363570915
 30
0.0
 11
-36.75519638451723
 21
-591.6043363570847
 31
0.0
  0
LINE
  5
1DA
330
1F
100
AcDbEntity
  8
0-0
  6
JWW_DASHED1
 62
   120
370
     5
100
AcDbLine
 10
-286.7551963845279
 20
-834.5332685438099
 30
0.0
 11
-36.75519638452064
 21
-584.5332685438026
 31
0.0
  0
LINE
  5
1DB
330
1F
100
AcDbEntity
  8
0-0
  6
JWW_DASHED1
 62
   120
370
     5
100
AcDbLine
 10
-286.7551963845173
 20
-827.4622007305137
 30
0.0
 11
-36.75519638449634
 21
-577.4622007304926
 31
0.0
  0
LINE
  5
1DC
330
1F
100
AcDbEntity
  8
0-0
  6
JWW_DASHED1
 62
   120
370
     5
100
AcDbLine
 10
-286.7551963845211
 20
-820.3911329172324
 30
0.0
 11
-36.75519638450039
 21
-570.3911329172112
 31
0.0
  0
LINE
  5
1DD
330
1F
100
AcDbEntity
  8
0-0
  6
JWW_DASHED1
 62
   120
370
     5
100
AcDbLine
 10
-286.7551963845088
 20
-813.3200651039342
 30
0.0
 11
-36.75519638450125
 21
-563.3200651039267
 31
0.0
  0
LINE
  5
1DE
330
1F
100
AcDbEntity
  8
0-0
  6
JWW_DASHED1
 62
   120
370
     5
100
AcDbLine
 10
-286.7551963845126
 20
-806.2489972906526
 30
0.0
 11
-36.75519638450551
 21
-556.2489972906454
 31
0.0
  0
LINE
  5
1DF
330
1F
100
AcDbEntity
  8
0-0
  6
JWW_DASHED1
 62
   120
370
     5
100
AcDbLine
 10
-286.7551963845165
 20
-799.1779294773709
 30
0.0
 11
-36.75519638450977
 21
-549.1779294773643
 31
0.0
  0
LINE
  5
1E0
330
1F
100
AcDbEntity
  8
0-0
  6
JWW_DASHED1
 62
   120
370
     5
100
AcDbLine
 10
-286.755196384525
 20
-792.1068616641485
 30
0.0
 11
-36.75519638451809
 21
-542.1068616641419
 31
0.0
  0
LINE
  5
1E1
330
1F
100
AcDbEntity
  8
0-0
  6
JWW_DASHED1
 62
   120
370
     5
100
AcDbLine
 10
-286.7551963845287
 20
-785.0357938508668
 30
0.0
 11
-36.75519638452214
 21
-535.0357938508606
 31
0.0
  0
LINE
  5
1E2
330
1F
100
AcDbEntity
  8
0-0
  6
JWW_DASHED1
 62
   120
370
     5
100
AcDbLine
 10
-286.7551963845185
 20
-777.964726037571
 30
0.0
 11
-36.75519638449741
 21
-527.9647260375505
 31
0.0
  0
LINE
  5
1E3
330
1F
100
AcDbEntity
  8
0-0
  6
JWW_DASHED1
 62
   120
370
     5
100
AcDbLine
 10
-286.7551963845224
 20
-770.8936582242895
 30
0.0
 11
-36.75519638450167
 21
-520.8936582242687
 31
0.0
  0
LINE
  5
1E4
330
1F
100
AcDbEntity
  8
0-0
  6
JWW_DASHED1
 62
   120
370
     5
100
AcDbLine
 10
-286.7551963845096
 20
-763.8225904109912
 30
0.0
 11
-36.75519638450274
 21
-513.8225904109846
 31
0.0
  0
LINE
  5
1E5
330
1F
100
AcDbEntity
  8
0-0
  6
JWW_DASHED1
 62
   120
370
     5
100
AcDbLine
 10
-286.7551963845134
 20
-756.75152259771
 30
0.0
 11
-36.75519638450636
 21
-506.7515225977025
 31
0.0
  0
LINE
  5
1E6
330
1F
100
AcDbEntity
  8
0-0
  6
JWW_DASHED1
 62
   120
370
     5
100
AcDbLine
 10
-286.7551963845177
 20
-749.6804547844284
 30
0.0
 11
-36.75519638451063
 21
-499.6804547844213
 31
0.0
  0
LINE
  5
1E7
330
1F
100
AcDbEntity
  8
0-0
  6
JWW_DASHED1
 62
   120
370
     5
100
AcDbLine
 10
-286.7551963845216
 20
-742.6093869711467
 30
0.0
 11
-36.75519638451468
 21
-492.6093869711401
 31
0.0
  0
LINE
  5
1E8
330
1F
100
AcDbEntity
  8
0-0
  6
JWW_DASHED1
 62
   120
370
     5
100
AcDbLine
 10
-286.7551963845253
 20
-735.5383191578655
 30
0.0
 11
-36.75519638451873
 21
-485.5383191578584
 31
0.0
  0
LINE
  5
1E9
330
1F
100
AcDbEntity
  8
0-0
  6
JWW_DASHED1
 62
   120
370
     5
100
AcDbLine
 10
-286.7551963845297
 20
-728.4672513445843
 30
0.0
 11
-36.75519638452256
 21
-478.4672513445768
 31
0.0
  0
LINE
  5
1EA
330
1F
100
AcDbEntity
  8
0-0
  6
JWW_DASHED1
 62
   120
370
     5
100
AcDbLine
 10
-286.7551963845062
 20
-721.3961835313299
 30
0.0
 11
-36.75519638449954
 21
-471.3961835313228
 31
0.0
  0
LINE
  5
1EB
330
1F
100
AcDbEntity
  8
0-0
  6
JWW_DASHED1
 62
   120
370
     5
100
AcDbLine
 10
-286.7551963845105
 20
-714.3251157180483
 30
0.0
 11
-36.75519638450359
 21
-464.3251157180416
 31
0.0
  0
LINE
  5
1EC
330
1F
100
AcDbEntity
  8
0-0
  6
JWW_DASHED1
 62
   120
370
     5
100
AcDbLine
 10
-286.7551963845143
 20
-707.254047904767
 30
0.0
 11
-36.75519638450722
 21
-457.2540479047595
 31
0.0
  0
LINE
  5
1ED
330
1F
100
AcDbEntity
  8
0-0
  6
JWW_DASHED1
 62
   120
370
     5
100
AcDbLine
 10
-286.7551963845185
 20
-700.1829800914853
 30
0.0
 11
-36.75519638451148
 21
-450.1829800914783
 31
0.0
  0
LINE
  5
1EE
330
1F
100
AcDbEntity
  8
0-0
  6
JWW_DASHED1
 62
   120
370
     5
100
AcDbLine
 10
-286.7551963845224
 20
-693.1119122782043
 30
0.0
 11
-36.75519638451553
 21
-443.1119122781971
 31
0.0
  0
LINE
  5
1EF
330
1F
100
AcDbEntity
  8
0-0
  6
JWW_DASHED1
 62
   120
370
     5
100
AcDbLine
 10
-286.7551963845262
 20
-686.0408444649225
 30
0.0
 11
-36.75519638451958
 21
-436.0408444649154
 31
0.0
  0
LINE
  5
1F0
330
1F
100
AcDbEntity
  8
0-0
  6
JWW_DASHED1
 62
   120
370
     5
100
AcDbLine
 10
-286.7551963845304
 20
-678.9697766516409
 30
0.0
 11
-36.75519638452342
 21
-428.9697766516338
 31
0.0
  0
LINE
  5
1F1
330
1F
100
AcDbEntity
  8
0-0
  6
JWW_DASHED1
 62
   120
370
     5
100
AcDbLine
 10
-286.7551963845211
 20
-671.8987088383461
 30
0.0
 11
-36.75519638449975
 21
-421.8987088383249
 31
0.0
  0
LINE
  5
1F2
330
1F
100
AcDbEntity
  8
0-0
  6
JWW_DASHED1
 62
   120
370
     5
100
AcDbLine
 10
-286.7551963845071
 20
-664.8276410250465
 30
0.0
 11
-36.75519638450018
 21
-414.8276410250398
 31
0.0
  0
LINE
  5
1F3
330
1F
100
AcDbEntity
  8
0-0
  6
JWW_DASHED1
 62
   120
370
     5
100
AcDbLine
 10
-286.7551963845151
 20
-657.7565732118242
 30
0.0
 11
-36.75519638450828
 21
-407.7565732118171
 31
0.0
  0
LINE
  5
1F4
330
1F
100
AcDbEntity
  8
0-0
  6
JWW_DASHED1
 62
   120
370
     5
100
AcDbLine
 10
-286.7551963845194
 20
-650.6855053985425
 30
0.0
 11
-36.75519638451233
 21
-400.6855053985354
 31
0.0
  0
LINE
  5
1F5
330
1F
100
AcDbEntity
  8
0-0
  6
JWW_DASHED1
 62
   120
370
     5
100
AcDbLine
 10
-286.7551963845233
 20
-643.6144375852613
 30
0.0
 11
-36.75519638451638
 21
-393.6144375852542
 31
0.0
  0
LINE
  5
1F6
330
1F
100
AcDbEntity
  8
0-0
  6
JWW_DASHED1
 62
   120
370
     5
100
AcDbLine
 10
-286.755196384527
 20
-636.5433697719797
 30
0.0
 11
-36.75519638452064
 21
-386.5433697719729
 31
0.0
  0
LINE
  5
1F7
330
1F
100
AcDbEntity
  8
0-0
  6
JWW_DASHED1
 62
   120
370
     5
100
AcDbLine
 10
-286.7551963845314
 20
-629.472301958698
 30
0.0
 11
-36.75519638450849
 21
-379.4723019586755
 31
0.0
  0
LINE
  5
1F8
330
1F
100
AcDbEntity
  8
0-0
  6
JWW_DASHED1
 62
   120
370
     5
100
AcDbLine
 10
-286.7551963845219
 20
-622.401234145403
 30
0.0
 11
-36.75519638450125
 21
-372.4012341453824
 31
0.0
  0
LINE
  5
1F9
330
1F
100
AcDbEntity
  8
0-0
  6
JWW_DASHED1
 62
   120
370
     5
100
AcDbLine
 10
-286.7551963845079
 20
-615.3301663321035
 30
0.0
 11
-36.75519638450103
 21
-365.3301663320969
 31
0.0
  0
LINE
  5
1FA
330
1F
100
AcDbEntity
  8
0-0
  6
JWW_DASHED1
 62
   120
370
     5
100
AcDbLine
 10
-286.7551963845122
 20
-608.2590985188224
 30
0.0
 11
-36.75519638450487
 21
-358.2590985188148
 31
0.0
  0
LINE
  5
1FB
330
1F
100
AcDbEntity
  8
0-0
  6
JWW_DASHED1
 62
   120
370
     5
100
AcDbLine
 10
-286.755196384516
 20
-601.1880307055408
 30
0.0
 11
-36.75519638450892
 21
-351.1880307055336
 31
0.0
  0
LINE
  5
1FC
330
1F
100
AcDbEntity
  8
0-0
  6
JWW_DASHED1
 62
   120
370
     5
100
AcDbLine
 10
-286.7551963845241
 20
-594.1169628923179
 30
0.0
 11
-36.75519638451723
 21
-344.1169628923112
 31
0.0
  0
LINE
  5
1FD
330
1F
100
AcDbEntity
  8
0-0
  6
JWW_DASHED1
 62
   120
370
     5
100
AcDbLine
 10
-286.7551963845279
 20
-587.0458950790367
 30
0.0
 11
-36.7551963845215
 21
-337.04589507903
 31
0.0
  0
LINE
  5
1FE
330
1F
100
AcDbEntity
  8
0-0
  6
JWW_DASHED1
 62
   120
370
     5
100
AcDbLine
 10
-286.7551963845194
 20
-579.9748272657423
 30
0.0
 11
-36.7551963844989
 21
-329.9748272657215
 31
0.0
  0
LINE
  5
1FF
330
1F
100
AcDbEntity
  8
0-0
  6
JWW_DASHED1
 62
   120
370
     5
100
AcDbLine
 10
-286.7551963845233
 20
-572.9037594524606
 30
0.0
 11
-36.75519638450274
 21
-322.9037594524403
 31
0.0
  0
LINE
  5
200
330
1F
100
AcDbEntity
  8
0-0
  6
JWW_DASHED1
 62
   120
370
     5
100
AcDbLine
 10
-286.7551963845088
 20
-565.8326916391607
 30
0.0
 11
-36.75519638450167
 21
-315.8326916391539
 31
0.0
  0
LINE
  5
201
330
1F
100
AcDbEntity
  8
0-0
  6
JWW_DASHED1
 62
   120
370
     5
100
AcDbLine
 10
-286.7551963845131
 20
-558.7616238258794
 30
0.0
 11
-36.75519638450572
 21
-308.7616238258719
 31
0.0
  0
LINE
  5
202
330
1F
100
AcDbEntity
  8
0-0
  6
JWW_DASHED1
 62
   120
370
     5
100
AcDbLine
 10
-286.7551963845168
 20
-551.6905560125978
 30
0.0
 11
-36.75519638450977
 21
-301.6905560125907
 31
0.0
  0
LINE
  5
203
330
1F
100
AcDbEntity
  8
0-0
  6
JWW_DASHED1
 62
   120
370
     5
100
AcDbLine
 10
-286.7551963845207
 20
-544.6194881993162
 30
0.0
 11
-36.75519638451404
 21
-294.6194881993094
 31
0.0
  0
LINE
  5
204
330
1F
100
AcDbEntity
  8
0-0
  6
JWW_DASHED1
 62
   120
370
     5
100
AcDbLine
 10
-286.755196384525
 20
-537.5484203860349
 30
0.0
 11
-36.75519638451766
 21
-287.5484203860277
 31
0.0
  0
LINE
  5
205
330
1F
100
AcDbEntity
  8
0-0
  6
JWW_DASHED1
 62
   120
370
     5
100
AcDbLine
 10
-286.7551963845293
 20
-530.4773525727537
 30
0.0
 11
-36.75519638452171
 21
-280.4773525727462
 31
0.0
  0
LINE
  5
206
330
1F
100
AcDbEntity
  8
0-0
  6
JWW_DASHED1
 62
   120
370
     5
100
AcDbLine
 10
-286.7551963845216
 20
-523.4062847595151
 30
0.0
 11
-36.75519638449869
 21
-273.4062847594922
 31
0.0
  0
LINE
  5
207
330
1F
100
AcDbEntity
  8
0-0
  6
JWW_DASHED1
 62
   120
370
     5
100
AcDbLine
 10
-286.7551963845096
 20
-516.3352169462177
 30
0.0
 11
-36.75519638450295
 21
-266.335216946211
 31
0.0
  0
LINE
  5
208
330
1F
100
AcDbEntity
  8
0-0
  6
JWW_DASHED1
 62
   120
370
     5
100
AcDbLine
 10
-286.7551963845139
 20
-509.2641491329365
 30
0.0
 11
-36.75519638450679
 21
-259.2641491329298
 31
0.0
  0
LINE
  5
209
330
1F
100
AcDbEntity
  8
0-0
  6
JWW_DASHED1
 62
   120
370
     5
100
AcDbLine
 10
-286.7551963845177
 20
-502.1930813196553
 30
0.0
 11
-36.75519638451063
 21
-252.1930813196477
 31
0.0
  0
LINE
  5
20A
330
1F
100
AcDbEntity
  8
0-0
  6
JWW_DASHED1
 62
   120
370
     5
100
AcDbLine
 10
-286.7551963845216
 20
-495.1220135063732
 30
0.0
 11
-36.75519638451489
 21
-245.1220135063665
 31
0.0
  0
LINE
  5
20B
330
1F
100
AcDbEntity
  8
0-0
  6
JWW_DASHED1
 62
   120
370
     5
100
AcDbLine
 10
-286.7551963845258
 20
-488.050945693092
 30
0.0
 11
-36.75519638451915
 21
-238.0509456930853
 31
0.0
  0
LINE
  5
20C
330
1F
100
AcDbEntity
  8
0-0
  6
JWW_DASHED1
 62
   120
370
     5
100
AcDbLine
 10
-286.7551963845301
 20
-480.9798778798108
 30
0.0
 11
-36.75519638452256
 21
-230.9798778798032
 31
0.0
  0
LINE
  5
20D
330
1F
100
AcDbEntity
  8
0-0
  6
JWW_DASHED1
 62
   120
370
     5
100
AcDbLine
 10
-286.7551963845216
 20
-473.9088100665172
 30
0.0
 11
-36.75519638450082
 21
-223.9088100664964
 31
0.0
  0
LINE
  5
20E
330
1F
100
AcDbEntity
  8
0-0
  6
JWW_DASHED1
 62
   120
370
     5
100
AcDbLine
 10
-286.7551963845062
 20
-466.8377422532163
 30
0.0
 11
-36.75519638449933
 21
-216.8377422532092
 31
0.0
  0
LINE
  5
20F
330
1F
100
AcDbEntity
  8
0-0
  6
JWW_DASHED1
 62
   120
370
     5
100
AcDbLine
 10
-286.7551963845148
 20
-459.7666744399936
 30
0.0
 11
-36.75519638450764
 21
-209.7666744399868
 31
0.0
  0
LINE
  5
210
330
1F
100
AcDbEntity
  8
0-0
  6
JWW_DASHED1
 62
   120
370
     5
100
AcDbLine
 10
-286.7551963845185
 20
-452.6956066267122
 30
0.0
 11
-36.7551963845119
 21
-202.6956066267052
 31
0.0
  0
LINE
  5
211
330
1F
100
AcDbEntity
  8
0-0
  6
JWW_DASHED1
 62
   120
370
     5
100
AcDbLine
 10
-286.7551963845228
 20
-445.6245388134307
 30
0.0
 11
-36.75519638451574
 21
-195.6245388134236
 31
0.0
  0
LINE
  5
212
330
1F
100
AcDbEntity
  8
0-0
  6
JWW_DASHED1
 62
   120
370
     5
100
AcDbLine
 10
-286.7551963845267
 20
-438.5534710001494
 30
0.0
 11
-36.75519638451979
 21
-188.5534710001423
 31
0.0
  0
LINE
  5
213
330
1F
100
AcDbEntity
  8
0-0
  6
JWW_DASHED1
 62
   120
370
     5
100
AcDbLine
 10
-286.755196384531
 20
-431.4824031868677
 30
0.0
 11
-36.75519638452384
 21
-181.4824031868607
 31
0.0
  0
LINE
  5
214
330
1F
100
AcDbEntity
  8
0-0
  6
JWW_DASHED1
 62
   120
370
     5
100
AcDbLine
 10
-286.7551963845228
 20
-424.4113353735742
 30
0.0
 11
-36.75519638450231
 21
-174.4113353735539
 31
0.0
  0
LINE
  5
215
330
1F
100
AcDbEntity
  8
0-0
  6
JWW_DASHED1
 62
   120
370
     5
100
AcDbLine
 10
-286.7551963845071
 20
-417.3402675602734
 30
0.0
 11
-36.75519638450018
 21
-167.3402675602663
 31
0.0
  0
LINE
  5
216
330
1F
100
AcDbEntity
  8
0-0
  6
JWW_DASHED1
 62
   120
370
     5
100
AcDbLine
 10
-286.7551963845114
 20
-410.2691997469918
 30
0.0
 11
-36.75519638450402
 21
-160.2691997469846
 31
0.0
  0
LINE
  5
217
330
1F
100
AcDbEntity
  8
0-0
  6
JWW_DASHED1
 62
   120
370
     5
100
AcDbLine
 10
-286.7551963845151
 20
-403.1981319337101
 30
0.0
 11
-36.75519638450828
 21
-153.1981319337034
 31
0.0
  0
LINE
  5
218
330
1F
100
AcDbEntity
  8
0-0
  6
JWW_DASHED1
 62
   120
370
     5
100
AcDbLine
 10
-286.755196384519
 20
-396.1270641204289
 30
0.0
 11
-36.75519638451254
 21
-146.1270641204218
 31
0.0
  0
LINE
  5
219
330
1F
100
AcDbEntity
  8
0-0
  6
JWW_DASHED1
 62
   120
370
     5
100
AcDbLine
 10
-286.7551963845276
 20
-389.0559963072065
 30
0.0
 11
-36.75519638452064
 21
-139.0559963071994
 31
0.0
  0
LINE
  5
21A
330
1F
100
AcDbEntity
  8
0-0
  6
JWW_DASHED1
 62
   120
370
     5
100
AcDbLine
 10
-286.7551963845202
 20
-381.9849284939137
 30
0.0
 11
-36.75519638449954
 21
-131.9849284938926
 31
0.0
  0
LINE
  5
21B
330
1F
100
AcDbEntity
  8
0-0
  6
JWW_DASHED1
 62
   120
370
     5
100
AcDbLine
 10
-286.7551963845241
 20
-374.9138606806321
 30
0.0
 11
-36.7551963845038
 21
-124.9138606806114
 31
0.0
  0
LINE
  5
21C
330
1F
100
AcDbEntity
  8
0-0
  6
JWW_DASHED1
 62
   120
370
     5
100
AcDbLine
 10
-286.7551963845079
 20
-367.84279286733
 30
0.0
 11
-36.75519638450103
 21
-117.8427928673233
 31
0.0
  0
LINE
  5
21D
330
1F
100
AcDbEntity
  8
0-0
  6
JWW_DASHED1
 62
   120
370
     5
100
AcDbLine
 10
-286.7551963845122
 20
-360.7717250540487
 30
0.0
 11
-36.75519638450487
 21
-110.7717250540417
 31
0.0
  0
LINE
  5
21E
330
1F
100
AcDbEntity
  8
0-0
  6
JWW_DASHED1
 62
   120
370
     5
100
AcDbLine
 10
-286.755196384516
 20
-353.7006572407672
 30
0.0
 11
-36.75519638450913
 21
-103.7006572407605
 31
0.0
  0
LINE
  5
21F
330
1F
100
AcDbEntity
  8
0-0
  6
JWW_DASHED1
 62
   120
370
     5
100
AcDbLine
 10
-286.75519638452
 20
-346.6295894274859
 30
0.0
 11
-36.7551963845134
 21
-96.62958942747882
 31
0.0
  0
LINE
  5
220
330
1F
100
AcDbEntity
  8
0-0
  6
JWW_DASHED1
 62
   120
370
     5
100
AcDbLine
 10
-286.7551963845241
 20
-339.5585216142047
 30
0.0
 11
-36.75519638451723
 21
-89.5585216141976
 31
0.0
  0
LINE
  5
221
330
1F
100
AcDbEntity
  8
0-0
  6
JWW_DASHED1
 62
   120
370
     5
100
AcDbLine
 10
-286.7551963845284
 20
-332.4874538009231
 30
0.0
 11
-36.75519638452107
 21
-82.48745380091596
 31
0.0
  0
LINE
  5
222
330
1F
100
AcDbEntity
  8
0-0
  6
JWW_DASHED1
 62
   120
370
     5
100
AcDbLine
 10
-286.7551963845258
 20
-325.4163859876895
 30
0.0
 11
-36.75519638450487
 21
-75.41638598766885
 31
0.0
  0
LINE
  5
223
330
1F
100
AcDbEntity
  8
0-0
  6
JWW_DASHED1
 62
   120
370
     5
100
AcDbLine
 10
-286.7551963845088
 20
-318.3453181743875
 30
0.0
 11
-36.7551963845021
 21
-68.34531817438038
 31
0.0
  0
LINE
  5
224
330
1F
100
AcDbEntity
  8
0-0
  6
JWW_DASHED1
 62
   120
370
     5
100
AcDbLine
 10
-286.7551963845131
 20
-311.2742503611063
 30
0.0
 11
-36.75519638450636
 21
-61.27425036109916
 31
0.0
  0
LINE
  5
225
330
1F
100
AcDbEntity
  8
0-0
  6
JWW_DASHED1
 62
   120
370
     5
100
AcDbLine
 10
-286.7551963845173
 20
-304.2031825478246
 30
0.0
 11
-36.75519638450999
 21
-54.20318254781752
 31
0.0
  0
LINE
  5
226
330
1F
100
AcDbEntity
  8
0-0
  6
JWW_DASHED1
 62
   120
370
     5
100
AcDbLine
 10
-286.7551963845214
 20
-297.1321147345434
 30
0.0
 11
-36.75519638451425
 21
-47.13211473453588
 31
0.0
  0
LINE
  5
227
330
1F
100
AcDbEntity
  8
0-0
  6
JWW_DASHED1
 62
   120
370
     5
100
AcDbLine
 10
-286.755196384525
 20
-290.0610469212618
 30
0.0
 11
-36.7551963845183
 21
-40.06104692125466
 31
0.0
  0
LINE
  5
228
330
1F
100
AcDbEntity
  8
0-0
  6
JWW_DASHED1
 62
   120
370
     5
100
AcDbLine
 10
-286.7551963845293
 20
-282.98997910798
 30
0.0
 11
-36.75519638452192
 21
-32.98997910797301
 31
0.0
  0
LINE
  5
229
330
1F
100
AcDbEntity
  8
0-0
  6
JWW_DASHED1
 62
   120
370
     5
100
AcDbLine
 10
-286.7551963845228
 20
-275.9189112946883
 30
0.0
 11
-36.7551963845021
 21
-25.9189112946675
 31
0.0
  0
LINE
  5
22A
330
1F
100
AcDbEntity
  8
0-0
  6
JWW_DASHED1
 62
   120
370
     5
100
AcDbLine
 10
-286.7551963845056
 20
-268.8478434813857
 30
0.0
 11
-36.75519638449869
 21
-18.8478434813786
 31
0.0
  0
LINE
  5
22B
330
1F
100
AcDbEntity
  8
0-0
  6
JWW_DASHED1
 62
   120
370
     5
100
AcDbLine
 10
-286.7551963845139
 20
-261.7767756681628
 30
0.0
 11
-36.75519638450722
 21
-11.77677566815622
 31
0.0
  0
LINE
  5
22C
330
1F
100
AcDbEntity
  8
0-0
  6
JWW_DASHED1
 62
   120
370
     5
100
AcDbLine
 10
-286.7551963845182
 20
-254.7057078548817
 30
0.0
 11
-36.75519638451105
 21
-4.705707854875003
 31
0.0
  0
LINE
  5
22D
330
1F
100
AcDbEntity
  8
0-0
  6
JWW_DASHED1
 62
   120
370
     5
100
AcDbLine
 10
-286.7551963845222
 20
-247.6346400416004
 30
0.0
 11
-36.75519638451489
 21
2.365359958407067
 31
0.0
  0
LINE
  5
22E
330
1F
100
AcDbEntity
  8
0-0
  6
JWW_DASHED1
 62
   120
370
     5
100
AcDbLine
 10
-286.7551963845258
 20
-240.5635722283188
 30
0.0
 11
-36.75519638451915
 21
9.436427771688285
 31
0.0
  0
LINE
  5
22F
330
1F
100
AcDbEntity
  8
0-0
  6
JWW_DASHED1
 62
   120
370
     5
100
AcDbLine
 10
-286.7551963845301
 20
-233.4925044150372
 30
0.0
 11
-36.75519638452299
 21
16.5074955849695
 31
0.0
  0
LINE
  5
230
330
1F
100
AcDbEntity
  8
0-0
  6
JWW_DASHED1
 62
   120
370
     5
100
AcDbLine
 10
-286.7551963845239
 20
-226.4214366017457
 30
0.0
 11
-36.75519638450338
 21
23.5785633982746
 31
0.0
  0
LINE
  5
231
330
1F
100
AcDbEntity
  8
0-0
  6
JWW_DASHED1
 62
   120
370
     5
100
AcDbLine
 10
-286.7551963845064
 20
-219.3503687884428
 30
0.0
 11
-36.75519638449911
 21
30.64963121156434
 31
0.0
  0
LINE
  5
232
330
1F
100
AcDbEntity
  8
0-0
  6
JWW_DASHED1
 62
   120
370
     5
100
AcDbLine
 10
-286.7551963845107
 20
-212.2793009751616
 30
0.0
 11
-36.75519638450338
 21
37.72069902484556
 31
0.0
  0
LINE
  5
233
330
1F
100
AcDbEntity
  8
0-0
  6
JWW_DASHED1
 62
   120
370
     5
100
AcDbLine
 10
-286.7551963845145
 20
-205.2082331618799
 30
0.0
 11
-36.75519638450764
 21
44.7917668381272
 31
0.0
  0
LINE
  5
234
330
1F
100
AcDbEntity
  8
0-0
  6
JWW_DASHED1
 62
   120
370
     5
100
AcDbLine
 10
-286.7551963845188
 20
-198.1371653485983
 30
0.0
 11
-36.75519638451169
 21
51.86283465140842
 31
0.0
  0
LINE
  5
235
330
1F
100
AcDbEntity
  8
0-0
  6
JWW_DASHED1
 62
   120
370
     5
100
AcDbLine
 10
-286.7551963845269
 20
-191.0660975353759
 30
0.0
 11
-36.75519638452
 21
58.93390246463123
 31
0.0
  0
LINE
  5
236
330
1F
100
AcDbEntity
  8
0-0
  6
JWW_DASHED1
 62
   120
370
     5
100
AcDbLine
 10
-286.7551963845211
 20
-183.9950297220844
 30
0.0
 11
-36.75519638450061
 21
66.0049702779359
 31
0.0
  0
LINE
  5
237
330
1F
100
AcDbEntity
  8
0-0
  6
JWW_DASHED1
 62
   120
370
     5
100
AcDbLine
 10
-286.7551963845253
 20
-176.9239619088032
 30
0.0
 11
-36.75519638450487
 21
73.07603809121711
 31
0.0
  0
LINE
  5
238
330
1F
100
AcDbEntity
  8
0-0
  6
JWW_DASHED1
 62
   120
370
     5
100
AcDbLine
 10
-286.7551963845073
 20
-169.8528940954998
 30
0.0
 11
-36.75519638450061
 21
80.14710590450686
 31
0.0
  0
LINE
  5
239
330
1F
100
AcDbEntity
  8
0-0
  6
JWW_DASHED1
 62
   120
370
     5
100
AcDbLine
 10
-286.7551963845115
 20
-162.7818262822186
 30
0.0
 11
-36.75519638450444
 21
87.2181737177885
 31
0.0
  0
LINE
  5
23A
330
1F
100
AcDbEntity
  8
0-0
  6
JWW_DASHED1
 62
   120
370
     5
100
AcDbLine
 10
-286.7551963845156
 20
-155.7107584689374
 30
0.0
 11
-36.75519638450849
 21
94.28924153107015
 31
0.0
  0
LINE
  5
23B
330
1F
100
AcDbEntity
  8
0-0
  6
JWW_DASHED1
 62
   120
370
     5
100
AcDbLine
 10
-286.7551963845196
 20
-148.6396906556553
 30
0.0
 11
-36.75519638451254
 21
101.3603093443514
 31
0.0
  0
LINE
  5
23C
330
1F
100
AcDbEntity
  8
0-0
  6
JWW_DASHED1
 62
   120
370
     5
100
AcDbLine
 10
-286.7551963845235
 20
-141.5686228423741
 30
0.0
 11
-36.75519638451638
 21
108.431377157633
 31
0.0
  0
LINE
  5
23D
330
1F
100
AcDbEntity
  8
0-0
  6
JWW_DASHED1
 62
   120
370
     5
100
AcDbLine
 10
-286.7551963845276
 20
-134.4975550290929
 30
0.0
 11
-36.75519638452064
 21
115.5024449709142
 31
0.0
  0
LINE
  5
23E
330
1F
100
AcDbEntity
  8
0-0
  6
JWW_DASHED1
 62
   120
370
     5
100
AcDbLine
 10
-286.7551963845269
 20
-127.4264872158611
 30
0.0
 11
-36.75519638450594
 21
122.5735127841596
 31
0.0
  0
LINE
  5
23F
330
1F
100
AcDbEntity
  8
0-0
  6
JWW_DASHED1
 62
   120
370
     5
100
AcDbLine
 10
-286.7551963845083
 20
-120.3554194025569
 30
0.0
 11
-36.75519638450146
 21
129.6445805974498
 31
0.0
  0
LINE
  5
240
330
1F
100
AcDbEntity
  8
0-0
  6
JWW_DASHED1
 62
   120
370
     5
100
AcDbLine
 10
-286.7551963845124
 20
-113.2843515892757
 30
0.0
 11
-36.7551963845053
 21
136.7156484107314
 31
0.0
  0
LINE
  5
241
330
1F
100
AcDbEntity
  8
0-0
  6
JWW_DASHED1
 62
   120
370
     5
100
AcDbLine
 10
-286.7551963845165
 20
-106.2132837759944
 30
0.0
 11
-36.75519638450913
 21
143.7867162240131
 31
0.0
  0
LINE
  5
242
330
1F
100
AcDbEntity
  8
0-0
  6
JWW_DASHED1
 62
   120
370
     5
100
AcDbLine
 10
-286.7551963845202
 20
-99.14221596271237
 30
0.0
 11
-36.7551963845134
 21
150.8577840372943
 31
0.0
  0
LINE
  5
243
330
1F
100
AcDbEntity
  8
0-0
  6
JWW_DASHED1
 62
   120
370
     5
100
AcDbLine
 10
-286.7551963845243
 20
-92.07114814943115
 30
0.0
 11
-36.75519638451766
 21
157.9288518505755
 31
0.0
  0
LINE
  5
244
330
1F
100
AcDbEntity
  8
0-0
  6
JWW_DASHED1
 62
   120
370
     5
100
AcDbLine
 10
-286.7551963845284
 20
-85.00008033614994
 30
0.0
 11
-36.75519638452128
 21
164.9999196638576
 31
0.0
  0
LINE
  5
245
330
1F
100
AcDbEntity
  8
0-0
  6
JWW_DASHED1
 62
   120
370
     5
100
AcDbLine
 10
-286.7551963845236
 20
-77.92901252285934
 30
0.0
 11
-36.75519638450317
 21
172.0709874771614
 31
0.0
  0
LINE
  5
246
330
1F
100
AcDbEntity
  8
0-0
  6
JWW_DASHED1
 62
   120
370
     5
100
AcDbLine
 10
-286.7551963845049
 20
-70.8579447095551
 30
0.0
 11
-36.75519638449784
 21
179.142055290452
 31
0.0
  0
LINE
  5
247
330
1F
100
AcDbEntity
  8
0-0
  6
JWW_DASHED1
 62
   120
370
     5
100
AcDbLine
 10
-286.7551963845088
 20
-63.78687689627388
 30
0.0
 11
-36.75519638450189
 21
186.2131231037332
 31
0.0
  0
LINE
  5
248
330
1F
100
AcDbEntity
  8
0-0
  6
JWW_DASHED1
 62
   120
370
     5
100
AcDbLine
 10
-286.7551963845173
 20
-56.7158090830515
 30
0.0
 11
-36.75519638450999
 21
193.284190916956
 31
0.0
  0
LINE
  5
249
330
1F
100
AcDbEntity
  8
0-0
  6
JWW_DASHED1
 62
   120
370
     5
100
AcDbLine
 10
-286.7551963845211
 20
-49.64474126976943
 30
0.0
 11
-36.75519638451425
 21
200.3552587302372
 31
0.0
  0
LINE
  5
24A
330
1F
100
AcDbEntity
  8
0-0
  6
JWW_DASHED1
 62
   120
370
     5
100
AcDbLine
 10
-286.7551963845252
 20
-42.57367345648821
 30
0.0
 11
-36.75519638451851
 21
207.4263265435185
 31
0.0
  0
LINE
  5
24B
330
1F
100
AcDbEntity
  8
0-0
  6
JWW_DASHED1
 62
   120
370
     5
100
AcDbLine
 10
-286.7551963845293
 20
-35.50260564320699
 30
0.0
 11
-36.75519638452256
 21
214.4973943568001
 31
0.0
  0
LINE
  5
24C
330
1F
100
AcDbEntity
  8
0-0
  6
JWW_DASHED1
 62
   120
370
     5
100
AcDbLine
 10
-286.755196384525
 20
-28.43153782991725
 30
0.0
 11
-36.75519638450444
 21
221.5684621701035
 31
0.0
  0
LINE
  5
24D
330
1F
100
AcDbEntity
  8
0-0
  6
JWW_DASHED1
 62
   120
370
     5
100
AcDbLine
 10
-286.7551963845058
 20
-21.36047001661215
 30
0.0
 11
-36.75519638449869
 21
228.6395299833949
 31
0.0
  0
LINE
  5
24E
330
1F
100
AcDbEntity
  8
0-0
  6
JWW_DASHED1
 62
   120
370
     5
100
AcDbLine
 10
-286.7551963845098
 20
-14.28940220333094
 30
0.0
 11
-36.75519638450274
 21
235.7105977966762
 31
0.0
  0
LINE
  5
24F
330
1F
100
AcDbEntity
  8
0-0
  6
JWW_DASHED1
 62
   120
370
     5
100
AcDbLine
 10
-286.7551963845141
 20
-7.218334390049721
 30
0.0
 11
-36.75519638450679
 21
242.7816656099574
 31
0.0
  0
LINE
  5
250
330
1F
100
AcDbEntity
  8
0-0
  6
JWW_DASHED1
 62
   120
370
     5
100
AcDbLine
 10
-286.7551963845177
 20
-0.1472665767676506
 30
0.0
 11
-36.75519638451105
 21
249.8527334232386
 31
0.0
  0
LINE
  5
251
330
1F
100
AcDbEntity
  8
0-0
  6
JWW_DASHED1
 62
   120
370
     5
100
AcDbLine
 10
-286.7551963845265
 20
6.923801236454308
 30
0.0
 11
-36.75519638451937
 21
256.9238012364614
 31
0.0
  0
LINE
  5
252
330
1F
100
AcDbEntity
  8
0-0
  6
JWW_DASHED1
 62
   120
370
     5
100
AcDbLine
 10
-286.7551963845222
 20
13.99486904974405
 30
0.0
 11
-36.75519638450167
 21
263.9948690497644
 31
0.0
  0
LINE
  5
253
330
1F
100
AcDbEntity
  8
0-0
  6
JWW_DASHED1
 62
   120
370
     5
100
AcDbLine
 10
-286.7551963845265
 20
21.06593686302527
 30
0.0
 11
-36.75519638450572
 21
271.065936863046
 31
0.0
  0
LINE
  5
254
330
1F
100
AcDbEntity
  8
0-0
  6
JWW_DASHED1
 62
   120
370
     5
100
AcDbLine
 10
-286.7551963845066
 20
28.13700467633079
 30
0.0
 11
-36.75519638449997
 21
278.137004676337
 31
0.0
  0
LINE
  5
255
330
1F
100
AcDbEntity
  8
0-0
  6
JWW_DASHED1
 62
   120
370
     5
100
AcDbLine
 10
-286.7551963845107
 20
35.20807248961201
 30
0.0
 11
-36.7551963845038
 21
285.2080724896191
 31
0.0
  0
LINE
  5
256
330
1F
100
AcDbEntity
  8
0-0
  6
JWW_DASHED1
 62
   120
370
     5
100
AcDbLine
 10
-286.7551963845149
 20
42.27914030289323
 30
0.0
 11
-36.75519638450764
 21
292.2791403029003
 31
0.0
  0
LINE
  5
257
330
1F
100
AcDbEntity
  8
0-0
  6
JWW_DASHED1
 62
   120
370
     5
100
AcDbLine
 10
-286.7551963845188
 20
49.35020811617487
 30
0.0
 11
-36.7551963845119
 21
299.3502081161815
 31
0.0
  0
LINE
  5
258
330
1F
100
AcDbEntity
  8
0-0
  6
JWW_DASHED1
 62
   120
370
     5
100
AcDbLine
 10
-286.7551963845226
 20
56.42127592945651
 30
0.0
 11
-36.75519638451574
 21
306.4212759294636
 31
0.0
  0
LINE
  5
259
330
1F
100
AcDbEntity
  8
0-0
  6
JWW_DASHED1
 62
   120
370
     5
100
AcDbLine
 10
-286.7551963845269
 20
63.49234374273773
 30
0.0
 11
-36.75519638452
 21
313.4923437427448
 31
0.0
  0
LINE
  5
25A
330
1F
100
AcDbEntity
  8
0-0
  6
JWW_DASHED1
 62
   120
370
     5
100
AcDbLine
 10
-286.7551963845233
 20
70.56341155602662
 30
0.0
 11
-36.75519638450274
 21
320.5634115560474
 31
0.0
  0
LINE
  5
25B
330
1F
100
AcDbEntity
  8
0-0
  6
JWW_DASHED1
 62
   120
370
     5
100
AcDbLine
 10
-286.7551963845077
 20
77.63447936927331
 30
0.0
 11
-36.75519638450082
 21
327.63447936928
 31
0.0
  0
LINE
  5
25C
330
1F
100
AcDbEntity
  8
0-0
  6
JWW_DASHED1
 62
   120
370
     5
100
AcDbLine
 10
-286.7551963845115
 20
84.70554718255495
 30
0.0
 11
-36.75519638450466
 21
334.705547182562
 31
0.0
  0
LINE
  5
25D
330
1F
100
AcDbEntity
  8
0-0
  6
JWW_DASHED1
 62
   120
370
     5
100
AcDbLine
 10
-286.7551963845158
 20
91.77661499583617
 30
0.0
 11
-36.75519638450849
 21
341.7766149958433
 31
0.0
  0
LINE
  5
25E
330
1F
100
AcDbEntity
  8
0-0
  6
JWW_DASHED1
 62
   120
370
     5
100
AcDbLine
 10
-286.7551963845196
 20
98.84768280911781
 30
0.0
 11
-36.75519638451276
 21
348.8476828091245
 31
0.0
  0
LINE
  5
25F
330
1F
100
AcDbEntity
  8
0-0
  6
JWW_DASHED1
 62
   120
370
     5
100
AcDbLine
 10
-286.7551963845235
 20
105.9187506223995
 30
0.0
 11
-36.75519638451681
 21
355.9187506224061
 31
0.0
  0
LINE
  5
260
330
1F
100
AcDbEntity
  8
0-0
  6
JWW_DASHED1
 62
   120
370
     5
100
AcDbLine
 10
-286.7551963845277
 20
112.9898184356807
 30
0.0
 11
-36.75519638452086
 21
362.9898184356878
 31
0.0
  0
LINE
  5
261
330
1F
100
AcDbEntity
  8
0-0
  6
JWW_DASHED1
 62
   120
370
     5
100
AcDbLine
 10
-286.7551963845248
 20
120.0608862489696
 30
0.0
 11
-36.7551963845038
 21
370.0608862489903
 31
0.0
  0
LINE
  5
262
330
1F
100
AcDbEntity
  8
0-0
  6
JWW_DASHED1
 62
   120
370
     5
100
AcDbLine
 10
-286.75519638452
 20
127.1319540622593
 30
0.0
 11
-36.75519638449741
 21
377.1319540622817
 31
0.0
  0
LINE
  5
263
330
1F
100
AcDbEntity
  8
0-0
  6
JWW_DASHED1
 62
   120
370
     5
100
AcDbLine
 10
-286.7551963845083
 20
134.2030218755567
 30
0.0
 11
-36.75519638450146
 21
384.2030218755634
 31
0.0
  0
LINE
  5
264
330
1F
100
AcDbEntity
  8
0-0
  6
JWW_DASHED1
 62
   120
370
     5
100
AcDbLine
 10
-286.7551963845166
 20
141.2740896887791
 30
0.0
 11
-36.75519638450956
 21
391.2740896887862
 31
0.0
  0
LINE
  5
265
330
1F
100
AcDbEntity
  8
0-0
  6
JWW_DASHED1
 62
   120
370
     5
100
AcDbLine
 10
-286.7551963845207
 20
148.3451575020603
 30
0.0
 11
-36.75519638451361
 21
398.3451575020674
 31
0.0
  0
LINE
  5
266
330
1F
100
AcDbEntity
  8
0-0
  6
JWW_DASHED1
 62
   120
370
     5
100
AcDbLine
 10
-286.7551963845248
 20
155.4162253153424
 30
0.0
 11
-36.75519638451766
 21
405.416225315349
 31
0.0
  0
LINE
  5
267
330
1F
100
AcDbEntity
  8
0-0
  6
JWW_DASHED1
 62
   120
370
     5
100
AcDbLine
 10
-286.7551963845286
 20
162.4872931286236
 30
0.0
 11
-36.75519638452192
 21
412.4872931286303
 31
0.0
  0
LINE
  5
268
330
1F
100
AcDbEntity
  8
0-0
  6
JWW_DASHED1
 62
   120
370
     5
100
AcDbLine
 10
-286.755196384526
 20
169.5583609419116
 30
0.0
 11
-36.75519638450508
 21
419.5583609419324
 31
0.0
  0
LINE
  5
269
330
1F
100
AcDbEntity
  8
0-0
  6
JWW_DASHED1
 62
   120
370
     5
100
AcDbLine
 10
-286.7551963845049
 20
176.6294287552184
 30
0.0
 11
-36.75519638449805
 21
426.6294287552251
 31
0.0
  0
LINE
  5
26A
330
1F
100
AcDbEntity
  8
0-0
  6
JWW_DASHED1
 62
   120
370
     5
100
AcDbLine
 10
-286.7551963845092
 20
183.7004965684997
 30
0.0
 11
-36.75519638450189
 21
433.7004965685068
 31
0.0
  0
LINE
  5
26B
330
1F
100
AcDbEntity
  8
0-0
  6
JWW_DASHED1
 62
   120
370
     5
100
AcDbLine
 10
-286.7551963845134
 20
190.7715643817809
 30
0.0
 11
-36.75519638450615
 21
440.771564381788
 31
0.0
  0
LINE
  5
26C
330
1F
100
AcDbEntity
  8
0-0
  6
JWW_DASHED1
 62
   120
370
     5
100
AcDbLine
 10
-286.7551963845168
 20
197.8426321950629
 30
0.0
 11
-36.75519638451041
 21
447.8426321950692
 31
0.0
  0
LINE
  5
26D
330
1F
100
AcDbEntity
  8
0-0
  6
JWW_DASHED1
 62
   120
370
     5
100
AcDbLine
 10
-286.7551963845256
 20
204.9137000082853
 30
0.0
 11
-36.75519638451851
 21
454.913700008292
 31
0.0
  0
LINE
  5
26E
330
1F
100
AcDbEntity
  8
0-0
  6
JWW_DASHED1
 62
   120
370
     5
100
AcDbLine
 10
-286.7551963845235
 20
211.9847678215725
 30
0.0
 11
-36.75519638450231
 21
461.9847678215937
 31
0.0
  0
LINE
  5
26F
330
1F
100
AcDbEntity
  8
0-0
  6
JWW_DASHED1
 62
   120
370
     5
100
AcDbLine
 10
-286.7551963845273
 20
219.0558356348542
 30
0.0
 11
-36.75519638450636
 21
469.0558356348753
 31
0.0
  0
LINE
  5
270
330
1F
100
AcDbEntity
  8
0-0
  6
JWW_DASHED1
 62
   120
370
     5
100
AcDbLine
 10
-286.7551963845062
 20
226.126903448161
 30
0.0
 11
-36.75519638449911
 21
476.1269034481676
 31
0.0
  0
LINE
  5
271
330
1F
100
AcDbEntity
  8
0-0
  6
JWW_DASHED1
 62
   120
370
     5
100
AcDbLine
 10
-286.75519638451
 20
233.1979712614426
 30
0.0
 11
-36.75519638450274
 21
483.1979712614497
 31
0.0
  0
LINE
  5
272
330
1F
100
AcDbEntity
  8
0-0
  6
JWW_DASHED1
 62
   120
370
     5
100
AcDbLine
 10
-286.7551963845143
 20
240.2690390747238
 30
0.0
 11
-36.755196384507
 21
490.2690390747309
 31
0.0
  0
LINE
  5
273
330
1F
100
AcDbEntity
  8
0-0
  6
JWW_DASHED1
 62
   120
370
     5
100
AcDbLine
 10
-286.7551963845182
 20
247.340106888005
 30
0.0
 11
-36.75519638451105
 21
497.3401068880121
 31
0.0
  0
LINE
  5
274
330
1F
100
AcDbEntity
  8
0-0
  6
JWW_DASHED1
 62
   120
370
     5
100
AcDbLine
 10
-286.7551963845219
 20
254.4111747012871
 30
0.0
 11
-36.75519638451532
 21
504.4111747012934
 31
0.0
  0
LINE
  5
275
330
1F
100
AcDbEntity
  8
0-0
  6
JWW_DASHED1
 62
   120
370
     5
100
AcDbLine
 10
-286.7551963845262
 20
261.4822425145683
 30
0.0
 11
-36.75519638451915
 21
511.4822425145754
 31
0.0
  0
LINE
  5
276
330
1F
100
AcDbEntity
  8
0-0
  6
JWW_DASHED1
 62
   120
370
     5
100
AcDbLine
 10
-286.7551963845243
 20
268.5533103278555
 30
0.0
 11
-36.75519638450359
 21
518.5533103278763
 31
0.0
  0
LINE
  5
277
330
1F
100
AcDbEntity
  8
0-0
  6
JWW_DASHED1
 62
   120
370
     5
100
AcDbLine
 10
-286.7551963845066
 20
275.6243781411043
 30
0.0
 11
-36.75519638449997
 21
525.6243781411106
 31
0.0
  0
LINE
  5
278
330
1F
100
AcDbEntity
  8
0-0
  6
JWW_DASHED1
 62
   120
370
     5
100
AcDbLine
 10
-286.7551963845109
 20
282.6954459543855
 30
0.0
 11
-36.7551963845038
 21
532.6954459543927
 31
0.0
  0
LINE
  5
279
330
1F
100
AcDbEntity
  8
0-0
  6
JWW_DASHED1
 62
   120
370
     5
100
AcDbLine
 10
-286.7551963845149
 20
289.7665137676668
 30
0.0
 11
-36.75519638450807
 21
539.7665137676738
 31
0.0
  0
LINE
  5
27A
330
1F
100
AcDbEntity
  8
0-0
  6
JWW_DASHED1
 62
   120
370
     5
100
AcDbLine
 10
-286.7551963845192
 20
296.837581580948
 30
0.0
 11
-36.75519638451212
 21
546.837581580955
 31
0.0
  0
LINE
  5
27B
330
1F
100
AcDbEntity
  8
0-0
  6
JWW_DASHED1
 62
   120
370
     5
100
AcDbLine
 10
-286.7551963845231
 20
303.9086493942296
 30
0.0
 11
-36.75519638451595
 21
553.9086493942367
 31
0.0
  0
LINE
  5
27C
330
1F
100
AcDbEntity
  8
0-0
  6
JWW_DASHED1
 62
   120
370
     5
100
AcDbLine
 10
-286.755196384527
 20
310.9797172075113
 30
0.0
 11
-36.75519638452
 21
560.9797172075183
 31
0.0
  0
LINE
  5
27D
330
1F
100
AcDbEntity
  8
0-0
  6
JWW_DASHED1
 62
   120
370
     5
100
AcDbLine
 10
-286.7551963845258
 20
318.0507850207976
 30
0.0
 11
-36.75519638450487
 21
568.0507850208188
 31
0.0
  0
LINE
  5
27E
330
1F
100
AcDbEntity
  8
0-0
  6
JWW_DASHED1
 62
   120
370
     5
100
AcDbLine
 10
-286.7551963845297
 20
325.1218528340797
 30
0.0
 11
-36.75519638450913
 21
575.1218528341
 31
0.0
  0
LINE
  5
27F
330
1F
100
AcDbEntity
  8
0-0
  6
JWW_DASHED1
 62
   120
370
     5
100
AcDbLine
 10
-286.7551963845077
 20
332.1929206473873
 30
0.0
 11
-36.75519638450061
 21
582.192920647394
 31
0.0
  0
LINE
  5
280
330
1F
100
AcDbEntity
  8
0-0
  6
JWW_DASHED1
 62
   120
370
     5
100
AcDbLine
 10
-286.7551963845158
 20
339.2639884606097
 30
0.0
 11
-36.75519638450892
 21
589.2639884606167
 31
0.0
  0
LINE
  5
281
330
1F
100
AcDbEntity
  8
0-0
  6
JWW_DASHED1
 62
   120
370
     5
100
AcDbLine
 10
-286.75519638452
 20
346.3350562738909
 30
0.0
 11
-36.75519638451276
 21
596.335056273898
 31
0.0
  0
LINE
  5
282
330
1F
100
AcDbEntity
  8
0-0
  6
JWW_DASHED1
 62
   120
370
     5
100
AcDbLine
 10
-286.7551963845239
 20
353.4061240871725
 30
0.0
 11
-36.75519638451702
 21
603.4061240871793
 31
0.0
  0
LINE
  5
283
330
1F
100
AcDbEntity
  8
0-0
  6
JWW_DASHED1
 62
   120
370
     5
100
AcDbLine
 10
-286.7551963845277
 20
360.4771919004542
 30
0.0
 11
-36.75519638452107
 21
610.4771919004609
 31
0.0
  0
LINE
  5
284
330
1F
100
AcDbEntity
  8
0-0
  6
JWW_DASHED1
 62
   120
370
     5
100
AcDbLine
 10
-286.7551963845269
 20
367.5482597137405
 30
0.0
 11
-36.75519638450615
 21
617.5482597137612
 31
0.0
  0
LINE
  5
285
330
1F
100
AcDbEntity
  8
0-0
  6
JWW_DASHED1
 62
   120
370
     5
100
AcDbLine
 10
-286.7551963845043
 20
374.6193275270486
 30
0.0
 11
-36.75519638449741
 21
624.6193275270552
 31
0.0
  0
LINE
  5
286
330
1F
100
AcDbEntity
  8
0-0
  6
JWW_DASHED1
 62
   120
370
     5
100
AcDbLine
 10
-286.7551963845086
 20
381.6903953403303
 30
0.0
 11
-36.75519638450146
 21
631.690395340337
 31
0.0
  0
LINE
  5
287
330
1F
100
AcDbEntity
  8
0-0
  6
JWW_DASHED1
 62
   120
370
     5
100
AcDbLine
 10
-286.7551963845124
 20
388.7614631536115
 30
0.0
 11
-36.7551963845053
 21
638.7614631536185
 31
0.0
  0
LINE
  5
288
330
1F
100
AcDbEntity
  8
0-0
  6
JWW_DASHED1
 62
   120
370
     5
100
AcDbLine
 10
-286.7551963845165
 20
395.8325309668927
 30
0.0
 11
-36.75519638450956
 21
645.8325309668998
 31
0.0
  0
LINE
  5
289
330
1F
100
AcDbEntity
  8
0-0
  6
JWW_DASHED1
 62
   120
370
     5
100
AcDbLine
 10
-286.7551963845205
 20
402.9035987801743
 30
0.0
 11
-36.75519638451361
 21
652.903598780181
 31
0.0
  0
LINE
  5
28A
330
1F
100
AcDbEntity
  8
0-0
  6
JWW_DASHED1
 62
   120
370
     5
100
AcDbLine
 10
-286.7551963845286
 20
409.9746665933972
 30
0.0
 11
-36.75519638452192
 21
659.9746665934039
 31
0.0
  0
LINE
  5
28B
330
1F
100
AcDbEntity
  8
0-0
  6
JWW_DASHED1
 62
   120
370
     5
100
AcDbLine
 10
-286.7551963845279
 20
417.0457344066835
 30
0.0
 11
-36.75519638450743
 21
667.0457344067033
 31
0.0
  0
LINE
  5
28C
330
1F
100
AcDbEntity
  8
0-0
  6
JWW_DASHED1
 62
   120
370
     5
100
AcDbLine
 10
-286.7551963845054
 20
424.1168022199911
 30
0.0
 11
-36.75519638449826
 21
674.1168022199981
 31
0.0
  0
LINE
  5
28D
330
1F
100
AcDbEntity
  8
0-0
  6
JWW_DASHED1
 62
   120
370
     5
100
AcDbLine
 10
-286.7551963845092
 20
431.1878700332732
 30
0.0
 11
-36.75519638450231
 21
681.1878700332799
 31
0.0
  0
LINE
  5
28E
330
1F
100
AcDbEntity
  8
0-0
  6
JWW_DASHED1
 62
   120
370
     5
100
AcDbLine
 10
-286.7551963845134
 20
438.2589378465544
 30
0.0
 11
-36.75519638450658
 21
688.2589378465611
 31
0.0
  0
LINE
  5
28F
330
1F
100
AcDbEntity
  8
0-0
  6
JWW_DASHED1
 62
   120
370
     5
100
AcDbLine
 10
-286.7551963845173
 20
445.3300056598356
 30
0.0
 11
-36.75519638451041
 21
695.3300056598428
 31
0.0
  0
LINE
  5
290
330
1F
100
AcDbEntity
  8
0-0
  6
JWW_DASHED1
 62
   120
370
     5
100
AcDbLine
 10
-286.7551963845214
 20
452.4010734731177
 30
0.0
 11
-36.75519638451468
 21
702.4010734731239
 31
0.0
  0
LINE
  5
291
330
1F
100
AcDbEntity
  8
0-0
  6
JWW_DASHED1
 62
   120
370
     5
100
AcDbLine
 10
-286.7551963845253
 20
459.4721412863989
 30
0.0
 11
-36.75519638451851
 21
709.4721412864056
 31
0.0
  0
LINE
  5
292
330
1F
100
AcDbEntity
  8
0-0
  6
JWW_DASHED1
 62
   120
370
     5
100
AcDbLine
 10
-286.7551963845253
 20
466.5432090996844
 30
0.0
 11
-36.75519638450466
 21
716.5432090997051
 31
0.0
  0
LINE
  5
293
330
1F
100
AcDbEntity
  8
0-0
  6
JWW_DASHED1
 62
   120
370
     5
100
AcDbLine
 10
-286.7551963845062
 20
473.6142769129341
 30
0.0
 11
-36.75519638449933
 21
723.6142769129411
 31
0.0
  0
LINE
  5
294
330
1F
100
AcDbEntity
  8
0-0
  6
JWW_DASHED1
 62
   120
370
     5
100
AcDbLine
 10
-286.7551963845105
 20
480.6853447262153
 30
0.0
 11
-36.75519638450338
 21
730.6853447262224
 31
0.0
  0
LINE
  5
295
330
1F
100
AcDbEntity
  8
0-0
  6
JWW_DASHED1
 62
   120
370
     5
100
AcDbLine
 10
-286.7551963845143
 20
487.7564125394974
 30
0.0
 11
-36.75519638450743
 21
737.756412539504
 31
0.0
  0
LINE
  5
296
330
1F
100
AcDbEntity
  8
0-0
  6
JWW_DASHED1
 62
   120
370
     5
100
AcDbLine
 10
-286.7551963845185
 20
494.8274803527786
 30
0.0
 11
-36.75519638451127
 21
744.8274803527856
 31
0.0
  0
LINE
  5
297
330
1F
100
AcDbEntity
  8
0-0
  6
JWW_DASHED1
 62
   120
370
     5
100
AcDbLine
 10
-286.7551963845224
 20
501.8985481660598
 30
0.0
 11
-36.75519638451553
 21
751.8985481660668
 31
0.0
  0
LINE
  5
298
330
1F
100
AcDbEntity
  8
0-0
  6
JWW_DASHED1
 62
   120
370
     5
100
AcDbLine
 10
-286.7551963845262
 20
508.9696159793419
 30
0.0
 11
-36.75519638451958
 21
758.9696159793481
 31
0.0
  0
LINE
  5
299
330
1F
100
AcDbEntity
  8
0-0
  6
JWW_DASHED1
 62
   120
370
     5
100
AcDbLine
 10
-286.7551963845265
 20
516.040683792627
 30
0.0
 11
-36.75519638450572
 21
766.0406837926477
 31
0.0
  0
LINE
  5
29A
330
1F
100
AcDbEntity
  8
0-0
  6
JWW_DASHED1
 62
   120
370
     5
100
AcDbLine
 10
-286.7551963845304
 20
523.1117516059085
 30
0.0
 11
-36.75519638450999
 21
773.1117516059289
 31
0.0
  0
LINE
  5
29B
330
1F
100
AcDbEntity
  8
0-0
  6
JWW_DASHED1
 62
   120
370
     5
100
AcDbLine
 10
-286.7551963845069
 20
530.1828194192175
 30
0.0
 11
-36.75519638449975
 21
780.1828194192246
 31
0.0
  0
LINE
  5
29C
330
1F
100
AcDbEntity
  8
0-0
  6
JWW_DASHED1
 62
   120
370
     5
100
AcDbLine
 10
-286.7551963845151
 20
537.2538872324403
 30
0.0
 11
-36.75519638450828
 21
787.253887232447
 31
0.0
  0
LINE
  5
29D
330
1F
100
AcDbEntity
  8
0-0
  6
JWW_DASHED1
 62
   120
370
     5
100
AcDbLine
 10
-286.7551963845194
 20
544.3249550457215
 30
0.0
 11
-36.75519638451233
 21
794.3249550457285
 31
0.0
  0
LINE
  5
29E
330
1F
100
AcDbEntity
  8
0-0
  6
JWW_DASHED1
 62
   120
370
     5
100
AcDbLine
 10
-286.7551963845233
 20
551.3960228590026
 30
0.0
 11
-36.75519638451638
 21
801.3960228590098
 31
0.0
  0
LINE
  5
29F
330
1F
100
AcDbEntity
  8
0-0
  6
JWW_DASHED1
 62
   120
370
     5
100
AcDbLine
 10
-286.755196384527
 20
558.4670906722847
 30
0.0
 11
-36.75519638452022
 21
808.4670906722915
 31
0.0
  0
LINE
  5
2A0
330
1F
100
AcDbEntity
  8
0-0
  6
JWW_DASHED1
 62
   120
370
     5
100
AcDbLine
 10
-286.7551963845277
 20
565.5381584855694
 30
0.0
 11
-36.755196384507
 21
815.5381584855902
 31
0.0
  0
LINE
  5
2A1
330
1F
100
AcDbEntity
  8
0-0
  6
JWW_DASHED1
 62
   120
370
     5
100
AcDbLine
 10
-286.7551963845038
 20
572.6092262988788
 30
0.0
 11
-36.75519638449698
 21
822.6092262988859
 31
0.0
  0
LINE
  5
2A2
330
1F
100
AcDbEntity
  8
0-0
  6
JWW_DASHED1
 62
   120
370
     5
100
AcDbLine
 10
-286.7551963845077
 20
579.6802941121605
 30
0.0
 11
-36.75519638450082
 21
829.6802941121671
 31
0.0
  0
LINE
  5
2A3
330
1F
100
AcDbEntity
  8
0-0
  6
JWW_DASHED1
 62
   120
370
     5
100
AcDbLine
 10
-286.755196384512
 20
586.7513619254416
 30
0.0
 11
-36.75519638450487
 21
836.7513619254488
 31
0.0
  0
LINE
  5
2A4
330
1F
100
AcDbEntity
  8
0-0
  6
JWW_DASHED1
 62
   120
370
     5
100
AcDbLine
 10
-286.755196384516
 20
593.8224297387233
 30
0.0
 11
-36.75519638450892
 21
843.8224297387303
 31
0.0
  0
LINE
  5
2A5
330
1F
100
AcDbEntity
  8
0-0
  6
JWW_DASHED1
 62
   120
370
     5
100
AcDbLine
 10
-286.7551963845196
 20
600.893497552005
 30
0.0
 11
-36.75519638451297
 21
850.8934975520116
 31
0.0
  0
LINE
  5
2A6
330
1F
100
AcDbEntity
  8
0-0
  6
JWW_DASHED1
 62
   120
370
     5
100
AcDbLine
 10
-286.7551963845282
 20
607.9645653652274
 30
0.0
 11
-36.75519638452128
 21
857.964565365234
 31
0.0
  0
LINE
  5
2A7
330
1F
100
AcDbEntity
  8
0-0
  6
JWW_DASHED1
 62
   120
370
     5
100
AcDbLine
 10
-286.7551963845293
 20
615.035633178512
 30
0.0
 11
-36.75519638450849
 21
865.0356331785322
 31
0.0
  0
LINE
  5
2A8
330
1F
100
AcDbEntity
  8
0-0
  6
JWW_DASHED1
 62
   120
370
     5
100
AcDbLine
 10
-286.7551963845047
 20
622.1067009918218
 30
0.0
 11
-36.75519638449784
 21
872.1067009918288
 31
0.0
  0
LINE
  5
2A9
330
1F
100
AcDbEntity
  8
0-0
  6
JWW_DASHED1
 62
   120
370
     5
100
AcDbLine
 10
-286.7551963845086
 20
629.1777688051034
 30
0.0
 11
-36.75519638450167
 21
879.17776880511
 31
0.0
  0
LINE
  5
2AA
330
1F
100
AcDbEntity
  8
0-0
  6
JWW_DASHED1
 62
   120
370
     5
100
AcDbLine
 10
-286.7551963845128
 20
636.2488366183846
 30
0.0
 11
-36.75519638450572
 21
886.2488366183912
 31
0.0
  0
LINE
  5
2AB
330
1F
100
AcDbEntity
  8
0-0
  6
JWW_DASHED1
 62
   120
370
     5
100
AcDbLine
 10
-286.7551963845166
 20
643.3199044316661
 30
0.0
 11
-36.75519638450977
 21
893.3199044316733
 31
0.0
  0
LINE
  5
2AC
330
1F
100
AcDbEntity
  8
0-0
  6
JWW_DASHED1
 62
   120
370
     5
100
AcDbLine
 10
-286.7551963845205
 20
650.3909722449479
 30
0.0
 11
-36.75519638451382
 21
900.3909722449546
 31
0.0
  0
LINE
  5
2AD
330
1F
100
AcDbEntity
  8
0-0
  6
JWW_DASHED1
 62
   120
370
     5
100
AcDbLine
 10
-286.7551963845248
 20
657.4620400582291
 30
0.0
 11
-36.75519638451787
 21
907.4620400582357
 31
0.0
  0
LINE
  5
2AE
330
1F
100
AcDbEntity
  8
0-0
  6
JWW_DASHED1
 62
   120
370
     5
100
AcDbLine
 10
-286.7551963845258
 20
664.5331078715133
 30
0.0
 11
-36.7551963845053
 21
914.533107871534
 31
0.0
  0
LINE
  5
2AF
330
1F
100
AcDbEntity
  8
0-0
  6
JWW_DASHED1
 62
   120
370
     5
100
AcDbLine
 10
-286.7551963845056
 20
671.6041756847646
 30
0.0
 11
-36.75519638449848
 21
921.6041756847717
 31
0.0
  0
LINE
  5
2B0
330
1F
100
AcDbEntity
  8
0-0
  6
JWW_DASHED1
 62
   120
370
     5
100
AcDbLine
 10
-286.7551963845094
 20
678.6752434980464
 30
0.0
 11
-36.75519638450253
 21
928.675243498053
 31
0.0
  0
LINE
  5
2B1
330
1F
100
AcDbEntity
  8
0-0
  6
JWW_DASHED1
 62
   120
370
     5
100
AcDbLine
 10
-286.7551963845137
 20
685.7463113113275
 30
0.0
 11
-36.75519638450658
 21
935.7463113113347
 31
0.0
  0
LINE
  5
2B2
330
1F
100
AcDbEntity
  8
0-0
  6
JWW_DASHED1
 62
   120
370
     5
100
AcDbLine
 10
-286.7551963845177
 20
692.8173791246091
 30
0.0
 11
-36.75519638451063
 21
942.8173791246163
 31
0.0
  0
LINE
  5
2B3
330
1F
100
AcDbEntity
  8
0-0
  6
JWW_DASHED1
 62
   120
370
     5
100
AcDbLine
 10
-286.7551963845214
 20
699.8884469378909
 30
0.0
 11
-36.75519638451468
 21
949.8884469378975
 31
0.0
  0
LINE
  5
2B4
330
1F
100
AcDbEntity
  8
0-0
  6
JWW_DASHED1
 62
   120
370
     5
100
AcDbLine
 10
-286.7551963845256
 20
706.959514751172
 30
0.0
 11
-36.75519638451894
 21
956.9595147511786
 31
0.0
  0
LINE
  5
2B5
330
1F
100
AcDbEntity
  8
0-0
  6
JWW_DASHED1
 62
   120
370
     5
100
AcDbLine
 10
-286.7551963845273
 20
714.0305825644558
 30
0.0
 11
-36.75519638450679
 21
964.0305825644762
 31
0.0
  0
LINE
  5
2B6
330
1F
100
AcDbEntity
  8
0-0
  6
JWW_DASHED1
 62
   120
370
     5
100
AcDbLine
 10
-286.7551963845316
 20
721.1016503777371
 30
0.0
 11
-36.75519638451105
 21
971.1016503777573
 31
0.0
  0
LINE
  5
2B7
330
1F
100
AcDbEntity
  8
0-0
  6
JWW_DASHED1
 62
   120
370
     5
100
AcDbLine
 10
-286.7551963845062
 20
728.1727181910476
 30
0.0
 11
-36.75519638449933
 21
978.1727181910547
 31
0.0
  0
LINE
  5
2B8
330
1F
100
AcDbEntity
  8
0-0
  6
JWW_DASHED1
 62
   120
370
     5
100
AcDbLine
 10
-286.7551963845145
 20
735.2437860042705
 30
0.0
 11
-36.75519638450743
 21
985.2437860042776
 31
0.0
  0
LINE
  5
2B9
330
1F
100
AcDbEntity
  8
0-0
  6
JWW_DASHED1
 62
   120
370
     5
100
AcDbLine
 10
-286.7551963845185
 20
742.3148538175521
 30
0.0
 11
-42.24130101773332
 21
986.8287491843372
 31
0.0
  0
LINE
  5
2BA
330
1F
100
AcDbEntity
  8
0-0
  6
JWW_DASHED1
 62
   120
370
     5
100
AcDbLine
 10
-286.7551963845228
 20
749.3859216308333
 30
0.0
 11
-49.31236883101475
 21
986.8287491843414
 31
0.0
  0
LINE
  5
2BB
330
1F
100
AcDbEntity
  8
0-0
  6
JWW_DASHED1
 62
   120
370
     5
100
AcDbLine
 10
-286.7551963845267
 20
756.4569894441145
 30
0.0
 11
-56.38343664429597
 21
986.8287491843457
 31
0.0
  0
LINE
  5
2BC
330
1F
100
AcDbEntity
  8
0-0
  6
JWW_DASHED1
 62
   120
370
     5
100
AcDbLine
 10
-286.7551963845287
 20
763.5280572573984
 30
0.0
 11
-63.45450445759126
 21
986.8287491843355
 31
0.0
  0
LINE
  5
2BD
330
1F
100
AcDbEntity
  8
0-0
  6
JWW_DASHED1
 62
   120
370
     5
100
AcDbLine
 10
-286.7551963845028
 20
770.5991250707093
 30
0.0
 11
-70.52557227089017
 21
986.8287491843223
 31
0.0
  0
LINE
  5
2BE
330
1F
100
AcDbEntity
  8
0-0
  6
JWW_DASHED1
 62
   120
370
     5
100
AcDbLine
 10
-286.7551963845071
 20
777.6701928839906
 30
0.0
 11
-77.59664008417136
 21
986.8287491843265
 31
0.0
  0
LINE
  5
2BF
330
1F
100
AcDbEntity
  8
0-0
  6
JWW_DASHED1
 62
   120
370
     5
100
AcDbLine
 10
-286.7551963845111
 20
784.7412606972723
 30
0.0
 11
-84.66770789745281
 21
986.8287491843304
 31
0.0
  0
LINE
  5
2C0
330
1F
100
AcDbEntity
  8
0-0
  6
JWW_DASHED1
 62
   120
370
     5
100
AcDbLine
 10
-286.7551963845151
 20
791.8123285105539
 30
0.0
 11
-91.73877571073403
 21
986.8287491843346
 31
0.0
  0
LINE
  5
2C1
330
1F
100
AcDbEntity
  8
0-0
  6
JWW_DASHED1
 62
   120
370
     5
100
AcDbLine
 10
-286.7551963845192
 20
798.8833963238351
 30
0.0
 11
-98.80984352401525
 21
986.8287491843389
 31
0.0
  0
LINE
  5
2C2
330
1F
100
AcDbEntity
  8
0-0
  6
JWW_DASHED1
 62
   120
370
     5
100
AcDbLine
 10
-286.7551963845276
 20
805.9544641370575
 30
0.0
 11
-105.8809113372376
 21
986.8287491843474
 31
0.0
  0
LINE
  5
2C3
330
1F
100
AcDbEntity
  8
0-0
  6
JWW_DASHED1
 62
   120
370
     5
100
AcDbLine
 10
-286.7551963845301
 20
813.0255319503403
 30
0.0
 11
-112.9519791505301
 21
986.8287491843406
 31
0.0
  0
LINE
  5
2C4
330
1F
100
AcDbEntity
  8
0-0
  6
JWW_DASHED1
 62
   120
370
     5
100
AcDbLine
 10
-286.7551963845038
 20
820.0965997636523
 30
0.0
 11
-120.0230469638318
 21
986.8287491843244
 31
0.0
  0
LINE
  5
2C5
330
1F
100
AcDbEntity
  8
0-0
  6
JWW_DASHED1
 62
   120
370
     5
100
AcDbLine
 10
-286.7551963845079
 20
827.1676675769336
 30
0.0
 11
-127.094114777113
 21
986.8287491843287
 31
0.0
  0
LINE
  5
2C6
330
1F
100
AcDbEntity
  8
0-0
  6
JWW_DASHED1
 62
   120
370
     5
100
AcDbLine
 10
-286.755196384512
 20
834.2387353902152
 30
0.0
 11
-134.1651825903945
 21
986.8287491843325
 31
0.0
  0
LINE
  5
2C7
330
1F
100
AcDbEntity
  8
0-0
  6
JWW_DASHED1
 62
   120
370
     5
100
AcDbLine
 10
-286.755196384516
 20
841.3098032034968
 30
0.0
 11
-141.2362504036757
 21
986.8287491843372
 31
0.0
  0
LINE
  5
2C8
330
1F
100
AcDbEntity
  8
0-0
  6
JWW_DASHED1
 62
   120
370
     5
100
AcDbLine
 10
-286.75519638452
 20
848.380871016778
 30
0.0
 11
-148.3073182169569
 21
986.8287491843411
 31
0.0
  0
LINE
  5
2C9
330
1F
100
AcDbEntity
  8
0-0
  6
JWW_DASHED1
 62
   120
370
     5
100
AcDbLine
 10
-286.7551963845239
 20
855.4519388300597
 30
0.0
 11
-155.3783860302383
 21
986.8287491843453
 31
0.0
  0
LINE
  5
2CA
330
1F
100
AcDbEntity
  8
0-0
  6
JWW_DASHED1
 62
   120
370
     5
100
AcDbLine
 10
-286.7551963845269
 20
862.5230066433421
 30
0.0
 11
-162.4494538435274
 21
986.8287491843414
 31
0.0
  0
LINE
  5
2CB
330
1F
100
AcDbEntity
  8
0-0
  6
JWW_DASHED1
 62
   120
370
     5
100
AcDbLine
 10
-286.7551963845047
 20
869.5940744565953
 30
0.0
 11
-169.5205216567735
 21
986.828749184326
 31
0.0
  0
LINE
  5
2CC
330
1F
100
AcDbEntity
  8
0-0
  6
JWW_DASHED1
 62
   120
370
     5
100
AcDbLine
 10
-286.7551963845088
 20
876.6651422698765
 30
0.0
 11
-176.5915894700549
 21
986.8287491843304
 31
0.0
  0
LINE
  5
2CD
330
1F
100
AcDbEntity
  8
0-0
  6
JWW_DASHED1
 62
   120
370
     5
100
AcDbLine
 10
-286.7551963845128
 20
883.7362100831582
 30
0.0
 11
-183.6626572833361
 21
986.8287491843346
 31
0.0
  0
LINE
  5
2CE
330
1F
100
AcDbEntity
  8
0-0
  6
JWW_DASHED1
 62
   120
370
     5
100
AcDbLine
 10
-286.7551963845168
 20
890.8072778964397
 30
0.0
 11
-190.7337250966173
 21
986.8287491843389
 31
0.0
  0
LINE
  5
2CF
330
1F
100
AcDbEntity
  8
0-0
  6
JWW_DASHED1
 62
   120
370
     5
100
AcDbLine
 10
-286.7551963845209
 20
897.878345709721
 30
0.0
 11
-197.8047929098988
 21
986.8287491843431
 31
0.0
  0
LINE
  5
2D0
330
1F
100
AcDbEntity
  8
0-0
  6
JWW_DASHED1
 62
   120
370
     5
100
AcDbLine
 10
-286.7551963845252
 20
904.9494135230022
 30
0.0
 11
-204.87586072318
 21
986.8287491843474
 31
0.0
  0
LINE
  5
2D1
330
1F
100
AcDbEntity
  8
0-0
  6
JWW_DASHED1
 62
   120
370
     5
100
AcDbLine
 10
-286.7551963845284
 20
912.0204813362843
 30
0.0
 11
-211.9469285364661
 21
986.8287491843465
 31
0.0
  0
LINE
  5
2D2
330
1F
100
AcDbEntity
  8
0-0
  6
JWW_DASHED1
 62
   120
370
     5
100
AcDbLine
 10
-286.7551963845324
 20
919.0915491495659
 30
0.0
 11
-219.0179963497469
 21
986.8287491843516
 31
0.0
  0
LINE
  5
2D3
330
1F
100
AcDbEntity
  8
0-0
  6
JWW_DASHED1
 62
   120
370
     5
100
AcDbLine
 10
-286.7551963845054
 20
926.1626169628782
 30
0.0
 11
-226.0890641630556
 21
986.8287491843282
 31
0.0
  0
LINE
  5
2D4
330
1F
100
AcDbEntity
  8
0-0
  6
JWW_DASHED1
 62
   120
370
     5
100
AcDbLine
 10
-286.7551963845096
 20
933.2336847761594
 30
0.0
 11
-233.1601319763369
 21
986.8287491843325
 31
0.0
  0
LINE
  5
2D5
330
1F
100
AcDbEntity
  8
0-0
  6
JWW_DASHED1
 62
   120
370
     5
100
AcDbLine
 10
-286.7551963845179
 20
940.3047525893824
 30
0.0
 11
-240.2311997895592
 21
986.8287491843411
 31
0.0
  0
LINE
  5
2D6
330
1F
100
AcDbEntity
  8
0-0
  6
JWW_DASHED1
 62
   120
370
     5
100
AcDbLine
 10
-286.7551963845219
 20
947.375820402664
 30
0.0
 11
-247.3022676028405
 21
986.8287491843453
 31
0.0
  0
LINE
  5
2D7
330
1F
100
AcDbEntity
  8
0-0
  6
JWW_DASHED1
 62
   120
370
     5
100
AcDbLine
 10
-286.755196384526
 20
954.4468882159451
 30
0.0
 11
-254.3733354161219
 21
986.8287491843491
 31
0.0
  0
LINE
  5
2D8
330
1F
100
AcDbEntity
  8
0-0
  6
JWW_DASHED1
 62
   120
370
     5
100
AcDbLine
 10
-286.7551963845297
 20
961.5179560292272
 30
0.0
 11
-261.4444032294048
 21
986.8287491843516
 31
0.0
  0
LINE
  5
2D9
330
1F
100
AcDbEntity
  8
0-0
  6
JWW_DASHED1
 62
   120
370
     5
100
AcDbLine
 10
-286.7551963845182
 20
968.5890238425238
 30
0.0
 11
-268.5154710427012
 21
986.8287491843406
 31
0.0
  0
LINE
  5
2DA
330
1F
100
AcDbEntity
  8
0-0
  6
JWW_DASHED1
 62
   120
370
     5
100
AcDbLine
 10
-286.7551963845062
 20
975.6600916558212
 30
0.0
 11
-275.5865388559973
 21
986.8287491843304
 31
0.0
  0
LINE
  5
2DB
330
1F
100
AcDbEntity
  8
0-0
  6
JWW_DASHED1
 62
   120
370
     5
100
AcDbLine
 10
-286.7551963845103
 20
982.7311594691029
 30
0.0
 11
-282.6576066692785
 21
986.8287491843346
 31
0.0
  0
LINE
  5
2DC
330
1F
100
AcDbEntity
  8
0-0
  6
JWW_DASHED1
 62
   120
370
     5
100
AcDbLine
 10
399.9470085677517
 20
-920.1712508156755
 30
0.0
 11
403.2448036155006
 21
-916.8734557679265
 31
0.0
  0
LINE
  5
2DD
330
1F
100
AcDbEntity
  8
0-0
  6
JWW_DASHED1
 62
   120
370
     5
100
AcDbLine
 10
392.8759407544705
 20
-920.1712508156712
 30
0.0
 11
403.2448036154968
 21
-909.8023879546454
 31
0.0
  0
LINE
  5
2DE
330
1F
100
AcDbEntity
  8
0-0
  6
JWW_DASHED1
 62
   120
370
     5
100
AcDbLine
 10
385.8048729411892
 20
-920.171250815667
 30
0.0
 11
403.2448036154929
 21
-902.7313201413638
 31
0.0
  0
LINE
  5
2DF
330
1F
100
AcDbEntity
  8
0-0
  6
JWW_DASHED1
 62
   120
370
     5
100
AcDbLine
 10
378.7338051279081
 20
-920.1712508156626
 30
0.0
 11
403.2448036154886
 21
-895.660252328082
 31
0.0
  0
LINE
  5
2E0
330
1F
100
AcDbEntity
  8
0-0
  6
JWW_DASHED1
 62
   120
370
     5
100
AcDbLine
 10
371.6627373146268
 20
-920.1712508156585
 30
0.0
 11
403.2448036154848
 21
-888.5891845148009
 31
0.0
  0
LINE
  5
2E1
330
1F
100
AcDbEntity
  8
0-0
  6
JWW_DASHED1
 62
   120
370
     5
100
AcDbLine
 10
364.5916695013456
 20
-920.1712508156546
 30
0.0
 11
403.2448036154805
 21
-881.5181167015193
 31
0.0
  0
LINE
  5
2E2
330
1F
100
AcDbEntity
  8
0-0
  6
JWW_DASHED1
 62
   120
370
     5
100
AcDbLine
 10
357.5206016880942
 20
-920.1712508156746
 30
0.0
 11
403.2448036155031
 21
-874.4470488882657
 31
0.0
  0
LINE
  5
2E3
330
1F
100
AcDbEntity
  8
0-0
  6
JWW_DASHED1
 62
   120
370
     5
100
AcDbLine
 10
350.44953387481
 20
-920.1712508156734
 30
0.0
 11
403.2448036154997
 21
-867.3759810749837
 31
0.0
  0
LINE
  5
2E4
330
1F
100
AcDbEntity
  8
0-0
  6
JWW_DASHED1
 62
   120
370
     5
100
AcDbLine
 10
343.3784660615288
 20
-920.171250815669
 30
0.0
 11
403.2448036154959
 21
-860.3049132617024
 31
0.0
  0
LINE
  5
2E5
330
1F
100
AcDbEntity
  8
0-0
  6
JWW_DASHED1
 62
   120
370
     5
100
AcDbLine
 10
336.3073982482476
 20
-920.1712508156648
 30
0.0
 11
403.2448036154921
 21
-853.2338454484208
 31
0.0
  0
LINE
  5
2E6
330
1F
100
AcDbEntity
  8
0-0
  6
JWW_DASHED1
 62
   120
370
     5
100
AcDbLine
 10
329.2363304349664
 20
-920.171250815661
 30
0.0
 11
403.2448036154878
 21
-846.1627776351392
 31
0.0
  0
LINE
  5
2E7
330
1F
100
AcDbEntity
  8
0-0
  6
JWW_DASHED1
 62
   120
370
     5
100
AcDbLine
 10
322.1652626216851
 20
-920.1712508156568
 30
0.0
 11
403.2448036154839
 21
-839.0917098218575
 31
0.0
  0
LINE
  5
2E8
330
1F
100
AcDbEntity
  8
0-0
  6
JWW_DASHED1
 62
   120
370
     5
100
AcDbLine
 10
315.0941948084035
 20
-920.1712508156523
 30
0.0
 11
403.2448036154793
 21
-832.0206420085767
 31
0.0
  0
LINE
  5
2E9
330
1F
100
AcDbEntity
  8
0-0
  6
JWW_DASHED1
 62
   120
370
     5
100
AcDbLine
 10
308.0231269951223
 20
-920.1712508156482
 30
0.0
 11
403.2448036154759
 21
-824.9495741952951
 31
0.0
  0
LINE
  5
2EA
330
1F
100
AcDbEntity
  8
0-0
  6
JWW_DASHED1
 62
   120
370
     5
100
AcDbLine
 10
300.9520591818159
 20
-920.1712508156694
 30
0.0
 11
403.2448036155023
 21
-817.8785063819827
 31
0.0
  0
LINE
  5
2EB
330
1F
100
AcDbEntity
  8
0-0
  6
JWW_DASHED1
 62
   120
370
     5
100
AcDbLine
 10
293.8809913685283
 20
-920.1712508156717
 30
0.0
 11
403.2448036154993
 21
-810.8074385687003
 31
0.0
  0
LINE
  5
2EC
330
1F
100
AcDbEntity
  8
0-0
  6
JWW_DASHED1
 62
   120
370
     5
100
AcDbLine
 10
286.8099235553059
 20
-920.1712508156631
 30
0.0
 11
403.2448036154912
 21
-803.7363707554779
 31
0.0
  0
LINE
  5
2ED
330
1F
100
AcDbEntity
  8
0-0
  6
JWW_DASHED1
 62
   120
370
     5
100
AcDbLine
 10
279.7388557420243
 20
-920.1712508156588
 30
0.0
 11
403.2448036154869
 21
-796.6653029421961
 31
0.0
  0
LINE
  5
2EE
330
1F
100
AcDbEntity
  8
0-0
  6
JWW_DASHED1
 62
   120
370
     5
100
AcDbLine
 10
272.6677879287431
 20
-920.1712508156546
 30
0.0
 11
403.2448036154827
 21
-789.594235128915
 31
0.0
  0
LINE
  5
2EF
330
1F
100
AcDbEntity
  8
0-0
  6
JWW_DASHED1
 62
   120
370
     5
100
AcDbLine
 10
265.5967201154618
 20
-920.1712508156503
 30
0.0
 11
403.2448036154784
 21
-782.5231673156337
 31
0.0
  0
LINE
  5
2F0
330
1F
100
AcDbEntity
  8
0-0
  6
JWW_DASHED1
 62
   120
370
     5
100
AcDbLine
 10
258.5256523021584
 20
-920.1712508156687
 30
0.0
 11
403.2448036155048
 21
-775.4520995023219
 31
0.0
  0
LINE
  5
2F1
330
1F
100
AcDbEntity
  8
0-0
  6
JWW_DASHED1
 62
   120
370
     5
100
AcDbLine
 10
251.4545844888773
 20
-920.1712508156639
 30
0.0
 11
403.244803615501
 21
-768.3810316890406
 31
0.0
  0
LINE
  5
2F2
330
1F
100
AcDbEntity
  8
0-0
  6
JWW_DASHED1
 62
   120
370
     5
100
AcDbLine
 10
244.3835166755867
 20
-920.171250815669
 30
0.0
 11
403.2448036154985
 21
-761.3099638757573
 31
0.0
  0
LINE
  5
2F3
330
1F
100
AcDbEntity
  8
0-0
  6
JWW_DASHED1
 62
   120
370
     5
100
AcDbLine
 10
237.3124488623054
 20
-920.1712508156648
 30
0.0
 11
403.2448036154942
 21
-754.2388960624761
 31
0.0
  0
LINE
  5
2F4
330
1F
100
AcDbEntity
  8
0-0
  6
JWW_DASHED1
 62
   120
370
     5
100
AcDbLine
 10
230.2413810490242
 20
-920.1712508156605
 30
0.0
 11
403.24480361549
 21
-747.1678282491947
 31
0.0
  0
LINE
  5
2F5
330
1F
100
AcDbEntity
  8
0-0
  6
JWW_DASHED1
 62
   120
370
     5
100
AcDbLine
 10
223.1703132358014
 20
-920.1712508156523
 30
0.0
 11
403.2448036154818
 21
-740.096760435972
 31
0.0
  0
LINE
  5
2F6
330
1F
100
AcDbEntity
  8
0-0
  6
JWW_DASHED1
 62
   120
370
     5
100
AcDbLine
 10
216.0992454225202
 20
-920.1712508156482
 30
0.0
 11
403.2448036154776
 21
-733.0256926226908
 31
0.0
  0
LINE
  5
2F7
330
1F
100
AcDbEntity
  8
0-0
  6
JWW_DASHED1
 62
   120
370
     5
100
AcDbLine
 10
209.0281776092198
 20
-920.1712508156636
 30
0.0
 11
403.244803615504
 21
-725.9546248093789
 31
0.0
  0
LINE
  5
2F8
330
1F
100
AcDbEntity
  8
0-0
  6
JWW_DASHED1
 62
   120
370
     5
100
AcDbLine
 10
201.957109795939
 20
-920.1712508156585
 30
0.0
 11
403.2448036154993
 21
-718.8835569960982
 31
0.0
  0
LINE
  5
2F9
330
1F
100
AcDbEntity
  8
0-0
  6
JWW_DASHED1
 62
   120
370
     5
100
AcDbLine
 10
194.886041982645
 20
-920.171250815667
 30
0.0
 11
403.2448036154976
 21
-711.8124891828144
 31
0.0
  0
LINE
  5
2FA
330
1F
100
AcDbEntity
  8
0-0
  6
JWW_DASHED1
 62
   120
370
     5
100
AcDbLine
 10
187.8149741693638
 20
-920.1712508156626
 30
0.0
 11
403.2448036154934
 21
-704.741421369533
 31
0.0
  0
LINE
  5
2FB
330
1F
100
AcDbEntity
  8
0-0
  6
JWW_DASHED1
 62
   120
370
     5
100
AcDbLine
 10
180.7439063560826
 20
-920.1712508156588
 30
0.0
 11
403.244803615489
 21
-697.6703535562519
 31
0.0
  0
LINE
  5
2FC
330
1F
100
AcDbEntity
  8
0-0
  6
JWW_DASHED1
 62
   120
370
     5
100
AcDbLine
 10
173.6728385428009
 20
-920.1712508156551
 30
0.0
 11
403.2448036154852
 21
-690.5992857429707
 31
0.0
  0
LINE
  5
2FD
330
1F
100
AcDbEntity
  8
0-0
  6
JWW_DASHED1
 62
   120
370
     5
100
AcDbLine
 10
166.6017707295197
 20
-920.1712508156503
 30
0.0
 11
403.244803615481
 21
-683.528217929689
 31
0.0
  0
LINE
  5
2FE
330
1F
100
AcDbEntity
  8
0-0
  6
JWW_DASHED1
 62
   120
370
     5
100
AcDbLine
 10
159.5307029162807
 20
-920.1712508156585
 30
0.0
 11
403.2448036155023
 21
-676.4571501164368
 31
0.0
  0
LINE
  5
2FF
330
1F
100
AcDbEntity
  8
0-0
  6
JWW_DASHED1
 62
   120
370
     5
100
AcDbLine
 10
153.2448036154939
 20
-919.3860823031602
 30
0.0
 11
403.2448036155006
 21
-669.3860823031533
 31
0.0
  0
LINE
  5
300
330
1F
100
AcDbEntity
  8
0-0
  6
JWW_DASHED1
 62
   120
370
     5
100
AcDbLine
 10
153.2448036154897
 20
-912.3150144898785
 30
0.0
 11
403.2448036154963
 21
-662.3150144898718
 31
0.0
  0
LINE
  5
301
330
1F
100
AcDbEntity
  8
0-0
  6
JWW_DASHED1
 62
   120
370
     5
100
AcDbLine
 10
153.2448036154854
 20
-905.2439466765971
 30
0.0
 11
403.2448036154925
 21
-655.2439466765906
 31
0.0
  0
LINE
  5
302
330
1F
100
AcDbEntity
  8
0-0
  6
JWW_DASHED1
 62
   120
370
     5
100
AcDbLine
 10
153.2448036154816
 20
-898.1728788633156
 30
0.0
 11
403.2448036154883
 21
-648.1728788633089
 31
0.0
  0
LINE
  5
303
330
1F
100
AcDbEntity
  8
0-0
  6
JWW_DASHED1
 62
   120
370
     5
100
AcDbLine
 10
153.2448036154773
 20
-891.1018110500344
 30
0.0
 11
403.2448036154844
 21
-641.1018110500278
 31
0.0
  0
LINE
  5
304
330
1F
100
AcDbEntity
  8
0-0
  6
JWW_DASHED1
 62
   120
370
     5
100
AcDbLine
 10
153.2448036154735
 20
-884.0307432367528
 30
0.0
 11
403.2448036154805
 21
-634.030743236746
 31
0.0
  0
LINE
  5
305
330
1F
100
AcDbEntity
  8
0-0
  6
JWW_DASHED1
 62
   120
370
     5
100
AcDbLine
 10
153.2448036154692
 20
-876.9596754234716
 30
0.0
 11
403.2448036154763
 21
-626.9596754234649
 31
0.0
  0
LINE
  5
306
330
1F
100
AcDbEntity
  8
0-0
  6
JWW_DASHED1
 62
   120
370
     5
100
AcDbLine
 10
153.2448036154807
 20
-869.8886076101745
 30
0.0
 11
403.244803615501
 21
-619.8886076101543
 31
0.0
  0
LINE
  5
307
330
1F
100
AcDbEntity
  8
0-0
  6
JWW_DASHED1
 62
   120
370
     5
100
AcDbLine
 10
153.2448036154927
 20
-862.8175397968771
 30
0.0
 11
403.2448036155002
 21
-612.81753979687
 31
0.0
  0
LINE
  5
308
330
1F
100
AcDbEntity
  8
0-0
  6
JWW_DASHED1
 62
   120
370
     5
100
AcDbLine
 10
153.2448036154846
 20
-855.7464719836544
 30
0.0
 11
403.2448036154917
 21
-605.7464719836477
 31
0.0
  0
LINE
  5
309
330
1F
100
AcDbEntity
  8
0-0
  6
JWW_DASHED1
 62
   120
370
     5
100
AcDbLine
 10
153.2448036154803
 20
-848.6754041703731
 30
0.0
 11
403.2448036154876
 21
-598.675404170366
 31
0.0
  0
LINE
  5
30A
330
1F
100
AcDbEntity
  8
0-0
  6
JWW_DASHED1
 62
   120
370
     5
100
AcDbLine
 10
153.2448036154765
 20
-841.6043363570915
 30
0.0
 11
403.2448036154834
 21
-591.6043363570847
 31
0.0
  0
LINE
  5
30B
330
1F
100
AcDbEntity
  8
0-0
  6
JWW_DASHED1
 62
   120
370
     5
100
AcDbLine
 10
153.2448036154726
 20
-834.5332685438099
 30
0.0
 11
403.24480361548
 21
-584.5332685438026
 31
0.0
  0
LINE
  5
30C
330
1F
100
AcDbEntity
  8
0-0
  6
JWW_DASHED1
 62
   120
370
     5
100
AcDbLine
 10
153.2448036154833
 20
-827.4622007305137
 30
0.0
 11
403.2448036155042
 21
-577.4622007304926
 31
0.0
  0
LINE
  5
30D
330
1F
100
AcDbEntity
  8
0-0
  6
JWW_DASHED1
 62
   120
370
     5
100
AcDbLine
 10
153.2448036154794
 20
-820.3911329172324
 30
0.0
 11
403.2448036155002
 21
-570.3911329172112
 31
0.0
  0
LINE
  5
30E
330
1F
100
AcDbEntity
  8
0-0
  6
JWW_DASHED1
 62
   120
370
     5
100
AcDbLine
 10
153.2448036154918
 20
-813.3200651039342
 30
0.0
 11
403.2448036154993
 21
-563.3200651039267
 31
0.0
  0
LINE
  5
30F
330
1F
100
AcDbEntity
  8
0-0
  6
JWW_DASHED1
 62
   120
370
     5
100
AcDbLine
 10
153.244803615488
 20
-806.2489972906526
 30
0.0
 11
403.2448036154951
 21
-556.2489972906454
 31
0.0
  0
LINE
  5
310
330
1F
100
AcDbEntity
  8
0-0
  6
JWW_DASHED1
 62
   120
370
     5
100
AcDbLine
 10
153.2448036154841
 20
-799.1779294773709
 30
0.0
 11
403.2448036154908
 21
-549.1779294773643
 31
0.0
  0
LINE
  5
311
330
1F
100
AcDbEntity
  8
0-0
  6
JWW_DASHED1
 62
   120
370
     5
100
AcDbLine
 10
153.2448036154756
 20
-792.1068616641485
 30
0.0
 11
403.2448036154825
 21
-542.1068616641419
 31
0.0
  0
LINE
  5
312
330
1F
100
AcDbEntity
  8
0-0
  6
JWW_DASHED1
 62
   120
370
     5
100
AcDbLine
 10
153.2448036154718
 20
-785.0357938508668
 30
0.0
 11
403.2448036154784
 21
-535.0357938508606
 31
0.0
  0
LINE
  5
313
330
1F
100
AcDbEntity
  8
0-0
  6
JWW_DASHED1
 62
   120
370
     5
100
AcDbLine
 10
153.244803615482
 20
-777.964726037571
 30
0.0
 11
403.2448036155031
 21
-527.9647260375505
 31
0.0
  0
LINE
  5
314
330
1F
100
AcDbEntity
  8
0-0
  6
JWW_DASHED1
 62
   120
370
     5
100
AcDbLine
 10
153.2448036154782
 20
-770.8936582242895
 30
0.0
 11
403.2448036154989
 21
-520.8936582242687
 31
0.0
  0
LINE
  5
315
330
1F
100
AcDbEntity
  8
0-0
  6
JWW_DASHED1
 62
   120
370
     5
100
AcDbLine
 10
153.244803615491
 20
-763.8225904109912
 30
0.0
 11
403.2448036154979
 21
-513.8225904109846
 31
0.0
  0
LINE
  5
316
330
1F
100
AcDbEntity
  8
0-0
  6
JWW_DASHED1
 62
   120
370
     5
100
AcDbLine
 10
153.2448036154871
 20
-756.75152259771
 30
0.0
 11
403.2448036154942
 21
-506.7515225977025
 31
0.0
  0
LINE
  5
317
330
1F
100
AcDbEntity
  8
0-0
  6
JWW_DASHED1
 62
   120
370
     5
100
AcDbLine
 10
153.2448036154829
 20
-749.6804547844284
 30
0.0
 11
403.24480361549
 21
-499.6804547844213
 31
0.0
  0
LINE
  5
318
330
1F
100
AcDbEntity
  8
0-0
  6
JWW_DASHED1
 62
   120
370
     5
100
AcDbLine
 10
153.244803615479
 20
-742.6093869711467
 30
0.0
 11
403.2448036154859
 21
-492.6093869711401
 31
0.0
  0
LINE
  5
319
330
1F
100
AcDbEntity
  8
0-0
  6
JWW_DASHED1
 62
   120
370
     5
100
AcDbLine
 10
153.2448036154752
 20
-735.5383191578655
 30
0.0
 11
403.2448036154818
 21
-485.5383191578584
 31
0.0
  0
LINE
  5
31A
330
1F
100
AcDbEntity
  8
0-0
  6
JWW_DASHED1
 62
   120
370
     5
100
AcDbLine
 10
153.2448036154709
 20
-728.4672513445843
 30
0.0
 11
403.244803615478
 21
-478.4672513445768
 31
0.0
  0
LINE
  5
31B
330
1F
100
AcDbEntity
  8
0-0
  6
JWW_DASHED1
 62
   120
370
     5
100
AcDbLine
 10
153.2448036154944
 20
-721.3961835313299
 30
0.0
 11
403.244803615501
 21
-471.3961835313228
 31
0.0
  0
LINE
  5
31C
330
1F
100
AcDbEntity
  8
0-0
  6
JWW_DASHED1
 62
   120
370
     5
100
AcDbLine
 10
153.2448036154901
 20
-714.3251157180483
 30
0.0
 11
403.244803615497
 21
-464.3251157180416
 31
0.0
  0
LINE
  5
31D
330
1F
100
AcDbEntity
  8
0-0
  6
JWW_DASHED1
 62
   120
370
     5
100
AcDbLine
 10
153.2448036154863
 20
-707.254047904767
 30
0.0
 11
403.2448036154934
 21
-457.2540479047595
 31
0.0
  0
LINE
  5
31E
330
1F
100
AcDbEntity
  8
0-0
  6
JWW_DASHED1
 62
   120
370
     5
100
AcDbLine
 10
153.244803615482
 20
-700.1829800914853
 30
0.0
 11
403.244803615489
 21
-450.1829800914783
 31
0.0
  0
LINE
  5
31F
330
1F
100
AcDbEntity
  8
0-0
  6
JWW_DASHED1
 62
   120
370
     5
100
AcDbLine
 10
153.2448036154782
 20
-693.1119122782043
 30
0.0
 11
403.2448036154851
 21
-443.1119122781971
 31
0.0
  0
LINE
  5
320
330
1F
100
AcDbEntity
  8
0-0
  6
JWW_DASHED1
 62
   120
370
     5
100
AcDbLine
 10
153.2448036154743
 20
-686.0408444649225
 30
0.0
 11
403.244803615481
 21
-436.0408444649154
 31
0.0
  0
LINE
  5
321
330
1F
100
AcDbEntity
  8
0-0
  6
JWW_DASHED1
 62
   120
370
     5
100
AcDbLine
 10
153.2448036154701
 20
-678.9697766516409
 30
0.0
 11
403.2448036154771
 21
-428.9697766516338
 31
0.0
  0
LINE
  5
322
330
1F
100
AcDbEntity
  8
0-0
  6
JWW_DASHED1
 62
   120
370
     5
100
AcDbLine
 10
153.2448036154794
 20
-671.8987088383461
 30
0.0
 11
403.2448036155008
 21
-421.8987088383249
 31
0.0
  0
LINE
  5
323
330
1F
100
AcDbEntity
  8
0-0
  6
JWW_DASHED1
 62
   120
370
     5
100
AcDbLine
 10
153.2448036154935
 20
-664.8276410250465
 30
0.0
 11
403.2448036155004
 21
-414.8276410250398
 31
0.0
  0
LINE
  5
324
330
1F
100
AcDbEntity
  8
0-0
  6
JWW_DASHED1
 62
   120
370
     5
100
AcDbLine
 10
153.2448036154854
 20
-657.7565732118242
 30
0.0
 11
403.2448036154923
 21
-407.7565732118171
 31
0.0
  0
LINE
  5
325
330
1F
100
AcDbEntity
  8
0-0
  6
JWW_DASHED1
 62
   120
370
     5
100
AcDbLine
 10
153.2448036154811
 20
-650.6855053985425
 30
0.0
 11
403.2448036154883
 21
-400.6855053985354
 31
0.0
  0
LINE
  5
326
330
1F
100
AcDbEntity
  8
0-0
  6
JWW_DASHED1
 62
   120
370
     5
100
AcDbLine
 10
153.2448036154773
 20
-643.6144375852613
 30
0.0
 11
403.2448036154842
 21
-393.6144375852542
 31
0.0
  0
LINE
  5
327
330
1F
100
AcDbEntity
  8
0-0
  6
JWW_DASHED1
 62
   120
370
     5
100
AcDbLine
 10
153.2448036154735
 20
-636.5433697719797
 30
0.0
 11
403.24480361548
 21
-386.5433697719729
 31
0.0
  0
LINE
  5
328
330
1F
100
AcDbEntity
  8
0-0
  6
JWW_DASHED1
 62
   120
370
     5
100
AcDbLine
 10
153.2448036154692
 20
-629.472301958698
 30
0.0
 11
403.2448036154921
 21
-379.4723019586755
 31
0.0
  0
LINE
  5
329
330
1F
100
AcDbEntity
  8
0-0
  6
JWW_DASHED1
 62
   120
370
     5
100
AcDbLine
 10
153.2448036154786
 20
-622.401234145403
 30
0.0
 11
403.2448036154993
 21
-372.4012341453824
 31
0.0
  0
LINE
  5
32A
330
1F
100
AcDbEntity
  8
0-0
  6
JWW_DASHED1
 62
   120
370
     5
100
AcDbLine
 10
153.2448036154927
 20
-615.3301663321035
 30
0.0
 11
403.2448036154996
 21
-365.3301663320969
 31
0.0
  0
LINE
  5
32B
330
1F
100
AcDbEntity
  8
0-0
  6
JWW_DASHED1
 62
   120
370
     5
100
AcDbLine
 10
153.2448036154884
 20
-608.2590985188224
 30
0.0
 11
403.2448036154957
 21
-358.2590985188148
 31
0.0
  0
LINE
  5
32C
330
1F
100
AcDbEntity
  8
0-0
  6
JWW_DASHED1
 62
   120
370
     5
100
AcDbLine
 10
153.2448036154846
 20
-601.1880307055408
 30
0.0
 11
403.2448036154917
 21
-351.1880307055336
 31
0.0
  0
LINE
  5
32D
330
1F
100
AcDbEntity
  8
0-0
  6
JWW_DASHED1
 62
   120
370
     5
100
AcDbLine
 10
153.2448036154765
 20
-594.1169628923179
 30
0.0
 11
403.2448036154834
 21
-344.1169628923112
 31
0.0
  0
LINE
  5
32E
330
1F
100
AcDbEntity
  8
0-0
  6
JWW_DASHED1
 62
   120
370
     5
100
AcDbLine
 10
153.2448036154726
 20
-587.0458950790367
 30
0.0
 11
403.2448036154791
 21
-337.04589507903
 31
0.0
  0
LINE
  5
32F
330
1F
100
AcDbEntity
  8
0-0
  6
JWW_DASHED1
 62
   120
370
     5
100
AcDbLine
 10
153.2448036154811
 20
-579.9748272657423
 30
0.0
 11
403.2448036155017
 21
-329.9748272657215
 31
0.0
  0
LINE
  5
330
330
1F
100
AcDbEntity
  8
0-0
  6
JWW_DASHED1
 62
   120
370
     5
100
AcDbLine
 10
153.2448036154773
 20
-572.9037594524606
 30
0.0
 11
403.2448036154979
 21
-322.9037594524403
 31
0.0
  0
LINE
  5
331
330
1F
100
AcDbEntity
  8
0-0
  6
JWW_DASHED1
 62
   120
370
     5
100
AcDbLine
 10
153.2448036154918
 20
-565.8326916391607
 30
0.0
 11
403.2448036154989
 21
-315.8326916391539
 31
0.0
  0
LINE
  5
332
330
1F
100
AcDbEntity
  8
0-0
  6
JWW_DASHED1
 62
   120
370
     5
100
AcDbLine
 10
153.2448036154875
 20
-558.7616238258794
 30
0.0
 11
403.2448036154948
 21
-308.7616238258719
 31
0.0
  0
LINE
  5
333
330
1F
100
AcDbEntity
  8
0-0
  6
JWW_DASHED1
 62
   120
370
     5
100
AcDbLine
 10
153.2448036154837
 20
-551.6905560125978
 30
0.0
 11
403.2448036154908
 21
-301.6905560125907
 31
0.0
  0
LINE
  5
334
330
1F
100
AcDbEntity
  8
0-0
  6
JWW_DASHED1
 62
   120
370
     5
100
AcDbLine
 10
153.2448036154799
 20
-544.6194881993162
 30
0.0
 11
403.2448036154865
 21
-294.6194881993094
 31
0.0
  0
LINE
  5
335
330
1F
100
AcDbEntity
  8
0-0
  6
JWW_DASHED1
 62
   120
370
     5
100
AcDbLine
 10
153.2448036154756
 20
-537.5484203860349
 30
0.0
 11
403.2448036154829
 21
-287.5484203860277
 31
0.0
  0
LINE
  5
336
330
1F
100
AcDbEntity
  8
0-0
  6
JWW_DASHED1
 62
   120
370
     5
100
AcDbLine
 10
153.2448036154713
 20
-530.4773525727537
 30
0.0
 11
403.2448036154788
 21
-280.4773525727462
 31
0.0
  0
LINE
  5
337
330
1F
100
AcDbEntity
  8
0-0
  6
JWW_DASHED1
 62
   120
370
     5
100
AcDbLine
 10
153.244803615479
 20
-523.4062847595151
 30
0.0
 11
403.2448036155019
 21
-273.4062847594922
 31
0.0
  0
LINE
  5
338
330
1F
100
AcDbEntity
  8
0-0
  6
JWW_DASHED1
 62
   120
370
     5
100
AcDbLine
 10
153.244803615491
 20
-516.3352169462177
 30
0.0
 11
403.2448036154976
 21
-266.335216946211
 31
0.0
  0
LINE
  5
339
330
1F
100
AcDbEntity
  8
0-0
  6
JWW_DASHED1
 62
   120
370
     5
100
AcDbLine
 10
153.2448036154867
 20
-509.2641491329365
 30
0.0
 11
403.2448036154938
 21
-259.2641491329298
 31
0.0
  0
LINE
  5
33A
330
1F
100
AcDbEntity
  8
0-0
  6
JWW_DASHED1
 62
   120
370
     5
100
AcDbLine
 10
153.2448036154829
 20
-502.1930813196553
 30
0.0
 11
403.24480361549
 21
-252.1930813196477
 31
0.0
  0
LINE
  5
33B
330
1F
100
AcDbEntity
  8
0-0
  6
JWW_DASHED1
 62
   120
370
     5
100
AcDbLine
 10
153.244803615479
 20
-495.1220135063732
 30
0.0
 11
403.2448036154856
 21
-245.1220135063665
 31
0.0
  0
LINE
  5
33C
330
1F
100
AcDbEntity
  8
0-0
  6
JWW_DASHED1
 62
   120
370
     5
100
AcDbLine
 10
153.2448036154748
 20
-488.050945693092
 30
0.0
 11
403.2448036154814
 21
-238.0509456930853
 31
0.0
  0
LINE
  5
33D
330
1F
100
AcDbEntity
  8
0-0
  6
JWW_DASHED1
 62
   120
370
     5
100
AcDbLine
 10
153.2448036154705
 20
-480.9798778798108
 30
0.0
 11
403.244803615478
 21
-230.9798778798032
 31
0.0
  0
LINE
  5
33E
330
1F
100
AcDbEntity
  8
0-0
  6
JWW_DASHED1
 62
   120
370
     5
100
AcDbLine
 10
153.244803615479
 20
-473.9088100665172
 30
0.0
 11
403.2448036154997
 21
-223.9088100664964
 31
0.0
  0
LINE
  5
33F
330
1F
100
AcDbEntity
  8
0-0
  6
JWW_DASHED1
 62
   120
370
     5
100
AcDbLine
 10
153.2448036154944
 20
-466.8377422532163
 30
0.0
 11
403.2448036155013
 21
-216.8377422532092
 31
0.0
  0
LINE
  5
340
330
1F
100
AcDbEntity
  8
0-0
  6
JWW_DASHED1
 62
   120
370
     5
100
AcDbLine
 10
153.2448036154858
 20
-459.7666744399936
 30
0.0
 11
403.2448036154929
 21
-209.7666744399868
 31
0.0
  0
LINE
  5
341
330
1F
100
AcDbEntity
  8
0-0
  6
JWW_DASHED1
 62
   120
370
     5
100
AcDbLine
 10
153.244803615482
 20
-452.6956066267122
 30
0.0
 11
403.2448036154886
 21
-202.6956066267052
 31
0.0
  0
LINE
  5
342
330
1F
100
AcDbEntity
  8
0-0
  6
JWW_DASHED1
 62
   120
370
     5
100
AcDbLine
 10
153.2448036154777
 20
-445.6245388134307
 30
0.0
 11
403.2448036154848
 21
-195.6245388134236
 31
0.0
  0
LINE
  5
343
330
1F
100
AcDbEntity
  8
0-0
  6
JWW_DASHED1
 62
   120
370
     5
100
AcDbLine
 10
153.2448036154739
 20
-438.5534710001494
 30
0.0
 11
403.2448036154808
 21
-188.5534710001423
 31
0.0
  0
LINE
  5
344
330
1F
100
AcDbEntity
  8
0-0
  6
JWW_DASHED1
 62
   120
370
     5
100
AcDbLine
 10
153.2448036154696
 20
-431.4824031868677
 30
0.0
 11
403.2448036154767
 21
-181.4824031868607
 31
0.0
  0
LINE
  5
345
330
1F
100
AcDbEntity
  8
0-0
  6
JWW_DASHED1
 62
   120
370
     5
100
AcDbLine
 10
153.2448036154777
 20
-424.4113353735742
 30
0.0
 11
403.2448036154983
 21
-174.4113353735539
 31
0.0
  0
LINE
  5
346
330
1F
100
AcDbEntity
  8
0-0
  6
JWW_DASHED1
 62
   120
370
     5
100
AcDbLine
 10
153.2448036154935
 20
-417.3402675602734
 30
0.0
 11
403.2448036155004
 21
-167.3402675602663
 31
0.0
  0
LINE
  5
347
330
1F
100
AcDbEntity
  8
0-0
  6
JWW_DASHED1
 62
   120
370
     5
100
AcDbLine
 10
153.2448036154892
 20
-410.2691997469918
 30
0.0
 11
403.2448036154966
 21
-160.2691997469846
 31
0.0
  0
LINE
  5
348
330
1F
100
AcDbEntity
  8
0-0
  6
JWW_DASHED1
 62
   120
370
     5
100
AcDbLine
 10
153.2448036154854
 20
-403.1981319337101
 30
0.0
 11
403.2448036154923
 21
-153.1981319337034
 31
0.0
  0
LINE
  5
349
330
1F
100
AcDbEntity
  8
0-0
  6
JWW_DASHED1
 62
   120
370
     5
100
AcDbLine
 10
153.2448036154816
 20
-396.1270641204289
 30
0.0
 11
403.244803615488
 21
-146.1270641204218
 31
0.0
  0
LINE
  5
34A
330
1F
100
AcDbEntity
  8
0-0
  6
JWW_DASHED1
 62
   120
370
     5
100
AcDbLine
 10
153.244803615473
 20
-389.0559963072065
 30
0.0
 11
403.24480361548
 21
-139.0559963071994
 31
0.0
  0
LINE
  5
34B
330
1F
100
AcDbEntity
  8
0-0
  6
JWW_DASHED1
 62
   120
370
     5
100
AcDbLine
 10
153.2448036154803
 20
-381.9849284939137
 30
0.0
 11
403.244803615501
 21
-131.9849284938926
 31
0.0
  0
LINE
  5
34C
330
1F
100
AcDbEntity
  8
0-0
  6
JWW_DASHED1
 62
   120
370
     5
100
AcDbLine
 10
153.2448036154765
 20
-374.9138606806321
 30
0.0
 11
403.2448036154968
 21
-124.9138606806114
 31
0.0
  0
LINE
  5
34D
330
1F
100
AcDbEntity
  8
0-0
  6
JWW_DASHED1
 62
   120
370
     5
100
AcDbLine
 10
153.2448036154927
 20
-367.84279286733
 30
0.0
 11
403.2448036154996
 21
-117.8427928673233
 31
0.0
  0
LINE
  5
34E
330
1F
100
AcDbEntity
  8
0-0
  6
JWW_DASHED1
 62
   120
370
     5
100
AcDbLine
 10
153.2448036154884
 20
-360.7717250540487
 30
0.0
 11
403.2448036154957
 21
-110.7717250540417
 31
0.0
  0
LINE
  5
34F
330
1F
100
AcDbEntity
  8
0-0
  6
JWW_DASHED1
 62
   120
370
     5
100
AcDbLine
 10
153.2448036154846
 20
-353.7006572407672
 30
0.0
 11
403.2448036154914
 21
-103.7006572407605
 31
0.0
  0
LINE
  5
350
330
1F
100
AcDbEntity
  8
0-0
  6
JWW_DASHED1
 62
   120
370
     5
100
AcDbLine
 10
153.2448036154805
 20
-346.6295894274859
 30
0.0
 11
403.2448036154872
 21
-96.62958942747882
 31
0.0
  0
LINE
  5
351
330
1F
100
AcDbEntity
  8
0-0
  6
JWW_DASHED1
 62
   120
370
     5
100
AcDbLine
 10
153.2448036154765
 20
-339.5585216142047
 30
0.0
 11
403.2448036154834
 21
-89.5585216141976
 31
0.0
  0
LINE
  5
352
330
1F
100
AcDbEntity
  8
0-0
  6
JWW_DASHED1
 62
   120
370
     5
100
AcDbLine
 10
153.2448036154722
 20
-332.4874538009231
 30
0.0
 11
403.2448036154795
 21
-82.48745380091596
 31
0.0
  0
LINE
  5
353
330
1F
100
AcDbEntity
  8
0-0
  6
JWW_DASHED1
 62
   120
370
     5
100
AcDbLine
 10
153.2448036154748
 20
-325.4163859876895
 30
0.0
 11
403.2448036154957
 21
-75.41638598766885
 31
0.0
  0
LINE
  5
354
330
1F
100
AcDbEntity
  8
0-0
  6
JWW_DASHED1
 62
   120
370
     5
100
AcDbLine
 10
153.2448036154918
 20
-318.3453181743875
 30
0.0
 11
403.2448036154985
 21
-68.34531817438038
 31
0.0
  0
LINE
  5
355
330
1F
100
AcDbEntity
  8
0-0
  6
JWW_DASHED1
 62
   120
370
     5
100
AcDbLine
 10
153.2448036154875
 20
-311.2742503611063
 30
0.0
 11
403.2448036154942
 21
-61.27425036109916
 31
0.0
  0
LINE
  5
356
330
1F
100
AcDbEntity
  8
0-0
  6
JWW_DASHED1
 62
   120
370
     5
100
AcDbLine
 10
153.2448036154833
 20
-304.2031825478246
 30
0.0
 11
403.2448036154906
 21
-54.20318254781752
 31
0.0
  0
LINE
  5
357
330
1F
100
AcDbEntity
  8
0-0
  6
JWW_DASHED1
 62
   120
370
     5
100
AcDbLine
 10
153.2448036154792
 20
-297.1321147345434
 30
0.0
 11
403.2448036154863
 21
-47.13211473453588
 31
0.0
  0
LINE
  5
358
330
1F
100
AcDbEntity
  8
0-0
  6
JWW_DASHED1
 62
   120
370
     5
100
AcDbLine
 10
153.2448036154756
 20
-290.0610469212618
 30
0.0
 11
403.2448036154822
 21
-40.06104692125466
 31
0.0
  0
LINE
  5
359
330
1F
100
AcDbEntity
  8
0-0
  6
JWW_DASHED1
 62
   120
370
     5
100
AcDbLine
 10
153.2448036154713
 20
-282.98997910798
 30
0.0
 11
403.2448036154786
 21
-32.98997910797301
 31
0.0
  0
LINE
  5
35A
330
1F
100
AcDbEntity
  8
0-0
  6
JWW_DASHED1
 62
   120
370
     5
100
AcDbLine
 10
153.2448036154777
 20
-275.9189112946883
 30
0.0
 11
403.2448036154985
 21
-25.9189112946675
 31
0.0
  0
LINE
  5
35B
330
1F
100
AcDbEntity
  8
0-0
  6
JWW_DASHED1
 62
   120
370
     5
100
AcDbLine
 10
153.244803615495
 20
-268.8478434813857
 30
0.0
 11
403.2448036155019
 21
-18.8478434813786
 31
0.0
  0
LINE
  5
35C
330
1F
100
AcDbEntity
  8
0-0
  6
JWW_DASHED1
 62
   120
370
     5
100
AcDbLine
 10
153.2448036154867
 20
-261.7767756681628
 30
0.0
 11
403.2448036154934
 21
-11.77677566815622
 31
0.0
  0
LINE
  5
35D
330
1F
100
AcDbEntity
  8
0-0
  6
JWW_DASHED1
 62
   120
370
     5
100
AcDbLine
 10
153.2448036154824
 20
-254.7057078548817
 30
0.0
 11
403.2448036154895
 21
-4.705707854875003
 31
0.0
  0
LINE
  5
35E
330
1F
100
AcDbEntity
  8
0-0
  6
JWW_DASHED1
 62
   120
370
     5
100
AcDbLine
 10
153.2448036154784
 20
-247.6346400416004
 30
0.0
 11
403.2448036154856
 21
2.365359958407067
 31
0.0
  0
LINE
  5
35F
330
1F
100
AcDbEntity
  8
0-0
  6
JWW_DASHED1
 62
   120
370
     5
100
AcDbLine
 10
153.2448036154748
 20
-240.5635722283188
 30
0.0
 11
403.2448036154814
 21
9.436427771688285
 31
0.0
  0
LINE
  5
360
330
1F
100
AcDbEntity
  8
0-0
  6
JWW_DASHED1
 62
   120
370
     5
100
AcDbLine
 10
153.2448036154705
 20
-233.4925044150372
 30
0.0
 11
403.2448036154776
 21
16.5074955849695
 31
0.0
  0
LINE
  5
361
330
1F
100
AcDbEntity
  8
0-0
  6
JWW_DASHED1
 62
   120
370
     5
100
AcDbLine
 10
153.2448036154767
 20
-226.4214366017457
 30
0.0
 11
403.2448036154972
 21
23.5785633982746
 31
0.0
  0
LINE
  5
362
330
1F
100
AcDbEntity
  8
0-0
  6
JWW_DASHED1
 62
   120
370
     5
100
AcDbLine
 10
153.2448036154941
 20
-219.3503687884428
 30
0.0
 11
403.2448036155014
 21
30.64963121156434
 31
0.0
  0
LINE
  5
363
330
1F
100
AcDbEntity
  8
0-0
  6
JWW_DASHED1
 62
   120
370
     5
100
AcDbLine
 10
153.2448036154899
 20
-212.2793009751616
 30
0.0
 11
403.2448036154972
 21
37.72069902484556
 31
0.0
  0
LINE
  5
364
330
1F
100
AcDbEntity
  8
0-0
  6
JWW_DASHED1
 62
   120
370
     5
100
AcDbLine
 10
153.244803615486
 20
-205.2082331618799
 30
0.0
 11
403.2448036154929
 21
44.7917668381272
 31
0.0
  0
LINE
  5
365
330
1F
100
AcDbEntity
  8
0-0
  6
JWW_DASHED1
 62
   120
370
     5
100
AcDbLine
 10
153.2448036154818
 20
-198.1371653485983
 30
0.0
 11
403.2448036154889
 21
51.86283465140842
 31
0.0
  0
LINE
  5
366
330
1F
100
AcDbEntity
  8
0-0
  6
JWW_DASHED1
 62
   120
370
     5
100
AcDbLine
 10
153.2448036154737
 20
-191.0660975353759
 30
0.0
 11
403.2448036154805
 21
58.93390246463123
 31
0.0
  0
LINE
  5
367
330
1F
100
AcDbEntity
  8
0-0
  6
JWW_DASHED1
 62
   120
370
     5
100
AcDbLine
 10
153.2448036154794
 20
-183.9950297220844
 30
0.0
 11
403.2448036155
 21
66.0049702779359
 31
0.0
  0
LINE
  5
368
330
1F
100
AcDbEntity
  8
0-0
  6
JWW_DASHED1
 62
   120
370
     5
100
AcDbLine
 10
153.2448036154752
 20
-176.9239619088032
 30
0.0
 11
403.2448036154957
 21
73.07603809121711
 31
0.0
  0
LINE
  5
369
330
1F
100
AcDbEntity
  8
0-0
  6
JWW_DASHED1
 62
   120
370
     5
100
AcDbLine
 10
153.2448036154933
 20
-169.8528940954998
 30
0.0
 11
403.2448036155
 21
80.14710590450686
 31
0.0
  0
LINE
  5
36A
330
1F
100
AcDbEntity
  8
0-0
  6
JWW_DASHED1
 62
   120
370
     5
100
AcDbLine
 10
153.244803615489
 20
-162.7818262822186
 30
0.0
 11
403.2448036154962
 21
87.2181737177885
 31
0.0
  0
LINE
  5
36B
330
1F
100
AcDbEntity
  8
0-0
  6
JWW_DASHED1
 62
   120
370
     5
100
AcDbLine
 10
153.244803615485
 20
-155.7107584689374
 30
0.0
 11
403.2448036154921
 21
94.28924153107015
 31
0.0
  0
LINE
  5
36C
330
1F
100
AcDbEntity
  8
0-0
  6
JWW_DASHED1
 62
   120
370
     5
100
AcDbLine
 10
153.2448036154809
 20
-148.6396906556553
 30
0.0
 11
403.244803615488
 21
101.3603093443514
 31
0.0
  0
LINE
  5
36D
330
1F
100
AcDbEntity
  8
0-0
  6
JWW_DASHED1
 62
   120
370
     5
100
AcDbLine
 10
153.2448036154771
 20
-141.5686228423741
 30
0.0
 11
403.2448036154842
 21
108.431377157633
 31
0.0
  0
LINE
  5
36E
330
1F
100
AcDbEntity
  8
0-0
  6
JWW_DASHED1
 62
   120
370
     5
100
AcDbLine
 10
153.244803615473
 20
-134.4975550290929
 30
0.0
 11
403.24480361548
 21
115.5024449709142
 31
0.0
  0
LINE
  5
36F
330
1F
100
AcDbEntity
  8
0-0
  6
JWW_DASHED1
 62
   120
370
     5
100
AcDbLine
 10
153.2448036154737
 20
-127.4264872158611
 30
0.0
 11
403.2448036154946
 21
122.5735127841596
 31
0.0
  0
LINE
  5
370
330
1F
100
AcDbEntity
  8
0-0
  6
JWW_DASHED1
 62
   120
370
     5
100
AcDbLine
 10
153.2448036154922
 20
-120.3554194025569
 30
0.0
 11
403.2448036154991
 21
129.6445805974498
 31
0.0
  0
LINE
  5
371
330
1F
100
AcDbEntity
  8
0-0
  6
JWW_DASHED1
 62
   120
370
     5
100
AcDbLine
 10
153.2448036154882
 20
-113.2843515892757
 30
0.0
 11
403.2448036154953
 21
136.7156484107314
 31
0.0
  0
LINE
  5
372
330
1F
100
AcDbEntity
  8
0-0
  6
JWW_DASHED1
 62
   120
370
     5
100
AcDbLine
 10
153.2448036154841
 20
-106.2132837759944
 30
0.0
 11
403.2448036154914
 21
143.7867162240131
 31
0.0
  0
LINE
  5
373
330
1F
100
AcDbEntity
  8
0-0
  6
JWW_DASHED1
 62
   120
370
     5
100
AcDbLine
 10
153.2448036154803
 20
-99.14221596271237
 30
0.0
 11
403.2448036154872
 21
150.8577840372943
 31
0.0
  0
LINE
  5
374
330
1F
100
AcDbEntity
  8
0-0
  6
JWW_DASHED1
 62
   120
370
     5
100
AcDbLine
 10
153.2448036154762
 20
-92.07114814943115
 30
0.0
 11
403.2448036154829
 21
157.9288518505755
 31
0.0
  0
LINE
  5
375
330
1F
100
AcDbEntity
  8
0-0
  6
JWW_DASHED1
 62
   120
370
     5
100
AcDbLine
 10
153.2448036154722
 20
-85.00008033614994
 30
0.0
 11
403.2448036154793
 21
164.9999196638576
 31
0.0
  0
LINE
  5
376
330
1F
100
AcDbEntity
  8
0-0
  6
JWW_DASHED1
 62
   120
370
     5
100
AcDbLine
 10
153.2448036154769
 20
-77.92901252285934
 30
0.0
 11
403.2448036154974
 21
172.0709874771614
 31
0.0
  0
LINE
  5
377
330
1F
100
AcDbEntity
  8
0-0
  6
JWW_DASHED1
 62
   120
370
     5
100
AcDbLine
 10
153.2448036154956
 20
-70.8579447095551
 30
0.0
 11
403.2448036155027
 21
179.142055290452
 31
0.0
  0
LINE
  5
378
330
1F
100
AcDbEntity
  8
0-0
  6
JWW_DASHED1
 62
   120
370
     5
100
AcDbLine
 10
153.2448036154918
 20
-63.78687689627388
 30
0.0
 11
403.2448036154987
 21
186.2131231037332
 31
0.0
  0
LINE
  5
379
330
1F
100
AcDbEntity
  8
0-0
  6
JWW_DASHED1
 62
   120
370
     5
100
AcDbLine
 10
153.2448036154833
 20
-56.7158090830515
 30
0.0
 11
403.2448036154906
 21
193.284190916956
 31
0.0
  0
LINE
  5
37A
330
1F
100
AcDbEntity
  8
0-0
  6
JWW_DASHED1
 62
   120
370
     5
100
AcDbLine
 10
153.2448036154794
 20
-49.64474126976943
 30
0.0
 11
403.2448036154863
 21
200.3552587302372
 31
0.0
  0
LINE
  5
37B
330
1F
100
AcDbEntity
  8
0-0
  6
JWW_DASHED1
 62
   120
370
     5
100
AcDbLine
 10
153.2448036154754
 20
-42.57367345648821
 30
0.0
 11
403.2448036154821
 21
207.4263265435185
 31
0.0
  0
LINE
  5
37C
330
1F
100
AcDbEntity
  8
0-0
  6
JWW_DASHED1
 62
   120
370
     5
100
AcDbLine
 10
153.2448036154713
 20
-35.50260564320699
 30
0.0
 11
403.244803615478
 21
214.4973943568001
 31
0.0
  0
LINE
  5
37D
330
1F
100
AcDbEntity
  8
0-0
  6
JWW_DASHED1
 62
   120
370
     5
100
AcDbLine
 10
153.2448036154756
 20
-28.43153782991725
 30
0.0
 11
403.2448036154962
 21
221.5684621701035
 31
0.0
  0
LINE
  5
37E
330
1F
100
AcDbEntity
  8
0-0
  6
JWW_DASHED1
 62
   120
370
     5
100
AcDbLine
 10
153.2448036154948
 20
-21.36047001661215
 30
0.0
 11
403.2448036155019
 21
228.6395299833949
 31
0.0
  0
LINE
  5
37F
330
1F
100
AcDbEntity
  8
0-0
  6
JWW_DASHED1
 62
   120
370
     5
100
AcDbLine
 10
153.2448036154907
 20
-14.28940220333094
 30
0.0
 11
403.2448036154979
 21
235.7105977966762
 31
0.0
  0
LINE
  5
380
330
1F
100
AcDbEntity
  8
0-0
  6
JWW_DASHED1
 62
   120
370
     5
100
AcDbLine
 10
153.2448036154865
 20
-7.218334390049721
 30
0.0
 11
403.2448036154938
 21
242.7816656099574
 31
0.0
  0
LINE
  5
381
330
1F
100
AcDbEntity
  8
0-0
  6
JWW_DASHED1
 62
   120
370
     5
100
AcDbLine
 10
153.2448036154829
 20
-0.1472665767676506
 30
0.0
 11
403.2448036154895
 21
249.8527334232386
 31
0.0
  0
LINE
  5
382
330
1F
100
AcDbEntity
  8
0-0
  6
JWW_DASHED1
 62
   120
370
     5
100
AcDbLine
 10
153.2448036154741
 20
6.923801236454308
 30
0.0
 11
403.2448036154812
 21
256.9238012364614
 31
0.0
  0
LINE
  5
383
330
1F
100
AcDbEntity
  8
0-0
  6
JWW_DASHED1
 62
   120
370
     5
100
AcDbLine
 10
153.2448036154784
 20
13.99486904974405
 30
0.0
 11
403.2448036154989
 21
263.9948690497644
 31
0.0
  0
LINE
  5
384
330
1F
100
AcDbEntity
  8
0-0
  6
JWW_DASHED1
 62
   120
370
     5
100
AcDbLine
 10
153.2448036154741
 20
21.06593686302527
 30
0.0
 11
403.2448036154948
 21
271.065936863046
 31
0.0
  0
LINE
  5
385
330
1F
100
AcDbEntity
  8
0-0
  6
JWW_DASHED1
 62
   120
370
     5
100
AcDbLine
 10
153.2448036154939
 20
28.13700467633079
 30
0.0
 11
403.2448036155006
 21
278.137004676337
 31
0.0
  0
LINE
  5
386
330
1F
100
AcDbEntity
  8
0-0
  6
JWW_DASHED1
 62
   120
370
     5
100
AcDbLine
 10
153.2448036154899
 20
35.20807248961201
 30
0.0
 11
403.2448036154968
 21
285.2080724896191
 31
0.0
  0
LINE
  5
387
330
1F
100
AcDbEntity
  8
0-0
  6
JWW_DASHED1
 62
   120
370
     5
100
AcDbLine
 10
153.2448036154856
 20
42.27914030289323
 30
0.0
 11
403.2448036154929
 21
292.2791403029003
 31
0.0
  0
LINE
  5
388
330
1F
100
AcDbEntity
  8
0-0
  6
JWW_DASHED1
 62
   120
370
     5
100
AcDbLine
 10
153.2448036154818
 20
49.35020811617487
 30
0.0
 11
403.2448036154886
 21
299.3502081161815
 31
0.0
  0
LINE
  5
389
330
1F
100
AcDbEntity
  8
0-0
  6
JWW_DASHED1
 62
   120
370
     5
100
AcDbLine
 10
153.2448036154779
 20
56.42127592945651
 30
0.0
 11
403.2448036154848
 21
306.4212759294636
 31
0.0
  0
LINE
  5
38A
330
1F
100
AcDbEntity
  8
0-0
  6
JWW_DASHED1
 62
   120
370
     5
100
AcDbLine
 10
153.2448036154737
 20
63.49234374273773
 30
0.0
 11
403.2448036154805
 21
313.4923437427448
 31
0.0
  0
LINE
  5
38B
330
1F
100
AcDbEntity
  8
0-0
  6
JWW_DASHED1
 62
   120
370
     5
100
AcDbLine
 10
153.2448036154773
 20
70.56341155602662
 30
0.0
 11
403.2448036154979
 21
320.5634115560474
 31
0.0
  0
LINE
  5
38C
330
1F
100
AcDbEntity
  8
0-0
  6
JWW_DASHED1
 62
   120
370
     5
100
AcDbLine
 10
153.2448036154929
 20
77.63447936927331
 30
0.0
 11
403.2448036154997
 21
327.63447936928
 31
0.0
  0
LINE
  5
38D
330
1F
100
AcDbEntity
  8
0-0
  6
JWW_DASHED1
 62
   120
370
     5
100
AcDbLine
 10
153.244803615489
 20
84.70554718255495
 30
0.0
 11
403.2448036154959
 21
334.705547182562
 31
0.0
  0
LINE
  5
38E
330
1F
100
AcDbEntity
  8
0-0
  6
JWW_DASHED1
 62
   120
370
     5
100
AcDbLine
 10
153.2448036154848
 20
91.77661499583617
 30
0.0
 11
403.2448036154921
 21
341.7766149958433
 31
0.0
  0
LINE
  5
38F
330
1F
100
AcDbEntity
  8
0-0
  6
JWW_DASHED1
 62
   120
370
     5
100
AcDbLine
 10
153.2448036154809
 20
98.84768280911781
 30
0.0
 11
403.2448036154878
 21
348.8476828091245
 31
0.0
  0
LINE
  5
390
330
1F
100
AcDbEntity
  8
0-0
  6
JWW_DASHED1
 62
   120
370
     5
100
AcDbLine
 10
153.2448036154771
 20
105.9187506223995
 30
0.0
 11
403.2448036154838
 21
355.9187506224061
 31
0.0
  0
LINE
  5
391
330
1F
100
AcDbEntity
  8
0-0
  6
JWW_DASHED1
 62
   120
370
     5
100
AcDbLine
 10
153.2448036154728
 20
112.9898184356807
 30
0.0
 11
403.2448036154797
 21
362.9898184356878
 31
0.0
  0
LINE
  5
392
330
1F
100
AcDbEntity
  8
0-0
  6
JWW_DASHED1
 62
   120
370
     5
100
AcDbLine
 10
153.2448036154758
 20
120.0608862489696
 30
0.0
 11
403.2448036154968
 21
370.0608862489903
 31
0.0
  0
LINE
  5
393
330
1F
100
AcDbEntity
  8
0-0
  6
JWW_DASHED1
 62
   120
370
     5
100
AcDbLine
 10
153.2448036154805
 20
127.1319540622593
 30
0.0
 11
403.2448036155031
 21
377.1319540622817
 31
0.0
  0
LINE
  5
394
330
1F
100
AcDbEntity
  8
0-0
  6
JWW_DASHED1
 62
   120
370
     5
100
AcDbLine
 10
153.2448036154922
 20
134.2030218755567
 30
0.0
 11
403.2448036154991
 21
384.2030218755634
 31
0.0
  0
LINE
  5
395
330
1F
100
AcDbEntity
  8
0-0
  6
JWW_DASHED1
 62
   120
370
     5
100
AcDbLine
 10
153.2448036154839
 20
141.2740896887791
 30
0.0
 11
403.244803615491
 21
391.2740896887862
 31
0.0
  0
LINE
  5
396
330
1F
100
AcDbEntity
  8
0-0
  6
JWW_DASHED1
 62
   120
370
     5
100
AcDbLine
 10
153.2448036154799
 20
148.3451575020603
 30
0.0
 11
403.2448036154869
 21
398.3451575020674
 31
0.0
  0
LINE
  5
397
330
1F
100
AcDbEntity
  8
0-0
  6
JWW_DASHED1
 62
   120
370
     5
100
AcDbLine
 10
153.2448036154758
 20
155.4162253153424
 30
0.0
 11
403.2448036154829
 21
405.416225315349
 31
0.0
  0
LINE
  5
398
330
1F
100
AcDbEntity
  8
0-0
  6
JWW_DASHED1
 62
   120
370
     5
100
AcDbLine
 10
153.244803615472
 20
162.4872931286236
 30
0.0
 11
403.2448036154786
 21
412.4872931286303
 31
0.0
  0
LINE
  5
399
330
1F
100
AcDbEntity
  8
0-0
  6
JWW_DASHED1
 62
   120
370
     5
100
AcDbLine
 10
153.2448036154745
 20
169.5583609419116
 30
0.0
 11
403.2448036154955
 21
419.5583609419324
 31
0.0
  0
LINE
  5
39A
330
1F
100
AcDbEntity
  8
0-0
  6
JWW_DASHED1
 62
   120
370
     5
100
AcDbLine
 10
153.2448036154956
 20
176.6294287552184
 30
0.0
 11
403.2448036155025
 21
426.6294287552251
 31
0.0
  0
LINE
  5
39B
330
1F
100
AcDbEntity
  8
0-0
  6
JWW_DASHED1
 62
   120
370
     5
100
AcDbLine
 10
153.2448036154914
 20
183.7004965684997
 30
0.0
 11
403.2448036154987
 21
433.7004965685068
 31
0.0
  0
LINE
  5
39C
330
1F
100
AcDbEntity
  8
0-0
  6
JWW_DASHED1
 62
   120
370
     5
100
AcDbLine
 10
153.2448036154871
 20
190.7715643817809
 30
0.0
 11
403.2448036154944
 21
440.771564381788
 31
0.0
  0
LINE
  5
39D
330
1F
100
AcDbEntity
  8
0-0
  6
JWW_DASHED1
 62
   120
370
     5
100
AcDbLine
 10
153.2448036154837
 20
197.8426321950629
 30
0.0
 11
403.2448036154902
 21
447.8426321950692
 31
0.0
  0
LINE
  5
39E
330
1F
100
AcDbEntity
  8
0-0
  6
JWW_DASHED1
 62
   120
370
     5
100
AcDbLine
 10
153.244803615475
 20
204.9137000082853
 30
0.0
 11
403.2448036154821
 21
454.913700008292
 31
0.0
  0
LINE
  5
39F
330
1F
100
AcDbEntity
  8
0-0
  6
JWW_DASHED1
 62
   120
370
     5
100
AcDbLine
 10
153.2448036154771
 20
211.9847678215725
 30
0.0
 11
403.2448036154983
 21
461.9847678215937
 31
0.0
  0
LINE
  5
3A0
330
1F
100
AcDbEntity
  8
0-0
  6
JWW_DASHED1
 62
   120
370
     5
100
AcDbLine
 10
153.2448036154732
 20
219.0558356348542
 30
0.0
 11
403.2448036154942
 21
469.0558356348753
 31
0.0
  0
LINE
  5
3A1
330
1F
100
AcDbEntity
  8
0-0
  6
JWW_DASHED1
 62
   120
370
     5
100
AcDbLine
 10
153.2448036154944
 20
226.126903448161
 30
0.0
 11
403.2448036155014
 21
476.1269034481676
 31
0.0
  0
LINE
  5
3A2
330
1F
100
AcDbEntity
  8
0-0
  6
JWW_DASHED1
 62
   120
370
     5
100
AcDbLine
 10
153.2448036154905
 20
233.1979712614426
 30
0.0
 11
403.2448036154979
 21
483.1979712614497
 31
0.0
  0
LINE
  5
3A3
330
1F
100
AcDbEntity
  8
0-0
  6
JWW_DASHED1
 62
   120
370
     5
100
AcDbLine
 10
153.2448036154863
 20
240.2690390747238
 30
0.0
 11
403.2448036154936
 21
490.2690390747309
 31
0.0
  0
LINE
  5
3A4
330
1F
100
AcDbEntity
  8
0-0
  6
JWW_DASHED1
 62
   120
370
     5
100
AcDbLine
 10
153.2448036154824
 20
247.340106888005
 30
0.0
 11
403.2448036154895
 21
497.3401068880121
 31
0.0
  0
LINE
  5
3A5
330
1F
100
AcDbEntity
  8
0-0
  6
JWW_DASHED1
 62
   120
370
     5
100
AcDbLine
 10
153.2448036154786
 20
254.4111747012871
 30
0.0
 11
403.2448036154852
 21
504.4111747012934
 31
0.0
  0
LINE
  5
3A6
330
1F
100
AcDbEntity
  8
0-0
  6
JWW_DASHED1
 62
   120
370
     5
100
AcDbLine
 10
153.2448036154743
 20
261.4822425145683
 30
0.0
 11
403.2448036154814
 21
511.4822425145754
 31
0.0
  0
LINE
  5
3A7
330
1F
100
AcDbEntity
  8
0-0
  6
JWW_DASHED1
 62
   120
370
     5
100
AcDbLine
 10
153.2448036154762
 20
268.5533103278555
 30
0.0
 11
403.244803615497
 21
518.5533103278763
 31
0.0
  0
LINE
  5
3A8
330
1F
100
AcDbEntity
  8
0-0
  6
JWW_DASHED1
 62
   120
370
     5
100
AcDbLine
 10
153.2448036154939
 20
275.6243781411043
 30
0.0
 11
403.2448036155006
 21
525.6243781411106
 31
0.0
  0
LINE
  5
3A9
330
1F
100
AcDbEntity
  8
0-0
  6
JWW_DASHED1
 62
   120
370
     5
100
AcDbLine
 10
153.2448036154897
 20
282.6954459543855
 30
0.0
 11
403.2448036154968
 21
532.6954459543927
 31
0.0
  0
LINE
  5
3AA
330
1F
100
AcDbEntity
  8
0-0
  6
JWW_DASHED1
 62
   120
370
     5
100
AcDbLine
 10
153.2448036154856
 20
289.7665137676668
 30
0.0
 11
403.2448036154925
 21
539.7665137676738
 31
0.0
  0
LINE
  5
3AB
330
1F
100
AcDbEntity
  8
0-0
  6
JWW_DASHED1
 62
   120
370
     5
100
AcDbLine
 10
153.2448036154813
 20
296.837581580948
 30
0.0
 11
403.2448036154885
 21
546.837581580955
 31
0.0
  0
LINE
  5
3AC
330
1F
100
AcDbEntity
  8
0-0
  6
JWW_DASHED1
 62
   120
370
     5
100
AcDbLine
 10
153.2448036154775
 20
303.9086493942296
 30
0.0
 11
403.2448036154846
 21
553.9086493942367
 31
0.0
  0
LINE
  5
3AD
330
1F
100
AcDbEntity
  8
0-0
  6
JWW_DASHED1
 62
   120
370
     5
100
AcDbLine
 10
153.2448036154735
 20
310.9797172075113
 30
0.0
 11
403.2448036154805
 21
560.9797172075183
 31
0.0
  0
LINE
  5
3AE
330
1F
100
AcDbEntity
  8
0-0
  6
JWW_DASHED1
 62
   120
370
     5
100
AcDbLine
 10
153.2448036154748
 20
318.0507850207976
 30
0.0
 11
403.2448036154957
 21
568.0507850208188
 31
0.0
  0
LINE
  5
3AF
330
1F
100
AcDbEntity
  8
0-0
  6
JWW_DASHED1
 62
   120
370
     5
100
AcDbLine
 10
153.2448036154709
 20
325.1218528340797
 30
0.0
 11
403.2448036154914
 21
575.1218528341
 31
0.0
  0
LINE
  5
3B0
330
1F
100
AcDbEntity
  8
0-0
  6
JWW_DASHED1
 62
   120
370
     5
100
AcDbLine
 10
153.2448036154929
 20
332.1929206473873
 30
0.0
 11
403.2448036155
 21
582.192920647394
 31
0.0
  0
LINE
  5
3B1
330
1F
100
AcDbEntity
  8
0-0
  6
JWW_DASHED1
 62
   120
370
     5
100
AcDbLine
 10
153.2448036154848
 20
339.2639884606097
 30
0.0
 11
403.2448036154917
 21
589.2639884606167
 31
0.0
  0
LINE
  5
3B2
330
1F
100
AcDbEntity
  8
0-0
  6
JWW_DASHED1
 62
   120
370
     5
100
AcDbLine
 10
153.2448036154805
 20
346.3350562738909
 30
0.0
 11
403.2448036154878
 21
596.335056273898
 31
0.0
  0
LINE
  5
3B3
330
1F
100
AcDbEntity
  8
0-0
  6
JWW_DASHED1
 62
   120
370
     5
100
AcDbLine
 10
153.2448036154767
 20
353.4061240871725
 30
0.0
 11
403.2448036154835
 21
603.4061240871793
 31
0.0
  0
LINE
  5
3B4
330
1F
100
AcDbEntity
  8
0-0
  6
JWW_DASHED1
 62
   120
370
     5
100
AcDbLine
 10
153.2448036154728
 20
360.4771919004542
 30
0.0
 11
403.2448036154795
 21
610.4771919004609
 31
0.0
  0
LINE
  5
3B5
330
1F
100
AcDbEntity
  8
0-0
  6
JWW_DASHED1
 62
   120
370
     5
100
AcDbLine
 10
153.2448036154737
 20
367.5482597137405
 30
0.0
 11
403.2448036154944
 21
617.5482597137612
 31
0.0
  0
LINE
  5
3B6
330
1F
100
AcDbEntity
  8
0-0
  6
JWW_DASHED1
 62
   120
370
     5
100
AcDbLine
 10
153.2448036154963
 20
374.6193275270486
 30
0.0
 11
403.2448036155031
 21
624.6193275270552
 31
0.0
  0
LINE
  5
3B7
330
1F
100
AcDbEntity
  8
0-0
  6
JWW_DASHED1
 62
   120
370
     5
100
AcDbLine
 10
153.244803615492
 20
381.6903953403303
 30
0.0
 11
403.2448036154991
 21
631.690395340337
 31
0.0
  0
LINE
  5
3B8
330
1F
100
AcDbEntity
  8
0-0
  6
JWW_DASHED1
 62
   120
370
     5
100
AcDbLine
 10
153.2448036154882
 20
388.7614631536115
 30
0.0
 11
403.2448036154953
 21
638.7614631536185
 31
0.0
  0
LINE
  5
3B9
330
1F
100
AcDbEntity
  8
0-0
  6
JWW_DASHED1
 62
   120
370
     5
100
AcDbLine
 10
153.2448036154841
 20
395.8325309668927
 30
0.0
 11
403.244803615491
 21
645.8325309668998
 31
0.0
  0
LINE
  5
3BA
330
1F
100
AcDbEntity
  8
0-0
  6
JWW_DASHED1
 62
   120
370
     5
100
AcDbLine
 10
153.2448036154801
 20
402.9035987801743
 30
0.0
 11
403.2448036154869
 21
652.903598780181
 31
0.0
  0
LINE
  5
3BB
330
1F
100
AcDbEntity
  8
0-0
  6
JWW_DASHED1
 62
   120
370
     5
100
AcDbLine
 10
153.244803615472
 20
409.9746665933972
 30
0.0
 11
403.2448036154786
 21
659.9746665934039
 31
0.0
  0
LINE
  5
3BC
330
1F
100
AcDbEntity
  8
0-0
  6
JWW_DASHED1
 62
   120
370
     5
100
AcDbLine
 10
153.2448036154726
 20
417.0457344066835
 30
0.0
 11
403.2448036154931
 21
667.0457344067033
 31
0.0
  0
LINE
  5
3BD
330
1F
100
AcDbEntity
  8
0-0
  6
JWW_DASHED1
 62
   120
370
     5
100
AcDbLine
 10
153.2448036154952
 20
424.1168022199911
 30
0.0
 11
403.2448036155023
 21
674.1168022199981
 31
0.0
  0
LINE
  5
3BE
330
1F
100
AcDbEntity
  8
0-0
  6
JWW_DASHED1
 62
   120
370
     5
100
AcDbLine
 10
153.2448036154914
 20
431.1878700332732
 30
0.0
 11
403.2448036154983
 21
681.1878700332799
 31
0.0
  0
LINE
  5
3BF
330
1F
100
AcDbEntity
  8
0-0
  6
JWW_DASHED1
 62
   120
370
     5
100
AcDbLine
 10
153.2448036154871
 20
438.2589378465544
 30
0.0
 11
403.244803615494
 21
688.2589378465611
 31
0.0
  0
LINE
  5
3C0
330
1F
100
AcDbEntity
  8
0-0
  6
JWW_DASHED1
 62
   120
370
     5
100
AcDbLine
 10
153.2448036154833
 20
445.3300056598356
 30
0.0
 11
403.2448036154902
 21
695.3300056598428
 31
0.0
  0
LINE
  5
3C1
330
1F
100
AcDbEntity
  8
0-0
  6
JWW_DASHED1
 62
   120
370
     5
100
AcDbLine
 10
153.2448036154792
 20
452.4010734731177
 30
0.0
 11
403.2448036154859
 21
702.4010734731239
 31
0.0
  0
LINE
  5
3C2
330
1F
100
AcDbEntity
  8
0-0
  6
JWW_DASHED1
 62
   120
370
     5
100
AcDbLine
 10
153.2448036154752
 20
459.4721412863989
 30
0.0
 11
403.2448036154821
 21
709.4721412864056
 31
0.0
  0
LINE
  5
3C3
330
1F
100
AcDbEntity
  8
0-0
  6
JWW_DASHED1
 62
   120
370
     5
100
AcDbLine
 10
153.2448036154752
 20
466.5432090996844
 30
0.0
 11
403.2448036154959
 21
716.5432090997051
 31
0.0
  0
LINE
  5
3C4
330
1F
100
AcDbEntity
  8
0-0
  6
JWW_DASHED1
 62
   120
370
     5
100
AcDbLine
 10
153.2448036154944
 20
473.6142769129341
 30
0.0
 11
403.2448036155013
 21
723.6142769129411
 31
0.0
  0
LINE
  5
3C5
330
1F
100
AcDbEntity
  8
0-0
  6
JWW_DASHED1
 62
   120
370
     5
100
AcDbLine
 10
153.2448036154901
 20
480.6853447262153
 30
0.0
 11
403.2448036154972
 21
730.6853447262224
 31
0.0
  0
LINE
  5
3C6
330
1F
100
AcDbEntity
  8
0-0
  6
JWW_DASHED1
 62
   120
370
     5
100
AcDbLine
 10
153.2448036154863
 20
487.7564125394974
 30
0.0
 11
403.2448036154931
 21
737.756412539504
 31
0.0
  0
LINE
  5
3C7
330
1F
100
AcDbEntity
  8
0-0
  6
JWW_DASHED1
 62
   120
370
     5
100
AcDbLine
 10
153.244803615482
 20
494.8274803527786
 30
0.0
 11
403.2448036154893
 21
744.8274803527856
 31
0.0
  0
LINE
  5
3C8
330
1F
100
AcDbEntity
  8
0-0
  6
JWW_DASHED1
 62
   120
370
     5
100
AcDbLine
 10
153.2448036154782
 20
501.8985481660598
 30
0.0
 11
403.2448036154851
 21
751.8985481660668
 31
0.0
  0
LINE
  5
3C9
330
1F
100
AcDbEntity
  8
0-0
  6
JWW_DASHED1
 62
   120
370
     5
100
AcDbLine
 10
153.2448036154743
 20
508.9696159793419
 30
0.0
 11
403.244803615481
 21
758.9696159793481
 31
0.0
  0
LINE
  5
3CA
330
1F
100
AcDbEntity
  8
0-0
  6
JWW_DASHED1
 62
   120
370
     5
100
AcDbLine
 10
153.2448036154741
 20
516.040683792627
 30
0.0
 11
403.2448036154948
 21
766.0406837926477
 31
0.0
  0
LINE
  5
3CB
330
1F
100
AcDbEntity
  8
0-0
  6
JWW_DASHED1
 62
   120
370
     5
100
AcDbLine
 10
153.2448036154701
 20
523.1117516059085
 30
0.0
 11
403.2448036154906
 21
773.1117516059289
 31
0.0
  0
LINE
  5
3CC
330
1F
100
AcDbEntity
  8
0-0
  6
JWW_DASHED1
 62
   120
370
     5
100
AcDbLine
 10
153.2448036154937
 20
530.1828194192175
 30
0.0
 11
403.2448036155008
 21
780.1828194192246
 31
0.0
  0
LINE
  5
3CD
330
1F
100
AcDbEntity
  8
0-0
  6
JWW_DASHED1
 62
   120
370
     5
100
AcDbLine
 10
153.2448036154854
 20
537.2538872324403
 30
0.0
 11
403.2448036154923
 21
787.253887232447
 31
0.0
  0
LINE
  5
3CE
330
1F
100
AcDbEntity
  8
0-0
  6
JWW_DASHED1
 62
   120
370
     5
100
AcDbLine
 10
153.2448036154811
 20
544.3249550457215
 30
0.0
 11
403.2448036154883
 21
794.3249550457285
 31
0.0
  0
LINE
  5
3CF
330
1F
100
AcDbEntity
  8
0-0
  6
JWW_DASHED1
 62
   120
370
     5
100
AcDbLine
 10
153.2448036154773
 20
551.3960228590026
 30
0.0
 11
403.2448036154842
 21
801.3960228590098
 31
0.0
  0
LINE
  5
3D0
330
1F
100
AcDbEntity
  8
0-0
  6
JWW_DASHED1
 62
   120
370
     5
100
AcDbLine
 10
153.2448036154735
 20
558.4670906722847
 30
0.0
 11
403.2448036154804
 21
808.4670906722915
 31
0.0
  0
LINE
  5
3D1
330
1F
100
AcDbEntity
  8
0-0
  6
JWW_DASHED1
 62
   120
370
     5
100
AcDbLine
 10
153.2448036154728
 20
565.5381584855694
 30
0.0
 11
403.2448036154936
 21
815.5381584855902
 31
0.0
  0
LINE
  5
3D2
330
1F
100
AcDbEntity
  8
0-0
  6
JWW_DASHED1
 62
   120
370
     5
100
AcDbLine
 10
153.2448036154967
 20
572.6092262988788
 30
0.0
 11
403.2448036155036
 21
822.6092262988859
 31
0.0
  0
LINE
  5
3D3
330
1F
100
AcDbEntity
  8
0-0
  6
JWW_DASHED1
 62
   120
370
     5
100
AcDbLine
 10
153.2448036154929
 20
579.6802941121605
 30
0.0
 11
403.2448036154997
 21
829.6802941121671
 31
0.0
  0
LINE
  5
3D4
330
1F
100
AcDbEntity
  8
0-0
  6
JWW_DASHED1
 62
   120
370
     5
100
AcDbLine
 10
153.2448036154886
 20
586.7513619254416
 30
0.0
 11
403.2448036154957
 21
836.7513619254488
 31
0.0
  0
LINE
  5
3D5
330
1F
100
AcDbEntity
  8
0-0
  6
JWW_DASHED1
 62
   120
370
     5
100
AcDbLine
 10
153.2448036154846
 20
593.8224297387233
 30
0.0
 11
403.2448036154917
 21
843.8224297387303
 31
0.0
  0
LINE
  5
3D6
330
1F
100
AcDbEntity
  8
0-0
  6
JWW_DASHED1
 62
   120
370
     5
100
AcDbLine
 10
153.2448036154809
 20
600.893497552005
 30
0.0
 11
403.2448036154876
 21
850.8934975520116
 31
0.0
  0
LINE
  5
3D7
330
1F
100
AcDbEntity
  8
0-0
  6
JWW_DASHED1
 62
   120
370
     5
100
AcDbLine
 10
153.2448036154724
 20
607.9645653652274
 30
0.0
 11
403.2448036154793
 21
857.964565365234
 31
0.0
  0
LINE
  5
3D8
330
1F
100
AcDbEntity
  8
0-0
  6
JWW_DASHED1
 62
   120
370
     5
100
AcDbLine
 10
153.2448036154713
 20
615.035633178512
 30
0.0
 11
403.2448036154921
 21
865.0356331785322
 31
0.0
  0
LINE
  5
3D9
330
1F
100
AcDbEntity
  8
0-0
  6
JWW_DASHED1
 62
   120
370
     5
100
AcDbLine
 10
153.2448036154958
 20
622.1067009918218
 30
0.0
 11
403.2448036155027
 21
872.1067009918288
 31
0.0
  0
LINE
  5
3DA
330
1F
100
AcDbEntity
  8
0-0
  6
JWW_DASHED1
 62
   120
370
     5
100
AcDbLine
 10
153.244803615492
 20
629.1777688051034
 30
0.0
 11
403.2448036154989
 21
879.17776880511
 31
0.0
  0
LINE
  5
3DB
330
1F
100
AcDbEntity
  8
0-0
  6
JWW_DASHED1
 62
   120
370
     5
100
AcDbLine
 10
153.2448036154877
 20
636.2488366183846
 30
0.0
 11
403.2448036154948
 21
886.2488366183912
 31
0.0
  0
LINE
  5
3DC
330
1F
100
AcDbEntity
  8
0-0
  6
JWW_DASHED1
 62
   120
370
     5
100
AcDbLine
 10
153.2448036154839
 20
643.3199044316661
 30
0.0
 11
403.2448036154908
 21
893.3199044316733
 31
0.0
  0
LINE
  5
3DD
330
1F
100
AcDbEntity
  8
0-0
  6
JWW_DASHED1
 62
   120
370
     5
100
AcDbLine
 10
153.2448036154801
 20
650.3909722449479
 30
0.0
 11
403.2448036154868
 21
900.3909722449546
 31
0.0
  0
LINE
  5
3DE
330
1F
100
AcDbEntity
  8
0-0
  6
JWW_DASHED1
 62
   120
370
     5
100
AcDbLine
 10
153.2448036154758
 20
657.4620400582291
 30
0.0
 11
403.2448036154827
 21
907.4620400582357
 31
0.0
  0
LINE
  5
3DF
330
1F
100
AcDbEntity
  8
0-0
  6
JWW_DASHED1
 62
   120
370
     5
100
AcDbLine
 10
153.2448036154748
 20
664.5331078715133
 30
0.0
 11
403.2448036154953
 21
914.533107871534
 31
0.0
  0
LINE
  5
3E0
330
1F
100
AcDbEntity
  8
0-0
  6
JWW_DASHED1
 62
   120
370
     5
100
AcDbLine
 10
153.244803615495
 20
671.6041756847646
 30
0.0
 11
403.2448036155021
 21
921.6041756847717
 31
0.0
  0
LINE
  5
3E1
330
1F
100
AcDbEntity
  8
0-0
  6
JWW_DASHED1
 62
   120
370
     5
100
AcDbLine
 10
153.2448036154912
 20
678.6752434980464
 30
0.0
 11
403.244803615498
 21
928.675243498053
 31
0.0
  0
LINE
  5
3E2
330
1F
100
AcDbEntity
  8
0-0
  6
JWW_DASHED1
 62
   120
370
     5
100
AcDbLine
 10
153.2448036154869
 20
685.7463113113275
 30
0.0
 11
403.244803615494
 21
935.7463113113347
 31
0.0
  0
LINE
  5
3E3
330
1F
100
AcDbEntity
  8
0-0
  6
JWW_DASHED1
 62
   120
370
     5
100
AcDbLine
 10
153.2448036154829
 20
692.8173791246091
 30
0.0
 11
403.24480361549
 21
942.8173791246163
 31
0.0
  0
LINE
  5
3E4
330
1F
100
AcDbEntity
  8
0-0
  6
JWW_DASHED1
 62
   120
370
     5
100
AcDbLine
 10
153.2448036154792
 20
699.8884469378909
 30
0.0
 11
403.2448036154859
 21
949.8884469378975
 31
0.0
  0
LINE
  5
3E5
330
1F
100
AcDbEntity
  8
0-0
  6
JWW_DASHED1
 62
   120
370
     5
100
AcDbLine
 10
153.244803615475
 20
706.959514751172
 30
0.0
 11
403.2448036154817
 21
956.9595147511786
 31
0.0
  0
LINE
  5
3E6
330
1F
100
AcDbEntity
  8
0-0
  6
JWW_DASHED1
 62
   120
370
     5
100
AcDbLine
 10
153.2448036154732
 20
714.0305825644558
 30
0.0
 11
403.2448036154938
 21
964.0305825644762
 31
0.0
  0
LINE
  5
3E7
330
1F
100
AcDbEntity
  8
0-0
  6
JWW_DASHED1
 62
   120
370
     5
100
AcDbLine
 10
153.244803615469
 20
721.1016503777371
 30
0.0
 11
403.2448036154895
 21
971.1016503777573
 31
0.0
  0
LINE
  5
3E8
330
1F
100
AcDbEntity
  8
0-0
  6
JWW_DASHED1
 62
   120
370
     5
100
AcDbLine
 10
153.2448036154944
 20
728.1727181910476
 30
0.0
 11
403.2448036155013
 21
978.1727181910547
 31
0.0
  0
LINE
  5
3E9
330
1F
100
AcDbEntity
  8
0-0
  6
JWW_DASHED1
 62
   120
370
     5
100
AcDbLine
 10
153.244803615486
 20
735.2437860042705
 30
0.0
 11
403.2448036154931
 21
985.2437860042776
 31
0.0
  0
LINE
  5
3EA
330
1F
100
AcDbEntity
  8
0-0
  6
JWW_DASHED1
 62
   120
370
     5
100
AcDbLine
 10
153.244803615482
 20
742.3148538175521
 30
0.0
 11
397.7586989822673
 21
986.8287491843372
 31
0.0
  0
LINE
  5
3EB
330
1F
100
AcDbEntity
  8
0-0
  6
JWW_DASHED1
 62
   120
370
     5
100
AcDbLine
 10
153.2448036154777
 20
749.3859216308333
 30
0.0
 11
390.6876311689858
 21
986.8287491843414
 31
0.0
  0
LINE
  5
3EC
330
1F
100
AcDbEntity
  8
0-0
  6
JWW_DASHED1
 62
   120
370
     5
100
AcDbLine
 10
153.2448036154739
 20
756.4569894441145
 30
0.0
 11
383.6165633557046
 21
986.8287491843457
 31
0.0
  0
LINE
  5
3ED
330
1F
100
AcDbEntity
  8
0-0
  6
JWW_DASHED1
 62
   120
370
     5
100
AcDbLine
 10
153.2448036154718
 20
763.5280572573984
 30
0.0
 11
376.5454955424093
 21
986.8287491843355
 31
0.0
  0
LINE
  5
3EE
330
1F
100
AcDbEntity
  8
0-0
  6
JWW_DASHED1
 62
   120
370
     5
100
AcDbLine
 10
153.2448036154978
 20
770.5991250707093
 30
0.0
 11
369.4744277291104
 21
986.8287491843223
 31
0.0
  0
LINE
  5
3EF
330
1F
100
AcDbEntity
  8
0-0
  6
JWW_DASHED1
 62
   120
370
     5
100
AcDbLine
 10
153.2448036154935
 20
777.6701928839906
 30
0.0
 11
362.4033599158292
 21
986.8287491843265
 31
0.0
  0
LINE
  5
3F0
330
1F
100
AcDbEntity
  8
0-0
  6
JWW_DASHED1
 62
   120
370
     5
100
AcDbLine
 10
153.2448036154894
 20
784.7412606972723
 30
0.0
 11
355.3322921025477
 21
986.8287491843304
 31
0.0
  0
LINE
  5
3F1
330
1F
100
AcDbEntity
  8
0-0
  6
JWW_DASHED1
 62
   120
370
     5
100
AcDbLine
 10
153.2448036154854
 20
791.8123285105539
 30
0.0
 11
348.2612242892665
 21
986.8287491843346
 31
0.0
  0
LINE
  5
3F2
330
1F
100
AcDbEntity
  8
0-0
  6
JWW_DASHED1
 62
   120
370
     5
100
AcDbLine
 10
153.2448036154813
 20
798.8833963238351
 30
0.0
 11
341.1901564759853
 21
986.8287491843389
 31
0.0
  0
LINE
  5
3F3
330
1F
100
AcDbEntity
  8
0-0
  6
JWW_DASHED1
 62
   120
370
     5
100
AcDbLine
 10
153.244803615473
 20
805.9544641370575
 30
0.0
 11
334.1190886627629
 21
986.8287491843474
 31
0.0
  0
LINE
  5
3F4
330
1F
100
AcDbEntity
  8
0-0
  6
JWW_DASHED1
 62
   120
370
     5
100
AcDbLine
 10
153.2448036154705
 20
813.0255319503403
 30
0.0
 11
327.0480208494704
 21
986.8287491843406
 31
0.0
  0
LINE
  5
3F5
330
1F
100
AcDbEntity
  8
0-0
  6
JWW_DASHED1
 62
   120
370
     5
100
AcDbLine
 10
153.2448036154967
 20
820.0965997636523
 30
0.0
 11
319.9769530361688
 21
986.8287491843244
 31
0.0
  0
LINE
  5
3F6
330
1F
100
AcDbEntity
  8
0-0
  6
JWW_DASHED1
 62
   120
370
     5
100
AcDbLine
 10
153.2448036154927
 20
827.1676675769336
 30
0.0
 11
312.9058852228875
 21
986.8287491843287
 31
0.0
  0
LINE
  5
3F7
330
1F
100
AcDbEntity
  8
0-0
  6
JWW_DASHED1
 62
   120
370
     5
100
AcDbLine
 10
153.2448036154886
 20
834.2387353902152
 30
0.0
 11
305.8348174096061
 21
986.8287491843325
 31
0.0
  0
LINE
  5
3F8
330
1F
100
AcDbEntity
  8
0-0
  6
JWW_DASHED1
 62
   120
370
     5
100
AcDbLine
 10
153.2448036154846
 20
841.3098032034968
 30
0.0
 11
298.7637495963249
 21
986.8287491843372
 31
0.0
  0
LINE
  5
3F9
330
1F
100
AcDbEntity
  8
0-0
  6
JWW_DASHED1
 62
   120
370
     5
100
AcDbLine
 10
153.2448036154805
 20
848.380871016778
 30
0.0
 11
291.6926817830437
 21
986.8287491843411
 31
0.0
  0
LINE
  5
3FA
330
1F
100
AcDbEntity
  8
0-0
  6
JWW_DASHED1
 62
   120
370
     5
100
AcDbLine
 10
153.2448036154767
 20
855.4519388300597
 30
0.0
 11
284.6216139697622
 21
986.8287491843453
 31
0.0
  0
LINE
  5
3FB
330
1F
100
AcDbEntity
  8
0-0
  6
JWW_DASHED1
 62
   120
370
     5
100
AcDbLine
 10
153.2448036154737
 20
862.5230066433421
 30
0.0
 11
277.5505461564731
 21
986.8287491843414
 31
0.0
  0
LINE
  5
3FC
330
1F
100
AcDbEntity
  8
0-0
  6
JWW_DASHED1
 62
   120
370
     5
100
AcDbLine
 10
153.2448036154958
 20
869.5940744565953
 30
0.0
 11
270.4794783432271
 21
986.828749184326
 31
0.0
  0
LINE
  5
3FD
330
1F
100
AcDbEntity
  8
0-0
  6
JWW_DASHED1
 62
   120
370
     5
100
AcDbLine
 10
153.2448036154918
 20
876.6651422698765
 30
0.0
 11
263.4084105299456
 21
986.8287491843304
 31
0.0
  0
LINE
  5
3FE
330
1F
100
AcDbEntity
  8
0-0
  6
JWW_DASHED1
 62
   120
370
     5
100
AcDbLine
 10
153.2448036154877
 20
883.7362100831582
 30
0.0
 11
256.3373427166644
 21
986.8287491843346
 31
0.0
  0
LINE
  5
3FF
330
1F
100
AcDbEntity
  8
0-0
  6
JWW_DASHED1
 62
   120
370
     5
100
AcDbLine
 10
153.2448036154837
 20
890.8072778964397
 30
0.0
 11
249.2662749033832
 21
986.8287491843389
 31
0.0
  0
LINE
  5
400
330
1F
100
AcDbEntity
  8
0-0
  6
JWW_DASHED1
 62
   120
370
     5
100
AcDbLine
 10
153.2448036154796
 20
897.878345709721
 30
0.0
 11
242.1952070901017
 21
986.8287491843431
 31
0.0
  0
LINE
  5
401
330
1F
100
AcDbEntity
  8
0-0
  6
JWW_DASHED1
 62
   120
370
     5
100
AcDbLine
 10
153.2448036154754
 20
904.9494135230022
 30
0.0
 11
235.1241392768205
 21
986.8287491843474
 31
0.0
  0
LINE
  5
402
330
1F
100
AcDbEntity
  8
0-0
  6
JWW_DASHED1
 62
   120
370
     5
100
AcDbLine
 10
153.2448036154722
 20
912.0204813362843
 30
0.0
 11
228.0530714635345
 21
986.8287491843465
 31
0.0
  0
LINE
  5
403
330
1F
100
AcDbEntity
  8
0-0
  6
JWW_DASHED1
 62
   120
370
     5
100
AcDbLine
 10
153.2448036154681
 20
919.0915491495659
 30
0.0
 11
220.9820036502537
 21
986.8287491843516
 31
0.0
  0
LINE
  5
404
330
1F
100
AcDbEntity
  8
0-0
  6
JWW_DASHED1
 62
   120
370
     5
100
AcDbLine
 10
153.2448036154952
 20
926.1626169628782
 30
0.0
 11
213.9109358369449
 21
986.8287491843282
 31
0.0
  0
LINE
  5
405
330
1F
100
AcDbEntity
  8
0-0
  6
JWW_DASHED1
 62
   120
370
     5
100
AcDbLine
 10
153.244803615491
 20
933.2336847761594
 30
0.0
 11
206.8398680236637
 21
986.8287491843325
 31
0.0
  0
LINE
  5
406
330
1F
100
AcDbEntity
  8
0-0
  6
JWW_DASHED1
 62
   120
370
     5
100
AcDbLine
 10
153.2448036154826
 20
940.3047525893824
 30
0.0
 11
199.7688002104413
 21
986.8287491843411
 31
0.0
  0
LINE
  5
407
330
1F
100
AcDbEntity
  8
0-0
  6
JWW_DASHED1
 62
   120
370
     5
100
AcDbLine
 10
153.2448036154786
 20
947.375820402664
 30
0.0
 11
192.6977323971601
 21
986.8287491843453
 31
0.0
  0
LINE
  5
408
330
1F
100
AcDbEntity
  8
0-0
  6
JWW_DASHED1
 62
   120
370
     5
100
AcDbLine
 10
153.2448036154745
 20
954.4468882159451
 30
0.0
 11
185.6266645838787
 21
986.8287491843491
 31
0.0
  0
LINE
  5
409
330
1F
100
AcDbEntity
  8
0-0
  6
JWW_DASHED1
 62
   120
370
     5
100
AcDbLine
 10
153.2448036154709
 20
961.5179560292272
 30
0.0
 11
178.5555967705958
 21
986.8287491843516
 31
0.0
  0
LINE
  5
40A
330
1F
100
AcDbEntity
  8
0-0
  6
JWW_DASHED1
 62
   120
370
     5
100
AcDbLine
 10
153.2448036154824
 20
968.5890238425238
 30
0.0
 11
171.4845289572994
 21
986.8287491843406
 31
0.0
  0
LINE
  5
40B
330
1F
100
AcDbEntity
  8
0-0
  6
JWW_DASHED1
 62
   120
370
     5
100
AcDbLine
 10
153.2448036154944
 20
975.6600916558212
 30
0.0
 11
164.4134611440033
 21
986.8287491843304
 31
0.0
  0
LINE
  5
40C
330
1F
100
AcDbEntity
  8
0-0
  6
JWW_DASHED1
 62
   120
370
     5
100
AcDbLine
 10
153.2448036154903
 20
982.7311594691029
 30
0.0
 11
157.342393330722
 21
986.8287491843346
 31
0.0
  0
LINE
  5
40D
330
1F
100
AcDbEntity
  8
0-0
  6
JWW_DASHED1
 62
   120
370
     5
100
AcDbLine
 10
739.9470085677528
 20
-920.1712508156755
 30
0.0
 11
743.2448036155016
 21
-916.8734557679265
 31
0.0
  0
LINE
  5
40E
330
1F
100
AcDbEntity
  8
0-0
  6
JWW_DASHED1
 62
   120
370
     5
100
AcDbLine
 10
732.8759407544717
 20
-920.1712508156712
 30
0.0
 11
743.244803615498
 21
-909.8023879546454
 31
0.0
  0
LINE
  5
40F
330
1F
100
AcDbEntity
  8
0-0
  6
JWW_DASHED1
 62
   120
370
     5
100
AcDbLine
 10
725.8048729411904
 20
-920.171250815667
 30
0.0
 11
743.2448036154941
 21
-902.7313201413638
 31
0.0
  0
LINE
  5
410
330
1F
100
AcDbEntity
  8
0-0
  6
JWW_DASHED1
 62
   120
370
     5
100
AcDbLine
 10
718.7338051279092
 20
-920.1712508156626
 30
0.0
 11
743.2448036154899
 21
-895.660252328082
 31
0.0
  0
LINE
  5
411
330
1F
100
AcDbEntity
  8
0-0
  6
JWW_DASHED1
 62
   120
370
     5
100
AcDbLine
 10
711.662737314628
 20
-920.1712508156585
 30
0.0
 11
743.244803615486
 21
-888.5891845148009
 31
0.0
  0
LINE
  5
412
330
1F
100
AcDbEntity
  8
0-0
  6
JWW_DASHED1
 62
   120
370
     5
100
AcDbLine
 10
704.5916695013468
 20
-920.1712508156546
 30
0.0
 11
743.2448036154817
 21
-881.5181167015193
 31
0.0
  0
LINE
  5
413
330
1F
100
AcDbEntity
  8
0-0
  6
JWW_DASHED1
 62
   120
370
     5
100
AcDbLine
 10
697.5206016880954
 20
-920.1712508156746
 30
0.0
 11
743.2448036155043
 21
-874.4470488882657
 31
0.0
  0
LINE
  5
414
330
1F
100
AcDbEntity
  8
0-0
  6
JWW_DASHED1
 62
   120
370
     5
100
AcDbLine
 10
690.4495338748112
 20
-920.1712508156734
 30
0.0
 11
743.2448036155009
 21
-867.3759810749837
 31
0.0
  0
LINE
  5
415
330
1F
100
AcDbEntity
  8
0-0
  6
JWW_DASHED1
 62
   120
370
     5
100
AcDbLine
 10
683.3784660615298
 20
-920.171250815669
 30
0.0
 11
743.2448036154971
 21
-860.3049132617024
 31
0.0
  0
LINE
  5
416
330
1F
100
AcDbEntity
  8
0-0
  6
JWW_DASHED1
 62
   120
370
     5
100
AcDbLine
 10
676.3073982482488
 20
-920.1712508156648
 30
0.0
 11
743.2448036154933
 21
-853.2338454484208
 31
0.0
  0
LINE
  5
417
330
1F
100
AcDbEntity
  8
0-0
  6
JWW_DASHED1
 62
   120
370
     5
100
AcDbLine
 10
669.2363304349676
 20
-920.171250815661
 30
0.0
 11
743.244803615489
 21
-846.1627776351392
 31
0.0
  0
LINE
  5
418
330
1F
100
AcDbEntity
  8
0-0
  6
JWW_DASHED1
 62
   120
370
     5
100
AcDbLine
 10
662.1652626216863
 20
-920.1712508156568
 30
0.0
 11
743.2448036154851
 21
-839.0917098218575
 31
0.0
  0
LINE
  5
419
330
1F
100
AcDbEntity
  8
0-0
  6
JWW_DASHED1
 62
   120
370
     5
100
AcDbLine
 10
655.0941948084047
 20
-920.1712508156523
 30
0.0
 11
743.2448036154805
 21
-832.0206420085767
 31
0.0
  0
LINE
  5
41A
330
1F
100
AcDbEntity
  8
0-0
  6
JWW_DASHED1
 62
   120
370
     5
100
AcDbLine
 10
648.0231269951234
 20
-920.1712508156482
 30
0.0
 11
743.244803615477
 21
-824.9495741952951
 31
0.0
  0
LINE
  5
41B
330
1F
100
AcDbEntity
  8
0-0
  6
JWW_DASHED1
 62
   120
370
     5
100
AcDbLine
 10
640.9520591818169
 20
-920.1712508156694
 30
0.0
 11
743.2448036155035
 21
-817.8785063819827
 31
0.0
  0
LINE
  5
41C
330
1F
100
AcDbEntity
  8
0-0
  6
JWW_DASHED1
 62
   120
370
     5
100
AcDbLine
 10
633.8809913685295
 20
-920.1712508156717
 30
0.0
 11
743.2448036155005
 21
-810.8074385687003
 31
0.0
  0
LINE
  5
41D
330
1F
100
AcDbEntity
  8
0-0
  6
JWW_DASHED1
 62
   120
370
     5
100
AcDbLine
 10
626.8099235553071
 20
-920.1712508156631
 30
0.0
 11
743.2448036154924
 21
-803.7363707554779
 31
0.0
  0
LINE
  5
41E
330
1F
100
AcDbEntity
  8
0-0
  6
JWW_DASHED1
 62
   120
370
     5
100
AcDbLine
 10
619.7388557420253
 20
-920.1712508156588
 30
0.0
 11
743.244803615488
 21
-796.6653029421961
 31
0.0
  0
LINE
  5
41F
330
1F
100
AcDbEntity
  8
0-0
  6
JWW_DASHED1
 62
   120
370
     5
100
AcDbLine
 10
612.6677879287442
 20
-920.1712508156546
 30
0.0
 11
743.2448036154839
 21
-789.594235128915
 31
0.0
  0
LINE
  5
420
330
1F
100
AcDbEntity
  8
0-0
  6
JWW_DASHED1
 62
   120
370
     5
100
AcDbLine
 10
605.5967201154631
 20
-920.1712508156503
 30
0.0
 11
743.2448036154797
 21
-782.5231673156337
 31
0.0
  0
LINE
  5
421
330
1F
100
AcDbEntity
  8
0-0
  6
JWW_DASHED1
 62
   120
370
     5
100
AcDbLine
 10
598.5256523021596
 20
-920.1712508156687
 30
0.0
 11
743.244803615506
 21
-775.4520995023219
 31
0.0
  0
LINE
  5
422
330
1F
100
AcDbEntity
  8
0-0
  6
JWW_DASHED1
 62
   120
370
     5
100
AcDbLine
 10
591.4545844888785
 20
-920.1712508156639
 30
0.0
 11
743.2448036155022
 21
-768.3810316890406
 31
0.0
  0
LINE
  5
423
330
1F
100
AcDbEntity
  8
0-0
  6
JWW_DASHED1
 62
   120
370
     5
100
AcDbLine
 10
584.3835166755877
 20
-920.171250815669
 30
0.0
 11
743.2448036154997
 21
-761.3099638757573
 31
0.0
  0
LINE
  5
424
330
1F
100
AcDbEntity
  8
0-0
  6
JWW_DASHED1
 62
   120
370
     5
100
AcDbLine
 10
577.3124488623066
 20
-920.1712508156648
 30
0.0
 11
743.2448036154954
 21
-754.2388960624761
 31
0.0
  0
LINE
  5
425
330
1F
100
AcDbEntity
  8
0-0
  6
JWW_DASHED1
 62
   120
370
     5
100
AcDbLine
 10
570.2413810490254
 20
-920.1712508156605
 30
0.0
 11
743.2448036154912
 21
-747.1678282491947
 31
0.0
  0
LINE
  5
426
330
1F
100
AcDbEntity
  8
0-0
  6
JWW_DASHED1
 62
   120
370
     5
100
AcDbLine
 10
563.1703132358026
 20
-920.1712508156523
 30
0.0
 11
743.2448036154831
 21
-740.096760435972
 31
0.0
  0
LINE
  5
427
330
1F
100
AcDbEntity
  8
0-0
  6
JWW_DASHED1
 62
   120
370
     5
100
AcDbLine
 10
556.0992454225213
 20
-920.1712508156482
 30
0.0
 11
743.2448036154788
 21
-733.0256926226908
 31
0.0
  0
LINE
  5
428
330
1F
100
AcDbEntity
  8
0-0
  6
JWW_DASHED1
 62
   120
370
     5
100
AcDbLine
 10
549.028177609221
 20
-920.1712508156636
 30
0.0
 11
743.244803615505
 21
-725.9546248093789
 31
0.0
  0
LINE
  5
429
330
1F
100
AcDbEntity
  8
0-0
  6
JWW_DASHED1
 62
   120
370
     5
100
AcDbLine
 10
541.9571097959401
 20
-920.1712508156585
 30
0.0
 11
743.2448036155005
 21
-718.8835569960982
 31
0.0
  0
LINE
  5
42A
330
1F
100
AcDbEntity
  8
0-0
  6
JWW_DASHED1
 62
   120
370
     5
100
AcDbLine
 10
534.8860419826461
 20
-920.171250815667
 30
0.0
 11
743.2448036154988
 21
-711.8124891828144
 31
0.0
  0
LINE
  5
42B
330
1F
100
AcDbEntity
  8
0-0
  6
JWW_DASHED1
 62
   120
370
     5
100
AcDbLine
 10
527.814974169365
 20
-920.1712508156626
 30
0.0
 11
743.2448036154946
 21
-704.741421369533
 31
0.0
  0
LINE
  5
42C
330
1F
100
AcDbEntity
  8
0-0
  6
JWW_DASHED1
 62
   120
370
     5
100
AcDbLine
 10
520.7439063560836
 20
-920.1712508156588
 30
0.0
 11
743.2448036154902
 21
-697.6703535562519
 31
0.0
  0
LINE
  5
42D
330
1F
100
AcDbEntity
  8
0-0
  6
JWW_DASHED1
 62
   120
370
     5
100
AcDbLine
 10
513.6728385428021
 20
-920.1712508156551
 30
0.0
 11
743.2448036154865
 21
-690.5992857429707
 31
0.0
  0
LINE
  5
42E
330
1F
100
AcDbEntity
  8
0-0
  6
JWW_DASHED1
 62
   120
370
     5
100
AcDbLine
 10
506.6017707295209
 20
-920.1712508156503
 30
0.0
 11
743.2448036154822
 21
-683.528217929689
 31
0.0
  0
LINE
  5
42F
330
1F
100
AcDbEntity
  8
0-0
  6
JWW_DASHED1
 62
   120
370
     5
100
AcDbLine
 10
499.5307029162818
 20
-920.1712508156585
 30
0.0
 11
743.2448036155035
 21
-676.4571501164368
 31
0.0
  0
LINE
  5
430
330
1F
100
AcDbEntity
  8
0-0
  6
JWW_DASHED1
 62
   120
370
     5
100
AcDbLine
 10
493.2448036154951
 20
-919.3860823031602
 30
0.0
 11
743.2448036155016
 21
-669.3860823031533
 31
0.0
  0
LINE
  5
431
330
1F
100
AcDbEntity
  8
0-0
  6
JWW_DASHED1
 62
   120
370
     5
100
AcDbLine
 10
493.2448036154908
 20
-912.3150144898785
 30
0.0
 11
743.2448036154975
 21
-662.3150144898718
 31
0.0
  0
LINE
  5
432
330
1F
100
AcDbEntity
  8
0-0
  6
JWW_DASHED1
 62
   120
370
     5
100
AcDbLine
 10
493.2448036154866
 20
-905.2439466765971
 30
0.0
 11
743.2448036154937
 21
-655.2439466765906
 31
0.0
  0
LINE
  5
433
330
1F
100
AcDbEntity
  8
0-0
  6
JWW_DASHED1
 62
   120
370
     5
100
AcDbLine
 10
493.2448036154827
 20
-898.1728788633156
 30
0.0
 11
743.2448036154894
 21
-648.1728788633089
 31
0.0
  0
LINE
  5
434
330
1F
100
AcDbEntity
  8
0-0
  6
JWW_DASHED1
 62
   120
370
     5
100
AcDbLine
 10
493.2448036154785
 20
-891.1018110500344
 30
0.0
 11
743.2448036154856
 21
-641.1018110500278
 31
0.0
  0
LINE
  5
435
330
1F
100
AcDbEntity
  8
0-0
  6
JWW_DASHED1
 62
   120
370
     5
100
AcDbLine
 10
493.2448036154747
 20
-884.0307432367528
 30
0.0
 11
743.2448036154817
 21
-634.030743236746
 31
0.0
  0
LINE
  5
436
330
1F
100
AcDbEntity
  8
0-0
  6
JWW_DASHED1
 62
   120
370
     5
100
AcDbLine
 10
493.2448036154703
 20
-876.9596754234716
 30
0.0
 11
743.2448036154775
 21
-626.9596754234649
 31
0.0
  0
LINE
  5
437
330
1F
100
AcDbEntity
  8
0-0
  6
JWW_DASHED1
 62
   120
370
     5
100
AcDbLine
 10
493.2448036154819
 20
-869.8886076101745
 30
0.0
 11
743.2448036155022
 21
-619.8886076101543
 31
0.0
  0
LINE
  5
438
330
1F
100
AcDbEntity
  8
0-0
  6
JWW_DASHED1
 62
   120
370
     5
100
AcDbLine
 10
493.2448036154938
 20
-862.8175397968771
 30
0.0
 11
743.2448036155014
 21
-612.81753979687
 31
0.0
  0
LINE
  5
439
330
1F
100
AcDbEntity
  8
0-0
  6
JWW_DASHED1
 62
   120
370
     5
100
AcDbLine
 10
493.2448036154856
 20
-855.7464719836544
 30
0.0
 11
743.2448036154929
 21
-605.7464719836477
 31
0.0
  0
LINE
  5
43A
330
1F
100
AcDbEntity
  8
0-0
  6
JWW_DASHED1
 62
   120
370
     5
100
AcDbLine
 10
493.2448036154815
 20
-848.6754041703731
 30
0.0
 11
743.2448036154888
 21
-598.675404170366
 31
0.0
  0
LINE
  5
43B
330
1F
100
AcDbEntity
  8
0-0
  6
JWW_DASHED1
 62
   120
370
     5
100
AcDbLine
 10
493.2448036154776
 20
-841.6043363570915
 30
0.0
 11
743.2448036154846
 21
-591.6043363570847
 31
0.0
  0
LINE
  5
43C
330
1F
100
AcDbEntity
  8
0-0
  6
JWW_DASHED1
 62
   120
370
     5
100
AcDbLine
 10
493.2448036154737
 20
-834.5332685438099
 30
0.0
 11
743.2448036154811
 21
-584.5332685438026
 31
0.0
  0
LINE
  5
43D
330
1F
100
AcDbEntity
  8
0-0
  6
JWW_DASHED1
 62
   120
370
     5
100
AcDbLine
 10
493.2448036154844
 20
-827.4622007305137
 30
0.0
 11
743.2448036155054
 21
-577.4622007304926
 31
0.0
  0
LINE
  5
43E
330
1F
100
AcDbEntity
  8
0-0
  6
JWW_DASHED1
 62
   120
370
     5
100
AcDbLine
 10
493.2448036154805
 20
-820.3911329172324
 30
0.0
 11
743.2448036155014
 21
-570.3911329172112
 31
0.0
  0
LINE
  5
43F
330
1F
100
AcDbEntity
  8
0-0
  6
JWW_DASHED1
 62
   120
370
     5
100
AcDbLine
 10
493.244803615493
 20
-813.3200651039342
 30
0.0
 11
743.2448036155005
 21
-563.3200651039267
 31
0.0
  0
LINE
  5
440
330
1F
100
AcDbEntity
  8
0-0
  6
JWW_DASHED1
 62
   120
370
     5
100
AcDbLine
 10
493.244803615489
 20
-806.2489972906526
 30
0.0
 11
743.2448036154963
 21
-556.2489972906454
 31
0.0
  0
LINE
  5
441
330
1F
100
AcDbEntity
  8
0-0
  6
JWW_DASHED1
 62
   120
370
     5
100
AcDbLine
 10
493.2448036154853
 20
-799.1779294773709
 30
0.0
 11
743.244803615492
 21
-549.1779294773643
 31
0.0
  0
LINE
  5
442
330
1F
100
AcDbEntity
  8
0-0
  6
JWW_DASHED1
 62
   120
370
     5
100
AcDbLine
 10
493.2448036154768
 20
-792.1068616641485
 30
0.0
 11
743.2448036154836
 21
-542.1068616641419
 31
0.0
  0
LINE
  5
443
330
1F
100
AcDbEntity
  8
0-0
  6
JWW_DASHED1
 62
   120
370
     5
100
AcDbLine
 10
493.244803615473
 20
-785.0357938508668
 30
0.0
 11
743.2448036154797
 21
-535.0357938508606
 31
0.0
  0
LINE
  5
444
330
1F
100
AcDbEntity
  8
0-0
  6
JWW_DASHED1
 62
   120
370
     5
100
AcDbLine
 10
493.2448036154832
 20
-777.964726037571
 30
0.0
 11
743.2448036155043
 21
-527.9647260375505
 31
0.0
  0
LINE
  5
445
330
1F
100
AcDbEntity
  8
0-0
  6
JWW_DASHED1
 62
   120
370
     5
100
AcDbLine
 10
493.2448036154793
 20
-770.8936582242895
 30
0.0
 11
743.2448036155001
 21
-520.8936582242687
 31
0.0
  0
LINE
  5
446
330
1F
100
AcDbEntity
  8
0-0
  6
JWW_DASHED1
 62
   120
370
     5
100
AcDbLine
 10
493.2448036154921
 20
-763.8225904109912
 30
0.0
 11
743.244803615499
 21
-513.8225904109846
 31
0.0
  0
LINE
  5
447
330
1F
100
AcDbEntity
  8
0-0
  6
JWW_DASHED1
 62
   120
370
     5
100
AcDbLine
 10
493.2448036154883
 20
-756.75152259771
 30
0.0
 11
743.2448036154954
 21
-506.7515225977025
 31
0.0
  0
LINE
  5
448
330
1F
100
AcDbEntity
  8
0-0
  6
JWW_DASHED1
 62
   120
370
     5
100
AcDbLine
 10
493.2448036154839
 20
-749.6804547844284
 30
0.0
 11
743.2448036154912
 21
-499.6804547844213
 31
0.0
  0
LINE
  5
449
330
1F
100
AcDbEntity
  8
0-0
  6
JWW_DASHED1
 62
   120
370
     5
100
AcDbLine
 10
493.2448036154802
 20
-742.6093869711467
 30
0.0
 11
743.2448036154871
 21
-492.6093869711401
 31
0.0
  0
LINE
  5
44A
330
1F
100
AcDbEntity
  8
0-0
  6
JWW_DASHED1
 62
   120
370
     5
100
AcDbLine
 10
493.2448036154764
 20
-735.5383191578655
 30
0.0
 11
743.2448036154831
 21
-485.5383191578584
 31
0.0
  0
LINE
  5
44B
330
1F
100
AcDbEntity
  8
0-0
  6
JWW_DASHED1
 62
   120
370
     5
100
AcDbLine
 10
493.244803615472
 20
-728.4672513445843
 30
0.0
 11
743.2448036154792
 21
-478.4672513445768
 31
0.0
  0
LINE
  5
44C
330
1F
100
AcDbEntity
  8
0-0
  6
JWW_DASHED1
 62
   120
370
     5
100
AcDbLine
 10
493.2448036154955
 20
-721.3961835313299
 30
0.0
 11
743.2448036155022
 21
-471.3961835313228
 31
0.0
  0
LINE
  5
44D
330
1F
100
AcDbEntity
  8
0-0
  6
JWW_DASHED1
 62
   120
370
     5
100
AcDbLine
 10
493.2448036154913
 20
-714.3251157180483
 30
0.0
 11
743.2448036154982
 21
-464.3251157180416
 31
0.0
  0
LINE
  5
44E
330
1F
100
AcDbEntity
  8
0-0
  6
JWW_DASHED1
 62
   120
370
     5
100
AcDbLine
 10
493.2448036154873
 20
-707.254047904767
 30
0.0
 11
743.2448036154946
 21
-457.2540479047595
 31
0.0
  0
LINE
  5
44F
330
1F
100
AcDbEntity
  8
0-0
  6
JWW_DASHED1
 62
   120
370
     5
100
AcDbLine
 10
493.2448036154832
 20
-700.1829800914853
 30
0.0
 11
743.2448036154902
 21
-450.1829800914783
 31
0.0
  0
LINE
  5
450
330
1F
100
AcDbEntity
  8
0-0
  6
JWW_DASHED1
 62
   120
370
     5
100
AcDbLine
 10
493.2448036154793
 20
-693.1119122782043
 30
0.0
 11
743.2448036154863
 21
-443.1119122781971
 31
0.0
  0
LINE
  5
451
330
1F
100
AcDbEntity
  8
0-0
  6
JWW_DASHED1
 62
   120
370
     5
100
AcDbLine
 10
493.2448036154754
 20
-686.0408444649225
 30
0.0
 11
743.2448036154822
 21
-436.0408444649154
 31
0.0
  0
LINE
  5
452
330
1F
100
AcDbEntity
  8
0-0
  6
JWW_DASHED1
 62
   120
370
     5
100
AcDbLine
 10
493.2448036154713
 20
-678.9697766516409
 30
0.0
 11
743.2448036154783
 21
-428.9697766516338
 31
0.0
  0
LINE
  5
453
330
1F
100
AcDbEntity
  8
0-0
  6
JWW_DASHED1
 62
   120
370
     5
100
AcDbLine
 10
493.2448036154805
 20
-671.8987088383461
 30
0.0
 11
743.244803615502
 21
-421.8987088383249
 31
0.0
  0
LINE
  5
454
330
1F
100
AcDbEntity
  8
0-0
  6
JWW_DASHED1
 62
   120
370
     5
100
AcDbLine
 10
493.2448036154947
 20
-664.8276410250465
 30
0.0
 11
743.2448036155016
 21
-414.8276410250398
 31
0.0
  0
LINE
  5
455
330
1F
100
AcDbEntity
  8
0-0
  6
JWW_DASHED1
 62
   120
370
     5
100
AcDbLine
 10
493.2448036154866
 20
-657.7565732118242
 30
0.0
 11
743.2448036154935
 21
-407.7565732118171
 31
0.0
  0
LINE
  5
456
330
1F
100
AcDbEntity
  8
0-0
  6
JWW_DASHED1
 62
   120
370
     5
100
AcDbLine
 10
493.2448036154822
 20
-650.6855053985425
 30
0.0
 11
743.2448036154894
 21
-400.6855053985354
 31
0.0
  0
LINE
  5
457
330
1F
100
AcDbEntity
  8
0-0
  6
JWW_DASHED1
 62
   120
370
     5
100
AcDbLine
 10
493.2448036154785
 20
-643.6144375852613
 30
0.0
 11
743.2448036154854
 21
-393.6144375852542
 31
0.0
  0
LINE
  5
458
330
1F
100
AcDbEntity
  8
0-0
  6
JWW_DASHED1
 62
   120
370
     5
100
AcDbLine
 10
493.2448036154747
 20
-636.5433697719797
 30
0.0
 11
743.2448036154811
 21
-386.5433697719729
 31
0.0
  0
LINE
  5
459
330
1F
100
AcDbEntity
  8
0-0
  6
JWW_DASHED1
 62
   120
370
     5
100
AcDbLine
 10
493.2448036154703
 20
-629.472301958698
 30
0.0
 11
743.2448036154933
 21
-379.4723019586755
 31
0.0
  0
LINE
  5
45A
330
1F
100
AcDbEntity
  8
0-0
  6
JWW_DASHED1
 62
   120
370
     5
100
AcDbLine
 10
493.2448036154798
 20
-622.401234145403
 30
0.0
 11
743.2448036155005
 21
-372.4012341453824
 31
0.0
  0
LINE
  5
45B
330
1F
100
AcDbEntity
  8
0-0
  6
JWW_DASHED1
 62
   120
370
     5
100
AcDbLine
 10
493.2448036154938
 20
-615.3301663321035
 30
0.0
 11
743.2448036155007
 21
-365.3301663320969
 31
0.0
  0
LINE
  5
45C
330
1F
100
AcDbEntity
  8
0-0
  6
JWW_DASHED1
 62
   120
370
     5
100
AcDbLine
 10
493.2448036154896
 20
-608.2590985188224
 30
0.0
 11
743.244803615497
 21
-358.2590985188148
 31
0.0
  0
LINE
  5
45D
330
1F
100
AcDbEntity
  8
0-0
  6
JWW_DASHED1
 62
   120
370
     5
100
AcDbLine
 10
493.2448036154856
 20
-601.1880307055408
 30
0.0
 11
743.2448036154929
 21
-351.1880307055336
 31
0.0
  0
LINE
  5
45E
330
1F
100
AcDbEntity
  8
0-0
  6
JWW_DASHED1
 62
   120
370
     5
100
AcDbLine
 10
493.2448036154776
 20
-594.1169628923179
 30
0.0
 11
743.2448036154846
 21
-344.1169628923112
 31
0.0
  0
LINE
  5
45F
330
1F
100
AcDbEntity
  8
0-0
  6
JWW_DASHED1
 62
   120
370
     5
100
AcDbLine
 10
493.2448036154737
 20
-587.0458950790367
 30
0.0
 11
743.2448036154802
 21
-337.04589507903
 31
0.0
  0
LINE
  5
460
330
1F
100
AcDbEntity
  8
0-0
  6
JWW_DASHED1
 62
   120
370
     5
100
AcDbLine
 10
493.2448036154822
 20
-579.9748272657423
 30
0.0
 11
743.2448036155029
 21
-329.9748272657215
 31
0.0
  0
LINE
  5
461
330
1F
100
AcDbEntity
  8
0-0
  6
JWW_DASHED1
 62
   120
370
     5
100
AcDbLine
 10
493.2448036154785
 20
-572.9037594524606
 30
0.0
 11
743.244803615499
 21
-322.9037594524403
 31
0.0
  0
LINE
  5
462
330
1F
100
AcDbEntity
  8
0-0
  6
JWW_DASHED1
 62
   120
370
     5
100
AcDbLine
 10
493.244803615493
 20
-565.8326916391607
 30
0.0
 11
743.2448036155001
 21
-315.8326916391539
 31
0.0
  0
LINE
  5
463
330
1F
100
AcDbEntity
  8
0-0
  6
JWW_DASHED1
 62
   120
370
     5
100
AcDbLine
 10
493.2448036154887
 20
-558.7616238258794
 30
0.0
 11
743.244803615496
 21
-308.7616238258719
 31
0.0
  0
LINE
  5
464
330
1F
100
AcDbEntity
  8
0-0
  6
JWW_DASHED1
 62
   120
370
     5
100
AcDbLine
 10
493.2448036154849
 20
-551.6905560125978
 30
0.0
 11
743.244803615492
 21
-301.6905560125907
 31
0.0
  0
LINE
  5
465
330
1F
100
AcDbEntity
  8
0-0
  6
JWW_DASHED1
 62
   120
370
     5
100
AcDbLine
 10
493.244803615481
 20
-544.6194881993162
 30
0.0
 11
743.2448036154877
 21
-294.6194881993094
 31
0.0
  0
LINE
  5
466
330
1F
100
AcDbEntity
  8
0-0
  6
JWW_DASHED1
 62
   120
370
     5
100
AcDbLine
 10
493.2448036154768
 20
-537.5484203860349
 30
0.0
 11
743.2448036154841
 21
-287.5484203860277
 31
0.0
  0
LINE
  5
467
330
1F
100
AcDbEntity
  8
0-0
  6
JWW_DASHED1
 62
   120
370
     5
100
AcDbLine
 10
493.2448036154725
 20
-530.4773525727537
 30
0.0
 11
743.24480361548
 21
-280.4773525727462
 31
0.0
  0
LINE
  5
468
330
1F
100
AcDbEntity
  8
0-0
  6
JWW_DASHED1
 62
   120
370
     5
100
AcDbLine
 10
493.2448036154802
 20
-523.4062847595151
 30
0.0
 11
743.2448036155031
 21
-273.4062847594922
 31
0.0
  0
LINE
  5
469
330
1F
100
AcDbEntity
  8
0-0
  6
JWW_DASHED1
 62
   120
370
     5
100
AcDbLine
 10
493.2448036154921
 20
-516.3352169462177
 30
0.0
 11
743.2448036154988
 21
-266.335216946211
 31
0.0
  0
LINE
  5
46A
330
1F
100
AcDbEntity
  8
0-0
  6
JWW_DASHED1
 62
   120
370
     5
100
AcDbLine
 10
493.2448036154879
 20
-509.2641491329365
 30
0.0
 11
743.2448036154948
 21
-259.2641491329298
 31
0.0
  0
LINE
  5
46B
330
1F
100
AcDbEntity
  8
0-0
  6
JWW_DASHED1
 62
   120
370
     5
100
AcDbLine
 10
493.2448036154839
 20
-502.1930813196553
 30
0.0
 11
743.2448036154912
 21
-252.1930813196477
 31
0.0
  0
LINE
  5
46C
330
1F
100
AcDbEntity
  8
0-0
  6
JWW_DASHED1
 62
   120
370
     5
100
AcDbLine
 10
493.2448036154802
 20
-495.1220135063732
 30
0.0
 11
743.2448036154868
 21
-245.1220135063665
 31
0.0
  0
LINE
  5
46D
330
1F
100
AcDbEntity
  8
0-0
  6
JWW_DASHED1
 62
   120
370
     5
100
AcDbLine
 10
493.2448036154759
 20
-488.050945693092
 30
0.0
 11
743.2448036154826
 21
-238.0509456930853
 31
0.0
  0
LINE
  5
46E
330
1F
100
AcDbEntity
  8
0-0
  6
JWW_DASHED1
 62
   120
370
     5
100
AcDbLine
 10
493.2448036154717
 20
-480.9798778798108
 30
0.0
 11
743.2448036154792
 21
-230.9798778798032
 31
0.0
  0
LINE
  5
46F
330
1F
100
AcDbEntity
  8
0-0
  6
JWW_DASHED1
 62
   120
370
     5
100
AcDbLine
 10
493.2448036154802
 20
-473.9088100665172
 30
0.0
 11
743.2448036155009
 21
-223.9088100664964
 31
0.0
  0
LINE
  5
470
330
1F
100
AcDbEntity
  8
0-0
  6
JWW_DASHED1
 62
   120
370
     5
100
AcDbLine
 10
493.2448036154955
 20
-466.8377422532163
 30
0.0
 11
743.2448036155024
 21
-216.8377422532092
 31
0.0
  0
LINE
  5
471
330
1F
100
AcDbEntity
  8
0-0
  6
JWW_DASHED1
 62
   120
370
     5
100
AcDbLine
 10
493.244803615487
 20
-459.7666744399936
 30
0.0
 11
743.2448036154941
 21
-209.7666744399868
 31
0.0
  0
LINE
  5
472
330
1F
100
AcDbEntity
  8
0-0
  6
JWW_DASHED1
 62
   120
370
     5
100
AcDbLine
 10
493.2448036154832
 20
-452.6956066267122
 30
0.0
 11
743.2448036154899
 21
-202.6956066267052
 31
0.0
  0
LINE
  5
473
330
1F
100
AcDbEntity
  8
0-0
  6
JWW_DASHED1
 62
   120
370
     5
100
AcDbLine
 10
493.2448036154788
 20
-445.6245388134307
 30
0.0
 11
743.244803615486
 21
-195.6245388134236
 31
0.0
  0
LINE
  5
474
330
1F
100
AcDbEntity
  8
0-0
  6
JWW_DASHED1
 62
   120
370
     5
100
AcDbLine
 10
493.2448036154751
 20
-438.5534710001494
 30
0.0
 11
743.2448036154819
 21
-188.5534710001423
 31
0.0
  0
LINE
  5
475
330
1F
100
AcDbEntity
  8
0-0
  6
JWW_DASHED1
 62
   120
370
     5
100
AcDbLine
 10
493.2448036154708
 20
-431.4824031868677
 30
0.0
 11
743.2448036154777
 21
-181.4824031868607
 31
0.0
  0
LINE
  5
476
330
1F
100
AcDbEntity
  8
0-0
  6
JWW_DASHED1
 62
   120
370
     5
100
AcDbLine
 10
493.2448036154788
 20
-424.4113353735742
 30
0.0
 11
743.2448036154994
 21
-174.4113353735539
 31
0.0
  0
LINE
  5
477
330
1F
100
AcDbEntity
  8
0-0
  6
JWW_DASHED1
 62
   120
370
     5
100
AcDbLine
 10
493.2448036154947
 20
-417.3402675602734
 30
0.0
 11
743.2448036155016
 21
-167.3402675602663
 31
0.0
  0
LINE
  5
478
330
1F
100
AcDbEntity
  8
0-0
  6
JWW_DASHED1
 62
   120
370
     5
100
AcDbLine
 10
493.2448036154904
 20
-410.2691997469918
 30
0.0
 11
743.2448036154977
 21
-160.2691997469846
 31
0.0
  0
LINE
  5
479
330
1F
100
AcDbEntity
  8
0-0
  6
JWW_DASHED1
 62
   120
370
     5
100
AcDbLine
 10
493.2448036154866
 20
-403.1981319337101
 30
0.0
 11
743.2448036154935
 21
-153.1981319337034
 31
0.0
  0
LINE
  5
47A
330
1F
100
AcDbEntity
  8
0-0
  6
JWW_DASHED1
 62
   120
370
     5
100
AcDbLine
 10
493.2448036154827
 20
-396.1270641204289
 30
0.0
 11
743.2448036154892
 21
-146.1270641204218
 31
0.0
  0
LINE
  5
47B
330
1F
100
AcDbEntity
  8
0-0
  6
JWW_DASHED1
 62
   120
370
     5
100
AcDbLine
 10
493.2448036154742
 20
-389.0559963072065
 30
0.0
 11
743.2448036154811
 21
-139.0559963071994
 31
0.0
  0
LINE
  5
47C
330
1F
100
AcDbEntity
  8
0-0
  6
JWW_DASHED1
 62
   120
370
     5
100
AcDbLine
 10
493.2448036154815
 20
-381.9849284939137
 30
0.0
 11
743.2448036155022
 21
-131.9849284938926
 31
0.0
  0
LINE
  5
47D
330
1F
100
AcDbEntity
  8
0-0
  6
JWW_DASHED1
 62
   120
370
     5
100
AcDbLine
 10
493.2448036154776
 20
-374.9138606806321
 30
0.0
 11
743.244803615498
 21
-124.9138606806114
 31
0.0
  0
LINE
  5
47E
330
1F
100
AcDbEntity
  8
0-0
  6
JWW_DASHED1
 62
   120
370
     5
100
AcDbLine
 10
493.2448036154938
 20
-367.84279286733
 30
0.0
 11
743.2448036155007
 21
-117.8427928673233
 31
0.0
  0
LINE
  5
47F
330
1F
100
AcDbEntity
  8
0-0
  6
JWW_DASHED1
 62
   120
370
     5
100
AcDbLine
 10
493.2448036154896
 20
-360.7717250540487
 30
0.0
 11
743.244803615497
 21
-110.7717250540417
 31
0.0
  0
LINE
  5
480
330
1F
100
AcDbEntity
  8
0-0
  6
JWW_DASHED1
 62
   120
370
     5
100
AcDbLine
 10
493.2448036154856
 20
-353.7006572407672
 30
0.0
 11
743.2448036154926
 21
-103.7006572407605
 31
0.0
  0
LINE
  5
481
330
1F
100
AcDbEntity
  8
0-0
  6
JWW_DASHED1
 62
   120
370
     5
100
AcDbLine
 10
493.2448036154817
 20
-346.6295894274859
 30
0.0
 11
743.2448036154883
 21
-96.62958942747882
 31
0.0
  0
LINE
  5
482
330
1F
100
AcDbEntity
  8
0-0
  6
JWW_DASHED1
 62
   120
370
     5
100
AcDbLine
 10
493.2448036154776
 20
-339.5585216142047
 30
0.0
 11
743.2448036154846
 21
-89.5585216141976
 31
0.0
  0
LINE
  5
483
330
1F
100
AcDbEntity
  8
0-0
  6
JWW_DASHED1
 62
   120
370
     5
100
AcDbLine
 10
493.2448036154734
 20
-332.4874538009231
 30
0.0
 11
743.2448036154807
 21
-82.48745380091596
 31
0.0
  0
LINE
  5
484
330
1F
100
AcDbEntity
  8
0-0
  6
JWW_DASHED1
 62
   120
370
     5
100
AcDbLine
 10
493.2448036154759
 20
-325.4163859876895
 30
0.0
 11
743.244803615497
 21
-75.41638598766885
 31
0.0
  0
LINE
  5
485
330
1F
100
AcDbEntity
  8
0-0
  6
JWW_DASHED1
 62
   120
370
     5
100
AcDbLine
 10
493.244803615493
 20
-318.3453181743875
 30
0.0
 11
743.2448036154997
 21
-68.34531817438038
 31
0.0
  0
LINE
  5
486
330
1F
100
AcDbEntity
  8
0-0
  6
JWW_DASHED1
 62
   120
370
     5
100
AcDbLine
 10
493.2448036154887
 20
-311.2742503611063
 30
0.0
 11
743.2448036154954
 21
-61.27425036109916
 31
0.0
  0
LINE
  5
487
330
1F
100
AcDbEntity
  8
0-0
  6
JWW_DASHED1
 62
   120
370
     5
100
AcDbLine
 10
493.2448036154844
 20
-304.2031825478246
 30
0.0
 11
743.2448036154917
 21
-54.20318254781752
 31
0.0
  0
LINE
  5
488
330
1F
100
AcDbEntity
  8
0-0
  6
JWW_DASHED1
 62
   120
370
     5
100
AcDbLine
 10
493.2448036154804
 20
-297.1321147345434
 30
0.0
 11
743.2448036154875
 21
-47.13211473453588
 31
0.0
  0
LINE
  5
489
330
1F
100
AcDbEntity
  8
0-0
  6
JWW_DASHED1
 62
   120
370
     5
100
AcDbLine
 10
493.2448036154768
 20
-290.0610469212618
 30
0.0
 11
743.2448036154834
 21
-40.06104692125466
 31
0.0
  0
LINE
  5
48A
330
1F
100
AcDbEntity
  8
0-0
  6
JWW_DASHED1
 62
   120
370
     5
100
AcDbLine
 10
493.2448036154725
 20
-282.98997910798
 30
0.0
 11
743.2448036154799
 21
-32.98997910797301
 31
0.0
  0
LINE
  5
48B
330
1F
100
AcDbEntity
  8
0-0
  6
JWW_DASHED1
 62
   120
370
     5
100
AcDbLine
 10
493.2448036154788
 20
-275.9189112946883
 30
0.0
 11
743.2448036154997
 21
-25.9189112946675
 31
0.0
  0
LINE
  5
48C
330
1F
100
AcDbEntity
  8
0-0
  6
JWW_DASHED1
 62
   120
370
     5
100
AcDbLine
 10
493.2448036154962
 20
-268.8478434813857
 30
0.0
 11
743.2448036155031
 21
-18.8478434813786
 31
0.0
  0
LINE
  5
48D
330
1F
100
AcDbEntity
  8
0-0
  6
JWW_DASHED1
 62
   120
370
     5
100
AcDbLine
 10
493.2448036154879
 20
-261.7767756681628
 30
0.0
 11
743.2448036154946
 21
-11.77677566815622
 31
0.0
  0
LINE
  5
48E
330
1F
100
AcDbEntity
  8
0-0
  6
JWW_DASHED1
 62
   120
370
     5
100
AcDbLine
 10
493.2448036154836
 20
-254.7057078548817
 30
0.0
 11
743.2448036154907
 21
-4.705707854875003
 31
0.0
  0
LINE
  5
48F
330
1F
100
AcDbEntity
  8
0-0
  6
JWW_DASHED1
 62
   120
370
     5
100
AcDbLine
 10
493.2448036154796
 20
-247.6346400416004
 30
0.0
 11
743.2448036154868
 21
2.365359958407067
 31
0.0
  0
LINE
  5
490
330
1F
100
AcDbEntity
  8
0-0
  6
JWW_DASHED1
 62
   120
370
     5
100
AcDbLine
 10
493.2448036154759
 20
-240.5635722283188
 30
0.0
 11
743.2448036154826
 21
9.436427771688285
 31
0.0
  0
LINE
  5
491
330
1F
100
AcDbEntity
  8
0-0
  6
JWW_DASHED1
 62
   120
370
     5
100
AcDbLine
 10
493.2448036154717
 20
-233.4925044150372
 30
0.0
 11
743.2448036154788
 21
16.5074955849695
 31
0.0
  0
LINE
  5
492
330
1F
100
AcDbEntity
  8
0-0
  6
JWW_DASHED1
 62
   120
370
     5
100
AcDbLine
 10
493.2448036154778
 20
-226.4214366017457
 30
0.0
 11
743.2448036154982
 21
23.5785633982746
 31
0.0
  0
LINE
  5
493
330
1F
100
AcDbEntity
  8
0-0
  6
JWW_DASHED1
 62
   120
370
     5
100
AcDbLine
 10
493.2448036154954
 20
-219.3503687884428
 30
0.0
 11
743.2448036155026
 21
30.64963121156434
 31
0.0
  0
LINE
  5
494
330
1F
100
AcDbEntity
  8
0-0
  6
JWW_DASHED1
 62
   120
370
     5
100
AcDbLine
 10
493.244803615491
 20
-212.2793009751616
 30
0.0
 11
743.2448036154982
 21
37.72069902484556
 31
0.0
  0
LINE
  5
495
330
1F
100
AcDbEntity
  8
0-0
  6
JWW_DASHED1
 62
   120
370
     5
100
AcDbLine
 10
493.2448036154872
 20
-205.2082331618799
 30
0.0
 11
743.2448036154941
 21
44.7917668381272
 31
0.0
  0
LINE
  5
496
330
1F
100
AcDbEntity
  8
0-0
  6
JWW_DASHED1
 62
   120
370
     5
100
AcDbLine
 10
493.244803615483
 20
-198.1371653485983
 30
0.0
 11
743.2448036154901
 21
51.86283465140842
 31
0.0
  0
LINE
  5
497
330
1F
100
AcDbEntity
  8
0-0
  6
JWW_DASHED1
 62
   120
370
     5
100
AcDbLine
 10
493.2448036154749
 20
-191.0660975353759
 30
0.0
 11
743.2448036154817
 21
58.93390246463123
 31
0.0
  0
LINE
  5
498
330
1F
100
AcDbEntity
  8
0-0
  6
JWW_DASHED1
 62
   120
370
     5
100
AcDbLine
 10
493.2448036154805
 20
-183.9950297220844
 30
0.0
 11
743.2448036155012
 21
66.0049702779359
 31
0.0
  0
LINE
  5
499
330
1F
100
AcDbEntity
  8
0-0
  6
JWW_DASHED1
 62
   120
370
     5
100
AcDbLine
 10
493.2448036154764
 20
-176.9239619088032
 30
0.0
 11
743.244803615497
 21
73.07603809121711
 31
0.0
  0
LINE
  5
49A
330
1F
100
AcDbEntity
  8
0-0
  6
JWW_DASHED1
 62
   120
370
     5
100
AcDbLine
 10
493.2448036154944
 20
-169.8528940954998
 30
0.0
 11
743.2448036155012
 21
80.14710590450686
 31
0.0
  0
LINE
  5
49B
330
1F
100
AcDbEntity
  8
0-0
  6
JWW_DASHED1
 62
   120
370
     5
100
AcDbLine
 10
493.2448036154902
 20
-162.7818262822186
 30
0.0
 11
743.2448036154973
 21
87.2181737177885
 31
0.0
  0
LINE
  5
49C
330
1F
100
AcDbEntity
  8
0-0
  6
JWW_DASHED1
 62
   120
370
     5
100
AcDbLine
 10
493.2448036154861
 20
-155.7107584689374
 30
0.0
 11
743.2448036154933
 21
94.28924153107015
 31
0.0
  0
LINE
  5
49D
330
1F
100
AcDbEntity
  8
0-0
  6
JWW_DASHED1
 62
   120
370
     5
100
AcDbLine
 10
493.2448036154821
 20
-148.6396906556553
 30
0.0
 11
743.2448036154892
 21
101.3603093443514
 31
0.0
  0
LINE
  5
49E
330
1F
100
AcDbEntity
  8
0-0
  6
JWW_DASHED1
 62
   120
370
     5
100
AcDbLine
 10
493.2448036154783
 20
-141.5686228423741
 30
0.0
 11
743.2448036154854
 21
108.431377157633
 31
0.0
  0
LINE
  5
49F
330
1F
100
AcDbEntity
  8
0-0
  6
JWW_DASHED1
 62
   120
370
     5
100
AcDbLine
 10
493.2448036154742
 20
-134.4975550290929
 30
0.0
 11
743.2448036154811
 21
115.5024449709142
 31
0.0
  0
LINE
  5
4A0
330
1F
100
AcDbEntity
  8
0-0
  6
JWW_DASHED1
 62
   120
370
     5
100
AcDbLine
 10
493.2448036154749
 20
-127.4264872158611
 30
0.0
 11
743.2448036154958
 21
122.5735127841596
 31
0.0
  0
LINE
  5
4A1
330
1F
100
AcDbEntity
  8
0-0
  6
JWW_DASHED1
 62
   120
370
     5
100
AcDbLine
 10
493.2448036154934
 20
-120.3554194025569
 30
0.0
 11
743.2448036155004
 21
129.6445805974498
 31
0.0
  0
LINE
  5
4A2
330
1F
100
AcDbEntity
  8
0-0
  6
JWW_DASHED1
 62
   120
370
     5
100
AcDbLine
 10
493.2448036154893
 20
-113.2843515892757
 30
0.0
 11
743.2448036154965
 21
136.7156484107314
 31
0.0
  0
LINE
  5
4A3
330
1F
100
AcDbEntity
  8
0-0
  6
JWW_DASHED1
 62
   120
370
     5
100
AcDbLine
 10
493.2448036154853
 20
-106.2132837759944
 30
0.0
 11
743.2448036154926
 21
143.7867162240131
 31
0.0
  0
LINE
  5
4A4
330
1F
100
AcDbEntity
  8
0-0
  6
JWW_DASHED1
 62
   120
370
     5
100
AcDbLine
 10
493.2448036154815
 20
-99.14221596271237
 30
0.0
 11
743.2448036154883
 21
150.8577840372943
 31
0.0
  0
LINE
  5
4A5
330
1F
100
AcDbEntity
  8
0-0
  6
JWW_DASHED1
 62
   120
370
     5
100
AcDbLine
 10
493.2448036154774
 20
-92.07114814943115
 30
0.0
 11
743.2448036154841
 21
157.9288518505755
 31
0.0
  0
LINE
  5
4A6
330
1F
100
AcDbEntity
  8
0-0
  6
JWW_DASHED1
 62
   120
370
     5
100
AcDbLine
 10
493.2448036154734
 20
-85.00008033614994
 30
0.0
 11
743.2448036154805
 21
164.9999196638576
 31
0.0
  0
LINE
  5
4A7
330
1F
100
AcDbEntity
  8
0-0
  6
JWW_DASHED1
 62
   120
370
     5
100
AcDbLine
 10
493.2448036154781
 20
-77.92901252285934
 30
0.0
 11
743.2448036154985
 21
172.0709874771614
 31
0.0
  0
LINE
  5
4A8
330
1F
100
AcDbEntity
  8
0-0
  6
JWW_DASHED1
 62
   120
370
     5
100
AcDbLine
 10
493.2448036154968
 20
-70.8579447095551
 30
0.0
 11
743.2448036155039
 21
179.142055290452
 31
0.0
  0
LINE
  5
4A9
330
1F
100
AcDbEntity
  8
0-0
  6
JWW_DASHED1
 62
   120
370
     5
100
AcDbLine
 10
493.244803615493
 20
-63.78687689627388
 30
0.0
 11
743.2448036154999
 21
186.2131231037332
 31
0.0
  0
LINE
  5
4AA
330
1F
100
AcDbEntity
  8
0-0
  6
JWW_DASHED1
 62
   120
370
     5
100
AcDbLine
 10
493.2448036154844
 20
-56.7158090830515
 30
0.0
 11
743.2448036154917
 21
193.284190916956
 31
0.0
  0
LINE
  5
4AB
330
1F
100
AcDbEntity
  8
0-0
  6
JWW_DASHED1
 62
   120
370
     5
100
AcDbLine
 10
493.2448036154805
 20
-49.64474126976943
 30
0.0
 11
743.2448036154875
 21
200.3552587302372
 31
0.0
  0
LINE
  5
4AC
330
1F
100
AcDbEntity
  8
0-0
  6
JWW_DASHED1
 62
   120
370
     5
100
AcDbLine
 10
493.2448036154766
 20
-42.57367345648821
 30
0.0
 11
743.2448036154833
 21
207.4263265435185
 31
0.0
  0
LINE
  5
4AD
330
1F
100
AcDbEntity
  8
0-0
  6
JWW_DASHED1
 62
   120
370
     5
100
AcDbLine
 10
493.2448036154725
 20
-35.50260564320699
 30
0.0
 11
743.2448036154792
 21
214.4973943568001
 31
0.0
  0
LINE
  5
4AE
330
1F
100
AcDbEntity
  8
0-0
  6
JWW_DASHED1
 62
   120
370
     5
100
AcDbLine
 10
493.2448036154768
 20
-28.43153782991725
 30
0.0
 11
743.2448036154973
 21
221.5684621701035
 31
0.0
  0
LINE
  5
4AF
330
1F
100
AcDbEntity
  8
0-0
  6
JWW_DASHED1
 62
   120
370
     5
100
AcDbLine
 10
493.2448036154959
 20
-21.36047001661215
 30
0.0
 11
743.2448036155031
 21
228.6395299833949
 31
0.0
  0
LINE
  5
4B0
330
1F
100
AcDbEntity
  8
0-0
  6
JWW_DASHED1
 62
   120
370
     5
100
AcDbLine
 10
493.2448036154919
 20
-14.28940220333094
 30
0.0
 11
743.244803615499
 21
235.7105977966762
 31
0.0
  0
LINE
  5
4B1
330
1F
100
AcDbEntity
  8
0-0
  6
JWW_DASHED1
 62
   120
370
     5
100
AcDbLine
 10
493.2448036154876
 20
-7.218334390049721
 30
0.0
 11
743.2448036154948
 21
242.7816656099574
 31
0.0
  0
LINE
  5
4B2
330
1F
100
AcDbEntity
  8
0-0
  6
JWW_DASHED1
 62
   120
370
     5
100
AcDbLine
 10
493.2448036154839
 20
-0.1472665767676506
 30
0.0
 11
743.2448036154907
 21
249.8527334232386
 31
0.0
  0
LINE
  5
4B3
330
1F
100
AcDbEntity
  8
0-0
  6
JWW_DASHED1
 62
   120
370
     5
100
AcDbLine
 10
493.2448036154753
 20
6.923801236454308
 30
0.0
 11
743.2448036154824
 21
256.9238012364614
 31
0.0
  0
LINE
  5
4B4
330
1F
100
AcDbEntity
  8
0-0
  6
JWW_DASHED1
 62
   120
370
     5
100
AcDbLine
 10
493.2448036154796
 20
13.99486904974405
 30
0.0
 11
743.2448036155001
 21
263.9948690497644
 31
0.0
  0
LINE
  5
4B5
330
1F
100
AcDbEntity
  8
0-0
  6
JWW_DASHED1
 62
   120
370
     5
100
AcDbLine
 10
493.2448036154753
 20
21.06593686302527
 30
0.0
 11
743.244803615496
 21
271.065936863046
 31
0.0
  0
LINE
  5
4B6
330
1F
100
AcDbEntity
  8
0-0
  6
JWW_DASHED1
 62
   120
370
     5
100
AcDbLine
 10
493.2448036154951
 20
28.13700467633079
 30
0.0
 11
743.2448036155016
 21
278.137004676337
 31
0.0
  0
LINE
  5
4B7
330
1F
100
AcDbEntity
  8
0-0
  6
JWW_DASHED1
 62
   120
370
     5
100
AcDbLine
 10
493.244803615491
 20
35.20807248961201
 30
0.0
 11
743.244803615498
 21
285.2080724896191
 31
0.0
  0
LINE
  5
4B8
330
1F
100
AcDbEntity
  8
0-0
  6
JWW_DASHED1
 62
   120
370
     5
100
AcDbLine
 10
493.2448036154868
 20
42.27914030289323
 30
0.0
 11
743.2448036154941
 21
292.2791403029003
 31
0.0
  0
LINE
  5
4B9
330
1F
100
AcDbEntity
  8
0-0
  6
JWW_DASHED1
 62
   120
370
     5
100
AcDbLine
 10
493.244803615483
 20
49.35020811617487
 30
0.0
 11
743.2448036154899
 21
299.3502081161815
 31
0.0
  0
LINE
  5
4BA
330
1F
100
AcDbEntity
  8
0-0
  6
JWW_DASHED1
 62
   120
370
     5
100
AcDbLine
 10
493.2448036154791
 20
56.42127592945651
 30
0.0
 11
743.244803615486
 21
306.4212759294636
 31
0.0
  0
LINE
  5
4BB
330
1F
100
AcDbEntity
  8
0-0
  6
JWW_DASHED1
 62
   120
370
     5
100
AcDbLine
 10
493.2448036154749
 20
63.49234374273773
 30
0.0
 11
743.2448036154817
 21
313.4923437427448
 31
0.0
  0
LINE
  5
4BC
330
1F
100
AcDbEntity
  8
0-0
  6
JWW_DASHED1
 62
   120
370
     5
100
AcDbLine
 10
493.2448036154785
 20
70.56341155602662
 30
0.0
 11
743.244803615499
 21
320.5634115560474
 31
0.0
  0
LINE
  5
4BD
330
1F
100
AcDbEntity
  8
0-0
  6
JWW_DASHED1
 62
   120
370
     5
100
AcDbLine
 10
493.244803615494
 20
77.63447936927331
 30
0.0
 11
743.2448036155009
 21
327.63447936928
 31
0.0
  0
LINE
  5
4BE
330
1F
100
AcDbEntity
  8
0-0
  6
JWW_DASHED1
 62
   120
370
     5
100
AcDbLine
 10
493.2448036154902
 20
84.70554718255495
 30
0.0
 11
743.2448036154971
 21
334.705547182562
 31
0.0
  0
LINE
  5
4BF
330
1F
100
AcDbEntity
  8
0-0
  6
JWW_DASHED1
 62
   120
370
     5
100
AcDbLine
 10
493.2448036154859
 20
91.77661499583617
 30
0.0
 11
743.2448036154933
 21
341.7766149958433
 31
0.0
  0
LINE
  5
4C0
330
1F
100
AcDbEntity
  8
0-0
  6
JWW_DASHED1
 62
   120
370
     5
100
AcDbLine
 10
493.2448036154821
 20
98.84768280911781
 30
0.0
 11
743.244803615489
 21
348.8476828091245
 31
0.0
  0
LINE
  5
4C1
330
1F
100
AcDbEntity
  8
0-0
  6
JWW_DASHED1
 62
   120
370
     5
100
AcDbLine
 10
493.2448036154783
 20
105.9187506223995
 30
0.0
 11
743.2448036154849
 21
355.9187506224061
 31
0.0
  0
LINE
  5
4C2
330
1F
100
AcDbEntity
  8
0-0
  6
JWW_DASHED1
 62
   120
370
     5
100
AcDbLine
 10
493.244803615474
 20
112.9898184356807
 30
0.0
 11
743.2448036154809
 21
362.9898184356878
 31
0.0
  0
LINE
  5
4C3
330
1F
100
AcDbEntity
  8
0-0
  6
JWW_DASHED1
 62
   120
370
     5
100
AcDbLine
 10
493.244803615477
 20
120.0608862489696
 30
0.0
 11
743.244803615498
 21
370.0608862489903
 31
0.0
  0
LINE
  5
4C4
330
1F
100
AcDbEntity
  8
0-0
  6
JWW_DASHED1
 62
   120
370
     5
100
AcDbLine
 10
493.2448036154817
 20
127.1319540622593
 30
0.0
 11
743.2448036155043
 21
377.1319540622817
 31
0.0
  0
LINE
  5
4C5
330
1F
100
AcDbEntity
  8
0-0
  6
JWW_DASHED1
 62
   120
370
     5
100
AcDbLine
 10
493.2448036154934
 20
134.2030218755567
 30
0.0
 11
743.2448036155004
 21
384.2030218755634
 31
0.0
  0
LINE
  5
4C6
330
1F
100
AcDbEntity
  8
0-0
  6
JWW_DASHED1
 62
   120
370
     5
100
AcDbLine
 10
493.2448036154851
 20
141.2740896887791
 30
0.0
 11
743.2448036154922
 21
391.2740896887862
 31
0.0
  0
LINE
  5
4C7
330
1F
100
AcDbEntity
  8
0-0
  6
JWW_DASHED1
 62
   120
370
     5
100
AcDbLine
 10
493.244803615481
 20
148.3451575020603
 30
0.0
 11
743.244803615488
 21
398.3451575020674
 31
0.0
  0
LINE
  5
4C8
330
1F
100
AcDbEntity
  8
0-0
  6
JWW_DASHED1
 62
   120
370
     5
100
AcDbLine
 10
493.244803615477
 20
155.4162253153424
 30
0.0
 11
743.2448036154841
 21
405.416225315349
 31
0.0
  0
LINE
  5
4C9
330
1F
100
AcDbEntity
  8
0-0
  6
JWW_DASHED1
 62
   120
370
     5
100
AcDbLine
 10
493.2448036154732
 20
162.4872931286236
 30
0.0
 11
743.2448036154799
 21
412.4872931286303
 31
0.0
  0
LINE
  5
4CA
330
1F
100
AcDbEntity
  8
0-0
  6
JWW_DASHED1
 62
   120
370
     5
100
AcDbLine
 10
493.2448036154757
 20
169.5583609419116
 30
0.0
 11
743.2448036154967
 21
419.5583609419324
 31
0.0
  0
LINE
  5
4CB
330
1F
100
AcDbEntity
  8
0-0
  6
JWW_DASHED1
 62
   120
370
     5
100
AcDbLine
 10
493.2448036154968
 20
176.6294287552184
 30
0.0
 11
743.2448036155038
 21
426.6294287552251
 31
0.0
  0
LINE
  5
4CC
330
1F
100
AcDbEntity
  8
0-0
  6
JWW_DASHED1
 62
   120
370
     5
100
AcDbLine
 10
493.2448036154925
 20
183.7004965684997
 30
0.0
 11
743.2448036154999
 21
433.7004965685068
 31
0.0
  0
LINE
  5
4CD
330
1F
100
AcDbEntity
  8
0-0
  6
JWW_DASHED1
 62
   120
370
     5
100
AcDbLine
 10
493.2448036154883
 20
190.7715643817809
 30
0.0
 11
743.2448036154956
 21
440.771564381788
 31
0.0
  0
LINE
  5
4CE
330
1F
100
AcDbEntity
  8
0-0
  6
JWW_DASHED1
 62
   120
370
     5
100
AcDbLine
 10
493.2448036154849
 20
197.8426321950629
 30
0.0
 11
743.2448036154914
 21
447.8426321950692
 31
0.0
  0
LINE
  5
4CF
330
1F
100
AcDbEntity
  8
0-0
  6
JWW_DASHED1
 62
   120
370
     5
100
AcDbLine
 10
493.2448036154761
 20
204.9137000082853
 30
0.0
 11
743.2448036154833
 21
454.913700008292
 31
0.0
  0
LINE
  5
4D0
330
1F
100
AcDbEntity
  8
0-0
  6
JWW_DASHED1
 62
   120
370
     5
100
AcDbLine
 10
493.2448036154783
 20
211.9847678215725
 30
0.0
 11
743.2448036154994
 21
461.9847678215937
 31
0.0
  0
LINE
  5
4D1
330
1F
100
AcDbEntity
  8
0-0
  6
JWW_DASHED1
 62
   120
370
     5
100
AcDbLine
 10
493.2448036154744
 20
219.0558356348542
 30
0.0
 11
743.2448036154954
 21
469.0558356348753
 31
0.0
  0
LINE
  5
4D2
330
1F
100
AcDbEntity
  8
0-0
  6
JWW_DASHED1
 62
   120
370
     5
100
AcDbLine
 10
493.2448036154955
 20
226.126903448161
 30
0.0
 11
743.2448036155026
 21
476.1269034481676
 31
0.0
  0
LINE
  5
4D3
330
1F
100
AcDbEntity
  8
0-0
  6
JWW_DASHED1
 62
   120
370
     5
100
AcDbLine
 10
493.2448036154917
 20
233.1979712614426
 30
0.0
 11
743.244803615499
 21
483.1979712614497
 31
0.0
  0
LINE
  5
4D4
330
1F
100
AcDbEntity
  8
0-0
  6
JWW_DASHED1
 62
   120
370
     5
100
AcDbLine
 10
493.2448036154873
 20
240.2690390747238
 30
0.0
 11
743.2448036154948
 21
490.2690390747309
 31
0.0
  0
LINE
  5
4D5
330
1F
100
AcDbEntity
  8
0-0
  6
JWW_DASHED1
 62
   120
370
     5
100
AcDbLine
 10
493.2448036154836
 20
247.340106888005
 30
0.0
 11
743.2448036154907
 21
497.3401068880121
 31
0.0
  0
LINE
  5
4D6
330
1F
100
AcDbEntity
  8
0-0
  6
JWW_DASHED1
 62
   120
370
     5
100
AcDbLine
 10
493.2448036154798
 20
254.4111747012871
 30
0.0
 11
743.2448036154865
 21
504.4111747012934
 31
0.0
  0
LINE
  5
4D7
330
1F
100
AcDbEntity
  8
0-0
  6
JWW_DASHED1
 62
   120
370
     5
100
AcDbLine
 10
493.2448036154754
 20
261.4822425145683
 30
0.0
 11
743.2448036154826
 21
511.4822425145754
 31
0.0
  0
LINE
  5
4D8
330
1F
100
AcDbEntity
  8
0-0
  6
JWW_DASHED1
 62
   120
370
     5
100
AcDbLine
 10
493.2448036154774
 20
268.5533103278555
 30
0.0
 11
743.2448036154982
 21
518.5533103278763
 31
0.0
  0
LINE
  5
4D9
330
1F
100
AcDbEntity
  8
0-0
  6
JWW_DASHED1
 62
   120
370
     5
100
AcDbLine
 10
493.2448036154951
 20
275.6243781411043
 30
0.0
 11
743.2448036155016
 21
525.6243781411106
 31
0.0
  0
LINE
  5
4DA
330
1F
100
AcDbEntity
  8
0-0
  6
JWW_DASHED1
 62
   120
370
     5
100
AcDbLine
 10
493.2448036154908
 20
282.6954459543855
 30
0.0
 11
743.244803615498
 21
532.6954459543927
 31
0.0
  0
LINE
  5
4DB
330
1F
100
AcDbEntity
  8
0-0
  6
JWW_DASHED1
 62
   120
370
     5
100
AcDbLine
 10
493.2448036154868
 20
289.7665137676668
 30
0.0
 11
743.2448036154937
 21
539.7665137676738
 31
0.0
  0
LINE
  5
4DC
330
1F
100
AcDbEntity
  8
0-0
  6
JWW_DASHED1
 62
   120
370
     5
100
AcDbLine
 10
493.2448036154825
 20
296.837581580948
 30
0.0
 11
743.2448036154897
 21
546.837581580955
 31
0.0
  0
LINE
  5
4DD
330
1F
100
AcDbEntity
  8
0-0
  6
JWW_DASHED1
 62
   120
370
     5
100
AcDbLine
 10
493.2448036154787
 20
303.9086493942296
 30
0.0
 11
743.2448036154858
 21
553.9086493942367
 31
0.0
  0
LINE
  5
4DE
330
1F
100
AcDbEntity
  8
0-0
  6
JWW_DASHED1
 62
   120
370
     5
100
AcDbLine
 10
493.2448036154747
 20
310.9797172075113
 30
0.0
 11
743.2448036154817
 21
560.9797172075183
 31
0.0
  0
LINE
  5
4DF
330
1F
100
AcDbEntity
  8
0-0
  6
JWW_DASHED1
 62
   120
370
     5
100
AcDbLine
 10
493.2448036154759
 20
318.0507850207976
 30
0.0
 11
743.244803615497
 21
568.0507850208188
 31
0.0
  0
LINE
  5
4E0
330
1F
100
AcDbEntity
  8
0-0
  6
JWW_DASHED1
 62
   120
370
     5
100
AcDbLine
 10
493.244803615472
 20
325.1218528340797
 30
0.0
 11
743.2448036154926
 21
575.1218528341
 31
0.0
  0
LINE
  5
4E1
330
1F
100
AcDbEntity
  8
0-0
  6
JWW_DASHED1
 62
   120
370
     5
100
AcDbLine
 10
493.244803615494
 20
332.1929206473873
 30
0.0
 11
743.2448036155012
 21
582.192920647394
 31
0.0
  0
LINE
  5
4E2
330
1F
100
AcDbEntity
  8
0-0
  6
JWW_DASHED1
 62
   120
370
     5
100
AcDbLine
 10
493.2448036154859
 20
339.2639884606097
 30
0.0
 11
743.2448036154929
 21
589.2639884606167
 31
0.0
  0
LINE
  5
4E3
330
1F
100
AcDbEntity
  8
0-0
  6
JWW_DASHED1
 62
   120
370
     5
100
AcDbLine
 10
493.2448036154817
 20
346.3350562738909
 30
0.0
 11
743.244803615489
 21
596.335056273898
 31
0.0
  0
LINE
  5
4E4
330
1F
100
AcDbEntity
  8
0-0
  6
JWW_DASHED1
 62
   120
370
     5
100
AcDbLine
 10
493.2448036154778
 20
353.4061240871725
 30
0.0
 11
743.2448036154846
 21
603.4061240871793
 31
0.0
  0
LINE
  5
4E5
330
1F
100
AcDbEntity
  8
0-0
  6
JWW_DASHED1
 62
   120
370
     5
100
AcDbLine
 10
493.244803615474
 20
360.4771919004542
 30
0.0
 11
743.2448036154807
 21
610.4771919004609
 31
0.0
  0
LINE
  5
4E6
330
1F
100
AcDbEntity
  8
0-0
  6
JWW_DASHED1
 62
   120
370
     5
100
AcDbLine
 10
493.2448036154749
 20
367.5482597137405
 30
0.0
 11
743.2448036154956
 21
617.5482597137612
 31
0.0
  0
LINE
  5
4E7
330
1F
100
AcDbEntity
  8
0-0
  6
JWW_DASHED1
 62
   120
370
     5
100
AcDbLine
 10
493.2448036154975
 20
374.6193275270486
 30
0.0
 11
743.2448036155043
 21
624.6193275270552
 31
0.0
  0
LINE
  5
4E8
330
1F
100
AcDbEntity
  8
0-0
  6
JWW_DASHED1
 62
   120
370
     5
100
AcDbLine
 10
493.2448036154932
 20
381.6903953403303
 30
0.0
 11
743.2448036155004
 21
631.690395340337
 31
0.0
  0
LINE
  5
4E9
330
1F
100
AcDbEntity
  8
0-0
  6
JWW_DASHED1
 62
   120
370
     5
100
AcDbLine
 10
493.2448036154893
 20
388.7614631536115
 30
0.0
 11
743.2448036154965
 21
638.7614631536185
 31
0.0
  0
LINE
  5
4EA
330
1F
100
AcDbEntity
  8
0-0
  6
JWW_DASHED1
 62
   120
370
     5
100
AcDbLine
 10
493.2448036154853
 20
395.8325309668927
 30
0.0
 11
743.2448036154922
 21
645.8325309668998
 31
0.0
  0
LINE
  5
4EB
330
1F
100
AcDbEntity
  8
0-0
  6
JWW_DASHED1
 62
   120
370
     5
100
AcDbLine
 10
493.2448036154813
 20
402.9035987801743
 30
0.0
 11
743.244803615488
 21
652.903598780181
 31
0.0
  0
LINE
  5
4EC
330
1F
100
AcDbEntity
  8
0-0
  6
JWW_DASHED1
 62
   120
370
     5
100
AcDbLine
 10
493.2448036154732
 20
409.9746665933972
 30
0.0
 11
743.2448036154799
 21
659.9746665934039
 31
0.0
  0
LINE
  5
4ED
330
1F
100
AcDbEntity
  8
0-0
  6
JWW_DASHED1
 62
   120
370
     5
100
AcDbLine
 10
493.2448036154737
 20
417.0457344066835
 30
0.0
 11
743.2448036154943
 21
667.0457344067033
 31
0.0
  0
LINE
  5
4EE
330
1F
100
AcDbEntity
  8
0-0
  6
JWW_DASHED1
 62
   120
370
     5
100
AcDbLine
 10
493.2448036154964
 20
424.1168022199911
 30
0.0
 11
743.2448036155035
 21
674.1168022199981
 31
0.0
  0
LINE
  5
4EF
330
1F
100
AcDbEntity
  8
0-0
  6
JWW_DASHED1
 62
   120
370
     5
100
AcDbLine
 10
493.2448036154925
 20
431.1878700332732
 30
0.0
 11
743.2448036154994
 21
681.1878700332799
 31
0.0
  0
LINE
  5
4F0
330
1F
100
AcDbEntity
  8
0-0
  6
JWW_DASHED1
 62
   120
370
     5
100
AcDbLine
 10
493.2448036154883
 20
438.2589378465544
 30
0.0
 11
743.2448036154951
 21
688.2589378465611
 31
0.0
  0
LINE
  5
4F1
330
1F
100
AcDbEntity
  8
0-0
  6
JWW_DASHED1
 62
   120
370
     5
100
AcDbLine
 10
493.2448036154844
 20
445.3300056598356
 30
0.0
 11
743.2448036154914
 21
695.3300056598428
 31
0.0
  0
LINE
  5
4F2
330
1F
100
AcDbEntity
  8
0-0
  6
JWW_DASHED1
 62
   120
370
     5
100
AcDbLine
 10
493.2448036154804
 20
452.4010734731177
 30
0.0
 11
743.2448036154871
 21
702.4010734731239
 31
0.0
  0
LINE
  5
4F3
330
1F
100
AcDbEntity
  8
0-0
  6
JWW_DASHED1
 62
   120
370
     5
100
AcDbLine
 10
493.2448036154764
 20
459.4721412863989
 30
0.0
 11
743.2448036154833
 21
709.4721412864056
 31
0.0
  0
LINE
  5
4F4
330
1F
100
AcDbEntity
  8
0-0
  6
JWW_DASHED1
 62
   120
370
     5
100
AcDbLine
 10
493.2448036154764
 20
466.5432090996844
 30
0.0
 11
743.2448036154971
 21
716.5432090997051
 31
0.0
  0
LINE
  5
4F5
330
1F
100
AcDbEntity
  8
0-0
  6
JWW_DASHED1
 62
   120
370
     5
100
AcDbLine
 10
493.2448036154955
 20
473.6142769129341
 30
0.0
 11
743.2448036155024
 21
723.6142769129411
 31
0.0
  0
LINE
  5
4F6
330
1F
100
AcDbEntity
  8
0-0
  6
JWW_DASHED1
 62
   120
370
     5
100
AcDbLine
 10
493.2448036154913
 20
480.6853447262153
 30
0.0
 11
743.2448036154982
 21
730.6853447262224
 31
0.0
  0
LINE
  5
4F7
330
1F
100
AcDbEntity
  8
0-0
  6
JWW_DASHED1
 62
   120
370
     5
100
AcDbLine
 10
493.2448036154873
 20
487.7564125394974
 30
0.0
 11
743.2448036154943
 21
737.756412539504
 31
0.0
  0
LINE
  5
4F8
330
1F
100
AcDbEntity
  8
0-0
  6
JWW_DASHED1
 62
   120
370
     5
100
AcDbLine
 10
493.2448036154832
 20
494.8274803527786
 30
0.0
 11
743.2448036154905
 21
744.8274803527856
 31
0.0
  0
LINE
  5
4F9
330
1F
100
AcDbEntity
  8
0-0
  6
JWW_DASHED1
 62
   120
370
     5
100
AcDbLine
 10
493.2448036154793
 20
501.8985481660598
 30
0.0
 11
743.2448036154863
 21
751.8985481660668
 31
0.0
  0
LINE
  5
4FA
330
1F
100
AcDbEntity
  8
0-0
  6
JWW_DASHED1
 62
   120
370
     5
100
AcDbLine
 10
493.2448036154754
 20
508.9696159793419
 30
0.0
 11
743.2448036154822
 21
758.9696159793481
 31
0.0
  0
LINE
  5
4FB
330
1F
100
AcDbEntity
  8
0-0
  6
JWW_DASHED1
 62
   120
370
     5
100
AcDbLine
 10
493.2448036154753
 20
516.040683792627
 30
0.0
 11
743.244803615496
 21
766.0406837926477
 31
0.0
  0
LINE
  5
4FC
330
1F
100
AcDbEntity
  8
0-0
  6
JWW_DASHED1
 62
   120
370
     5
100
AcDbLine
 10
493.2448036154713
 20
523.1117516059085
 30
0.0
 11
743.2448036154917
 21
773.1117516059289
 31
0.0
  0
LINE
  5
4FD
330
1F
100
AcDbEntity
  8
0-0
  6
JWW_DASHED1
 62
   120
370
     5
100
AcDbLine
 10
493.2448036154949
 20
530.1828194192175
 30
0.0
 11
743.244803615502
 21
780.1828194192246
 31
0.0
  0
LINE
  5
4FE
330
1F
100
AcDbEntity
  8
0-0
  6
JWW_DASHED1
 62
   120
370
     5
100
AcDbLine
 10
493.2448036154866
 20
537.2538872324403
 30
0.0
 11
743.2448036154935
 21
787.253887232447
 31
0.0
  0
LINE
  5
4FF
330
1F
100
AcDbEntity
  8
0-0
  6
JWW_DASHED1
 62
   120
370
     5
100
AcDbLine
 10
493.2448036154822
 20
544.3249550457215
 30
0.0
 11
743.2448036154894
 21
794.3249550457285
 31
0.0
  0
LINE
  5
500
330
1F
100
AcDbEntity
  8
0-0
  6
JWW_DASHED1
 62
   120
370
     5
100
AcDbLine
 10
493.2448036154785
 20
551.3960228590026
 30
0.0
 11
743.2448036154854
 21
801.3960228590098
 31
0.0
  0
LINE
  5
501
330
1F
100
AcDbEntity
  8
0-0
  6
JWW_DASHED1
 62
   120
370
     5
100
AcDbLine
 10
493.2448036154747
 20
558.4670906722847
 30
0.0
 11
743.2448036154815
 21
808.4670906722915
 31
0.0
  0
LINE
  5
502
330
1F
100
AcDbEntity
  8
0-0
  6
JWW_DASHED1
 62
   120
370
     5
100
AcDbLine
 10
493.244803615474
 20
565.5381584855694
 30
0.0
 11
743.2448036154948
 21
815.5381584855902
 31
0.0
  0
LINE
  5
503
330
1F
100
AcDbEntity
  8
0-0
  6
JWW_DASHED1
 62
   120
370
     5
100
AcDbLine
 10
493.2448036154979
 20
572.6092262988788
 30
0.0
 11
743.2448036155048
 21
822.6092262988859
 31
0.0
  0
LINE
  5
504
330
1F
100
AcDbEntity
  8
0-0
  6
JWW_DASHED1
 62
   120
370
     5
100
AcDbLine
 10
493.244803615494
 20
579.6802941121605
 30
0.0
 11
743.2448036155009
 21
829.6802941121671
 31
0.0
  0
LINE
  5
505
330
1F
100
AcDbEntity
  8
0-0
  6
JWW_DASHED1
 62
   120
370
     5
100
AcDbLine
 10
493.2448036154898
 20
586.7513619254416
 30
0.0
 11
743.244803615497
 21
836.7513619254488
 31
0.0
  0
LINE
  5
506
330
1F
100
AcDbEntity
  8
0-0
  6
JWW_DASHED1
 62
   120
370
     5
100
AcDbLine
 10
493.2448036154856
 20
593.8224297387233
 30
0.0
 11
743.2448036154929
 21
843.8224297387303
 31
0.0
  0
LINE
  5
507
330
1F
100
AcDbEntity
  8
0-0
  6
JWW_DASHED1
 62
   120
370
     5
100
AcDbLine
 10
493.2448036154821
 20
600.893497552005
 30
0.0
 11
743.2448036154888
 21
850.8934975520116
 31
0.0
  0
LINE
  5
508
330
1F
100
AcDbEntity
  8
0-0
  6
JWW_DASHED1
 62
   120
370
     5
100
AcDbLine
 10
493.2448036154736
 20
607.9645653652274
 30
0.0
 11
743.2448036154805
 21
857.964565365234
 31
0.0
  0
LINE
  5
509
330
1F
100
AcDbEntity
  8
0-0
  6
JWW_DASHED1
 62
   120
370
     5
100
AcDbLine
 10
493.2448036154725
 20
615.035633178512
 30
0.0
 11
743.2448036154933
 21
865.0356331785322
 31
0.0
  0
LINE
  5
50A
330
1F
100
AcDbEntity
  8
0-0
  6
JWW_DASHED1
 62
   120
370
     5
100
AcDbLine
 10
493.2448036154971
 20
622.1067009918218
 30
0.0
 11
743.2448036155039
 21
872.1067009918288
 31
0.0
  0
LINE
  5
50B
330
1F
100
AcDbEntity
  8
0-0
  6
JWW_DASHED1
 62
   120
370
     5
100
AcDbLine
 10
493.2448036154932
 20
629.1777688051034
 30
0.0
 11
743.2448036155001
 21
879.17776880511
 31
0.0
  0
LINE
  5
50C
330
1F
100
AcDbEntity
  8
0-0
  6
JWW_DASHED1
 62
   120
370
     5
100
AcDbLine
 10
493.2448036154889
 20
636.2488366183846
 30
0.0
 11
743.244803615496
 21
886.2488366183912
 31
0.0
  0
LINE
  5
50D
330
1F
100
AcDbEntity
  8
0-0
  6
JWW_DASHED1
 62
   120
370
     5
100
AcDbLine
 10
493.2448036154851
 20
643.3199044316661
 30
0.0
 11
743.244803615492
 21
893.3199044316733
 31
0.0
  0
LINE
  5
50E
330
1F
100
AcDbEntity
  8
0-0
  6
JWW_DASHED1
 62
   120
370
     5
100
AcDbLine
 10
493.2448036154813
 20
650.3909722449479
 30
0.0
 11
743.244803615488
 21
900.3909722449546
 31
0.0
  0
LINE
  5
50F
330
1F
100
AcDbEntity
  8
0-0
  6
JWW_DASHED1
 62
   120
370
     5
100
AcDbLine
 10
493.244803615477
 20
657.4620400582291
 30
0.0
 11
743.2448036154839
 21
907.4620400582357
 31
0.0
  0
LINE
  5
510
330
1F
100
AcDbEntity
  8
0-0
  6
JWW_DASHED1
 62
   120
370
     5
100
AcDbLine
 10
493.2448036154759
 20
664.5331078715133
 30
0.0
 11
743.2448036154965
 21
914.533107871534
 31
0.0
  0
LINE
  5
511
330
1F
100
AcDbEntity
  8
0-0
  6
JWW_DASHED1
 62
   120
370
     5
100
AcDbLine
 10
493.2448036154962
 20
671.6041756847646
 30
0.0
 11
743.2448036155033
 21
921.6041756847717
 31
0.0
  0
LINE
  5
512
330
1F
100
AcDbEntity
  8
0-0
  6
JWW_DASHED1
 62
   120
370
     5
100
AcDbLine
 10
493.2448036154923
 20
678.6752434980464
 30
0.0
 11
743.2448036154992
 21
928.675243498053
 31
0.0
  0
LINE
  5
513
330
1F
100
AcDbEntity
  8
0-0
  6
JWW_DASHED1
 62
   120
370
     5
100
AcDbLine
 10
493.2448036154881
 20
685.7463113113275
 30
0.0
 11
743.2448036154951
 21
935.7463113113347
 31
0.0
  0
LINE
  5
514
330
1F
100
AcDbEntity
  8
0-0
  6
JWW_DASHED1
 62
   120
370
     5
100
AcDbLine
 10
493.2448036154839
 20
692.8173791246091
 30
0.0
 11
743.2448036154912
 21
942.8173791246163
 31
0.0
  0
LINE
  5
515
330
1F
100
AcDbEntity
  8
0-0
  6
JWW_DASHED1
 62
   120
370
     5
100
AcDbLine
 10
493.2448036154804
 20
699.8884469378909
 30
0.0
 11
743.2448036154871
 21
949.8884469378975
 31
0.0
  0
LINE
  5
516
330
1F
100
AcDbEntity
  8
0-0
  6
JWW_DASHED1
 62
   120
370
     5
100
AcDbLine
 10
493.2448036154761
 20
706.959514751172
 30
0.0
 11
743.2448036154829
 21
956.9595147511786
 31
0.0
  0
LINE
  5
517
330
1F
100
AcDbEntity
  8
0-0
  6
JWW_DASHED1
 62
   120
370
     5
100
AcDbLine
 10
493.2448036154744
 20
714.0305825644558
 30
0.0
 11
743.2448036154948
 21
964.0305825644762
 31
0.0
  0
LINE
  5
518
330
1F
100
AcDbEntity
  8
0-0
  6
JWW_DASHED1
 62
   120
370
     5
100
AcDbLine
 10
493.2448036154702
 20
721.1016503777371
 30
0.0
 11
743.2448036154907
 21
971.1016503777573
 31
0.0
  0
LINE
  5
519
330
1F
100
AcDbEntity
  8
0-0
  6
JWW_DASHED1
 62
   120
370
     5
100
AcDbLine
 10
493.2448036154955
 20
728.1727181910476
 30
0.0
 11
743.2448036155024
 21
978.1727181910547
 31
0.0
  0
LINE
  5
51A
330
1F
100
AcDbEntity
  8
0-0
  6
JWW_DASHED1
 62
   120
370
     5
100
AcDbLine
 10
493.2448036154872
 20
735.2437860042705
 30
0.0
 11
743.2448036154943
 21
985.2437860042776
 31
0.0
  0
LINE
  5
51B
330
1F
100
AcDbEntity
  8
0-0
  6
JWW_DASHED1
 62
   120
370
     5
100
AcDbLine
 10
493.2448036154832
 20
742.3148538175521
 30
0.0
 11
737.7586989822685
 21
986.8287491843372
 31
0.0
  0
LINE
  5
51C
330
1F
100
AcDbEntity
  8
0-0
  6
JWW_DASHED1
 62
   120
370
     5
100
AcDbLine
 10
493.2448036154788
 20
749.3859216308333
 30
0.0
 11
730.687631168987
 21
986.8287491843414
 31
0.0
  0
LINE
  5
51D
330
1F
100
AcDbEntity
  8
0-0
  6
JWW_DASHED1
 62
   120
370
     5
100
AcDbLine
 10
493.2448036154751
 20
756.4569894441145
 30
0.0
 11
723.6165633557058
 21
986.8287491843457
 31
0.0
  0
LINE
  5
51E
330
1F
100
AcDbEntity
  8
0-0
  6
JWW_DASHED1
 62
   120
370
     5
100
AcDbLine
 10
493.244803615473
 20
763.5280572573984
 30
0.0
 11
716.5454955424103
 21
986.8287491843355
 31
0.0
  0
LINE
  5
51F
330
1F
100
AcDbEntity
  8
0-0
  6
JWW_DASHED1
 62
   120
370
     5
100
AcDbLine
 10
493.2448036154989
 20
770.5991250707093
 30
0.0
 11
709.4744277291115
 21
986.8287491843223
 31
0.0
  0
LINE
  5
520
330
1F
100
AcDbEntity
  8
0-0
  6
JWW_DASHED1
 62
   120
370
     5
100
AcDbLine
 10
493.2448036154947
 20
777.6701928839906
 30
0.0
 11
702.4033599158304
 21
986.8287491843265
 31
0.0
  0
LINE
  5
521
330
1F
100
AcDbEntity
  8
0-0
  6
JWW_DASHED1
 62
   120
370
     5
100
AcDbLine
 10
493.2448036154906
 20
784.7412606972723
 30
0.0
 11
695.332292102549
 21
986.8287491843304
 31
0.0
  0
LINE
  5
522
330
1F
100
AcDbEntity
  8
0-0
  6
JWW_DASHED1
 62
   120
370
     5
100
AcDbLine
 10
493.2448036154866
 20
791.8123285105539
 30
0.0
 11
688.2612242892677
 21
986.8287491843346
 31
0.0
  0
LINE
  5
523
330
1F
100
AcDbEntity
  8
0-0
  6
JWW_DASHED1
 62
   120
370
     5
100
AcDbLine
 10
493.2448036154825
 20
798.8833963238351
 30
0.0
 11
681.1901564759863
 21
986.8287491843389
 31
0.0
  0
LINE
  5
524
330
1F
100
AcDbEntity
  8
0-0
  6
JWW_DASHED1
 62
   120
370
     5
100
AcDbLine
 10
493.2448036154742
 20
805.9544641370575
 30
0.0
 11
674.1190886627642
 21
986.8287491843474
 31
0.0
  0
LINE
  5
525
330
1F
100
AcDbEntity
  8
0-0
  6
JWW_DASHED1
 62
   120
370
     5
100
AcDbLine
 10
493.2448036154717
 20
813.0255319503403
 30
0.0
 11
667.0480208494716
 21
986.8287491843406
 31
0.0
  0
LINE
  5
526
330
1F
100
AcDbEntity
  8
0-0
  6
JWW_DASHED1
 62
   120
370
     5
100
AcDbLine
 10
493.2448036154979
 20
820.0965997636523
 30
0.0
 11
659.9769530361699
 21
986.8287491843244
 31
0.0
  0
LINE
  5
527
330
1F
100
AcDbEntity
  8
0-0
  6
JWW_DASHED1
 62
   120
370
     5
100
AcDbLine
 10
493.2448036154938
 20
827.1676675769336
 30
0.0
 11
652.9058852228887
 21
986.8287491843287
 31
0.0
  0
LINE
  5
528
330
1F
100
AcDbEntity
  8
0-0
  6
JWW_DASHED1
 62
   120
370
     5
100
AcDbLine
 10
493.2448036154898
 20
834.2387353902152
 30
0.0
 11
645.8348174096072
 21
986.8287491843325
 31
0.0
  0
LINE
  5
529
330
1F
100
AcDbEntity
  8
0-0
  6
JWW_DASHED1
 62
   120
370
     5
100
AcDbLine
 10
493.2448036154856
 20
841.3098032034968
 30
0.0
 11
638.7637495963261
 21
986.8287491843372
 31
0.0
  0
LINE
  5
52A
330
1F
100
AcDbEntity
  8
0-0
  6
JWW_DASHED1
 62
   120
370
     5
100
AcDbLine
 10
493.2448036154817
 20
848.380871016778
 30
0.0
 11
631.6926817830448
 21
986.8287491843411
 31
0.0
  0
LINE
  5
52B
330
1F
100
AcDbEntity
  8
0-0
  6
JWW_DASHED1
 62
   120
370
     5
100
AcDbLine
 10
493.2448036154778
 20
855.4519388300597
 30
0.0
 11
624.6216139697634
 21
986.8287491843453
 31
0.0
  0
LINE
  5
52C
330
1F
100
AcDbEntity
  8
0-0
  6
JWW_DASHED1
 62
   120
370
     5
100
AcDbLine
 10
493.2448036154749
 20
862.5230066433421
 30
0.0
 11
617.5505461564743
 21
986.8287491843414
 31
0.0
  0
LINE
  5
52D
330
1F
100
AcDbEntity
  8
0-0
  6
JWW_DASHED1
 62
   120
370
     5
100
AcDbLine
 10
493.2448036154971
 20
869.5940744565953
 30
0.0
 11
610.4794783432283
 21
986.828749184326
 31
0.0
  0
LINE
  5
52E
330
1F
100
AcDbEntity
  8
0-0
  6
JWW_DASHED1
 62
   120
370
     5
100
AcDbLine
 10
493.244803615493
 20
876.6651422698765
 30
0.0
 11
603.4084105299469
 21
986.8287491843304
 31
0.0
  0
LINE
  5
52F
330
1F
100
AcDbEntity
  8
0-0
  6
JWW_DASHED1
 62
   120
370
     5
100
AcDbLine
 10
493.2448036154889
 20
883.7362100831582
 30
0.0
 11
596.3373427166656
 21
986.8287491843346
 31
0.0
  0
LINE
  5
530
330
1F
100
AcDbEntity
  8
0-0
  6
JWW_DASHED1
 62
   120
370
     5
100
AcDbLine
 10
493.2448036154849
 20
890.8072778964397
 30
0.0
 11
589.2662749033842
 21
986.8287491843389
 31
0.0
  0
LINE
  5
531
330
1F
100
AcDbEntity
  8
0-0
  6
JWW_DASHED1
 62
   120
370
     5
100
AcDbLine
 10
493.2448036154808
 20
897.878345709721
 30
0.0
 11
582.1952070901029
 21
986.8287491843431
 31
0.0
  0
LINE
  5
532
330
1F
100
AcDbEntity
  8
0-0
  6
JWW_DASHED1
 62
   120
370
     5
100
AcDbLine
 10
493.2448036154766
 20
904.9494135230022
 30
0.0
 11
575.1241392768218
 21
986.8287491843474
 31
0.0
  0
LINE
  5
533
330
1F
100
AcDbEntity
  8
0-0
  6
JWW_DASHED1
 62
   120
370
     5
100
AcDbLine
 10
493.2448036154734
 20
912.0204813362843
 30
0.0
 11
568.0530714635356
 21
986.8287491843465
 31
0.0
  0
LINE
  5
534
330
1F
100
AcDbEntity
  8
0-0
  6
JWW_DASHED1
 62
   120
370
     5
100
AcDbLine
 10
493.2448036154693
 20
919.0915491495659
 30
0.0
 11
560.9820036502548
 21
986.8287491843516
 31
0.0
  0
LINE
  5
535
330
1F
100
AcDbEntity
  8
0-0
  6
JWW_DASHED1
 62
   120
370
     5
100
AcDbLine
 10
493.2448036154964
 20
926.1626169628782
 30
0.0
 11
553.9109358369461
 21
986.8287491843282
 31
0.0
  0
LINE
  5
536
330
1F
100
AcDbEntity
  8
0-0
  6
JWW_DASHED1
 62
   120
370
     5
100
AcDbLine
 10
493.2448036154921
 20
933.2336847761594
 30
0.0
 11
546.8398680236648
 21
986.8287491843325
 31
0.0
  0
LINE
  5
537
330
1F
100
AcDbEntity
  8
0-0
  6
JWW_DASHED1
 62
   120
370
     5
100
AcDbLine
 10
493.2448036154838
 20
940.3047525893824
 30
0.0
 11
539.7688002104426
 21
986.8287491843411
 31
0.0
  0
LINE
  5
538
330
1F
100
AcDbEntity
  8
0-0
  6
JWW_DASHED1
 62
   120
370
     5
100
AcDbLine
 10
493.2448036154798
 20
947.375820402664
 30
0.0
 11
532.6977323971613
 21
986.8287491843453
 31
0.0
  0
LINE
  5
539
330
1F
100
AcDbEntity
  8
0-0
  6
JWW_DASHED1
 62
   120
370
     5
100
AcDbLine
 10
493.2448036154757
 20
954.4468882159451
 30
0.0
 11
525.6266645838799
 21
986.8287491843491
 31
0.0
  0
LINE
  5
53A
330
1F
100
AcDbEntity
  8
0-0
  6
JWW_DASHED1
 62
   120
370
     5
100
AcDbLine
 10
493.244803615472
 20
961.5179560292272
 30
0.0
 11
518.5555967705969
 21
986.8287491843516
 31
0.0
  0
LINE
  5
53B
330
1F
100
AcDbEntity
  8
0-0
  6
JWW_DASHED1
 62
   120
370
     5
100
AcDbLine
 10
493.2448036154836
 20
968.5890238425238
 30
0.0
 11
511.4845289573006
 21
986.8287491843406
 31
0.0
  0
LINE
  5
53C
330
1F
100
AcDbEntity
  8
0-0
  6
JWW_DASHED1
 62
   120
370
     5
100
AcDbLine
 10
493.2448036154955
 20
975.6600916558212
 30
0.0
 11
504.4134611440045
 21
986.8287491843304
 31
0.0
  0
LINE
  5
53D
330
1F
100
AcDbEntity
  8
0-0
  6
JWW_DASHED1
 62
   120
370
     5
100
AcDbLine
 10
493.2448036154915
 20
982.7311594691029
 30
0.0
 11
497.3423933307232
 21
986.8287491843346
 31
0.0
  0
LINE
  5
53E
330
1F
100
AcDbEntity
  8
寸法
  6
Continuous
 62
   120
370
     5
100
AcDbLine
 10
-1263.75519638451
 20
-1069.671250815665
 30
0.0
 11
-813.7551963845103
 21
-1069.671250815665
 31
0.0
  0
LWPOLYLINE
  5
53F
330
1F
100
AcDbEntity
  8
寸法
  6
Continuous
 62
     7
370
     9
100
AcDbPolyline
 90
        4
 70
     1
 43
3.0
 10
-1262.25519638451
 20
-1069.671250815665
 42
0.4142135623731
 10
-1263.75519638451
 20
-1068.171250815665
 42
0.4142135623731
 10
-1265.25519638451
 20
-1069.671250815665
 42
0.4142135623731
 10
-1263.75519638451
 20
-1071.171250815665
 42
0.4142135623731
  0
LINE
  5
540
330
1F
100
AcDbEntity
  8
寸法
  6
Continuous
 62
   120
370
     5
100
AcDbLine
 10
-733.7551963845098
 20
-1519.671250815665
 30
0.0
 11
-733.7551963845098
 21
-1119.671250815665
 31
0.0
  0
LINE
  5
541
330
1F
100
AcDbEntity
  8
寸法
  6
Continuous
 62
   120
370
     5
100
AcDbLine
 10
-763.7551963845098
 20
-1719.671250815665
 30
0.0
 11
-763.7551963845098
 21
-1119.671250815665
 31
0.0
  0
LINE
  5
542
330
1F
100
AcDbEntity
  8
寸法
  6
Continuous
 62
   120
370
     5
100
AcDbLine
 10
853.2448036154896
 20
-1319.671250815665
 30
0.0
 11
853.2448036154896
 21
-1119.671250815665
 31
0.0
  0
LINE
  5
543
330
1F
100
AcDbEntity
  8
寸法
  6
Continuous
 62
   120
370
     5
100
AcDbLine
 10
-733.7551963845098
 20
-1519.671250815665
 30
0.0
 11
850.2448036154889
 21
-1519.671250815665
 31
0.0
  0
LINE
  5
544
330
1F
100
AcDbEntity
  8
寸法
  6
Continuous
 62
   120
370
     5
100
AcDbLine
 10
850.2448036154889
 20
-1519.671250815665
 30
0.0
 11
850.2448036154889
 21
-1119.671250815665
 31
0.0
  0
LINE
  5
545
330
1F
100
AcDbEntity
  8
寸法
  6
Continuous
 62
   120
370
     5
100
AcDbLine
 10
-763.7551963845098
 20
-1719.671250815665
 30
0.0
 11
880.2448036154889
 21
-1719.671250815665
 31
0.0
  0
LINE
  5
546
330
1F
100
AcDbEntity
  8
寸法
  6
Continuous
 62
   120
370
     5
100
AcDbLine
 10
880.2448036154889
 20
-1719.671250815665
 30
0.0
 11
880.2448036154889
 21
-1119.671250815665
 31
0.0
  0
LINE
  5
547
330
1F
100
AcDbEntity
  8
寸法
  6
Continuous
 62
   120
370
     5
100
AcDbLine
 10
43.24480361548952
 20
-1319.671250815665
 30
0.0
 11
43.24480361548952
 21
-1119.671250815665
 31
0.0
  0
LINE
  5
548
330
1F
100
AcDbEntity
  8
寸法
  6
Continuous
 62
   120
370
     5
100
AcDbLine
 10
43.24480361548952
 20
-1319.671250815665
 30
0.0
 11
853.2448036154896
 21
-1319.671250815665
 31
0.0
  0
LWPOLYLINE
  5
549
330
1F
100
AcDbEntity
  8
寸法
  6
Continuous
 62
     7
370
     9
100
AcDbPolyline
 90
        4
 70
     1
 43
3.0
 10
-732.2551963845098
 20
-1519.671250815665
 42
0.4142135623731
 10
-733.7551963845098
 20
-1518.171250815665
 42
0.4142135623731
 10
-735.2551963845098
 20
-1519.671250815665
 42
0.4142135623731
 10
-733.7551963845098
 20
-1521.171250815665
 42
0.4142135623731
  0
LWPOLYLINE
  5
54A
330
1F
100
AcDbEntity
  8
寸法
  6
Continuous
 62
     7
370
     9
100
AcDbPolyline
 90
        4
 70
     1
 43
3.0
 10
-762.2551963845098
 20
-1719.671250815665
 42
0.4142135623731
 10
-763.7551963845098
 20
-1718.171250815665
 42
0.4142135623731
 10
-765.2551963845098
 20
-1719.671250815665
 42
0.4142135623731
 10
-763.7551963845098
 20
-1721.171250815665
 42
0.4142135623731
  0
LWPOLYLINE
  5
54B
330
1F
100
AcDbEntity
  8
寸法
  6
Continuous
 62
     7
370
     9
100
AcDbPolyline
 90
        4
 70
     1
 43
3.0
 10
854.7448036154896
 20
-1319.671250815665
 42
0.4142135623731
 10
853.2448036154896
 20
-1318.171250815665
 42
0.4142135623731
 10
851.7448036154896
 20
-1319.671250815665
 42
0.4142135623731
 10
853.2448036154896
 20
-1321.171250815665
 42
0.4142135623731
  0
LWPOLYLINE
  5
54C
330
1F
100
AcDbEntity
  8
寸法
  6
Continuous
 62
     7
370
     9
100
AcDbPolyline
 90
        4
 70
     1
 43
3.0
 10
851.7448036154889
 20
-1519.671250815665
 42
0.4142135623731
 10
850.2448036154889
 20
-1518.171250815665
 42
0.4142135623731
 10
848.7448036154889
 20
-1519.671250815665
 42
0.4142135623731
 10
850.2448036154889
 20
-1521.171250815665
 42
0.4142135623731
  0
LWPOLYLINE
  5
54D
330
1F
100
AcDbEntity
  8
寸法
  6
Continuous
 62
     7
370
     9
100
AcDbPolyline
 90
        4
 70
     1
 43
3.0
 10
881.7448036154889
 20
-1719.671250815665
 42
0.4142135623731
 10
880.2448036154889
 20
-1718.171250815665
 42
0.4142135623731
 10
878.7448036154889
 20
-1719.671250815665
 42
0.4142135623731
 10
880.2448036154889
 20
-1721.171250815665
 42
0.4142135623731
  0
LWPOLYLINE
  5
54E
330
1F
100
AcDbEntity
  8
寸法
  6
Continuous
 62
     7
370
     9
100
AcDbPolyline
 90
        4
 70
     1
 43
3.0
 10
44.74480361548952
 20
-1319.671250815665
 42
0.4142135623731
 10
43.24480361548952
 20
-1318.171250815665
 42
0.4142135623731
 10
41.74480361548952
 20
-1319.671250815665
 42
0.4142135623731
 10
43.24480361548952
 20
-1321.171250815665
 42
0.4142135623731
  0
LINE
  5
54F
330
1F
100
AcDbEntity
  8
寸法
  6
Continuous
 62
   120
370
     5
100
AcDbLine
 10
-1063.75519638451
 20
-1061.171250815665
 30
0.0
 11
-813.7551963845103
 21
-1061.171250815665
 31
0.0
  0
LWPOLYLINE
  5
550
330
1F
100
AcDbEntity
  8
寸法
  6
Continuous
 62
     7
370
     9
100
AcDbPolyline
 90
        4
 70
     1
 43
3.0
 10
-1062.25519638451
 20
-1061.171250815665
 42
0.4142135623731
 10
-1063.75519638451
 20
-1059.671250815665
 42
0.4142135623731
 10
-1065.25519638451
 20
-1061.171250815665
 42
0.4142135623731
 10
-1063.75519638451
 20
-1062.671250815665
 42
0.4142135623731
  0
LINE
  5
551
330
1F
100
AcDbEntity
  8
寸法
  6
Continuous
 62
   120
370
     5
100
AcDbLine
 10
-1263.75519638451
 20
1165.828749184335
 30
0.0
 11
-1263.75519638451
 21
-1069.671250815665
 31
0.0
  0
LINE
  5
552
330
1F
100
AcDbEntity
  8
寸法
  6
Continuous
 62
   120
370
     5
100
AcDbLine
 10
-1263.75519638451
 20
1165.828749184335
 30
0.0
 11
-813.7551963845103
 21
1165.828749184335
 31
0.0
  0
LWPOLYLINE
  5
553
330
1F
100
AcDbEntity
  8
寸法
  6
Continuous
 62
     7
370
     9
100
AcDbPolyline
 90
        4
 70
     1
 43
3.0
 10
-1262.25519638451
 20
1165.828749184335
 42
0.4142135623731
 10
-1263.75519638451
 20
1167.328749184335
 42
0.4142135623731
 10
-1265.25519638451
 20
1165.828749184335
 42
0.4142135623731
 10
-1263.75519638451
 20
1164.328749184336
 42
0.4142135623731
  0
LINE
  5
554
330
1F
100
AcDbEntity
  8
寸法
  6
Continuous
 62
   120
370
     5
100
AcDbLine
 10
-1063.75519638451
 20
1121.828749184335
 30
0.0
 11
-813.7551963845103
 21
1121.828749184335
 31
0.0
  0
LINE
  5
555
330
1F
100
AcDbEntity
  8
寸法
  6
Continuous
 62
   120
370
     5
100
AcDbLine
 10
-1063.75519638451
 20
1121.828749184335
 30
0.0
 11
-1063.75519638451
 21
-1061.171250815665
 31
0.0
  0
LWPOLYLINE
  5
556
330
1F
100
AcDbEntity
  8
寸法
  6
Continuous
 62
     7
370
     9
100
AcDbPolyline
 90
        4
 70
     1
 43
3.0
 10
-1062.25519638451
 20
1121.828749184335
 42
0.4142135623731
 10
-1063.75519638451
 20
1123.328749184335
 42
0.4142135623731
 10
-1065.25519638451
 20
1121.828749184335
 42
0.4142135623731
 10
-1063.75519638451
 20
1120.328749184335
 42
0.4142135623731
  0
MTEXT
  5
557
330
1F
100
AcDbEntity
  8
寸法
  6
Continuous
 62
     7
370
    70
100
AcDbMText
 10
-1278.75519638451
 20
-181.8462508156657
 30
0.0
 40
57.14999999999999
 41
412.5
 46
0.0
 71
     7
 72
     1
  1
{\fＭＳ ゴシック|b0|i0|c128|p49;枠外＝2,235}
 11
6.123031769111886E-17
 21
1.0
 31
0.0
 73
     1
 44
1.0
  0
MTEXT
  5
558
330
1F
100
AcDbEntity
  8
寸法
  6
Continuous
 62
     7
370
    70
100
AcDbMText
 10
-1078.75519638451
 20
-187.846250815665
 30
0.0
 40
57.14999999999999
 41
412.5
 46
0.0
 71
     7
 72
     1
  1
{\fＭＳ ゴシック|b0|i0|c128|p49;ＤＨ＝2,183}
 11
6.123031769111886E-17
 21
1.0
 31
0.0
 73
     1
 44
1.0
  0
MTEXT
  5
559
330
1F
100
AcDbEntity
  8
寸法
  6
Continuous
 62
     7
370
   211
100
AcDbMText
 10
279.4948036154895
 20
-1313.596250815665
 30
0.0
 40
57.15000000000001
 41
337.5000000000001
 46
0.0
 71
     7
 72
     1
  1
{\fＭＳ ゴシック|b0|i0|c128|p49;ＤＷ＝810}
 73
     1
 44
1.0
  0
MTEXT
  5
55A
330
1F
100
AcDbEntity
  8
寸法
  6
Continuous
 62
     7
370
   211
100
AcDbMText
 10
-148.0051963845105
 20
-1513.596250815665
 30
0.0
 40
57.14999999999999
 41
412.5
 46
0.0
 71
     7
 72
     1
  1
{\fＭＳ ゴシック|b0|i0|c128|p49;枠内＝1,584}
 73
     1
 44
1.0
  0
MTEXT
  5
55B
330
1F
100
AcDbEntity
  8
寸法
  6
Continuous
 62
     7
370
   211
100
AcDbMText
 10
-148.0051963845105
 20
-1713.596250815665
 30
0.0
 40
57.14999999999999
 41
412.5
 46
0.0
 71
     7
 72
     1
  1
{\fＭＳ ゴシック|b0|i0|c128|p49;枠外＝1,644}
 73
     1
 44
1.0
  0
ENDSEC
  0
SECTION
  2
OBJECTS
  0
DICTIONARY
  5
C
330
0
100
AcDbDictionary
281
     1
  3
ACAD_GROUP
350
D
  3
ACAD_LAYOUT
350
1A
  3
ACAD_MATERIAL
350
3B
  3
ACAD_MLEADERSTYLE
350
55D
  3
ACAD_MLINESTYLE
350
17
  3
ACAD_PLOTSETTINGS
350
19
  3
ACAD_PLOTSTYLENAME
350
E
  3
ACAD_TABLESTYLE
350
55C
  3
ACAD_VISUALSTYLE
350
2A
  0
DICTIONARY
  5
D
102
{ACAD_REACTORS
330
C
102
}
330
C
100
AcDbDictionary
281
     1
  0
DICTIONARY
  5
1A
102
{ACAD_REACTORS
330
C
102
}
330
C
100
AcDbDictionary
281
     1
  3
Layout1
350
1E
  3
Layout2
350
26
  3
Model
350
22
  0
DICTIONARY
  5
3B
102
{ACAD_REACTORS
330
C
102
}
330
C
100
AcDbDictionary
281
     1
  3
ByBlock
350
3D
  3
ByLayer
350
3C
  3
Global
350
3E
  0
DICTIONARY
  5
55D
102
{ACAD_REACTORS
330
C
102
}
330
C
100
AcDbDictionary
281
     1
  0
DICTIONARY
  5
17
102
{ACAD_REACTORS
330
C
102
}
330
C
100
AcDbDictionary
281
     1
  3
Standard
350
18
  0
DICTIONARY
  5
19
102
{ACAD_REACTORS
330
C
102
}
330
C
100
AcDbDictionary
281
     1
  0
ACDBDICTIONARYWDFLT
  5
E
102
{ACAD_REACTORS
330
C
102
}
330
C
100
AcDbDictionary
281
     1
  3
Normal
350
F
100
AcDbDictionaryWithDefault
340
F
  0
DICTIONARY
  5
55C
102
{ACAD_REACTORS
330
C
102
}
330
C
100
AcDbDictionary
281
     1
  0
DICTIONARY
  5
2A
102
{ACAD_REACTORS
330
C
102
}
330
C
100
AcDbDictionary
281
     1
  3
2dWireframe
350
2F
  3
3D Hidden
350
31
  3
3dWireframe
350
30
  3
Basic
350
32
  3
Brighten
350
36
  3
ColorChange
350
3A
  3
Conceptual
350
34
  3
Dim
350
35
  3
Facepattern
350
39
  3
Flat
350
2B
  3
FlatWithEdges
350
2C
  3
Gouraud
350
2D
  3
GouraudWithEdges
350
2E
  3
Linepattern
350
38
  3
Realistic
350
33
  3
Thicken
350
37
  0
LAYOUT
  5
1E
102
{ACAD_REACTORS
330
1A
102
}
330
1A
100
AcDbPlotSettings
  1

  2
none_device
  4

  6

 40
0.0
 41
0.0
 42
0.0
 43
0.0
 44
0.0
 45
0.0
 46
0.0
 47
0.0
 48
0.0
 49
0.0
140
0.0
141
0.0
142
1.0
143
1.0
 70
   688
 72
     0
 73
     0
 74
     5
  7

 75
    16
 76
     0
 77
     5
 78
   300
147
1.0
148
0.0
149
0.0
100
AcDbLayout
  1
Layout1
 70
     1
 71
     1
 10
0.0
 20
0.0
 11
420.0
 21
297.0
 12
0.0
 22
0.0
 32
0.0
 14
1.000000000000000E+20
 24
1.000000000000000E+20
 34
1.000000000000000E+20
 15
-1.000000000000000E+20
 25
-1.000000000000000E+20
 35
-1.000000000000000E+20
146
0.0
 13
0.0
 23
0.0
 33
0.0
 16
1.0
 26
0.0
 36
0.0
 17
0.0
 27
1.0
 37
0.0
 76
     0
330
1B
  0
LAYOUT
  5
26
102
{ACAD_REACTORS
330
1A
102
}
330
1A
100
AcDbPlotSettings
  1

  2
none_device
  4

  6

 40
0.0
 41
0.0
 42
0.0
 43
0.0
 44
0.0
 45
0.0
 46
0.0
 47
0.0
 48
0.0
 49
0.0
140
0.0
141
0.0
142
1.0
143
1.0
 70
   688
 72
     0
 73
     0
 74
     5
  7

 75
    16
 76
     0
 77
     5
 78
   300
147
1.0
148
0.0
149
0.0
100
AcDbLayout
  1
Layout2
 70
     1
 71
     2
 10
0.0
 20
0.0
 11
0.0
 21
0.0
 12
0.0
 22
0.0
 32
0.0
 14
0.0
 24
0.0
 34
0.0
 15
0.0
 25
0.0
 35
0.0
146
0.0
 13
0.0
 23
0.0
 33
0.0
 16
1.0
 26
0.0
 36
0.0
 17
0.0
 27
1.0
 37
0.0
 76
     0
330
23
  0
LAYOUT
  5
22
102
{ACAD_REACTORS
330
1A
102
}
330
1A
100
AcDbPlotSettings
  1

  2
none_device
  4

  6

 40
0.0
 41
0.0
 42
0.0
 43
0.0
 44
0.0
 45
0.0
 46
0.0
 47
0.0
 48
0.0
 49
0.0
140
0.0
141
0.0
142
1.0
143
1.0
 70
  1712
 72
     0
 73
     0
 74
     0
  7

 75
     0
 76
     0
 77
     5
 78
   300
147
1.0
148
0.0
149
0.0
100
AcDbLayout
  1
Model
 70
     1
 71
     0
 10
-4455.0
 20
-3150.0
 11
4455.0
 21
3150.0
 12
0.0
 22
0.0
 32
0.0
 14
-4455.0
 24
-3150.0
 34
0.0
 15
4455.0
 25
3150.0
 35
0.0
146
0.0
 13
0.0
 23
0.0
 33
0.0
 16
1.0
 26
0.0
 36
0.0
 17
0.0
 27
1.0
 37
0.0
 76
     0
330
1F
331
29
  0
MATERIAL
  5
3D
102
{ACAD_REACTORS
330
3B
102
}
330
3B
100
AcDbMaterial
  1
ByBlock
 72
     1
 94
      127
  0
MATERIAL
  5
3C
102
{ACAD_REACTORS
330
3B
102
}
330
3B
100
AcDbMaterial
  1
ByLayer
 72
     1
 94
      127
  0
MATERIAL
  5
3E
102
{ACAD_REACTORS
330
3B
102
}
330
3B
100
AcDbMaterial
  1
Global
 72
     1
 94
      127
  0
MLINESTYLE
  5
18
102
{ACAD_REACTORS
330
17
102
}
330
17
100
AcDbMlineStyle
  2
Standard
 70
     0
  3

 62
   256
 51
90.0
 52
90.0
 71
     2
 49
0.5
 62
   256
  6
BYLAYER
 49
-0.5
 62
   256
  6
BYLAYER
  0
ACDBPLACEHOLDER
  5
F
102
{ACAD_REACTORS
330
E
102
}
330
E
  0
VISUALSTYLE
  5
2F
102
{ACAD_REACTORS
330
2A
102
}
330
2A
100
AcDbVisualStyle
  2
2dWireframe
 70
     4
177
     2
291
     0
 71
     0
176
     1
 72
     2
176
     1
 73
     0
176
     1
 90
        0
176
     1
 40
-0.6
176
     1
 41
-30.0
176
     1
 62
     5
 63
     7
421
 16777215
176
     1
 74
     1
176
     1
 91
        4
176
     1
 64
     7
176
     1
 65
   257
176
     1
 75
     1
176
     1
175
     1
176
     1
 42
1.0
176
     1
 92
        0
176
     1
 66
   257
176
     1
 43
1.0
176
     1
 76
     1
176
     1
 77
     6
176
     1
 78
     2
176
     1
 67
     7
176
     1
 79
     5
176
     1
170
     0
176
     1
171
     0
176
     1
290
     0
176
     1
 93
        1
176
     1
 44
0.0
176
     1
173
     0
176
     1
  0
VISUALSTYLE
  5
31
102
{ACAD_REACTORS
330
2A
102
}
330
2A
100
AcDbVisualStyle
  2
3D Hidden
 70
     6
177
     2
291
     0
 71
     1
176
     1
 72
     2
176
     1
 73
     2
176
     1
 90
        0
176
     1
 40
-0.6
176
     1
 41
-30.0
176
     1
 62
     5
 63
     7
421
 16777215
176
     1
 74
     2
176
     1
 91
        2
176
     1
 64
     7
176
     1
 65
   257
176
     1
 75
     2
176
     1
175
     1
176
     1
 42
40.0
176
     1
 92
        0
176
     1
 66
   257
176
     1
 43
1.0
176
     1
 76
     1
176
     1
 77
     6
176
     1
 78
     2
176
     1
 67
     7
176
     1
 79
     3
176
     1
170
     0
176
     1
171
     0
176
     1
290
     0
176
     1
 93
        1
176
     1
 44
0.0
176
     1
173
     0
176
     1
  0
VISUALSTYLE
  5
30
102
{ACAD_REACTORS
330
2A
102
}
330
2A
100
AcDbVisualStyle
  2
3dWireframe
 70
     5
177
     2
291
     0
 71
     0
176
     1
 72
     2
176
     1
 73
     0
176
     1
 90
        0
176
     1
 40
-0.6
176
     1
 41
-30.0
176
     1
 62
     5
 63
     7
421
 16777215
176
     1
 74
     1
176
     1
 91
        4
176
     1
 64
     7
176
     1
 65
   257
176
     1
 75
     1
176
     1
175
     1
176
     1
 42
1.0
176
     1
 92
        0
176
     1
 66
   257
176
     1
 43
1.0
176
     1
 76
     1
176
     1
 77
     6
176
     1
 78
     2
176
     1
 67
     7
176
     1
 79
     5
176
     1
170
     0
176
     1
171
     0
176
     1
290
     0
176
     1
 93
        1
176
     1
 44
0.0
176
     1
173
     0
176
     1
  0
VISUALSTYLE
  5
32
102
{ACAD_REACTORS
330
2A
102
}
330
2A
100
AcDbVisualStyle
  2
Basic
 70
     7
177
     2
291
     1
 71
     1
176
     1
 72
     0
176
     1
 73
     1
176
     1
 90
        0
176
     1
 40
-0.6
176
     1
 41
-30.0
176
     1
 62
     5
 63
     7
421
 16777215
176
     1
 74
     0
176
     1
 91
        4
176
     1
 64
     7
176
     1
 65
   257
176
     1
 75
     1
176
     1
175
     1
176
     1
 42
1.0
176
     1
 92
        8
176
     1
 66
     7
176
     1
 43
1.0
176
     1
 76
     1
176
     1
 77
     6
176
     1
 78
     2
176
     1
 67
     7
176
     1
 79
     5
176
     1
170
     0
176
     1
171
     0
176
     1
290
     0
176
     1
 93
        1
176
     1
 44
0.0
176
     1
173
     0
176
     1
  0
VISUALSTYLE
  5
36
102
{ACAD_REACTORS
330
2A
102
}
330
2A
100
AcDbVisualStyle
  2
Brighten
 70
    12
177
     2
291
     1
 71
     2
176
     1
 72
     2
176
     1
 73
     0
176
     1
 90
        0
176
     1
 40
-0.6
176
     1
 41
-30.0
176
     1
 62
     5
 63
     7
421
 16777215
176
     1
 74
     1
176
     1
 91
        4
176
     1
 64
     7
176
     1
 65
   257
176
     1
 75
     1
176
     1
175
     1
176
     1
 42
1.0
176
     1
 92
        8
176
     1
 66
     7
176
     1
 43
1.0
176
     1
 76
     1
176
     1
 77
     6
176
     1
 78
     2
176
     1
 67
     7
176
     1
 79
     5
176
     1
170
     0
176
     1
171
     0
176
     1
290
     0
176
     1
 93
        1
176
     1
 44
50.0
176
     1
173
     0
176
     1
  0
VISUALSTYLE
  5
3A
102
{ACAD_REACTORS
330
2A
102
}
330
2A
100
AcDbVisualStyle
  2
ColorChange
 70
    16
177
     2
291
     1
 71
     2
176
     1
 72
     2
176
     1
 73
     3
176
     1
 90
        0
176
     1
 40
-0.6
176
     1
 41
-30.0
176
     1
 62
     5
 63
     8
421
  8421504
176
     1
 74
     1
176
     1
 91
        4
176
     1
 64
     7
176
     1
 65
   257
176
     1
 75
     1
176
     1
175
     1
176
     1
 42
1.0
176
     1
 92
        8
176
     1
 66
     8
424
  8421504
176
     1
 43
1.0
176
     1
 76
     1
176
     1
 77
     6
176
     1
 78
     2
176
     1
 67
     7
176
     1
 79
     5
176
     1
170
     0
176
     1
171
     0
176
     1
290
     0
176
     1
 93
        1
176
     1
 44
0.0
176
     1
173
     0
176
     1
  0
VISUALSTYLE
  5
34
102
{ACAD_REACTORS
330
2A
102
}
330
2A
100
AcDbVisualStyle
  2
Conceptual
 70
     9
177
     2
291
     0
 71
     3
176
     1
 72
     2
176
     1
 73
     0
176
     1
 90
        0
176
     1
 40
-0.6
176
     1
 41
-30.0
176
     1
 62
     5
 63
     7
421
 16777215
176
     1
 74
     2
176
     1
 91
        2
176
     1
 64
     7
176
     1
 65
   257
176
     1
 75
     1
176
     1
175
     1
176
     1
 42
40.0
176
     1
 92
        8
176
     1
 66
     7
176
     1
 43
1.0
176
     1
 76
     1
176
     1
 77
     6
176
     1
 78
     2
176
     1
 67
     7
176
     1
 79
     3
176
     1
170
     0
176
     1
171
     0
176
     1
290
     0
176
     1
 93
        1
176
     1
 44
0.0
176
     1
173
     0
176
     1
  0
VISUALSTYLE
  5
35
102
{ACAD_REACTORS
330
2A
102
}
330
2A
100
AcDbVisualStyle
  2
Dim
 70
    11
177
     2
291
     1
 71
     2
176
     1
 72
     2
176
     1
 73
     0
176
     1
 90
        0
176
     1
 40
-0.6
176
     1
 41
-30.0
176
     1
 62
     5
 63
     7
421
 16777215
176
     1
 74
     1
176
     1
 91
        4
176
     1
 64
     7
176
     1
 65
   257
176
     1
 75
     1
176
     1
175
     1
176
     1
 42
1.0
176
     1
 92
        8
176
     1
 66
     7
176
     1
 43
1.0
176
     1
 76
     1
176
     1
 77
     6
176
     1
 78
     2
176
     1
 67
     7
176
     1
 79
     5
176
     1
170
     0
176
     1
171
     0
176
     1
290
     0
176
     1
 93
        1
176
     1
 44
-50.0
176
     1
173
     0
176
     1
  0
VISUALSTYLE
  5
39
102
{ACAD_REACTORS
330
2A
102
}
330
2A
100
AcDbVisualStyle
  2
Facepattern
 70
    15
177
     2
291
     1
 71
     2
176
     1
 72
     2
176
     1
 73
     0
176
     1
 90
        0
176
     1
 40
-0.6
176
     1
 41
-30.0
176
     1
 62
     5
 63
     7
421
 16777215
176
     1
 74
     1
176
     1
 91
        4
176
     1
 64
     7
176
     1
 65
   257
176
     1
 75
     1
176
     1
175
     1
176
     1
 42
1.0
176
     1
 92
        8
176
     1
 66
     7
176
     1
 43
1.0
176
     1
 76
     1
176
     1
 77
     6
176
     1
 78
     2
176
     1
 67
     7
176
     1
 79
     5
176
     1
170
     0
176
     1
171
     0
176
     1
290
     0
176
     1
 93
        1
176
     1
 44
0.0
176
     1
173
     0
176
     1
  0
VISUALSTYLE
  5
2B
102
{ACAD_REACTORS
330
2A
102
}
330
2A
100
AcDbVisualStyle
  2
Flat
 70
     0
177
     2
291
     1
 71
     2
176
     1
 72
     1
176
     1
 73
     1
176
     1
 90
        2
176
     1
 40
-0.6
176
     1
 41
30.0
176
     1
 62
     5
 63
     7
421
 16777215
176
     1
 74
     0
176
     1
 91
        4
176
     1
 64
     7
176
     1
 65
   257
176
     1
 75
     1
176
     1
175
     1
176
     1
 42
1.0
176
     1
 92
        8
176
     1
 66
     7
176
     1
 43
1.0
176
     1
 76
     1
176
     1
 77
     6
176
     1
 78
     2
176
     1
 67
     7
176
     1
 79
     5
176
     1
170
     0
176
     1
171
     0
176
     1
290
     0
176
     1
 93
       13
176
     1
 44
0.0
176
     1
173
     0
176
     1
  0
VISUALSTYLE
  5
2C
102
{ACAD_REACTORS
330
2A
102
}
330
2A
100
AcDbVisualStyle
  2
FlatWithEdges
 70
     1
177
     2
291
     1
 71
     2
176
     1
 72
     1
176
     1
 73
     1
176
     1
 90
        2
176
     1
 40
-0.6
176
     1
 41
30.0
176
     1
 62
     5
 63
     7
421
 16777215
176
     1
 74
     1
176
     1
 91
        4
176
     1
 64
     7
176
     1
 65
   257
176
     1
 75
     1
176
     1
175
     1
176
     1
 42
1.0
176
     1
 92
        0
176
     1
 66
   257
176
     1
 43
1.0
176
     1
 76
     1
176
     1
 77
     6
176
     1
 78
     2
176
     1
 67
     7
176
     1
 79
     5
176
     1
170
     0
176
     1
171
     0
176
     1
290
     0
176
     1
 93
       13
176
     1
 44
0.0
176
     1
173
     0
176
     1
  0
VISUALSTYLE
  5
2D
102
{ACAD_REACTORS
330
2A
102
}
330
2A
100
AcDbVisualStyle
  2
Gouraud
 70
     2
177
     2
291
     1
 71
     2
176
     1
 72
     2
176
     1
 73
     1
176
     1
 90
        2
176
     1
 40
-0.6
176
     1
 41
30.0
176
     1
 62
     5
 63
     7
421
 16777215
176
     1
 74
     0
176
     1
 91
        4
176
     1
 64
     7
176
     1
 65
   257
176
     1
 75
     1
176
     1
175
     1
176
     1
 42
1.0
176
     1
 92
        0
176
     1
 66
     7
176
     1
 43
1.0
176
     1
 76
     1
176
     1
 77
     6
176
     1
 78
     2
176
     1
 67
     7
176
     1
 79
     5
176
     1
170
     0
176
     1
171
     0
176
     1
290
     0
176
     1
 93
       13
176
     1
 44
0.0
176
     1
173
     0
176
     1
  0
VISUALSTYLE
  5
2E
102
{ACAD_REACTORS
330
2A
102
}
330
2A
100
AcDbVisualStyle
  2
GouraudWithEdges
 70
     3
177
     2
291
     1
 71
     2
176
     1
 72
     2
176
     1
 73
     1
176
     1
 90
        2
176
     1
 40
-0.6
176
     1
 41
30.0
176
     1
 62
     5
 63
     7
421
 16777215
176
     1
 74
     1
176
     1
 91
        4
176
     1
 64
     7
176
     1
 65
   257
176
     1
 75
     1
176
     1
175
     1
176
     1
 42
1.0
176
     1
 92
        0
176
     1
 66
   257
176
     1
 43
1.0
176
     1
 76
     1
176
     1
 77
     6
176
     1
 78
     2
176
     1
 67
     7
176
     1
 79
     5
176
     1
170
     0
176
     1
171
     0
176
     1
290
     0
176
     1
 93
       13
176
     1
 44
0.0
176
     1
173
     0
176
     1
  0
VISUALSTYLE
  5
38
102
{ACAD_REACTORS
330
2A
102
}
330
2A
100
AcDbVisualStyle
  2
Linepattern
 70
    14
177
     2
291
     1
 71
     2
176
     1
 72
     2
176
     1
 73
     0
176
     1
 90
        0
176
     1
 40
-0.6
176
     1
 41
-30.0
176
     1
 62
     5
 63
     7
421
 16777215
176
     1
 74
     1
176
     1
 91
        4
176
     1
 64
     7
176
     1
 65
   257
176
     1
 75
     7
176
     1
175
     7
176
     1
 42
1.0
176
     1
 92
        8
176
     1
 66
     7
176
     1
 43
1.0
176
     1
 76
     1
176
     1
 77
     6
176
     1
 78
     2
176
     1
 67
     7
176
     1
 79
     5
176
     1
170
     0
176
     1
171
     0
176
     1
290
     0
176
     1
 93
        1
176
     1
 44
0.0
176
     1
173
     0
176
     1
  0
VISUALSTYLE
  5
33
102
{ACAD_REACTORS
330
2A
102
}
330
2A
100
AcDbVisualStyle
  2
Realistic
 70
     8
177
     2
291
     0
 71
     2
176
     1
 72
     2
176
     1
 73
     0
176
     1
 90
        0
176
     1
 40
-0.6
176
     1
 41
-30.0
176
     1
 62
     5
 63
     7
421
 16777215
176
     1
 74
     1
176
     1
 91
        0
176
     1
 64
     7
176
     1
 65
   257
176
     1
 75
     1
176
     1
175
     1
176
     1
 42
1.0
176
     1
 92
        8
176
     1
 66
     8
424
  7895160
176
     1
 43
1.0
176
     1
 76
     1
176
     1
 77
     6
176
     1
 78
     2
176
     1
 67
     7
176
     1
 79
     5
176
     1
170
     0
176
     1
171
     0
176
     1
290
     0
176
     1
 93
       13
176
     1
 44
0.0
176
     1
173
     0
176
     1
  0
VISUALSTYLE
  5
37
102
{ACAD_REACTORS
330
2A
102
}
330
2A
100
AcDbVisualStyle
  2
Thicken
 70
    13
177
     2
291
     1
 71
     2
176
     1
 72
     2
176
     1
 73
     0
176
     1
 90
        0
176
     1
 40
-0.6
176
     1
 41
-30.0
176
     1
 62
     5
 63
     7
421
 16777215
176
     1
 74
     1
176
     1
 91
        4
176
     1
 64
     7
176
     1
 65
   257
176
     1
 75
     1
176
     1
175
     1
176
     1
 42
1.0
176
     1
 92
       12
176
     1
 66
     7
176
     1
 43
1.0
176
     1
 76
     1
176
     1
 77
     6
176
     1
 78
     2
176
     1
 67
     7
176
     1
 79
     5
176
     1
170
     0
176
     1
171
     0
176
     1
290
     0
176
     1
 93
        1
176
     1
 44
0.0
176
     1
173
     0
176
     1
  0
ENDSEC
  0
EOF
