  0
SECTION
  2
HEADER
  9
$ACADVER
  1
AC1024
  9
$ACADMAINTVER
 70
     6
  9
$DWGCODEPAGE
  3
ANSI_932
  9
$INSBASE
 10
0.0
 20
0.0
 30
0.0
  9
$EXTMIN
 10
-4455.0
 20
-3150.0
 30
0.0
  9
$EXTMAX
 10
4455.0
 20
3150.0
 30
0.0
  9
$LIMMIN
 10
-4455.0
 20
-3150.0
  9
$LIMMAX
 10
4455.0
 20
3150.0
  9
$ORTHOMODE
 70
     0
  9
$REGENMODE
 70
     1
  9
$FILLMODE
 70
     1
  9
$QTEXTMODE
 70
     0
  9
$MIRRTEXT
 70
     1
  9
$LTSCALE
 40
30.0
  9
$ATTMODE
 70
     1
  9
$TEXTSIZE
 40
2.5
  9
$TRACEWID
 40
1.0
  9
$TEXTSTYLE
  7
Standard
  9
$CLAYER
  8
0
  9
$CELTYPE
  6
ByLayer
  9
$CECOLOR
 62
   256
  9
$CELTSCALE
 40
1.0
  9
$DISPSILH
 70
     0
  9
$DIMSCALE
 40
1.0
  9
$DIMASZ
 40
2.5
  9
$DIMEXO
 40
0.625
  9
$DIMDLI
 40
3.75
  9
$DIMRND
 40
0.0
  9
$DIMDLE
 40
0.0
  9
$DIMEXE
 40
1.25
  9
$DIMTP
 40
0.0
  9
$DIMTM
 40
0.0
  9
$DIMTXT
 40
2.5
  9
$DIMCEN
 40
2.5
  9
$DIMTSZ
 40
0.0
  9
$DIMTOL
 70
     0
  9
$DIMLIM
 70
     0
  9
$DIMTIH
 70
     0
  9
$DIMTOH
 70
     0
  9
$DIMSE1
 70
     0
  9
$DIMSE2
 70
     0
  9
$DIMTAD
 70
     1
  9
$DIMZIN
 70
     8
  9
$DIMBLK
  1

  9
$DIMASO
 70
     1
  9
$DIMSHO
 70
     1
  9
$DIMPOST
  1

  9
$DIMAPOST
  1

  9
$DIMALT
 70
     0
  9
$DIMALTD
 70
     3
  9
$DIMALTF
 40
0.03937007874016
  9
$DIMLFAC
 40
1.0
  9
$DIMTOFL
 70
     1
  9
$DIMTVP
 40
0.0
  9
$DIMTIX
 70
     0
  9
$DIMSOXD
 70
     0
  9
$DIMSAH
 70
     0
  9
$DIMBLK1
  1

  9
$DIMBLK2
  1

  9
$DIMSTYLE
  2
ISO-25
  9
$DIMCLRD
 70
     0
  9
$DIMCLRE
 70
     0
  9
$DIMCLRT
 70
     0
  9
$DIMTFAC
 40
1.0
  9
$DIMGAP
 40
0.625
  9
$DIMJUST
 70
     0
  9
$DIMSD1
 70
     0
  9
$DIMSD2
 70
     0
  9
$DIMTOLJ
 70
     0
  9
$DIMTZIN
 70
     8
  9
$DIMALTZ
 70
     0
  9
$DIMALTTZ
 70
     0
  9
$DIMUPT
 70
     0
  9
$DIMDEC
 70
     2
  9
$DIMTDEC
 70
     2
  9
$DIMALTU
 70
     2
  9
$DIMALTTD
 70
     3
  9
$DIMTXSTY
  7
Standard
  9
$DIMAUNIT
 70
     0
  9
$DIMADEC
 70
     0
  9
$DIMALTRND
 40
0.0
  9
$DIMAZIN
 70
     0
  9
$DIMDSEP
 70
    44
  9
$DIMATFIT
 70
     3
  9
$DIMFRAC
 70
     0
  9
$DIMLDRBLK
  1

  9
$DIMLUNIT
 70
     2
  9
$DIMLWD
 70
    -2
  9
$DIMLWE
 70
    -2
  9
$DIMTMOVE
 70
     0
  9
$DIMFXL
 40
1.0
  9
$DIMFXLON
 70
     0
  9
$DIMJOGANG
 40
0.7853981633974483
  9
$DIMTFILL
 70
     0
  9
$DIMTFILLCLR
 70
     0
  9
$DIMARCSYM
 70
     0
  9
$DIMLTYPE
  6

  9
$DIMLTEX1
  6

  9
$DIMLTEX2
  6

  9
$DIMTXTDIRECTION
 70
     0
  9
$LUNITS
 70
     2
  9
$LUPREC
 70
     4
  9
$SKETCHINC
 40
1.0
  9
$FILLETRAD
 40
10.0
  9
$AUNITS
 70
     0
  9
$AUPREC
 70
     0
  9
$MENU
  1
.
  9
$ELEVATION
 40
0.0
  9
$PELEVATION
 40
0.0
  9
$THICKNESS
 40
0.0
  9
$LIMCHECK
 70
     0
  9
$CHAMFERA
 40
10.0
  9
$CHAMFERB
 40
10.0
  9
$CHAMFERC
 40
20.0
  9
$CHAMFERD
 40
0.0
  9
$SKPOLY
 70
     0
  9
$TDCREATE
 40
2457913.543665718
  9
$TDUCREATE
 40
2457913.168665718
  9
$TDUPDATE
 40
2457913.543665729
  9
$TDUUPDATE
 40
2457913.168665729
  9
$TDINDWG
 40
0.0000000116
  9
$TDUSRTIMER
 40
0.0000000116
  9
$USRTIMER
 70
     1
  9
$ANGBASE
 50
0.0
  9
$ANGDIR
 70
     0
  9
$PDMODE
 70
     0
  9
$PDSIZE
 40
0.0
  9
$PLINEWID
 40
0.0
  9
$SPLFRAME
 70
     0
  9
$SPLINETYPE
 70
     6
  9
$SPLINESEGS
 70
     8
  9
$HANDSEED
  5
25E
  9
$SURFTAB1
 70
     6
  9
$SURFTAB2
 70
     6
  9
$SURFTYPE
 70
     6
  9
$SURFU
 70
     6
  9
$SURFV
 70
     6
  9
$UCSBASE
  2

  9
$UCSNAME
  2

  9
$UCSORG
 10
0.0
 20
0.0
 30
0.0
  9
$UCSXDIR
 10
1.0
 20
0.0
 30
0.0
  9
$UCSYDIR
 10
0.0
 20
1.0
 30
0.0
  9
$UCSORTHOREF
  2

  9
$UCSORTHOVIEW
 70
     0
  9
$UCSORGTOP
 10
0.0
 20
0.0
 30
0.0
  9
$UCSORGBOTTOM
 10
0.0
 20
0.0
 30
0.0
  9
$UCSORGLEFT
 10
0.0
 20
0.0
 30
0.0
  9
$UCSORGRIGHT
 10
0.0
 20
0.0
 30
0.0
  9
$UCSORGFRONT
 10
0.0
 20
0.0
 30
0.0
  9
$UCSORGBACK
 10
0.0
 20
0.0
 30
0.0
  9
$PUCSBASE
  2

  9
$PUCSNAME
  2

  9
$PUCSORG
 10
0.0
 20
0.0
 30
0.0
  9
$PUCSXDIR
 10
1.0
 20
0.0
 30
0.0
  9
$PUCSYDIR
 10
0.0
 20
1.0
 30
0.0
  9
$PUCSORTHOREF
  2

  9
$PUCSORTHOVIEW
 70
     0
  9
$PUCSORGTOP
 10
0.0
 20
0.0
 30
0.0
  9
$PUCSORGBOTTOM
 10
0.0
 20
0.0
 30
0.0
  9
$PUCSORGLEFT
 10
0.0
 20
0.0
 30
0.0
  9
$PUCSORGRIGHT
 10
0.0
 20
0.0
 30
0.0
  9
$PUCSORGFRONT
 10
0.0
 20
0.0
 30
0.0
  9
$PUCSORGBACK
 10
0.0
 20
0.0
 30
0.0
  9
$USERI1
 70
     0
  9
$USERI2
 70
     0
  9
$USERI3
 70
     0
  9
$USERI4
 70
     0
  9
$USERI5
 70
     0
  9
$USERR1
 40
0.0
  9
$USERR2
 40
0.0
  9
$USERR3
 40
0.0
  9
$USERR4
 40
0.0
  9
$USERR5
 40
0.0
  9
$WORLDVIEW
 70
     1
  9
$SHADEDGE
 70
     3
  9
$SHADEDIF
 70
    70
  9
$TILEMODE
 70
     1
  9
$MAXACTVP
 70
    64
  9
$PINSBASE
 10
0.0
 20
0.0
 30
0.0
  9
$PLIMCHECK
 70
     0
  9
$PEXTMIN
 10
1.000000000000000E+20
 20
1.000000000000000E+20
 30
1.000000000000000E+20
  9
$PEXTMAX
 10
-1.000000000000000E+20
 20
-1.000000000000000E+20
 30
-1.000000000000000E+20
  9
$PLIMMIN
 10
0.0
 20
0.0
  9
$PLIMMAX
 10
420.0
 20
297.0
  9
$UNITMODE
 70
     0
  9
$VISRETAIN
 70
     1
  9
$PLINEGEN
 70
     0
  9
$PSLTSCALE
 70
     1
  9
$TREEDEPTH
 70
  3020
  9
$CMLSTYLE
  2
Standard
  9
$CMLJUST
 70
     0
  9
$CMLSCALE
 40
20.0
  9
$PROXYGRAPHICS
 70
     1
  9
$MEASUREMENT
 70
     1
  9
$CELWEIGHT
370
    -1
  9
$ENDCAPS
280
     0
  9
$JOINSTYLE
280
     0
  9
$LWDISPLAY
290
     0
  9
$INSUNITS
 70
     4
  9
$HYPERLINKBASE
  1

  9
$STYLESHEET
  1

  9
$XEDIT
290
     1
  9
$CEPSNTYPE
380
     0
  9
$PSTYLEMODE
290
     1
  9
$FINGERPRINTGUID
  2
{B221A900-D913-400C-ACA2-BC21920A1728}
  9
$VERSIONGUID
  2
{FAEB1C32-E019-11D5-929B-00C0DF256EC4}
  9
$EXTNAMES
290
     1
  9
$PSVPSCALE
 40
0.0
  9
$OLESTARTUP
290
     0
  9
$SORTENTS
280
   127
  9
$INDEXCTL
280
     0
  9
$HIDETEXT
280
     1
  9
$XCLIPFRAME
280
     2
  9
$HALOGAP
280
     0
  9
$OBSCOLOR
 70
   257
  9
$OBSLTYPE
280
     0
  9
$INTERSECTIONDISPLAY
280
     0
  9
$INTERSECTIONCOLOR
 70
   257
  9
$DIMASSOC
280
     2
  9
$PROJECTNAME
  1

  9
$CAMERADISPLAY
290
     0
  9
$LENSLENGTH
 40
50.0
  9
$CAMERAHEIGHT
 40
0.0
  9
$STEPSPERSEC
 40
2.0
  9
$STEPSIZE
 40
6.0
  9
$3DDWFPREC
 40
2.0
  9
$PSOLWIDTH
 40
5.0
  9
$PSOLHEIGHT
 40
80.0
  9
$LOFTANG1
 40
1.570796326794897
  9
$LOFTANG2
 40
1.570796326794897
  9
$LOFTMAG1
 40
0.0
  9
$LOFTMAG2
 40
0.0
  9
$LOFTPARAM
 70
     7
  9
$LOFTNORMALS
280
     1
  9
$LATITUDE
 40
37.795
  9
$LONGITUDE
 40
-122.394
  9
$NORTHDIRECTION
 40
0.0
  9
$TIMEZONE
 70
 -8000
  9
$LIGHTGLYPHDISPLAY
280
     1
  9
$TILEMODELIGHTSYNCH
280
     1
  9
$SOLIDHIST
280
     1
  9
$SHOWHIST
280
     1
  9
$DWFFRAME
280
     2
  9
$DGNFRAME
280
     2
  9
$REALWORLDSCALE
290
     1
  9
$INTERFERECOLOR
 62
   256
  9
$CSHADOW
280
     0
  9
$SHADOWPLANELOCATION
 40
0.0
  0
ENDSEC
  0
SECTION
  2
CLASSES
  0
CLASS
  1
ACDBDICTIONARYWDFLT
  2
AcDbDictionaryWithDefault
  3
ObjectDBX Classes
 90
        0
 91
        4
280
     0
281
     0
  0
CLASS
  1
VISUALSTYLE
  2
AcDbVisualStyle
  3
ObjectDBX Classes
 90
     4095
 91
        4
280
     0
281
     0
  0
CLASS
  1
MATERIAL
  2
AcDbMaterial
  3
ObjectDBX Classes
 90
     1153
 91
        4
280
     0
281
     0
  0
ENDSEC
  0
SECTION
  2
TABLES
  0
TABLE
  2
VPORT
  5
8
330
0
100
AcDbSymbolTable
 70
     1
  0
VPORT
  5
29
330
8
100
AcDbSymbolTableRecord
100
AcDbViewportTableRecord
  2
*Active
 70
     0
 10
0.0
 20
0.0
 11
1.0
 21
1.0
 12
0.0
 22
0.0
 13
0.0
 23
0.0
 14
10.0
 24
10.0
 15
10.0
 25
10.0
 16
0.0
 26
0.0
 36
1.0
 17
0.0
 27
0.0
 37
0.0
 40
6930.000000000001
 41
1.414285714285714
 42
50.0
 43
0.0
 44
0.0
 50
0.0
 51
0.0
 71
     0
 72
 10000
 73
     1
 74
     3
 75
     0
 76
     0
 77
     0
 78
     0
281
     0
 65
     1
110
0.0
120
0.0
130
0.0
111
1.0
121
0.0
131
0.0
112
0.0
122
1.0
132
0.0
 79
     0
146
0.0
 60
     3
 61
     5
292
     1
282
     1
141
0.0
142
0.0
 63
   250
  0
ENDTAB
  0
TABLE
  2
LTYPE
  5
5
330
0
100
AcDbSymbolTable
 70
     2
  0
LTYPE
  5
14
330
5
100
AcDbSymbolTableRecord
100
AcDbLinetypeTableRecord
  2
ByBlock
 70
     0
  3

 72
    65
 73
     0
 40
0.0
  0
LTYPE
  5
15
330
5
100
AcDbSymbolTableRecord
100
AcDbLinetypeTableRecord
  2
ByLayer
 70
     0
  3

 72
    65
 73
     0
 40
0.0
  0
LTYPE
  5
16
330
5
100
AcDbSymbolTableRecord
100
AcDbLinetypeTableRecord
  2
Continuous
 70
     0
  3
Solid line
 72
    65
 73
     0
 40
0.0
  0
LTYPE
  5
3F
330
5
100
AcDbSymbolTableRecord
100
AcDbLinetypeTableRecord
  2
JWW_DASHED1
 70
     0
  3
-  --  --  --  --  --  --  --  -
 72
    65
 73
     2
 40
1.693333333333333
 49
0.8466666666666667
 74
     0
 49
-0.8466666666666667
 74
     0
  0
ENDTAB
  0
TABLE
  2
LAYER
  5
2
330
0
100
AcDbSymbolTable
 70
     4
  0
LAYER
  5
10
330
2
100
AcDbSymbolTableRecord
100
AcDbLayerTableRecord
  2
0
 70
     0
 62
     7
  6
Continuous
370
    -3
390
F
347
3E
  0
LAYER
  5
40
330
2
100
AcDbSymbolTableRecord
100
AcDbLayerTableRecord
  2
0-0
 70
     0
 62
     7
  6
Continuous
370
    -3
390
F
347
3E
  0
LAYER
  5
41
330
2
100
AcDbSymbolTableRecord
100
AcDbLayerTableRecord
  2
寸法
 70
     0
 62
     7
  6
Continuous
370
    -3
390
F
347
3E
  0
LAYER
  5
42
330
2
100
AcDbSymbolTableRecord
100
AcDbLayerTableRecord
  2
文字
 70
     0
 62
     7
  6
Continuous
370
    -3
390
F
347
3E
  0
ENDTAB
  0
TABLE
  2
STYLE
  5
3
330
0
100
AcDbSymbolTable
 70
     1
  0
STYLE
  5
11
330
3
100
AcDbSymbolTableRecord
100
AcDbTextStyleTableRecord
  2
Standard
 70
     0
 40
0.0
 41
1.0
 50
0.0
 71
     0
 42
2.5
  3
txt
  4

  0
ENDTAB
  0
TABLE
  2
VIEW
  5
6
330
0
100
AcDbSymbolTable
 70
     0
  0
ENDTAB
  0
TABLE
  2
UCS
  5
7
330
0
100
AcDbSymbolTable
 70
     0
  0
ENDTAB
  0
TABLE
  2
APPID
  5
9
330
0
100
AcDbSymbolTable
 70
     1
  0
APPID
  5
12
330
9
100
AcDbSymbolTableRecord
100
AcDbRegAppTableRecord
  2
ACAD
 70
     0
  0
ENDTAB
  0
TABLE
  2
DIMSTYLE
  5
A
330
0
100
AcDbSymbolTable
 70
     1
100
AcDbDimStyleTable
  0
DIMSTYLE
105
27
330
A
100
AcDbSymbolTableRecord
100
AcDbDimStyleTableRecord
  2
ISO-25
 70
     0
 41
2.5
 42
0.625
 43
3.75
 44
1.25
 73
     0
 74
     0
 77
     1
 78
     8
140
2.5
141
2.5
143
0.03937007874016
147
0.625
171
     3
172
     1
178
     0
271
     2
272
     2
274
     3
278
    44
283
     0
284
     8
340
11
  0
ENDTAB
  0
TABLE
  2
BLOCK_RECORD
  5
1
330
0
100
AcDbSymbolTable
 70
     1
  0
BLOCK_RECORD
  5
1F
330
1
100
AcDbSymbolTableRecord
100
AcDbBlockTableRecord
  2
*Model_Space
340
22
 70
     0
280
     1
281
     0
  0
BLOCK_RECORD
  5
1B
330
1
100
AcDbSymbolTableRecord
100
AcDbBlockTableRecord
  2
*Paper_Space
340
1E
 70
     0
280
     1
281
     0
  0
BLOCK_RECORD
  5
23
330
1
100
AcDbSymbolTableRecord
100
AcDbBlockTableRecord
  2
*Paper_Space0
340
26
 70
     0
280
     1
281
     0
  0
ENDTAB
  0
ENDSEC
  0
SECTION
  2
BLOCKS
  0
BLOCK
  5
20
330
1F
100
AcDbEntity
  8
0
100
AcDbBlockBegin
  2
*Model_Space
 70
     0
 10
0.0
 20
0.0
 30
0.0
  3
*Model_Space
  1

  0
ENDBLK
  5
21
330
1F
100
AcDbEntity
  8
0
100
AcDbBlockEnd
  0
BLOCK
  5
1C
330
1B
100
AcDbEntity
 67
     1
  8
0
100
AcDbBlockBegin
  2
*Paper_Space
 70
     0
 10
0.0
 20
0.0
 30
0.0
  3
*Paper_Space
  1

  0
ENDBLK
  5
1D
330
1B
100
AcDbEntity
 67
     1
  8
0
100
AcDbBlockEnd
  0
BLOCK
  5
24
330
23
100
AcDbEntity
  8
0
100
AcDbBlockBegin
  2
*Paper_Space0
 70
     0
 10
0.0
 20
0.0
 30
0.0
  3
*Paper_Space0
  1

  0
ENDBLK
  5
25
330
23
100
AcDbEntity
  8
0
100
AcDbBlockEnd
  0
ENDSEC
  0
SECTION
  2
ENTITIES
  0
ARC
  5
43
330
1F
100
AcDbEntity
  8
0-0
  6
Continuous
 62
    92
370
    13
100
AcDbCircle
 10
-760.8060796242124
 20
-322.3142780571578
 30
0.0
 40
1.5
100
AcDbArc
 50
90.0
 51
180.0
  0
LINE
  5
44
330
1F
100
AcDbEntity
  8
0-0
  6
Continuous
 62
    92
370
    13
100
AcDbLine
 10
-762.3060796242111
 20
-429.3142780571569
 30
0.0
 11
-762.3060796242111
 21
-322.3142780571578
 31
0.0
  0
ARC
  5
45
330
1F
100
AcDbEntity
  8
0-0
  6
Continuous
 62
    92
370
    13
100
AcDbCircle
 10
-760.8060796242124
 20
-429.3142780571569
 30
0.0
 40
1.5
100
AcDbArc
 50
180.0
 51
270.0
  0
LINE
  5
46
330
1F
100
AcDbEntity
  8
0-0
  6
Continuous
 62
    92
370
    13
100
AcDbLine
 10
-721.8060796242104
 20
-430.8142780571572
 30
0.0
 11
-760.8060796242124
 21
-430.8142780571572
 31
0.0
  0
ARC
  5
47
330
1F
100
AcDbEntity
  8
0-0
  6
Continuous
 62
    92
370
    13
100
AcDbCircle
 10
-721.8060796242104
 20
-429.3142780571569
 30
0.0
 40
1.5
100
AcDbArc
 50
270.0
 51
0.0
  0
LINE
  5
48
330
1F
100
AcDbEntity
  8
0-0
  6
Continuous
 62
    92
370
    13
100
AcDbLine
 10
-720.3060796242117
 20
-322.3142780571578
 30
0.0
 11
-720.3060796242117
 21
-429.3142780571569
 31
0.0
  0
LINE
  5
49
330
1F
100
AcDbEntity
  8
0-0
  6
Continuous
 62
    92
370
    13
100
AcDbLine
 10
-721.8060796242104
 20
-320.8142780571574
 30
0.0
 11
-760.8060796242124
 21
-320.8142780571574
 31
0.0
  0
ARC
  5
4A
330
1F
100
AcDbEntity
  8
0-0
  6
Continuous
 62
    92
370
    13
100
AcDbCircle
 10
-721.8060796242104
 20
-322.3142780571578
 30
0.0
 40
1.5
100
AcDbArc
 50
0.0
 51
90.0
  0
ARC
  5
4B
330
1F
100
AcDbEntity
  8
0-0
  6
Continuous
 62
     7
370
     9
100
AcDbCircle
 10
-752.3060796242116
 20
-338.3142780571574
 30
0.0
 40
1.5
100
AcDbArc
 50
90.0
 51
180.0
  0
LINE
  5
4C
330
1F
100
AcDbEntity
  8
0-0
  6
Continuous
 62
     7
370
     9
100
AcDbLine
 10
-753.806079624212
 20
-413.3142780571574
 30
0.0
 11
-753.806079624212
 21
-338.3142780571574
 31
0.0
  0
ARC
  5
4D
330
1F
100
AcDbEntity
  8
0-0
  6
Continuous
 62
     7
370
     9
100
AcDbCircle
 10
-752.3060796242116
 20
-413.3142780571574
 30
0.0
 40
1.5
100
AcDbArc
 50
180.0
 51
270.0
  0
LINE
  5
4E
330
1F
100
AcDbEntity
  8
0-0
  6
Continuous
 62
     7
370
     9
100
AcDbLine
 10
-730.3060796242112
 20
-414.8142780571569
 30
0.0
 11
-752.3060796242116
 21
-414.8142780571569
 31
0.0
  0
ARC
  5
4F
330
1F
100
AcDbEntity
  8
0-0
  6
Continuous
 62
     7
370
     9
100
AcDbCircle
 10
-730.3060796242112
 20
-413.3142780571574
 30
0.0
 40
1.5
100
AcDbArc
 50
270.0
 51
0.0
  0
LINE
  5
50
330
1F
100
AcDbEntity
  8
0-0
  6
Continuous
 62
     7
370
     9
100
AcDbLine
 10
-728.8060796242108
 20
-338.3142780571574
 30
0.0
 11
-728.8060796242108
 21
-413.3142780571574
 31
0.0
  0
LINE
  5
51
330
1F
100
AcDbEntity
  8
0-0
  6
Continuous
 62
     7
370
     9
100
AcDbLine
 10
-730.3060796242112
 20
-336.814278057157
 30
0.0
 11
-752.3060796242116
 21
-336.814278057157
 31
0.0
  0
ARC
  5
52
330
1F
100
AcDbEntity
  8
0-0
  6
Continuous
 62
     7
370
     9
100
AcDbCircle
 10
-730.3060796242112
 20
-338.3142780571574
 30
0.0
 40
1.5
100
AcDbArc
 50
0.0
 51
90.0
  0
LINE
  5
53
330
1F
100
AcDbEntity
  8
0-0
  6
JWW_DASHED1
 62
   120
370
     5
100
AcDbLine
 10
-792.3060796242111
 20
-1333.314278057157
 30
0.0
 11
-789.3060796242104
 21
-1333.314278057157
 31
0.0
  0
LINE
  5
54
330
1F
100
AcDbEntity
  8
0-0
  6
Continuous
 62
    92
370
    13
100
AcDbLine
 10
794.693920375788
 20
-1333.109499064321
 30
0.0
 11
794.693920375788
 21
-1332.776513254662
 31
0.0
  0
ARC
  5
55
330
1F
100
AcDbEntity
  8
0-0
  6
Continuous
 62
    92
370
    13
100
AcDbCircle
 10
727.1939203757883
 20
-322.3142780571578
 30
0.0
 40
1.5
100
AcDbArc
 50
90.0
 51
180.0
  0
LINE
  5
56
330
1F
100
AcDbEntity
  8
0-0
  6
Continuous
 62
    92
370
    13
100
AcDbLine
 10
725.6939203757879
 20
-429.3142780571569
 30
0.0
 11
725.6939203757879
 21
-322.3142780571578
 31
0.0
  0
ARC
  5
57
330
1F
100
AcDbEntity
  8
0-0
  6
Continuous
 62
    92
370
    13
100
AcDbCircle
 10
727.1939203757883
 20
-429.3142780571569
 30
0.0
 40
1.5
100
AcDbArc
 50
180.0
 51
270.0
  0
LINE
  5
58
330
1F
100
AcDbEntity
  8
0-0
  6
Continuous
 62
    92
370
    13
100
AcDbLine
 10
766.1939203757901
 20
-430.8142780571572
 30
0.0
 11
727.1939203757883
 21
-430.8142780571572
 31
0.0
  0
ARC
  5
59
330
1F
100
AcDbEntity
  8
0-0
  6
Continuous
 62
    92
370
    13
100
AcDbCircle
 10
766.1939203757901
 20
-429.3142780571569
 30
0.0
 40
1.5
100
AcDbArc
 50
270.0
 51
0.0
  0
LINE
  5
5A
330
1F
100
AcDbEntity
  8
0-0
  6
Continuous
 62
    92
370
    13
100
AcDbLine
 10
767.6939203757887
 20
-322.3142780571578
 30
0.0
 11
767.6939203757887
 21
-429.3142780571569
 31
0.0
  0
LINE
  5
5B
330
1F
100
AcDbEntity
  8
0-0
  6
Continuous
 62
    92
370
    13
100
AcDbLine
 10
766.1939203757901
 20
-320.8142780571574
 30
0.0
 11
727.1939203757883
 21
-320.8142780571574
 31
0.0
  0
ARC
  5
5C
330
1F
100
AcDbEntity
  8
0-0
  6
Continuous
 62
    92
370
    13
100
AcDbCircle
 10
766.1939203757901
 20
-322.3142780571578
 30
0.0
 40
1.5
100
AcDbArc
 50
0.0
 51
90.0
  0
ARC
  5
5D
330
1F
100
AcDbEntity
  8
0-0
  6
Continuous
 62
     7
370
     9
100
AcDbCircle
 10
735.6939203757908
 20
-338.3142780571574
 30
0.0
 40
1.5
100
AcDbArc
 50
90.0
 51
180.0
  0
LINE
  5
5E
330
1F
100
AcDbEntity
  8
0-0
  6
Continuous
 62
     7
370
     9
100
AcDbLine
 10
734.1939203757887
 20
-413.3142780571574
 30
0.0
 11
734.1939203757887
 21
-338.3142780571574
 31
0.0
  0
ARC
  5
5F
330
1F
100
AcDbEntity
  8
0-0
  6
Continuous
 62
     7
370
     9
100
AcDbCircle
 10
735.6939203757908
 20
-413.3142780571574
 30
0.0
 40
1.5
100
AcDbArc
 50
180.0
 51
270.0
  0
LINE
  5
60
330
1F
100
AcDbEntity
  8
0-0
  6
Continuous
 62
     7
370
     9
100
AcDbLine
 10
757.6939203757876
 20
-414.8142780571569
 30
0.0
 11
735.6939203757908
 21
-414.8142780571569
 31
0.0
  0
ARC
  5
61
330
1F
100
AcDbEntity
  8
0-0
  6
Continuous
 62
     7
370
     9
100
AcDbCircle
 10
757.6939203757876
 20
-413.3142780571574
 30
0.0
 40
1.5
100
AcDbArc
 50
270.0
 51
0.0
  0
LINE
  5
62
330
1F
100
AcDbEntity
  8
0-0
  6
Continuous
 62
     7
370
     9
100
AcDbLine
 10
759.1939203757906
 20
-338.3142780571574
 30
0.0
 11
759.1939203757906
 21
-413.3142780571574
 31
0.0
  0
LINE
  5
63
330
1F
100
AcDbEntity
  8
0-0
  6
Continuous
 62
     7
370
     9
100
AcDbLine
 10
757.6939203757876
 20
-336.814278057157
 30
0.0
 11
735.6939203757908
 21
-336.814278057157
 31
0.0
  0
ARC
  5
64
330
1F
100
AcDbEntity
  8
0-0
  6
Continuous
 62
     7
370
     9
100
AcDbCircle
 10
757.6939203757876
 20
-338.3142780571574
 30
0.0
 40
1.5
100
AcDbArc
 50
0.0
 51
90.0
  0
LINE
  5
65
330
1F
100
AcDbEntity
  8
0-0
  6
JWW_DASHED1
 62
   120
370
     5
100
AcDbLine
 10
797.6939203757887
 20
-1333.314278057157
 30
0.0
 11
794.693920375788
 21
-1333.314278057157
 31
0.0
  0
LINE
  5
66
330
1F
100
AcDbEntity
  8
0-0
  6
Continuous
 62
    92
370
    13
100
AcDbLine
 10
-789.3060796242104
 20
-1333.314278057157
 30
0.0
 11
794.693920375788
 21
-1333.314278057157
 31
0.0
  0
LINE
  5
67
330
1F
100
AcDbEntity
  8
0-0
  6
Continuous
 62
    92
370
    13
100
AcDbLine
 10
-789.3060796242104
 20
863.6857219428438
 30
0.0
 11
794.693920375788
 21
863.6857219428438
 31
0.0
  0
LINE
  5
68
330
1F
100
AcDbEntity
  8
0-0
  6
Continuous
 62
    92
370
    13
100
AcDbLine
 10
-819.3060796242104
 20
-1341.814278057157
 30
0.0
 11
-819.3060796242104
 21
893.6857219428438
 31
0.0
  0
LINE
  5
69
330
1F
100
AcDbEntity
  8
0-0
  6
JWW_DASHED1
 62
   120
370
     5
100
AcDbLine
 10
-792.3060796242111
 20
849.6857219428429
 30
0.0
 11
-792.3060796242111
 21
-1333.314278057157
 31
0.0
  0
LINE
  5
6A
330
1F
100
AcDbEntity
  8
0-0
  6
JWW_DASHED1
 62
   120
370
     5
100
AcDbLine
 10
-789.3060796242104
 20
849.6857219428429
 30
0.0
 11
-792.3060796242111
 21
849.6857219428429
 31
0.0
  0
LINE
  5
6B
330
1F
100
AcDbEntity
  8
0-0
  6
Continuous
 62
    92
370
    13
100
AcDbLine
 10
824.693920375788
 20
-1341.814278057157
 30
0.0
 11
824.693920375788
 21
893.6857219428438
 31
0.0
  0
LINE
  5
6C
330
1F
100
AcDbEntity
  8
0-0
  6
Continuous
 62
    92
370
    13
100
AcDbLine
 10
794.693920375788
 20
-1332.776513254662
 30
0.0
 11
794.693920375788
 21
893.6857219428438
 31
0.0
  0
LINE
  5
6D
330
1F
100
AcDbEntity
  8
0-0
  6
Continuous
 62
    92
370
    13
100
AcDbLine
 10
-819.3060796242104
 20
893.6857219428438
 30
0.0
 11
824.693920375788
 21
893.6857219428438
 31
0.0
  0
LINE
  5
6E
330
1F
100
AcDbEntity
  8
0-0
  6
JWW_DASHED1
 62
   120
370
     5
100
AcDbLine
 10
797.6939203757887
 20
849.6857219428429
 30
0.0
 11
797.6939203757887
 21
-1333.314278057157
 31
0.0
  0
LINE
  5
6F
330
1F
100
AcDbEntity
  8
0-0
  6
JWW_DASHED1
 62
   120
370
     5
100
AcDbLine
 10
794.693920375788
 20
849.6857219428429
 30
0.0
 11
797.6939203757887
 21
849.6857219428429
 31
0.0
  0
LINE
  5
70
330
1F
100
AcDbEntity
  8
0-0
  6
Continuous
 62
    92
370
    13
100
AcDbLine
 10
-12.30607962421116
 20
-1333.314278057157
 30
0.0
 11
-12.30607962421116
 21
849.6857219428429
 31
0.0
  0
LINE
  5
71
330
1F
100
AcDbEntity
  8
0-0
  6
JWW_DASHED1
 62
   120
370
     5
100
AcDbLine
 10
17.69392037579054
 20
-1333.314278057157
 30
0.0
 11
17.69392037579054
 21
849.6857219428429
 31
0.0
  0
LINE
  5
72
330
1F
100
AcDbEntity
  8
0-0
  6
Continuous
 62
    92
370
    13
100
AcDbLine
 10
794.693920375788
 20
849.6857219428429
 30
0.0
 11
-789.3060796242104
 21
849.6857219428429
 31
0.0
  0
LINE
  5
73
330
1F
100
AcDbEntity
  8
0-0
  6
Continuous
 62
    92
370
    13
100
AcDbLine
 10
-789.3060796242104
 20
-1341.814278057157
 30
0.0
 11
-789.3060796242104
 21
893.6857219428438
 31
0.0
  0
LINE
  5
74
330
1F
100
AcDbEntity
  8
0-0
  6
Continuous
 62
    92
370
    13
100
AcDbLine
 10
-789.3060796242104
 20
-1341.814278057157
 30
0.0
 11
-819.3060796242104
 21
-1341.814278057157
 31
0.0
  0
LINE
  5
75
330
1F
100
AcDbEntity
  8
0-0
  6
Continuous
 62
    92
370
    13
100
AcDbLine
 10
824.693920375788
 20
-1341.814278057157
 30
0.0
 11
794.693920375788
 21
-1341.814278057157
 31
0.0
  0
LINE
  5
76
330
1F
100
AcDbEntity
  8
0-0
  6
Continuous
 62
    92
370
    13
100
AcDbLine
 10
794.693920375788
 20
-1341.814278057157
 30
0.0
 11
794.693920375788
 21
-1333.109499064321
 31
0.0
  0
LINE
  5
77
330
1F
100
AcDbEntity
  8
0-0
  6
Continuous
 62
    92
370
    13
100
AcDbLine
 10
687.6939203757884
 20
-1192.314278057157
 30
0.0
 11
97.6939203757894
 21
-1192.314278057157
 31
0.0
  0
LINE
  5
78
330
1F
100
AcDbEntity
  8
0-0
  6
Continuous
 62
    92
370
    13
100
AcDbLine
 10
-92.30607962421003
 20
-1192.314278057157
 30
0.0
 11
-682.3060796242122
 21
-1192.314278057157
 31
0.0
  0
LINE
  5
79
330
1F
100
AcDbEntity
  8
0-0
  6
Continuous
 62
    92
370
    13
100
AcDbLine
 10
-682.3060796242122
 20
-1333.314278057157
 30
0.0
 11
-682.3060796242122
 21
849.6857219428429
 31
0.0
  0
LINE
  5
7A
330
1F
100
AcDbEntity
  8
0-0
  6
Continuous
 62
    92
370
    13
100
AcDbLine
 10
-92.30607962421003
 20
-1333.314278057157
 30
0.0
 11
-92.30607962421003
 21
849.6857219428429
 31
0.0
  0
LINE
  5
7B
330
1F
100
AcDbEntity
  8
0-0
  6
Continuous
 62
    92
370
    13
100
AcDbLine
 10
97.6939203757894
 20
849.6857219428429
 30
0.0
 11
97.6939203757894
 21
-1333.314278057157
 31
0.0
  0
LINE
  5
7C
330
1F
100
AcDbEntity
  8
0-0
  6
Continuous
 62
    92
370
    13
100
AcDbLine
 10
687.6939203757884
 20
-1333.314278057157
 30
0.0
 11
687.6939203757884
 21
849.6857219428429
 31
0.0
  0
LINE
  5
7D
330
1F
100
AcDbEntity
  8
0-0
  6
Continuous
 62
    92
370
    13
100
AcDbLine
 10
-682.3060796242122
 20
714.6857219428429
 30
0.0
 11
-92.30607962421003
 21
714.6857219428429
 31
0.0
  0
LINE
  5
7E
330
1F
100
AcDbEntity
  8
0-0
  6
Continuous
 62
    92
370
    13
100
AcDbLine
 10
97.6939203757894
 20
714.6857219428429
 30
0.0
 11
687.6939203757884
 21
714.6857219428429
 31
0.0
  0
LINE
  5
7F
330
1F
100
AcDbEntity
  8
0-0
  6
Continuous
 62
    92
370
    13
100
AcDbLine
 10
687.6939203757901
 20
-260.3142780571571
 30
0.0
 11
97.6939203757894
 21
-260.3142780571571
 31
0.0
  0
LINE
  5
80
330
1F
100
AcDbEntity
  8
0-0
  6
Continuous
 62
    92
370
    13
100
AcDbLine
 10
687.6939203757901
 20
-390.3142780571573
 30
0.0
 11
97.6939203757894
 21
-390.3142780571573
 31
0.0
  0
LINE
  5
81
330
1F
100
AcDbEntity
  8
0-0
  6
JWW_DASHED1
 62
   120
370
     5
100
AcDbLine
 10
684.4093493235517
 20
-260.3142780571516
 30
0.0
 11
687.693920375785
 21
-257.0297070049184
 31
0.0
  0
LINE
  5
82
330
1F
100
AcDbEntity
  8
0-0
  6
JWW_DASHED1
 62
   120
370
     5
100
AcDbLine
 10
677.3382815116748
 20
-260.3142780571618
 30
0.0
 11
687.6939203757952
 21
-249.9586391930419
 31
0.0
  0
LINE
  5
83
330
1F
100
AcDbEntity
  8
0-0
  6
JWW_DASHED1
 62
   120
370
     5
100
AcDbLine
 10
670.267213699815
 20
-260.3142780571558
 30
0.0
 11
687.6939203757901
 21
-242.8875713811811
 31
0.0
  0
LINE
  5
84
330
1F
100
AcDbEntity
  8
0-0
  6
JWW_DASHED1
 62
   120
370
     5
100
AcDbLine
 10
663.1961458879534
 20
-260.3142780571499
 30
0.0
 11
687.6939203757833
 21
-235.8165035693196
 31
0.0
  0
LINE
  5
85
330
1F
100
AcDbEntity
  8
0-0
  6
JWW_DASHED1
 62
   120
370
     5
100
AcDbLine
 10
656.1250780760782
 20
-260.3142780571596
 30
0.0
 11
687.6939203757935
 21
-228.7454357574436
 31
0.0
  0
LINE
  5
86
330
1F
100
AcDbEntity
  8
0-0
  6
JWW_DASHED1
 62
   120
370
     5
100
AcDbLine
 10
649.0540102642167
 20
-260.3142780571541
 30
0.0
 11
687.6939203757884
 21
-221.6743679455828
 31
0.0
  0
LINE
  5
87
330
1F
100
AcDbEntity
  8
0-0
  6
JWW_DASHED1
 62
   120
370
     5
100
AcDbLine
 10
641.9829424523551
 20
-260.3142780571482
 30
0.0
 11
687.6939203757833
 21
-214.6033001337213
 31
0.0
  0
LINE
  5
88
330
1F
100
AcDbEntity
  8
0-0
  6
JWW_DASHED1
 62
   120
370
     5
100
AcDbLine
 10
634.9118746404799
 20
-260.3142780571579
 30
0.0
 11
687.6939203757918
 21
-207.5322323218453
 31
0.0
  0
LINE
  5
89
330
1F
100
AcDbEntity
  8
0-0
  6
JWW_DASHED1
 62
   120
370
     5
100
AcDbLine
 10
627.8408068286184
 20
-260.314278057152
 30
0.0
 11
687.693920375785
 21
-200.4611645099845
 31
0.0
  0
LINE
  5
8A
330
1F
100
AcDbEntity
  8
0-0
  6
JWW_DASHED1
 62
   120
370
     5
100
AcDbLine
 10
620.7697390167415
 20
-260.3142780571622
 30
0.0
 11
687.6939203757952
 21
-193.3900966981081
 31
0.0
  0
LINE
  5
8B
330
1F
100
AcDbEntity
  8
0-0
  6
JWW_DASHED1
 62
   120
370
     5
100
AcDbLine
 10
613.6986712048816
 20
-260.3142780571562
 30
0.0
 11
687.6939203757901
 21
-186.3190288862474
 31
0.0
  0
LINE
  5
8C
330
1F
100
AcDbEntity
  8
0-0
  6
JWW_DASHED1
 62
   120
370
     5
100
AcDbLine
 10
606.6276033930064
 20
-260.3142780571639
 30
0.0
 11
687.6939203758003
 21
-179.2479610743709
 31
0.0
  0
LINE
  5
8D
330
1F
100
AcDbEntity
  8
0-0
  6
JWW_DASHED1
 62
   120
370
     5
100
AcDbLine
 10
599.5565355811432
 20
-260.3142780571601
 30
0.0
 11
687.6939203757935
 21
-172.1768932625098
 31
0.0
  0
LINE
  5
8E
330
1F
100
AcDbEntity
  8
0-0
  6
JWW_DASHED1
 62
   120
370
     5
100
AcDbLine
 10
592.4854677692833
 20
-260.3142780571541
 30
0.0
 11
687.6939203757901
 21
-165.1058254506478
 31
0.0
  0
LINE
  5
8F
330
1F
100
AcDbEntity
  8
0-0
  6
JWW_DASHED1
 62
   120
370
     5
100
AcDbLine
 10
585.4143999574098
 20
-260.3142780571613
 30
0.0
 11
687.6939203757969
 21
-158.0347576387726
 31
0.0
  0
LINE
  5
90
330
1F
100
AcDbEntity
  8
0-0
  6
JWW_DASHED1
 62
   120
370
     5
100
AcDbLine
 10
578.3433321455449
 20
-260.3142780571584
 30
0.0
 11
687.6939203757918
 21
-150.9636898269119
 31
0.0
  0
LINE
  5
91
330
1F
100
AcDbEntity
  8
0-0
  6
JWW_DASHED1
 62
   120
370
     5
100
AcDbLine
 10
571.272264333685
 20
-260.3142780571524
 30
0.0
 11
687.6939203757884
 21
-143.8926220150491
 31
0.0
  0
LINE
  5
92
330
1F
100
AcDbEntity
  8
0-0
  6
JWW_DASHED1
 62
   120
370
     5
100
AcDbLine
 10
564.2011965218081
 20
-260.3142780571622
 30
0.0
 11
687.6939203757969
 21
-136.8215542031743
 31
0.0
  0
LINE
  5
93
330
1F
100
AcDbEntity
  8
0-0
  6
JWW_DASHED1
 62
   120
370
     5
100
AcDbLine
 10
557.1301287099773
 20
-260.3142780571541
 30
0.0
 11
687.6939203757884
 21
-129.750486391343
 31
0.0
  0
LINE
  5
94
330
1F
100
AcDbEntity
  8
0-0
  6
JWW_DASHED1
 62
   120
370
     5
100
AcDbLine
 10
550.0590608981294
 20
-260.3142780571622
 30
0.0
 11
687.6939203757952
 21
-122.679418579496
 31
0.0
  0
LINE
  5
95
330
1F
100
AcDbEntity
  8
0-0
  6
JWW_DASHED1
 62
   120
370
     5
100
AcDbLine
 10
542.9879930862695
 20
-260.3142780571562
 30
0.0
 11
687.6939203757901
 21
-115.6083507676353
 31
0.0
  0
LINE
  5
96
330
1F
100
AcDbEntity
  8
0-0
  6
JWW_DASHED1
 62
   120
370
     5
100
AcDbLine
 10
535.916925274396
 20
-260.3142780571618
 30
0.0
 11
687.6939203758003
 21
-108.5372829557588
 31
0.0
  0
LINE
  5
97
330
1F
100
AcDbEntity
  8
0-0
  6
JWW_DASHED1
 62
   120
370
     5
100
AcDbLine
 10
528.8458574625311
 20
-260.3142780571601
 30
0.0
 11
687.6939203757935
 21
-101.4662151438981
 31
0.0
  0
LINE
  5
98
330
1F
100
AcDbEntity
  8
0-0
  6
JWW_DASHED1
 62
   120
370
     5
100
AcDbLine
 10
521.7747896506712
 20
-260.3142780571541
 30
0.0
 11
687.6939203757901
 21
-94.39514733203482
 31
0.0
  0
LINE
  5
99
330
1F
100
AcDbEntity
  8
0-0
  6
JWW_DASHED1
 62
   120
370
     5
100
AcDbLine
 10
514.7037218387994
 20
-260.3142780571596
 30
0.0
 11
687.6939203757986
 21
-87.32407952016048
 31
0.0
  0
LINE
  5
9A
330
1F
100
AcDbEntity
  8
0-0
  6
JWW_DASHED1
 62
   120
370
     5
100
AcDbLine
 10
507.6326540269327
 20
-260.3142780571579
 30
0.0
 11
687.6939203757918
 21
-80.25301170829978
 31
0.0
  0
LINE
  5
9B
330
1F
100
AcDbEntity
  8
0-0
  6
JWW_DASHED1
 62
   120
370
     5
100
AcDbLine
 10
500.5615862150729
 20
-260.3142780571524
 30
0.0
 11
687.6939203757884
 21
-73.1819438964361
 31
0.0
  0
LINE
  5
9C
330
1F
100
AcDbEntity
  8
0-0
  6
JWW_DASHED1
 62
   120
370
     5
100
AcDbLine
 10
493.4905184031959
 20
-260.3142780571622
 30
0.0
 11
687.6939203757952
 21
-66.11087608456218
 31
0.0
  0
LINE
  5
9D
330
1F
100
AcDbEntity
  8
0-0
  6
JWW_DASHED1
 62
   120
370
     5
100
AcDbLine
 10
486.4194505913361
 20
-260.3142780571562
 30
0.0
 11
687.6939203757901
 21
-59.03980827270148
 31
0.0
  0
LINE
  5
9E
330
1F
100
AcDbEntity
  8
0-0
  6
JWW_DASHED1
 62
   120
370
     5
100
AcDbLine
 10
479.3483827794745
 20
-260.3142780571503
 30
0.0
 11
687.6939203757867
 21
-51.96874046083737
 31
0.0
  0
LINE
  5
9F
330
1F
100
AcDbEntity
  8
0-0
  6
JWW_DASHED1
 62
   120
370
     5
100
AcDbLine
 10
472.2773149675976
 20
-260.3142780571605
 30
0.0
 11
687.6939203757935
 21
-44.89767264896388
 31
0.0
  0
LINE
  5
A0
330
1F
100
AcDbEntity
  8
0-0
  6
JWW_DASHED1
 62
   120
370
     5
100
AcDbLine
 10
465.2062471557377
 20
-260.3142780571545
 30
0.0
 11
687.6939203757884
 21
-37.8266048371036
 31
0.0
  0
LINE
  5
A1
330
1F
100
AcDbEntity
  8
0-0
  6
JWW_DASHED1
 62
   120
370
     5
100
AcDbLine
 10
458.1351793438762
 20
-260.3142780571486
 30
0.0
 11
687.6939203757867
 21
-30.75553702523907
 31
0.0
  0
LINE
  5
A2
330
1F
100
AcDbEntity
  8
0-0
  6
JWW_DASHED1
 62
   120
370
     5
100
AcDbLine
 10
451.0641115319993
 20
-260.3142780571584
 30
0.0
 11
687.6939203757918
 21
-23.68446921336643
 31
0.0
  0
LINE
  5
A3
330
1F
100
AcDbEntity
  8
0-0
  6
JWW_DASHED1
 62
   120
370
     5
100
AcDbLine
 10
443.9930437201394
 20
-260.3142780571524
 30
0.0
 11
687.6939203757867
 21
-16.61340140150573
 31
0.0
  0
LINE
  5
A4
330
1F
100
AcDbEntity
  8
0-0
  6
JWW_DASHED1
 62
   120
370
     5
100
AcDbLine
 10
436.9219759082625
 20
-260.3142780571622
 30
0.0
 11
687.6939203757969
 21
-9.542333589628829
 31
0.0
  0
LINE
  5
A5
330
1F
100
AcDbEntity
  8
0-0
  6
JWW_DASHED1
 62
   120
370
     5
100
AcDbLine
 10
429.850908096401
 20
-260.3142780571567
 30
0.0
 11
687.6939203757901
 21
-2.471265777768128
 31
0.0
  0
LINE
  5
A6
330
1F
100
AcDbEntity
  8
0-0
  6
JWW_DASHED1
 62
   120
370
     5
100
AcDbLine
 10
422.7798402845411
 20
-260.3142780571507
 30
0.0
 11
687.693920375785
 21
4.599802034092573
 31
0.0
  0
LINE
  5
A7
330
1F
100
AcDbEntity
  8
0-0
  6
JWW_DASHED1
 62
   120
370
     5
100
AcDbLine
 10
415.7087724726642
 20
-260.3142780571605
 30
0.0
 11
687.6939203757935
 21
11.67086984596947
 31
0.0
  0
LINE
  5
A8
330
1F
100
AcDbEntity
  8
0-0
  6
JWW_DASHED1
 62
   120
370
     5
100
AcDbLine
 10
408.6377046608027
 20
-260.3142780571545
 30
0.0
 11
687.6939203757884
 21
18.74193765783017
 31
0.0
  0
LINE
  5
A9
330
1F
100
AcDbEntity
  8
0-0
  6
JWW_DASHED1
 62
   120
370
     5
100
AcDbLine
 10
401.5666368489343
 20
-260.3142780571571
 30
0.0
 11
687.6939203757986
 21
25.81300546970708
 31
0.0
  0
LINE
  5
AA
330
1F
100
AcDbEntity
  8
0-0
  6
JWW_DASHED1
 62
   120
370
     5
100
AcDbLine
 10
394.4955690370659
 20
-260.3142780571588
 30
0.0
 11
687.6939203757918
 21
32.88407328156735
 31
0.0
  0
LINE
  5
AB
330
1F
100
AcDbEntity
  8
0-0
  6
JWW_DASHED1
 62
   120
370
     5
100
AcDbLine
 10
387.4245012252061
 20
-260.3142780571528
 30
0.0
 11
687.6939203757918
 21
39.95514109343274
 31
0.0
  0
LINE
  5
AC
330
1F
100
AcDbEntity
  8
0-0
  6
JWW_DASHED1
 62
   120
370
     5
100
AcDbLine
 10
380.3534334133292
 20
-260.3142780571627
 30
0.0
 11
687.6939203757969
 21
47.02620890530496
 31
0.0
  0
LINE
  5
AD
330
1F
100
AcDbEntity
  8
0-0
  6
JWW_DASHED1
 62
   120
370
     5
100
AcDbLine
 10
373.2823656014676
 20
-260.3142780571567
 30
0.0
 11
687.6939203757901
 21
54.09727671716566
 31
0.0
  0
LINE
  5
AE
330
1F
100
AcDbEntity
  8
0-0
  6
JWW_DASHED1
 62
   120
370
     5
100
AcDbLine
 10
366.2112977896078
 20
-260.3142780571507
 30
0.0
 11
687.6939203757901
 21
61.16834452903147
 31
0.0
  0
LINE
  5
AF
330
1F
100
AcDbEntity
  8
0-0
  6
JWW_DASHED1
 62
   120
370
     5
100
AcDbLine
 10
359.1402299777309
 20
-260.3142780571609
 30
0.0
 11
687.6939203757952
 21
68.23941234090283
 31
0.0
  0
LINE
  5
B0
330
1F
100
AcDbEntity
  8
0-0
  6
JWW_DASHED1
 62
   120
370
     5
100
AcDbLine
 10
352.0691621658693
 20
-260.314278057155
 30
0.0
 11
687.6939203757884
 21
75.31048015276353
 31
0.0
  0
LINE
  5
B1
330
1F
100
AcDbEntity
  8
0-0
  6
JWW_DASHED1
 62
   120
370
     5
100
AcDbLine
 10
344.9980943540095
 20
-260.314278057149
 30
0.0
 11
687.6939203757884
 21
82.3815479646302
 31
0.0
  0
LINE
  5
B2
330
1F
100
AcDbEntity
  8
0-0
  6
JWW_DASHED1
 62
   120
370
     5
100
AcDbLine
 10
337.9270265421326
 20
-260.3142780571588
 30
0.0
 11
687.6939203757935
 21
89.45261577650113
 31
0.0
  0
LINE
  5
B3
330
1F
100
AcDbEntity
  8
0-0
  6
JWW_DASHED1
 62
   120
370
     5
100
AcDbLine
 10
330.855958730271
 20
-260.3142780571528
 30
0.0
 11
687.6939203757867
 21
96.52368358836183
 31
0.0
  0
LINE
  5
B4
330
1F
100
AcDbEntity
  8
0-0
  6
JWW_DASHED1
 62
   120
370
     5
100
AcDbLine
 10
323.7848909184112
 20
-260.3142780571469
 30
0.0
 11
687.6939203757867
 21
103.5947514002285
 31
0.0
  0
LINE
  5
B5
330
1F
100
AcDbEntity
  8
0-0
  6
JWW_DASHED1
 62
   120
370
     5
100
AcDbLine
 10
316.7138231065343
 20
-260.3142780571571
 30
0.0
 11
687.6939203757901
 21
110.6658192120994
 31
0.0
  0
LINE
  5
B6
330
1F
100
AcDbEntity
  8
0-0
  6
JWW_DASHED1
 62
   120
370
     5
100
AcDbLine
 10
309.6427552946744
 20
-260.3142780571511
 30
0.0
 11
687.693920375785
 21
117.7368870239601
 31
0.0
  0
LINE
  5
B7
330
1F
100
AcDbEntity
  8
0-0
  6
JWW_DASHED1
 62
   120
370
     5
100
AcDbLine
 10
302.5716874827975
 20
-260.3142780571613
 30
0.0
 11
687.6939203757952
 21
124.8079548358366
 31
0.0
  0
LINE
  5
B8
330
1F
100
AcDbEntity
  8
0-0
  6
JWW_DASHED1
 62
   120
370
     5
100
AcDbLine
 10
295.500619670936
 20
-260.3142780571554
 30
0.0
 11
687.6939203757884
 21
131.8790226476977
 31
0.0
  0
LINE
  5
B9
330
1F
100
AcDbEntity
  8
0-0
  6
JWW_DASHED1
 62
   120
370
     5
100
AcDbLine
 10
288.429551859071
 20
-260.3142780571545
 30
0.0
 11
687.6939203757986
 21
138.9500904595738
 31
0.0
  0
LINE
  5
BA
330
1F
100
AcDbEntity
  8
0-0
  6
JWW_DASHED1
 62
   120
370
     5
100
AcDbLine
 10
281.3584840471992
 20
-260.3142780571592
 30
0.0
 11
687.6939203757935
 21
146.0211582714349
 31
0.0
  0
LINE
  5
BB
330
1F
100
AcDbEntity
  8
0-0
  6
JWW_DASHED1
 62
   120
370
     5
100
AcDbLine
 10
274.2874162353377
 20
-260.3142780571533
 30
0.0
 11
687.6939203757935
 21
153.092226083302
 31
0.0
  0
LINE
  5
BC
330
1F
100
AcDbEntity
  8
0-0
  6
JWW_DASHED1
 62
   120
370
     5
100
AcDbLine
 10
267.2163484234727
 20
-260.314278057152
 30
0.0
 11
687.6939203757969
 21
160.1632938951721
 31
0.0
  0
LINE
  5
BD
330
1F
100
AcDbEntity
  8
0-0
  6
JWW_DASHED1
 62
   120
370
     5
100
AcDbLine
 10
260.1452806116009
 20
-260.3142780571571
 30
0.0
 11
687.6939203757918
 21
167.2343617070328
 31
0.0
  0
LINE
  5
BE
330
1F
100
AcDbEntity
  8
0-0
  6
JWW_DASHED1
 62
   120
370
     5
100
AcDbLine
 10
253.0742127997394
 20
-260.3142780571511
 30
0.0
 11
687.6939203757918
 21
174.3054295189007
 31
0.0
  0
LINE
  5
BF
330
1F
100
AcDbEntity
  8
0-0
  6
JWW_DASHED1
 62
   120
370
     5
100
AcDbLine
 10
246.0031449878642
 20
-260.3142780571613
 30
0.0
 11
687.6939203757952
 21
181.3764973307704
 31
0.0
  0
LINE
  5
C0
330
1F
100
AcDbEntity
  8
0-0
  6
JWW_DASHED1
 62
   120
370
     5
100
AcDbLine
 10
238.9320771760027
 20
-260.3142780571554
 30
0.0
 11
687.6939203757901
 21
188.4475651426311
 31
0.0
  0
LINE
  5
C1
330
1F
100
AcDbEntity
  8
0-0
  6
JWW_DASHED1
 62
   120
370
     5
100
AcDbLine
 10
231.8610093641428
 20
-260.3142780571494
 30
0.0
 11
687.6939203757901
 21
195.5186329544995
 31
0.0
  0
LINE
  5
C2
330
1F
100
AcDbEntity
  8
0-0
  6
JWW_DASHED1
 62
   120
370
     5
100
AcDbLine
 10
224.7899415522659
 20
-260.3142780571596
 30
0.0
 11
687.6939203757935
 21
202.5897007663683
 31
0.0
  0
LINE
  5
C3
330
1F
100
AcDbEntity
  8
0-0
  6
JWW_DASHED1
 62
   120
370
     5
100
AcDbLine
 10
217.7188737404043
 20
-260.3142780571537
 30
0.0
 11
687.6939203757867
 21
209.660768578229
 31
0.0
  0
LINE
  5
C4
330
1F
100
AcDbEntity
  8
0-0
  6
JWW_DASHED1
 62
   120
370
     5
100
AcDbLine
 10
210.6478059285428
 20
-260.3142780571476
 30
0.0
 11
687.6939203757901
 21
216.7318363900978
 31
0.0
  0
LINE
  5
C5
330
1F
100
AcDbEntity
  8
0-0
  6
JWW_DASHED1
 62
   120
370
     5
100
AcDbLine
 10
203.5767381166676
 20
-260.3142780571575
 30
0.0
 11
687.6939203757918
 21
223.8029042019661
 31
0.0
  0
LINE
  5
C6
330
1F
100
AcDbEntity
  8
0-0
  6
JWW_DASHED1
 62
   120
370
     5
100
AcDbLine
 10
196.505670304806
 20
-260.3142780571516
 30
0.0
 11
687.693920375785
 21
230.8739720138273
 31
0.0
  0
LINE
  5
C7
330
1F
100
AcDbEntity
  8
0-0
  6
JWW_DASHED1
 62
   120
370
     5
100
AcDbLine
 10
189.4346024929291
 20
-260.3142780571618
 30
0.0
 11
687.6939203757952
 21
237.9450398257037
 31
0.0
  0
LINE
  5
C8
330
1F
100
AcDbEntity
  8
0-0
  6
JWW_DASHED1
 62
   120
370
     5
100
AcDbLine
 10
182.3635346810693
 20
-260.3142780571558
 30
0.0
 11
687.6939203757901
 21
245.0161076375644
 31
0.0
  0
LINE
  5
C9
330
1F
100
AcDbEntity
  8
0-0
  6
JWW_DASHED1
 62
   120
370
     5
100
AcDbLine
 10
175.2924668692077
 20
-260.3142780571499
 30
0.0
 11
687.6939203757833
 21
252.0871754494251
 31
0.0
  0
LINE
  5
CA
330
1F
100
AcDbEntity
  8
0-0
  6
JWW_DASHED1
 62
   120
370
     5
100
AcDbLine
 10
168.2213990573615
 20
-260.3142780571575
 30
0.0
 11
687.6939203757918
 21
259.1582432612726
 31
0.0
  0
LINE
  5
CB
330
1F
100
AcDbEntity
  8
0-0
  6
JWW_DASHED1
 62
   120
370
     5
100
AcDbLine
 10
161.1503312455307
 20
-260.3142780571494
 30
0.0
 11
687.6939203757918
 21
266.2293110731125
 31
0.0
  0
LINE
  5
CC
330
1F
100
AcDbEntity
  8
0-0
  6
JWW_DASHED1
 62
   120
370
     5
100
AcDbLine
 10
154.0792634336538
 20
-260.3142780571596
 30
0.0
 11
687.6939203757935
 21
273.3003788849808
 31
0.0
  0
LINE
  5
CD
330
1F
100
AcDbEntity
  8
0-0
  6
JWW_DASHED1
 62
   120
370
     5
100
AcDbLine
 10
147.0081956217922
 20
-260.3142780571537
 30
0.0
 11
687.6939203757867
 21
280.3714466968411
 31
0.0
  0
LINE
  5
CE
330
1F
100
AcDbEntity
  8
0-0
  6
JWW_DASHED1
 62
   120
370
     5
100
AcDbLine
 10
139.9371278099324
 20
-260.3142780571476
 30
0.0
 11
687.6939203757901
 21
287.4425145087108
 31
0.0
  0
LINE
  5
CF
330
1F
100
AcDbEntity
  8
0-0
  6
JWW_DASHED1
 62
   120
370
     5
100
AcDbLine
 10
132.8660599980555
 20
-260.3142780571575
 30
0.0
 11
687.6939203757918
 21
294.5135823205783
 31
0.0
  0
LINE
  5
D0
330
1F
100
AcDbEntity
  8
0-0
  6
JWW_DASHED1
 62
   120
370
     5
100
AcDbLine
 10
125.7949921861939
 20
-260.3142780571516
 30
0.0
 11
687.693920375785
 21
301.5846501324394
 31
0.0
  0
LINE
  5
D1
330
1F
100
AcDbEntity
  8
0-0
  6
JWW_DASHED1
 62
   120
370
     5
100
AcDbLine
 10
118.7239243743341
 20
-260.3142780571459
 30
0.0
 11
687.6939203757884
 21
308.6557179443095
 31
0.0
  0
LINE
  5
D2
330
1F
100
AcDbEntity
  8
0-0
  6
JWW_DASHED1
 62
   120
370
     5
100
AcDbLine
 10
111.6528565624572
 20
-260.3142780571558
 30
0.0
 11
687.6939203757901
 21
315.7267857561766
 31
0.0
  0
LINE
  5
D3
330
1F
100
AcDbEntity
  8
0-0
  6
JWW_DASHED1
 62
   120
370
     5
100
AcDbLine
 10
104.5817887505973
 20
-260.3142780571494
 30
0.0
 11
687.6939203757833
 21
322.7978535680373
 31
0.0
  0
LINE
  5
D4
330
1F
100
AcDbEntity
  8
0-0
  6
JWW_DASHED1
 62
   120
370
     5
100
AcDbLine
 10
97.69392037579111
 20
-260.1310786200872
 30
0.0
 11
687.6939203757935
 21
329.8689213799142
 31
0.0
  0
LINE
  5
D5
330
1F
100
AcDbEntity
  8
0-0
  6
JWW_DASHED1
 62
   120
370
     5
100
AcDbLine
 10
97.69392037578599
 20
-253.0600108082266
 30
0.0
 11
687.6939203757867
 21
336.9399891917749
 31
0.0
  0
LINE
  5
D6
330
1F
100
AcDbEntity
  8
0-0
  6
JWW_DASHED1
 62
   120
370
     5
100
AcDbLine
 10
97.69392037578088
 20
-245.9889429963658
 30
0.0
 11
687.6939203757969
 21
344.0110570036513
 31
0.0
  0
LINE
  5
D7
330
1F
100
AcDbEntity
  8
0-0
  6
JWW_DASHED1
 62
   120
370
     5
100
AcDbLine
 10
97.69392037579111
 20
-238.9178751844889
 30
0.0
 11
687.6939203757918
 21
351.0821248155124
 31
0.0
  0
LINE
  5
D8
330
1F
100
AcDbEntity
  8
0-0
  6
JWW_DASHED1
 62
   120
370
     5
100
AcDbLine
 10
97.69392037578429
 20
-231.8468073726278
 30
0.0
 11
687.6939203757952
 21
358.1531926273825
 31
0.0
  0
LINE
  5
D9
330
1F
100
AcDbEntity
  8
0-0
  6
JWW_DASHED1
 62
   120
370
     5
100
AcDbLine
 10
97.69392037577747
 20
-224.7757395607675
 30
0.0
 11
687.6939203757952
 21
365.2242604392496
 31
0.0
  0
LINE
  5
DA
330
1F
100
AcDbEntity
  8
0-0
  6
JWW_DASHED1
 62
   120
370
     5
100
AcDbLine
 10
97.6939203757877
 20
-217.7046717488911
 30
0.0
 11
687.6939203757901
 21
372.2953282511099
 31
0.0
  0
LINE
  5
DB
330
1F
100
AcDbEntity
  8
0-0
  6
JWW_DASHED1
 62
   120
370
     5
100
AcDbLine
 10
97.69392037578258
 20
-210.6336039370295
 30
0.0
 11
687.6939203757935
 21
379.3663960629813
 31
0.0
  0
LINE
  5
DC
330
1F
100
AcDbEntity
  8
0-0
  6
JWW_DASHED1
 62
   120
370
     5
100
AcDbLine
 10
97.69392037579281
 20
-203.5625361251539
 30
0.0
 11
687.6939203757935
 21
386.4374638748475
 31
0.0
  0
LINE
  5
DD
330
1F
100
AcDbEntity
  8
0-0
  6
JWW_DASHED1
 62
   120
370
     5
100
AcDbLine
 10
97.69392037578599
 20
-196.4914683132932
 30
0.0
 11
687.6939203757884
 21
393.5085316867086
 31
0.0
  0
LINE
  5
DE
330
1F
100
AcDbEntity
  8
0-0
  6
JWW_DASHED1
 62
   120
370
     5
100
AcDbLine
 10
97.69392037578088
 20
-189.4204005014307
 30
0.0
 11
687.6939203757935
 21
400.57959949858
 31
0.0
  0
LINE
  5
DF
330
1F
100
AcDbEntity
  8
0-0
  6
JWW_DASHED1
 62
   120
370
     5
100
AcDbLine
 10
97.69392037579111
 20
-182.3493326895556
 30
0.0
 11
687.6939203757918
 21
407.6506673104458
 31
0.0
  0
LINE
  5
E0
330
1F
100
AcDbEntity
  8
0-0
  6
JWW_DASHED1
 62
   120
370
     5
100
AcDbLine
 10
97.69392037578429
 20
-175.2782648776949
 30
0.0
 11
687.6939203757867
 21
414.7217351223065
 31
0.0
  0
LINE
  5
E1
330
1F
100
AcDbEntity
  8
0-0
  6
JWW_DASHED1
 62
   120
370
     5
100
AcDbLine
 10
97.69392037578088
 20
-168.2071970658325
 30
0.0
 11
687.6939203757918
 21
421.7928029341783
 31
0.0
  0
LINE
  5
E2
330
1F
100
AcDbEntity
  8
0-0
  6
JWW_DASHED1
 62
   120
370
     5
100
AcDbLine
 10
97.6939203757877
 20
-161.1361292539573
 30
0.0
 11
687.6939203757901
 21
428.8638707460441
 31
0.0
  0
LINE
  5
E3
330
1F
100
AcDbEntity
  8
0-0
  6
JWW_DASHED1
 62
   120
370
     5
100
AcDbLine
 10
97.69392037578258
 20
-154.0650614420966
 30
0.0
 11
687.6939203757833
 21
435.9349385579048
 31
0.0
  0
LINE
  5
E4
330
1F
100
AcDbEntity
  8
0-0
  6
JWW_DASHED1
 62
   120
370
     5
100
AcDbLine
 10
97.69392037579281
 20
-146.9939936302201
 30
0.0
 11
687.6939203757935
 21
443.0060063697808
 31
0.0
  0
LINE
  5
E5
330
1F
100
AcDbEntity
  8
0-0
  6
JWW_DASHED1
 62
   120
370
     5
100
AcDbLine
 10
97.6939203757877
 20
-139.922925818359
 30
0.0
 11
687.6939203757884
 21
450.077074181642
 31
0.0
  0
LINE
  5
E6
330
1F
100
AcDbEntity
  8
0-0
  6
JWW_DASHED1
 62
   120
370
     5
100
AcDbLine
 10
97.69392037578088
 20
-132.8518580064987
 30
0.0
 11
687.6939203757986
 21
457.1481419935185
 31
0.0
  0
LINE
  5
E7
330
1F
100
AcDbEntity
  8
0-0
  6
JWW_DASHED1
 62
   120
370
     5
100
AcDbLine
 10
97.69392037579111
 20
-125.7807901946218
 30
0.0
 11
687.6939203757918
 21
464.2192098053796
 31
0.0
  0
LINE
  5
E8
330
1F
100
AcDbEntity
  8
0-0
  6
JWW_DASHED1
 62
   120
370
     5
100
AcDbLine
 10
97.6939203757877
 20
-118.709722382759
 30
0.0
 11
687.6939203757986
 21
471.2902776172522
 31
0.0
  0
LINE
  5
E9
330
1F
100
AcDbEntity
  8
0-0
  6
JWW_DASHED1
 62
   120
370
     5
100
AcDbLine
 10
97.69392037577917
 20
-111.6386545709004
 30
0.0
 11
687.6939203757969
 21
478.3613454291168
 31
0.0
  0
LINE
  5
EA
330
1F
100
AcDbEntity
  8
0-0
  6
JWW_DASHED1
 62
   120
370
     5
100
AcDbLine
 10
97.6939203757894
 20
-104.5675867590239
 30
0.0
 11
687.6939203757901
 21
485.4324132409774
 31
0.0
  0
LINE
  5
EB
330
1F
100
AcDbEntity
  8
0-0
  6
JWW_DASHED1
 62
   120
370
     5
100
AcDbLine
 10
97.69392037578599
 20
-97.49651894716068
 30
0.0
 11
687.6939203757969
 21
492.5034810528501
 31
0.0
  0
LINE
  5
EC
330
1F
100
AcDbEntity
  8
0-0
  6
JWW_DASHED1
 62
   120
370
     5
100
AcDbLine
 10
97.69392037579281
 20
-90.42545113528634
 30
0.0
 11
687.6939203757935
 21
499.574548864715
 31
0.0
  0
LINE
  5
ED
330
1F
100
AcDbEntity
  8
0-0
  6
JWW_DASHED1
 62
   120
370
     5
100
AcDbLine
 10
97.6939203757877
 20
-83.35438332342564
 30
0.0
 11
687.6939203757884
 21
506.6456166765757
 31
0.0
  0
LINE
  5
EE
330
1F
100
AcDbEntity
  8
0-0
  6
JWW_DASHED1
 62
   120
370
     5
100
AcDbLine
 10
97.69392037578429
 20
-76.28331551156195
 30
0.0
 11
687.6939203757952
 21
513.7166844884488
 31
0.0
  0
LINE
  5
EF
330
1F
100
AcDbEntity
  8
0-0
  6
JWW_DASHED1
 62
   120
370
     5
100
AcDbLine
 10
97.69392037579111
 20
-69.21224769968846
 30
0.0
 11
687.6939203757918
 21
520.787752300313
 31
0.0
  0
LINE
  5
F0
330
1F
100
AcDbEntity
  8
0-0
  6
JWW_DASHED1
 62
   120
370
     5
100
AcDbLine
 10
97.69392037578429
 20
-62.14117988782733
 30
0.0
 11
687.6939203757867
 21
527.8588201121736
 31
0.0
  0
LINE
  5
F1
330
1F
100
AcDbEntity
  8
0-0
  6
JWW_DASHED1
 62
   120
370
     5
100
AcDbLine
 10
97.69392037578258
 20
-55.07011207596365
 30
0.0
 11
687.6939203757935
 21
534.9298879240475
 31
0.0
  0
LINE
  5
F2
330
1F
100
AcDbEntity
  8
0-0
  6
JWW_DASHED1
 62
   120
370
     5
100
AcDbLine
 10
97.6939203757894
 20
-47.99904426409016
 30
0.0
 11
687.6939203757901
 21
542.0009557359112
 31
0.0
  0
LINE
  5
F3
330
1F
100
AcDbEntity
  8
0-0
  6
JWW_DASHED1
 62
   120
370
     5
100
AcDbLine
 10
97.69392037578258
 20
-40.92797645222946
 30
0.0
 11
687.693920375785
 21
549.0720235477714
 31
0.0
  0
LINE
  5
F4
330
1F
100
AcDbEntity
  8
0-0
  6
JWW_DASHED1
 62
   120
370
     5
100
AcDbLine
 10
97.69392037578088
 20
-33.85690864036492
 30
0.0
 11
687.6939203757918
 21
556.1430913596458
 31
0.0
  0
LINE
  5
F5
330
1F
100
AcDbEntity
  8
0-0
  6
JWW_DASHED1
 62
   120
370
     5
100
AcDbLine
 10
97.6939203757877
 20
-26.78584082849229
 30
0.0
 11
687.6939203757884
 21
563.2141591715091
 31
0.0
  0
LINE
  5
F6
330
1F
100
AcDbEntity
  8
0-0
  6
JWW_DASHED1
 62
   120
370
     5
100
AcDbLine
 10
97.69392037578088
 20
-19.71477301663116
 30
0.0
 11
687.6939203757833
 21
570.2852269833697
 31
0.0
  0
LINE
  5
F7
330
1F
100
AcDbEntity
  8
0-0
  6
JWW_DASHED1
 62
   120
370
     5
100
AcDbLine
 10
97.69392037579111
 20
-12.64370520475468
 30
0.0
 11
687.6939203757935
 21
577.3562947952466
 31
0.0
  0
LINE
  5
F8
330
1F
100
AcDbEntity
  8
0-0
  6
JWW_DASHED1
 62
   120
370
     5
100
AcDbLine
 10
97.69392037578429
 20
-5.572637392893984
 30
0.0
 11
687.6939203757867
 21
584.4273626071074
 31
0.0
  0
LINE
  5
F9
330
1F
100
AcDbEntity
  8
0-0
  6
JWW_DASHED1
 62
   120
370
     5
100
AcDbLine
 10
97.69392037577917
 20
1.498430418966716
 30
0.0
 11
687.6939203757969
 21
591.4984304189843
 31
0.0
  0
LINE
  5
FA
330
1F
100
AcDbEntity
  8
0-0
  6
JWW_DASHED1
 62
   120
370
     5
100
AcDbLine
 10
97.6939203757894
 20
8.569498230843191
 30
0.0
 11
687.6939203757901
 21
598.5694982308449
 31
0.0
  0
LINE
  5
FB
330
1F
100
AcDbEntity
  8
0-0
  6
JWW_DASHED1
 62
   120
370
     5
100
AcDbLine
 10
97.6939203757877
 20
15.64056604270858
 30
0.0
 11
687.6939203757986
 21
605.6405660427193
 31
0.0
  0
LINE
  5
FC
330
1F
100
AcDbEntity
  8
0-0
  6
JWW_DASHED1
 62
   120
370
     5
100
AcDbLine
 10
97.69392037577747
 20
22.71163385456502
 30
0.0
 11
687.6939203757952
 21
612.7116338545817
 31
0.0
  0
LINE
  5
FD
330
1F
100
AcDbEntity
  8
0-0
  6
JWW_DASHED1
 62
   120
370
     5
100
AcDbLine
 10
97.6939203757877
 20
29.78270166644149
 30
0.0
 11
687.6939203757884
 21
619.7827016664429
 31
0.0
  0
LINE
  5
FE
330
1F
100
AcDbEntity
  8
0-0
  6
JWW_DASHED1
 62
   120
370
     5
100
AcDbLine
 10
97.69392037578599
 20
36.85376947830689
 30
0.0
 11
687.6939203757969
 21
626.8537694783176
 31
0.0
  0
LINE
  5
FF
330
1F
100
AcDbEntity
  8
0-0
  6
JWW_DASHED1
 62
   120
370
     5
100
AcDbLine
 10
97.69392037579111
 20
43.92483729017867
 30
0.0
 11
687.6939203757935
 21
633.92483729018
 31
0.0
  0
LINE
  5
100
330
1F
100
AcDbEntity
  8
0-0
  6
JWW_DASHED1
 62
   120
370
     5
100
AcDbLine
 10
97.69392037578599
 20
50.9959051020398
 30
0.0
 11
687.6939203757867
 21
640.9959051020408
 31
0.0
  0
LINE
  5
101
330
1F
100
AcDbEntity
  8
0-0
  6
JWW_DASHED1
 62
   120
370
     5
100
AcDbLine
 10
97.69392037578258
 20
58.0669729138762
 30
0.0
 11
687.6939203757935
 21
648.066972913887
 31
0.0
  0
LINE
  5
102
330
1F
100
AcDbEntity
  8
0-0
  6
JWW_DASHED1
 62
   120
370
     5
100
AcDbLine
 10
97.69392037578429
 20
65.13804072571814
 30
0.0
 11
687.6939203757867
 21
655.1380407257195
 31
0.0
  0
LINE
  5
103
330
1F
100
AcDbEntity
  8
0-0
  6
JWW_DASHED1
 62
   120
370
     5
100
AcDbLine
 10
97.69392037577917
 20
72.20910853757884
 30
0.0
 11
687.6939203757969
 21
662.2091085375964
 31
0.0
  0
LINE
  5
104
330
1F
100
AcDbEntity
  8
0-0
  6
JWW_DASHED1
 62
   120
370
     5
100
AcDbLine
 10
97.6939203757894
 20
79.28017634945532
 30
0.0
 11
687.6939203757901
 21
669.2801763494571
 31
0.0
  0
LINE
  5
105
330
1F
100
AcDbEntity
  8
0-0
  6
JWW_DASHED1
 62
   120
370
     5
100
AcDbLine
 10
97.6939203757894
 20
86.35124416132199
 30
0.0
 11
687.6939203758003
 21
676.3512441613327
 31
0.0
  0
LINE
  5
106
330
1F
100
AcDbEntity
  8
0-0
  6
JWW_DASHED1
 62
   120
370
     5
100
AcDbLine
 10
97.69392037577747
 20
93.42231197317714
 30
0.0
 11
687.6939203757952
 21
683.4223119731943
 31
0.0
  0
LINE
  5
107
330
1F
100
AcDbEntity
  8
0-0
  6
JWW_DASHED1
 62
   120
370
     5
100
AcDbLine
 10
97.6939203757877
 20
100.4933797850536
 30
0.0
 11
687.6939203757884
 21
690.4933797850546
 31
0.0
  0
LINE
  5
108
330
1F
100
AcDbEntity
  8
0-0
  6
JWW_DASHED1
 62
   120
370
     5
100
AcDbLine
 10
97.6939203757877
 20
107.5644475969207
 30
0.0
 11
687.6939203757986
 21
697.5644475969315
 31
0.0
  0
LINE
  5
109
330
1F
100
AcDbEntity
  8
0-0
  6
JWW_DASHED1
 62
   120
370
     5
100
AcDbLine
 10
97.69392037579111
 20
114.6355154087908
 30
0.0
 11
687.6939203757935
 21
704.6355154087921
 31
0.0
  0
LINE
  5
10A
330
1F
100
AcDbEntity
  8
0-0
  6
JWW_DASHED1
 62
   120
370
     5
100
AcDbLine
 10
97.69392037578599
 20
121.7065832206519
 30
0.0
 11
687.6939203757867
 21
711.7065832206529
 31
0.0
  0
LINE
  5
10B
330
1F
100
AcDbEntity
  8
0-0
  6
JWW_DASHED1
 62
   120
370
     5
100
AcDbLine
 10
97.69392037578599
 20
128.777651032519
 30
0.0
 11
683.6019912861049
 21
714.6857219428368
 31
0.0
  0
LINE
  5
10C
330
1F
100
AcDbEntity
  8
0-0
  6
JWW_DASHED1
 62
   120
370
     5
100
AcDbLine
 10
97.6939203757894
 20
135.8487188443891
 30
0.0
 11
676.5309234742433
 21
714.6857219428429
 31
0.0
  0
LINE
  5
10D
330
1F
100
AcDbEntity
  8
0-0
  6
JWW_DASHED1
 62
   120
370
     5
100
AcDbLine
 10
97.69392037578429
 20
142.9197866562498
 30
0.0
 11
669.4598556623818
 21
714.6857219428488
 31
0.0
  0
LINE
  5
10E
330
1F
100
AcDbEntity
  8
0-0
  6
JWW_DASHED1
 62
   120
370
     5
100
AcDbLine
 10
97.69392037578429
 20
149.9908544681173
 30
0.0
 11
662.3887878505066
 21
714.6857219428385
 31
0.0
  0
LINE
  5
10F
330
1F
100
AcDbEntity
  8
0-0
  6
JWW_DASHED1
 62
   120
370
     5
100
AcDbLine
 10
97.6939203757877
 20
157.0619222799874
 30
0.0
 11
655.317720038645
 21
714.6857219428446
 31
0.0
  0
LINE
  5
110
330
1F
100
AcDbEntity
  8
0-0
  6
JWW_DASHED1
 62
   120
370
     5
100
AcDbLine
 10
97.69392037578088
 20
164.1329900918481
 30
0.0
 11
648.2466522267852
 21
714.6857219428505
 31
0.0
  0
LINE
  5
111
330
1F
100
AcDbEntity
  8
0-0
  6
JWW_DASHED1
 62
   120
370
     5
100
AcDbLine
 10
97.69392037579111
 20
171.2040579037246
 30
0.0
 11
641.1755844149083
 21
714.6857219428402
 31
0.0
  0
LINE
  5
112
330
1F
100
AcDbEntity
  8
0-0
  6
JWW_DASHED1
 62
   120
370
     5
100
AcDbLine
 10
97.69392037578599
 20
178.2751257155853
 30
0.0
 11
634.1045166030467
 21
714.6857219428463
 31
0.0
  0
LINE
  5
113
330
1F
100
AcDbEntity
  8
0-0
  6
JWW_DASHED1
 62
   120
370
     5
100
AcDbLine
 10
97.69392037577917
 20
185.346193527446
 30
0.0
 11
627.0334487911869
 21
714.6857219428522
 31
0.0
  0
LINE
  5
114
330
1F
100
AcDbEntity
  8
0-0
  6
JWW_DASHED1
 62
   120
370
     5
100
AcDbLine
 10
97.6939203757894
 20
192.4172613393229
 30
0.0
 11
619.96238097931
 21
714.685721942842
 31
0.0
  0
LINE
  5
115
330
1F
100
AcDbEntity
  8
0-0
  6
JWW_DASHED1
 62
   120
370
     5
100
AcDbLine
 10
97.69392037578429
 20
199.4883291511836
 30
0.0
 11
612.8913131674484
 21
714.6857219428484
 31
0.0
  0
LINE
  5
116
330
1F
100
AcDbEntity
  8
0-0
  6
JWW_DASHED1
 62
   120
370
     5
100
AcDbLine
 10
97.69392037577747
 20
206.5593969630443
 30
0.0
 11
605.8202453555749
 21
714.6857219428407
 31
0.0
  0
LINE
  5
117
330
1F
100
AcDbEntity
  8
0-0
  6
JWW_DASHED1
 62
   120
370
     5
100
AcDbLine
 10
97.6939203757877
 20
213.6304647749207
 30
0.0
 11
598.7491775437117
 21
714.6857219428441
 31
0.0
  0
LINE
  5
118
330
1F
100
AcDbEntity
  8
0-0
  6
JWW_DASHED1
 62
   120
370
     5
100
AcDbLine
 10
97.6939203757894
 20
220.7015325867895
 30
0.0
 11
591.6781097318348
 21
714.6857219428343
 31
0.0
  0
LINE
  5
119
330
1F
100
AcDbEntity
  8
0-0
  6
JWW_DASHED1
 62
   120
370
     5
100
AcDbLine
 10
97.69392037579111
 20
227.7726003986583
 30
0.0
 11
584.6070419199749
 21
714.6857219428402
 31
0.0
  0
LINE
  5
11A
330
1F
100
AcDbEntity
  8
0-0
  6
JWW_DASHED1
 62
   120
370
     5
100
AcDbLine
 10
97.69392037578599
 20
234.843668210519
 30
0.0
 11
577.5359741081134
 21
714.6857219428463
 31
0.0
  0
LINE
  5
11B
330
1F
100
AcDbEntity
  8
0-0
  6
JWW_DASHED1
 62
   120
370
     5
100
AcDbLine
 10
97.6939203757877
 20
241.9147360223878
 30
0.0
 11
570.4649062962364
 21
714.685721942836
 31
0.0
  0
LINE
  5
11C
330
1F
100
AcDbEntity
  8
0-0
  6
JWW_DASHED1
 62
   120
370
     5
100
AcDbLine
 10
97.69392037579111
 20
248.9858038342566
 30
0.0
 11
563.3938384843766
 21
714.685721942842
 31
0.0
  0
LINE
  5
11D
330
1F
100
AcDbEntity
  8
0-0
  6
JWW_DASHED1
 62
   120
370
     5
100
AcDbLine
 10
97.69392037578429
 20
256.0568716461174
 30
0.0
 11
556.322770672515
 21
714.685721942848
 31
0.0
  0
LINE
  5
11E
330
1F
100
AcDbEntity
  8
0-0
  6
JWW_DASHED1
 62
   120
370
     5
100
AcDbLine
 10
97.6939203757877
 20
263.1279394579866
 30
0.0
 11
549.2517028606381
 21
714.6857219428382
 31
0.0
  0
LINE
  5
11F
330
1F
100
AcDbEntity
  8
0-0
  6
JWW_DASHED1
 62
   120
370
     5
100
AcDbLine
 10
97.6939203757877
 20
270.1990072698545
 30
0.0
 11
542.1806350487783
 21
714.6857219428437
 31
0.0
  0
LINE
  5
120
330
1F
100
AcDbEntity
  8
0-0
  6
JWW_DASHED1
 62
   120
370
     5
100
AcDbLine
 10
97.69392037578258
 20
277.2700750817152
 30
0.0
 11
535.1095672369167
 21
714.6857219428497
 31
0.0
  0
LINE
  5
121
330
1F
100
AcDbEntity
  8
0-0
  6
JWW_DASHED1
 62
   120
370
     5
100
AcDbLine
 10
97.69392037578429
 20
284.3411428935849
 30
0.0
 11
528.0384994250398
 21
714.6857219428399
 31
0.0
  0
LINE
  5
122
330
1F
100
AcDbEntity
  8
0-0
  6
JWW_DASHED1
 62
   120
370
     5
100
AcDbLine
 10
97.69392037578599
 20
291.4122107054524
 30
0.0
 11
520.96743161318
 21
714.6857219428458
 31
0.0
  0
LINE
  5
123
330
1F
100
AcDbEntity
  8
0-0
  6
JWW_DASHED1
 62
   120
370
     5
100
AcDbLine
 10
97.69392037578088
 20
298.4832785173135
 30
0.0
 11
513.8963638013184
 21
714.6857219428518
 31
0.0
  0
LINE
  5
124
330
1F
100
AcDbEntity
  8
0-0
  6
JWW_DASHED1
 62
   120
370
     5
100
AcDbLine
 10
97.69392037579111
 20
305.55434632919
 30
0.0
 11
506.8252959894432
 21
714.685721942842
 31
0.0
  0
LINE
  5
125
330
1F
100
AcDbEntity
  8
0-0
  6
JWW_DASHED1
 62
   120
370
     5
100
AcDbLine
 10
97.69392037578429
 20
312.6254141410507
 30
0.0
 11
499.7542281775816
 21
714.685721942848
 31
0.0
  0
LINE
  5
126
330
1F
100
AcDbEntity
  8
0-0
  6
JWW_DASHED1
 62
   120
370
     5
100
AcDbLine
 10
97.69392037577917
 20
319.6964819529114
 30
0.0
 11
492.6831603657099
 21
714.6857219428429
 31
0.0
  0
LINE
  5
127
330
1F
100
AcDbEntity
  8
0-0
  6
JWW_DASHED1
 62
   120
370
     5
100
AcDbLine
 10
97.6939203757877
 20
326.7675497647883
 30
0.0
 11
485.6120925538449
 21
714.6857219428437
 31
0.0
  0
LINE
  5
128
330
1F
100
AcDbEntity
  8
0-0
  6
JWW_DASHED1
 62
   120
370
     5
100
AcDbLine
 10
97.69392037579281
 20
333.8386175766584
 30
0.0
 11
478.5410247419679
 21
714.6857219428334
 31
0.0
  0
LINE
  5
129
330
1F
100
AcDbEntity
  8
0-0
  6
JWW_DASHED1
 62
   120
370
     5
100
AcDbLine
 10
97.69392037577747
 20
340.9096853885097
 30
0.0
 11
471.4699569301132
 21
714.6857219428454
 31
0.0
  0
LINE
  5
12A
330
1F
100
AcDbEntity
  8
0-0
  6
JWW_DASHED1
 62
   120
370
     5
100
AcDbLine
 10
97.69392037578599
 20
347.9807532003862
 30
0.0
 11
464.3988891182465
 21
714.6857219428454
 31
0.0
  0
LINE
  5
12B
330
1F
100
AcDbEntity
  8
0-0
  6
JWW_DASHED1
 62
   120
370
     5
100
AcDbLine
 10
97.69392037579111
 20
355.0518210122571
 30
0.0
 11
457.3278213063696
 21
714.6857219428356
 31
0.0
  0
LINE
  5
12C
330
1F
100
AcDbEntity
  8
0-0
  6
JWW_DASHED1
 62
   120
370
     5
100
AcDbLine
 10
97.69392037579111
 20
362.1228888241234
 30
0.0
 11
450.2567534945081
 21
714.6857219428416
 31
0.0
  0
LINE
  5
12D
330
1F
100
AcDbEntity
  8
0-0
  6
JWW_DASHED1
 62
   120
370
     5
100
AcDbLine
 10
97.69392037578429
 20
369.1939566359845
 30
0.0
 11
443.1856856826482
 21
714.6857219428475
 31
0.0
  0
LINE
  5
12E
330
1F
100
AcDbEntity
  8
0-0
  6
JWW_DASHED1
 62
   120
370
     5
100
AcDbLine
 10
97.6939203757894
 20
376.2650244478554
 30
0.0
 11
436.1146178707713
 21
714.6857219428377
 31
0.0
  0
LINE
  5
12F
330
1F
100
AcDbEntity
  8
0-0
  6
JWW_DASHED1
 62
   120
370
     5
100
AcDbLine
 10
97.6939203757894
 20
383.3360922597217
 30
0.0
 11
429.0435500589115
 21
714.6857219428437
 31
0.0
  0
LINE
  5
130
330
1F
100
AcDbEntity
  8
0-0
  6
JWW_DASHED1
 62
   120
370
     5
100
AcDbLine
 10
97.69392037578258
 20
390.4071600715823
 30
0.0
 11
421.9724822470499
 21
714.6857219428497
 31
0.0
  0
LINE
  5
131
330
1F
100
AcDbEntity
  8
0-0
  6
JWW_DASHED1
 62
   120
370
     5
100
AcDbLine
 10
97.6939203757877
 20
397.4782278834537
 30
0.0
 11
414.901414435173
 21
714.6857219428395
 31
0.0
  0
LINE
  5
132
330
1F
100
AcDbEntity
  8
0-0
  6
JWW_DASHED1
 62
   120
370
     5
100
AcDbLine
 10
97.6939203757877
 20
404.54929569532
 30
0.0
 11
407.8303466233115
 21
714.6857219428454
 31
0.0
  0
LINE
  5
133
330
1F
100
AcDbEntity
  8
0-0
  6
JWW_DASHED1
 62
   120
370
     5
100
AcDbLine
 10
97.69392037578088
 20
411.6203635071806
 30
0.0
 11
400.7592788114516
 21
714.6857219428514
 31
0.0
  0
LINE
  5
134
330
1F
100
AcDbEntity
  8
0-0
  6
JWW_DASHED1
 62
   120
370
     5
100
AcDbLine
 10
97.69392037579111
 20
418.6914313190571
 30
0.0
 11
393.6882109995747
 21
714.6857219428412
 31
0.0
  0
LINE
  5
135
330
1F
100
AcDbEntity
  8
0-0
  6
JWW_DASHED1
 62
   120
370
     5
100
AcDbLine
 10
97.69392037578429
 20
425.7624991309183
 30
0.0
 11
386.6171431877149
 21
714.6857219428471
 31
0.0
  0
LINE
  5
136
330
1F
100
AcDbEntity
  8
0-0
  6
JWW_DASHED1
 62
   120
370
     5
100
AcDbLine
 10
97.69392037577917
 20
432.8335669427789
 30
0.0
 11
379.5460753758533
 21
714.6857219428531
 31
0.0
  0
LINE
  5
137
330
1F
100
AcDbEntity
  8
0-0
  6
JWW_DASHED1
 62
   120
370
     5
100
AcDbLine
 10
97.6939203757894
 20
439.9046347546554
 30
0.0
 11
372.4750075639764
 21
714.6857219428433
 31
0.0
  0
LINE
  5
138
330
1F
100
AcDbEntity
  8
0-0
  6
JWW_DASHED1
 62
   120
370
     5
100
AcDbLine
 10
97.69392037578088
 20
446.9757025664867
 30
0.0
 11
365.4039397521456
 21
714.6857219428514
 31
0.0
  0
LINE
  5
139
330
1F
100
AcDbEntity
  8
0-0
  6
JWW_DASHED1
 62
   120
370
     5
100
AcDbLine
 10
97.6939203757877
 20
454.0467703783338
 30
0.0
 11
358.3328719402994
 21
714.6857219428437
 31
0.0
  0
LINE
  5
13A
330
1F
100
AcDbEntity
  8
0-0
  6
JWW_DASHED1
 62
   120
370
     5
100
AcDbLine
 10
97.69392037578258
 20
461.1178381901944
 30
0.0
 11
351.2618041284378
 21
714.6857219428497
 31
0.0
  0
LINE
  5
13B
330
1F
100
AcDbEntity
  8
0-0
  6
JWW_DASHED1
 62
   120
370
     5
100
AcDbLine
 10
97.6939203757877
 20
468.1889060020671
 30
0.0
 11
344.1907363165609
 21
714.6857219428395
 31
0.0
  0
LINE
  5
13C
330
1F
100
AcDbEntity
  8
0-0
  6
JWW_DASHED1
 62
   120
370
     5
100
AcDbLine
 10
97.6939203757877
 20
475.2599738139321
 30
0.0
 11
337.1196685046993
 21
714.6857219428454
 31
0.0
  0
LINE
  5
13D
330
1F
100
AcDbEntity
  8
0-0
  6
JWW_DASHED1
 62
   120
370
     5
100
AcDbLine
 10
97.69392037578088
 20
482.3310416257927
 30
0.0
 11
330.0486006928395
 21
714.6857219428514
 31
0.0
  0
LINE
  5
13E
330
1F
100
AcDbEntity
  8
0-0
  6
JWW_DASHED1
 62
   120
370
     5
100
AcDbLine
 10
97.6939203757877
 20
489.4021094376654
 30
0.0
 11
322.9775328809626
 21
714.6857219428412
 31
0.0
  0
LINE
  5
13F
330
1F
100
AcDbEntity
  8
0-0
  6
JWW_DASHED1
 62
   120
370
     5
100
AcDbLine
 10
97.69392037578429
 20
496.4731772495304
 30
0.0
 11
315.9064650691028
 21
714.6857219428471
 31
0.0
  0
LINE
  5
140
330
1F
100
AcDbEntity
  8
0-0
  6
JWW_DASHED1
 62
   120
370
     5
100
AcDbLine
 10
97.69392037577917
 20
503.5442450613911
 30
0.0
 11
308.8353972572412
 21
714.6857219428531
 31
0.0
  0
LINE
  5
141
330
1F
100
AcDbEntity
  8
0-0
  6
JWW_DASHED1
 62
   120
370
     5
100
AcDbLine
 10
97.6939203757894
 20
510.6153128732675
 30
0.0
 11
301.7643294453643
 21
714.6857219428433
 31
0.0
  0
LINE
  5
142
330
1F
100
AcDbEntity
  8
0-0
  6
JWW_DASHED1
 62
   120
370
     5
100
AcDbLine
 10
97.69392037578258
 20
517.6863806851278
 30
0.0
 11
294.6932616335044
 21
714.6857219428492
 31
0.0
  0
LINE
  5
143
330
1F
100
AcDbEntity
  8
0-0
  6
JWW_DASHED1
 62
   120
370
     5
100
AcDbLine
 10
97.69392037577747
 20
524.7574484969884
 30
0.0
 11
287.6221938216378
 21
714.6857219428497
 31
0.0
  0
LINE
  5
144
330
1F
100
AcDbEntity
  8
0-0
  6
JWW_DASHED1
 62
   120
370
     5
100
AcDbLine
 10
97.6939203757877
 20
531.8285163088653
 30
0.0
 11
280.551126009766
 21
714.685721942845
 31
0.0
  0
LINE
  5
145
330
1F
100
AcDbEntity
  8
0-0
  6
JWW_DASHED1
 62
   120
370
     5
100
AcDbLine
 10
97.69392037579452
 20
538.8995841207388
 30
0.0
 11
273.4800581978908
 21
714.6857219428351
 31
0.0
  0
LINE
  5
146
330
1F
100
AcDbEntity
  8
0-0
  6
JWW_DASHED1
 62
   120
370
     5
100
AcDbLine
 10
97.69392037577576
 20
545.9706519325867
 30
0.0
 11
266.4089903860412
 21
714.6857219428522
 31
0.0
  0
LINE
  5
147
330
1F
100
AcDbEntity
  8
0-0
  6
JWW_DASHED1
 62
   120
370
     5
100
AcDbLine
 10
97.69392037578429
 20
553.0417197444636
 30
0.0
 11
259.3379225741694
 21
714.6857219428471
 31
0.0
  0
LINE
  5
148
330
1F
100
AcDbEntity
  8
0-0
  6
JWW_DASHED1
 62
   120
370
     5
100
AcDbLine
 10
97.69392037579281
 20
560.1127875563376
 30
0.0
 11
252.2668547622925
 21
714.6857219428368
 31
0.0
  0
LINE
  5
149
330
1F
100
AcDbEntity
  8
0-0
  6
JWW_DASHED1
 62
   120
370
     5
100
AcDbLine
 10
97.6939203757894
 20
567.1838553682009
 30
0.0
 11
245.195786950431
 21
714.6857219428429
 31
0.0
  0
LINE
  5
14A
330
1F
100
AcDbEntity
  8
0-0
  6
JWW_DASHED1
 62
   120
370
     5
100
AcDbLine
 10
97.69392037578258
 20
574.2549231800616
 30
0.0
 11
238.1247191385711
 21
714.6857219428488
 31
0.0
  0
LINE
  5
14B
330
1F
100
AcDbEntity
  8
0-0
  6
JWW_DASHED1
 62
   120
370
     5
100
AcDbLine
 10
97.69392037579111
 20
581.3259909919364
 30
0.0
 11
231.0536513266942
 21
714.6857219428385
 31
0.0
  0
LINE
  5
14C
330
1F
100
AcDbEntity
  8
0-0
  6
JWW_DASHED1
 62
   120
370
     5
100
AcDbLine
 10
97.6939203757877
 20
588.3970588037987
 30
0.0
 11
223.9825835148327
 21
714.6857219428446
 31
0.0
  0
LINE
  5
14D
330
1F
100
AcDbEntity
  8
0-0
  6
JWW_DASHED1
 62
   120
370
     5
100
AcDbLine
 10
97.69392037578088
 20
595.4681266156599
 30
0.0
 11
216.9115157029728
 21
714.6857219428505
 31
0.0
  0
LINE
  5
14E
330
1F
100
AcDbEntity
  8
0-0
  6
JWW_DASHED1
 62
   120
370
     5
100
AcDbLine
 10
97.6939203757894
 20
602.5391944275347
 30
0.0
 11
209.8404478910959
 21
714.6857219428407
 31
0.0
  0
LINE
  5
14F
330
1F
100
AcDbEntity
  8
0-0
  6
JWW_DASHED1
 62
   120
370
     5
100
AcDbLine
 10
97.69392037578599
 20
609.610262239397
 30
0.0
 11
202.7693800792344
 21
714.6857219428463
 31
0.0
  0
LINE
  5
150
330
1F
100
AcDbEntity
  8
0-0
  6
JWW_DASHED1
 62
   120
370
     5
100
AcDbLine
 10
97.69392037577917
 20
616.6813300512578
 30
0.0
 11
195.6983122673745
 21
714.6857219428526
 31
0.0
  0
LINE
  5
151
330
1F
100
AcDbEntity
  8
0-0
  6
JWW_DASHED1
 62
   120
370
     5
100
AcDbLine
 10
97.6939203757894
 20
623.7523978631347
 30
0.0
 11
188.6272444554976
 21
714.6857219428429
 31
0.0
  0
LINE
  5
152
330
1F
100
AcDbEntity
  8
0-0
  6
JWW_DASHED1
 62
   120
370
     5
100
AcDbLine
 10
97.69392037578429
 20
630.8234656749953
 30
0.0
 11
181.5561766436361
 21
714.6857219428488
 31
0.0
  0
LINE
  5
153
330
1F
100
AcDbEntity
  8
0-0
  6
JWW_DASHED1
 62
   120
370
     5
100
AcDbLine
 10
97.69392037577747
 20
637.8945334868561
 30
0.0
 11
174.4851088317745
 21
714.6857219428522
 31
0.0
  0
LINE
  5
154
330
1F
100
AcDbEntity
  8
0-0
  6
JWW_DASHED1
 62
   120
370
     5
100
AcDbLine
 10
97.6939203757877
 20
644.965601298733
 30
0.0
 11
167.4140410198993
 21
714.6857219428446
 31
0.0
  0
LINE
  5
155
330
1F
100
AcDbEntity
  8
0-0
  6
JWW_DASHED1
 62
   120
370
     5
100
AcDbLine
 10
97.69392037579622
 20
652.0366691106082
 30
0.0
 11
160.3429732080224
 21
714.6857219428343
 31
0.0
  0
LINE
  5
156
330
1F
100
AcDbEntity
  8
0-0
  6
JWW_DASHED1
 62
   120
370
     5
100
AcDbLine
 10
97.69392037577576
 20
659.1077369224544
 30
0.0
 11
153.2719053961762
 21
714.6857219428548
 31
0.0
  0
LINE
  5
157
330
1F
100
AcDbEntity
  8
0-0
  6
JWW_DASHED1
 62
   120
370
     5
100
AcDbLine
 10
97.69392037578599
 20
666.1788047343304
 30
0.0
 11
146.200837584301
 21
714.6857219428463
 31
0.0
  0
LINE
  5
158
330
1F
100
AcDbEntity
  8
0-0
  6
JWW_DASHED1
 62
   120
370
     5
100
AcDbLine
 10
97.69392037579452
 20
673.2498725462069
 30
0.0
 11
139.1297697724241
 21
714.6857219428368
 31
0.0
  0
LINE
  5
159
330
1F
100
AcDbEntity
  8
0-0
  6
JWW_DASHED1
 62
   120
370
     5
100
AcDbLine
 10
97.6939203757894
 20
680.320940358068
 30
0.0
 11
132.0587019605643
 21
714.6857219428424
 31
0.0
  0
LINE
  5
15A
330
1F
100
AcDbEntity
  8
0-0
  6
JWW_DASHED1
 62
   120
370
     5
100
AcDbLine
 10
97.69392037578429
 20
687.3920081699291
 30
0.0
 11
124.9876341487027
 21
714.6857219428484
 31
0.0
  0
LINE
  5
15B
330
1F
100
AcDbEntity
  8
0-0
  6
JWW_DASHED1
 62
   120
370
     5
100
AcDbLine
 10
97.69392037579281
 20
694.4630759818052
 30
0.0
 11
117.9165663368258
 21
714.6857219428385
 31
0.0
  0
LINE
  5
15C
330
1F
100
AcDbEntity
  8
0-0
  6
JWW_DASHED1
 62
   120
370
     5
100
AcDbLine
 10
97.6939203757877
 20
701.5341437936663
 30
0.0
 11
110.8454985249659
 21
714.6857219428446
 31
0.0
  0
LINE
  5
15D
330
1F
100
AcDbEntity
  8
0-0
  6
JWW_DASHED1
 62
   120
370
     5
100
AcDbLine
 10
97.69392037578258
 20
708.605211605527
 30
0.0
 11
103.7744307131044
 21
714.6857219428505
 31
0.0
  0
LINE
  5
15E
330
1F
100
AcDbEntity
  8
0-0
  6
Continuous
 62
    92
370
    13
100
AcDbLine
 10
-92.30607962421003
 20
-260.3142780571571
 30
0.0
 11
-682.3060796242122
 21
-260.3142780571571
 31
0.0
  0
LINE
  5
15F
330
1F
100
AcDbEntity
  8
0-0
  6
Continuous
 62
    92
370
    13
100
AcDbLine
 10
-92.30607962421003
 20
-390.3142780571573
 30
0.0
 11
-682.3060796242122
 21
-390.3142780571573
 31
0.0
  0
LINE
  5
160
330
1F
100
AcDbEntity
  8
0-0
  6
JWW_DASHED1
 62
   120
370
     5
100
AcDbLine
 10
-95.59065067644836
 20
-260.3142780571516
 30
0.0
 11
-92.30607962421514
 21
-257.0297070049184
 31
0.0
  0
LINE
  5
161
330
1F
100
AcDbEntity
  8
0-0
  6
JWW_DASHED1
 62
   120
370
     5
100
AcDbLine
 10
-102.6617184883253
 20
-260.3142780571618
 30
0.0
 11
-92.30607962420491
 21
-249.9586391930419
 31
0.0
  0
LINE
  5
162
330
1F
100
AcDbEntity
  8
0-0
  6
JWW_DASHED1
 62
   120
370
     5
100
AcDbLine
 10
-109.7327863001868
 20
-260.3142780571558
 30
0.0
 11
-92.30607962421173
 21
-242.8875713811811
 31
0.0
  0
LINE
  5
163
330
1F
100
AcDbEntity
  8
0-0
  6
JWW_DASHED1
 62
   120
370
     5
100
AcDbLine
 10
-116.8038541120467
 20
-260.3142780571499
 30
0.0
 11
-92.30607962421685
 21
-235.8165035693196
 31
0.0
  0
LINE
  5
164
330
1F
100
AcDbEntity
  8
0-0
  6
JWW_DASHED1
 62
   120
370
     5
100
AcDbLine
 10
-123.8749219239236
 20
-260.3142780571596
 30
0.0
 11
-92.30607962420662
 21
-228.7454357574436
 31
0.0
  0
LINE
  5
165
330
1F
100
AcDbEntity
  8
0-0
  6
JWW_DASHED1
 62
   120
370
     5
100
AcDbLine
 10
-130.9459897357851
 20
-260.3142780571541
 30
0.0
 11
-92.30607962421344
 21
-221.6743679455828
 31
0.0
  0
LINE
  5
166
330
1F
100
AcDbEntity
  8
0-0
  6
JWW_DASHED1
 62
   120
370
     5
100
AcDbLine
 10
-138.017057547645
 20
-260.3142780571482
 30
0.0
 11
-92.30607962421855
 21
-214.6033001337213
 31
0.0
  0
LINE
  5
167
330
1F
100
AcDbEntity
  8
0-0
  6
JWW_DASHED1
 62
   120
370
     5
100
AcDbLine
 10
-145.0881253595218
 20
-260.3142780571579
 30
0.0
 11
-92.30607962421003
 21
-207.5322323218453
 31
0.0
  0
LINE
  5
168
330
1F
100
AcDbEntity
  8
0-0
  6
JWW_DASHED1
 62
   120
370
     5
100
AcDbLine
 10
-152.1591931713817
 20
-260.314278057152
 30
0.0
 11
-92.30607962421514
 21
-200.4611645099845
 31
0.0
  0
LINE
  5
169
330
1F
100
AcDbEntity
  8
0-0
  6
JWW_DASHED1
 62
   120
370
     5
100
AcDbLine
 10
-159.2302609832586
 20
-260.3142780571622
 30
0.0
 11
-92.30607962420491
 21
-193.3900966981081
 31
0.0
  0
LINE
  5
16A
330
1F
100
AcDbEntity
  8
0-0
  6
JWW_DASHED1
 62
   120
370
     5
100
AcDbLine
 10
-166.3013287951201
 20
-260.3142780571562
 30
0.0
 11
-92.30607962421173
 21
-186.3190288862474
 31
0.0
  0
LINE
  5
16B
330
1F
100
AcDbEntity
  8
0-0
  6
JWW_DASHED1
 62
   120
370
     5
100
AcDbLine
 10
-173.3723966069936
 20
-260.3142780571639
 30
0.0
 11
-92.3060796242015
 21
-179.2479610743709
 31
0.0
  0
LINE
  5
16C
330
1F
100
AcDbEntity
  8
0-0
  6
JWW_DASHED1
 62
   120
370
     5
100
AcDbLine
 10
-180.4434644188569
 20
-260.3142780571601
 30
0.0
 11
-92.30607962420662
 21
-172.1768932625098
 31
0.0
  0
LINE
  5
16D
330
1F
100
AcDbEntity
  8
0-0
  6
JWW_DASHED1
 62
   120
370
     5
100
AcDbLine
 10
-187.5145322307184
 20
-260.3142780571541
 30
0.0
 11
-92.30607962421173
 21
-165.1058254506478
 31
0.0
  0
LINE
  5
16E
330
1F
100
AcDbEntity
  8
0-0
  6
JWW_DASHED1
 62
   120
370
     5
100
AcDbLine
 10
-194.5856000425919
 20
-260.3142780571613
 30
0.0
 11
-92.3060796242032
 21
-158.0347576387726
 31
0.0
  0
LINE
  5
16F
330
1F
100
AcDbEntity
  8
0-0
  6
JWW_DASHED1
 62
   120
370
     5
100
AcDbLine
 10
-201.6566678544552
 20
-260.3142780571584
 30
0.0
 11
-92.30607962420832
 21
-150.9636898269119
 31
0.0
  0
LINE
  5
170
330
1F
100
AcDbEntity
  8
0-0
  6
JWW_DASHED1
 62
   120
370
     5
100
AcDbLine
 10
-208.7277356663167
 20
-260.3142780571524
 30
0.0
 11
-92.30607962421344
 21
-143.8926220150491
 31
0.0
  0
LINE
  5
171
330
1F
100
AcDbEntity
  8
0-0
  6
JWW_DASHED1
 62
   120
370
     5
100
AcDbLine
 10
-215.7988034781919
 20
-260.3142780571622
 30
0.0
 11
-92.30607962420491
 21
-136.8215542031743
 31
0.0
  0
LINE
  5
172
330
1F
100
AcDbEntity
  8
0-0
  6
JWW_DASHED1
 62
   120
370
     5
100
AcDbLine
 10
-222.8698712900245
 20
-260.3142780571541
 30
0.0
 11
-92.30607962421344
 21
-129.750486391343
 31
0.0
  0
LINE
  5
173
330
1F
100
AcDbEntity
  8
0-0
  6
JWW_DASHED1
 62
   120
370
     5
100
AcDbLine
 10
-229.9409391018707
 20
-260.3142780571622
 30
0.0
 11
-92.30607962420491
 21
-122.679418579496
 31
0.0
  0
LINE
  5
174
330
1F
100
AcDbEntity
  8
0-0
  6
JWW_DASHED1
 62
   120
370
     5
100
AcDbLine
 10
-237.0120069137323
 20
-260.3142780571562
 30
0.0
 11
-92.30607962421173
 21
-115.6083507676353
 31
0.0
  0
LINE
  5
175
330
1F
100
AcDbEntity
  8
0-0
  6
JWW_DASHED1
 62
   120
370
     5
100
AcDbLine
 10
-244.083074725604
 20
-260.3142780571618
 30
0.0
 11
-92.3060796242015
 21
-108.5372829557588
 31
0.0
  0
LINE
  5
176
330
1F
100
AcDbEntity
  8
0-0
  6
JWW_DASHED1
 62
   120
370
     5
100
AcDbLine
 10
-251.154142537469
 20
-260.3142780571601
 30
0.0
 11
-92.30607962420662
 21
-101.4662151438981
 31
0.0
  0
LINE
  5
177
330
1F
100
AcDbEntity
  8
0-0
  6
JWW_DASHED1
 62
   120
370
     5
100
AcDbLine
 10
-258.2252103493306
 20
-260.3142780571541
 30
0.0
 11
-92.30607962421003
 21
-94.39514733203482
 31
0.0
  0
LINE
  5
178
330
1F
100
AcDbEntity
  8
0-0
  6
JWW_DASHED1
 62
   120
370
     5
100
AcDbLine
 10
-265.2962781612024
 20
-260.3142780571596
 30
0.0
 11
-92.3060796242032
 21
-87.32407952016048
 31
0.0
  0
LINE
  5
179
330
1F
100
AcDbEntity
  8
0-0
  6
JWW_DASHED1
 62
   120
370
     5
100
AcDbLine
 10
-272.3673459730674
 20
-260.3142780571579
 30
0.0
 11
-92.30607962420832
 21
-80.25301170829978
 31
0.0
  0
LINE
  5
17A
330
1F
100
AcDbEntity
  8
0-0
  6
JWW_DASHED1
 62
   120
370
     5
100
AcDbLine
 10
-279.4384137849289
 20
-260.3142780571524
 30
0.0
 11
-92.30607962421173
 21
-73.1819438964361
 31
0.0
  0
LINE
  5
17B
330
1F
100
AcDbEntity
  8
0-0
  6
JWW_DASHED1
 62
   120
370
     5
100
AcDbLine
 10
-286.5094815968041
 20
-260.3142780571622
 30
0.0
 11
-92.30607962420491
 21
-66.11087608456218
 31
0.0
  0
LINE
  5
17C
330
1F
100
AcDbEntity
  8
0-0
  6
JWW_DASHED1
 62
   120
370
     5
100
AcDbLine
 10
-293.5805494086657
 20
-260.3142780571562
 30
0.0
 11
-92.30607962421003
 21
-59.03980827270148
 31
0.0
  0
LINE
  5
17D
330
1F
100
AcDbEntity
  8
0-0
  6
JWW_DASHED1
 62
   120
370
     5
100
AcDbLine
 10
-300.6516172205272
 20
-260.3142780571503
 30
0.0
 11
-92.30607962421344
 21
-51.96874046083737
 31
0.0
  0
LINE
  5
17E
330
1F
100
AcDbEntity
  8
0-0
  6
JWW_DASHED1
 62
   120
370
     5
100
AcDbLine
 10
-307.7226850324024
 20
-260.3142780571605
 30
0.0
 11
-92.30607962420662
 21
-44.89767264896388
 31
0.0
  0
LINE
  5
17F
330
1F
100
AcDbEntity
  8
0-0
  6
JWW_DASHED1
 62
   120
370
     5
100
AcDbLine
 10
-314.793752844264
 20
-260.3142780571545
 30
0.0
 11
-92.30607962421344
 21
-37.8266048371036
 31
0.0
  0
LINE
  5
180
330
1F
100
AcDbEntity
  8
0-0
  6
JWW_DASHED1
 62
   120
370
     5
100
AcDbLine
 10
-321.8648206561238
 20
-260.3142780571486
 30
0.0
 11
-92.30607962421514
 21
-30.75553702523907
 31
0.0
  0
LINE
  5
181
330
1F
100
AcDbEntity
  8
0-0
  6
JWW_DASHED1
 62
   120
370
     5
100
AcDbLine
 10
-328.9358884680007
 20
-260.3142780571584
 30
0.0
 11
-92.30607962420832
 21
-23.68446921336643
 31
0.0
  0
LINE
  5
182
330
1F
100
AcDbEntity
  8
0-0
  6
JWW_DASHED1
 62
   120
370
     5
100
AcDbLine
 10
-336.0069562798623
 20
-260.3142780571524
 30
0.0
 11
-92.30607962421514
 21
-16.61340140150573
 31
0.0
  0
LINE
  5
183
330
1F
100
AcDbEntity
  8
0-0
  6
JWW_DASHED1
 62
   120
370
     5
100
AcDbLine
 10
-343.0780240917375
 20
-260.3142780571622
 30
0.0
 11
-92.30607962420491
 21
-9.542333589628829
 31
0.0
  0
LINE
  5
184
330
1F
100
AcDbEntity
  8
0-0
  6
JWW_DASHED1
 62
   120
370
     5
100
AcDbLine
 10
-350.149091903599
 20
-260.3142780571567
 30
0.0
 11
-92.30607962421003
 21
-2.471265777768128
 31
0.0
  0
LINE
  5
185
330
1F
100
AcDbEntity
  8
0-0
  6
JWW_DASHED1
 62
   120
370
     5
100
AcDbLine
 10
-357.2201597154606
 20
-260.3142780571507
 30
0.0
 11
-92.30607962421685
 21
4.599802034092573
 31
0.0
  0
LINE
  5
186
330
1F
100
AcDbEntity
  8
0-0
  6
JWW_DASHED1
 62
   120
370
     5
100
AcDbLine
 10
-364.2912275273375
 20
-260.3142780571605
 30
0.0
 11
-92.30607962420662
 21
11.67086984596947
 31
0.0
  0
LINE
  5
187
330
1F
100
AcDbEntity
  8
0-0
  6
JWW_DASHED1
 62
   120
370
     5
100
AcDbLine
 10
-371.3622953391973
 20
-260.3142780571545
 30
0.0
 11
-92.30607962421344
 21
18.74193765783017
 31
0.0
  0
LINE
  5
188
330
1F
100
AcDbEntity
  8
0-0
  6
JWW_DASHED1
 62
   120
370
     5
100
AcDbLine
 10
-378.4333631510657
 20
-260.3142780571571
 30
0.0
 11
-92.3060796242032
 21
25.81300546970708
 31
0.0
  0
LINE
  5
189
330
1F
100
AcDbEntity
  8
0-0
  6
JWW_DASHED1
 62
   120
370
     5
100
AcDbLine
 10
-385.5044309629341
 20
-260.3142780571588
 30
0.0
 11
-92.30607962420832
 21
32.88407328156735
 31
0.0
  0
LINE
  5
18A
330
1F
100
AcDbEntity
  8
0-0
  6
JWW_DASHED1
 62
   120
370
     5
100
AcDbLine
 10
-392.5754987747956
 20
-260.3142780571528
 30
0.0
 11
-92.30607962421003
 21
39.95514109343274
 31
0.0
  0
LINE
  5
18B
330
1F
100
AcDbEntity
  8
0-0
  6
JWW_DASHED1
 62
   120
370
     5
100
AcDbLine
 10
-399.6465665866725
 20
-260.3142780571627
 30
0.0
 11
-92.30607962420491
 21
47.02620890530496
 31
0.0
  0
LINE
  5
18C
330
1F
100
AcDbEntity
  8
0-0
  6
JWW_DASHED1
 62
   120
370
     5
100
AcDbLine
 10
-406.7176343985324
 20
-260.3142780571567
 30
0.0
 11
-92.30607962421003
 21
54.09727671716566
 31
0.0
  0
LINE
  5
18D
330
1F
100
AcDbEntity
  8
0-0
  6
JWW_DASHED1
 62
   120
370
     5
100
AcDbLine
 10
-413.7887022103939
 20
-260.3142780571507
 30
0.0
 11
-92.30607962421173
 21
61.16834452903147
 31
0.0
  0
LINE
  5
18E
330
1F
100
AcDbEntity
  8
0-0
  6
JWW_DASHED1
 62
   120
370
     5
100
AcDbLine
 10
-420.8597700222708
 20
-260.3142780571609
 30
0.0
 11
-92.30607962420662
 21
68.23941234090283
 31
0.0
  0
LINE
  5
18F
330
1F
100
AcDbEntity
  8
0-0
  6
JWW_DASHED1
 62
   120
370
     5
100
AcDbLine
 10
-427.9308378341307
 20
-260.314278057155
 30
0.0
 11
-92.30607962421173
 21
75.31048015276353
 31
0.0
  0
LINE
  5
190
330
1F
100
AcDbEntity
  8
0-0
  6
JWW_DASHED1
 62
   120
370
     5
100
AcDbLine
 10
-435.0019056459922
 20
-260.314278057149
 30
0.0
 11
-92.30607962421344
 21
82.3815479646302
 31
0.0
  0
LINE
  5
191
330
1F
100
AcDbEntity
  8
0-0
  6
JWW_DASHED1
 62
   120
370
     5
100
AcDbLine
 10
-442.0729734578674
 20
-260.3142780571588
 30
0.0
 11
-92.30607962420832
 21
89.45261577650113
 31
0.0
  0
LINE
  5
192
330
1F
100
AcDbEntity
  8
0-0
  6
JWW_DASHED1
 62
   120
370
     5
100
AcDbLine
 10
-449.144041269729
 20
-260.3142780571528
 30
0.0
 11
-92.30607962421344
 21
96.52368358836183
 31
0.0
  0
LINE
  5
193
330
1F
100
AcDbEntity
  8
0-0
  6
JWW_DASHED1
 62
   120
370
     5
100
AcDbLine
 10
-456.2151090815905
 20
-260.3142780571469
 30
0.0
 11
-92.30607962421344
 21
103.5947514002285
 31
0.0
  0
LINE
  5
194
330
1F
100
AcDbEntity
  8
0-0
  6
JWW_DASHED1
 62
   120
370
     5
100
AcDbLine
 10
-463.2861768934657
 20
-260.3142780571571
 30
0.0
 11
-92.30607962421003
 21
110.6658192120994
 31
0.0
  0
LINE
  5
195
330
1F
100
AcDbEntity
  8
0-0
  6
JWW_DASHED1
 62
   120
370
     5
100
AcDbLine
 10
-470.3572447053273
 20
-260.3142780571511
 30
0.0
 11
-92.30607962421685
 21
117.7368870239601
 31
0.0
  0
LINE
  5
196
330
1F
100
AcDbEntity
  8
0-0
  6
JWW_DASHED1
 62
   120
370
     5
100
AcDbLine
 10
-477.4283125172042
 20
-260.3142780571613
 30
0.0
 11
-92.30607962420662
 21
124.8079548358366
 31
0.0
  0
LINE
  5
197
330
1F
100
AcDbEntity
  8
0-0
  6
JWW_DASHED1
 62
   120
370
     5
100
AcDbLine
 10
-484.499380329064
 20
-260.3142780571554
 30
0.0
 11
-92.30607962421173
 21
131.8790226476977
 31
0.0
  0
LINE
  5
198
330
1F
100
AcDbEntity
  8
0-0
  6
JWW_DASHED1
 62
   120
370
     5
100
AcDbLine
 10
-491.5704481409306
 20
-260.3142780571545
 30
0.0
 11
-92.3060796242015
 21
138.9500904595738
 31
0.0
  0
LINE
  5
199
330
1F
100
AcDbEntity
  8
0-0
  6
JWW_DASHED1
 62
   120
370
     5
100
AcDbLine
 10
-498.6415159528024
 20
-260.3142780571592
 30
0.0
 11
-92.30607962420832
 21
146.0211582714349
 31
0.0
  0
LINE
  5
19A
330
1F
100
AcDbEntity
  8
0-0
  6
JWW_DASHED1
 62
   120
370
     5
100
AcDbLine
 10
-505.7125837646623
 20
-260.3142780571533
 30
0.0
 11
-92.30607962420662
 21
153.092226083302
 31
0.0
  0
LINE
  5
19B
330
1F
100
AcDbEntity
  8
0-0
  6
JWW_DASHED1
 62
   120
370
     5
100
AcDbLine
 10
-512.7836515765272
 20
-260.314278057152
 30
0.0
 11
-92.3060796242032
 21
160.1632938951721
 31
0.0
  0
LINE
  5
19C
330
1F
100
AcDbEntity
  8
0-0
  6
JWW_DASHED1
 62
   120
370
     5
100
AcDbLine
 10
-519.8547193884007
 20
-260.3142780571571
 30
0.0
 11
-92.30607962421003
 21
167.2343617070328
 31
0.0
  0
LINE
  5
19D
330
1F
100
AcDbEntity
  8
0-0
  6
JWW_DASHED1
 62
   120
370
     5
100
AcDbLine
 10
-526.9257872002605
 20
-260.3142780571511
 30
0.0
 11
-92.30607962420832
 21
174.3054295189007
 31
0.0
  0
LINE
  5
19E
330
1F
100
AcDbEntity
  8
0-0
  6
JWW_DASHED1
 62
   120
370
     5
100
AcDbLine
 10
-533.9968550121374
 20
-260.3142780571613
 30
0.0
 11
-92.30607962420662
 21
181.3764973307704
 31
0.0
  0
LINE
  5
19F
330
1F
100
AcDbEntity
  8
0-0
  6
JWW_DASHED1
 62
   120
370
     5
100
AcDbLine
 10
-541.0679228239973
 20
-260.3142780571554
 30
0.0
 11
-92.30607962421173
 21
188.4475651426311
 31
0.0
  0
LINE
  5
1A0
330
1F
100
AcDbEntity
  8
0-0
  6
JWW_DASHED1
 62
   120
370
     5
100
AcDbLine
 10
-548.1389906358588
 20
-260.3142780571494
 30
0.0
 11
-92.30607962421003
 21
195.5186329544995
 31
0.0
  0
LINE
  5
1A1
330
1F
100
AcDbEntity
  8
0-0
  6
JWW_DASHED1
 62
   120
370
     5
100
AcDbLine
 10
-555.2100584477357
 20
-260.3142780571596
 30
0.0
 11
-92.30607962420832
 21
202.5897007663683
 31
0.0
  0
LINE
  5
1A2
330
1F
100
AcDbEntity
  8
0-0
  6
JWW_DASHED1
 62
   120
370
     5
100
AcDbLine
 10
-562.2811262595956
 20
-260.3142780571537
 30
0.0
 11
-92.30607962421344
 21
209.660768578229
 31
0.0
  0
LINE
  5
1A3
330
1F
100
AcDbEntity
  8
0-0
  6
JWW_DASHED1
 62
   120
370
     5
100
AcDbLine
 10
-569.3521940714571
 20
-260.3142780571476
 30
0.0
 11
-92.30607962421173
 21
216.7318363900978
 31
0.0
  0
LINE
  5
1A4
330
1F
100
AcDbEntity
  8
0-0
  6
JWW_DASHED1
 62
   120
370
     5
100
AcDbLine
 10
-576.423261883334
 20
-260.3142780571575
 30
0.0
 11
-92.30607962421003
 21
223.8029042019661
 31
0.0
  0
LINE
  5
1A5
330
1F
100
AcDbEntity
  8
0-0
  6
JWW_DASHED1
 62
   120
370
     5
100
AcDbLine
 10
-583.4943296951939
 20
-260.3142780571516
 30
0.0
 11
-92.30607962421514
 21
230.8739720138273
 31
0.0
  0
LINE
  5
1A6
330
1F
100
AcDbEntity
  8
0-0
  6
JWW_DASHED1
 62
   120
370
     5
100
AcDbLine
 10
-590.5653975070708
 20
-260.3142780571618
 30
0.0
 11
-92.30607962420491
 21
237.9450398257037
 31
0.0
  0
LINE
  5
1A7
330
1F
100
AcDbEntity
  8
0-0
  6
JWW_DASHED1
 62
   120
370
     5
100
AcDbLine
 10
-597.6364653189323
 20
-260.3142780571558
 30
0.0
 11
-92.30607962421173
 21
245.0161076375644
 31
0.0
  0
LINE
  5
1A8
330
1F
100
AcDbEntity
  8
0-0
  6
JWW_DASHED1
 62
   120
370
     5
100
AcDbLine
 10
-604.7075331307922
 20
-260.3142780571499
 30
0.0
 11
-92.30607962421685
 21
252.0871754494251
 31
0.0
  0
LINE
  5
1A9
330
1F
100
AcDbEntity
  8
0-0
  6
JWW_DASHED1
 62
   120
370
     5
100
AcDbLine
 10
-611.7786009426401
 20
-260.3142780571575
 30
0.0
 11
-92.30607962421003
 21
259.1582432612726
 31
0.0
  0
LINE
  5
1AA
330
1F
100
AcDbEntity
  8
0-0
  6
JWW_DASHED1
 62
   120
370
     5
100
AcDbLine
 10
-618.8496687544709
 20
-260.3142780571494
 30
0.0
 11
-92.30607962420832
 21
266.2293110731125
 31
0.0
  0
LINE
  5
1AB
330
1F
100
AcDbEntity
  8
0-0
  6
JWW_DASHED1
 62
   120
370
     5
100
AcDbLine
 10
-625.9207365663478
 20
-260.3142780571596
 30
0.0
 11
-92.30607962420832
 21
273.3003788849808
 31
0.0
  0
LINE
  5
1AC
330
1F
100
AcDbEntity
  8
0-0
  6
JWW_DASHED1
 62
   120
370
     5
100
AcDbLine
 10
-632.9918043782077
 20
-260.3142780571537
 30
0.0
 11
-92.30607962421344
 21
280.3714466968411
 31
0.0
  0
LINE
  5
1AD
330
1F
100
AcDbEntity
  8
0-0
  6
JWW_DASHED1
 62
   120
370
     5
100
AcDbLine
 10
-640.0628721900692
 20
-260.3142780571476
 30
0.0
 11
-92.30607962421003
 21
287.4425145087108
 31
0.0
  0
LINE
  5
1AE
330
1F
100
AcDbEntity
  8
0-0
  6
JWW_DASHED1
 62
   120
370
     5
100
AcDbLine
 10
-647.1339400019461
 20
-260.3142780571575
 30
0.0
 11
-92.30607962421003
 21
294.5135823205783
 31
0.0
  0
LINE
  5
1AF
330
1F
100
AcDbEntity
  8
0-0
  6
JWW_DASHED1
 62
   120
370
     5
100
AcDbLine
 10
-654.205007813806
 20
-260.3142780571516
 30
0.0
 11
-92.30607962421514
 21
301.5846501324394
 31
0.0
  0
LINE
  5
1B0
330
1F
100
AcDbEntity
  8
0-0
  6
JWW_DASHED1
 62
   120
370
     5
100
AcDbLine
 10
-661.2760756256675
 20
-260.3142780571459
 30
0.0
 11
-92.30607962421173
 21
308.6557179443095
 31
0.0
  0
LINE
  5
1B1
330
1F
100
AcDbEntity
  8
0-0
  6
JWW_DASHED1
 62
   120
370
     5
100
AcDbLine
 10
-668.3471434375444
 20
-260.3142780571558
 30
0.0
 11
-92.30607962421173
 21
315.7267857561766
 31
0.0
  0
LINE
  5
1B2
330
1F
100
AcDbEntity
  8
0-0
  6
JWW_DASHED1
 62
   120
370
     5
100
AcDbLine
 10
-675.4182112494043
 20
-260.3142780571494
 30
0.0
 11
-92.30607962421685
 21
322.7978535680373
 31
0.0
  0
LINE
  5
1B3
330
1F
100
AcDbEntity
  8
0-0
  6
JWW_DASHED1
 62
   120
370
     5
100
AcDbLine
 10
-682.3060796242088
 20
-260.1310786200872
 30
0.0
 11
-92.30607962420662
 21
329.8689213799142
 31
0.0
  0
LINE
  5
1B4
330
1F
100
AcDbEntity
  8
0-0
  6
JWW_DASHED1
 62
   120
370
     5
100
AcDbLine
 10
-682.3060796242156
 20
-253.0600108082266
 30
0.0
 11
-92.30607962421344
 21
336.9399891917749
 31
0.0
  0
LINE
  5
1B5
330
1F
100
AcDbEntity
  8
0-0
  6
JWW_DASHED1
 62
   120
370
     5
100
AcDbLine
 10
-682.3060796242207
 20
-245.9889429963658
 30
0.0
 11
-92.3060796242032
 21
344.0110570036513
 31
0.0
  0
LINE
  5
1B6
330
1F
100
AcDbEntity
  8
0-0
  6
JWW_DASHED1
 62
   120
370
     5
100
AcDbLine
 10
-682.3060796242105
 20
-238.9178751844889
 30
0.0
 11
-92.30607962421003
 21
351.0821248155124
 31
0.0
  0
LINE
  5
1B7
330
1F
100
AcDbEntity
  8
0-0
  6
JWW_DASHED1
 62
   120
370
     5
100
AcDbLine
 10
-682.3060796242156
 20
-231.8468073726278
 30
0.0
 11
-92.30607962420491
 21
358.1531926273825
 31
0.0
  0
LINE
  5
1B8
330
1F
100
AcDbEntity
  8
0-0
  6
JWW_DASHED1
 62
   120
370
     5
100
AcDbLine
 10
-682.3060796242224
 20
-224.7757395607675
 30
0.0
 11
-92.30607962420491
 21
365.2242604392496
 31
0.0
  0
LINE
  5
1B9
330
1F
100
AcDbEntity
  8
0-0
  6
JWW_DASHED1
 62
   120
370
     5
100
AcDbLine
 10
-682.3060796242122
 20
-217.7046717488911
 30
0.0
 11
-92.30607962421173
 21
372.2953282511099
 31
0.0
  0
LINE
  5
1BA
330
1F
100
AcDbEntity
  8
0-0
  6
JWW_DASHED1
 62
   120
370
     5
100
AcDbLine
 10
-682.3060796242173
 20
-210.6336039370295
 30
0.0
 11
-92.30607962420662
 21
379.3663960629813
 31
0.0
  0
LINE
  5
1BB
330
1F
100
AcDbEntity
  8
0-0
  6
JWW_DASHED1
 62
   120
370
     5
100
AcDbLine
 10
-682.3060796242088
 20
-203.5625361251539
 30
0.0
 11
-92.30607962420662
 21
386.4374638748475
 31
0.0
  0
LINE
  5
1BC
330
1F
100
AcDbEntity
  8
0-0
  6
JWW_DASHED1
 62
   120
370
     5
100
AcDbLine
 10
-682.3060796242139
 20
-196.4914683132932
 30
0.0
 11
-92.30607962421344
 21
393.5085316867086
 31
0.0
  0
LINE
  5
1BD
330
1F
100
AcDbEntity
  8
0-0
  6
JWW_DASHED1
 62
   120
370
     5
100
AcDbLine
 10
-682.306079624219
 20
-189.4204005014307
 30
0.0
 11
-92.30607962420832
 21
400.57959949858
 31
0.0
  0
LINE
  5
1BE
330
1F
100
AcDbEntity
  8
0-0
  6
JWW_DASHED1
 62
   120
370
     5
100
AcDbLine
 10
-682.3060796242105
 20
-182.3493326895556
 30
0.0
 11
-92.30607962420832
 21
407.6506673104458
 31
0.0
  0
LINE
  5
1BF
330
1F
100
AcDbEntity
  8
0-0
  6
JWW_DASHED1
 62
   120
370
     5
100
AcDbLine
 10
-682.3060796242156
 20
-175.2782648776949
 30
0.0
 11
-92.30607962421514
 21
414.7217351223065
 31
0.0
  0
LINE
  5
1C0
330
1F
100
AcDbEntity
  8
0-0
  6
JWW_DASHED1
 62
   120
370
     5
100
AcDbLine
 10
-682.3060796242207
 20
-168.2071970658325
 30
0.0
 11
-92.30607962421003
 21
421.7928029341783
 31
0.0
  0
LINE
  5
1C1
330
1F
100
AcDbEntity
  8
0-0
  6
JWW_DASHED1
 62
   120
370
     5
100
AcDbLine
 10
-682.3060796242122
 20
-161.1361292539573
 30
0.0
 11
-92.30607962421003
 21
428.8638707460441
 31
0.0
  0
LINE
  5
1C2
330
1F
100
AcDbEntity
  8
0-0
  6
JWW_DASHED1
 62
   120
370
     5
100
AcDbLine
 10
-682.306079624219
 20
-154.0650614420966
 30
0.0
 11
-92.30607962421685
 21
435.9349385579048
 31
0.0
  0
LINE
  5
1C3
330
1F
100
AcDbEntity
  8
0-0
  6
JWW_DASHED1
 62
   120
370
     5
100
AcDbLine
 10
-682.3060796242088
 20
-146.9939936302201
 30
0.0
 11
-92.30607962420662
 21
443.0060063697808
 31
0.0
  0
LINE
  5
1C4
330
1F
100
AcDbEntity
  8
0-0
  6
JWW_DASHED1
 62
   120
370
     5
100
AcDbLine
 10
-682.3060796242139
 20
-139.922925818359
 30
0.0
 11
-92.30607962421344
 21
450.077074181642
 31
0.0
  0
LINE
  5
1C5
330
1F
100
AcDbEntity
  8
0-0
  6
JWW_DASHED1
 62
   120
370
     5
100
AcDbLine
 10
-682.3060796242207
 20
-132.8518580064987
 30
0.0
 11
-92.3060796242032
 21
457.1481419935185
 31
0.0
  0
LINE
  5
1C6
330
1F
100
AcDbEntity
  8
0-0
  6
JWW_DASHED1
 62
   120
370
     5
100
AcDbLine
 10
-682.3060796242105
 20
-125.7807901946218
 30
0.0
 11
-92.30607962420832
 21
464.2192098053796
 31
0.0
  0
LINE
  5
1C7
330
1F
100
AcDbEntity
  8
0-0
  6
JWW_DASHED1
 62
   120
370
     5
100
AcDbLine
 10
-682.3060796242139
 20
-118.709722382759
 30
0.0
 11
-92.3060796242032
 21
471.2902776172522
 31
0.0
  0
LINE
  5
1C8
330
1F
100
AcDbEntity
  8
0-0
  6
JWW_DASHED1
 62
   120
370
     5
100
AcDbLine
 10
-682.3060796242224
 20
-111.6386545709004
 30
0.0
 11
-92.30607962420491
 21
478.3613454291168
 31
0.0
  0
LINE
  5
1C9
330
1F
100
AcDbEntity
  8
0-0
  6
JWW_DASHED1
 62
   120
370
     5
100
AcDbLine
 10
-682.3060796242122
 20
-104.5675867590239
 30
0.0
 11
-92.30607962421003
 21
485.4324132409774
 31
0.0
  0
LINE
  5
1CA
330
1F
100
AcDbEntity
  8
0-0
  6
JWW_DASHED1
 62
   120
370
     5
100
AcDbLine
 10
-682.3060796242156
 20
-97.49651894716068
 30
0.0
 11
-92.30607962420491
 21
492.5034810528501
 31
0.0
  0
LINE
  5
1CB
330
1F
100
AcDbEntity
  8
0-0
  6
JWW_DASHED1
 62
   120
370
     5
100
AcDbLine
 10
-682.3060796242088
 20
-90.42545113528634
 30
0.0
 11
-92.30607962420662
 21
499.574548864715
 31
0.0
  0
LINE
  5
1CC
330
1F
100
AcDbEntity
  8
0-0
  6
JWW_DASHED1
 62
   120
370
     5
100
AcDbLine
 10
-682.3060796242139
 20
-83.35438332342564
 30
0.0
 11
-92.30607962421344
 21
506.6456166765757
 31
0.0
  0
LINE
  5
1CD
330
1F
100
AcDbEntity
  8
0-0
  6
JWW_DASHED1
 62
   120
370
     5
100
AcDbLine
 10
-682.3060796242173
 20
-76.28331551156195
 30
0.0
 11
-92.30607962420662
 21
513.7166844884488
 31
0.0
  0
LINE
  5
1CE
330
1F
100
AcDbEntity
  8
0-0
  6
JWW_DASHED1
 62
   120
370
     5
100
AcDbLine
 10
-682.3060796242105
 20
-69.21224769968846
 30
0.0
 11
-92.30607962420832
 21
520.787752300313
 31
0.0
  0
LINE
  5
1CF
330
1F
100
AcDbEntity
  8
0-0
  6
JWW_DASHED1
 62
   120
370
     5
100
AcDbLine
 10
-682.3060796242156
 20
-62.14117988782733
 30
0.0
 11
-92.30607962421514
 21
527.8588201121736
 31
0.0
  0
LINE
  5
1D0
330
1F
100
AcDbEntity
  8
0-0
  6
JWW_DASHED1
 62
   120
370
     5
100
AcDbLine
 10
-682.306079624219
 20
-55.07011207596365
 30
0.0
 11
-92.30607962420662
 21
534.9298879240475
 31
0.0
  0
LINE
  5
1D1
330
1F
100
AcDbEntity
  8
0-0
  6
JWW_DASHED1
 62
   120
370
     5
100
AcDbLine
 10
-682.3060796242122
 20
-47.99904426409016
 30
0.0
 11
-92.30607962421003
 21
542.0009557359112
 31
0.0
  0
LINE
  5
1D2
330
1F
100
AcDbEntity
  8
0-0
  6
JWW_DASHED1
 62
   120
370
     5
100
AcDbLine
 10
-682.3060796242173
 20
-40.92797645222946
 30
0.0
 11
-92.30607962421685
 21
549.0720235477714
 31
0.0
  0
LINE
  5
1D3
330
1F
100
AcDbEntity
  8
0-0
  6
JWW_DASHED1
 62
   120
370
     5
100
AcDbLine
 10
-682.306079624219
 20
-33.85690864036492
 30
0.0
 11
-92.30607962420832
 21
556.1430913596458
 31
0.0
  0
LINE
  5
1D4
330
1F
100
AcDbEntity
  8
0-0
  6
JWW_DASHED1
 62
   120
370
     5
100
AcDbLine
 10
-682.3060796242139
 20
-26.78584082849229
 30
0.0
 11
-92.30607962421173
 21
563.2141591715091
 31
0.0
  0
LINE
  5
1D5
330
1F
100
AcDbEntity
  8
0-0
  6
JWW_DASHED1
 62
   120
370
     5
100
AcDbLine
 10
-682.306079624219
 20
-19.71477301663116
 30
0.0
 11
-92.30607962421855
 21
570.2852269833697
 31
0.0
  0
LINE
  5
1D6
330
1F
100
AcDbEntity
  8
0-0
  6
JWW_DASHED1
 62
   120
370
     5
100
AcDbLine
 10
-682.3060796242088
 20
-12.64370520475468
 30
0.0
 11
-92.30607962420832
 21
577.3562947952466
 31
0.0
  0
LINE
  5
1D7
330
1F
100
AcDbEntity
  8
0-0
  6
JWW_DASHED1
 62
   120
370
     5
100
AcDbLine
 10
-682.3060796242156
 20
-5.572637392893984
 30
0.0
 11
-92.30607962421344
 21
584.4273626071074
 31
0.0
  0
LINE
  5
1D8
330
1F
100
AcDbEntity
  8
0-0
  6
JWW_DASHED1
 62
   120
370
     5
100
AcDbLine
 10
-682.3060796242207
 20
1.498430418966716
 30
0.0
 11
-92.3060796242032
 21
591.4984304189843
 31
0.0
  0
LINE
  5
1D9
330
1F
100
AcDbEntity
  8
0-0
  6
JWW_DASHED1
 62
   120
370
     5
100
AcDbLine
 10
-682.3060796242122
 20
8.569498230843191
 30
0.0
 11
-92.30607962421003
 21
598.5694982308449
 31
0.0
  0
LINE
  5
1DA
330
1F
100
AcDbEntity
  8
0-0
  6
JWW_DASHED1
 62
   120
370
     5
100
AcDbLine
 10
-682.3060796242122
 20
15.64056604270858
 30
0.0
 11
-92.3060796242015
 21
605.6405660427193
 31
0.0
  0
LINE
  5
1DB
330
1F
100
AcDbEntity
  8
0-0
  6
JWW_DASHED1
 62
   120
370
     5
100
AcDbLine
 10
-682.3060796242224
 20
22.71163385456502
 30
0.0
 11
-92.30607962420662
 21
612.7116338545817
 31
0.0
  0
LINE
  5
1DC
330
1F
100
AcDbEntity
  8
0-0
  6
JWW_DASHED1
 62
   120
370
     5
100
AcDbLine
 10
-682.3060796242139
 20
29.78270166644149
 30
0.0
 11
-92.30607962421173
 21
619.7827016664429
 31
0.0
  0
LINE
  5
1DD
330
1F
100
AcDbEntity
  8
0-0
  6
JWW_DASHED1
 62
   120
370
     5
100
AcDbLine
 10
-682.3060796242139
 20
36.85376947830689
 30
0.0
 11
-92.3060796242032
 21
626.8537694783176
 31
0.0
  0
LINE
  5
1DE
330
1F
100
AcDbEntity
  8
0-0
  6
JWW_DASHED1
 62
   120
370
     5
100
AcDbLine
 10
-682.3060796242088
 20
43.92483729017867
 30
0.0
 11
-92.30607962420832
 21
633.92483729018
 31
0.0
  0
LINE
  5
1DF
330
1F
100
AcDbEntity
  8
0-0
  6
JWW_DASHED1
 62
   120
370
     5
100
AcDbLine
 10
-682.3060796242156
 20
50.9959051020398
 30
0.0
 11
-92.30607962421344
 21
640.9959051020408
 31
0.0
  0
LINE
  5
1E0
330
1F
100
AcDbEntity
  8
0-0
  6
JWW_DASHED1
 62
   120
370
     5
100
AcDbLine
 10
-682.3060796242173
 20
58.0669729138762
 30
0.0
 11
-92.30607962420662
 21
648.066972913887
 31
0.0
  0
LINE
  5
1E1
330
1F
100
AcDbEntity
  8
0-0
  6
JWW_DASHED1
 62
   120
370
     5
100
AcDbLine
 10
-682.3060796242156
 20
65.13804072571814
 30
0.0
 11
-92.30607962421344
 21
655.1380407257195
 31
0.0
  0
LINE
  5
1E2
330
1F
100
AcDbEntity
  8
0-0
  6
JWW_DASHED1
 62
   120
370
     5
100
AcDbLine
 10
-682.3060796242207
 20
72.20910853757884
 30
0.0
 11
-92.3060796242032
 21
662.2091085375964
 31
0.0
  0
LINE
  5
1E3
330
1F
100
AcDbEntity
  8
0-0
  6
JWW_DASHED1
 62
   120
370
     5
100
AcDbLine
 10
-682.3060796242122
 20
79.28017634945532
 30
0.0
 11
-92.30607962421003
 21
669.2801763494571
 31
0.0
  0
LINE
  5
1E4
330
1F
100
AcDbEntity
  8
0-0
  6
JWW_DASHED1
 62
   120
370
     5
100
AcDbLine
 10
-682.3060796242122
 20
86.35124416132199
 30
0.0
 11
-92.3060796242015
 21
676.3512441613327
 31
0.0
  0
LINE
  5
1E5
330
1F
100
AcDbEntity
  8
0-0
  6
JWW_DASHED1
 62
   120
370
     5
100
AcDbLine
 10
-682.3060796242224
 20
93.42231197317714
 30
0.0
 11
-92.30607962420662
 21
683.4223119731943
 31
0.0
  0
LINE
  5
1E6
330
1F
100
AcDbEntity
  8
0-0
  6
JWW_DASHED1
 62
   120
370
     5
100
AcDbLine
 10
-682.3060796242139
 20
100.4933797850536
 30
0.0
 11
-92.30607962421173
 21
690.4933797850546
 31
0.0
  0
LINE
  5
1E7
330
1F
100
AcDbEntity
  8
0-0
  6
JWW_DASHED1
 62
   120
370
     5
100
AcDbLine
 10
-682.3060796242122
 20
107.5644475969207
 30
0.0
 11
-92.3060796242015
 21
697.5644475969315
 31
0.0
  0
LINE
  5
1E8
330
1F
100
AcDbEntity
  8
0-0
  6
JWW_DASHED1
 62
   120
370
     5
100
AcDbLine
 10
-682.3060796242088
 20
114.6355154087908
 30
0.0
 11
-92.30607962420832
 21
704.6355154087921
 31
0.0
  0
LINE
  5
1E9
330
1F
100
AcDbEntity
  8
0-0
  6
JWW_DASHED1
 62
   120
370
     5
100
AcDbLine
 10
-682.3060796242156
 20
121.7065832206519
 30
0.0
 11
-92.30607962421344
 21
711.7065832206529
 31
0.0
  0
LINE
  5
1EA
330
1F
100
AcDbEntity
  8
0-0
  6
JWW_DASHED1
 62
   120
370
     5
100
AcDbLine
 10
-682.3060796242156
 20
128.777651032519
 30
0.0
 11
-96.39800871389694
 21
714.6857219428368
 31
0.0
  0
LINE
  5
1EB
330
1F
100
AcDbEntity
  8
0-0
  6
JWW_DASHED1
 62
   120
370
     5
100
AcDbLine
 10
-682.3060796242122
 20
135.8487188443891
 30
0.0
 11
-103.4690765257585
 21
714.6857219428429
 31
0.0
  0
LINE
  5
1EC
330
1F
100
AcDbEntity
  8
0-0
  6
JWW_DASHED1
 62
   120
370
     5
100
AcDbLine
 10
-682.3060796242173
 20
142.9197866562498
 30
0.0
 11
-110.5401443376183
 21
714.6857219428488
 31
0.0
  0
LINE
  5
1ED
330
1F
100
AcDbEntity
  8
0-0
  6
JWW_DASHED1
 62
   120
370
     5
100
AcDbLine
 10
-682.3060796242156
 20
149.9908544681173
 30
0.0
 11
-117.6112121494952
 21
714.6857219428385
 31
0.0
  0
LINE
  5
1EE
330
1F
100
AcDbEntity
  8
0-0
  6
JWW_DASHED1
 62
   120
370
     5
100
AcDbLine
 10
-682.3060796242122
 20
157.0619222799874
 30
0.0
 11
-124.6822799613551
 21
714.6857219428446
 31
0.0
  0
LINE
  5
1EF
330
1F
100
AcDbEntity
  8
0-0
  6
JWW_DASHED1
 62
   120
370
     5
100
AcDbLine
 10
-682.306079624219
 20
164.1329900918481
 30
0.0
 11
-131.7533477732166
 21
714.6857219428505
 31
0.0
  0
LINE
  5
1F0
330
1F
100
AcDbEntity
  8
0-0
  6
JWW_DASHED1
 62
   120
370
     5
100
AcDbLine
 10
-682.3060796242088
 20
171.2040579037246
 30
0.0
 11
-138.8244155850935
 21
714.6857219428402
 31
0.0
  0
LINE
  5
1F1
330
1F
100
AcDbEntity
  8
0-0
  6
JWW_DASHED1
 62
   120
370
     5
100
AcDbLine
 10
-682.3060796242156
 20
178.2751257155853
 30
0.0
 11
-145.8954833969534
 21
714.6857219428463
 31
0.0
  0
LINE
  5
1F2
330
1F
100
AcDbEntity
  8
0-0
  6
JWW_DASHED1
 62
   120
370
     5
100
AcDbLine
 10
-682.3060796242207
 20
185.346193527446
 30
0.0
 11
-152.9665512088149
 21
714.6857219428522
 31
0.0
  0
LINE
  5
1F3
330
1F
100
AcDbEntity
  8
0-0
  6
JWW_DASHED1
 62
   120
370
     5
100
AcDbLine
 10
-682.3060796242105
 20
192.4172613393229
 30
0.0
 11
-160.0376190206918
 21
714.685721942842
 31
0.0
  0
LINE
  5
1F4
330
1F
100
AcDbEntity
  8
0-0
  6
JWW_DASHED1
 62
   120
370
     5
100
AcDbLine
 10
-682.3060796242173
 20
199.4883291511836
 30
0.0
 11
-167.1086868325517
 21
714.6857219428484
 31
0.0
  0
LINE
  5
1F5
330
1F
100
AcDbEntity
  8
0-0
  6
JWW_DASHED1
 62
   120
370
     5
100
AcDbLine
 10
-682.3060796242224
 20
206.5593969630443
 30
0.0
 11
-174.1797546444269
 21
714.6857219428407
 31
0.0
  0
LINE
  5
1F6
330
1F
100
AcDbEntity
  8
0-0
  6
JWW_DASHED1
 62
   120
370
     5
100
AcDbLine
 10
-682.3060796242122
 20
213.6304647749207
 30
0.0
 11
-181.2508224562901
 21
714.6857219428441
 31
0.0
  0
LINE
  5
1F7
330
1F
100
AcDbEntity
  8
0-0
  6
JWW_DASHED1
 62
   120
370
     5
100
AcDbLine
 10
-682.3060796242105
 20
220.7015325867895
 30
0.0
 11
-188.3218902681653
 21
714.6857219428343
 31
0.0
  0
LINE
  5
1F8
330
1F
100
AcDbEntity
  8
0-0
  6
JWW_DASHED1
 62
   120
370
     5
100
AcDbLine
 10
-682.3060796242088
 20
227.7726003986583
 30
0.0
 11
-195.3929580800269
 21
714.6857219428402
 31
0.0
  0
LINE
  5
1F9
330
1F
100
AcDbEntity
  8
0-0
  6
JWW_DASHED1
 62
   120
370
     5
100
AcDbLine
 10
-682.3060796242156
 20
234.843668210519
 30
0.0
 11
-202.4640258918884
 21
714.6857219428463
 31
0.0
  0
LINE
  5
1FA
330
1F
100
AcDbEntity
  8
0-0
  6
JWW_DASHED1
 62
   120
370
     5
100
AcDbLine
 10
-682.3060796242122
 20
241.9147360223878
 30
0.0
 11
-209.5350937037636
 21
714.685721942836
 31
0.0
  0
LINE
  5
1FB
330
1F
100
AcDbEntity
  8
0-0
  6
JWW_DASHED1
 62
   120
370
     5
100
AcDbLine
 10
-682.3060796242105
 20
248.9858038342566
 30
0.0
 11
-216.6061615156252
 21
714.685721942842
 31
0.0
  0
LINE
  5
1FC
330
1F
100
AcDbEntity
  8
0-0
  6
JWW_DASHED1
 62
   120
370
     5
100
AcDbLine
 10
-682.3060796242156
 20
256.0568716461174
 30
0.0
 11
-223.677229327485
 21
714.685721942848
 31
0.0
  0
LINE
  5
1FD
330
1F
100
AcDbEntity
  8
0-0
  6
JWW_DASHED1
 62
   120
370
     5
100
AcDbLine
 10
-682.3060796242139
 20
263.1279394579866
 30
0.0
 11
-230.7482971393619
 21
714.6857219428382
 31
0.0
  0
LINE
  5
1FE
330
1F
100
AcDbEntity
  8
0-0
  6
JWW_DASHED1
 62
   120
370
     5
100
AcDbLine
 10
-682.3060796242122
 20
270.1990072698545
 30
0.0
 11
-237.8193649512235
 21
714.6857219428437
 31
0.0
  0
LINE
  5
1FF
330
1F
100
AcDbEntity
  8
0-0
  6
JWW_DASHED1
 62
   120
370
     5
100
AcDbLine
 10
-682.306079624219
 20
277.2700750817152
 30
0.0
 11
-244.8904327630833
 21
714.6857219428497
 31
0.0
  0
LINE
  5
200
330
1F
100
AcDbEntity
  8
0-0
  6
JWW_DASHED1
 62
   120
370
     5
100
AcDbLine
 10
-682.3060796242156
 20
284.3411428935849
 30
0.0
 11
-251.9615005749602
 21
714.6857219428399
 31
0.0
  0
LINE
  5
201
330
1F
100
AcDbEntity
  8
0-0
  6
JWW_DASHED1
 62
   120
370
     5
100
AcDbLine
 10
-682.3060796242139
 20
291.4122107054524
 30
0.0
 11
-259.0325683868218
 21
714.6857219428458
 31
0.0
  0
LINE
  5
202
330
1F
100
AcDbEntity
  8
0-0
  6
JWW_DASHED1
 62
   120
370
     5
100
AcDbLine
 10
-682.3060796242207
 20
298.4832785173135
 30
0.0
 11
-266.1036361986817
 21
714.6857219428518
 31
0.0
  0
LINE
  5
203
330
1F
100
AcDbEntity
  8
0-0
  6
JWW_DASHED1
 62
   120
370
     5
100
AcDbLine
 10
-682.3060796242105
 20
305.55434632919
 30
0.0
 11
-273.1747040105586
 21
714.685721942842
 31
0.0
  0
LINE
  5
204
330
1F
100
AcDbEntity
  8
0-0
  6
JWW_DASHED1
 62
   120
370
     5
100
AcDbLine
 10
-682.3060796242156
 20
312.6254141410507
 30
0.0
 11
-280.2457718224184
 21
714.685721942848
 31
0.0
  0
LINE
  5
205
330
1F
100
AcDbEntity
  8
0-0
  6
JWW_DASHED1
 62
   120
370
     5
100
AcDbLine
 10
-682.3060796242224
 20
319.6964819529114
 30
0.0
 11
-287.3168396342902
 21
714.6857219428429
 31
0.0
  0
LINE
  5
206
330
1F
100
AcDbEntity
  8
0-0
  6
JWW_DASHED1
 62
   120
370
     5
100
AcDbLine
 10
-682.3060796242122
 20
326.7675497647883
 30
0.0
 11
-294.3879074461569
 21
714.6857219428437
 31
0.0
  0
LINE
  5
207
330
1F
100
AcDbEntity
  8
0-0
  6
JWW_DASHED1
 62
   120
370
     5
100
AcDbLine
 10
-682.3060796242088
 20
333.8386175766584
 30
0.0
 11
-301.4589752580338
 21
714.6857219428334
 31
0.0
  0
LINE
  5
208
330
1F
100
AcDbEntity
  8
0-0
  6
JWW_DASHED1
 62
   120
370
     5
100
AcDbLine
 10
-682.3060796242241
 20
340.9096853885097
 30
0.0
 11
-308.5300430698885
 21
714.6857219428454
 31
0.0
  0
LINE
  5
209
330
1F
100
AcDbEntity
  8
0-0
  6
JWW_DASHED1
 62
   120
370
     5
100
AcDbLine
 10
-682.3060796242139
 20
347.9807532003862
 30
0.0
 11
-315.6011108817552
 21
714.6857219428454
 31
0.0
  0
LINE
  5
20A
330
1F
100
AcDbEntity
  8
0-0
  6
JWW_DASHED1
 62
   120
370
     5
100
AcDbLine
 10
-682.3060796242105
 20
355.0518210122571
 30
0.0
 11
-322.6721786936321
 21
714.6857219428356
 31
0.0
  0
LINE
  5
20B
330
1F
100
AcDbEntity
  8
0-0
  6
JWW_DASHED1
 62
   120
370
     5
100
AcDbLine
 10
-682.3060796242105
 20
362.1228888241234
 30
0.0
 11
-329.7432465054919
 21
714.6857219428416
 31
0.0
  0
LINE
  5
20C
330
1F
100
AcDbEntity
  8
0-0
  6
JWW_DASHED1
 62
   120
370
     5
100
AcDbLine
 10
-682.3060796242156
 20
369.1939566359845
 30
0.0
 11
-336.8143143173535
 21
714.6857219428475
 31
0.0
  0
LINE
  5
20D
330
1F
100
AcDbEntity
  8
0-0
  6
JWW_DASHED1
 62
   120
370
     5
100
AcDbLine
 10
-682.3060796242122
 20
376.2650244478554
 30
0.0
 11
-343.8853821292287
 21
714.6857219428377
 31
0.0
  0
LINE
  5
20E
330
1F
100
AcDbEntity
  8
0-0
  6
JWW_DASHED1
 62
   120
370
     5
100
AcDbLine
 10
-682.3060796242122
 20
383.3360922597217
 30
0.0
 11
-350.9564499410902
 21
714.6857219428437
 31
0.0
  0
LINE
  5
20F
330
1F
100
AcDbEntity
  8
0-0
  6
JWW_DASHED1
 62
   120
370
     5
100
AcDbLine
 10
-682.3060796242173
 20
390.4071600715823
 30
0.0
 11
-358.0275177529518
 21
714.6857219428497
 31
0.0
  0
LINE
  5
210
330
1F
100
AcDbEntity
  8
0-0
  6
JWW_DASHED1
 62
   120
370
     5
100
AcDbLine
 10
-682.3060796242122
 20
397.4782278834537
 30
0.0
 11
-365.098585564827
 21
714.6857219428395
 31
0.0
  0
LINE
  5
211
330
1F
100
AcDbEntity
  8
0-0
  6
JWW_DASHED1
 62
   120
370
     5
100
AcDbLine
 10
-682.3060796242139
 20
404.54929569532
 30
0.0
 11
-372.1696533766885
 21
714.6857219428454
 31
0.0
  0
LINE
  5
212
330
1F
100
AcDbEntity
  8
0-0
  6
JWW_DASHED1
 62
   120
370
     5
100
AcDbLine
 10
-682.306079624219
 20
411.6203635071806
 30
0.0
 11
-379.2407211885484
 21
714.6857219428514
 31
0.0
  0
LINE
  5
213
330
1F
100
AcDbEntity
  8
0-0
  6
JWW_DASHED1
 62
   120
370
     5
100
AcDbLine
 10
-682.3060796242105
 20
418.6914313190571
 30
0.0
 11
-386.3117890004253
 21
714.6857219428412
 31
0.0
  0
LINE
  5
214
330
1F
100
AcDbEntity
  8
0-0
  6
JWW_DASHED1
 62
   120
370
     5
100
AcDbLine
 10
-682.3060796242156
 20
425.7624991309183
 30
0.0
 11
-393.3828568122868
 21
714.6857219428471
 31
0.0
  0
LINE
  5
215
330
1F
100
AcDbEntity
  8
0-0
  6
JWW_DASHED1
 62
   120
370
     5
100
AcDbLine
 10
-682.3060796242224
 20
432.8335669427789
 30
0.0
 11
-400.4539246241467
 21
714.6857219428531
 31
0.0
  0
LINE
  5
216
330
1F
100
AcDbEntity
  8
0-0
  6
JWW_DASHED1
 62
   120
370
     5
100
AcDbLine
 10
-682.3060796242122
 20
439.9046347546554
 30
0.0
 11
-407.5249924360236
 21
714.6857219428433
 31
0.0
  0
LINE
  5
217
330
1F
100
AcDbEntity
  8
0-0
  6
JWW_DASHED1
 62
   120
370
     5
100
AcDbLine
 10
-682.306079624219
 20
446.9757025664867
 30
0.0
 11
-414.5960602478544
 21
714.6857219428514
 31
0.0
  0
LINE
  5
218
330
1F
100
AcDbEntity
  8
0-0
  6
JWW_DASHED1
 62
   120
370
     5
100
AcDbLine
 10
-682.3060796242122
 20
454.0467703783338
 30
0.0
 11
-421.6671280597023
 21
714.6857219428437
 31
0.0
  0
LINE
  5
219
330
1F
100
AcDbEntity
  8
0-0
  6
JWW_DASHED1
 62
   120
370
     5
100
AcDbLine
 10
-682.3060796242173
 20
461.1178381901944
 30
0.0
 11
-428.7381958715639
 21
714.6857219428497
 31
0.0
  0
LINE
  5
21A
330
1F
100
AcDbEntity
  8
0-0
  6
JWW_DASHED1
 62
   120
370
     5
100
AcDbLine
 10
-682.3060796242122
 20
468.1889060020671
 30
0.0
 11
-435.8092636834391
 21
714.6857219428395
 31
0.0
  0
LINE
  5
21B
330
1F
100
AcDbEntity
  8
0-0
  6
JWW_DASHED1
 62
   120
370
     5
100
AcDbLine
 10
-682.3060796242139
 20
475.2599738139321
 30
0.0
 11
-442.8803314953007
 21
714.6857219428454
 31
0.0
  0
LINE
  5
21C
330
1F
100
AcDbEntity
  8
0-0
  6
JWW_DASHED1
 62
   120
370
     5
100
AcDbLine
 10
-682.306079624219
 20
482.3310416257927
 30
0.0
 11
-449.9513993071605
 21
714.6857219428514
 31
0.0
  0
LINE
  5
21D
330
1F
100
AcDbEntity
  8
0-0
  6
JWW_DASHED1
 62
   120
370
     5
100
AcDbLine
 10
-682.3060796242139
 20
489.4021094376654
 30
0.0
 11
-457.0224671190374
 21
714.6857219428412
 31
0.0
  0
LINE
  5
21E
330
1F
100
AcDbEntity
  8
0-0
  6
JWW_DASHED1
 62
   120
370
     5
100
AcDbLine
 10
-682.3060796242156
 20
496.4731772495304
 30
0.0
 11
-464.093534930899
 21
714.6857219428471
 31
0.0
  0
LINE
  5
21F
330
1F
100
AcDbEntity
  8
0-0
  6
JWW_DASHED1
 62
   120
370
     5
100
AcDbLine
 10
-682.3060796242224
 20
503.5442450613911
 30
0.0
 11
-471.1646027427588
 21
714.6857219428531
 31
0.0
  0
LINE
  5
220
330
1F
100
AcDbEntity
  8
0-0
  6
JWW_DASHED1
 62
   120
370
     5
100
AcDbLine
 10
-682.3060796242122
 20
510.6153128732675
 30
0.0
 11
-478.2356705546357
 21
714.6857219428433
 31
0.0
  0
LINE
  5
221
330
1F
100
AcDbEntity
  8
0-0
  6
JWW_DASHED1
 62
   120
370
     5
100
AcDbLine
 10
-682.3060796242173
 20
517.6863806851278
 30
0.0
 11
-485.3067383664972
 21
714.6857219428492
 31
0.0
  0
LINE
  5
222
330
1F
100
AcDbEntity
  8
0-0
  6
JWW_DASHED1
 62
   120
370
     5
100
AcDbLine
 10
-682.3060796242241
 20
524.7574484969884
 30
0.0
 11
-492.3778061783622
 21
714.6857219428497
 31
0.0
  0
LINE
  5
223
330
1F
100
AcDbEntity
  8
0-0
  6
JWW_DASHED1
 62
   120
370
     5
100
AcDbLine
 10
-682.3060796242139
 20
531.8285163088653
 30
0.0
 11
-499.4488739902339
 21
714.685721942845
 31
0.0
  0
LINE
  5
224
330
1F
100
AcDbEntity
  8
0-0
  6
JWW_DASHED1
 62
   120
370
     5
100
AcDbLine
 10
-682.3060796242071
 20
538.8995841207388
 30
0.0
 11
-506.5199418021108
 21
714.6857219428351
 31
0.0
  0
LINE
  5
225
330
1F
100
AcDbEntity
  8
0-0
  6
JWW_DASHED1
 62
   120
370
     5
100
AcDbLine
 10
-682.3060796242258
 20
545.9706519325867
 30
0.0
 11
-513.5910096139604
 21
714.6857219428522
 31
0.0
  0
LINE
  5
226
330
1F
100
AcDbEntity
  8
0-0
  6
JWW_DASHED1
 62
   120
370
     5
100
AcDbLine
 10
-682.3060796242156
 20
553.0417197444636
 30
0.0
 11
-520.6620774258322
 21
714.6857219428471
 31
0.0
  0
LINE
  5
227
330
1F
100
AcDbEntity
  8
0-0
  6
JWW_DASHED1
 62
   120
370
     5
100
AcDbLine
 10
-682.3060796242088
 20
560.1127875563376
 30
0.0
 11
-527.7331452377091
 21
714.6857219428368
 31
0.0
  0
LINE
  5
228
330
1F
100
AcDbEntity
  8
0-0
  6
JWW_DASHED1
 62
   120
370
     5
100
AcDbLine
 10
-682.3060796242122
 20
567.1838553682009
 30
0.0
 11
-534.804213049569
 21
714.6857219428429
 31
0.0
  0
LINE
  5
229
330
1F
100
AcDbEntity
  8
0-0
  6
JWW_DASHED1
 62
   120
370
     5
100
AcDbLine
 10
-682.3060796242173
 20
574.2549231800616
 30
0.0
 11
-541.8752808614305
 21
714.6857219428488
 31
0.0
  0
LINE
  5
22A
330
1F
100
AcDbEntity
  8
0-0
  6
JWW_DASHED1
 62
   120
370
     5
100
AcDbLine
 10
-682.3060796242088
 20
581.3259909919364
 30
0.0
 11
-548.9463486733074
 21
714.6857219428385
 31
0.0
  0
LINE
  5
22B
330
1F
100
AcDbEntity
  8
0-0
  6
JWW_DASHED1
 62
   120
370
     5
100
AcDbLine
 10
-682.3060796242139
 20
588.3970588037987
 30
0.0
 11
-556.0174164851672
 21
714.6857219428446
 31
0.0
  0
LINE
  5
22C
330
1F
100
AcDbEntity
  8
0-0
  6
JWW_DASHED1
 62
   120
370
     5
100
AcDbLine
 10
-682.306079624219
 20
595.4681266156599
 30
0.0
 11
-563.0884842970288
 21
714.6857219428505
 31
0.0
  0
LINE
  5
22D
330
1F
100
AcDbEntity
  8
0-0
  6
JWW_DASHED1
 62
   120
370
     5
100
AcDbLine
 10
-682.3060796242105
 20
602.5391944275347
 30
0.0
 11
-570.1595521089057
 21
714.6857219428407
 31
0.0
  0
LINE
  5
22E
330
1F
100
AcDbEntity
  8
0-0
  6
JWW_DASHED1
 62
   120
370
     5
100
AcDbLine
 10
-682.3060796242156
 20
609.610262239397
 30
0.0
 11
-577.2306199207655
 21
714.6857219428463
 31
0.0
  0
LINE
  5
22F
330
1F
100
AcDbEntity
  8
0-0
  6
JWW_DASHED1
 62
   120
370
     5
100
AcDbLine
 10
-682.3060796242207
 20
616.6813300512578
 30
0.0
 11
-584.3016877326271
 21
714.6857219428526
 31
0.0
  0
LINE
  5
230
330
1F
100
AcDbEntity
  8
0-0
  6
JWW_DASHED1
 62
   120
370
     5
100
AcDbLine
 10
-682.3060796242122
 20
623.7523978631347
 30
0.0
 11
-591.372755544504
 21
714.6857219428429
 31
0.0
  0
LINE
  5
231
330
1F
100
AcDbEntity
  8
0-0
  6
JWW_DASHED1
 62
   120
370
     5
100
AcDbLine
 10
-682.3060796242173
 20
630.8234656749953
 30
0.0
 11
-598.4438233563639
 21
714.6857219428488
 31
0.0
  0
LINE
  5
232
330
1F
100
AcDbEntity
  8
0-0
  6
JWW_DASHED1
 62
   120
370
     5
100
AcDbLine
 10
-682.3060796242224
 20
637.8945334868561
 30
0.0
 11
-605.5148911682271
 21
714.6857219428522
 31
0.0
  0
LINE
  5
233
330
1F
100
AcDbEntity
  8
0-0
  6
JWW_DASHED1
 62
   120
370
     5
100
AcDbLine
 10
-682.3060796242122
 20
644.965601298733
 30
0.0
 11
-612.5859589801006
 21
714.6857219428446
 31
0.0
  0
LINE
  5
234
330
1F
100
AcDbEntity
  8
0-0
  6
JWW_DASHED1
 62
   120
370
     5
100
AcDbLine
 10
-682.3060796242037
 20
652.0366691106082
 30
0.0
 11
-619.6570267919775
 21
714.6857219428343
 31
0.0
  0
LINE
  5
235
330
1F
100
AcDbEntity
  8
0-0
  6
JWW_DASHED1
 62
   120
370
     5
100
AcDbLine
 10
-682.3060796242258
 20
659.1077369224544
 30
0.0
 11
-626.7280946038237
 21
714.6857219428548
 31
0.0
  0
LINE
  5
236
330
1F
100
AcDbEntity
  8
0-0
  6
JWW_DASHED1
 62
   120
370
     5
100
AcDbLine
 10
-682.3060796242156
 20
666.1788047343304
 30
0.0
 11
-633.7991624156989
 21
714.6857219428463
 31
0.0
  0
LINE
  5
237
330
1F
100
AcDbEntity
  8
0-0
  6
JWW_DASHED1
 62
   120
370
     5
100
AcDbLine
 10
-682.3060796242054
 20
673.2498725462069
 30
0.0
 11
-640.8702302275758
 21
714.6857219428368
 31
0.0
  0
LINE
  5
238
330
1F
100
AcDbEntity
  8
0-0
  6
JWW_DASHED1
 62
   120
370
     5
100
AcDbLine
 10
-682.3060796242105
 20
680.320940358068
 30
0.0
 11
-647.9412980394374
 21
714.6857219428424
 31
0.0
  0
LINE
  5
239
330
1F
100
AcDbEntity
  8
0-0
  6
JWW_DASHED1
 62
   120
370
     5
100
AcDbLine
 10
-682.3060796242173
 20
687.3920081699291
 30
0.0
 11
-655.0123658512972
 21
714.6857219428484
 31
0.0
  0
LINE
  5
23A
330
1F
100
AcDbEntity
  8
0-0
  6
JWW_DASHED1
 62
   120
370
     5
100
AcDbLine
 10
-682.3060796242071
 20
694.4630759818052
 30
0.0
 11
-662.0834336631741
 21
714.6857219428385
 31
0.0
  0
LINE
  5
23B
330
1F
100
AcDbEntity
  8
0-0
  6
JWW_DASHED1
 62
   120
370
     5
100
AcDbLine
 10
-682.3060796242122
 20
701.5341437936663
 30
0.0
 11
-669.154501475034
 21
714.6857219428446
 31
0.0
  0
LINE
  5
23C
330
1F
100
AcDbEntity
  8
0-0
  6
JWW_DASHED1
 62
   120
370
     5
100
AcDbLine
 10
-682.306079624219
 20
708.605211605527
 30
0.0
 11
-676.2255692868955
 21
714.6857219428505
 31
0.0
  0
LINE
  5
23D
330
1F
100
AcDbEntity
  8
寸法
  6
Continuous
 62
   120
370
     5
100
AcDbLine
 10
-1319.306079624211
 20
-1341.814278057157
 30
0.0
 11
-869.306079624211
 21
-1341.814278057157
 31
0.0
  0
LWPOLYLINE
  5
23E
330
1F
100
AcDbEntity
  8
寸法
  6
Continuous
 62
     7
370
     9
100
AcDbPolyline
 90
        4
 70
     1
 43
3.0
 10
-1317.806079624211
 20
-1341.814278057157
 42
0.4142135623731
 10
-1319.306079624211
 20
-1340.314278057157
 42
0.4142135623731
 10
-1320.806079624211
 20
-1341.814278057157
 42
0.4142135623731
 10
-1319.306079624211
 20
-1343.314278057157
 42
0.4142135623731
  0
LINE
  5
23F
330
1F
100
AcDbEntity
  8
寸法
  6
Continuous
 62
   120
370
     5
100
AcDbLine
 10
-789.3060796242104
 20
-1791.814278057157
 30
0.0
 11
-789.3060796242104
 21
-1391.814278057157
 31
0.0
  0
LINE
  5
240
330
1F
100
AcDbEntity
  8
寸法
  6
Continuous
 62
   120
370
     5
100
AcDbLine
 10
-819.3060796242104
 20
-1991.814278057157
 30
0.0
 11
-819.3060796242104
 21
-1391.814278057157
 31
0.0
  0
LINE
  5
241
330
1F
100
AcDbEntity
  8
寸法
  6
Continuous
 62
   120
370
     5
100
AcDbLine
 10
797.6939203757887
 20
-1591.814278057157
 30
0.0
 11
797.6939203757887
 21
-1391.814278057157
 31
0.0
  0
LINE
  5
242
330
1F
100
AcDbEntity
  8
寸法
  6
Continuous
 62
   120
370
     5
100
AcDbLine
 10
-789.3060796242104
 20
-1791.814278057157
 30
0.0
 11
794.693920375788
 21
-1791.814278057157
 31
0.0
  0
LINE
  5
243
330
1F
100
AcDbEntity
  8
寸法
  6
Continuous
 62
   120
370
     5
100
AcDbLine
 10
794.693920375788
 20
-1791.814278057157
 30
0.0
 11
794.693920375788
 21
-1391.814278057157
 31
0.0
  0
LINE
  5
244
330
1F
100
AcDbEntity
  8
寸法
  6
Continuous
 62
   120
370
     5
100
AcDbLine
 10
-819.3060796242104
 20
-1991.814278057157
 30
0.0
 11
824.693920375788
 21
-1991.814278057157
 31
0.0
  0
LINE
  5
245
330
1F
100
AcDbEntity
  8
寸法
  6
Continuous
 62
   120
370
     5
100
AcDbLine
 10
824.693920375788
 20
-1991.814278057157
 30
0.0
 11
824.693920375788
 21
-1391.814278057157
 31
0.0
  0
LINE
  5
246
330
1F
100
AcDbEntity
  8
寸法
  6
Continuous
 62
   120
370
     5
100
AcDbLine
 10
-12.30607962421116
 20
-1591.814278057157
 30
0.0
 11
-12.30607962421116
 21
-1391.814278057157
 31
0.0
  0
LINE
  5
247
330
1F
100
AcDbEntity
  8
寸法
  6
Continuous
 62
   120
370
     5
100
AcDbLine
 10
-12.30607962421116
 20
-1591.814278057157
 30
0.0
 11
797.6939203757887
 21
-1591.814278057157
 31
0.0
  0
LWPOLYLINE
  5
248
330
1F
100
AcDbEntity
  8
寸法
  6
Continuous
 62
     7
370
     9
100
AcDbPolyline
 90
        4
 70
     1
 43
3.0
 10
-787.8060796242104
 20
-1791.814278057157
 42
0.4142135623731
 10
-789.3060796242104
 20
-1790.314278057157
 42
0.4142135623731
 10
-790.8060796242105
 20
-1791.814278057157
 42
0.4142135623731
 10
-789.3060796242104
 20
-1793.314278057157
 42
0.4142135623731
  0
LWPOLYLINE
  5
249
330
1F
100
AcDbEntity
  8
寸法
  6
Continuous
 62
     7
370
     9
100
AcDbPolyline
 90
        4
 70
     1
 43
3.0
 10
-817.8060796242104
 20
-1991.814278057157
 42
0.4142135623731
 10
-819.3060796242104
 20
-1990.314278057157
 42
0.4142135623731
 10
-820.8060796242105
 20
-1991.814278057157
 42
0.4142135623731
 10
-819.3060796242104
 20
-1993.314278057157
 42
0.4142135623731
  0
LWPOLYLINE
  5
24A
330
1F
100
AcDbEntity
  8
寸法
  6
Continuous
 62
     7
370
     9
100
AcDbPolyline
 90
        4
 70
     1
 43
3.0
 10
799.1939203757887
 20
-1591.814278057157
 42
0.4142135623731
 10
797.6939203757887
 20
-1590.314278057157
 42
0.4142135623731
 10
796.1939203757887
 20
-1591.814278057157
 42
0.4142135623731
 10
797.6939203757887
 20
-1593.314278057157
 42
0.4142135623731
  0
LWPOLYLINE
  5
24B
330
1F
100
AcDbEntity
  8
寸法
  6
Continuous
 62
     7
370
     9
100
AcDbPolyline
 90
        4
 70
     1
 43
3.0
 10
796.193920375788
 20
-1791.814278057157
 42
0.4142135623731
 10
794.693920375788
 20
-1790.314278057157
 42
0.4142135623731
 10
793.193920375788
 20
-1791.814278057157
 42
0.4142135623731
 10
794.693920375788
 20
-1793.314278057157
 42
0.4142135623731
  0
LWPOLYLINE
  5
24C
330
1F
100
AcDbEntity
  8
寸法
  6
Continuous
 62
     7
370
     9
100
AcDbPolyline
 90
        4
 70
     1
 43
3.0
 10
826.193920375788
 20
-1991.814278057157
 42
0.4142135623731
 10
824.693920375788
 20
-1990.314278057157
 42
0.4142135623731
 10
823.193920375788
 20
-1991.814278057157
 42
0.4142135623731
 10
824.693920375788
 20
-1993.314278057157
 42
0.4142135623731
  0
LWPOLYLINE
  5
24D
330
1F
100
AcDbEntity
  8
寸法
  6
Continuous
 62
     7
370
     9
100
AcDbPolyline
 90
        4
 70
     1
 43
3.0
 10
-10.80607962421116
 20
-1591.814278057157
 42
0.4142135623731
 10
-12.30607962421116
 20
-1590.314278057157
 42
0.4142135623731
 10
-13.80607962421116
 20
-1591.814278057157
 42
0.4142135623731
 10
-12.30607962421116
 20
-1593.314278057157
 42
0.4142135623731
  0
LINE
  5
24E
330
1F
100
AcDbEntity
  8
寸法
  6
Continuous
 62
   120
370
     5
100
AcDbLine
 10
-1119.30607962421
 20
-1333.314278057157
 30
0.0
 11
-869.306079624211
 21
-1333.314278057157
 31
0.0
  0
LWPOLYLINE
  5
24F
330
1F
100
AcDbEntity
  8
寸法
  6
Continuous
 62
     7
370
     9
100
AcDbPolyline
 90
        4
 70
     1
 43
3.0
 10
-1117.80607962421
 20
-1333.314278057157
 42
0.4142135623731
 10
-1119.30607962421
 20
-1331.814278057157
 42
0.4142135623731
 10
-1120.80607962421
 20
-1333.314278057157
 42
0.4142135623731
 10
-1119.30607962421
 20
-1334.814278057157
 42
0.4142135623731
  0
LINE
  5
250
330
1F
100
AcDbEntity
  8
寸法
  6
Continuous
 62
   120
370
     5
100
AcDbLine
 10
-1319.306079624211
 20
893.6857219428438
 30
0.0
 11
-1319.306079624211
 21
-1341.814278057157
 31
0.0
  0
LINE
  5
251
330
1F
100
AcDbEntity
  8
寸法
  6
Continuous
 62
   120
370
     5
100
AcDbLine
 10
-1319.306079624211
 20
893.6857219428438
 30
0.0
 11
-869.306079624211
 21
893.6857219428438
 31
0.0
  0
LWPOLYLINE
  5
252
330
1F
100
AcDbEntity
  8
寸法
  6
Continuous
 62
     7
370
     9
100
AcDbPolyline
 90
        4
 70
     1
 43
3.0
 10
-1317.806079624211
 20
893.6857219428438
 42
0.4142135623731
 10
-1319.306079624211
 20
895.1857219428438
 42
0.4142135623731
 10
-1320.806079624211
 20
893.6857219428438
 42
0.4142135623731
 10
-1319.306079624211
 20
892.1857219428438
 42
0.4142135623731
  0
LINE
  5
253
330
1F
100
AcDbEntity
  8
寸法
  6
Continuous
 62
   120
370
     5
100
AcDbLine
 10
-1119.30607962421
 20
849.6857219428429
 30
0.0
 11
-869.306079624211
 21
849.6857219428429
 31
0.0
  0
LINE
  5
254
330
1F
100
AcDbEntity
  8
寸法
  6
Continuous
 62
   120
370
     5
100
AcDbLine
 10
-1119.30607962421
 20
849.6857219428429
 30
0.0
 11
-1119.30607962421
 21
-1333.314278057157
 31
0.0
  0
LWPOLYLINE
  5
255
330
1F
100
AcDbEntity
  8
寸法
  6
Continuous
 62
     7
370
     9
100
AcDbPolyline
 90
        4
 70
     1
 43
3.0
 10
-1117.80607962421
 20
849.6857219428429
 42
0.4142135623731
 10
-1119.30607962421
 20
851.1857219428429
 42
0.4142135623731
 10
-1120.80607962421
 20
849.6857219428429
 42
0.4142135623731
 10
-1119.30607962421
 20
848.1857219428429
 42
0.4142135623731
  0
MTEXT
  5
256
330
1F
100
AcDbEntity
  8
寸法
  6
Continuous
 62
     7
370
    70
100
AcDbMText
 10
-1334.306079624211
 20
-453.9892780571575
 30
0.0
 40
57.14999999999999
 41
412.5
 46
0.0
 71
     7
 72
     1
  1
{\fＭＳ ゴシック|b0|i0|c128|p49;枠外＝2,235}
 11
6.123031769111886E-17
 21
1.0
 31
0.0
 73
     1
 44
1.0
  0
MTEXT
  5
257
330
1F
100
AcDbEntity
  8
寸法
  6
Continuous
 62
     7
370
    70
100
AcDbMText
 10
-1134.30607962421
 20
-459.9892780571567
 30
0.0
 40
57.14999999999999
 41
412.5
 46
0.0
 71
     7
 72
     1
  1
{\fＭＳ ゴシック|b0|i0|c128|p49;ＤＨ＝2,183}
 11
6.123031769111886E-17
 21
1.0
 31
0.0
 73
     1
 44
1.0
  0
MTEXT
  5
258
330
1F
100
AcDbEntity
  8
寸法
  6
Continuous
 62
     7
370
   211
100
AcDbMText
 10
223.9439203757888
 20
-1585.739278057157
 30
0.0
 40
57.15000000000002
 41
337.5000000000001
 46
0.0
 71
     7
 72
     1
  1
{\fＭＳ ゴシック|b0|i0|c128|p49;ＤＷ＝810}
 73
     1
 44
1.0
  0
MTEXT
  5
259
330
1F
100
AcDbEntity
  8
寸法
  6
Continuous
 62
     7
370
   211
100
AcDbMText
 10
-203.5560796242111
 20
-1785.739278057157
 30
0.0
 40
57.14999999999999
 41
412.5
 46
0.0
 71
     7
 72
     1
  1
{\fＭＳ ゴシック|b0|i0|c128|p49;枠内＝1,584}
 73
     1
 44
1.0
  0
MTEXT
  5
25A
330
1F
100
AcDbEntity
  8
寸法
  6
Continuous
 62
     7
370
   211
100
AcDbMText
 10
-203.5560796242111
 20
-1985.739278057157
 30
0.0
 40
57.14999999999999
 41
412.5
 46
0.0
 71
     7
 72
     1
  1
{\fＭＳ ゴシック|b0|i0|c128|p49;枠外＝1,644}
 73
     1
 44
1.0
  0
MTEXT
  5
25B
330
1F
100
AcDbEntity
  8
文字
  6
Continuous
 62
     7
370
     9
100
AcDbMText
 10
-1469.306079624213
 20
1206.169103883057
 30
0.0
 40
45.71999999999998
 41
1620.0
 46
0.0
 71
     7
 72
     1
  1
{\fＭＳ ゴシック|b0|i0|c128|p49;※ＣＨは縦木目柄、ＣＹは横木目柄のデザインとなります。}
 73
     1
 44
1.0
  0
ENDSEC
  0
SECTION
  2
OBJECTS
  0
DICTIONARY
  5
C
330
0
100
AcDbDictionary
281
     1
  3
ACAD_GROUP
350
D
  3
ACAD_LAYOUT
350
1A
  3
ACAD_MATERIAL
350
3B
  3
ACAD_MLEADERSTYLE
350
25D
  3
ACAD_MLINESTYLE
350
17
  3
ACAD_PLOTSETTINGS
350
19
  3
ACAD_PLOTSTYLENAME
350
E
  3
ACAD_TABLESTYLE
350
25C
  3
ACAD_VISUALSTYLE
350
2A
  0
DICTIONARY
  5
D
102
{ACAD_REACTORS
330
C
102
}
330
C
100
AcDbDictionary
281
     1
  0
DICTIONARY
  5
1A
102
{ACAD_REACTORS
330
C
102
}
330
C
100
AcDbDictionary
281
     1
  3
Layout1
350
1E
  3
Layout2
350
26
  3
Model
350
22
  0
DICTIONARY
  5
3B
102
{ACAD_REACTORS
330
C
102
}
330
C
100
AcDbDictionary
281
     1
  3
ByBlock
350
3D
  3
ByLayer
350
3C
  3
Global
350
3E
  0
DICTIONARY
  5
25D
102
{ACAD_REACTORS
330
C
102
}
330
C
100
AcDbDictionary
281
     1
  0
DICTIONARY
  5
17
102
{ACAD_REACTORS
330
C
102
}
330
C
100
AcDbDictionary
281
     1
  3
Standard
350
18
  0
DICTIONARY
  5
19
102
{ACAD_REACTORS
330
C
102
}
330
C
100
AcDbDictionary
281
     1
  0
ACDBDICTIONARYWDFLT
  5
E
102
{ACAD_REACTORS
330
C
102
}
330
C
100
AcDbDictionary
281
     1
  3
Normal
350
F
100
AcDbDictionaryWithDefault
340
F
  0
DICTIONARY
  5
25C
102
{ACAD_REACTORS
330
C
102
}
330
C
100
AcDbDictionary
281
     1
  0
DICTIONARY
  5
2A
102
{ACAD_REACTORS
330
C
102
}
330
C
100
AcDbDictionary
281
     1
  3
2dWireframe
350
2F
  3
3D Hidden
350
31
  3
3dWireframe
350
30
  3
Basic
350
32
  3
Brighten
350
36
  3
ColorChange
350
3A
  3
Conceptual
350
34
  3
Dim
350
35
  3
Facepattern
350
39
  3
Flat
350
2B
  3
FlatWithEdges
350
2C
  3
Gouraud
350
2D
  3
GouraudWithEdges
350
2E
  3
Linepattern
350
38
  3
Realistic
350
33
  3
Thicken
350
37
  0
LAYOUT
  5
1E
102
{ACAD_REACTORS
330
1A
102
}
330
1A
100
AcDbPlotSettings
  1

  2
none_device
  4

  6

 40
0.0
 41
0.0
 42
0.0
 43
0.0
 44
0.0
 45
0.0
 46
0.0
 47
0.0
 48
0.0
 49
0.0
140
0.0
141
0.0
142
1.0
143
1.0
 70
   688
 72
     0
 73
     0
 74
     5
  7

 75
    16
 76
     0
 77
     5
 78
   300
147
1.0
148
0.0
149
0.0
100
AcDbLayout
  1
Layout1
 70
     1
 71
     1
 10
0.0
 20
0.0
 11
420.0
 21
297.0
 12
0.0
 22
0.0
 32
0.0
 14
1.000000000000000E+20
 24
1.000000000000000E+20
 34
1.000000000000000E+20
 15
-1.000000000000000E+20
 25
-1.000000000000000E+20
 35
-1.000000000000000E+20
146
0.0
 13
0.0
 23
0.0
 33
0.0
 16
1.0
 26
0.0
 36
0.0
 17
0.0
 27
1.0
 37
0.0
 76
     0
330
1B
  0
LAYOUT
  5
26
102
{ACAD_REACTORS
330
1A
102
}
330
1A
100
AcDbPlotSettings
  1

  2
none_device
  4

  6

 40
0.0
 41
0.0
 42
0.0
 43
0.0
 44
0.0
 45
0.0
 46
0.0
 47
0.0
 48
0.0
 49
0.0
140
0.0
141
0.0
142
1.0
143
1.0
 70
   688
 72
     0
 73
     0
 74
     5
  7

 75
    16
 76
     0
 77
     5
 78
   300
147
1.0
148
0.0
149
0.0
100
AcDbLayout
  1
Layout2
 70
     1
 71
     2
 10
0.0
 20
0.0
 11
0.0
 21
0.0
 12
0.0
 22
0.0
 32
0.0
 14
0.0
 24
0.0
 34
0.0
 15
0.0
 25
0.0
 35
0.0
146
0.0
 13
0.0
 23
0.0
 33
0.0
 16
1.0
 26
0.0
 36
0.0
 17
0.0
 27
1.0
 37
0.0
 76
     0
330
23
  0
LAYOUT
  5
22
102
{ACAD_REACTORS
330
1A
102
}
330
1A
100
AcDbPlotSettings
  1

  2
none_device
  4

  6

 40
0.0
 41
0.0
 42
0.0
 43
0.0
 44
0.0
 45
0.0
 46
0.0
 47
0.0
 48
0.0
 49
0.0
140
0.0
141
0.0
142
1.0
143
1.0
 70
  1712
 72
     0
 73
     0
 74
     0
  7

 75
     0
 76
     0
 77
     5
 78
   300
147
1.0
148
0.0
149
0.0
100
AcDbLayout
  1
Model
 70
     1
 71
     0
 10
-4455.0
 20
-3150.0
 11
4455.0
 21
3150.0
 12
0.0
 22
0.0
 32
0.0
 14
-4455.0
 24
-3150.0
 34
0.0
 15
4455.0
 25
3150.0
 35
0.0
146
0.0
 13
0.0
 23
0.0
 33
0.0
 16
1.0
 26
0.0
 36
0.0
 17
0.0
 27
1.0
 37
0.0
 76
     0
330
1F
331
29
  0
MATERIAL
  5
3D
102
{ACAD_REACTORS
330
3B
102
}
330
3B
100
AcDbMaterial
  1
ByBlock
 72
     1
 94
      127
  0
MATERIAL
  5
3C
102
{ACAD_REACTORS
330
3B
102
}
330
3B
100
AcDbMaterial
  1
ByLayer
 72
     1
 94
      127
  0
MATERIAL
  5
3E
102
{ACAD_REACTORS
330
3B
102
}
330
3B
100
AcDbMaterial
  1
Global
 72
     1
 94
      127
  0
MLINESTYLE
  5
18
102
{ACAD_REACTORS
330
17
102
}
330
17
100
AcDbMlineStyle
  2
Standard
 70
     0
  3

 62
   256
 51
90.0
 52
90.0
 71
     2
 49
0.5
 62
   256
  6
BYLAYER
 49
-0.5
 62
   256
  6
BYLAYER
  0
ACDBPLACEHOLDER
  5
F
102
{ACAD_REACTORS
330
E
102
}
330
E
  0
VISUALSTYLE
  5
2F
102
{ACAD_REACTORS
330
2A
102
}
330
2A
100
AcDbVisualStyle
  2
2dWireframe
 70
     4
177
     2
291
     0
 71
     0
176
     1
 72
     2
176
     1
 73
     0
176
     1
 90
        0
176
     1
 40
-0.6
176
     1
 41
-30.0
176
     1
 62
     5
 63
     7
421
 16777215
176
     1
 74
     1
176
     1
 91
        4
176
     1
 64
     7
176
     1
 65
   257
176
     1
 75
     1
176
     1
175
     1
176
     1
 42
1.0
176
     1
 92
        0
176
     1
 66
   257
176
     1
 43
1.0
176
     1
 76
     1
176
     1
 77
     6
176
     1
 78
     2
176
     1
 67
     7
176
     1
 79
     5
176
     1
170
     0
176
     1
171
     0
176
     1
290
     0
176
     1
 93
        1
176
     1
 44
0.0
176
     1
173
     0
176
     1
  0
VISUALSTYLE
  5
31
102
{ACAD_REACTORS
330
2A
102
}
330
2A
100
AcDbVisualStyle
  2
3D Hidden
 70
     6
177
     2
291
     0
 71
     1
176
     1
 72
     2
176
     1
 73
     2
176
     1
 90
        0
176
     1
 40
-0.6
176
     1
 41
-30.0
176
     1
 62
     5
 63
     7
421
 16777215
176
     1
 74
     2
176
     1
 91
        2
176
     1
 64
     7
176
     1
 65
   257
176
     1
 75
     2
176
     1
175
     1
176
     1
 42
40.0
176
     1
 92
        0
176
     1
 66
   257
176
     1
 43
1.0
176
     1
 76
     1
176
     1
 77
     6
176
     1
 78
     2
176
     1
 67
     7
176
     1
 79
     3
176
     1
170
     0
176
     1
171
     0
176
     1
290
     0
176
     1
 93
        1
176
     1
 44
0.0
176
     1
173
     0
176
     1
  0
VISUALSTYLE
  5
30
102
{ACAD_REACTORS
330
2A
102
}
330
2A
100
AcDbVisualStyle
  2
3dWireframe
 70
     5
177
     2
291
     0
 71
     0
176
     1
 72
     2
176
     1
 73
     0
176
     1
 90
        0
176
     1
 40
-0.6
176
     1
 41
-30.0
176
     1
 62
     5
 63
     7
421
 16777215
176
     1
 74
     1
176
     1
 91
        4
176
     1
 64
     7
176
     1
 65
   257
176
     1
 75
     1
176
     1
175
     1
176
     1
 42
1.0
176
     1
 92
        0
176
     1
 66
   257
176
     1
 43
1.0
176
     1
 76
     1
176
     1
 77
     6
176
     1
 78
     2
176
     1
 67
     7
176
     1
 79
     5
176
     1
170
     0
176
     1
171
     0
176
     1
290
     0
176
     1
 93
        1
176
     1
 44
0.0
176
     1
173
     0
176
     1
  0
VISUALSTYLE
  5
32
102
{ACAD_REACTORS
330
2A
102
}
330
2A
100
AcDbVisualStyle
  2
Basic
 70
     7
177
     2
291
     1
 71
     1
176
     1
 72
     0
176
     1
 73
     1
176
     1
 90
        0
176
     1
 40
-0.6
176
     1
 41
-30.0
176
     1
 62
     5
 63
     7
421
 16777215
176
     1
 74
     0
176
     1
 91
        4
176
     1
 64
     7
176
     1
 65
   257
176
     1
 75
     1
176
     1
175
     1
176
     1
 42
1.0
176
     1
 92
        8
176
     1
 66
     7
176
     1
 43
1.0
176
     1
 76
     1
176
     1
 77
     6
176
     1
 78
     2
176
     1
 67
     7
176
     1
 79
     5
176
     1
170
     0
176
     1
171
     0
176
     1
290
     0
176
     1
 93
        1
176
     1
 44
0.0
176
     1
173
     0
176
     1
  0
VISUALSTYLE
  5
36
102
{ACAD_REACTORS
330
2A
102
}
330
2A
100
AcDbVisualStyle
  2
Brighten
 70
    12
177
     2
291
     1
 71
     2
176
     1
 72
     2
176
     1
 73
     0
176
     1
 90
        0
176
     1
 40
-0.6
176
     1
 41
-30.0
176
     1
 62
     5
 63
     7
421
 16777215
176
     1
 74
     1
176
     1
 91
        4
176
     1
 64
     7
176
     1
 65
   257
176
     1
 75
     1
176
     1
175
     1
176
     1
 42
1.0
176
     1
 92
        8
176
     1
 66
     7
176
     1
 43
1.0
176
     1
 76
     1
176
     1
 77
     6
176
     1
 78
     2
176
     1
 67
     7
176
     1
 79
     5
176
     1
170
     0
176
     1
171
     0
176
     1
290
     0
176
     1
 93
        1
176
     1
 44
50.0
176
     1
173
     0
176
     1
  0
VISUALSTYLE
  5
3A
102
{ACAD_REACTORS
330
2A
102
}
330
2A
100
AcDbVisualStyle
  2
ColorChange
 70
    16
177
     2
291
     1
 71
     2
176
     1
 72
     2
176
     1
 73
     3
176
     1
 90
        0
176
     1
 40
-0.6
176
     1
 41
-30.0
176
     1
 62
     5
 63
     8
421
  8421504
176
     1
 74
     1
176
     1
 91
        4
176
     1
 64
     7
176
     1
 65
   257
176
     1
 75
     1
176
     1
175
     1
176
     1
 42
1.0
176
     1
 92
        8
176
     1
 66
     8
424
  8421504
176
     1
 43
1.0
176
     1
 76
     1
176
     1
 77
     6
176
     1
 78
     2
176
     1
 67
     7
176
     1
 79
     5
176
     1
170
     0
176
     1
171
     0
176
     1
290
     0
176
     1
 93
        1
176
     1
 44
0.0
176
     1
173
     0
176
     1
  0
VISUALSTYLE
  5
34
102
{ACAD_REACTORS
330
2A
102
}
330
2A
100
AcDbVisualStyle
  2
Conceptual
 70
     9
177
     2
291
     0
 71
     3
176
     1
 72
     2
176
     1
 73
     0
176
     1
 90
        0
176
     1
 40
-0.6
176
     1
 41
-30.0
176
     1
 62
     5
 63
     7
421
 16777215
176
     1
 74
     2
176
     1
 91
        2
176
     1
 64
     7
176
     1
 65
   257
176
     1
 75
     1
176
     1
175
     1
176
     1
 42
40.0
176
     1
 92
        8
176
     1
 66
     7
176
     1
 43
1.0
176
     1
 76
     1
176
     1
 77
     6
176
     1
 78
     2
176
     1
 67
     7
176
     1
 79
     3
176
     1
170
     0
176
     1
171
     0
176
     1
290
     0
176
     1
 93
        1
176
     1
 44
0.0
176
     1
173
     0
176
     1
  0
VISUALSTYLE
  5
35
102
{ACAD_REACTORS
330
2A
102
}
330
2A
100
AcDbVisualStyle
  2
Dim
 70
    11
177
     2
291
     1
 71
     2
176
     1
 72
     2
176
     1
 73
     0
176
     1
 90
        0
176
     1
 40
-0.6
176
     1
 41
-30.0
176
     1
 62
     5
 63
     7
421
 16777215
176
     1
 74
     1
176
     1
 91
        4
176
     1
 64
     7
176
     1
 65
   257
176
     1
 75
     1
176
     1
175
     1
176
     1
 42
1.0
176
     1
 92
        8
176
     1
 66
     7
176
     1
 43
1.0
176
     1
 76
     1
176
     1
 77
     6
176
     1
 78
     2
176
     1
 67
     7
176
     1
 79
     5
176
     1
170
     0
176
     1
171
     0
176
     1
290
     0
176
     1
 93
        1
176
     1
 44
-50.0
176
     1
173
     0
176
     1
  0
VISUALSTYLE
  5
39
102
{ACAD_REACTORS
330
2A
102
}
330
2A
100
AcDbVisualStyle
  2
Facepattern
 70
    15
177
     2
291
     1
 71
     2
176
     1
 72
     2
176
     1
 73
     0
176
     1
 90
        0
176
     1
 40
-0.6
176
     1
 41
-30.0
176
     1
 62
     5
 63
     7
421
 16777215
176
     1
 74
     1
176
     1
 91
        4
176
     1
 64
     7
176
     1
 65
   257
176
     1
 75
     1
176
     1
175
     1
176
     1
 42
1.0
176
     1
 92
        8
176
     1
 66
     7
176
     1
 43
1.0
176
     1
 76
     1
176
     1
 77
     6
176
     1
 78
     2
176
     1
 67
     7
176
     1
 79
     5
176
     1
170
     0
176
     1
171
     0
176
     1
290
     0
176
     1
 93
        1
176
     1
 44
0.0
176
     1
173
     0
176
     1
  0
VISUALSTYLE
  5
2B
102
{ACAD_REACTORS
330
2A
102
}
330
2A
100
AcDbVisualStyle
  2
Flat
 70
     0
177
     2
291
     1
 71
     2
176
     1
 72
     1
176
     1
 73
     1
176
     1
 90
        2
176
     1
 40
-0.6
176
     1
 41
30.0
176
     1
 62
     5
 63
     7
421
 16777215
176
     1
 74
     0
176
     1
 91
        4
176
     1
 64
     7
176
     1
 65
   257
176
     1
 75
     1
176
     1
175
     1
176
     1
 42
1.0
176
     1
 92
        8
176
     1
 66
     7
176
     1
 43
1.0
176
     1
 76
     1
176
     1
 77
     6
176
     1
 78
     2
176
     1
 67
     7
176
     1
 79
     5
176
     1
170
     0
176
     1
171
     0
176
     1
290
     0
176
     1
 93
       13
176
     1
 44
0.0
176
     1
173
     0
176
     1
  0
VISUALSTYLE
  5
2C
102
{ACAD_REACTORS
330
2A
102
}
330
2A
100
AcDbVisualStyle
  2
FlatWithEdges
 70
     1
177
     2
291
     1
 71
     2
176
     1
 72
     1
176
     1
 73
     1
176
     1
 90
        2
176
     1
 40
-0.6
176
     1
 41
30.0
176
     1
 62
     5
 63
     7
421
 16777215
176
     1
 74
     1
176
     1
 91
        4
176
     1
 64
     7
176
     1
 65
   257
176
     1
 75
     1
176
     1
175
     1
176
     1
 42
1.0
176
     1
 92
        0
176
     1
 66
   257
176
     1
 43
1.0
176
     1
 76
     1
176
     1
 77
     6
176
     1
 78
     2
176
     1
 67
     7
176
     1
 79
     5
176
     1
170
     0
176
     1
171
     0
176
     1
290
     0
176
     1
 93
       13
176
     1
 44
0.0
176
     1
173
     0
176
     1
  0
VISUALSTYLE
  5
2D
102
{ACAD_REACTORS
330
2A
102
}
330
2A
100
AcDbVisualStyle
  2
Gouraud
 70
     2
177
     2
291
     1
 71
     2
176
     1
 72
     2
176
     1
 73
     1
176
     1
 90
        2
176
     1
 40
-0.6
176
     1
 41
30.0
176
     1
 62
     5
 63
     7
421
 16777215
176
     1
 74
     0
176
     1
 91
        4
176
     1
 64
     7
176
     1
 65
   257
176
     1
 75
     1
176
     1
175
     1
176
     1
 42
1.0
176
     1
 92
        0
176
     1
 66
     7
176
     1
 43
1.0
176
     1
 76
     1
176
     1
 77
     6
176
     1
 78
     2
176
     1
 67
     7
176
     1
 79
     5
176
     1
170
     0
176
     1
171
     0
176
     1
290
     0
176
     1
 93
       13
176
     1
 44
0.0
176
     1
173
     0
176
     1
  0
VISUALSTYLE
  5
2E
102
{ACAD_REACTORS
330
2A
102
}
330
2A
100
AcDbVisualStyle
  2
GouraudWithEdges
 70
     3
177
     2
291
     1
 71
     2
176
     1
 72
     2
176
     1
 73
     1
176
     1
 90
        2
176
     1
 40
-0.6
176
     1
 41
30.0
176
     1
 62
     5
 63
     7
421
 16777215
176
     1
 74
     1
176
     1
 91
        4
176
     1
 64
     7
176
     1
 65
   257
176
     1
 75
     1
176
     1
175
     1
176
     1
 42
1.0
176
     1
 92
        0
176
     1
 66
   257
176
     1
 43
1.0
176
     1
 76
     1
176
     1
 77
     6
176
     1
 78
     2
176
     1
 67
     7
176
     1
 79
     5
176
     1
170
     0
176
     1
171
     0
176
     1
290
     0
176
     1
 93
       13
176
     1
 44
0.0
176
     1
173
     0
176
     1
  0
VISUALSTYLE
  5
38
102
{ACAD_REACTORS
330
2A
102
}
330
2A
100
AcDbVisualStyle
  2
Linepattern
 70
    14
177
     2
291
     1
 71
     2
176
     1
 72
     2
176
     1
 73
     0
176
     1
 90
        0
176
     1
 40
-0.6
176
     1
 41
-30.0
176
     1
 62
     5
 63
     7
421
 16777215
176
     1
 74
     1
176
     1
 91
        4
176
     1
 64
     7
176
     1
 65
   257
176
     1
 75
     7
176
     1
175
     7
176
     1
 42
1.0
176
     1
 92
        8
176
     1
 66
     7
176
     1
 43
1.0
176
     1
 76
     1
176
     1
 77
     6
176
     1
 78
     2
176
     1
 67
     7
176
     1
 79
     5
176
     1
170
     0
176
     1
171
     0
176
     1
290
     0
176
     1
 93
        1
176
     1
 44
0.0
176
     1
173
     0
176
     1
  0
VISUALSTYLE
  5
33
102
{ACAD_REACTORS
330
2A
102
}
330
2A
100
AcDbVisualStyle
  2
Realistic
 70
     8
177
     2
291
     0
 71
     2
176
     1
 72
     2
176
     1
 73
     0
176
     1
 90
        0
176
     1
 40
-0.6
176
     1
 41
-30.0
176
     1
 62
     5
 63
     7
421
 16777215
176
     1
 74
     1
176
     1
 91
        0
176
     1
 64
     7
176
     1
 65
   257
176
     1
 75
     1
176
     1
175
     1
176
     1
 42
1.0
176
     1
 92
        8
176
     1
 66
     8
424
  7895160
176
     1
 43
1.0
176
     1
 76
     1
176
     1
 77
     6
176
     1
 78
     2
176
     1
 67
     7
176
     1
 79
     5
176
     1
170
     0
176
     1
171
     0
176
     1
290
     0
176
     1
 93
       13
176
     1
 44
0.0
176
     1
173
     0
176
     1
  0
VISUALSTYLE
  5
37
102
{ACAD_REACTORS
330
2A
102
}
330
2A
100
AcDbVisualStyle
  2
Thicken
 70
    13
177
     2
291
     1
 71
     2
176
     1
 72
     2
176
     1
 73
     0
176
     1
 90
        0
176
     1
 40
-0.6
176
     1
 41
-30.0
176
     1
 62
     5
 63
     7
421
 16777215
176
     1
 74
     1
176
     1
 91
        4
176
     1
 64
     7
176
     1
 65
   257
176
     1
 75
     1
176
     1
175
     1
176
     1
 42
1.0
176
     1
 92
       12
176
     1
 66
     7
176
     1
 43
1.0
176
     1
 76
     1
176
     1
 77
     6
176
     1
 78
     2
176
     1
 67
     7
176
     1
 79
     5
176
     1
170
     0
176
     1
171
     0
176
     1
290
     0
176
     1
 93
        1
176
     1
 44
0.0
176
     1
173
     0
176
     1
  0
ENDSEC
  0
EOF
