  0
SECTION
  2
HEADER
  9
$ACADVER
  1
AC1024
  9
$ACADMAINTVER
 70
     6
  9
$DWGCODEPAGE
  3
ANSI_932
  9
$INSBASE
 10
0.0
 20
0.0
 30
0.0
  9
$EXTMIN
 10
-4455.0
 20
-3150.0
 30
0.0
  9
$EXTMAX
 10
4455.0
 20
3150.0
 30
0.0
  9
$LIMMIN
 10
-4455.0
 20
-3150.0
  9
$LIMMAX
 10
4455.0
 20
3150.0
  9
$ORTHOMODE
 70
     0
  9
$REGENMODE
 70
     1
  9
$FILLMODE
 70
     1
  9
$QTEXTMODE
 70
     0
  9
$MIRRTEXT
 70
     1
  9
$LTSCALE
 40
30.0
  9
$ATTMODE
 70
     1
  9
$TEXTSIZE
 40
2.5
  9
$TRACEWID
 40
1.0
  9
$TEXTSTYLE
  7
Standard
  9
$CLAYER
  8
0
  9
$CELTYPE
  6
ByLayer
  9
$CECOLOR
 62
   256
  9
$CELTSCALE
 40
1.0
  9
$DISPSILH
 70
     0
  9
$DIMSCALE
 40
1.0
  9
$DIMASZ
 40
2.5
  9
$DIMEXO
 40
0.625
  9
$DIMDLI
 40
3.75
  9
$DIMRND
 40
0.0
  9
$DIMDLE
 40
0.0
  9
$DIMEXE
 40
1.25
  9
$DIMTP
 40
0.0
  9
$DIMTM
 40
0.0
  9
$DIMTXT
 40
2.5
  9
$DIMCEN
 40
2.5
  9
$DIMTSZ
 40
0.0
  9
$DIMTOL
 70
     0
  9
$DIMLIM
 70
     0
  9
$DIMTIH
 70
     0
  9
$DIMTOH
 70
     0
  9
$DIMSE1
 70
     0
  9
$DIMSE2
 70
     0
  9
$DIMTAD
 70
     1
  9
$DIMZIN
 70
     8
  9
$DIMBLK
  1

  9
$DIMASO
 70
     1
  9
$DIMSHO
 70
     1
  9
$DIMPOST
  1

  9
$DIMAPOST
  1

  9
$DIMALT
 70
     0
  9
$DIMALTD
 70
     3
  9
$DIMALTF
 40
0.03937007874016
  9
$DIMLFAC
 40
1.0
  9
$DIMTOFL
 70
     1
  9
$DIMTVP
 40
0.0
  9
$DIMTIX
 70
     0
  9
$DIMSOXD
 70
     0
  9
$DIMSAH
 70
     0
  9
$DIMBLK1
  1

  9
$DIMBLK2
  1

  9
$DIMSTYLE
  2
ISO-25
  9
$DIMCLRD
 70
     0
  9
$DIMCLRE
 70
     0
  9
$DIMCLRT
 70
     0
  9
$DIMTFAC
 40
1.0
  9
$DIMGAP
 40
0.625
  9
$DIMJUST
 70
     0
  9
$DIMSD1
 70
     0
  9
$DIMSD2
 70
     0
  9
$DIMTOLJ
 70
     0
  9
$DIMTZIN
 70
     8
  9
$DIMALTZ
 70
     0
  9
$DIMALTTZ
 70
     0
  9
$DIMUPT
 70
     0
  9
$DIMDEC
 70
     2
  9
$DIMTDEC
 70
     2
  9
$DIMALTU
 70
     2
  9
$DIMALTTD
 70
     3
  9
$DIMTXSTY
  7
Standard
  9
$DIMAUNIT
 70
     0
  9
$DIMADEC
 70
     0
  9
$DIMALTRND
 40
0.0
  9
$DIMAZIN
 70
     0
  9
$DIMDSEP
 70
    44
  9
$DIMATFIT
 70
     3
  9
$DIMFRAC
 70
     0
  9
$DIMLDRBLK
  1

  9
$DIMLUNIT
 70
     2
  9
$DIMLWD
 70
    -2
  9
$DIMLWE
 70
    -2
  9
$DIMTMOVE
 70
     0
  9
$DIMFXL
 40
1.0
  9
$DIMFXLON
 70
     0
  9
$DIMJOGANG
 40
0.7853981633974483
  9
$DIMTFILL
 70
     0
  9
$DIMTFILLCLR
 70
     0
  9
$DIMARCSYM
 70
     0
  9
$DIMLTYPE
  6

  9
$DIMLTEX1
  6

  9
$DIMLTEX2
  6

  9
$DIMTXTDIRECTION
 70
     0
  9
$LUNITS
 70
     2
  9
$LUPREC
 70
     4
  9
$SKETCHINC
 40
1.0
  9
$FILLETRAD
 40
10.0
  9
$AUNITS
 70
     0
  9
$AUPREC
 70
     0
  9
$MENU
  1
.
  9
$ELEVATION
 40
0.0
  9
$PELEVATION
 40
0.0
  9
$THICKNESS
 40
0.0
  9
$LIMCHECK
 70
     0
  9
$CHAMFERA
 40
10.0
  9
$CHAMFERB
 40
10.0
  9
$CHAMFERC
 40
20.0
  9
$CHAMFERD
 40
0.0
  9
$SKPOLY
 70
     0
  9
$TDCREATE
 40
2457913.543194687
  9
$TDUCREATE
 40
2457913.168194687
  9
$TDUPDATE
 40
2457913.543194699
  9
$TDUUPDATE
 40
2457913.168194699
  9
$TDINDWG
 40
0.0000000116
  9
$TDUSRTIMER
 40
0.0000000116
  9
$USRTIMER
 70
     1
  9
$ANGBASE
 50
0.0
  9
$ANGDIR
 70
     0
  9
$PDMODE
 70
     0
  9
$PDSIZE
 40
0.0
  9
$PLINEWID
 40
0.0
  9
$SPLFRAME
 70
     0
  9
$SPLINETYPE
 70
     6
  9
$SPLINESEGS
 70
     8
  9
$HANDSEED
  5
2DF
  9
$SURFTAB1
 70
     6
  9
$SURFTAB2
 70
     6
  9
$SURFTYPE
 70
     6
  9
$SURFU
 70
     6
  9
$SURFV
 70
     6
  9
$UCSBASE
  2

  9
$UCSNAME
  2

  9
$UCSORG
 10
0.0
 20
0.0
 30
0.0
  9
$UCSXDIR
 10
1.0
 20
0.0
 30
0.0
  9
$UCSYDIR
 10
0.0
 20
1.0
 30
0.0
  9
$UCSORTHOREF
  2

  9
$UCSORTHOVIEW
 70
     0
  9
$UCSORGTOP
 10
0.0
 20
0.0
 30
0.0
  9
$UCSORGBOTTOM
 10
0.0
 20
0.0
 30
0.0
  9
$UCSORGLEFT
 10
0.0
 20
0.0
 30
0.0
  9
$UCSORGRIGHT
 10
0.0
 20
0.0
 30
0.0
  9
$UCSORGFRONT
 10
0.0
 20
0.0
 30
0.0
  9
$UCSORGBACK
 10
0.0
 20
0.0
 30
0.0
  9
$PUCSBASE
  2

  9
$PUCSNAME
  2

  9
$PUCSORG
 10
0.0
 20
0.0
 30
0.0
  9
$PUCSXDIR
 10
1.0
 20
0.0
 30
0.0
  9
$PUCSYDIR
 10
0.0
 20
1.0
 30
0.0
  9
$PUCSORTHOREF
  2

  9
$PUCSORTHOVIEW
 70
     0
  9
$PUCSORGTOP
 10
0.0
 20
0.0
 30
0.0
  9
$PUCSORGBOTTOM
 10
0.0
 20
0.0
 30
0.0
  9
$PUCSORGLEFT
 10
0.0
 20
0.0
 30
0.0
  9
$PUCSORGRIGHT
 10
0.0
 20
0.0
 30
0.0
  9
$PUCSORGFRONT
 10
0.0
 20
0.0
 30
0.0
  9
$PUCSORGBACK
 10
0.0
 20
0.0
 30
0.0
  9
$USERI1
 70
     0
  9
$USERI2
 70
     0
  9
$USERI3
 70
     0
  9
$USERI4
 70
     0
  9
$USERI5
 70
     0
  9
$USERR1
 40
0.0
  9
$USERR2
 40
0.0
  9
$USERR3
 40
0.0
  9
$USERR4
 40
0.0
  9
$USERR5
 40
0.0
  9
$WORLDVIEW
 70
     1
  9
$SHADEDGE
 70
     3
  9
$SHADEDIF
 70
    70
  9
$TILEMODE
 70
     1
  9
$MAXACTVP
 70
    64
  9
$PINSBASE
 10
0.0
 20
0.0
 30
0.0
  9
$PLIMCHECK
 70
     0
  9
$PEXTMIN
 10
1.000000000000000E+20
 20
1.000000000000000E+20
 30
1.000000000000000E+20
  9
$PEXTMAX
 10
-1.000000000000000E+20
 20
-1.000000000000000E+20
 30
-1.000000000000000E+20
  9
$PLIMMIN
 10
0.0
 20
0.0
  9
$PLIMMAX
 10
420.0
 20
297.0
  9
$UNITMODE
 70
     0
  9
$VISRETAIN
 70
     1
  9
$PLINEGEN
 70
     0
  9
$PSLTSCALE
 70
     1
  9
$TREEDEPTH
 70
  3020
  9
$CMLSTYLE
  2
Standard
  9
$CMLJUST
 70
     0
  9
$CMLSCALE
 40
20.0
  9
$PROXYGRAPHICS
 70
     1
  9
$MEASUREMENT
 70
     1
  9
$CELWEIGHT
370
    -1
  9
$ENDCAPS
280
     0
  9
$JOINSTYLE
280
     0
  9
$LWDISPLAY
290
     0
  9
$INSUNITS
 70
     4
  9
$HYPERLINKBASE
  1

  9
$STYLESHEET
  1

  9
$XEDIT
290
     1
  9
$CEPSNTYPE
380
     0
  9
$PSTYLEMODE
290
     1
  9
$FINGERPRINTGUID
  2
{F812B356-C175-4236-9140-32058C120F89}
  9
$VERSIONGUID
  2
{FAEB1C32-E019-11D5-929B-00C0DF256EC4}
  9
$EXTNAMES
290
     1
  9
$PSVPSCALE
 40
0.0
  9
$OLESTARTUP
290
     0
  9
$SORTENTS
280
   127
  9
$INDEXCTL
280
     0
  9
$HIDETEXT
280
     1
  9
$XCLIPFRAME
280
     2
  9
$HALOGAP
280
     0
  9
$OBSCOLOR
 70
   257
  9
$OBSLTYPE
280
     0
  9
$INTERSECTIONDISPLAY
280
     0
  9
$INTERSECTIONCOLOR
 70
   257
  9
$DIMASSOC
280
     2
  9
$PROJECTNAME
  1

  9
$CAMERADISPLAY
290
     0
  9
$LENSLENGTH
 40
50.0
  9
$CAMERAHEIGHT
 40
0.0
  9
$STEPSPERSEC
 40
2.0
  9
$STEPSIZE
 40
6.0
  9
$3DDWFPREC
 40
2.0
  9
$PSOLWIDTH
 40
5.0
  9
$PSOLHEIGHT
 40
80.0
  9
$LOFTANG1
 40
1.570796326794897
  9
$LOFTANG2
 40
1.570796326794897
  9
$LOFTMAG1
 40
0.0
  9
$LOFTMAG2
 40
0.0
  9
$LOFTPARAM
 70
     7
  9
$LOFTNORMALS
280
     1
  9
$LATITUDE
 40
37.795
  9
$LONGITUDE
 40
-122.394
  9
$NORTHDIRECTION
 40
0.0
  9
$TIMEZONE
 70
 -8000
  9
$LIGHTGLYPHDISPLAY
280
     1
  9
$TILEMODELIGHTSYNCH
280
     1
  9
$SOLIDHIST
280
     1
  9
$SHOWHIST
280
     1
  9
$DWFFRAME
280
     2
  9
$DGNFRAME
280
     2
  9
$REALWORLDSCALE
290
     1
  9
$INTERFERECOLOR
 62
   256
  9
$CSHADOW
280
     0
  9
$SHADOWPLANELOCATION
 40
0.0
  0
ENDSEC
  0
SECTION
  2
CLASSES
  0
CLASS
  1
ACDBDICTIONARYWDFLT
  2
AcDbDictionaryWithDefault
  3
ObjectDBX Classes
 90
        0
 91
        4
280
     0
281
     0
  0
CLASS
  1
VISUALSTYLE
  2
AcDbVisualStyle
  3
ObjectDBX Classes
 90
     4095
 91
        4
280
     0
281
     0
  0
CLASS
  1
MATERIAL
  2
AcDbMaterial
  3
ObjectDBX Classes
 90
     1153
 91
        4
280
     0
281
     0
  0
ENDSEC
  0
SECTION
  2
TABLES
  0
TABLE
  2
VPORT
  5
8
330
0
100
AcDbSymbolTable
 70
     1
  0
VPORT
  5
29
330
8
100
AcDbSymbolTableRecord
100
AcDbViewportTableRecord
  2
*Active
 70
     0
 10
0.0
 20
0.0
 11
1.0
 21
1.0
 12
0.0
 22
0.0
 13
0.0
 23
0.0
 14
10.0
 24
10.0
 15
10.0
 25
10.0
 16
0.0
 26
0.0
 36
1.0
 17
0.0
 27
0.0
 37
0.0
 40
6930.000000000001
 41
1.414285714285714
 42
50.0
 43
0.0
 44
0.0
 50
0.0
 51
0.0
 71
     0
 72
 10000
 73
     1
 74
     3
 75
     0
 76
     0
 77
     0
 78
     0
281
     0
 65
     1
110
0.0
120
0.0
130
0.0
111
1.0
121
0.0
131
0.0
112
0.0
122
1.0
132
0.0
 79
     0
146
0.0
 60
     3
 61
     5
292
     1
282
     1
141
0.0
142
0.0
 63
   250
  0
ENDTAB
  0
TABLE
  2
LTYPE
  5
5
330
0
100
AcDbSymbolTable
 70
     2
  0
LTYPE
  5
14
330
5
100
AcDbSymbolTableRecord
100
AcDbLinetypeTableRecord
  2
ByBlock
 70
     0
  3

 72
    65
 73
     0
 40
0.0
  0
LTYPE
  5
15
330
5
100
AcDbSymbolTableRecord
100
AcDbLinetypeTableRecord
  2
ByLayer
 70
     0
  3

 72
    65
 73
     0
 40
0.0
  0
LTYPE
  5
16
330
5
100
AcDbSymbolTableRecord
100
AcDbLinetypeTableRecord
  2
Continuous
 70
     0
  3
Solid line
 72
    65
 73
     0
 40
0.0
  0
LTYPE
  5
3F
330
5
100
AcDbSymbolTableRecord
100
AcDbLinetypeTableRecord
  2
JWW_DASHED1
 70
     0
  3
-  --  --  --  --  --  --  --  -
 72
    65
 73
     2
 40
1.693333333333333
 49
0.8466666666666667
 74
     0
 49
-0.8466666666666667
 74
     0
  0
ENDTAB
  0
TABLE
  2
LAYER
  5
2
330
0
100
AcDbSymbolTable
 70
     3
  0
LAYER
  5
10
330
2
100
AcDbSymbolTableRecord
100
AcDbLayerTableRecord
  2
0
 70
     0
 62
     7
  6
Continuous
370
    -3
390
F
347
3E
  0
LAYER
  5
40
330
2
100
AcDbSymbolTableRecord
100
AcDbLayerTableRecord
  2
0-0
 70
     0
 62
     7
  6
Continuous
370
    -3
390
F
347
3E
  0
LAYER
  5
41
330
2
100
AcDbSymbolTableRecord
100
AcDbLayerTableRecord
  2
寸法
 70
     0
 62
     7
  6
Continuous
370
    -3
390
F
347
3E
  0
ENDTAB
  0
TABLE
  2
STYLE
  5
3
330
0
100
AcDbSymbolTable
 70
     1
  0
STYLE
  5
11
330
3
100
AcDbSymbolTableRecord
100
AcDbTextStyleTableRecord
  2
Standard
 70
     0
 40
0.0
 41
1.0
 50
0.0
 71
     0
 42
2.5
  3
txt
  4

  0
ENDTAB
  0
TABLE
  2
VIEW
  5
6
330
0
100
AcDbSymbolTable
 70
     0
  0
ENDTAB
  0
TABLE
  2
UCS
  5
7
330
0
100
AcDbSymbolTable
 70
     0
  0
ENDTAB
  0
TABLE
  2
APPID
  5
9
330
0
100
AcDbSymbolTable
 70
     1
  0
APPID
  5
12
330
9
100
AcDbSymbolTableRecord
100
AcDbRegAppTableRecord
  2
ACAD
 70
     0
  0
ENDTAB
  0
TABLE
  2
DIMSTYLE
  5
A
330
0
100
AcDbSymbolTable
 70
     1
100
AcDbDimStyleTable
  0
DIMSTYLE
105
27
330
A
100
AcDbSymbolTableRecord
100
AcDbDimStyleTableRecord
  2
ISO-25
 70
     0
 41
2.5
 42
0.625
 43
3.75
 44
1.25
 73
     0
 74
     0
 77
     1
 78
     8
140
2.5
141
2.5
143
0.03937007874016
147
0.625
171
     3
172
     1
178
     0
271
     2
272
     2
274
     3
278
    44
283
     0
284
     8
340
11
  0
ENDTAB
  0
TABLE
  2
BLOCK_RECORD
  5
1
330
0
100
AcDbSymbolTable
 70
     1
  0
BLOCK_RECORD
  5
1F
330
1
100
AcDbSymbolTableRecord
100
AcDbBlockTableRecord
  2
*Model_Space
340
22
 70
     0
280
     1
281
     0
  0
BLOCK_RECORD
  5
1B
330
1
100
AcDbSymbolTableRecord
100
AcDbBlockTableRecord
  2
*Paper_Space
340
1E
 70
     0
280
     1
281
     0
  0
BLOCK_RECORD
  5
23
330
1
100
AcDbSymbolTableRecord
100
AcDbBlockTableRecord
  2
*Paper_Space0
340
26
 70
     0
280
     1
281
     0
  0
ENDTAB
  0
ENDSEC
  0
SECTION
  2
BLOCKS
  0
BLOCK
  5
20
330
1F
100
AcDbEntity
  8
0
100
AcDbBlockBegin
  2
*Model_Space
 70
     0
 10
0.0
 20
0.0
 30
0.0
  3
*Model_Space
  1

  0
ENDBLK
  5
21
330
1F
100
AcDbEntity
  8
0
100
AcDbBlockEnd
  0
BLOCK
  5
1C
330
1B
100
AcDbEntity
 67
     1
  8
0
100
AcDbBlockBegin
  2
*Paper_Space
 70
     0
 10
0.0
 20
0.0
 30
0.0
  3
*Paper_Space
  1

  0
ENDBLK
  5
1D
330
1B
100
AcDbEntity
 67
     1
  8
0
100
AcDbBlockEnd
  0
BLOCK
  5
24
330
23
100
AcDbEntity
  8
0
100
AcDbBlockBegin
  2
*Paper_Space0
 70
     0
 10
0.0
 20
0.0
 30
0.0
  3
*Paper_Space0
  1

  0
ENDBLK
  5
25
330
23
100
AcDbEntity
  8
0
100
AcDbBlockEnd
  0
ENDSEC
  0
SECTION
  2
ENTITIES
  0
LINE
  5
42
330
1F
100
AcDbEntity
  8
0-0
  6
Continuous
 62
    92
370
    13
100
AcDbLine
 10
-347.533088038265
 20
-1074.41250126253
 30
0.0
 11
-347.533088038265
 21
-1082.91250126253
 31
0.0
  0
LINE
  5
43
330
1F
100
AcDbEntity
  8
0-0
  6
Continuous
 62
    92
370
    13
100
AcDbLine
 10
-375.5330880382651
 20
-1082.91250126253
 30
0.0
 11
-347.533088038265
 21
-1082.91250126253
 31
0.0
  0
ARC
  5
44
330
1F
100
AcDbEntity
  8
0-0
  6
Continuous
 62
    92
370
    13
100
AcDbCircle
 10
403.9669119617354
 20
-57.41250126253121
 30
0.0
 40
1.5
100
AcDbArc
 50
0.0
 51
90.0
  0
LINE
  5
45
330
1F
100
AcDbEntity
  8
0-0
  6
Continuous
 62
    92
370
    13
100
AcDbLine
 10
364.9669119617367
 20
-55.91250126253087
 30
0.0
 11
403.9669119617354
 21
-55.91250126253087
 31
0.0
  0
ARC
  5
46
330
1F
100
AcDbEntity
  8
0-0
  6
Continuous
 62
    92
370
    13
100
AcDbCircle
 10
364.9669119617367
 20
-57.41250126253121
 30
0.0
 40
1.5
100
AcDbArc
 50
89.99999999999999
 51
180.0
  0
LINE
  5
47
330
1F
100
AcDbEntity
  8
0-0
  6
Continuous
 62
    92
370
    13
100
AcDbLine
 10
363.4669119617364
 20
-176.4125012625304
 30
0.0
 11
363.4669119617364
 21
-57.41250126253121
 31
0.0
  0
ARC
  5
48
330
1F
100
AcDbEntity
  8
0-0
  6
Continuous
 62
    92
370
    13
100
AcDbCircle
 10
364.9669119617367
 20
-176.4125012625304
 30
0.0
 40
1.5
100
AcDbArc
 50
180.0
 51
270.0
  0
LINE
  5
49
330
1F
100
AcDbEntity
  8
0-0
  6
Continuous
 62
    92
370
    13
100
AcDbLine
 10
403.9669119617354
 20
-177.9125012625316
 30
0.0
 11
364.9669119617367
 21
-177.9125012625316
 31
0.0
  0
LINE
  5
4A
330
1F
100
AcDbEntity
  8
0-0
  6
Continuous
 62
    92
370
    13
100
AcDbLine
 10
405.4669119617357
 20
-176.4125012625304
 30
0.0
 11
405.4669119617357
 21
-57.41250126253121
 31
0.0
  0
ARC
  5
4B
330
1F
100
AcDbEntity
  8
0-0
  6
Continuous
 62
    92
370
    13
100
AcDbCircle
 10
403.9669119617354
 20
-176.4125012625304
 30
0.0
 40
1.5
100
AcDbArc
 50
270.0
 51
0.0
  0
ARC
  5
4C
330
1F
100
AcDbEntity
  8
0-0
  6
Continuous
 62
     7
370
     9
100
AcDbCircle
 10
384.4669119617361
 20
-146.5125012625303
 30
0.0
 40
15.0
100
AcDbArc
 50
180.0
 51
0.0
  0
ARC
  5
4D
330
1F
100
AcDbEntity
  8
0-0
  6
Continuous
 62
     7
370
     9
100
AcDbCircle
 10
384.4669119617361
 20
-87.31250126253215
 30
0.0
 40
15.0
100
AcDbArc
 50
0.0
 51
180.0
  0
LINE
  5
4E
330
1F
100
AcDbEntity
  8
0-0
  6
Continuous
 62
     7
370
     9
100
AcDbLine
 10
369.4669119617361
 20
-146.5125012625303
 30
0.0
 11
369.4669119617361
 21
-87.31250126253215
 31
0.0
  0
LINE
  5
4F
330
1F
100
AcDbEntity
  8
0-0
  6
Continuous
 62
     7
370
     9
100
AcDbLine
 10
399.4669119617361
 20
-87.31250126253215
 30
0.0
 11
399.4669119617361
 21
-146.5125012625303
 31
0.0
  0
LINE
  5
50
330
1F
100
AcDbEntity
  8
0-0
  6
Continuous
 62
    92
370
    13
100
AcDbLine
 10
-374.5330880382643
 20
-1074.41250126253
 30
0.0
 11
435.4669119617357
 21
-1074.41250126253
 31
0.0
  0
LINE
  5
51
330
1F
100
AcDbEntity
  8
0-0
  6
Continuous
 62
    92
370
    13
100
AcDbLine
 10
-1165.533088038263
 20
1113.58749873747
 30
0.0
 11
-1165.533088038263
 21
1161.08749873747
 31
0.0
  0
LINE
  5
52
330
1F
100
AcDbEntity
  8
0-0
  6
JWW_DASHED1
 62
   120
370
     5
100
AcDbLine
 10
-374.5330880382643
 20
1108.58749873747
 30
0.0
 11
-374.5330880382643
 21
1104.58749873747
 31
0.0
  0
LINE
  5
53
330
1F
100
AcDbEntity
  8
0-0
  6
Continuous
 62
    92
370
    13
100
AcDbLine
 10
-375.5330880382651
 20
1113.58749873747
 30
0.0
 11
-375.5330880382651
 21
-1082.91250126253
 31
0.0
  0
LINE
  5
54
330
1F
100
AcDbEntity
  8
0-0
  6
JWW_DASHED1
 62
   120
370
     5
100
AcDbLine
 10
-347.533088038265
 20
-1074.41250126253
 30
0.0
 11
-347.533088038265
 21
1108.58749873747
 31
0.0
  0
LINE
  5
55
330
1F
100
AcDbEntity
  8
0-0
  6
Continuous
 62
    92
370
    13
100
AcDbLine
 10
-347.533088038265
 20
1108.58749873747
 30
0.0
 11
-347.533088038265
 21
1113.58749873747
 31
0.0
  0
LINE
  5
56
330
1F
100
AcDbEntity
  8
0-0
  6
Continuous
 62
    92
370
    13
100
AcDbLine
 10
-374.5330880382643
 20
1108.58749873747
 30
0.0
 11
-374.5330880382643
 21
-1074.41250126253
 31
0.0
  0
LINE
  5
57
330
1F
100
AcDbEntity
  8
0-0
  6
Continuous
 62
    92
370
    13
100
AcDbLine
 10
-1165.533088038263
 20
1113.58749873747
 30
0.0
 11
443.4669119617353
 21
1113.58749873747
 31
0.0
  0
LINE
  5
58
330
1F
100
AcDbEntity
  8
0-0
  6
Continuous
 62
    92
370
    13
100
AcDbLine
 10
-1165.533088038263
 20
1145.58749873747
 30
0.0
 11
443.4669119617353
 21
1145.58749873747
 31
0.0
  0
LINE
  5
59
330
1F
100
AcDbEntity
  8
0-0
  6
Continuous
 62
    92
370
    13
100
AcDbLine
 10
-374.5330880382643
 20
1108.58749873747
 30
0.0
 11
435.4669119617357
 21
1108.58749873747
 31
0.0
  0
LINE
  5
5A
330
1F
100
AcDbEntity
  8
0-0
  6
Continuous
 62
    92
370
    13
100
AcDbLine
 10
435.4669119617357
 20
-1074.41250126253
 30
0.0
 11
435.4669119617357
 21
1108.58749873747
 31
0.0
  0
LINE
  5
5B
330
1F
100
AcDbEntity
  8
0-0
  6
Continuous
 62
    92
370
    13
100
AcDbLine
 10
-1165.533088038263
 20
1161.08749873747
 30
0.0
 11
443.4669119617353
 21
1161.08749873747
 31
0.0
  0
LINE
  5
5C
330
1F
100
AcDbEntity
  8
0-0
  6
Continuous
 62
    92
370
    13
100
AcDbLine
 10
443.4669119617353
 20
1113.58749873747
 30
0.0
 11
443.4669119617353
 21
1161.08749873747
 31
0.0
  0
LINE
  5
5D
330
1F
100
AcDbEntity
  8
0-0
  6
Continuous
 62
    92
370
    13
100
AcDbLine
 10
325.4669119617351
 20
-933.6305593893611
 30
0.0
 11
-264.5330880382637
 21
-933.6305593893611
 31
0.0
  0
LINE
  5
5E
330
1F
100
AcDbEntity
  8
0-0
  6
Continuous
 62
    92
370
    13
100
AcDbLine
 10
-264.5330880382637
 20
973.3694406106388
 30
0.0
 11
325.4669119617351
 21
973.3694406106388
 31
0.0
  0
LINE
  5
5F
330
1F
100
AcDbEntity
  8
0-0
  6
Continuous
 62
    92
370
    13
100
AcDbLine
 10
-14.53308803826431
 20
973.3694406106388
 30
0.0
 11
-14.53308803826431
 21
-933.6305593893611
 31
0.0
  0
LINE
  5
60
330
1F
100
AcDbEntity
  8
0-0
  6
Continuous
 62
    92
370
    13
100
AcDbLine
 10
75.46691196173569
 20
973.3694406106388
 30
0.0
 11
75.46691196173569
 21
-933.6305593893611
 31
0.0
  0
LINE
  5
61
330
1F
100
AcDbEntity
  8
0-0
  6
Continuous
 62
    92
370
    13
100
AcDbLine
 10
325.4669119617351
 20
-1074.630559389361
 30
0.0
 11
325.4669119617351
 21
1108.369440610639
 31
0.0
  0
LINE
  5
62
330
1F
100
AcDbEntity
  8
0-0
  6
Continuous
 62
    92
370
    13
100
AcDbLine
 10
-264.5330880382637
 20
-1074.630559389361
 30
0.0
 11
-264.5330880382637
 21
1108.369440610639
 31
0.0
  0
LINE
  5
63
330
1F
100
AcDbEntity
  8
0-0
  6
JWW_DASHED1
 62
   120
370
     5
100
AcDbLine
 10
-17.42978439796637
 20
-933.630559389354
 30
0.0
 11
-14.53308803827198
 21
-930.7338630296592
 31
0.0
  0
LINE
  5
64
330
1F
100
AcDbEntity
  8
0-0
  6
JWW_DASHED1
 62
   120
370
     5
100
AcDbLine
 10
-24.50085221126336
 20
-933.6305593893654
 30
0.0
 11
-14.53308803825983
 21
-923.6627952163619
 31
0.0
  0
LINE
  5
65
330
1F
100
AcDbEntity
  8
0-0
  6
JWW_DASHED1
 62
   120
370
     5
100
AcDbLine
 10
-31.57192002454458
 20
-933.6305593893611
 30
0.0
 11
-14.5330880382641
 21
-916.5917274030802
 31
0.0
  0
LINE
  5
66
330
1F
100
AcDbEntity
  8
0-0
  6
JWW_DASHED1
 62
   120
370
     5
100
AcDbLine
 10
-38.64298783782601
 20
-933.6305593893569
 30
0.0
 11
-14.53308803826793
 21
-909.520659589799
 31
0.0
  0
LINE
  5
67
330
1F
100
AcDbEntity
  8
0-0
  6
JWW_DASHED1
 62
   120
370
     5
100
AcDbLine
 10
-45.71405565110894
 20
-933.6305593893543
 30
0.0
 11
-14.53308803827177
 21
-902.4495917765173
 31
0.0
  0
LINE
  5
68
330
1F
100
AcDbEntity
  8
0-0
  6
JWW_DASHED1
 62
   120
370
     5
100
AcDbLine
 10
-52.78512346434773
 20
-933.630559389362
 30
0.0
 11
-14.53308803826474
 21
-895.3785239632792
 31
0.0
  0
LINE
  5
69
330
1F
100
AcDbEntity
  8
0-0
  6
JWW_DASHED1
 62
   120
370
     5
100
AcDbLine
 10
-59.85619127762916
 20
-933.6305593893586
 30
0.0
 11
-14.53308803826857
 21
-888.307456149998
 31
0.0
  0
LINE
  5
6A
330
1F
100
AcDbEntity
  8
0-0
  6
JWW_DASHED1
 62
   120
370
     5
100
AcDbLine
 10
-66.92725909091124
 20
-933.6305593893547
 30
0.0
 11
-14.53308803827284
 21
-881.2363883367163
 31
0.0
  0
LINE
  5
6B
330
1F
100
AcDbEntity
  8
0-0
  6
JWW_DASHED1
 62
   120
370
     5
100
AcDbLine
 10
-73.99832690420503
 20
-933.6305593893633
 30
0.0
 11
-14.53308803826069
 21
-874.1653205234189
 31
0.0
  0
LINE
  5
6C
330
1F
100
AcDbEntity
  8
0-0
  6
JWW_DASHED1
 62
   120
370
     5
100
AcDbLine
 10
-81.06939471748646
 20
-933.630559389359
 30
0.0
 11
-14.53308803826495
 21
-867.0942527101373
 31
0.0
  0
LINE
  5
6D
330
1F
100
AcDbEntity
  8
0-0
  6
JWW_DASHED1
 62
   120
370
     5
100
AcDbLine
 10
-88.14046253076768
 20
-933.6305593893552
 30
0.0
 11
-14.53308803826836
 21
-860.0231848968556
 31
0.0
  0
LINE
  5
6E
330
1F
100
AcDbEntity
  8
0-0
  6
JWW_DASHED1
 62
   120
370
     5
100
AcDbLine
 10
-95.2115303440538
 20
-933.6305593893555
 30
0.0
 11
-14.53308803827262
 21
-852.9521170835744
 31
0.0
  0
LINE
  5
6F
330
1F
100
AcDbEntity
  8
0-0
  6
JWW_DASHED1
 62
   120
370
     5
100
AcDbLine
 10
-102.2825981573514
 20
-933.6305593893676
 30
0.0
 11
-14.53308803826175
 21
-845.8810492702783
 31
0.0
  0
LINE
  5
70
330
1F
100
AcDbEntity
  8
0-0
  6
JWW_DASHED1
 62
   120
370
     5
100
AcDbLine
 10
-109.3536659706329
 20
-933.6305593893637
 30
0.0
 11
-14.53308803826559
 21
-838.8099814569962
 31
0.0
  0
LINE
  5
71
330
1F
100
AcDbEntity
  8
0-0
  6
JWW_DASHED1
 62
   120
370
     5
100
AcDbLine
 10
-116.4247337839149
 20
-933.6305593893603
 30
0.0
 11
-14.53308803826921
 21
-831.7389136437146
 31
0.0
  0
LINE
  5
72
330
1F
100
AcDbEntity
  8
0-0
  6
JWW_DASHED1
 62
   120
370
     5
100
AcDbLine
 10
-123.4958015971465
 20
-933.6305593893611
 30
0.0
 11
-14.53308803826154
 21
-824.6678458304756
 31
0.0
  0
LINE
  5
73
330
1F
100
AcDbEntity
  8
0-0
  6
JWW_DASHED1
 62
   120
370
     5
100
AcDbLine
 10
-130.5668694104279
 20
-933.6305593893569
 30
0.0
 11
-14.53308803826559
 21
-817.5967780171943
 31
0.0
  0
LINE
  5
74
330
1F
100
AcDbEntity
  8
0-0
  6
JWW_DASHED1
 62
   120
370
     5
100
AcDbLine
 10
-137.6379372237089
 20
-933.6305593893521
 30
0.0
 11
-14.53308803826921
 21
-810.5257102039127
 31
0.0
  0
LINE
  5
75
330
1F
100
AcDbEntity
  8
0-0
  6
JWW_DASHED1
 62
   120
370
     5
100
AcDbLine
 10
-144.7090050369987
 20
-933.6305593893564
 30
0.0
 11
-14.53308803827369
 21
-803.4546423906319
 31
0.0
  0
LINE
  5
76
330
1F
100
AcDbEntity
  8
0-0
  6
JWW_DASHED1
 62
   120
370
     5
100
AcDbLine
 10
-151.7800728502961
 20
-933.6305593893688
 30
0.0
 11
-14.53308803826324
 21
-796.3835745773354
 31
0.0
  0
LINE
  5
77
330
1F
100
AcDbEntity
  8
0-0
  6
JWW_DASHED1
 62
   120
370
     5
100
AcDbLine
 10
-158.8511406635781
 20
-933.630559389365
 30
0.0
 11
-14.53308803826623
 21
-789.3125067640533
 31
0.0
  0
LINE
  5
78
330
1F
100
AcDbEntity
  8
0-0
  6
JWW_DASHED1
 62
   120
370
     5
100
AcDbLine
 10
-165.9222084768594
 20
-933.6305593893608
 30
0.0
 11
-14.53308803827007
 21
-782.2414389507717
 31
0.0
  0
LINE
  5
79
330
1F
100
AcDbEntity
  8
0-0
  6
JWW_DASHED1
 62
   120
370
     5
100
AcDbLine
 10
-172.993276290141
 20
-933.6305593893574
 30
0.0
 11
-14.5330880382739
 21
-775.17037113749
 31
0.0
  0
LINE
  5
7A
330
1F
100
AcDbEntity
  8
0-0
  6
JWW_DASHED1
 62
   120
370
     5
100
AcDbLine
 10
-180.0643441034286
 20
-933.630559389359
 30
0.0
 11
-14.53308803826239
 21
-768.099303324193
 31
0.0
  0
LINE
  5
7B
330
1F
100
AcDbEntity
  8
0-0
  6
JWW_DASHED1
 62
   120
370
     5
100
AcDbLine
 10
-187.1354119166612
 20
-933.6305593893611
 30
0.0
 11
-14.53308803827071
 21
-761.0282355109701
 31
0.0
  0
LINE
  5
7C
330
1F
100
AcDbEntity
  8
0-0
  6
JWW_DASHED1
 62
   120
370
     5
100
AcDbLine
 10
-194.2064797299433
 20
-933.6305593893574
 30
0.0
 11
-14.53308803827497
 21
-753.957167697689
 31
0.0
  0
LINE
  5
7D
330
1F
100
AcDbEntity
  8
0-0
  6
JWW_DASHED1
 62
   120
370
     5
100
AcDbLine
 10
-201.2775475432407
 20
-933.6305593893696
 30
0.0
 11
-14.53308803826452
 21
-746.8860998843933
 31
0.0
  0
LINE
  5
7E
330
1F
100
AcDbEntity
  8
0-0
  6
JWW_DASHED1
 62
   120
370
     5
100
AcDbLine
 10
-208.3486153565224
 20
-933.6305593893658
 30
0.0
 11
-14.53308803826708
 21
-739.8150320711103
 31
0.0
  0
LINE
  5
7F
330
1F
100
AcDbEntity
  8
0-0
  6
JWW_DASHED1
 62
   120
370
     5
100
AcDbLine
 10
-215.419683169804
 20
-933.6305593893616
 30
0.0
 11
-14.53308803827049
 21
-732.7439642578282
 31
0.0
  0
LINE
  5
80
330
1F
100
AcDbEntity
  8
0-0
  6
JWW_DASHED1
 62
   120
370
     5
100
AcDbLine
 10
-222.4907509830882
 20
-933.6305593893608
 30
0.0
 11
-14.53308803825919
 21
-725.6728964445313
 31
0.0
  0
LINE
  5
81
330
1F
100
AcDbEntity
  8
0-0
  6
JWW_DASHED1
 62
   120
370
     5
100
AcDbLine
 10
-229.5618187963699
 20
-933.6305593893564
 30
0.0
 11
-14.53308803826324
 21
-718.6018286312501
 31
0.0
  0
LINE
  5
82
330
1F
100
AcDbEntity
  8
0-0
  6
JWW_DASHED1
 62
   120
370
     5
100
AcDbLine
 10
-236.6328866096511
 20
-933.6305593893521
 30
0.0
 11
-14.53308803826708
 21
-711.5307608179684
 31
0.0
  0
LINE
  5
83
330
1F
100
AcDbEntity
  8
0-0
  6
JWW_DASHED1
 62
   120
370
     5
100
AcDbLine
 10
-243.7039544229468
 20
-933.6305593893624
 30
0.0
 11
-14.53308803827113
 21
-704.4596930046868
 31
0.0
  0
LINE
  5
84
330
1F
100
AcDbEntity
  8
0-0
  6
JWW_DASHED1
 62
   120
370
     5
100
AcDbLine
 10
-250.7750222362442
 20
-933.6305593893748
 30
0.0
 11
-14.53308803826133
 21
-697.3886251913915
 31
0.0
  0
LINE
  5
85
330
1F
100
AcDbEntity
  8
0-0
  6
JWW_DASHED1
 62
   120
370
     5
100
AcDbLine
 10
-257.846090049467
 20
-933.6305593893662
 30
0.0
 11
-14.53308803826793
 21
-690.3175573781674
 31
0.0
  0
LINE
  5
86
330
1F
100
AcDbEntity
  8
0-0
  6
JWW_DASHED1
 62
   120
370
     5
100
AcDbLine
 10
-264.533088038262
 20
-933.2464895648758
 30
0.0
 11
-14.53308803827134
 21
-683.2464895648853
 31
0.0
  0
LINE
  5
87
330
1F
100
AcDbEntity
  8
0-0
  6
JWW_DASHED1
 62
   120
370
     5
100
AcDbLine
 10
-264.5330880382659
 20
-926.1754217515945
 30
0.0
 11
-14.53308803825983
 21
-676.1754217515884
 31
0.0
  0
LINE
  5
88
330
1F
100
AcDbEntity
  8
0-0
  6
JWW_DASHED1
 62
   120
370
     5
100
AcDbLine
 10
-264.5330880382701
 20
-919.1043539383129
 30
0.0
 11
-14.5330880382641
 21
-669.1043539383071
 31
0.0
  0
LINE
  5
89
330
1F
100
AcDbEntity
  8
0-0
  6
JWW_DASHED1
 62
   120
370
     5
100
AcDbLine
 10
-264.5330880382739
 20
-912.0332861250313
 30
0.0
 11
-14.53308803826836
 21
-662.0332861250258
 31
0.0
  0
LINE
  5
8A
330
1F
100
AcDbEntity
  8
0-0
  6
JWW_DASHED1
 62
   120
370
     5
100
AcDbLine
 10
-264.5330880382625
 20
-904.9622183117343
 30
0.0
 11
-14.5330880382722
 21
-654.9622183117442
 31
0.0
  0
LINE
  5
8B
330
1F
100
AcDbEntity
  8
0-0
  6
JWW_DASHED1
 62
   120
370
     5
100
AcDbLine
 10
-264.533088038251
 20
-897.8911504984374
 30
0.0
 11
-14.53308803826282
 21
-647.8911504984494
 31
0.0
  0
LINE
  5
8C
330
1F
100
AcDbEntity
  8
0-0
  6
JWW_DASHED1
 62
   120
370
     5
100
AcDbLine
 10
-264.5330880382548
 20
-890.8200826851561
 30
0.0
 11
-14.53308803826708
 21
-640.8200826851681
 31
0.0
  0
LINE
  5
8D
330
1F
100
AcDbEntity
  8
0-0
  6
JWW_DASHED1
 62
   120
370
     5
100
AcDbLine
 10
-264.5330880382586
 20
-883.749014871874
 30
0.0
 11
-14.53308803826815
 21
-633.7490148718836
 31
0.0
  0
LINE
  5
8E
330
1F
100
AcDbEntity
  8
0-0
  6
JWW_DASHED1
 62
   120
370
     5
100
AcDbLine
 10
-264.5330880382671
 20
-876.6779470586516
 30
0.0
 11
-14.53308803826111
 21
-626.6779470586458
 31
0.0
  0
LINE
  5
8F
330
1F
100
AcDbEntity
  8
0-0
  6
JWW_DASHED1
 62
   120
370
     5
100
AcDbLine
 10
-264.533088038271
 20
-869.60687924537
 30
0.0
 11
-14.53308803826495
 21
-619.6068792453641
 31
0.0
  0
LINE
  5
90
330
1F
100
AcDbEntity
  8
0-0
  6
JWW_DASHED1
 62
   120
370
     5
100
AcDbLine
 10
-264.5330880382753
 20
-862.5358114320887
 30
0.0
 11
-14.53308803826921
 21
-612.5358114320825
 31
0.0
  0
LINE
  5
91
330
1F
100
AcDbEntity
  8
0-0
  6
JWW_DASHED1
 62
   120
370
     5
100
AcDbLine
 10
-264.5330880382633
 20
-855.4647436187913
 30
0.0
 11
-14.53308803827284
 21
-605.4647436188009
 31
0.0
  0
LINE
  5
92
330
1F
100
AcDbEntity
  8
0-0
  6
JWW_DASHED1
 62
   120
370
     5
100
AcDbLine
 10
-264.5330880382522
 20
-848.3936758054948
 30
0.0
 11
-14.53308803826388
 21
-598.3936758055064
 31
0.0
  0
LINE
  5
93
330
1F
100
AcDbEntity
  8
0-0
  6
JWW_DASHED1
 62
   120
370
     5
100
AcDbLine
 10
-264.5330880382556
 20
-841.3226079922127
 30
0.0
 11
-14.53308803826538
 21
-591.3226079922226
 31
0.0
  0
LINE
  5
94
330
1F
100
AcDbEntity
  8
0-0
  6
JWW_DASHED1
 62
   120
370
     5
100
AcDbLine
 10
-264.5330880382595
 20
-834.251540178931
 30
0.0
 11
-14.53308803826943
 21
-584.251540178941
 31
0.0
  0
LINE
  5
95
330
1F
100
AcDbEntity
  8
0-0
  6
JWW_DASHED1
 62
   120
370
     5
100
AcDbLine
 10
-264.5330880382637
 20
-827.1804723656498
 30
0.0
 11
-14.53308803827326
 21
-577.1804723656594
 31
0.0
  0
LINE
  5
96
330
1F
100
AcDbEntity
  8
0-0
  6
JWW_DASHED1
 62
   120
370
     5
100
AcDbLine
 10
-264.5330880382678
 20
-820.1094045523687
 30
0.0
 11
-14.53308803826175
 21
-570.1094045523628
 31
0.0
  0
LINE
  5
97
330
1F
100
AcDbEntity
  8
0-0
  6
JWW_DASHED1
 62
   120
370
     5
100
AcDbLine
 10
-264.5330880382603
 20
-813.0383367391305
 30
0.0
 11
-14.53308803827007
 21
-563.0383367391396
 31
0.0
  0
LINE
  5
98
330
1F
100
AcDbEntity
  8
0-0
  6
JWW_DASHED1
 62
   120
370
     5
100
AcDbLine
 10
-264.5330880382642
 20
-805.9672689258484
 30
0.0
 11
-14.53308803827412
 21
-555.9672689258583
 31
0.0
  0
LINE
  5
99
330
1F
100
AcDbEntity
  8
0-0
  6
JWW_DASHED1
 62
   120
370
     5
100
AcDbLine
 10
-264.5330880382537
 20
-798.8962011125527
 30
0.0
 11
-14.53308803826516
 21
-548.8962011125639
 31
0.0
  0
LINE
  5
9A
330
1F
100
AcDbEntity
  8
0-0
  6
JWW_DASHED1
 62
   120
370
     5
100
AcDbLine
 10
-264.5330880382563
 20
-791.8251332992697
 30
0.0
 11
-14.53308803826623
 21
-541.8251332992797
 31
0.0
  0
LINE
  5
9B
330
1F
100
AcDbEntity
  8
0-0
  6
JWW_DASHED1
 62
   120
370
     5
100
AcDbLine
 10
-264.5330880382603
 20
-784.7540654859881
 30
0.0
 11
-14.53308803827049
 21
-534.7540654859985
 31
0.0
  0
LINE
  5
9C
330
1F
100
AcDbEntity
  8
0-0
  6
JWW_DASHED1
 62
   120
370
     5
100
AcDbLine
 10
-264.5330880382644
 20
-777.682997672707
 30
0.0
 11
-14.53308803825834
 21
-527.682997672701
 31
0.0
  0
LINE
  5
9D
330
1F
100
AcDbEntity
  8
0-0
  6
JWW_DASHED1
 62
   120
370
     5
100
AcDbLine
 10
-264.5330880382687
 20
-770.6119298594252
 30
0.0
 11
-14.5330880382626
 21
-520.6119298594199
 31
0.0
  0
LINE
  5
9E
330
1F
100
AcDbEntity
  8
0-0
  6
JWW_DASHED1
 62
   120
370
     5
100
AcDbLine
 10
-264.5330880382729
 20
-763.5408620461441
 30
0.0
 11
-14.53308803826665
 21
-513.5408620461383
 31
0.0
  0
LINE
  5
9F
330
1F
100
AcDbEntity
  8
0-0
  6
JWW_DASHED1
 62
   120
370
     5
100
AcDbLine
 10
-264.5330880382608
 20
-756.4697942328467
 30
0.0
 11
-14.53308803827071
 21
-506.4697942328565
 31
0.0
  0
LINE
  5
A0
330
1F
100
AcDbEntity
  8
0-0
  6
JWW_DASHED1
 62
   120
370
     5
100
AcDbLine
 10
-264.5330880382505
 20
-749.3987264195509
 30
0.0
 11
-14.53308803826239
 21
-499.398726419563
 31
0.0
  0
LINE
  5
A1
330
1F
100
AcDbEntity
  8
0-0
  6
JWW_DASHED1
 62
   120
370
     5
100
AcDbLine
 10
-264.5330880382576
 20
-742.3276586063268
 30
0.0
 11
-14.53308803826708
 21
-492.3276586063367
 31
0.0
  0
LINE
  5
A2
330
1F
100
AcDbEntity
  8
0-0
  6
JWW_DASHED1
 62
   120
370
     5
100
AcDbLine
 10
-264.5330880382616
 20
-735.2565907930456
 30
0.0
 11
-14.53308803827134
 21
-485.2565907930556
 31
0.0
  0
LINE
  5
A3
330
1F
100
AcDbEntity
  8
0-0
  6
JWW_DASHED1
 62
   120
370
     5
100
AcDbLine
 10
-264.5330880382656
 20
-728.1855229797644
 30
0.0
 11
-14.53308803825919
 21
-478.1855229797582
 31
0.0
  0
LINE
  5
A4
330
1F
100
AcDbEntity
  8
0-0
  6
JWW_DASHED1
 62
   120
370
     5
100
AcDbLine
 10
-264.5330880382695
 20
-721.1144551664823
 30
0.0
 11
-14.53308803826346
 21
-471.1144551664769
 31
0.0
  0
LINE
  5
A5
330
1F
100
AcDbEntity
  8
0-0
  6
JWW_DASHED1
 62
   120
370
     5
100
AcDbLine
 10
-264.5330880382735
 20
-714.0433873532011
 30
0.0
 11
-14.53308803826751
 21
-464.0433873531953
 31
0.0
  0
LINE
  5
A6
330
1F
100
AcDbEntity
  8
0-0
  6
JWW_DASHED1
 62
   120
370
     5
100
AcDbLine
 10
-264.5330880382616
 20
-706.9723195399037
 30
0.0
 11
-14.53308803827156
 21
-456.9723195399137
 31
0.0
  0
LINE
  5
A7
330
1F
100
AcDbEntity
  8
0-0
  6
JWW_DASHED1
 62
   120
370
     5
100
AcDbLine
 10
-264.5330880382518
 20
-699.9012517266088
 30
0.0
 11
-14.53308803826388
 21
-449.9012517266204
 31
0.0
  0
LINE
  5
A8
330
1F
100
AcDbEntity
  8
0-0
  6
JWW_DASHED1
 62
   120
370
     5
100
AcDbLine
 10
-264.5330880382561
 20
-692.8301839133276
 30
0.0
 11
-14.53308803826772
 21
-442.8301839133393
 31
0.0
  0
LINE
  5
A9
330
1F
100
AcDbEntity
  8
0-0
  6
JWW_DASHED1
 62
   120
370
     5
100
AcDbLine
 10
-264.5330880382578
 20
-685.7591161000438
 30
0.0
 11
-14.53308803826772
 21
-435.7591161000538
 31
0.0
  0
LINE
  5
AA
330
1F
100
AcDbEntity
  8
0-0
  6
JWW_DASHED1
 62
   120
370
     5
100
AcDbLine
 10
-264.5330880382663
 20
-678.6880482868214
 30
0.0
 11
-14.53308803826026
 21
-428.6880482868152
 31
0.0
  0
LINE
  5
AB
330
1F
100
AcDbEntity
  8
0-0
  6
JWW_DASHED1
 62
   120
370
     5
100
AcDbLine
 10
-264.5330880382704
 20
-671.6169804735393
 30
0.0
 11
-14.53308803826431
 21
-421.6169804735335
 31
0.0
  0
LINE
  5
AC
330
1F
100
AcDbEntity
  8
0-0
  6
JWW_DASHED1
 62
   120
370
     5
100
AcDbLine
 10
-264.5330880382744
 20
-664.5459126602582
 30
0.0
 11
-14.53308803826836
 21
-414.5459126602523
 31
0.0
  0
LINE
  5
AD
330
1F
100
AcDbEntity
  8
0-0
  6
JWW_DASHED1
 62
   120
370
     5
100
AcDbLine
 10
-264.5330880382625
 20
-657.4748448469608
 30
0.0
 11
-14.53308803827262
 21
-407.4748448469711
 31
0.0
  0
LINE
  5
AE
330
1F
100
AcDbEntity
  8
0-0
  6
JWW_DASHED1
 62
   120
370
     5
100
AcDbLine
 10
-264.5330880382533
 20
-650.4037770336663
 30
0.0
 11
-14.53308803826495
 21
-400.403777033678
 31
0.0
  0
LINE
  5
AF
330
1F
100
AcDbEntity
  8
0-0
  6
JWW_DASHED1
 62
   120
370
     5
100
AcDbLine
 10
-264.533088038255
 20
-643.3327092203825
 30
0.0
 11
-14.53308803826474
 21
-393.3327092203921
 31
0.0
  0
LINE
  5
B0
330
1F
100
AcDbEntity
  8
0-0
  6
JWW_DASHED1
 62
   120
370
     5
100
AcDbLine
 10
-264.5330880382591
 20
-636.2616414071009
 30
0.0
 11
-14.53308803826857
 21
-386.2616414071108
 31
0.0
  0
LINE
  5
B1
330
1F
100
AcDbEntity
  8
0-0
  6
JWW_DASHED1
 62
   120
370
     5
100
AcDbLine
 10
-264.5330880382629
 20
-629.1905735938196
 30
0.0
 11
-14.53308803827284
 21
-379.1905735938296
 31
0.0
  0
LINE
  5
B2
330
1F
100
AcDbEntity
  8
0-0
  6
JWW_DASHED1
 62
   120
370
     5
100
AcDbLine
 10
-264.5330880382671
 20
-622.119505780538
 30
0.0
 11
-14.53308803826111
 21
-372.1195057805322
 31
0.0
  0
LINE
  5
B3
330
1F
100
AcDbEntity
  8
0-0
  6
JWW_DASHED1
 62
   120
370
     5
100
AcDbLine
 10
-264.5330880382712
 20
-615.0484379672569
 30
0.0
 11
-14.53308803826495
 21
-365.0484379672505
 31
0.0
  0
LINE
  5
B4
330
1F
100
AcDbEntity
  8
0-0
  6
JWW_DASHED1
 62
   120
370
     5
100
AcDbLine
 10
-264.5330880382637
 20
-607.9773701540187
 30
0.0
 11
-14.53308803827348
 21
-357.9773701540282
 31
0.0
  0
LINE
  5
B5
330
1F
100
AcDbEntity
  8
0-0
  6
JWW_DASHED1
 62
   120
370
     5
100
AcDbLine
 10
-264.5330880382544
 20
-600.9063023407238
 30
0.0
 11
-14.53308803826644
 21
-350.9063023407355
 31
0.0
  0
LINE
  5
B6
330
1F
100
AcDbEntity
  8
0-0
  6
JWW_DASHED1
 62
   120
370
     5
100
AcDbLine
 10
-264.5330880382559
 20
-593.8352345274395
 30
0.0
 11
-14.53308803826559
 21
-343.8352345274491
 31
0.0
  0
LINE
  5
B7
330
1F
100
AcDbEntity
  8
0-0
  6
JWW_DASHED1
 62
   120
370
     5
100
AcDbLine
 10
-264.5330880382599
 20
-586.7641667141579
 30
0.0
 11
-14.53308803826964
 21
-336.7641667141679
 31
0.0
  0
LINE
  5
B8
330
1F
100
AcDbEntity
  8
0-0
  6
JWW_DASHED1
 62
   120
370
     5
100
AcDbLine
 10
-264.5330880382637
 20
-579.6930989008767
 30
0.0
 11
-14.5330880382739
 21
-329.6930989008866
 31
0.0
  0
LINE
  5
B9
330
1F
100
AcDbEntity
  8
0-0
  6
JWW_DASHED1
 62
   120
370
     5
100
AcDbLine
 10
-264.533088038268
 20
-572.6220310875951
 30
0.0
 11
-14.53308803826175
 21
-322.6220310875892
 31
0.0
  0
LINE
  5
BA
330
1F
100
AcDbEntity
  8
0-0
  6
JWW_DASHED1
 62
   120
370
     5
100
AcDbLine
 10
-264.5330880382721
 20
-565.5509632743139
 30
0.0
 11
-14.53308803826602
 21
-315.5509632743081
 31
0.0
  0
LINE
  5
BB
330
1F
100
AcDbEntity
  8
0-0
  6
JWW_DASHED1
 62
   120
370
     5
100
AcDbLine
 10
-264.5330880382599
 20
-558.479895461016
 30
0.0
 11
-14.53308803826985
 21
-308.479895461026
 31
0.0
  0
LINE
  5
BC
330
1F
100
AcDbEntity
  8
0-0
  6
JWW_DASHED1
 62
   120
370
     5
100
AcDbLine
 10
-264.5330880382642
 20
-551.4088276477348
 30
0.0
 11
-14.5330880382739
 21
-301.4088276477447
 31
0.0
  0
LINE
  5
BD
330
1F
100
AcDbEntity
  8
0-0
  6
JWW_DASHED1
 62
   120
370
     5
100
AcDbLine
 10
-264.5330880382567
 20
-544.3377598344966
 30
0.0
 11
-14.53308803826644
 21
-294.3377598345062
 31
0.0
  0
LINE
  5
BE
330
1F
100
AcDbEntity
  8
0-0
  6
JWW_DASHED1
 62
   120
370
     5
100
AcDbLine
 10
-264.533088038261
 20
-537.2666920212155
 30
0.0
 11
-14.53308803827049
 21
-287.2666920212249
 31
0.0
  0
LINE
  5
BF
330
1F
100
AcDbEntity
  8
0-0
  6
JWW_DASHED1
 62
   120
370
     5
100
AcDbLine
 10
-264.5330880382646
 20
-530.1956242079334
 30
0.0
 11
-14.53308803825877
 21
-280.1956242079275
 31
0.0
  0
LINE
  5
C0
330
1F
100
AcDbEntity
  8
0-0
  6
JWW_DASHED1
 62
   120
370
     5
100
AcDbLine
 10
-264.5330880382687
 20
-523.1245563946521
 30
0.0
 11
-14.5330880382626
 21
-273.1245563946463
 31
0.0
  0
LINE
  5
C1
330
1F
100
AcDbEntity
  8
0-0
  6
JWW_DASHED1
 62
   120
370
     5
100
AcDbLine
 10
-264.5330880382729
 20
-516.0534885813709
 30
0.0
 11
-14.53308803826687
 21
-266.0534885813651
 31
0.0
  0
LINE
  5
C2
330
1F
100
AcDbEntity
  8
0-0
  6
JWW_DASHED1
 62
   120
370
     5
100
AcDbLine
 10
-264.5330880382608
 20
-508.9824207680731
 30
0.0
 11
-14.53308803827071
 21
-258.982420768083
 31
0.0
  0
LINE
  5
C3
330
1F
100
AcDbEntity
  8
0-0
  6
JWW_DASHED1
 62
   120
370
     5
100
AcDbLine
 10
-264.5330880382529
 20
-501.9113529547799
 30
0.0
 11
-14.53308803826474
 21
-251.9113529547916
 31
0.0
  0
LINE
  5
C4
330
1F
100
AcDbEntity
  8
0-0
  6
JWW_DASHED1
 62
   120
370
     5
100
AcDbLine
 10
-264.5330880382571
 20
-494.8402851414987
 30
0.0
 11
-14.53308803826879
 21
-244.8402851415103
 31
0.0
  0
LINE
  5
C5
330
1F
100
AcDbEntity
  8
0-0
  6
JWW_DASHED1
 62
   120
370
     5
100
AcDbLine
 10
-264.5330880382573
 20
-487.7692173282132
 30
0.0
 11
-14.53308803826729
 21
-237.7692173282232
 31
0.0
  0
LINE
  5
C6
330
1F
100
AcDbEntity
  8
0-0
  6
JWW_DASHED1
 62
   120
370
     5
100
AcDbLine
 10
-264.5330880382656
 20
-480.6981495149909
 30
0.0
 11
-14.53308803825962
 21
-230.6981495149846
 31
0.0
  0
LINE
  5
C7
330
1F
100
AcDbEntity
  8
0-0
  6
JWW_DASHED1
 62
   120
370
     5
100
AcDbLine
 10
-264.5330880382695
 20
-473.6270817017092
 30
0.0
 11
-14.53308803826346
 21
-223.6270817017034
 31
0.0
  0
LINE
  5
C8
330
1F
100
AcDbEntity
  8
0-0
  6
JWW_DASHED1
 62
   120
370
     5
100
AcDbLine
 10
-264.5330880382738
 20
-466.556013888428
 30
0.0
 11
-14.53308803826772
 21
-216.5560138884221
 31
0.0
  0
LINE
  5
C9
330
1F
100
AcDbEntity
  8
0-0
  6
JWW_DASHED1
 62
   120
370
     5
100
AcDbLine
 10
-264.5330880382622
 20
-459.484946075131
 30
0.0
 11
-14.53308803827198
 21
-209.4849460751405
 31
0.0
  0
LINE
  5
CA
330
1F
100
AcDbEntity
  8
0-0
  6
JWW_DASHED1
 62
   120
370
     5
100
AcDbLine
 10
-264.5330880382544
 20
-452.4138782618378
 30
0.0
 11
-14.5330880382658
 21
-202.413878261849
 31
0.0
  0
LINE
  5
CB
330
1F
100
AcDbEntity
  8
0-0
  6
JWW_DASHED1
 62
   120
370
     5
100
AcDbLine
 10
-264.5330880382544
 20
-445.3428104485523
 30
0.0
 11
-14.5330880382641
 21
-195.3428104485614
 31
0.0
  0
LINE
  5
CC
330
1F
100
AcDbEntity
  8
0-0
  6
JWW_DASHED1
 62
   120
370
     5
100
AcDbLine
 10
-264.5330880382582
 20
-438.2717426352702
 30
0.0
 11
-14.53308803826815
 21
-188.2717426352802
 31
0.0
  0
LINE
  5
CD
330
1F
100
AcDbEntity
  8
0-0
  6
JWW_DASHED1
 62
   120
370
     5
100
AcDbLine
 10
-264.5330880382622
 20
-431.2006748219891
 30
0.0
 11
-14.53308803827198
 21
-181.200674821999
 31
0.0
  0
LINE
  5
CE
330
1F
100
AcDbEntity
  8
0-0
  6
JWW_DASHED1
 62
   120
370
     5
100
AcDbLine
 10
-264.5330880382663
 20
-424.1296070087078
 30
0.0
 11
-14.53308803826026
 21
-174.1296070087016
 31
0.0
  0
LINE
  5
CF
330
1F
100
AcDbEntity
  8
0-0
  6
JWW_DASHED1
 62
   120
370
     5
100
AcDbLine
 10
-264.5330880382705
 20
-417.0585391954266
 30
0.0
 11
-14.53308803826452
 21
-167.0585391954204
 31
0.0
  0
LINE
  5
D0
330
1F
100
AcDbEntity
  8
0-0
  6
JWW_DASHED1
 62
   120
370
     5
100
AcDbLine
 10
-264.5330880382631
 20
-409.987471382188
 30
0.0
 11
-14.53308803827284
 21
-159.9874713821976
 31
0.0
  0
LINE
  5
D1
330
1F
100
AcDbEntity
  8
0-0
  6
JWW_DASHED1
 62
   120
370
     5
100
AcDbLine
 10
-264.5330880382556
 20
-402.9164035688949
 30
0.0
 11
-14.53308803826729
 21
-152.9164035689065
 31
0.0
  0
LINE
  5
D2
330
1F
100
AcDbEntity
  8
0-0
  6
JWW_DASHED1
 62
   120
370
     5
100
AcDbLine
 10
-264.5330880382552
 20
-395.8453357556094
 30
0.0
 11
-14.53308803826474
 21
-145.8453357556185
 31
0.0
  0
LINE
  5
D3
330
1F
100
AcDbEntity
  8
0-0
  6
JWW_DASHED1
 62
   120
370
     5
100
AcDbLine
 10
-264.5330880382591
 20
-388.7742679423274
 30
0.0
 11
-14.533088038269
 21
-138.7742679423373
 31
0.0
  0
LINE
  5
D4
330
1F
100
AcDbEntity
  8
0-0
  6
JWW_DASHED1
 62
   120
370
     5
100
AcDbLine
 10
-264.5330880382629
 20
-381.7032001290461
 30
0.0
 11
-14.53308803827326
 21
-131.7032001290561
 31
0.0
  0
LINE
  5
D5
330
1F
100
AcDbEntity
  8
0-0
  6
JWW_DASHED1
 62
   120
370
     5
100
AcDbLine
 10
-264.5330880382671
 20
-374.6321323157649
 30
0.0
 11
-14.53308803826111
 21
-124.6321323157586
 31
0.0
  0
LINE
  5
D6
330
1F
100
AcDbEntity
  8
0-0
  6
JWW_DASHED1
 62
   120
370
     5
100
AcDbLine
 10
-264.5330880382714
 20
-367.5610645024836
 30
0.0
 11
-14.53308803826538
 21
-117.5610645024774
 31
0.0
  0
LINE
  5
D7
330
1F
100
AcDbEntity
  8
0-0
  6
JWW_DASHED1
 62
   120
370
     5
100
AcDbLine
 10
-264.5330880382595
 20
-360.4899966891862
 30
0.0
 11
-14.53308803826921
 21
-110.4899966891958
 31
0.0
  0
LINE
  5
D8
330
1F
100
AcDbEntity
  8
0-0
  6
JWW_DASHED1
 62
   120
370
     5
100
AcDbLine
 10
-264.5330880382635
 20
-353.4189288759042
 30
0.0
 11
-14.53308803827348
 21
-103.4189288759146
 31
0.0
  0
LINE
  5
D9
330
1F
100
AcDbEntity
  8
0-0
  6
JWW_DASHED1
 62
   120
370
     5
100
AcDbLine
 10
-264.5330880382561
 20
-346.3478610626664
 30
0.0
 11
-14.53308803826559
 21
-96.34786106267555
 31
0.0
  0
LINE
  5
DA
330
1F
100
AcDbEntity
  8
0-0
  6
JWW_DASHED1
 62
   120
370
     5
100
AcDbLine
 10
-264.5330880382603
 20
-339.2767932493848
 30
0.0
 11
-14.53308803826985
 21
-89.27679324939433
 31
0.0
  0
LINE
  5
DB
330
1F
100
AcDbEntity
  8
0-0
  6
JWW_DASHED1
 62
   120
370
     5
100
AcDbLine
 10
-264.5330880382642
 20
-332.2057254361032
 30
0.0
 11
-14.53308803825813
 21
-82.20572543609734
 31
0.0
  0
LINE
  5
DC
330
1F
100
AcDbEntity
  8
0-0
  6
JWW_DASHED1
 62
   120
370
     5
100
AcDbLine
 10
-264.533088038268
 20
-325.1346576228219
 30
0.0
 11
-14.53308803826197
 21
-75.1346576228157
 31
0.0
  0
LINE
  5
DD
330
1F
100
AcDbEntity
  8
0-0
  6
JWW_DASHED1
 62
   120
370
     5
100
AcDbLine
 10
-264.5330880382722
 20
-318.0635898095403
 30
0.0
 11
-14.53308803826623
 21
-68.06358980953448
 31
0.0
  0
LINE
  5
DE
330
1F
100
AcDbEntity
  8
0-0
  6
JWW_DASHED1
 62
   120
370
     5
100
AcDbLine
 10
-264.5330880382603
 20
-310.9925219962433
 30
0.0
 11
-14.53308803827028
 21
-60.99252199625326
 31
0.0
  0
LINE
  5
DF
330
1F
100
AcDbEntity
  8
0-0
  6
JWW_DASHED1
 62
   120
370
     5
100
AcDbLine
 10
-264.5330880382542
 20
-303.921454182951
 30
0.0
 11
-14.5330880382658
 21
-53.92145418296309
 31
0.0
  0
LINE
  5
E0
330
1F
100
AcDbEntity
  8
0-0
  6
JWW_DASHED1
 62
   120
370
     5
100
AcDbLine
 10
-264.5330880382582
 20
-296.8503863696698
 30
0.0
 11
-14.53308803826964
 21
-46.85038636968144
 31
0.0
  0
LINE
  5
E1
330
1F
100
AcDbEntity
  8
0-0
  6
JWW_DASHED1
 62
   120
370
     5
100
AcDbLine
 10
-264.5330880382569
 20
-289.7793185563835
 30
0.0
 11
-14.53308803826665
 21
-39.77931855639298
 31
0.0
  0
LINE
  5
E2
330
1F
100
AcDbEntity
  8
0-0
  6
JWW_DASHED1
 62
   120
370
     5
100
AcDbLine
 10
-264.5330880382652
 20
-282.7082507431606
 30
0.0
 11
-14.53308803825919
 21
-32.70825074315482
 31
0.0
  0
LINE
  5
E3
330
1F
100
AcDbEntity
  8
0-0
  6
JWW_DASHED1
 62
   120
370
     5
100
AcDbLine
 10
-264.5330880382691
 20
-275.637182929879
 30
0.0
 11
-14.53308803826303
 21
-25.63718292987275
 31
0.0
  0
LINE
  5
E4
330
1F
100
AcDbEntity
  8
0-0
  6
JWW_DASHED1
 62
   120
370
     5
100
AcDbLine
 10
-264.5330880382731
 20
-268.5661151165974
 30
0.0
 11
-14.53308803826708
 21
-18.56611511659153
 31
0.0
  0
LINE
  5
E5
330
1F
100
AcDbEntity
  8
0-0
  6
JWW_DASHED1
 62
   120
370
     5
100
AcDbLine
 10
-264.5330880382616
 20
-261.4950473033003
 30
0.0
 11
-14.53308803827113
 21
-11.49504730331032
 31
0.0
  0
LINE
  5
E6
330
1F
100
AcDbEntity
  8
0-0
  6
JWW_DASHED1
 62
   120
370
     5
100
AcDbLine
 10
-264.5330880382554
 20
-254.4239794900089
 30
0.0
 11
-14.53308803826687
 21
-4.423979490020571
 31
0.0
  0
LINE
  5
E7
330
1F
100
AcDbEntity
  8
0-0
  6
JWW_DASHED1
 62
   120
370
     5
100
AcDbLine
 10
-264.5330880382595
 20
-247.3529116767273
 30
0.0
 11
-14.53308803827113
 21
2.647088323260647
 31
0.0
  0
LINE
  5
E8
330
1F
100
AcDbEntity
  8
0-0
  6
JWW_DASHED1
 62
   120
370
     5
100
AcDbLine
 10
-264.5330880382576
 20
-240.2818438634401
 30
0.0
 11
-14.53308803826751
 21
9.718156136549965
 31
0.0
  0
LINE
  5
E9
330
1F
100
AcDbEntity
  8
0-0
  6
JWW_DASHED1
 62
   120
370
     5
100
AcDbLine
 10
-264.5330880382614
 20
-233.2107760501584
 30
0.0
 11
-14.53308803827134
 21
16.78922394983161
 31
0.0
  0
LINE
  5
EA
330
1F
100
AcDbEntity
  8
0-0
  6
JWW_DASHED1
 62
   120
370
     5
100
AcDbLine
 10
-264.5330880382656
 20
-226.1397082368772
 30
0.0
 11
-14.53308803825962
 21
23.86029176312903
 31
0.0
  0
LINE
  5
EB
330
1F
100
AcDbEntity
  8
0-0
  6
JWW_DASHED1
 62
   120
370
     5
100
AcDbLine
 10
-264.5330880382697
 20
-219.068640423596
 30
0.0
 11
-14.53308803826367
 21
30.93135957641024
 31
0.0
  0
LINE
  5
EC
330
1F
100
AcDbEntity
  8
0-0
  6
JWW_DASHED1
 62
   120
370
     5
100
AcDbLine
 10
-264.5330880382625
 20
-211.9975726103574
 30
0.0
 11
-14.53308803827198
 21
38.00242738963263
 31
0.0
  0
LINE
  5
ED
330
1F
100
AcDbEntity
  8
0-0
  6
JWW_DASHED1
 62
   120
370
     5
100
AcDbLine
 10
-264.5330880382563
 20
-204.926504797066
 30
0.0
 11
-14.53308803826836
 21
45.07349520292195
 31
0.0
  0
LINE
  5
EE
330
1F
100
AcDbEntity
  8
0-0
  6
JWW_DASHED1
 62
   120
370
     5
100
AcDbLine
 10
-264.5330880382546
 20
-197.8554369837788
 30
0.0
 11
-14.53308803826431
 21
52.14456301621126
 31
0.0
  0
LINE
  5
EF
330
1F
100
AcDbEntity
  8
0-0
  6
JWW_DASHED1
 62
   120
370
     5
100
AcDbLine
 10
-264.5330880382586
 20
-190.7843691704976
 30
0.0
 11
-14.53308803826836
 21
59.21563082949291
 31
0.0
  0
LINE
  5
F0
330
1F
100
AcDbEntity
  8
0-0
  6
JWW_DASHED1
 62
   120
370
     5
100
AcDbLine
 10
-264.5330880382625
 20
-183.7133013572155
 30
0.0
 11
-14.5330880382722
 21
66.28669864277455
 31
0.0
  0
LINE
  5
F1
330
1F
100
AcDbEntity
  8
0-0
  6
JWW_DASHED1
 62
   120
370
     5
100
AcDbLine
 10
-264.5330880382665
 20
-176.6422335439343
 30
0.0
 11
-14.53308803826047
 21
73.35776645607197
 31
0.0
  0
LINE
  5
F2
330
1F
100
AcDbEntity
  8
0-0
  6
JWW_DASHED1
 62
   120
370
     5
100
AcDbLine
 10
-264.5330880382705
 20
-169.5711657306531
 30
0.0
 11
-14.53308803826452
 21
80.42883426935319
 31
0.0
  0
LINE
  5
F3
330
1F
100
AcDbEntity
  8
0-0
  6
JWW_DASHED1
 62
   120
370
     5
100
AcDbLine
 10
-264.5330880382591
 20
-162.5000979173556
 30
0.0
 11
-14.53308803826879
 21
87.4999020826344
 31
0.0
  0
LINE
  5
F4
330
1F
100
AcDbEntity
  8
0-0
  6
JWW_DASHED1
 62
   120
370
     5
100
AcDbLine
 10
-264.5330880382631
 20
-155.4290301040744
 30
0.0
 11
-14.53308803827262
 21
94.57096989591605
 31
0.0
  0
LINE
  5
F5
330
1F
100
AcDbEntity
  8
0-0
  6
JWW_DASHED1
 62
   120
370
     5
100
AcDbLine
 10
-264.5330880382556
 20
-148.3579622908358
 30
0.0
 11
-14.53308803826516
 21
101.6420377091542
 31
0.0
  0
LINE
  5
F6
330
1F
100
AcDbEntity
  8
0-0
  6
JWW_DASHED1
 62
   120
370
     5
100
AcDbLine
 10
-264.5330880382595
 20
-141.2868944775546
 30
0.0
 11
-14.53308803826921
 21
108.7131055224359
 31
0.0
  0
LINE
  5
F7
330
1F
100
AcDbEntity
  8
0-0
  6
JWW_DASHED1
 62
   120
370
     5
100
AcDbLine
 10
-264.5330880382637
 20
-134.2158266642734
 30
0.0
 11
-14.53308803825728
 21
115.7841733357333
 31
0.0
  0
LINE
  5
F8
330
1F
100
AcDbEntity
  8
0-0
  6
JWW_DASHED1
 62
   120
370
     5
100
AcDbLine
 10
-264.5330880382676
 20
-127.1447588509913
 30
0.0
 11
-14.53308803826154
 21
122.8552411490145
 31
0.0
  0
LINE
  5
F9
330
1F
100
AcDbEntity
  8
0-0
  6
JWW_DASHED1
 62
   120
370
     5
100
AcDbLine
 10
-264.5330880382714
 20
-120.0736910377101
 30
0.0
 11
-14.53308803826559
 21
129.9263089622961
 31
0.0
  0
LINE
  5
FA
330
1F
100
AcDbEntity
  8
0-0
  6
JWW_DASHED1
 62
   120
370
     5
100
AcDbLine
 10
-264.5330880382597
 20
-113.0026232244127
 30
0.0
 11
-14.53308803826964
 21
136.9973767755774
 31
0.0
  0
LINE
  5
FB
330
1F
100
AcDbEntity
  8
0-0
  6
JWW_DASHED1
 62
   120
370
     5
100
AcDbLine
 10
-264.5330880382548
 20
-105.9315554111221
 30
0.0
 11
-14.53308803826665
 21
144.0684445888658
 31
0.0
  0
LINE
  5
FC
330
1F
100
AcDbEntity
  8
0-0
  6
JWW_DASHED1
 62
   120
370
     5
100
AcDbLine
 10
-264.5330880382586
 20
-98.86048759784089
 30
0.0
 11
-14.53308803827071
 21
151.1395124021475
 31
0.0
  0
LINE
  5
FD
330
1F
100
AcDbEntity
  8
0-0
  6
JWW_DASHED1
 62
   120
370
     5
100
AcDbLine
 10
-264.5330880382563
 20
-91.78941978455285
 30
0.0
 11
-14.5330880382658
 21
158.2105802154372
 31
0.0
  0
LINE
  5
FE
330
1F
100
AcDbEntity
  8
0-0
  6
JWW_DASHED1
 62
   120
370
     5
100
AcDbLine
 10
-264.5330880382605
 20
-84.71835197127163
 30
0.0
 11
-14.53308803826985
 21
165.2816480287193
 31
0.0
  0
LINE
  5
FF
330
1F
100
AcDbEntity
  8
0-0
  6
JWW_DASHED1
 62
   120
370
     5
100
AcDbLine
 10
-264.5330880382684
 20
-77.6472841580484
 30
0.0
 11
-14.53308803826239
 21
172.3527158419574
 31
0.0
  0
LINE
  5
100
330
1F
100
AcDbEntity
  8
0-0
  6
JWW_DASHED1
 62
   120
370
     5
100
AcDbLine
 10
-264.5330880382722
 20
-70.57621634476718
 30
0.0
 11
-14.53308803826665
 21
179.4237836552387
 31
0.0
  0
LINE
  5
101
330
1F
100
AcDbEntity
  8
0-0
  6
JWW_DASHED1
 62
   120
370
     5
100
AcDbLine
 10
-264.5330880382608
 20
-63.50514853146976
 30
0.0
 11
-14.53308803827049
 21
186.4948514685203
 31
0.0
  0
LINE
  5
102
330
1F
100
AcDbEntity
  8
0-0
  6
JWW_DASHED1
 62
   120
370
     5
100
AcDbLine
 10
-264.5330880382561
 20
-56.43408071817959
 30
0.0
 11
-14.53308803826793
 21
193.5659192818083
 31
0.0
  0
LINE
  5
103
330
1F
100
AcDbEntity
  8
0-0
  6
JWW_DASHED1
 62
   120
370
     5
100
AcDbLine
 10
-264.5330880382601
 20
-49.36301290489837
 30
0.0
 11
-14.5330880382722
 21
200.6369870950896
 31
0.0
  0
LINE
  5
104
330
1F
100
AcDbEntity
  8
0-0
  6
JWW_DASHED1
 62
   120
370
     5
100
AcDbLine
 10
-264.5330880382571
 20
-42.2919450916099
 30
0.0
 11
-14.53308803826665
 21
207.7080549083806
 31
0.0
  0
LINE
  5
105
330
1F
100
AcDbEntity
  8
0-0
  6
JWW_DASHED1
 62
   120
370
     5
100
AcDbLine
 10
-264.5330880382614
 20
-35.22087727832869
 30
0.0
 11
-14.53308803827071
 21
214.7791227216622
 31
0.0
  0
LINE
  5
106
330
1F
100
AcDbEntity
  8
0-0
  6
JWW_DASHED1
 62
   120
370
     5
100
AcDbLine
 10
-264.5330880382652
 20
-28.14980946504704
 30
0.0
 11
-14.53308803825898
 21
221.8501905349592
 31
0.0
  0
LINE
  5
107
330
1F
100
AcDbEntity
  8
0-0
  6
JWW_DASHED1
 62
   120
370
     5
100
AcDbLine
 10
-264.5330880382691
 20
-21.0787416517654
 30
0.0
 11
-14.53308803826303
 21
228.9212583482409
 31
0.0
  0
LINE
  5
108
330
1F
100
AcDbEntity
  8
0-0
  6
JWW_DASHED1
 62
   120
370
     5
100
AcDbLine
 10
-264.5330880382616
 20
-14.00767383852681
 30
0.0
 11
-14.53308803827134
 21
235.9923261614632
 31
0.0
  0
LINE
  5
109
330
1F
100
AcDbEntity
  8
0-0
  6
JWW_DASHED1
 62
   120
370
     5
100
AcDbLine
 10
-264.5330880382573
 20
-6.936606025237069
 30
0.0
 11
-14.53308803826921
 21
243.0633939747509
 31
0.0
  0
LINE
  5
10A
330
1F
100
AcDbEntity
  8
0-0
  6
JWW_DASHED1
 62
   120
370
     5
100
AcDbLine
 10
-264.5330880382537
 20
0.1344617880518229
 30
0.0
 11
-14.53308803826367
 21
250.1344617880419
 31
0.0
  0
LINE
  5
10B
330
1F
100
AcDbEntity
  8
0-0
  6
JWW_DASHED1
 62
   120
370
     5
100
AcDbLine
 10
-264.533088038258
 20
7.205529601333041
 30
0.0
 11
-14.53308803826751
 21
257.2055296013235
 31
0.0
  0
LINE
  5
10C
330
1F
100
AcDbEntity
  8
0-0
  6
JWW_DASHED1
 62
   120
370
     5
100
AcDbLine
 10
-264.5330880382618
 20
14.27659741461468
 30
0.0
 11
-14.53308803827177
 21
264.2765974146047
 31
0.0
  0
LINE
  5
10D
330
1F
100
AcDbEntity
  8
0-0
  6
JWW_DASHED1
 62
   120
370
     5
100
AcDbLine
 10
-264.5330880382656
 20
21.34766522789633
 30
0.0
 11
-14.53308803826005
 21
271.3476652279018
 31
0.0
  0
LINE
  5
10E
330
1F
100
AcDbEntity
  8
0-0
  6
JWW_DASHED1
 62
   120
370
     5
100
AcDbLine
 10
-264.5330880382699
 20
28.41873304117755
 30
0.0
 11
-14.53308803826388
 21
278.4187330411838
 31
0.0
  0
LINE
  5
10F
330
1F
100
AcDbEntity
  8
0-0
  6
JWW_DASHED1
 62
   120
370
     5
100
AcDbLine
 10
-264.5330880382584
 20
35.48980085447454
 30
0.0
 11
-14.53308803826815
 21
285.489800854465
 31
0.0
  0
LINE
  5
110
330
1F
100
AcDbEntity
  8
0-0
  6
JWW_DASHED1
 62
   120
370
     5
100
AcDbLine
 10
-264.533088038262
 20
42.56086866775618
 30
0.0
 11
-14.53308803827198
 21
292.5608686677463
 31
0.0
  0
LINE
  5
111
330
1F
100
AcDbEntity
  8
0-0
  6
JWW_DASHED1
 62
   120
370
     5
100
AcDbLine
 10
-264.5330880382546
 20
49.63193648099477
 30
0.0
 11
-14.53308803826452
 21
299.6319364809848
 31
0.0
  0
LINE
  5
112
330
1F
100
AcDbEntity
  8
0-0
  6
JWW_DASHED1
 62
   120
370
     5
100
AcDbLine
 10
-264.5330880382588
 20
56.70300429427598
 30
0.0
 11
-14.53308803826879
 21
306.7030042942661
 31
0.0
  0
LINE
  5
113
330
1F
100
AcDbEntity
  8
0-0
  6
JWW_DASHED1
 62
   120
370
     5
100
AcDbLine
 10
-264.5330880382629
 20
63.7740721075572
 30
0.0
 11
-14.53308803825685
 21
313.7740721075635
 31
0.0
  0
LINE
  5
114
330
1F
100
AcDbEntity
  8
0-0
  6
JWW_DASHED1
 62
   120
370
     5
100
AcDbLine
 10
-264.533088038267
 20
70.84513992083885
 30
0.0
 11
-14.5330880382609
 21
320.8451399208446
 31
0.0
  0
LINE
  5
115
330
1F
100
AcDbEntity
  8
0-0
  6
JWW_DASHED1
 62
   120
370
     5
100
AcDbLine
 10
-264.5330880382708
 20
77.91620773412049
 30
0.0
 11
-14.53308803826495
 21
327.9162077341263
 31
0.0
  0
LINE
  5
116
330
1F
100
AcDbEntity
  8
0-0
  6
JWW_DASHED1
 62
   120
370
     5
100
AcDbLine
 10
-264.5330880382593
 20
84.98727554741748
 30
0.0
 11
-14.53308803826879
 21
334.987275547408
 31
0.0
  0
LINE
  5
117
330
1F
100
AcDbEntity
  8
0-0
  6
JWW_DASHED1
 62
   120
370
     5
100
AcDbLine
 10
-264.5330880382563
 20
92.05834336070595
 30
0.0
 11
-14.53308803826772
 21
342.0583433606943
 31
0.0
  0
LINE
  5
118
330
1F
100
AcDbEntity
  8
0-0
  6
JWW_DASHED1
 62
   120
370
     5
100
AcDbLine
 10
-264.5330880382599
 20
99.12941117398802
 30
0.0
 11
-14.53308803827177
 21
349.1294111739759
 31
0.0
  0
LINE
  5
119
330
1F
100
AcDbEntity
  8
0-0
  6
JWW_DASHED1
 62
   120
370
     5
100
AcDbLine
 10
-264.5330880382556
 20
106.2004789872778
 30
0.0
 11
-14.53308803826516
 21
356.2004789872678
 31
0.0
  0
LINE
  5
11A
330
1F
100
AcDbEntity
  8
0-0
  6
JWW_DASHED1
 62
   120
370
     5
100
AcDbLine
 10
-264.5330880382597
 20
113.271546800559
 30
0.0
 11
-14.53308803826943
 21
363.271546800549
 31
0.0
  0
LINE
  5
11B
330
1F
100
AcDbEntity
  8
0-0
  6
JWW_DASHED1
 62
   120
370
     5
100
AcDbLine
 10
-264.533088038268
 20
120.3426146137814
 30
0.0
 11
-14.53308803826197
 21
370.3426146137876
 31
0.0
  0
LINE
  5
11C
330
1F
100
AcDbEntity
  8
0-0
  6
JWW_DASHED1
 62
   120
370
     5
100
AcDbLine
 10
-264.5330880382722
 20
127.4136824270626
 30
0.0
 11
-14.5330880382658
 21
377.4136824270693
 31
0.0
  0
LINE
  5
11D
330
1F
100
AcDbEntity
  8
0-0
  6
JWW_DASHED1
 62
   120
370
     5
100
AcDbLine
 10
-264.5330880382601
 20
134.4847502403604
 30
0.0
 11
-14.53308803826964
 21
384.4847502403509
 31
0.0
  0
LINE
  5
11E
330
1F
100
AcDbEntity
  8
0-0
  6
JWW_DASHED1
 62
   120
370
     5
100
AcDbLine
 10
-264.5330880382571
 20
141.5558180536489
 30
0.0
 11
-14.533088038269
 21
391.5558180536368
 31
0.0
  0
LINE
  5
11F
330
1F
100
AcDbEntity
  8
0-0
  6
JWW_DASHED1
 62
   120
370
     5
100
AcDbLine
 10
-264.5330880382612
 20
148.6268858669301
 30
0.0
 11
-14.53308803827305
 21
398.6268858669184
 31
0.0
  0
LINE
  5
120
330
1F
100
AcDbEntity
  8
0-0
  6
JWW_DASHED1
 62
   120
370
     5
100
AcDbLine
 10
-264.5330880382565
 20
155.6979536802207
 30
0.0
 11
-14.53308803826602
 21
405.6979536802107
 31
0.0
  0
LINE
  5
121
330
1F
100
AcDbEntity
  8
0-0
  6
JWW_DASHED1
 62
   120
370
     5
100
AcDbLine
 10
-264.5330880382605
 20
162.7690214935019
 30
0.0
 11
-14.53308803827028
 21
412.769021493492
 31
0.0
  0
LINE
  5
122
330
1F
100
AcDbEntity
  8
0-0
  6
JWW_DASHED1
 62
   120
370
     5
100
AcDbLine
 10
-264.5330880382644
 20
169.8400893067836
 30
0.0
 11
-14.53308803825834
 21
419.8400893067894
 31
0.0
  0
LINE
  5
123
330
1F
100
AcDbEntity
  8
0-0
  6
JWW_DASHED1
 62
   120
370
     5
100
AcDbLine
 10
-264.5330880382684
 20
176.9111571200652
 30
0.0
 11
-14.53308803826239
 21
426.911157120071
 31
0.0
  0
LINE
  5
124
330
1F
100
AcDbEntity
  8
0-0
  6
JWW_DASHED1
 62
   120
370
     5
100
AcDbLine
 10
-264.533088038261
 20
183.9822249333034
 30
0.0
 11
-14.53308803827092
 21
433.9822249332934
 31
0.0
  0
LINE
  5
125
330
1F
100
AcDbEntity
  8
0-0
  6
JWW_DASHED1
 62
   120
370
     5
100
AcDbLine
 10
-264.5330880382584
 20
191.0532927465914
 30
0.0
 11
-14.53308803827028
 21
441.0532927465794
 31
0.0
  0
LINE
  5
126
330
1F
100
AcDbEntity
  8
0-0
  6
JWW_DASHED1
 62
   120
370
     5
100
AcDbLine
 10
-264.5330880382531
 20
198.1243605598824
 30
0.0
 11
-14.53308803826303
 21
448.1243605598721
 31
0.0
  0
LINE
  5
127
330
1F
100
AcDbEntity
  8
0-0
  6
JWW_DASHED1
 62
   120
370
     5
100
AcDbLine
 10
-264.5330880382571
 20
205.1954283731637
 30
0.0
 11
-14.53308803826708
 21
455.1954283731537
 31
0.0
  0
LINE
  5
128
330
1F
100
AcDbEntity
  8
0-0
  6
JWW_DASHED1
 62
   120
370
     5
100
AcDbLine
 10
-264.5330880382614
 20
212.2664961864449
 30
0.0
 11
-14.53308803827113
 21
462.2664961864349
 31
0.0
  0
LINE
  5
129
330
1F
100
AcDbEntity
  8
0-0
  6
JWW_DASHED1
 62
   120
370
     5
100
AcDbLine
 10
-264.5330880382652
 20
219.3375639997265
 30
0.0
 11
-14.53308803825919
 21
469.3375639997323
 31
0.0
  0
LINE
  5
12A
330
1F
100
AcDbEntity
  8
0-0
  6
JWW_DASHED1
 62
   120
370
     5
100
AcDbLine
 10
-264.5330880382695
 20
226.4086318130077
 30
0.0
 11
-14.53308803826324
 21
476.408631813014
 31
0.0
  0
LINE
  5
12B
330
1F
100
AcDbEntity
  8
0-0
  6
JWW_DASHED1
 62
   120
370
     5
100
AcDbLine
 10
-264.5330880382578
 20
233.4796996263047
 30
0.0
 11
-14.53308803826729
 21
483.4796996262957
 31
0.0
  0
LINE
  5
12C
330
1F
100
AcDbEntity
  8
0-0
  6
JWW_DASHED1
 62
   120
370
     5
100
AcDbLine
 10
-264.5330880382616
 20
240.5507674395868
 30
0.0
 11
-14.53308803827134
 21
490.5507674395768
 31
0.0
  0
LINE
  5
12D
330
1F
100
AcDbEntity
  8
0-0
  6
JWW_DASHED1
 62
   120
370
     5
100
AcDbLine
 10
-264.5330880382597
 20
247.621835252874
 30
0.0
 11
-14.53308803827156
 21
497.6218352528623
 31
0.0
  0
LINE
  5
12E
330
1F
100
AcDbEntity
  8
0-0
  6
JWW_DASHED1
 62
   120
370
     5
100
AcDbLine
 10
-264.533088038258
 20
254.6929030661066
 30
0.0
 11
-14.53308803826793
 21
504.6929030660966
 31
0.0
  0
LINE
  5
12F
330
1F
100
AcDbEntity
  8
0-0
  6
JWW_DASHED1
 62
   120
370
     5
100
AcDbLine
 10
-264.5330880382622
 20
261.7639708793878
 30
0.0
 11
-14.53308803827198
 21
511.7639708793779
 31
0.0
  0
LINE
  5
130
330
1F
100
AcDbEntity
  8
0-0
  6
JWW_DASHED1
 62
   120
370
     5
100
AcDbLine
 10
-264.5330880382665
 20
268.8350386926691
 30
0.0
 11
-14.53308803826026
 21
518.8350386926753
 31
0.0
  0
LINE
  5
131
330
1F
100
AcDbEntity
  8
0-0
  6
JWW_DASHED1
 62
   120
370
     5
100
AcDbLine
 10
-264.5330880382704
 20
275.9061065059507
 30
0.0
 11
-14.53308803826431
 21
525.9061065059565
 31
0.0
  0
LINE
  5
132
330
1F
100
AcDbEntity
  8
0-0
  6
JWW_DASHED1
 62
   120
370
     5
100
AcDbLine
 10
-264.5330880382586
 20
282.9771743192476
 30
0.0
 11
-14.53308803826815
 21
532.9771743192385
 31
0.0
  0
LINE
  5
133
330
1F
100
AcDbEntity
  8
0-0
  6
JWW_DASHED1
 62
   120
370
     5
100
AcDbLine
 10
-264.5330880382627
 20
290.0482421325293
 30
0.0
 11
-14.53308803827241
 21
540.0482421325198
 31
0.0
  0
LINE
  5
134
330
1F
100
AcDbEntity
  8
0-0
  6
JWW_DASHED1
 62
   120
370
     5
100
AcDbLine
 10
-264.533088038261
 20
297.1193099458165
 30
0.0
 11
-14.53308803827284
 21
547.1193099458044
 31
0.0
  0
LINE
  5
135
330
1F
100
AcDbEntity
  8
0-0
  6
JWW_DASHED1
 62
   120
370
     5
100
AcDbLine
 10
-264.5330880382548
 20
304.1903777591084
 30
0.0
 11
-14.53308803826452
 21
554.1903777590984
 31
0.0
  0
LINE
  5
136
330
1F
100
AcDbEntity
  8
0-0
  6
JWW_DASHED1
 62
   120
370
     5
100
AcDbLine
 10
-264.5330880382588
 20
311.2614455723896
 30
0.0
 11
-14.53308803826857
 21
561.2614455723797
 31
0.0
  0
LINE
  5
137
330
1F
100
AcDbEntity
  8
0-0
  6
JWW_DASHED1
 62
   120
370
     5
100
AcDbLine
 10
-264.5330880382674
 20
318.3325133856119
 30
0.0
 11
-14.53308803826133
 21
568.3325133856182
 31
0.0
  0
LINE
  5
138
330
1F
100
AcDbEntity
  8
0-0
  6
JWW_DASHED1
 62
   120
370
     5
100
AcDbLine
 10
-264.5330880382712
 20
325.4035811988936
 30
0.0
 11
-14.53308803826516
 21
575.4035811988995
 31
0.0
  0
LINE
  5
139
330
1F
100
AcDbEntity
  8
0-0
  6
JWW_DASHED1
 62
   120
370
     5
100
AcDbLine
 10
-264.5330880382595
 20
332.4746490121906
 30
0.0
 11
-14.53308803826921
 21
582.4746490121806
 31
0.0
  0
LINE
  5
13A
330
1F
100
AcDbEntity
  8
0-0
  6
JWW_DASHED1
 62
   120
370
     5
100
AcDbLine
 10
-264.5330880382582
 20
339.5457168254778
 30
0.0
 11
-14.53308803827007
 21
589.5457168254657
 31
0.0
  0
LINE
  5
13B
330
1F
100
AcDbEntity
  8
0-0
  6
JWW_DASHED1
 62
   120
370
     5
100
AcDbLine
 10
-264.5330880382622
 20
346.616784638759
 30
0.0
 11
-14.53308803827412
 21
596.6167846387474
 31
0.0
  0
LINE
  5
13C
330
1F
100
AcDbEntity
  8
0-0
  6
JWW_DASHED1
 62
   120
370
     5
100
AcDbLine
 10
-264.5330880382556
 20
353.6878524520513
 30
0.0
 11
-14.53308803826538
 21
603.6878524520414
 31
0.0
  0
LINE
  5
13D
330
1F
100
AcDbEntity
  8
0-0
  6
JWW_DASHED1
 62
   120
370
     5
100
AcDbLine
 10
-264.5330880382599
 20
360.7589202653326
 30
0.0
 11
-14.53308803826943
 21
610.7589202653226
 31
0.0
  0
LINE
  5
13E
330
1F
100
AcDbEntity
  8
0-0
  6
JWW_DASHED1
 62
   120
370
     5
100
AcDbLine
 10
-264.5330880382637
 20
367.8299880786137
 30
0.0
 11
-14.5330880382577
 21
617.82998807862
 31
0.0
  0
LINE
  5
13F
330
1F
100
AcDbEntity
  8
0-0
  6
JWW_DASHED1
 62
   120
370
     5
100
AcDbLine
 10
-264.5330880382676
 20
374.9010558918958
 30
0.0
 11
-14.53308803826197
 21
624.9010558919013
 31
0.0
  0
LINE
  5
140
330
1F
100
AcDbEntity
  8
0-0
  6
JWW_DASHED1
 62
   120
370
     5
100
AcDbLine
 10
-264.5330880382718
 20
381.9721237051771
 30
0.0
 11
-14.5330880382658
 21
631.9721237051824
 31
0.0
  0
LINE
  5
141
330
1F
100
AcDbEntity
  8
0-0
  6
JWW_DASHED1
 62
   120
370
     5
100
AcDbLine
 10
-264.5330880382597
 20
389.0431915184199
 30
0.0
 11
-14.53308803827134
 21
639.0431915184082
 31
0.0
  0
LINE
  5
142
330
1F
100
AcDbEntity
  8
0-0
  6
JWW_DASHED1
 62
   120
370
     5
100
AcDbLine
 10
-264.5330880382527
 20
396.1142593317122
 30
0.0
 11
-14.53308803826239
 21
646.1142593317022
 31
0.0
  0
LINE
  5
143
330
1F
100
AcDbEntity
  8
0-0
  6
JWW_DASHED1
 62
   120
370
     5
100
AcDbLine
 10
-264.5330880382567
 20
403.1853271449938
 30
0.0
 11
-14.53308803826644
 21
653.1853271449843
 31
0.0
  0
LINE
  5
144
330
1F
100
AcDbEntity
  8
0-0
  6
JWW_DASHED1
 62
   120
370
     5
100
AcDbLine
 10
-264.5330880382608
 20
410.2563949582755
 30
0.0
 11
-14.53308803827049
 21
660.2563949582656
 31
0.0
  0
LINE
  5
145
330
1F
100
AcDbEntity
  8
0-0
  6
JWW_DASHED1
 62
   120
370
     5
100
AcDbLine
 10
-264.5330880382648
 20
417.3274627715567
 30
0.0
 11
-14.53308803825855
 21
667.327462771563
 31
0.0
  0
LINE
  5
146
330
1F
100
AcDbEntity
  8
0-0
  6
JWW_DASHED1
 62
   120
370
     5
100
AcDbLine
 10
-264.5330880382688
 20
424.3985305848379
 30
0.0
 11
-14.53308803826282
 21
674.3985305848441
 31
0.0
  0
LINE
  5
147
330
1F
100
AcDbEntity
  8
0-0
  6
JWW_DASHED1
 62
   120
370
     5
100
AcDbLine
 10
-264.5330880382727
 20
431.46959839812
 30
0.0
 11
-14.53308803826665
 21
681.4695983981254
 31
0.0
  0
LINE
  5
148
330
1F
100
AcDbEntity
  8
0-0
  6
JWW_DASHED1
 62
   120
370
     5
100
AcDbLine
 10
-264.533088038261
 20
438.540666211417
 30
0.0
 11
-14.53308803827071
 21
688.540666211407
 31
0.0
  0
LINE
  5
149
330
1F
100
AcDbEntity
  8
0-0
  6
JWW_DASHED1
 62
   120
370
     5
100
AcDbLine
 10
-264.5330880382605
 20
445.6117340247029
 30
0.0
 11
-14.53308803827241
 21
695.6117340246913
 31
0.0
  0
LINE
  5
14A
330
1F
100
AcDbEntity
  8
0-0
  6
JWW_DASHED1
 62
   120
370
     5
100
AcDbLine
 10
-264.5330880382576
 20
452.6828018379368
 30
0.0
 11
-14.53308803826729
 21
702.6828018379273
 31
0.0
  0
LINE
  5
14B
330
1F
100
AcDbEntity
  8
0-0
  6
JWW_DASHED1
 62
   120
370
     5
100
AcDbLine
 10
-264.5330880382616
 20
459.7538696512185
 30
0.0
 11
-14.53308803827134
 21
709.7538696512084
 31
0.0
  0
LINE
  5
14C
330
1F
100
AcDbEntity
  8
0-0
  6
JWW_DASHED1
 62
   120
370
     5
100
AcDbLine
 10
-264.5330880382656
 20
466.8249374644996
 30
0.0
 11
-14.53308803825962
 21
716.8249374645059
 31
0.0
  0
LINE
  5
14D
330
1F
100
AcDbEntity
  8
0-0
  6
JWW_DASHED1
 62
   120
370
     5
100
AcDbLine
 10
-264.5330880382697
 20
473.8960052777809
 30
0.0
 11
-14.53308803826346
 21
723.8960052777871
 31
0.0
  0
LINE
  5
14E
330
1F
100
AcDbEntity
  8
0-0
  6
JWW_DASHED1
 62
   120
370
     5
100
AcDbLine
 10
-264.5330880382578
 20
480.9670730910783
 30
0.0
 11
-14.53308803826751
 21
730.9670730910688
 31
0.0
  0
LINE
  5
14F
330
1F
100
AcDbEntity
  8
0-0
  6
JWW_DASHED1
 62
   120
370
     5
100
AcDbLine
 10
-264.533088038262
 20
488.0381409043595
 30
0.0
 11
-14.53308803827156
 21
738.03814090435
 31
0.0
  0
LINE
  5
150
330
1F
100
AcDbEntity
  8
0-0
  6
JWW_DASHED1
 62
   120
370
     5
100
AcDbLine
 10
-264.533088038262
 20
495.1092087176449
 30
0.0
 11
-14.53308803827369
 21
745.1092087176334
 31
0.0
  0
LINE
  5
151
330
1F
100
AcDbEntity
  8
0-0
  6
JWW_DASHED1
 62
   120
370
     5
100
AcDbLine
 10
-264.5330880382542
 20
502.1802765309386
 30
0.0
 11
-14.5330880382641
 21
752.1802765309286
 31
0.0
  0
LINE
  5
152
330
1F
100
AcDbEntity
  8
0-0
  6
JWW_DASHED1
 62
   120
370
     5
100
AcDbLine
 10
-264.5330880382582
 20
509.2513443442202
 30
0.0
 11
-14.53308803826793
 21
759.2513443442102
 31
0.0
  0
LINE
  5
153
330
1F
100
AcDbEntity
  8
0-0
  6
JWW_DASHED1
 62
   120
370
     5
100
AcDbLine
 10
-264.5330880382665
 20
516.3224121574426
 30
0.0
 11
-14.53308803826047
 21
766.3224121574489
 31
0.0
  0
LINE
  5
154
330
1F
100
AcDbEntity
  8
0-0
  6
JWW_DASHED1
 62
   120
370
     5
100
AcDbLine
 10
-264.5330880382708
 20
523.3934799707238
 30
0.0
 11
-14.53308803826431
 21
773.39347997073
 31
0.0
  0
LINE
  5
155
330
1F
100
AcDbEntity
  8
0-0
  6
JWW_DASHED1
 62
   120
370
     5
100
AcDbLine
 10
-264.5330880382588
 20
530.4645477840212
 30
0.0
 11
-14.53308803826857
 21
780.4645477840113
 31
0.0
  0
LINE
  5
156
330
1F
100
AcDbEntity
  8
0-0
  6
JWW_DASHED1
 62
   120
370
     5
100
AcDbLine
 10
-264.5330880382593
 20
537.5356155973063
 30
0.0
 11
-14.53308803827092
 21
787.5356155972946
 31
0.0
  0
LINE
  5
157
330
1F
100
AcDbEntity
  8
0-0
  6
JWW_DASHED1
 62
   120
370
     5
100
AcDbLine
 10
-264.5330880382633
 20
544.606683410588
 30
0.0
 11
-14.53308803827518
 21
794.6066834105759
 31
0.0
  0
LINE
  5
158
330
1F
100
AcDbEntity
  8
0-0
  6
JWW_DASHED1
 62
   120
370
     5
100
AcDbLine
 10
-264.533088038255
 20
551.6777512238815
 30
0.0
 11
-14.53308803826495
 21
801.6777512238716
 31
0.0
  0
LINE
  5
159
330
1F
100
AcDbEntity
  8
0-0
  6
JWW_DASHED1
 62
   120
370
     5
100
AcDbLine
 10
-264.5330880382591
 20
558.7488190371628
 30
0.0
 11
-14.53308803826879
 21
808.7488190371532
 31
0.0
  0
LINE
  5
15A
330
1F
100
AcDbEntity
  8
0-0
  6
JWW_DASHED1
 62
   120
370
     5
100
AcDbLine
 10
-264.5330880382631
 20
565.8198868504444
 30
0.0
 11
-14.53308803825706
 21
815.8198868504502
 31
0.0
  0
LINE
  5
15B
330
1F
100
AcDbEntity
  8
0-0
  6
JWW_DASHED1
 62
   120
370
     5
100
AcDbLine
 10
-264.5330880382671
 20
572.8909546637256
 30
0.0
 11
-14.53308803826111
 21
822.8909546637318
 31
0.0
  0
LINE
  5
15C
330
1F
100
AcDbEntity
  8
0-0
  6
JWW_DASHED1
 62
   120
370
     5
100
AcDbLine
 10
-264.5330880382712
 20
579.9620224770072
 30
0.0
 11
-14.53308803826495
 21
829.9620224770131
 31
0.0
  0
LINE
  5
15D
330
1F
100
AcDbEntity
  8
0-0
  6
JWW_DASHED1
 62
   120
370
     5
100
AcDbLine
 10
-264.5330880382603
 20
587.0330902902488
 30
0.0
 11
-14.53308803827241
 21
837.0330902902372
 31
0.0
  0
LINE
  5
15E
330
1F
100
AcDbEntity
  8
0-0
  6
JWW_DASHED1
 62
   120
370
     5
100
AcDbLine
 10
-264.5330880382646
 20
594.10415810353
 30
0.0
 11
-14.53308803827667
 21
844.1041581035183
 31
0.0
  0
LINE
  5
15F
330
1F
100
AcDbEntity
  8
0-0
  6
JWW_DASHED1
 62
   120
370
     5
100
AcDbLine
 10
-264.5330880382559
 20
601.175225916824
 30
0.0
 11
-14.53308803826559
 21
851.1752259168145
 31
0.0
  0
LINE
  5
160
330
1F
100
AcDbEntity
  8
0-0
  6
JWW_DASHED1
 62
   120
370
     5
100
AcDbLine
 10
-264.5330880382599
 20
608.2462937301061
 30
0.0
 11
-14.53308803826985
 21
858.2462937300961
 31
0.0
  0
LINE
  5
161
330
1F
100
AcDbEntity
  8
0-0
  6
JWW_DASHED1
 62
   120
370
     5
100
AcDbLine
 10
-264.5330880382642
 20
615.3173615433873
 30
0.0
 11
-14.53308803825792
 21
865.3173615433932
 31
0.0
  0
LINE
  5
162
330
1F
100
AcDbEntity
  8
0-0
  6
JWW_DASHED1
 62
   120
370
     5
100
AcDbLine
 10
-264.533088038268
 20
622.3884293566686
 30
0.0
 11
-14.53308803826197
 21
872.3884293566748
 31
0.0
  0
LINE
  5
163
330
1F
100
AcDbEntity
  8
0-0
  6
JWW_DASHED1
 62
   120
370
     5
100
AcDbLine
 10
-264.5330880382722
 20
629.4594971699497
 30
0.0
 11
-14.53308803826602
 21
879.459497169956
 31
0.0
  0
LINE
  5
164
330
1F
100
AcDbEntity
  8
0-0
  6
JWW_DASHED1
 62
   120
370
     5
100
AcDbLine
 10
-264.5330880382603
 20
636.5305649832471
 30
0.0
 11
-14.53308803827007
 21
886.5305649832376
 31
0.0
  0
LINE
  5
165
330
1F
100
AcDbEntity
  8
0-0
  6
JWW_DASHED1
 62
   120
370
     5
100
AcDbLine
 10
-264.5330880382616
 20
643.6016327965318
 30
0.0
 11
-14.53308803827326
 21
893.6016327965197
 31
0.0
  0
LINE
  5
166
330
1F
100
AcDbEntity
  8
0-0
  6
JWW_DASHED1
 62
   120
370
     5
100
AcDbLine
 10
-264.5330880382569
 20
650.6727006097669
 30
0.0
 11
-14.53308803826644
 21
900.6727006097574
 31
0.0
  0
LINE
  5
167
330
1F
100
AcDbEntity
  8
0-0
  6
JWW_DASHED1
 62
   120
370
     5
100
AcDbLine
 10
-264.533088038261
 20
657.7437684230486
 30
0.0
 11
-14.53308803827071
 21
907.7437684230387
 31
0.0
  0
LINE
  5
168
330
1F
100
AcDbEntity
  8
0-0
  6
JWW_DASHED1
 62
   120
370
     5
100
AcDbLine
 10
-264.533088038265
 20
664.8148362363303
 30
0.0
 11
-14.53308803825898
 21
914.8148362363361
 31
0.0
  0
LINE
  5
169
330
1F
100
AcDbEntity
  8
0-0
  6
JWW_DASHED1
 62
   120
370
     5
100
AcDbLine
 10
-264.5330880382691
 20
671.8859040496114
 30
0.0
 11
-14.53308803826303
 21
921.8859040496177
 31
0.0
  0
LINE
  5
16A
330
1F
100
AcDbEntity
  8
0-0
  6
JWW_DASHED1
 62
   120
370
     5
100
AcDbLine
 10
-264.5330880382571
 20
678.9569718629089
 30
0.0
 11
-14.53308803826687
 21
928.956971862899
 31
0.0
  0
LINE
  5
16B
330
1F
100
AcDbEntity
  8
0-0
  6
JWW_DASHED1
 62
   120
370
     5
100
AcDbLine
 10
-264.5330880382614
 20
686.0280396761901
 30
0.0
 11
-14.53308803827092
 21
936.0280396761806
 31
0.0
  0
LINE
  5
16C
330
1F
100
AcDbEntity
  8
0-0
  6
JWW_DASHED1
 62
   120
370
     5
100
AcDbLine
 10
-264.5330880382631
 20
693.0991074894739
 30
0.0
 11
-14.53308803827476
 21
943.0991074894622
 31
0.0
  0
LINE
  5
16D
330
1F
100
AcDbEntity
  8
0-0
  6
JWW_DASHED1
 62
   120
370
     5
100
AcDbLine
 10
-264.5330880382533
 20
700.1701753027687
 30
0.0
 11
-14.53308803826346
 21
950.1701753027592
 31
0.0
  0
LINE
  5
16E
330
1F
100
AcDbEntity
  8
0-0
  6
JWW_DASHED1
 62
   120
370
     5
100
AcDbLine
 10
-264.5330880382576
 20
707.2412431160503
 30
0.0
 11
-14.53308803826729
 21
957.2412431160404
 31
0.0
  0
LINE
  5
16F
330
1F
100
AcDbEntity
  8
0-0
  6
JWW_DASHED1
 62
   120
370
     5
100
AcDbLine
 10
-264.5330880382614
 20
714.312310929332
 30
0.0
 11
-14.53308803825557
 21
964.3123109293379
 31
0.0
  0
LINE
  5
170
330
1F
100
AcDbEntity
  8
0-0
  6
JWW_DASHED1
 62
   120
370
     5
100
AcDbLine
 10
-264.5330880382699
 20
721.3833787425544
 30
0.0
 11
-14.53308803826388
 21
971.3833787425602
 31
0.0
  0
LINE
  5
171
330
1F
100
AcDbEntity
  8
0-0
  6
JWW_DASHED1
 62
   120
370
     5
100
AcDbLine
 10
-264.5330880382582
 20
728.4544465558519
 30
0.0
 11
-19.61809398346745
 21
973.3694406106422
 31
0.0
  0
LINE
  5
172
330
1F
100
AcDbEntity
  8
0-0
  6
JWW_DASHED1
 62
   120
370
     5
100
AcDbLine
 10
-264.5330880382601
 20
735.5255143691347
 30
0.0
 11
-26.6891617967493
 21
973.369440610646
 31
0.0
  0
LINE
  5
173
330
1F
100
AcDbEntity
  8
0-0
  6
JWW_DASHED1
 62
   120
370
     5
100
AcDbLine
 10
-264.5330880382642
 20
742.5965821824168
 30
0.0
 11
-33.76022961003116
 21
973.3694406106498
 31
0.0
  0
LINE
  5
174
330
1F
100
AcDbEntity
  8
0-0
  6
JWW_DASHED1
 62
   120
370
     5
100
AcDbLine
 10
-264.5330880382546
 20
749.6676499957117
 30
0.0
 11
-40.83129742332858
 21
973.3694406106374
 31
0.0
  0
LINE
  5
175
330
1F
100
AcDbEntity
  8
0-0
  6
JWW_DASHED1
 62
   120
370
     5
100
AcDbLine
 10
-264.5330880382584
 20
756.7387178089933
 30
0.0
 11
-47.90236523661022
 21
973.3694406106413
 31
0.0
  0
LINE
  5
176
330
1F
100
AcDbEntity
  8
0-0
  6
JWW_DASHED1
 62
   120
370
     5
100
AcDbLine
 10
-264.5330880382627
 20
763.8097856222746
 30
0.0
 11
-54.97343304990508
 21
973.369440610632
 31
0.0
  0
LINE
  5
177
330
1F
100
AcDbEntity
  8
0-0
  6
JWW_DASHED1
 62
   120
370
     5
100
AcDbLine
 10
-264.5330880382665
 20
770.8808534355562
 30
0.0
 11
-62.04450086318651
 21
973.3694406106362
 31
0.0
  0
LINE
  5
178
330
1F
100
AcDbEntity
  8
0-0
  6
JWW_DASHED1
 62
   120
370
     5
100
AcDbLine
 10
-264.5330880382705
 20
777.9519212488374
 30
0.0
 11
-69.11556867646752
 21
973.3694406106405
 31
0.0
  0
LINE
  5
179
330
1F
100
AcDbEntity
  8
0-0
  6
JWW_DASHED1
 62
   120
370
     5
100
AcDbLine
 10
-264.5330880382614
 20
785.0229890620777
 30
0.0
 11
-76.18663648969374
 21
973.3694406106451
 31
0.0
  0
LINE
  5
17A
330
1F
100
AcDbEntity
  8
0-0
  6
JWW_DASHED1
 62
   120
370
     5
100
AcDbLine
 10
-264.5330880382656
 20
792.0940568753589
 30
0.0
 11
-83.2577043029756
 21
973.369440610649
 31
0.0
  0
LINE
  5
17B
330
1F
100
AcDbEntity
  8
0-0
  6
JWW_DASHED1
 62
   120
370
     5
100
AcDbLine
 10
-264.5330880382554
 20
799.1651246886546
 30
0.0
 11
-90.32877211627323
 21
973.3694406106371
 31
0.0
  0
LINE
  5
17C
330
1F
100
AcDbEntity
  8
0-0
  6
JWW_DASHED1
 62
   120
370
     5
100
AcDbLine
 10
-264.5330880382595
 20
806.2361925019359
 30
0.0
 11
-97.39983992955487
 21
973.3694406106405
 31
0.0
  0
LINE
  5
17D
330
1F
100
AcDbEntity
  8
0-0
  6
JWW_DASHED1
 62
   120
370
     5
100
AcDbLine
 10
-264.5330880382635
 20
813.307260315217
 30
0.0
 11
-104.4709077428467
 21
973.369440610634
 31
0.0
  0
LINE
  5
17E
330
1F
100
AcDbEntity
  8
0-0
  6
JWW_DASHED1
 62
   120
370
     5
100
AcDbLine
 10
-264.5330880382674
 20
820.3783281284991
 30
0.0
 11
-111.541975556128
 21
973.3694406106383
 31
0.0
  0
LINE
  5
17F
330
1F
100
AcDbEntity
  8
0-0
  6
JWW_DASHED1
 62
   120
370
     5
100
AcDbLine
 10
-264.5330880382714
 20
827.4493959417804
 30
0.0
 11
-118.6130433694092
 21
973.3694406106426
 31
0.0
  0
LINE
  5
180
330
1F
100
AcDbEntity
  8
0-0
  6
JWW_DASHED1
 62
   120
370
     5
100
AcDbLine
 10
-264.5330880382597
 20
834.5204637550778
 30
0.0
 11
-125.6841111826976
 21
973.3694406106396
 31
0.0
  0
LINE
  5
181
330
1F
100
AcDbEntity
  8
0-0
  6
JWW_DASHED1
 62
   120
370
     5
100
AcDbLine
 10
-264.5330880382627
 20
841.5915315683603
 30
0.0
 11
-132.7551789959793
 21
973.3694406106439
 31
0.0
  0
LINE
  5
182
330
1F
100
AcDbEntity
  8
0-0
  6
JWW_DASHED1
 62
   120
370
     5
100
AcDbLine
 10
-264.5330880382563
 20
848.6625993815976
 30
0.0
 11
-139.8262468092179
 21
973.3694406106362
 31
0.0
  0
LINE
  5
183
330
1F
100
AcDbEntity
  8
0-0
  6
JWW_DASHED1
 62
   120
370
     5
100
AcDbLine
 10
-264.5330880382603
 20
855.7336671948788
 30
0.0
 11
-146.8973146224995
 21
973.3694406106396
 31
0.0
  0
LINE
  5
184
330
1F
100
AcDbEntity
  8
0-0
  6
JWW_DASHED1
 62
   120
370
     5
100
AcDbLine
 10
-264.5330880382644
 20
862.8047350081604
 30
0.0
 11
-153.9683824357884
 21
973.3694406106362
 31
0.0
  0
LINE
  5
185
330
1F
100
AcDbEntity
  8
0-0
  6
JWW_DASHED1
 62
   120
370
     5
100
AcDbLine
 10
-264.5330880382684
 20
869.8758028214421
 30
0.0
 11
-161.0394502490696
 21
973.3694406106405
 31
0.0
  0
LINE
  5
186
330
1F
100
AcDbEntity
  8
0-0
  6
JWW_DASHED1
 62
   120
370
     5
100
AcDbLine
 10
-264.5330880382567
 20
876.9468706347391
 30
0.0
 11
-168.1105180623604
 21
973.3694406106354
 31
0.0
  0
LINE
  5
187
330
1F
100
AcDbEntity
  8
0-0
  6
JWW_DASHED1
 62
   120
370
     5
100
AcDbLine
 10
-264.5330880382605
 20
884.0179384480207
 30
0.0
 11
-175.1815858756423
 21
973.3694406106388
 31
0.0
  0
LINE
  5
188
330
1F
100
AcDbEntity
  8
0-0
  6
JWW_DASHED1
 62
   120
370
     5
100
AcDbLine
 10
-264.5330880382639
 20
891.0890062613028
 30
0.0
 11
-182.2526536889239
 21
973.369440610643
 31
0.0
  0
LINE
  5
189
330
1F
100
AcDbEntity
  8
0-0
  6
JWW_DASHED1
 62
   120
370
     5
100
AcDbLine
 10
-264.5330880382529
 20
898.1600740745994
 30
0.0
 11
-189.3237215022216
 21
973.3694406106306
 31
0.0
  0
LINE
  5
18A
330
1F
100
AcDbEntity
  8
0-0
  6
JWW_DASHED1
 62
   120
370
     5
100
AcDbLine
 10
-264.5330880382569
 20
905.2311418878805
 30
0.0
 11
-196.3947893155032
 21
973.3694406106345
 31
0.0
  0
LINE
  5
18B
330
1F
100
AcDbEntity
  8
0-0
  6
JWW_DASHED1
 62
   120
370
     5
100
AcDbLine
 10
-264.533088038261
 20
912.3022097011618
 30
0.0
 11
-203.4658571287851
 21
973.3694406106379
 31
0.0
  0
LINE
  5
18C
330
1F
100
AcDbEntity
  8
0-0
  6
JWW_DASHED1
 62
   120
370
     5
100
AcDbLine
 10
-264.5330880382693
 20
919.373277514385
 30
0.0
 11
-210.5369249420111
 21
973.369440610643
 31
0.0
  0
LINE
  5
18D
330
1F
100
AcDbEntity
  8
0-0
  6
JWW_DASHED1
 62
   120
370
     5
100
AcDbLine
 10
-264.5330880382576
 20
926.444345327682
 30
0.0
 11
-217.6079927553053
 21
973.3694406106345
 31
0.0
  0
LINE
  5
18E
330
1F
100
AcDbEntity
  8
0-0
  6
JWW_DASHED1
 62
   120
370
     5
100
AcDbLine
 10
-264.5330880382612
 20
933.5154131409637
 30
0.0
 11
-224.6790605685869
 21
973.3694406106379
 31
0.0
  0
LINE
  5
18F
330
1F
100
AcDbEntity
  8
0-0
  6
JWW_DASHED1
 62
   120
370
     5
100
AcDbLine
 10
-264.5330880382652
 20
940.5864809542448
 30
0.0
 11
-231.7501283818688
 21
973.3694406106417
 31
0.0
  0
LINE
  5
190
330
1F
100
AcDbEntity
  8
0-0
  6
JWW_DASHED1
 62
   120
370
     5
100
AcDbLine
 10
-264.5330880382537
 20
947.6575487675423
 30
0.0
 11
-238.8211961951662
 21
973.3694406106293
 31
0.0
  0
LINE
  5
191
330
1F
100
AcDbEntity
  8
0-0
  6
JWW_DASHED1
 62
   120
370
     5
100
AcDbLine
 10
-264.5330880382578
 20
954.7286165808235
 30
0.0
 11
-245.8922640084479
 21
973.3694406106337
 31
0.0
  0
LINE
  5
192
330
1F
100
AcDbEntity
  8
0-0
  6
JWW_DASHED1
 62
   120
370
     5
100
AcDbLine
 10
-264.5330880382618
 20
961.7996843941047
 30
0.0
 11
-252.9633318217304
 21
973.3694406106366
 31
0.0
  0
LINE
  5
193
330
1F
100
AcDbEntity
  8
0-0
  6
JWW_DASHED1
 62
   120
370
     5
100
AcDbLine
 10
-264.5330880382659
 20
968.8707522073868
 30
0.0
 11
-260.0343996350116
 21
973.3694406106405
 31
0.0
  0
LINE
  5
194
330
1F
100
AcDbEntity
  8
0-0
  6
JWW_DASHED1
 62
   120
370
     5
100
AcDbLine
 10
322.570215602033
 20
-933.630559389354
 30
0.0
 11
325.4669119617274
 21
-930.7338630296592
 31
0.0
  0
LINE
  5
195
330
1F
100
AcDbEntity
  8
0-0
  6
JWW_DASHED1
 62
   120
370
     5
100
AcDbLine
 10
315.4991477887361
 20
-933.6305593893654
 30
0.0
 11
325.4669119617396
 21
-923.6627952163619
 31
0.0
  0
LINE
  5
196
330
1F
100
AcDbEntity
  8
0-0
  6
JWW_DASHED1
 62
   120
370
     5
100
AcDbLine
 10
308.4280799754549
 20
-933.6305593893611
 30
0.0
 11
325.4669119617353
 21
-916.5917274030802
 31
0.0
  0
LINE
  5
197
330
1F
100
AcDbEntity
  8
0-0
  6
JWW_DASHED1
 62
   120
370
     5
100
AcDbLine
 10
301.3570121621734
 20
-933.6305593893569
 30
0.0
 11
325.4669119617315
 21
-909.520659589799
 31
0.0
  0
LINE
  5
198
330
1F
100
AcDbEntity
  8
0-0
  6
JWW_DASHED1
 62
   120
370
     5
100
AcDbLine
 10
294.2859443488905
 20
-933.6305593893543
 30
0.0
 11
325.4669119617276
 21
-902.4495917765173
 31
0.0
  0
LINE
  5
199
330
1F
100
AcDbEntity
  8
0-0
  6
JWW_DASHED1
 62
   120
370
     5
100
AcDbLine
 10
287.2148765356517
 20
-933.630559389362
 30
0.0
 11
325.4669119617347
 21
-895.3785239632792
 31
0.0
  0
LINE
  5
19A
330
1F
100
AcDbEntity
  8
0-0
  6
JWW_DASHED1
 62
   120
370
     5
100
AcDbLine
 10
280.1438087223703
 20
-933.6305593893586
 30
0.0
 11
325.4669119617308
 21
-888.307456149998
 31
0.0
  0
LINE
  5
19B
330
1F
100
AcDbEntity
  8
0-0
  6
JWW_DASHED1
 62
   120
370
     5
100
AcDbLine
 10
273.0727409090882
 20
-933.6305593893547
 30
0.0
 11
325.4669119617266
 21
-881.2363883367163
 31
0.0
  0
LINE
  5
19C
330
1F
100
AcDbEntity
  8
0-0
  6
JWW_DASHED1
 62
   120
370
     5
100
AcDbLine
 10
266.0016730957944
 20
-933.6305593893633
 30
0.0
 11
325.4669119617387
 21
-874.1653205234189
 31
0.0
  0
LINE
  5
19D
330
1F
100
AcDbEntity
  8
0-0
  6
JWW_DASHED1
 62
   120
370
     5
100
AcDbLine
 10
258.9306052825129
 20
-933.630559389359
 30
0.0
 11
325.4669119617345
 21
-867.0942527101373
 31
0.0
  0
LINE
  5
19E
330
1F
100
AcDbEntity
  8
0-0
  6
JWW_DASHED1
 62
   120
370
     5
100
AcDbLine
 10
251.8595374692318
 20
-933.6305593893552
 30
0.0
 11
325.4669119617311
 21
-860.0231848968556
 31
0.0
  0
LINE
  5
19F
330
1F
100
AcDbEntity
  8
0-0
  6
JWW_DASHED1
 62
   120
370
     5
100
AcDbLine
 10
244.7884696559456
 20
-933.6305593893555
 30
0.0
 11
325.4669119617268
 21
-852.9521170835744
 31
0.0
  0
LINE
  5
1A0
330
1F
100
AcDbEntity
  8
0-0
  6
JWW_DASHED1
 62
   120
370
     5
100
AcDbLine
 10
237.7174018426479
 20
-933.6305593893676
 30
0.0
 11
325.4669119617377
 21
-845.8810492702783
 31
0.0
  0
LINE
  5
1A1
330
1F
100
AcDbEntity
  8
0-0
  6
JWW_DASHED1
 62
   120
370
     5
100
AcDbLine
 10
230.6463340293666
 20
-933.6305593893637
 30
0.0
 11
325.4669119617338
 21
-838.8099814569962
 31
0.0
  0
LINE
  5
1A2
330
1F
100
AcDbEntity
  8
0-0
  6
JWW_DASHED1
 62
   120
370
     5
100
AcDbLine
 10
223.5752662160845
 20
-933.6305593893603
 30
0.0
 11
325.4669119617302
 21
-831.7389136437146
 31
0.0
  0
LINE
  5
1A3
330
1F
100
AcDbEntity
  8
0-0
  6
JWW_DASHED1
 62
   120
370
     5
100
AcDbLine
 10
216.5041984028528
 20
-933.6305593893611
 30
0.0
 11
325.4669119617379
 21
-824.6678458304756
 31
0.0
  0
LINE
  5
1A4
330
1F
100
AcDbEntity
  8
0-0
  6
JWW_DASHED1
 62
   120
370
     5
100
AcDbLine
 10
209.4331305895715
 20
-933.6305593893569
 30
0.0
 11
325.4669119617338
 21
-817.5967780171943
 31
0.0
  0
LINE
  5
1A5
330
1F
100
AcDbEntity
  8
0-0
  6
JWW_DASHED1
 62
   120
370
     5
100
AcDbLine
 10
202.3620627762905
 20
-933.6305593893521
 30
0.0
 11
325.4669119617302
 21
-810.5257102039127
 31
0.0
  0
LINE
  5
1A6
330
1F
100
AcDbEntity
  8
0-0
  6
JWW_DASHED1
 62
   120
370
     5
100
AcDbLine
 10
195.2909949630008
 20
-933.6305593893564
 30
0.0
 11
325.4669119617257
 21
-803.4546423906319
 31
0.0
  0
LINE
  5
1A7
330
1F
100
AcDbEntity
  8
0-0
  6
JWW_DASHED1
 62
   120
370
     5
100
AcDbLine
 10
188.2199271497034
 20
-933.6305593893688
 30
0.0
 11
325.4669119617362
 21
-796.3835745773354
 31
0.0
  0
LINE
  5
1A8
330
1F
100
AcDbEntity
  8
0-0
  6
JWW_DASHED1
 62
   120
370
     5
100
AcDbLine
 10
181.1488593364213
 20
-933.630559389365
 30
0.0
 11
325.4669119617332
 21
-789.3125067640533
 31
0.0
  0
LINE
  5
1A9
330
1F
100
AcDbEntity
  8
0-0
  6
JWW_DASHED1
 62
   120
370
     5
100
AcDbLine
 10
174.0777915231401
 20
-933.6305593893608
 30
0.0
 11
325.4669119617294
 21
-782.2414389507717
 31
0.0
  0
LINE
  5
1AA
330
1F
100
AcDbEntity
  8
0-0
  6
JWW_DASHED1
 62
   120
370
     5
100
AcDbLine
 10
167.0067237098584
 20
-933.6305593893574
 30
0.0
 11
325.4669119617255
 21
-775.17037113749
 31
0.0
  0
LINE
  5
1AB
330
1F
100
AcDbEntity
  8
0-0
  6
JWW_DASHED1
 62
   120
370
     5
100
AcDbLine
 10
159.9356558965708
 20
-933.630559389359
 30
0.0
 11
325.466911961737
 21
-768.099303324193
 31
0.0
  0
LINE
  5
1AC
330
1F
100
AcDbEntity
  8
0-0
  6
JWW_DASHED1
 62
   120
370
     5
100
AcDbLine
 10
152.8645880833382
 20
-933.6305593893611
 30
0.0
 11
325.4669119617287
 21
-761.0282355109701
 31
0.0
  0
LINE
  5
1AD
330
1F
100
AcDbEntity
  8
0-0
  6
JWW_DASHED1
 62
   120
370
     5
100
AcDbLine
 10
145.7935202700561
 20
-933.6305593893574
 30
0.0
 11
325.4669119617245
 21
-753.957167697689
 31
0.0
  0
LINE
  5
1AE
330
1F
100
AcDbEntity
  8
0-0
  6
JWW_DASHED1
 62
   120
370
     5
100
AcDbLine
 10
138.7224524567587
 20
-933.6305593893696
 30
0.0
 11
325.4669119617349
 21
-746.8860998843933
 31
0.0
  0
LINE
  5
1AF
330
1F
100
AcDbEntity
  8
0-0
  6
JWW_DASHED1
 62
   120
370
     5
100
AcDbLine
 10
131.6513846434771
 20
-933.6305593893658
 30
0.0
 11
325.4669119617324
 21
-739.8150320711103
 31
0.0
  0
LINE
  5
1B0
330
1F
100
AcDbEntity
  8
0-0
  6
JWW_DASHED1
 62
   120
370
     5
100
AcDbLine
 10
124.5803168301954
 20
-933.6305593893616
 30
0.0
 11
325.466911961729
 21
-732.7439642578282
 31
0.0
  0
LINE
  5
1B1
330
1F
100
AcDbEntity
  8
0-0
  6
JWW_DASHED1
 62
   120
370
     5
100
AcDbLine
 10
117.5092490169112
 20
-933.6305593893608
 30
0.0
 11
325.4669119617403
 21
-725.6728964445313
 31
0.0
  0
LINE
  5
1B2
330
1F
100
AcDbEntity
  8
0-0
  6
JWW_DASHED1
 62
   120
370
     5
100
AcDbLine
 10
110.4381812036296
 20
-933.6305593893564
 30
0.0
 11
325.4669119617362
 21
-718.6018286312501
 31
0.0
  0
LINE
  5
1B3
330
1F
100
AcDbEntity
  8
0-0
  6
JWW_DASHED1
 62
   120
370
     5
100
AcDbLine
 10
103.3671133903484
 20
-933.6305593893521
 30
0.0
 11
325.4669119617324
 21
-711.5307608179684
 31
0.0
  0
LINE
  5
1B4
330
1F
100
AcDbEntity
  8
0-0
  6
JWW_DASHED1
 62
   120
370
     5
100
AcDbLine
 10
96.29604557705264
 20
-933.6305593893624
 30
0.0
 11
325.4669119617283
 21
-704.4596930046868
 31
0.0
  0
LINE
  5
1B5
330
1F
100
AcDbEntity
  8
0-0
  6
JWW_DASHED1
 62
   120
370
     5
100
AcDbLine
 10
89.22497776375522
 20
-933.6305593893748
 30
0.0
 11
325.4669119617381
 21
-697.3886251913915
 31
0.0
  0
LINE
  5
1B6
330
1F
100
AcDbEntity
  8
0-0
  6
JWW_DASHED1
 62
   120
370
     5
100
AcDbLine
 10
82.15390995053241
 20
-933.6305593893662
 30
0.0
 11
325.4669119617315
 21
-690.3175573781674
 31
0.0
  0
LINE
  5
1B7
330
1F
100
AcDbEntity
  8
0-0
  6
JWW_DASHED1
 62
   120
370
     5
100
AcDbLine
 10
75.4669119617374
 20
-933.2464895648758
 30
0.0
 11
325.4669119617281
 21
-683.2464895648853
 31
0.0
  0
LINE
  5
1B8
330
1F
100
AcDbEntity
  8
0-0
  6
JWW_DASHED1
 62
   120
370
     5
100
AcDbLine
 10
75.46691196173356
 20
-926.1754217515945
 30
0.0
 11
325.4669119617396
 21
-676.1754217515884
 31
0.0
  0
LINE
  5
1B9
330
1F
100
AcDbEntity
  8
0-0
  6
JWW_DASHED1
 62
   120
370
     5
100
AcDbLine
 10
75.4669119617293
 20
-919.1043539383129
 30
0.0
 11
325.4669119617353
 21
-669.1043539383071
 31
0.0
  0
LINE
  5
1BA
330
1F
100
AcDbEntity
  8
0-0
  6
JWW_DASHED1
 62
   120
370
     5
100
AcDbLine
 10
75.46691196172546
 20
-912.0332861250313
 30
0.0
 11
325.4669119617311
 21
-662.0332861250258
 31
0.0
  0
LINE
  5
1BB
330
1F
100
AcDbEntity
  8
0-0
  6
JWW_DASHED1
 62
   120
370
     5
100
AcDbLine
 10
75.46691196173697
 20
-904.9622183117343
 30
0.0
 11
325.4669119617272
 21
-654.9622183117442
 31
0.0
  0
LINE
  5
1BC
330
1F
100
AcDbEntity
  8
0-0
  6
JWW_DASHED1
 62
   120
370
     5
100
AcDbLine
 10
75.46691196174848
 20
-897.8911504984374
 30
0.0
 11
325.4669119617366
 21
-647.8911504984494
 31
0.0
  0
LINE
  5
1BD
330
1F
100
AcDbEntity
  8
0-0
  6
JWW_DASHED1
 62
   120
370
     5
100
AcDbLine
 10
75.46691196174464
 20
-890.8200826851561
 30
0.0
 11
325.4669119617324
 21
-640.8200826851681
 31
0.0
  0
LINE
  5
1BE
330
1F
100
AcDbEntity
  8
0-0
  6
JWW_DASHED1
 62
   120
370
     5
100
AcDbLine
 10
75.4669119617408
 20
-883.749014871874
 30
0.0
 11
325.4669119617313
 21
-633.7490148718836
 31
0.0
  0
LINE
  5
1BF
330
1F
100
AcDbEntity
  8
0-0
  6
JWW_DASHED1
 62
   120
370
     5
100
AcDbLine
 10
75.46691196173228
 20
-876.6779470586516
 30
0.0
 11
325.4669119617383
 21
-626.6779470586458
 31
0.0
  0
LINE
  5
1C0
330
1F
100
AcDbEntity
  8
0-0
  6
JWW_DASHED1
 62
   120
370
     5
100
AcDbLine
 10
75.46691196172844
 20
-869.60687924537
 30
0.0
 11
325.4669119617345
 21
-619.6068792453641
 31
0.0
  0
LINE
  5
1C1
330
1F
100
AcDbEntity
  8
0-0
  6
JWW_DASHED1
 62
   120
370
     5
100
AcDbLine
 10
75.46691196172418
 20
-862.5358114320887
 30
0.0
 11
325.4669119617302
 21
-612.5358114320825
 31
0.0
  0
LINE
  5
1C2
330
1F
100
AcDbEntity
  8
0-0
  6
JWW_DASHED1
 62
   120
370
     5
100
AcDbLine
 10
75.46691196173612
 20
-855.4647436187913
 30
0.0
 11
325.4669119617266
 21
-605.4647436188009
 31
0.0
  0
LINE
  5
1C3
330
1F
100
AcDbEntity
  8
0-0
  6
JWW_DASHED1
 62
   120
370
     5
100
AcDbLine
 10
75.4669119617472
 20
-848.3936758054948
 30
0.0
 11
325.4669119617355
 21
-598.3936758055064
 31
0.0
  0
LINE
  5
1C4
330
1F
100
AcDbEntity
  8
0-0
  6
JWW_DASHED1
 62
   120
370
     5
100
AcDbLine
 10
75.46691196174379
 20
-841.3226079922127
 30
0.0
 11
325.4669119617341
 21
-591.3226079922226
 31
0.0
  0
LINE
  5
1C5
330
1F
100
AcDbEntity
  8
0-0
  6
JWW_DASHED1
 62
   120
370
     5
100
AcDbLine
 10
75.46691196173995
 20
-834.251540178931
 30
0.0
 11
325.46691196173
 21
-584.251540178941
 31
0.0
  0
LINE
  5
1C6
330
1F
100
AcDbEntity
  8
0-0
  6
JWW_DASHED1
 62
   120
370
     5
100
AcDbLine
 10
75.46691196173569
 20
-827.1804723656498
 30
0.0
 11
325.4669119617262
 21
-577.1804723656594
 31
0.0
  0
LINE
  5
1C7
330
1F
100
AcDbEntity
  8
0-0
  6
JWW_DASHED1
 62
   120
370
     5
100
AcDbLine
 10
75.46691196173164
 20
-820.1094045523687
 30
0.0
 11
325.4669119617377
 21
-570.1094045523628
 31
0.0
  0
LINE
  5
1C8
330
1F
100
AcDbEntity
  8
0-0
  6
JWW_DASHED1
 62
   120
370
     5
100
AcDbLine
 10
75.4669119617391
 20
-813.0383367391305
 30
0.0
 11
325.4669119617294
 21
-563.0383367391396
 31
0.0
  0
LINE
  5
1C9
330
1F
100
AcDbEntity
  8
0-0
  6
JWW_DASHED1
 62
   120
370
     5
100
AcDbLine
 10
75.46691196173526
 20
-805.9672689258484
 30
0.0
 11
325.4669119617253
 21
-555.9672689258583
 31
0.0
  0
LINE
  5
1CA
330
1F
100
AcDbEntity
  8
0-0
  6
JWW_DASHED1
 62
   120
370
     5
100
AcDbLine
 10
75.46691196174571
 20
-798.8962011125527
 30
0.0
 11
325.4669119617342
 21
-548.8962011125639
 31
0.0
  0
LINE
  5
1CB
330
1F
100
AcDbEntity
  8
0-0
  6
JWW_DASHED1
 62
   120
370
     5
100
AcDbLine
 10
75.46691196174315
 20
-791.8251332992697
 30
0.0
 11
325.4669119617332
 21
-541.8251332992797
 31
0.0
  0
LINE
  5
1CC
330
1F
100
AcDbEntity
  8
0-0
  6
JWW_DASHED1
 62
   120
370
     5
100
AcDbLine
 10
75.4669119617391
 20
-784.7540654859881
 30
0.0
 11
325.466911961729
 21
-534.7540654859985
 31
0.0
  0
LINE
  5
1CD
330
1F
100
AcDbEntity
  8
0-0
  6
JWW_DASHED1
 62
   120
370
     5
100
AcDbLine
 10
75.46691196173505
 20
-777.682997672707
 30
0.0
 11
325.4669119617411
 21
-527.682997672701
 31
0.0
  0
LINE
  5
1CE
330
1F
100
AcDbEntity
  8
0-0
  6
JWW_DASHED1
 62
   120
370
     5
100
AcDbLine
 10
75.46691196173079
 20
-770.6119298594252
 30
0.0
 11
325.4669119617369
 21
-520.6119298594199
 31
0.0
  0
LINE
  5
1CF
330
1F
100
AcDbEntity
  8
0-0
  6
JWW_DASHED1
 62
   120
370
     5
100
AcDbLine
 10
75.46691196172652
 20
-763.5408620461441
 30
0.0
 11
325.4669119617328
 21
-513.5408620461383
 31
0.0
  0
LINE
  5
1D0
330
1F
100
AcDbEntity
  8
0-0
  6
JWW_DASHED1
 62
   120
370
     5
100
AcDbLine
 10
75.46691196173867
 20
-756.4697942328467
 30
0.0
 11
325.4669119617287
 21
-506.4697942328565
 31
0.0
  0
LINE
  5
1D1
330
1F
100
AcDbEntity
  8
0-0
  6
JWW_DASHED1
 62
   120
370
     5
100
AcDbLine
 10
75.4669119617489
 20
-749.3987264195509
 30
0.0
 11
325.466911961737
 21
-499.398726419563
 31
0.0
  0
LINE
  5
1D2
330
1F
100
AcDbEntity
  8
0-0
  6
JWW_DASHED1
 62
   120
370
     5
100
AcDbLine
 10
75.46691196174187
 20
-742.3276586063268
 30
0.0
 11
325.4669119617324
 21
-492.3276586063367
 31
0.0
  0
LINE
  5
1D3
330
1F
100
AcDbEntity
  8
0-0
  6
JWW_DASHED1
 62
   120
370
     5
100
AcDbLine
 10
75.46691196173782
 20
-735.2565907930456
 30
0.0
 11
325.4669119617281
 21
-485.2565907930556
 31
0.0
  0
LINE
  5
1D4
330
1F
100
AcDbEntity
  8
0-0
  6
JWW_DASHED1
 62
   120
370
     5
100
AcDbLine
 10
75.46691196173377
 20
-728.1855229797644
 30
0.0
 11
325.4669119617403
 21
-478.1855229797582
 31
0.0
  0
LINE
  5
1D5
330
1F
100
AcDbEntity
  8
0-0
  6
JWW_DASHED1
 62
   120
370
     5
100
AcDbLine
 10
75.46691196172993
 20
-721.1144551664823
 30
0.0
 11
325.4669119617359
 21
-471.1144551664769
 31
0.0
  0
LINE
  5
1D6
330
1F
100
AcDbEntity
  8
0-0
  6
JWW_DASHED1
 62
   120
370
     5
100
AcDbLine
 10
75.46691196172588
 20
-714.0433873532011
 30
0.0
 11
325.4669119617319
 21
-464.0433873531953
 31
0.0
  0
LINE
  5
1D7
330
1F
100
AcDbEntity
  8
0-0
  6
JWW_DASHED1
 62
   120
370
     5
100
AcDbLine
 10
75.46691196173782
 20
-706.9723195399037
 30
0.0
 11
325.4669119617279
 21
-456.9723195399137
 31
0.0
  0
LINE
  5
1D8
330
1F
100
AcDbEntity
  8
0-0
  6
JWW_DASHED1
 62
   120
370
     5
100
AcDbLine
 10
75.46691196174763
 20
-699.9012517266088
 30
0.0
 11
325.4669119617355
 21
-449.9012517266204
 31
0.0
  0
LINE
  5
1D9
330
1F
100
AcDbEntity
  8
0-0
  6
JWW_DASHED1
 62
   120
370
     5
100
AcDbLine
 10
75.46691196174336
 20
-692.8301839133276
 30
0.0
 11
325.4669119617317
 21
-442.8301839133393
 31
0.0
  0
LINE
  5
1DA
330
1F
100
AcDbEntity
  8
0-0
  6
JWW_DASHED1
 62
   120
370
     5
100
AcDbLine
 10
75.46691196174166
 20
-685.7591161000438
 30
0.0
 11
325.4669119617317
 21
-435.7591161000538
 31
0.0
  0
LINE
  5
1DB
330
1F
100
AcDbEntity
  8
0-0
  6
JWW_DASHED1
 62
   120
370
     5
100
AcDbLine
 10
75.46691196173313
 20
-678.6880482868214
 30
0.0
 11
325.4669119617392
 21
-428.6880482868152
 31
0.0
  0
LINE
  5
1DC
330
1F
100
AcDbEntity
  8
0-0
  6
JWW_DASHED1
 62
   120
370
     5
100
AcDbLine
 10
75.46691196172908
 20
-671.6169804735393
 30
0.0
 11
325.4669119617351
 21
-421.6169804735335
 31
0.0
  0
LINE
  5
1DD
330
1F
100
AcDbEntity
  8
0-0
  6
JWW_DASHED1
 62
   120
370
     5
100
AcDbLine
 10
75.46691196172503
 20
-664.5459126602582
 30
0.0
 11
325.4669119617311
 21
-414.5459126602523
 31
0.0
  0
LINE
  5
1DE
330
1F
100
AcDbEntity
  8
0-0
  6
JWW_DASHED1
 62
   120
370
     5
100
AcDbLine
 10
75.46691196173697
 20
-657.4748448469608
 30
0.0
 11
325.4669119617268
 21
-407.4748448469711
 31
0.0
  0
LINE
  5
1DF
330
1F
100
AcDbEntity
  8
0-0
  6
JWW_DASHED1
 62
   120
370
     5
100
AcDbLine
 10
75.46691196174613
 20
-650.4037770336663
 30
0.0
 11
325.4669119617345
 21
-400.403777033678
 31
0.0
  0
LINE
  5
1E0
330
1F
100
AcDbEntity
  8
0-0
  6
JWW_DASHED1
 62
   120
370
     5
100
AcDbLine
 10
75.46691196174443
 20
-643.3327092203825
 30
0.0
 11
325.4669119617347
 21
-393.3327092203921
 31
0.0
  0
LINE
  5
1E1
330
1F
100
AcDbEntity
  8
0-0
  6
JWW_DASHED1
 62
   120
370
     5
100
AcDbLine
 10
75.46691196174038
 20
-636.2616414071009
 30
0.0
 11
325.4669119617308
 21
-386.2616414071108
 31
0.0
  0
LINE
  5
1E2
330
1F
100
AcDbEntity
  8
0-0
  6
JWW_DASHED1
 62
   120
370
     5
100
AcDbLine
 10
75.46691196173654
 20
-629.1905735938196
 30
0.0
 11
325.4669119617266
 21
-379.1905735938296
 31
0.0
  0
LINE
  5
1E3
330
1F
100
AcDbEntity
  8
0-0
  6
JWW_DASHED1
 62
   120
370
     5
100
AcDbLine
 10
75.46691196173228
 20
-622.119505780538
 30
0.0
 11
325.4669119617383
 21
-372.1195057805322
 31
0.0
  0
LINE
  5
1E4
330
1F
100
AcDbEntity
  8
0-0
  6
JWW_DASHED1
 62
   120
370
     5
100
AcDbLine
 10
75.46691196172823
 20
-615.0484379672569
 30
0.0
 11
325.4669119617345
 21
-365.0484379672505
 31
0.0
  0
LINE
  5
1E5
330
1F
100
AcDbEntity
  8
0-0
  6
JWW_DASHED1
 62
   120
370
     5
100
AcDbLine
 10
75.46691196173569
 20
-607.9773701540187
 30
0.0
 11
325.4669119617259
 21
-357.9773701540282
 31
0.0
  0
LINE
  5
1E6
330
1F
100
AcDbEntity
  8
0-0
  6
JWW_DASHED1
 62
   120
370
     5
100
AcDbLine
 10
75.46691196174507
 20
-600.9063023407238
 30
0.0
 11
325.466911961733
 21
-350.9063023407355
 31
0.0
  0
LINE
  5
1E7
330
1F
100
AcDbEntity
  8
0-0
  6
JWW_DASHED1
 62
   120
370
     5
100
AcDbLine
 10
75.46691196174358
 20
-593.8352345274395
 30
0.0
 11
325.4669119617338
 21
-343.8352345274491
 31
0.0
  0
LINE
  5
1E8
330
1F
100
AcDbEntity
  8
0-0
  6
JWW_DASHED1
 62
   120
370
     5
100
AcDbLine
 10
75.46691196173953
 20
-586.7641667141579
 30
0.0
 11
325.4669119617298
 21
-336.7641667141679
 31
0.0
  0
LINE
  5
1E9
330
1F
100
AcDbEntity
  8
0-0
  6
JWW_DASHED1
 62
   120
370
     5
100
AcDbLine
 10
75.46691196173569
 20
-579.6930989008767
 30
0.0
 11
325.4669119617255
 21
-329.6930989008866
 31
0.0
  0
LINE
  5
1EA
330
1F
100
AcDbEntity
  8
0-0
  6
JWW_DASHED1
 62
   120
370
     5
100
AcDbLine
 10
75.46691196173143
 20
-572.6220310875951
 30
0.0
 11
325.4669119617377
 21
-322.6220310875892
 31
0.0
  0
LINE
  5
1EB
330
1F
100
AcDbEntity
  8
0-0
  6
JWW_DASHED1
 62
   120
370
     5
100
AcDbLine
 10
75.46691196172738
 20
-565.5509632743139
 30
0.0
 11
325.4669119617334
 21
-315.5509632743081
 31
0.0
  0
LINE
  5
1EC
330
1F
100
AcDbEntity
  8
0-0
  6
JWW_DASHED1
 62
   120
370
     5
100
AcDbLine
 10
75.46691196173953
 20
-558.479895461016
 30
0.0
 11
325.4669119617296
 21
-308.479895461026
 31
0.0
  0
LINE
  5
1ED
330
1F
100
AcDbEntity
  8
0-0
  6
JWW_DASHED1
 62
   120
370
     5
100
AcDbLine
 10
75.46691196173526
 20
-551.4088276477348
 30
0.0
 11
325.4669119617255
 21
-301.4088276477447
 31
0.0
  0
LINE
  5
1EE
330
1F
100
AcDbEntity
  8
0-0
  6
JWW_DASHED1
 62
   120
370
     5
100
AcDbLine
 10
75.46691196174272
 20
-544.3377598344966
 30
0.0
 11
325.466911961733
 21
-294.3377598345062
 31
0.0
  0
LINE
  5
1EF
330
1F
100
AcDbEntity
  8
0-0
  6
JWW_DASHED1
 62
   120
370
     5
100
AcDbLine
 10
75.46691196173846
 20
-537.2666920212155
 30
0.0
 11
325.466911961729
 21
-287.2666920212249
 31
0.0
  0
LINE
  5
1F0
330
1F
100
AcDbEntity
  8
0-0
  6
JWW_DASHED1
 62
   120
370
     5
100
AcDbLine
 10
75.46691196173484
 20
-530.1956242079334
 30
0.0
 11
325.4669119617407
 21
-280.1956242079275
 31
0.0
  0
LINE
  5
1F1
330
1F
100
AcDbEntity
  8
0-0
  6
JWW_DASHED1
 62
   120
370
     5
100
AcDbLine
 10
75.46691196173079
 20
-523.1245563946521
 30
0.0
 11
325.4669119617369
 21
-273.1245563946463
 31
0.0
  0
LINE
  5
1F2
330
1F
100
AcDbEntity
  8
0-0
  6
JWW_DASHED1
 62
   120
370
     5
100
AcDbLine
 10
75.46691196172652
 20
-516.0534885813709
 30
0.0
 11
325.4669119617325
 21
-266.0534885813651
 31
0.0
  0
LINE
  5
1F3
330
1F
100
AcDbEntity
  8
0-0
  6
JWW_DASHED1
 62
   120
370
     5
100
AcDbLine
 10
75.46691196173867
 20
-508.9824207680731
 30
0.0
 11
325.4669119617287
 21
-258.982420768083
 31
0.0
  0
LINE
  5
1F4
330
1F
100
AcDbEntity
  8
0-0
  6
JWW_DASHED1
 62
   120
370
     5
100
AcDbLine
 10
75.46691196174656
 20
-501.9113529547799
 30
0.0
 11
325.4669119617347
 21
-251.9113529547916
 31
0.0
  0
LINE
  5
1F5
330
1F
100
AcDbEntity
  8
0-0
  6
JWW_DASHED1
 62
   120
370
     5
100
AcDbLine
 10
75.4669119617423
 20
-494.8402851414987
 30
0.0
 11
325.4669119617307
 21
-244.8402851415103
 31
0.0
  0
LINE
  5
1F6
330
1F
100
AcDbEntity
  8
0-0
  6
JWW_DASHED1
 62
   120
370
     5
100
AcDbLine
 10
75.46691196174208
 20
-487.7692173282132
 30
0.0
 11
325.4669119617321
 21
-237.7692173282232
 31
0.0
  0
LINE
  5
1F7
330
1F
100
AcDbEntity
  8
0-0
  6
JWW_DASHED1
 62
   120
370
     5
100
AcDbLine
 10
75.46691196173377
 20
-480.6981495149909
 30
0.0
 11
325.4669119617398
 21
-230.6981495149846
 31
0.0
  0
LINE
  5
1F8
330
1F
100
AcDbEntity
  8
0-0
  6
JWW_DASHED1
 62
   120
370
     5
100
AcDbLine
 10
75.46691196172993
 20
-473.6270817017092
 30
0.0
 11
325.4669119617359
 21
-223.6270817017034
 31
0.0
  0
LINE
  5
1F9
330
1F
100
AcDbEntity
  8
0-0
  6
JWW_DASHED1
 62
   120
370
     5
100
AcDbLine
 10
75.46691196172567
 20
-466.556013888428
 30
0.0
 11
325.4669119617317
 21
-216.5560138884221
 31
0.0
  0
LINE
  5
1FA
330
1F
100
AcDbEntity
  8
0-0
  6
JWW_DASHED1
 62
   120
370
     5
100
AcDbLine
 10
75.46691196173718
 20
-459.484946075131
 30
0.0
 11
325.4669119617274
 21
-209.4849460751405
 31
0.0
  0
LINE
  5
1FB
330
1F
100
AcDbEntity
  8
0-0
  6
JWW_DASHED1
 62
   120
370
     5
100
AcDbLine
 10
75.46691196174507
 20
-452.4138782618378
 30
0.0
 11
325.4669119617336
 21
-202.413878261849
 31
0.0
  0
LINE
  5
1FC
330
1F
100
AcDbEntity
  8
0-0
  6
JWW_DASHED1
 62
   120
370
     5
100
AcDbLine
 10
75.46691196174507
 20
-445.3428104485523
 30
0.0
 11
325.4669119617353
 21
-195.3428104485614
 31
0.0
  0
LINE
  5
1FD
330
1F
100
AcDbEntity
  8
0-0
  6
JWW_DASHED1
 62
   120
370
     5
100
AcDbLine
 10
75.46691196174123
 20
-438.2717426352702
 30
0.0
 11
325.4669119617313
 21
-188.2717426352802
 31
0.0
  0
LINE
  5
1FE
330
1F
100
AcDbEntity
  8
0-0
  6
JWW_DASHED1
 62
   120
370
     5
100
AcDbLine
 10
75.46691196173718
 20
-431.2006748219891
 30
0.0
 11
325.4669119617274
 21
-181.200674821999
 31
0.0
  0
LINE
  5
1FF
330
1F
100
AcDbEntity
  8
0-0
  6
JWW_DASHED1
 62
   120
370
     5
100
AcDbLine
 10
75.46691196173313
 20
-424.1296070087078
 30
0.0
 11
325.4669119617392
 21
-174.1296070087016
 31
0.0
  0
LINE
  5
200
330
1F
100
AcDbEntity
  8
0-0
  6
JWW_DASHED1
 62
   120
370
     5
100
AcDbLine
 10
75.46691196172887
 20
-417.0585391954266
 30
0.0
 11
325.4669119617349
 21
-167.0585391954204
 31
0.0
  0
LINE
  5
201
330
1F
100
AcDbEntity
  8
0-0
  6
JWW_DASHED1
 62
   120
370
     5
100
AcDbLine
 10
75.46691196173633
 20
-409.987471382188
 30
0.0
 11
325.4669119617266
 21
-159.9874713821976
 31
0.0
  0
LINE
  5
202
330
1F
100
AcDbEntity
  8
0-0
  6
JWW_DASHED1
 62
   120
370
     5
100
AcDbLine
 10
75.46691196174379
 20
-402.9164035688949
 30
0.0
 11
325.4669119617321
 21
-152.9164035689065
 31
0.0
  0
LINE
  5
203
330
1F
100
AcDbEntity
  8
0-0
  6
JWW_DASHED1
 62
   120
370
     5
100
AcDbLine
 10
75.46691196174422
 20
-395.8453357556094
 30
0.0
 11
325.4669119617347
 21
-145.8453357556185
 31
0.0
  0
LINE
  5
204
330
1F
100
AcDbEntity
  8
0-0
  6
JWW_DASHED1
 62
   120
370
     5
100
AcDbLine
 10
75.46691196174038
 20
-388.7742679423274
 30
0.0
 11
325.4669119617304
 21
-138.7742679423373
 31
0.0
  0
LINE
  5
205
330
1F
100
AcDbEntity
  8
0-0
  6
JWW_DASHED1
 62
   120
370
     5
100
AcDbLine
 10
75.46691196173654
 20
-381.7032001290461
 30
0.0
 11
325.4669119617262
 21
-131.7032001290561
 31
0.0
  0
LINE
  5
206
330
1F
100
AcDbEntity
  8
0-0
  6
JWW_DASHED1
 62
   120
370
     5
100
AcDbLine
 10
75.46691196173228
 20
-374.6321323157649
 30
0.0
 11
325.4669119617383
 21
-124.6321323157586
 31
0.0
  0
LINE
  5
207
330
1F
100
AcDbEntity
  8
0-0
  6
JWW_DASHED1
 62
   120
370
     5
100
AcDbLine
 10
75.46691196172802
 20
-367.5610645024836
 30
0.0
 11
325.4669119617341
 21
-117.5610645024774
 31
0.0
  0
LINE
  5
208
330
1F
100
AcDbEntity
  8
0-0
  6
JWW_DASHED1
 62
   120
370
     5
100
AcDbLine
 10
75.46691196173995
 20
-360.4899966891862
 30
0.0
 11
325.4669119617302
 21
-110.4899966891958
 31
0.0
  0
LINE
  5
209
330
1F
100
AcDbEntity
  8
0-0
  6
JWW_DASHED1
 62
   120
370
     5
100
AcDbLine
 10
75.4669119617359
 20
-353.4189288759042
 30
0.0
 11
325.4669119617259
 21
-103.4189288759146
 31
0.0
  0
LINE
  5
20A
330
1F
100
AcDbEntity
  8
0-0
  6
JWW_DASHED1
 62
   120
370
     5
100
AcDbLine
 10
75.46691196174336
 20
-346.3478610626664
 30
0.0
 11
325.4669119617338
 21
-96.34786106267555
 31
0.0
  0
LINE
  5
20B
330
1F
100
AcDbEntity
  8
0-0
  6
JWW_DASHED1
 62
   120
370
     5
100
AcDbLine
 10
75.4669119617391
 20
-339.2767932493848
 30
0.0
 11
325.4669119617296
 21
-89.27679324939433
 31
0.0
  0
LINE
  5
20C
330
1F
100
AcDbEntity
  8
0-0
  6
JWW_DASHED1
 62
   120
370
     5
100
AcDbLine
 10
75.46691196173526
 20
-332.2057254361032
 30
0.0
 11
325.4669119617413
 21
-82.20572543609734
 31
0.0
  0
LINE
  5
20D
330
1F
100
AcDbEntity
  8
0-0
  6
JWW_DASHED1
 62
   120
370
     5
100
AcDbLine
 10
75.46691196173143
 20
-325.1346576228219
 30
0.0
 11
325.4669119617375
 21
-75.1346576228157
 31
0.0
  0
LINE
  5
20E
330
1F
100
AcDbEntity
  8
0-0
  6
JWW_DASHED1
 62
   120
370
     5
100
AcDbLine
 10
75.46691196172716
 20
-318.0635898095403
 30
0.0
 11
325.4669119617332
 21
-68.06358980953448
 31
0.0
  0
LINE
  5
20F
330
1F
100
AcDbEntity
  8
0-0
  6
JWW_DASHED1
 62
   120
370
     5
100
AcDbLine
 10
75.4669119617391
 20
-310.9925219962433
 30
0.0
 11
325.4669119617291
 21
-60.99252199625326
 31
0.0
  0
LINE
  5
210
330
1F
100
AcDbEntity
  8
0-0
  6
JWW_DASHED1
 62
   120
370
     5
100
AcDbLine
 10
75.46691196174528
 20
-303.921454182951
 30
0.0
 11
325.4669119617336
 21
-53.92145418296309
 31
0.0
  0
LINE
  5
211
330
1F
100
AcDbEntity
  8
0-0
  6
JWW_DASHED1
 62
   120
370
     5
100
AcDbLine
 10
75.46691196174123
 20
-296.8503863696698
 30
0.0
 11
325.4669119617298
 21
-46.85038636968144
 31
0.0
  0
LINE
  5
212
330
1F
100
AcDbEntity
  8
0-0
  6
JWW_DASHED1
 62
   120
370
     5
100
AcDbLine
 10
75.46691196174251
 20
-289.7793185563835
 30
0.0
 11
325.4669119617328
 21
-39.77931855639298
 31
0.0
  0
LINE
  5
213
330
1F
100
AcDbEntity
  8
0-0
  6
JWW_DASHED1
 62
   120
370
     5
100
AcDbLine
 10
75.4669119617342
 20
-282.7082507431606
 30
0.0
 11
325.4669119617403
 21
-32.70825074315482
 31
0.0
  0
LINE
  5
214
330
1F
100
AcDbEntity
  8
0-0
  6
JWW_DASHED1
 62
   120
370
     5
100
AcDbLine
 10
75.46691196173036
 20
-275.637182929879
 30
0.0
 11
325.4669119617364
 21
-25.63718292987275
 31
0.0
  0
LINE
  5
215
330
1F
100
AcDbEntity
  8
0-0
  6
JWW_DASHED1
 62
   120
370
     5
100
AcDbLine
 10
75.46691196172631
 20
-268.5661151165974
 30
0.0
 11
325.4669119617324
 21
-18.56611511659153
 31
0.0
  0
LINE
  5
216
330
1F
100
AcDbEntity
  8
0-0
  6
JWW_DASHED1
 62
   120
370
     5
100
AcDbLine
 10
75.46691196173782
 20
-261.4950473033003
 30
0.0
 11
325.4669119617283
 21
-11.49504730331032
 31
0.0
  0
LINE
  5
217
330
1F
100
AcDbEntity
  8
0-0
  6
JWW_DASHED1
 62
   120
370
     5
100
AcDbLine
 10
75.466911961744
 20
-254.4239794900089
 30
0.0
 11
325.4669119617325
 21
-4.423979490020571
 31
0.0
  0
LINE
  5
218
330
1F
100
AcDbEntity
  8
0-0
  6
JWW_DASHED1
 62
   120
370
     5
100
AcDbLine
 10
75.46691196173995
 20
-247.3529116767273
 30
0.0
 11
325.4669119617283
 21
2.647088323260647
 31
0.0
  0
LINE
  5
219
330
1F
100
AcDbEntity
  8
0-0
  6
JWW_DASHED1
 62
   120
370
     5
100
AcDbLine
 10
75.46691196174187
 20
-240.2818438634401
 30
0.0
 11
325.4669119617319
 21
9.718156136549965
 31
0.0
  0
LINE
  5
21A
330
1F
100
AcDbEntity
  8
0-0
  6
JWW_DASHED1
 62
   120
370
     5
100
AcDbLine
 10
75.46691196173803
 20
-233.2107760501584
 30
0.0
 11
325.4669119617281
 21
16.78922394983161
 31
0.0
  0
LINE
  5
21B
330
1F
100
AcDbEntity
  8
0-0
  6
JWW_DASHED1
 62
   120
370
     5
100
AcDbLine
 10
75.46691196173377
 20
-226.1397082368772
 30
0.0
 11
325.4669119617398
 21
23.86029176312903
 31
0.0
  0
LINE
  5
21C
330
1F
100
AcDbEntity
  8
0-0
  6
JWW_DASHED1
 62
   120
370
     5
100
AcDbLine
 10
75.46691196172972
 20
-219.068640423596
 30
0.0
 11
325.4669119617358
 21
30.93135957641024
 31
0.0
  0
LINE
  5
21D
330
1F
100
AcDbEntity
  8
0-0
  6
JWW_DASHED1
 62
   120
370
     5
100
AcDbLine
 10
75.46691196173697
 20
-211.9975726103574
 30
0.0
 11
325.4669119617274
 21
38.00242738963263
 31
0.0
  0
LINE
  5
21E
330
1F
100
AcDbEntity
  8
0-0
  6
JWW_DASHED1
 62
   120
370
     5
100
AcDbLine
 10
75.46691196174315
 20
-204.926504797066
 30
0.0
 11
325.4669119617311
 21
45.07349520292195
 31
0.0
  0
LINE
  5
21F
330
1F
100
AcDbEntity
  8
0-0
  6
JWW_DASHED1
 62
   120
370
     5
100
AcDbLine
 10
75.46691196174486
 20
-197.8554369837788
 30
0.0
 11
325.4669119617351
 21
52.14456301621126
 31
0.0
  0
LINE
  5
220
330
1F
100
AcDbEntity
  8
0-0
  6
JWW_DASHED1
 62
   120
370
     5
100
AcDbLine
 10
75.4669119617408
 20
-190.7843691704976
 30
0.0
 11
325.4669119617311
 21
59.21563082949291
 31
0.0
  0
LINE
  5
221
330
1F
100
AcDbEntity
  8
0-0
  6
JWW_DASHED1
 62
   120
370
     5
100
AcDbLine
 10
75.46691196173697
 20
-183.7133013572155
 30
0.0
 11
325.4669119617272
 21
66.28669864277455
 31
0.0
  0
LINE
  5
222
330
1F
100
AcDbEntity
  8
0-0
  6
JWW_DASHED1
 62
   120
370
     5
100
AcDbLine
 10
75.46691196173292
 20
-176.6422335439343
 30
0.0
 11
325.466911961739
 21
73.35776645607197
 31
0.0
  0
LINE
  5
223
330
1F
100
AcDbEntity
  8
0-0
  6
JWW_DASHED1
 62
   120
370
     5
100
AcDbLine
 10
75.46691196172887
 20
-169.5711657306531
 30
0.0
 11
325.4669119617349
 21
80.42883426935319
 31
0.0
  0
LINE
  5
224
330
1F
100
AcDbEntity
  8
0-0
  6
JWW_DASHED1
 62
   120
370
     5
100
AcDbLine
 10
75.46691196174038
 20
-162.5000979173556
 30
0.0
 11
325.4669119617307
 21
87.4999020826344
 31
0.0
  0
LINE
  5
225
330
1F
100
AcDbEntity
  8
0-0
  6
JWW_DASHED1
 62
   120
370
     5
100
AcDbLine
 10
75.46691196173633
 20
-155.4290301040744
 30
0.0
 11
325.4669119617268
 21
94.57096989591605
 31
0.0
  0
LINE
  5
226
330
1F
100
AcDbEntity
  8
0-0
  6
JWW_DASHED1
 62
   120
370
     5
100
AcDbLine
 10
75.46691196174379
 20
-148.3579622908358
 30
0.0
 11
325.4669119617342
 21
101.6420377091542
 31
0.0
  0
LINE
  5
227
330
1F
100
AcDbEntity
  8
0-0
  6
JWW_DASHED1
 62
   120
370
     5
100
AcDbLine
 10
75.46691196173995
 20
-141.2868944775546
 30
0.0
 11
325.4669119617302
 21
108.7131055224359
 31
0.0
  0
LINE
  5
228
330
1F
100
AcDbEntity
  8
0-0
  6
JWW_DASHED1
 62
   120
370
     5
100
AcDbLine
 10
75.46691196173569
 20
-134.2158266642734
 30
0.0
 11
325.4669119617421
 21
115.7841733357333
 31
0.0
  0
LINE
  5
229
330
1F
100
AcDbEntity
  8
0-0
  6
JWW_DASHED1
 62
   120
370
     5
100
AcDbLine
 10
75.46691196173185
 20
-127.1447588509913
 30
0.0
 11
325.4669119617379
 21
122.8552411490145
 31
0.0
  0
LINE
  5
22A
330
1F
100
AcDbEntity
  8
0-0
  6
JWW_DASHED1
 62
   120
370
     5
100
AcDbLine
 10
75.46691196172802
 20
-120.0736910377101
 30
0.0
 11
325.4669119617338
 21
129.9263089622961
 31
0.0
  0
LINE
  5
22B
330
1F
100
AcDbEntity
  8
0-0
  6
JWW_DASHED1
 62
   120
370
     5
100
AcDbLine
 10
75.46691196173974
 20
-113.0026232244127
 30
0.0
 11
325.4669119617298
 21
136.9973767755774
 31
0.0
  0
LINE
  5
22C
330
1F
100
AcDbEntity
  8
0-0
  6
JWW_DASHED1
 62
   120
370
     5
100
AcDbLine
 10
75.46691196174464
 20
-105.9315554111221
 30
0.0
 11
325.4669119617328
 21
144.0684445888658
 31
0.0
  0
LINE
  5
22D
330
1F
100
AcDbEntity
  8
0-0
  6
JWW_DASHED1
 62
   120
370
     5
100
AcDbLine
 10
75.4669119617408
 20
-98.86048759784089
 30
0.0
 11
325.4669119617287
 21
151.1395124021475
 31
0.0
  0
LINE
  5
22E
330
1F
100
AcDbEntity
  8
0-0
  6
JWW_DASHED1
 62
   120
370
     5
100
AcDbLine
 10
75.46691196174315
 20
-91.78941978455285
 30
0.0
 11
325.4669119617336
 21
158.2105802154372
 31
0.0
  0
LINE
  5
22F
330
1F
100
AcDbEntity
  8
0-0
  6
JWW_DASHED1
 62
   120
370
     5
100
AcDbLine
 10
75.46691196173889
 20
-84.71835197127163
 30
0.0
 11
325.4669119617296
 21
165.2816480287193
 31
0.0
  0
LINE
  5
230
330
1F
100
AcDbEntity
  8
0-0
  6
JWW_DASHED1
 62
   120
370
     5
100
AcDbLine
 10
75.466911961731
 20
-77.6472841580484
 30
0.0
 11
325.466911961737
 21
172.3527158419574
 31
0.0
  0
LINE
  5
231
330
1F
100
AcDbEntity
  8
0-0
  6
JWW_DASHED1
 62
   120
370
     5
100
AcDbLine
 10
75.46691196172716
 20
-70.57621634476718
 30
0.0
 11
325.4669119617328
 21
179.4237836552387
 31
0.0
  0
LINE
  5
232
330
1F
100
AcDbEntity
  8
0-0
  6
JWW_DASHED1
 62
   120
370
     5
100
AcDbLine
 10
75.46691196173867
 20
-63.50514853146976
 30
0.0
 11
325.466911961729
 21
186.4948514685203
 31
0.0
  0
LINE
  5
233
330
1F
100
AcDbEntity
  8
0-0
  6
JWW_DASHED1
 62
   120
370
     5
100
AcDbLine
 10
75.46691196174336
 20
-56.43408071817959
 30
0.0
 11
325.4669119617315
 21
193.5659192818083
 31
0.0
  0
LINE
  5
234
330
1F
100
AcDbEntity
  8
0-0
  6
JWW_DASHED1
 62
   120
370
     5
100
AcDbLine
 10
75.46691196173931
 20
-49.36301290489837
 30
0.0
 11
325.4669119617272
 21
200.6369870950896
 31
0.0
  0
LINE
  5
235
330
1F
100
AcDbEntity
  8
0-0
  6
JWW_DASHED1
 62
   120
370
     5
100
AcDbLine
 10
75.4669119617423
 20
-42.2919450916099
 30
0.0
 11
325.4669119617328
 21
207.7080549083806
 31
0.0
  0
LINE
  5
236
330
1F
100
AcDbEntity
  8
0-0
  6
JWW_DASHED1
 62
   120
370
     5
100
AcDbLine
 10
75.46691196173803
 20
-35.22087727832869
 30
0.0
 11
325.4669119617287
 21
214.7791227216622
 31
0.0
  0
LINE
  5
237
330
1F
100
AcDbEntity
  8
0-0
  6
JWW_DASHED1
 62
   120
370
     5
100
AcDbLine
 10
75.4669119617342
 20
-28.14980946504704
 30
0.0
 11
325.4669119617404
 21
221.8501905349592
 31
0.0
  0
LINE
  5
238
330
1F
100
AcDbEntity
  8
0-0
  6
JWW_DASHED1
 62
   120
370
     5
100
AcDbLine
 10
75.46691196173036
 20
-21.0787416517654
 30
0.0
 11
325.4669119617364
 21
228.9212583482409
 31
0.0
  0
LINE
  5
239
330
1F
100
AcDbEntity
  8
0-0
  6
JWW_DASHED1
 62
   120
370
     5
100
AcDbLine
 10
75.46691196173782
 20
-14.00767383852681
 30
0.0
 11
325.4669119617281
 21
235.9923261614632
 31
0.0
  0
LINE
  5
23A
330
1F
100
AcDbEntity
  8
0-0
  6
JWW_DASHED1
 62
   120
370
     5
100
AcDbLine
 10
75.46691196174208
 20
-6.936606025237069
 30
0.0
 11
325.4669119617302
 21
243.0633939747509
 31
0.0
  0
LINE
  5
23B
330
1F
100
AcDbEntity
  8
0-0
  6
JWW_DASHED1
 62
   120
370
     5
100
AcDbLine
 10
75.46691196174571
 20
0.1344617880518229
 30
0.0
 11
325.4669119617358
 21
250.1344617880419
 31
0.0
  0
LINE
  5
23C
330
1F
100
AcDbEntity
  8
0-0
  6
JWW_DASHED1
 62
   120
370
     5
100
AcDbLine
 10
75.46691196174145
 20
7.205529601333041
 30
0.0
 11
325.4669119617319
 21
257.2055296013235
 31
0.0
  0
LINE
  5
23D
330
1F
100
AcDbEntity
  8
0-0
  6
JWW_DASHED1
 62
   120
370
     5
100
AcDbLine
 10
75.46691196173761
 20
14.27659741461468
 30
0.0
 11
325.4669119617276
 21
264.2765974146047
 31
0.0
  0
LINE
  5
23E
330
1F
100
AcDbEntity
  8
0-0
  6
JWW_DASHED1
 62
   120
370
     5
100
AcDbLine
 10
75.46691196173377
 20
21.34766522789633
 30
0.0
 11
325.4669119617393
 21
271.3476652279018
 31
0.0
  0
LINE
  5
23F
330
1F
100
AcDbEntity
  8
0-0
  6
JWW_DASHED1
 62
   120
370
     5
100
AcDbLine
 10
75.46691196172951
 20
28.41873304117755
 30
0.0
 11
325.4669119617355
 21
278.4187330411838
 31
0.0
  0
LINE
  5
240
330
1F
100
AcDbEntity
  8
0-0
  6
JWW_DASHED1
 62
   120
370
     5
100
AcDbLine
 10
75.46691196174102
 20
35.48980085447454
 30
0.0
 11
325.4669119617313
 21
285.489800854465
 31
0.0
  0
LINE
  5
241
330
1F
100
AcDbEntity
  8
0-0
  6
JWW_DASHED1
 62
   120
370
     5
100
AcDbLine
 10
75.4669119617374
 20
42.56086866775618
 30
0.0
 11
325.4669119617274
 21
292.5608686677463
 31
0.0
  0
LINE
  5
242
330
1F
100
AcDbEntity
  8
0-0
  6
JWW_DASHED1
 62
   120
370
     5
100
AcDbLine
 10
75.46691196174486
 20
49.63193648099477
 30
0.0
 11
325.4669119617349
 21
299.6319364809848
 31
0.0
  0
LINE
  5
243
330
1F
100
AcDbEntity
  8
0-0
  6
JWW_DASHED1
 62
   120
370
     5
100
AcDbLine
 10
75.46691196174059
 20
56.70300429427598
 30
0.0
 11
325.4669119617307
 21
306.7030042942661
 31
0.0
  0
LINE
  5
244
330
1F
100
AcDbEntity
  8
0-0
  6
JWW_DASHED1
 62
   120
370
     5
100
AcDbLine
 10
75.46691196173654
 20
63.7740721075572
 30
0.0
 11
325.4669119617426
 21
313.7740721075635
 31
0.0
  0
LINE
  5
245
330
1F
100
AcDbEntity
  8
0-0
  6
JWW_DASHED1
 62
   120
370
     5
100
AcDbLine
 10
75.46691196173249
 20
70.84513992083885
 30
0.0
 11
325.4669119617386
 21
320.8451399208446
 31
0.0
  0
LINE
  5
246
330
1F
100
AcDbEntity
  8
0-0
  6
JWW_DASHED1
 62
   120
370
     5
100
AcDbLine
 10
75.46691196172866
 20
77.91620773412049
 30
0.0
 11
325.4669119617345
 21
327.9162077341263
 31
0.0
  0
LINE
  5
247
330
1F
100
AcDbEntity
  8
0-0
  6
JWW_DASHED1
 62
   120
370
     5
100
AcDbLine
 10
75.46691196174017
 20
84.98727554741748
 30
0.0
 11
325.4669119617307
 21
334.987275547408
 31
0.0
  0
LINE
  5
248
330
1F
100
AcDbEntity
  8
0-0
  6
JWW_DASHED1
 62
   120
370
     5
100
AcDbLine
 10
75.46691196174315
 20
92.05834336070595
 30
0.0
 11
325.4669119617317
 21
342.0583433606943
 31
0.0
  0
LINE
  5
249
330
1F
100
AcDbEntity
  8
0-0
  6
JWW_DASHED1
 62
   120
370
     5
100
AcDbLine
 10
75.46691196173953
 20
99.12941117398802
 30
0.0
 11
325.4669119617276
 21
349.1294111739759
 31
0.0
  0
LINE
  5
24A
330
1F
100
AcDbEntity
  8
0-0
  6
JWW_DASHED1
 62
   120
370
     5
100
AcDbLine
 10
75.46691196174379
 20
106.2004789872778
 30
0.0
 11
325.4669119617342
 21
356.2004789872678
 31
0.0
  0
LINE
  5
24B
330
1F
100
AcDbEntity
  8
0-0
  6
JWW_DASHED1
 62
   120
370
     5
100
AcDbLine
 10
75.46691196173974
 20
113.271546800559
 30
0.0
 11
325.46691196173
 21
363.271546800549
 31
0.0
  0
LINE
  5
24C
330
1F
100
AcDbEntity
  8
0-0
  6
JWW_DASHED1
 62
   120
370
     5
100
AcDbLine
 10
75.46691196173143
 20
120.3426146137814
 30
0.0
 11
325.4669119617375
 21
370.3426146137876
 31
0.0
  0
LINE
  5
24D
330
1F
100
AcDbEntity
  8
0-0
  6
JWW_DASHED1
 62
   120
370
     5
100
AcDbLine
 10
75.46691196172716
 20
127.4136824270626
 30
0.0
 11
325.4669119617336
 21
377.4136824270693
 31
0.0
  0
LINE
  5
24E
330
1F
100
AcDbEntity
  8
0-0
  6
JWW_DASHED1
 62
   120
370
     5
100
AcDbLine
 10
75.46691196173931
 20
134.4847502403604
 30
0.0
 11
325.4669119617298
 21
384.4847502403509
 31
0.0
  0
LINE
  5
24F
330
1F
100
AcDbEntity
  8
0-0
  6
JWW_DASHED1
 62
   120
370
     5
100
AcDbLine
 10
75.4669119617423
 20
141.5558180536489
 30
0.0
 11
325.4669119617304
 21
391.5558180536368
 31
0.0
  0
LINE
  5
250
330
1F
100
AcDbEntity
  8
0-0
  6
JWW_DASHED1
 62
   120
370
     5
100
AcDbLine
 10
75.46691196173825
 20
148.6268858669301
 30
0.0
 11
325.4669119617264
 21
398.6268858669184
 31
0.0
  0
LINE
  5
251
330
1F
100
AcDbEntity
  8
0-0
  6
JWW_DASHED1
 62
   120
370
     5
100
AcDbLine
 10
75.46691196174294
 20
155.6979536802207
 30
0.0
 11
325.4669119617334
 21
405.6979536802107
 31
0.0
  0
LINE
  5
252
330
1F
100
AcDbEntity
  8
0-0
  6
JWW_DASHED1
 62
   120
370
     5
100
AcDbLine
 10
75.46691196173889
 20
162.7690214935019
 30
0.0
 11
325.4669119617291
 21
412.769021493492
 31
0.0
  0
LINE
  5
253
330
1F
100
AcDbEntity
  8
0-0
  6
JWW_DASHED1
 62
   120
370
     5
100
AcDbLine
 10
75.46691196173505
 20
169.8400893067836
 30
0.0
 11
325.4669119617411
 21
419.8400893067894
 31
0.0
  0
LINE
  5
254
330
1F
100
AcDbEntity
  8
0-0
  6
JWW_DASHED1
 62
   120
370
     5
100
AcDbLine
 10
75.466911961731
 20
176.9111571200652
 30
0.0
 11
325.466911961737
 21
426.911157120071
 31
0.0
  0
LINE
  5
255
330
1F
100
AcDbEntity
  8
0-0
  6
JWW_DASHED1
 62
   120
370
     5
100
AcDbLine
 10
75.46691196173846
 20
183.9822249333034
 30
0.0
 11
325.4669119617285
 21
433.9822249332934
 31
0.0
  0
LINE
  5
256
330
1F
100
AcDbEntity
  8
0-0
  6
JWW_DASHED1
 62
   120
370
     5
100
AcDbLine
 10
75.46691196174102
 20
191.0532927465914
 30
0.0
 11
325.4669119617291
 21
441.0532927465794
 31
0.0
  0
LINE
  5
257
330
1F
100
AcDbEntity
  8
0-0
  6
JWW_DASHED1
 62
   120
370
     5
100
AcDbLine
 10
75.46691196174635
 20
198.1243605598824
 30
0.0
 11
325.4669119617364
 21
448.1243605598721
 31
0.0
  0
LINE
  5
258
330
1F
100
AcDbEntity
  8
0-0
  6
JWW_DASHED1
 62
   120
370
     5
100
AcDbLine
 10
75.4669119617423
 20
205.1954283731637
 30
0.0
 11
325.4669119617324
 21
455.1954283731537
 31
0.0
  0
LINE
  5
259
330
1F
100
AcDbEntity
  8
0-0
  6
JWW_DASHED1
 62
   120
370
     5
100
AcDbLine
 10
75.46691196173803
 20
212.2664961864449
 30
0.0
 11
325.4669119617283
 21
462.2664961864349
 31
0.0
  0
LINE
  5
25A
330
1F
100
AcDbEntity
  8
0-0
  6
JWW_DASHED1
 62
   120
370
     5
100
AcDbLine
 10
75.4669119617342
 20
219.3375639997265
 30
0.0
 11
325.4669119617403
 21
469.3375639997323
 31
0.0
  0
LINE
  5
25B
330
1F
100
AcDbEntity
  8
0-0
  6
JWW_DASHED1
 62
   120
370
     5
100
AcDbLine
 10
75.46691196172993
 20
226.4086318130077
 30
0.0
 11
325.4669119617362
 21
476.408631813014
 31
0.0
  0
LINE
  5
25C
330
1F
100
AcDbEntity
  8
0-0
  6
JWW_DASHED1
 62
   120
370
     5
100
AcDbLine
 10
75.46691196174166
 20
233.4796996263047
 30
0.0
 11
325.4669119617321
 21
483.4796996262957
 31
0.0
  0
LINE
  5
25D
330
1F
100
AcDbEntity
  8
0-0
  6
JWW_DASHED1
 62
   120
370
     5
100
AcDbLine
 10
75.46691196173782
 20
240.5507674395868
 30
0.0
 11
325.4669119617281
 21
490.5507674395768
 31
0.0
  0
LINE
  5
25E
330
1F
100
AcDbEntity
  8
0-0
  6
JWW_DASHED1
 62
   120
370
     5
100
AcDbLine
 10
75.46691196173974
 20
247.621835252874
 30
0.0
 11
325.4669119617279
 21
497.6218352528623
 31
0.0
  0
LINE
  5
25F
330
1F
100
AcDbEntity
  8
0-0
  6
JWW_DASHED1
 62
   120
370
     5
100
AcDbLine
 10
75.46691196174145
 20
254.6929030661066
 30
0.0
 11
325.4669119617315
 21
504.6929030660966
 31
0.0
  0
LINE
  5
260
330
1F
100
AcDbEntity
  8
0-0
  6
JWW_DASHED1
 62
   120
370
     5
100
AcDbLine
 10
75.46691196173718
 20
261.7639708793878
 30
0.0
 11
325.4669119617274
 21
511.7639708793779
 31
0.0
  0
LINE
  5
261
330
1F
100
AcDbEntity
  8
0-0
  6
JWW_DASHED1
 62
   120
370
     5
100
AcDbLine
 10
75.46691196173292
 20
268.8350386926691
 30
0.0
 11
325.4669119617392
 21
518.8350386926753
 31
0.0
  0
LINE
  5
262
330
1F
100
AcDbEntity
  8
0-0
  6
JWW_DASHED1
 62
   120
370
     5
100
AcDbLine
 10
75.46691196172908
 20
275.9061065059507
 30
0.0
 11
325.4669119617351
 21
525.9061065059565
 31
0.0
  0
LINE
  5
263
330
1F
100
AcDbEntity
  8
0-0
  6
JWW_DASHED1
 62
   120
370
     5
100
AcDbLine
 10
75.4669119617408
 20
282.9771743192476
 30
0.0
 11
325.4669119617313
 21
532.9771743192385
 31
0.0
  0
LINE
  5
264
330
1F
100
AcDbEntity
  8
0-0
  6
JWW_DASHED1
 62
   120
370
     5
100
AcDbLine
 10
75.46691196173676
 20
290.0482421325293
 30
0.0
 11
325.466911961727
 21
540.0482421325198
 31
0.0
  0
LINE
  5
265
330
1F
100
AcDbEntity
  8
0-0
  6
JWW_DASHED1
 62
   120
370
     5
100
AcDbLine
 10
75.46691196173846
 20
297.1193099458165
 30
0.0
 11
325.4669119617266
 21
547.1193099458044
 31
0.0
  0
LINE
  5
266
330
1F
100
AcDbEntity
  8
0-0
  6
JWW_DASHED1
 62
   120
370
     5
100
AcDbLine
 10
75.46691196174464
 20
304.1903777591084
 30
0.0
 11
325.4669119617349
 21
554.1903777590984
 31
0.0
  0
LINE
  5
267
330
1F
100
AcDbEntity
  8
0-0
  6
JWW_DASHED1
 62
   120
370
     5
100
AcDbLine
 10
75.46691196174059
 20
311.2614455723896
 30
0.0
 11
325.4669119617308
 21
561.2614455723797
 31
0.0
  0
LINE
  5
268
330
1F
100
AcDbEntity
  8
0-0
  6
JWW_DASHED1
 62
   120
370
     5
100
AcDbLine
 10
75.46691196173207
 20
318.3325133856119
 30
0.0
 11
325.4669119617381
 21
568.3325133856182
 31
0.0
  0
LINE
  5
269
330
1F
100
AcDbEntity
  8
0-0
  6
JWW_DASHED1
 62
   120
370
     5
100
AcDbLine
 10
75.46691196172823
 20
325.4035811988936
 30
0.0
 11
325.4669119617342
 21
575.4035811988995
 31
0.0
  0
LINE
  5
26A
330
1F
100
AcDbEntity
  8
0-0
  6
JWW_DASHED1
 62
   120
370
     5
100
AcDbLine
 10
75.46691196173995
 20
332.4746490121906
 30
0.0
 11
325.4669119617302
 21
582.4746490121806
 31
0.0
  0
LINE
  5
26B
330
1F
100
AcDbEntity
  8
0-0
  6
JWW_DASHED1
 62
   120
370
     5
100
AcDbLine
 10
75.46691196174123
 20
339.5457168254778
 30
0.0
 11
325.4669119617294
 21
589.5457168254657
 31
0.0
  0
LINE
  5
26C
330
1F
100
AcDbEntity
  8
0-0
  6
JWW_DASHED1
 62
   120
370
     5
100
AcDbLine
 10
75.46691196173718
 20
346.616784638759
 30
0.0
 11
325.4669119617253
 21
596.6167846387474
 31
0.0
  0
LINE
  5
26D
330
1F
100
AcDbEntity
  8
0-0
  6
JWW_DASHED1
 62
   120
370
     5
100
AcDbLine
 10
75.46691196174379
 20
353.6878524520513
 30
0.0
 11
325.4669119617341
 21
603.6878524520414
 31
0.0
  0
LINE
  5
26E
330
1F
100
AcDbEntity
  8
0-0
  6
JWW_DASHED1
 62
   120
370
     5
100
AcDbLine
 10
75.46691196173953
 20
360.7589202653326
 30
0.0
 11
325.46691196173
 21
610.7589202653226
 31
0.0
  0
LINE
  5
26F
330
1F
100
AcDbEntity
  8
0-0
  6
JWW_DASHED1
 62
   120
370
     5
100
AcDbLine
 10
75.46691196173569
 20
367.8299880786137
 30
0.0
 11
325.4669119617417
 21
617.82998807862
 31
0.0
  0
LINE
  5
270
330
1F
100
AcDbEntity
  8
0-0
  6
JWW_DASHED1
 62
   120
370
     5
100
AcDbLine
 10
75.46691196173185
 20
374.9010558918958
 30
0.0
 11
325.4669119617375
 21
624.9010558919013
 31
0.0
  0
LINE
  5
271
330
1F
100
AcDbEntity
  8
0-0
  6
JWW_DASHED1
 62
   120
370
     5
100
AcDbLine
 10
75.46691196172759
 20
381.9721237051771
 30
0.0
 11
325.4669119617336
 21
631.9721237051824
 31
0.0
  0
LINE
  5
272
330
1F
100
AcDbEntity
  8
0-0
  6
JWW_DASHED1
 62
   120
370
     5
100
AcDbLine
 10
75.46691196173974
 20
389.0431915184199
 30
0.0
 11
325.4669119617281
 21
639.0431915184082
 31
0.0
  0
LINE
  5
273
330
1F
100
AcDbEntity
  8
0-0
  6
JWW_DASHED1
 62
   120
370
     5
100
AcDbLine
 10
75.46691196174677
 20
396.1142593317122
 30
0.0
 11
325.466911961737
 21
646.1142593317022
 31
0.0
  0
LINE
  5
274
330
1F
100
AcDbEntity
  8
0-0
  6
JWW_DASHED1
 62
   120
370
     5
100
AcDbLine
 10
75.46691196174272
 20
403.1853271449938
 30
0.0
 11
325.466911961733
 21
653.1853271449843
 31
0.0
  0
LINE
  5
275
330
1F
100
AcDbEntity
  8
0-0
  6
JWW_DASHED1
 62
   120
370
     5
100
AcDbLine
 10
75.46691196173867
 20
410.2563949582755
 30
0.0
 11
325.466911961729
 21
660.2563949582656
 31
0.0
  0
LINE
  5
276
330
1F
100
AcDbEntity
  8
0-0
  6
JWW_DASHED1
 62
   120
370
     5
100
AcDbLine
 10
75.46691196173462
 20
417.3274627715567
 30
0.0
 11
325.4669119617409
 21
667.327462771563
 31
0.0
  0
LINE
  5
277
330
1F
100
AcDbEntity
  8
0-0
  6
JWW_DASHED1
 62
   120
370
     5
100
AcDbLine
 10
75.46691196173057
 20
424.3985305848379
 30
0.0
 11
325.4669119617366
 21
674.3985305848441
 31
0.0
  0
LINE
  5
278
330
1F
100
AcDbEntity
  8
0-0
  6
JWW_DASHED1
 62
   120
370
     5
100
AcDbLine
 10
75.46691196172674
 20
431.46959839812
 30
0.0
 11
325.4669119617328
 21
681.4695983981254
 31
0.0
  0
LINE
  5
279
330
1F
100
AcDbEntity
  8
0-0
  6
JWW_DASHED1
 62
   120
370
     5
100
AcDbLine
 10
75.46691196173846
 20
438.540666211417
 30
0.0
 11
325.4669119617287
 21
688.540666211407
 31
0.0
  0
LINE
  5
27A
330
1F
100
AcDbEntity
  8
0-0
  6
JWW_DASHED1
 62
   120
370
     5
100
AcDbLine
 10
75.46691196173889
 20
445.6117340247029
 30
0.0
 11
325.466911961727
 21
695.6117340246913
 31
0.0
  0
LINE
  5
27B
330
1F
100
AcDbEntity
  8
0-0
  6
JWW_DASHED1
 62
   120
370
     5
100
AcDbLine
 10
75.46691196174187
 20
452.6828018379368
 30
0.0
 11
325.4669119617321
 21
702.6828018379273
 31
0.0
  0
LINE
  5
27C
330
1F
100
AcDbEntity
  8
0-0
  6
JWW_DASHED1
 62
   120
370
     5
100
AcDbLine
 10
75.46691196173782
 20
459.7538696512185
 30
0.0
 11
325.4669119617281
 21
709.7538696512084
 31
0.0
  0
LINE
  5
27D
330
1F
100
AcDbEntity
  8
0-0
  6
JWW_DASHED1
 62
   120
370
     5
100
AcDbLine
 10
75.46691196173377
 20
466.8249374644996
 30
0.0
 11
325.4669119617398
 21
716.8249374645059
 31
0.0
  0
LINE
  5
27E
330
1F
100
AcDbEntity
  8
0-0
  6
JWW_DASHED1
 62
   120
370
     5
100
AcDbLine
 10
75.46691196172972
 20
473.8960052777809
 30
0.0
 11
325.4669119617359
 21
723.8960052777871
 31
0.0
  0
LINE
  5
27F
330
1F
100
AcDbEntity
  8
0-0
  6
JWW_DASHED1
 62
   120
370
     5
100
AcDbLine
 10
75.46691196174166
 20
480.9670730910783
 30
0.0
 11
325.4669119617319
 21
730.9670730910688
 31
0.0
  0
LINE
  5
280
330
1F
100
AcDbEntity
  8
0-0
  6
JWW_DASHED1
 62
   120
370
     5
100
AcDbLine
 10
75.4669119617374
 20
488.0381409043595
 30
0.0
 11
325.4669119617279
 21
738.03814090435
 31
0.0
  0
LINE
  5
281
330
1F
100
AcDbEntity
  8
0-0
  6
JWW_DASHED1
 62
   120
370
     5
100
AcDbLine
 10
75.4669119617374
 20
495.1092087176449
 30
0.0
 11
325.4669119617257
 21
745.1092087176334
 31
0.0
  0
LINE
  5
282
330
1F
100
AcDbEntity
  8
0-0
  6
JWW_DASHED1
 62
   120
370
     5
100
AcDbLine
 10
75.46691196174528
 20
502.1802765309386
 30
0.0
 11
325.4669119617353
 21
752.1802765309286
 31
0.0
  0
LINE
  5
283
330
1F
100
AcDbEntity
  8
0-0
  6
JWW_DASHED1
 62
   120
370
     5
100
AcDbLine
 10
75.46691196174123
 20
509.2513443442202
 30
0.0
 11
325.4669119617315
 21
759.2513443442102
 31
0.0
  0
LINE
  5
284
330
1F
100
AcDbEntity
  8
0-0
  6
JWW_DASHED1
 62
   120
370
     5
100
AcDbLine
 10
75.46691196173292
 20
516.3224121574426
 30
0.0
 11
325.466911961739
 21
766.3224121574489
 31
0.0
  0
LINE
  5
285
330
1F
100
AcDbEntity
  8
0-0
  6
JWW_DASHED1
 62
   120
370
     5
100
AcDbLine
 10
75.46691196172866
 20
523.3934799707238
 30
0.0
 11
325.4669119617351
 21
773.39347997073
 31
0.0
  0
LINE
  5
286
330
1F
100
AcDbEntity
  8
0-0
  6
JWW_DASHED1
 62
   120
370
     5
100
AcDbLine
 10
75.46691196174059
 20
530.4645477840212
 30
0.0
 11
325.4669119617308
 21
780.4645477840113
 31
0.0
  0
LINE
  5
287
330
1F
100
AcDbEntity
  8
0-0
  6
JWW_DASHED1
 62
   120
370
     5
100
AcDbLine
 10
75.46691196174017
 20
537.5356155973063
 30
0.0
 11
325.4669119617285
 21
787.5356155972946
 31
0.0
  0
LINE
  5
288
330
1F
100
AcDbEntity
  8
0-0
  6
JWW_DASHED1
 62
   120
370
     5
100
AcDbLine
 10
75.46691196173612
 20
544.606683410588
 30
0.0
 11
325.4669119617242
 21
794.6066834105759
 31
0.0
  0
LINE
  5
289
330
1F
100
AcDbEntity
  8
0-0
  6
JWW_DASHED1
 62
   120
370
     5
100
AcDbLine
 10
75.46691196174443
 20
551.6777512238815
 30
0.0
 11
325.4669119617345
 21
801.6777512238716
 31
0.0
  0
LINE
  5
28A
330
1F
100
AcDbEntity
  8
0-0
  6
JWW_DASHED1
 62
   120
370
     5
100
AcDbLine
 10
75.46691196174038
 20
558.7488190371628
 30
0.0
 11
325.4669119617307
 21
808.7488190371532
 31
0.0
  0
LINE
  5
28B
330
1F
100
AcDbEntity
  8
0-0
  6
JWW_DASHED1
 62
   120
370
     5
100
AcDbLine
 10
75.46691196173633
 20
565.8198868504444
 30
0.0
 11
325.4669119617424
 21
815.8198868504502
 31
0.0
  0
LINE
  5
28C
330
1F
100
AcDbEntity
  8
0-0
  6
JWW_DASHED1
 62
   120
370
     5
100
AcDbLine
 10
75.46691196173228
 20
572.8909546637256
 30
0.0
 11
325.4669119617383
 21
822.8909546637318
 31
0.0
  0
LINE
  5
28D
330
1F
100
AcDbEntity
  8
0-0
  6
JWW_DASHED1
 62
   120
370
     5
100
AcDbLine
 10
75.46691196172823
 20
579.9620224770072
 30
0.0
 11
325.4669119617345
 21
829.9620224770131
 31
0.0
  0
LINE
  5
28E
330
1F
100
AcDbEntity
  8
0-0
  6
JWW_DASHED1
 62
   120
370
     5
100
AcDbLine
 10
75.4669119617391
 20
587.0330902902488
 30
0.0
 11
325.466911961727
 21
837.0330902902372
 31
0.0
  0
LINE
  5
28F
330
1F
100
AcDbEntity
  8
0-0
  6
JWW_DASHED1
 62
   120
370
     5
100
AcDbLine
 10
75.46691196173484
 20
594.10415810353
 30
0.0
 11
325.4669119617228
 21
844.1041581035183
 31
0.0
  0
LINE
  5
290
330
1F
100
AcDbEntity
  8
0-0
  6
JWW_DASHED1
 62
   120
370
     5
100
AcDbLine
 10
75.46691196174358
 20
601.175225916824
 30
0.0
 11
325.4669119617338
 21
851.1752259168145
 31
0.0
  0
LINE
  5
291
330
1F
100
AcDbEntity
  8
0-0
  6
JWW_DASHED1
 62
   120
370
     5
100
AcDbLine
 10
75.46691196173953
 20
608.2462937301061
 30
0.0
 11
325.4669119617296
 21
858.2462937300961
 31
0.0
  0
LINE
  5
292
330
1F
100
AcDbEntity
  8
0-0
  6
JWW_DASHED1
 62
   120
370
     5
100
AcDbLine
 10
75.46691196173526
 20
615.3173615433873
 30
0.0
 11
325.4669119617415
 21
865.3173615433932
 31
0.0
  0
LINE
  5
293
330
1F
100
AcDbEntity
  8
0-0
  6
JWW_DASHED1
 62
   120
370
     5
100
AcDbLine
 10
75.46691196173143
 20
622.3884293566686
 30
0.0
 11
325.4669119617375
 21
872.3884293566748
 31
0.0
  0
LINE
  5
294
330
1F
100
AcDbEntity
  8
0-0
  6
JWW_DASHED1
 62
   120
370
     5
100
AcDbLine
 10
75.46691196172716
 20
629.4594971699497
 30
0.0
 11
325.4669119617334
 21
879.459497169956
 31
0.0
  0
LINE
  5
295
330
1F
100
AcDbEntity
  8
0-0
  6
JWW_DASHED1
 62
   120
370
     5
100
AcDbLine
 10
75.4669119617391
 20
636.5305649832471
 30
0.0
 11
325.4669119617294
 21
886.5305649832376
 31
0.0
  0
LINE
  5
296
330
1F
100
AcDbEntity
  8
0-0
  6
JWW_DASHED1
 62
   120
370
     5
100
AcDbLine
 10
75.46691196173782
 20
643.6016327965318
 30
0.0
 11
325.4669119617262
 21
893.6016327965197
 31
0.0
  0
LINE
  5
297
330
1F
100
AcDbEntity
  8
0-0
  6
JWW_DASHED1
 62
   120
370
     5
100
AcDbLine
 10
75.46691196174251
 20
650.6727006097669
 30
0.0
 11
325.466911961733
 21
900.6727006097574
 31
0.0
  0
LINE
  5
298
330
1F
100
AcDbEntity
  8
0-0
  6
JWW_DASHED1
 62
   120
370
     5
100
AcDbLine
 10
75.46691196173846
 20
657.7437684230486
 30
0.0
 11
325.4669119617287
 21
907.7437684230387
 31
0.0
  0
LINE
  5
299
330
1F
100
AcDbEntity
  8
0-0
  6
JWW_DASHED1
 62
   120
370
     5
100
AcDbLine
 10
75.46691196173441
 20
664.8148362363303
 30
0.0
 11
325.4669119617404
 21
914.8148362363361
 31
0.0
  0
LINE
  5
29A
330
1F
100
AcDbEntity
  8
0-0
  6
JWW_DASHED1
 62
   120
370
     5
100
AcDbLine
 10
75.46691196173036
 20
671.8859040496114
 30
0.0
 11
325.4669119617364
 21
921.8859040496177
 31
0.0
  0
LINE
  5
29B
330
1F
100
AcDbEntity
  8
0-0
  6
JWW_DASHED1
 62
   120
370
     5
100
AcDbLine
 10
75.4669119617423
 20
678.9569718629089
 30
0.0
 11
325.4669119617325
 21
928.956971862899
 31
0.0
  0
LINE
  5
29C
330
1F
100
AcDbEntity
  8
0-0
  6
JWW_DASHED1
 62
   120
370
     5
100
AcDbLine
 10
75.46691196173803
 20
686.0280396761901
 30
0.0
 11
325.4669119617285
 21
936.0280396761806
 31
0.0
  0
LINE
  5
29D
330
1F
100
AcDbEntity
  8
0-0
  6
JWW_DASHED1
 62
   120
370
     5
100
AcDbLine
 10
75.46691196173633
 20
693.0991074894739
 30
0.0
 11
325.4669119617247
 21
943.0991074894622
 31
0.0
  0
LINE
  5
29E
330
1F
100
AcDbEntity
  8
0-0
  6
JWW_DASHED1
 62
   120
370
     5
100
AcDbLine
 10
75.46691196174613
 20
700.1701753027687
 30
0.0
 11
325.4669119617359
 21
950.1701753027592
 31
0.0
  0
LINE
  5
29F
330
1F
100
AcDbEntity
  8
0-0
  6
JWW_DASHED1
 62
   120
370
     5
100
AcDbLine
 10
75.46691196174187
 20
707.2412431160503
 30
0.0
 11
325.4669119617321
 21
957.2412431160404
 31
0.0
  0
LINE
  5
2A0
330
1F
100
AcDbEntity
  8
0-0
  6
JWW_DASHED1
 62
   120
370
     5
100
AcDbLine
 10
75.46691196173803
 20
714.312310929332
 30
0.0
 11
325.4669119617438
 21
964.3123109293379
 31
0.0
  0
LINE
  5
2A1
330
1F
100
AcDbEntity
  8
0-0
  6
JWW_DASHED1
 62
   120
370
     5
100
AcDbLine
 10
75.46691196172951
 20
721.3833787425544
 30
0.0
 11
325.4669119617355
 21
971.3833787425602
 31
0.0
  0
LINE
  5
2A2
330
1F
100
AcDbEntity
  8
0-0
  6
JWW_DASHED1
 62
   120
370
     5
100
AcDbLine
 10
75.46691196174123
 20
728.4544465558519
 30
0.0
 11
320.381906016532
 21
973.3694406106422
 31
0.0
  0
LINE
  5
2A3
330
1F
100
AcDbEntity
  8
0-0
  6
JWW_DASHED1
 62
   120
370
     5
100
AcDbLine
 10
75.46691196173931
 20
735.5255143691347
 30
0.0
 11
313.3108382032501
 21
973.369440610646
 31
0.0
  0
LINE
  5
2A4
330
1F
100
AcDbEntity
  8
0-0
  6
JWW_DASHED1
 62
   120
370
     5
100
AcDbLine
 10
75.46691196173526
 20
742.5965821824168
 30
0.0
 11
306.2397703899683
 21
973.3694406106498
 31
0.0
  0
LINE
  5
2A5
330
1F
100
AcDbEntity
  8
0-0
  6
JWW_DASHED1
 62
   120
370
     5
100
AcDbLine
 10
75.46691196174486
 20
749.6676499957117
 30
0.0
 11
299.1687025766709
 21
973.3694406106374
 31
0.0
  0
LINE
  5
2A6
330
1F
100
AcDbEntity
  8
0-0
  6
JWW_DASHED1
 62
   120
370
     5
100
AcDbLine
 10
75.46691196174102
 20
756.7387178089933
 30
0.0
 11
292.0976347633892
 21
973.3694406106413
 31
0.0
  0
LINE
  5
2A7
330
1F
100
AcDbEntity
  8
0-0
  6
JWW_DASHED1
 62
   120
370
     5
100
AcDbLine
 10
75.46691196173676
 20
763.8097856222746
 30
0.0
 11
285.0265669500943
 21
973.369440610632
 31
0.0
  0
LINE
  5
2A8
330
1F
100
AcDbEntity
  8
0-0
  6
JWW_DASHED1
 62
   120
370
     5
100
AcDbLine
 10
75.46691196173292
 20
770.8808534355562
 30
0.0
 11
277.9554991368129
 21
973.3694406106362
 31
0.0
  0
LINE
  5
2A9
330
1F
100
AcDbEntity
  8
0-0
  6
JWW_DASHED1
 62
   120
370
     5
100
AcDbLine
 10
75.46691196172887
 20
777.9519212488374
 30
0.0
 11
270.8844313235318
 21
973.3694406106405
 31
0.0
  0
LINE
  5
2AA
330
1F
100
AcDbEntity
  8
0-0
  6
JWW_DASHED1
 62
   120
370
     5
100
AcDbLine
 10
75.46691196173803
 20
785.0229890620777
 30
0.0
 11
263.8133635103057
 21
973.3694406106451
 31
0.0
  0
LINE
  5
2AB
330
1F
100
AcDbEntity
  8
0-0
  6
JWW_DASHED1
 62
   120
370
     5
100
AcDbLine
 10
75.46691196173377
 20
792.0940568753589
 30
0.0
 11
256.7422956970238
 21
973.369440610649
 31
0.0
  0
LINE
  5
2AC
330
1F
100
AcDbEntity
  8
0-0
  6
JWW_DASHED1
 62
   120
370
     5
100
AcDbLine
 10
75.466911961744
 20
799.1651246886546
 30
0.0
 11
249.6712278837262
 21
973.3694406106371
 31
0.0
  0
LINE
  5
2AD
330
1F
100
AcDbEntity
  8
0-0
  6
JWW_DASHED1
 62
   120
370
     5
100
AcDbLine
 10
75.46691196173995
 20
806.2361925019359
 30
0.0
 11
242.6001600704444
 21
973.3694406106405
 31
0.0
  0
LINE
  5
2AE
330
1F
100
AcDbEntity
  8
0-0
  6
JWW_DASHED1
 62
   120
370
     5
100
AcDbLine
 10
75.4669119617359
 20
813.307260315217
 30
0.0
 11
235.5290922571527
 21
973.369440610634
 31
0.0
  0
LINE
  5
2AF
330
1F
100
AcDbEntity
  8
0-0
  6
JWW_DASHED1
 62
   120
370
     5
100
AcDbLine
 10
75.46691196173207
 20
820.3783281284991
 30
0.0
 11
228.4580244438715
 21
973.3694406106383
 31
0.0
  0
LINE
  5
2B0
330
1F
100
AcDbEntity
  8
0-0
  6
JWW_DASHED1
 62
   120
370
     5
100
AcDbLine
 10
75.46691196172802
 20
827.4493959417804
 30
0.0
 11
221.3869566305902
 21
973.3694406106426
 31
0.0
  0
LINE
  5
2B1
330
1F
100
AcDbEntity
  8
0-0
  6
JWW_DASHED1
 62
   120
370
     5
100
AcDbLine
 10
75.46691196173974
 20
834.5204637550778
 30
0.0
 11
214.3158888173018
 21
973.3694406106396
 31
0.0
  0
LINE
  5
2B2
330
1F
100
AcDbEntity
  8
0-0
  6
JWW_DASHED1
 62
   120
370
     5
100
AcDbLine
 10
75.46691196173676
 20
841.5915315683603
 30
0.0
 11
207.2448210040201
 21
973.3694406106439
 31
0.0
  0
LINE
  5
2B3
330
1F
100
AcDbEntity
  8
0-0
  6
JWW_DASHED1
 62
   120
370
     5
100
AcDbLine
 10
75.46691196174315
 20
848.6625993815976
 30
0.0
 11
200.1737531907816
 21
973.3694406106362
 31
0.0
  0
LINE
  5
2B4
330
1F
100
AcDbEntity
  8
0-0
  6
JWW_DASHED1
 62
   120
370
     5
100
AcDbLine
 10
75.4669119617391
 20
855.7336671948788
 30
0.0
 11
193.1026853774999
 21
973.3694406106396
 31
0.0
  0
LINE
  5
2B5
330
1F
100
AcDbEntity
  8
0-0
  6
JWW_DASHED1
 62
   120
370
     5
100
AcDbLine
 10
75.46691196173505
 20
862.8047350081604
 30
0.0
 11
186.031617564211
 21
973.3694406106362
 31
0.0
  0
LINE
  5
2B6
330
1F
100
AcDbEntity
  8
0-0
  6
JWW_DASHED1
 62
   120
370
     5
100
AcDbLine
 10
75.466911961731
 20
869.8758028214421
 30
0.0
 11
178.9605497509298
 21
973.3694406106405
 31
0.0
  0
LINE
  5
2B7
330
1F
100
AcDbEntity
  8
0-0
  6
JWW_DASHED1
 62
   120
370
     5
100
AcDbLine
 10
75.46691196174272
 20
876.9468706347391
 30
0.0
 11
171.889481937639
 21
973.3694406106354
 31
0.0
  0
LINE
  5
2B8
330
1F
100
AcDbEntity
  8
0-0
  6
JWW_DASHED1
 62
   120
370
     5
100
AcDbLine
 10
75.46691196173889
 20
884.0179384480207
 30
0.0
 11
164.8184141243571
 21
973.3694406106388
 31
0.0
  0
LINE
  5
2B9
330
1F
100
AcDbEntity
  8
0-0
  6
JWW_DASHED1
 62
   120
370
     5
100
AcDbLine
 10
75.46691196173548
 20
891.0890062613028
 30
0.0
 11
157.7473463110755
 21
973.369440610643
 31
0.0
  0
LINE
  5
2BA
330
1F
100
AcDbEntity
  8
0-0
  6
JWW_DASHED1
 62
   120
370
     5
100
AcDbLine
 10
75.46691196174656
 20
898.1600740745994
 30
0.0
 11
150.6762784977778
 21
973.3694406106306
 31
0.0
  0
LINE
  5
2BB
330
1F
100
AcDbEntity
  8
0-0
  6
JWW_DASHED1
 62
   120
370
     5
100
AcDbLine
 10
75.46691196174251
 20
905.2311418878805
 30
0.0
 11
143.6052106844962
 21
973.3694406106345
 31
0.0
  0
LINE
  5
2BC
330
1F
100
AcDbEntity
  8
0-0
  6
JWW_DASHED1
 62
   120
370
     5
100
AcDbLine
 10
75.46691196173846
 20
912.3022097011618
 30
0.0
 11
136.5341428712144
 21
973.3694406106379
 31
0.0
  0
LINE
  5
2BD
330
1F
100
AcDbEntity
  8
0-0
  6
JWW_DASHED1
 62
   120
370
     5
100
AcDbLine
 10
75.46691196173015
 20
919.373277514385
 30
0.0
 11
129.4630750579884
 21
973.369440610643
 31
0.0
  0
LINE
  5
2BE
330
1F
100
AcDbEntity
  8
0-0
  6
JWW_DASHED1
 62
   120
370
     5
100
AcDbLine
 10
75.46691196174187
 20
926.444345327682
 30
0.0
 11
122.3920072446941
 21
973.3694406106345
 31
0.0
  0
LINE
  5
2BF
330
1F
100
AcDbEntity
  8
0-0
  6
JWW_DASHED1
 62
   120
370
     5
100
AcDbLine
 10
75.46691196173825
 20
933.5154131409637
 30
0.0
 11
115.3209394314125
 21
973.3694406106379
 31
0.0
  0
LINE
  5
2C0
330
1F
100
AcDbEntity
  8
0-0
  6
JWW_DASHED1
 62
   120
370
     5
100
AcDbLine
 10
75.4669119617342
 20
940.5864809542448
 30
0.0
 11
108.2498716181306
 21
973.3694406106417
 31
0.0
  0
LINE
  5
2C1
330
1F
100
AcDbEntity
  8
0-0
  6
JWW_DASHED1
 62
   120
370
     5
100
AcDbLine
 10
75.46691196174571
 20
947.6575487675423
 30
0.0
 11
101.1788038048332
 21
973.3694406106293
 31
0.0
  0
LINE
  5
2C2
330
1F
100
AcDbEntity
  8
0-0
  6
JWW_DASHED1
 62
   120
370
     5
100
AcDbLine
 10
75.46691196174166
 20
954.7286165808235
 30
0.0
 11
94.10773599155156
 21
973.3694406106337
 31
0.0
  0
LINE
  5
2C3
330
1F
100
AcDbEntity
  8
0-0
  6
JWW_DASHED1
 62
   120
370
     5
100
AcDbLine
 10
75.46691196173761
 20
961.7996843941047
 30
0.0
 11
87.03666817826907
 21
973.3694406106366
 31
0.0
  0
LINE
  5
2C4
330
1F
100
AcDbEntity
  8
0-0
  6
JWW_DASHED1
 62
   120
370
     5
100
AcDbLine
 10
75.46691196173356
 20
968.8707522073868
 30
0.0
 11
79.96560036498785
 21
973.3694406106405
 31
0.0
  0
LWPOLYLINE
  5
2C5
330
1F
100
AcDbEntity
  8
寸法
  6
Continuous
 62
     7
370
     9
100
AcDbPolyline
 90
        4
 70
     1
 43
3.0
 10
-1614.033088038263
 20
-1082.91250126253
 42
0.4142135623731
 10
-1615.533088038263
 20
-1081.41250126253
 42
0.4142135623731
 10
-1617.033088038263
 20
-1082.91250126253
 42
0.4142135623731
 10
-1615.533088038263
 20
-1084.41250126253
 42
0.4142135623731
  0
LINE
  5
2C6
330
1F
100
AcDbEntity
  8
寸法
  6
Continuous
 62
   120
370
     5
100
AcDbLine
 10
-1615.533088038263
 20
-1082.91250126253
 30
0.0
 11
-1215.533088038263
 21
-1082.91250126253
 31
0.0
  0
LWPOLYLINE
  5
2C7
330
1F
100
AcDbEntity
  8
寸法
  6
Continuous
 62
     7
370
     9
100
AcDbPolyline
 90
        4
 70
     1
 43
3.0
 10
-1414.033088038264
 20
-1074.41250126253
 42
0.4142135623731
 10
-1415.533088038264
 20
-1072.912501262531
 42
0.4142135623731
 10
-1417.033088038264
 20
-1074.41250126253
 42
0.4142135623731
 10
-1415.533088038264
 20
-1075.91250126253
 42
0.4142135623731
  0
LINE
  5
2C8
330
1F
100
AcDbEntity
  8
寸法
  6
Continuous
 62
   120
370
     5
100
AcDbLine
 10
-1415.533088038264
 20
-1074.41250126253
 30
0.0
 11
-1215.533088038263
 21
-1074.41250126253
 31
0.0
  0
LINE
  5
2C9
330
1F
100
AcDbEntity
  8
寸法
  6
Continuous
 62
   120
370
     5
100
AcDbLine
 10
-374.5330880382643
 20
-1332.912501262531
 30
0.0
 11
-374.5330880382643
 21
-1132.91250126253
 31
0.0
  0
LWPOLYLINE
  5
2CA
330
1F
100
AcDbEntity
  8
寸法
  6
Continuous
 62
     7
370
     9
100
AcDbPolyline
 90
        4
 70
     1
 43
3.0
 10
-373.0330880382642
 20
-1332.912501262531
 42
0.4142135623731
 10
-374.5330880382643
 20
-1331.412501262531
 42
0.4142135623731
 10
-376.0330880382643
 20
-1332.912501262531
 42
0.4142135623731
 10
-374.5330880382643
 20
-1334.412501262531
 42
0.4142135623731
  0
LINE
  5
2CB
330
1F
100
AcDbEntity
  8
寸法
  6
Continuous
 62
   120
370
     5
100
AcDbLine
 10
435.4669119617357
 20
-1332.912501262531
 30
0.0
 11
-374.5330880382643
 21
-1332.912501262531
 31
0.0
  0
LINE
  5
2CC
330
1F
100
AcDbEntity
  8
寸法
  6
Continuous
 62
   120
370
     5
100
AcDbLine
 10
435.4669119617357
 20
-1332.912501262531
 30
0.0
 11
435.4669119617357
 21
-1132.91250126253
 31
0.0
  0
LWPOLYLINE
  5
2CD
330
1F
100
AcDbEntity
  8
寸法
  6
Continuous
 62
     7
370
     9
100
AcDbPolyline
 90
        4
 70
     1
 43
3.0
 10
436.9669119617357
 20
-1332.912501262531
 42
0.4142135623731
 10
435.4669119617357
 20
-1331.412501262531
 42
0.4142135623731
 10
433.9669119617357
 20
-1332.912501262531
 42
0.4142135623731
 10
435.4669119617357
 20
-1334.412501262531
 42
0.4142135623731
  0
LINE
  5
2CE
330
1F
100
AcDbEntity
  8
寸法
  6
Continuous
 62
   120
370
     5
100
AcDbLine
 10
-1165.533088038263
 20
-1532.91250126253
 30
0.0
 11
-1165.533088038263
 21
-1132.91250126253
 31
0.0
  0
LWPOLYLINE
  5
2CF
330
1F
100
AcDbEntity
  8
寸法
  6
Continuous
 62
     7
370
     9
100
AcDbPolyline
 90
        4
 70
     1
 43
3.0
 10
-1164.033088038263
 20
-1532.91250126253
 42
0.4142135623731
 10
-1165.533088038263
 20
-1531.41250126253
 42
0.4142135623731
 10
-1167.033088038263
 20
-1532.91250126253
 42
0.4142135623731
 10
-1165.533088038263
 20
-1534.41250126253
 42
0.4142135623731
  0
LINE
  5
2D0
330
1F
100
AcDbEntity
  8
寸法
  6
Continuous
 62
   120
370
     5
100
AcDbLine
 10
443.4669119617353
 20
-1532.91250126253
 30
0.0
 11
-1165.533088038263
 21
-1532.91250126253
 31
0.0
  0
LINE
  5
2D1
330
1F
100
AcDbEntity
  8
寸法
  6
Continuous
 62
   120
370
     5
100
AcDbLine
 10
443.4669119617353
 20
-1532.91250126253
 30
0.0
 11
443.4669119617353
 21
-1132.91250126253
 31
0.0
  0
LWPOLYLINE
  5
2D2
330
1F
100
AcDbEntity
  8
寸法
  6
Continuous
 62
     7
370
     9
100
AcDbPolyline
 90
        4
 70
     1
 43
3.0
 10
444.9669119617353
 20
-1532.91250126253
 42
0.4142135623731
 10
443.4669119617353
 20
-1531.41250126253
 42
0.4142135623731
 10
441.9669119617352
 20
-1532.91250126253
 42
0.4142135623731
 10
443.4669119617353
 20
-1534.41250126253
 42
0.4142135623731
  0
LINE
  5
2D3
330
1F
100
AcDbEntity
  8
寸法
  6
Continuous
 62
   120
370
     5
100
AcDbLine
 10
-1415.533088038264
 20
1108.58749873747
 30
0.0
 11
-1415.533088038264
 21
-1074.41250126253
 31
0.0
  0
LWPOLYLINE
  5
2D4
330
1F
100
AcDbEntity
  8
寸法
  6
Continuous
 62
     7
370
     9
100
AcDbPolyline
 90
        4
 70
     1
 43
3.0
 10
-1414.033088038264
 20
1108.58749873747
 42
0.4142135623731
 10
-1415.533088038264
 20
1110.08749873747
 42
0.4142135623731
 10
-1417.033088038264
 20
1108.58749873747
 42
0.4142135623731
 10
-1415.533088038264
 20
1107.08749873747
 42
0.4142135623731
  0
LINE
  5
2D5
330
1F
100
AcDbEntity
  8
寸法
  6
Continuous
 62
   120
370
     5
100
AcDbLine
 10
-1415.533088038264
 20
1108.58749873747
 30
0.0
 11
-1215.533088038263
 21
1108.58749873747
 31
0.0
  0
LINE
  5
2D6
330
1F
100
AcDbEntity
  8
寸法
  6
Continuous
 62
   120
370
     5
100
AcDbLine
 10
-1615.533088038263
 20
1161.08749873747
 30
0.0
 11
-1615.533088038263
 21
-1082.91250126253
 31
0.0
  0
LWPOLYLINE
  5
2D7
330
1F
100
AcDbEntity
  8
寸法
  6
Continuous
 62
     7
370
     9
100
AcDbPolyline
 90
        4
 70
     1
 43
3.0
 10
-1614.033088038263
 20
1161.08749873747
 42
0.4142135623731
 10
-1615.533088038263
 20
1162.58749873747
 42
0.4142135623731
 10
-1617.033088038263
 20
1161.08749873747
 42
0.4142135623731
 10
-1615.533088038263
 20
1159.58749873747
 42
0.4142135623731
  0
LINE
  5
2D8
330
1F
100
AcDbEntity
  8
寸法
  6
Continuous
 62
   120
370
     5
100
AcDbLine
 10
-1615.533088038263
 20
1161.08749873747
 30
0.0
 11
-1215.533088038263
 21
1161.08749873747
 31
0.0
  0
MTEXT
  5
2D9
330
1F
100
AcDbEntity
  8
寸法
  6
Continuous
 62
     7
370
    70
100
AcDbMText
 10
-1430.533088038264
 20
-206.0875012625303
 30
0.0
 40
57.14999999999999
 41
412.5
 46
0.0
 71
     7
 72
     1
  1
{\fＭＳ ゴシック|b0|i0|c128|p49;ＤＨ＝2,183}
 11
6.123031769111886E-17
 21
1.0
 31
0.0
 73
     1
 44
1.0
  0
MTEXT
  5
2DA
330
1F
100
AcDbEntity
  8
寸法
  6
Continuous
 62
     7
370
    70
100
AcDbMText
 10
-1630.533088038263
 20
-377.5875012625303
 30
0.0
 40
57.15000000000001
 41
787.5
 46
0.0
 71
     7
 72
     1
  1
{\fＭＳ ゴシック|b0|i0|c128|p49;カマ錠枠外寸法＝2,244}
 11
6.123031769111886E-17
 21
1.0
 31
0.0
 73
     1
 44
1.0
  0
MTEXT
  5
2DB
330
1F
100
AcDbEntity
  8
寸法
  6
Continuous
 62
     7
370
   211
100
AcDbMText
 10
-138.2830880382643
 20
-1326.837501262531
 30
0.0
 40
57.15
 41
337.5
 46
0.0
 71
     7
 72
     1
  1
{\fＭＳ ゴシック|b0|i0|c128|p49;ＤＷ＝810}
 73
     1
 44
1.0
  0
MTEXT
  5
2DC
330
1F
100
AcDbEntity
  8
寸法
  6
Continuous
 62
     7
370
   211
100
AcDbMText
 10
-754.7830880382629
 20
-1526.837501262529
 30
0.0
 40
57.15000000000001
 41
787.5
 46
0.0
 71
     7
 72
     1
  1
{\fＭＳ ゴシック|b0|i0|c128|p49;上吊レール長さ＝1,609}
 73
     1
 44
1.0
  0
ENDSEC
  0
SECTION
  2
OBJECTS
  0
DICTIONARY
  5
C
330
0
100
AcDbDictionary
281
     1
  3
ACAD_GROUP
350
D
  3
ACAD_LAYOUT
350
1A
  3
ACAD_MATERIAL
350
3B
  3
ACAD_MLEADERSTYLE
350
2DE
  3
ACAD_MLINESTYLE
350
17
  3
ACAD_PLOTSETTINGS
350
19
  3
ACAD_PLOTSTYLENAME
350
E
  3
ACAD_TABLESTYLE
350
2DD
  3
ACAD_VISUALSTYLE
350
2A
  0
DICTIONARY
  5
D
102
{ACAD_REACTORS
330
C
102
}
330
C
100
AcDbDictionary
281
     1
  0
DICTIONARY
  5
1A
102
{ACAD_REACTORS
330
C
102
}
330
C
100
AcDbDictionary
281
     1
  3
Layout1
350
1E
  3
Layout2
350
26
  3
Model
350
22
  0
DICTIONARY
  5
3B
102
{ACAD_REACTORS
330
C
102
}
330
C
100
AcDbDictionary
281
     1
  3
ByBlock
350
3D
  3
ByLayer
350
3C
  3
Global
350
3E
  0
DICTIONARY
  5
2DE
102
{ACAD_REACTORS
330
C
102
}
330
C
100
AcDbDictionary
281
     1
  0
DICTIONARY
  5
17
102
{ACAD_REACTORS
330
C
102
}
330
C
100
AcDbDictionary
281
     1
  3
Standard
350
18
  0
DICTIONARY
  5
19
102
{ACAD_REACTORS
330
C
102
}
330
C
100
AcDbDictionary
281
     1
  0
ACDBDICTIONARYWDFLT
  5
E
102
{ACAD_REACTORS
330
C
102
}
330
C
100
AcDbDictionary
281
     1
  3
Normal
350
F
100
AcDbDictionaryWithDefault
340
F
  0
DICTIONARY
  5
2DD
102
{ACAD_REACTORS
330
C
102
}
330
C
100
AcDbDictionary
281
     1
  0
DICTIONARY
  5
2A
102
{ACAD_REACTORS
330
C
102
}
330
C
100
AcDbDictionary
281
     1
  3
2dWireframe
350
2F
  3
3D Hidden
350
31
  3
3dWireframe
350
30
  3
Basic
350
32
  3
Brighten
350
36
  3
ColorChange
350
3A
  3
Conceptual
350
34
  3
Dim
350
35
  3
Facepattern
350
39
  3
Flat
350
2B
  3
FlatWithEdges
350
2C
  3
Gouraud
350
2D
  3
GouraudWithEdges
350
2E
  3
Linepattern
350
38
  3
Realistic
350
33
  3
Thicken
350
37
  0
LAYOUT
  5
1E
102
{ACAD_REACTORS
330
1A
102
}
330
1A
100
AcDbPlotSettings
  1

  2
none_device
  4

  6

 40
0.0
 41
0.0
 42
0.0
 43
0.0
 44
0.0
 45
0.0
 46
0.0
 47
0.0
 48
0.0
 49
0.0
140
0.0
141
0.0
142
1.0
143
1.0
 70
   688
 72
     0
 73
     0
 74
     5
  7

 75
    16
 76
     0
 77
     5
 78
   300
147
1.0
148
0.0
149
0.0
100
AcDbLayout
  1
Layout1
 70
     1
 71
     1
 10
0.0
 20
0.0
 11
420.0
 21
297.0
 12
0.0
 22
0.0
 32
0.0
 14
1.000000000000000E+20
 24
1.000000000000000E+20
 34
1.000000000000000E+20
 15
-1.000000000000000E+20
 25
-1.000000000000000E+20
 35
-1.000000000000000E+20
146
0.0
 13
0.0
 23
0.0
 33
0.0
 16
1.0
 26
0.0
 36
0.0
 17
0.0
 27
1.0
 37
0.0
 76
     0
330
1B
  0
LAYOUT
  5
26
102
{ACAD_REACTORS
330
1A
102
}
330
1A
100
AcDbPlotSettings
  1

  2
none_device
  4

  6

 40
0.0
 41
0.0
 42
0.0
 43
0.0
 44
0.0
 45
0.0
 46
0.0
 47
0.0
 48
0.0
 49
0.0
140
0.0
141
0.0
142
1.0
143
1.0
 70
   688
 72
     0
 73
     0
 74
     5
  7

 75
    16
 76
     0
 77
     5
 78
   300
147
1.0
148
0.0
149
0.0
100
AcDbLayout
  1
Layout2
 70
     1
 71
     2
 10
0.0
 20
0.0
 11
0.0
 21
0.0
 12
0.0
 22
0.0
 32
0.0
 14
0.0
 24
0.0
 34
0.0
 15
0.0
 25
0.0
 35
0.0
146
0.0
 13
0.0
 23
0.0
 33
0.0
 16
1.0
 26
0.0
 36
0.0
 17
0.0
 27
1.0
 37
0.0
 76
     0
330
23
  0
LAYOUT
  5
22
102
{ACAD_REACTORS
330
1A
102
}
330
1A
100
AcDbPlotSettings
  1

  2
none_device
  4

  6

 40
0.0
 41
0.0
 42
0.0
 43
0.0
 44
0.0
 45
0.0
 46
0.0
 47
0.0
 48
0.0
 49
0.0
140
0.0
141
0.0
142
1.0
143
1.0
 70
  1712
 72
     0
 73
     0
 74
     0
  7

 75
     0
 76
     0
 77
     5
 78
   300
147
1.0
148
0.0
149
0.0
100
AcDbLayout
  1
Model
 70
     1
 71
     0
 10
-4455.0
 20
-3150.0
 11
4455.0
 21
3150.0
 12
0.0
 22
0.0
 32
0.0
 14
-4455.0
 24
-3150.0
 34
0.0
 15
4455.0
 25
3150.0
 35
0.0
146
0.0
 13
0.0
 23
0.0
 33
0.0
 16
1.0
 26
0.0
 36
0.0
 17
0.0
 27
1.0
 37
0.0
 76
     0
330
1F
331
29
  0
MATERIAL
  5
3D
102
{ACAD_REACTORS
330
3B
102
}
330
3B
100
AcDbMaterial
  1
ByBlock
 72
     1
 94
      127
  0
MATERIAL
  5
3C
102
{ACAD_REACTORS
330
3B
102
}
330
3B
100
AcDbMaterial
  1
ByLayer
 72
     1
 94
      127
  0
MATERIAL
  5
3E
102
{ACAD_REACTORS
330
3B
102
}
330
3B
100
AcDbMaterial
  1
Global
 72
     1
 94
      127
  0
MLINESTYLE
  5
18
102
{ACAD_REACTORS
330
17
102
}
330
17
100
AcDbMlineStyle
  2
Standard
 70
     0
  3

 62
   256
 51
90.0
 52
90.0
 71
     2
 49
0.5
 62
   256
  6
BYLAYER
 49
-0.5
 62
   256
  6
BYLAYER
  0
ACDBPLACEHOLDER
  5
F
102
{ACAD_REACTORS
330
E
102
}
330
E
  0
VISUALSTYLE
  5
2F
102
{ACAD_REACTORS
330
2A
102
}
330
2A
100
AcDbVisualStyle
  2
2dWireframe
 70
     4
177
     2
291
     0
 71
     0
176
     1
 72
     2
176
     1
 73
     0
176
     1
 90
        0
176
     1
 40
-0.6
176
     1
 41
-30.0
176
     1
 62
     5
 63
     7
421
 16777215
176
     1
 74
     1
176
     1
 91
        4
176
     1
 64
     7
176
     1
 65
   257
176
     1
 75
     1
176
     1
175
     1
176
     1
 42
1.0
176
     1
 92
        0
176
     1
 66
   257
176
     1
 43
1.0
176
     1
 76
     1
176
     1
 77
     6
176
     1
 78
     2
176
     1
 67
     7
176
     1
 79
     5
176
     1
170
     0
176
     1
171
     0
176
     1
290
     0
176
     1
 93
        1
176
     1
 44
0.0
176
     1
173
     0
176
     1
  0
VISUALSTYLE
  5
31
102
{ACAD_REACTORS
330
2A
102
}
330
2A
100
AcDbVisualStyle
  2
3D Hidden
 70
     6
177
     2
291
     0
 71
     1
176
     1
 72
     2
176
     1
 73
     2
176
     1
 90
        0
176
     1
 40
-0.6
176
     1
 41
-30.0
176
     1
 62
     5
 63
     7
421
 16777215
176
     1
 74
     2
176
     1
 91
        2
176
     1
 64
     7
176
     1
 65
   257
176
     1
 75
     2
176
     1
175
     1
176
     1
 42
40.0
176
     1
 92
        0
176
     1
 66
   257
176
     1
 43
1.0
176
     1
 76
     1
176
     1
 77
     6
176
     1
 78
     2
176
     1
 67
     7
176
     1
 79
     3
176
     1
170
     0
176
     1
171
     0
176
     1
290
     0
176
     1
 93
        1
176
     1
 44
0.0
176
     1
173
     0
176
     1
  0
VISUALSTYLE
  5
30
102
{ACAD_REACTORS
330
2A
102
}
330
2A
100
AcDbVisualStyle
  2
3dWireframe
 70
     5
177
     2
291
     0
 71
     0
176
     1
 72
     2
176
     1
 73
     0
176
     1
 90
        0
176
     1
 40
-0.6
176
     1
 41
-30.0
176
     1
 62
     5
 63
     7
421
 16777215
176
     1
 74
     1
176
     1
 91
        4
176
     1
 64
     7
176
     1
 65
   257
176
     1
 75
     1
176
     1
175
     1
176
     1
 42
1.0
176
     1
 92
        0
176
     1
 66
   257
176
     1
 43
1.0
176
     1
 76
     1
176
     1
 77
     6
176
     1
 78
     2
176
     1
 67
     7
176
     1
 79
     5
176
     1
170
     0
176
     1
171
     0
176
     1
290
     0
176
     1
 93
        1
176
     1
 44
0.0
176
     1
173
     0
176
     1
  0
VISUALSTYLE
  5
32
102
{ACAD_REACTORS
330
2A
102
}
330
2A
100
AcDbVisualStyle
  2
Basic
 70
     7
177
     2
291
     1
 71
     1
176
     1
 72
     0
176
     1
 73
     1
176
     1
 90
        0
176
     1
 40
-0.6
176
     1
 41
-30.0
176
     1
 62
     5
 63
     7
421
 16777215
176
     1
 74
     0
176
     1
 91
        4
176
     1
 64
     7
176
     1
 65
   257
176
     1
 75
     1
176
     1
175
     1
176
     1
 42
1.0
176
     1
 92
        8
176
     1
 66
     7
176
     1
 43
1.0
176
     1
 76
     1
176
     1
 77
     6
176
     1
 78
     2
176
     1
 67
     7
176
     1
 79
     5
176
     1
170
     0
176
     1
171
     0
176
     1
290
     0
176
     1
 93
        1
176
     1
 44
0.0
176
     1
173
     0
176
     1
  0
VISUALSTYLE
  5
36
102
{ACAD_REACTORS
330
2A
102
}
330
2A
100
AcDbVisualStyle
  2
Brighten
 70
    12
177
     2
291
     1
 71
     2
176
     1
 72
     2
176
     1
 73
     0
176
     1
 90
        0
176
     1
 40
-0.6
176
     1
 41
-30.0
176
     1
 62
     5
 63
     7
421
 16777215
176
     1
 74
     1
176
     1
 91
        4
176
     1
 64
     7
176
     1
 65
   257
176
     1
 75
     1
176
     1
175
     1
176
     1
 42
1.0
176
     1
 92
        8
176
     1
 66
     7
176
     1
 43
1.0
176
     1
 76
     1
176
     1
 77
     6
176
     1
 78
     2
176
     1
 67
     7
176
     1
 79
     5
176
     1
170
     0
176
     1
171
     0
176
     1
290
     0
176
     1
 93
        1
176
     1
 44
50.0
176
     1
173
     0
176
     1
  0
VISUALSTYLE
  5
3A
102
{ACAD_REACTORS
330
2A
102
}
330
2A
100
AcDbVisualStyle
  2
ColorChange
 70
    16
177
     2
291
     1
 71
     2
176
     1
 72
     2
176
     1
 73
     3
176
     1
 90
        0
176
     1
 40
-0.6
176
     1
 41
-30.0
176
     1
 62
     5
 63
     8
421
  8421504
176
     1
 74
     1
176
     1
 91
        4
176
     1
 64
     7
176
     1
 65
   257
176
     1
 75
     1
176
     1
175
     1
176
     1
 42
1.0
176
     1
 92
        8
176
     1
 66
     8
424
  8421504
176
     1
 43
1.0
176
     1
 76
     1
176
     1
 77
     6
176
     1
 78
     2
176
     1
 67
     7
176
     1
 79
     5
176
     1
170
     0
176
     1
171
     0
176
     1
290
     0
176
     1
 93
        1
176
     1
 44
0.0
176
     1
173
     0
176
     1
  0
VISUALSTYLE
  5
34
102
{ACAD_REACTORS
330
2A
102
}
330
2A
100
AcDbVisualStyle
  2
Conceptual
 70
     9
177
     2
291
     0
 71
     3
176
     1
 72
     2
176
     1
 73
     0
176
     1
 90
        0
176
     1
 40
-0.6
176
     1
 41
-30.0
176
     1
 62
     5
 63
     7
421
 16777215
176
     1
 74
     2
176
     1
 91
        2
176
     1
 64
     7
176
     1
 65
   257
176
     1
 75
     1
176
     1
175
     1
176
     1
 42
40.0
176
     1
 92
        8
176
     1
 66
     7
176
     1
 43
1.0
176
     1
 76
     1
176
     1
 77
     6
176
     1
 78
     2
176
     1
 67
     7
176
     1
 79
     3
176
     1
170
     0
176
     1
171
     0
176
     1
290
     0
176
     1
 93
        1
176
     1
 44
0.0
176
     1
173
     0
176
     1
  0
VISUALSTYLE
  5
35
102
{ACAD_REACTORS
330
2A
102
}
330
2A
100
AcDbVisualStyle
  2
Dim
 70
    11
177
     2
291
     1
 71
     2
176
     1
 72
     2
176
     1
 73
     0
176
     1
 90
        0
176
     1
 40
-0.6
176
     1
 41
-30.0
176
     1
 62
     5
 63
     7
421
 16777215
176
     1
 74
     1
176
     1
 91
        4
176
     1
 64
     7
176
     1
 65
   257
176
     1
 75
     1
176
     1
175
     1
176
     1
 42
1.0
176
     1
 92
        8
176
     1
 66
     7
176
     1
 43
1.0
176
     1
 76
     1
176
     1
 77
     6
176
     1
 78
     2
176
     1
 67
     7
176
     1
 79
     5
176
     1
170
     0
176
     1
171
     0
176
     1
290
     0
176
     1
 93
        1
176
     1
 44
-50.0
176
     1
173
     0
176
     1
  0
VISUALSTYLE
  5
39
102
{ACAD_REACTORS
330
2A
102
}
330
2A
100
AcDbVisualStyle
  2
Facepattern
 70
    15
177
     2
291
     1
 71
     2
176
     1
 72
     2
176
     1
 73
     0
176
     1
 90
        0
176
     1
 40
-0.6
176
     1
 41
-30.0
176
     1
 62
     5
 63
     7
421
 16777215
176
     1
 74
     1
176
     1
 91
        4
176
     1
 64
     7
176
     1
 65
   257
176
     1
 75
     1
176
     1
175
     1
176
     1
 42
1.0
176
     1
 92
        8
176
     1
 66
     7
176
     1
 43
1.0
176
     1
 76
     1
176
     1
 77
     6
176
     1
 78
     2
176
     1
 67
     7
176
     1
 79
     5
176
     1
170
     0
176
     1
171
     0
176
     1
290
     0
176
     1
 93
        1
176
     1
 44
0.0
176
     1
173
     0
176
     1
  0
VISUALSTYLE
  5
2B
102
{ACAD_REACTORS
330
2A
102
}
330
2A
100
AcDbVisualStyle
  2
Flat
 70
     0
177
     2
291
     1
 71
     2
176
     1
 72
     1
176
     1
 73
     1
176
     1
 90
        2
176
     1
 40
-0.6
176
     1
 41
30.0
176
     1
 62
     5
 63
     7
421
 16777215
176
     1
 74
     0
176
     1
 91
        4
176
     1
 64
     7
176
     1
 65
   257
176
     1
 75
     1
176
     1
175
     1
176
     1
 42
1.0
176
     1
 92
        8
176
     1
 66
     7
176
     1
 43
1.0
176
     1
 76
     1
176
     1
 77
     6
176
     1
 78
     2
176
     1
 67
     7
176
     1
 79
     5
176
     1
170
     0
176
     1
171
     0
176
     1
290
     0
176
     1
 93
       13
176
     1
 44
0.0
176
     1
173
     0
176
     1
  0
VISUALSTYLE
  5
2C
102
{ACAD_REACTORS
330
2A
102
}
330
2A
100
AcDbVisualStyle
  2
FlatWithEdges
 70
     1
177
     2
291
     1
 71
     2
176
     1
 72
     1
176
     1
 73
     1
176
     1
 90
        2
176
     1
 40
-0.6
176
     1
 41
30.0
176
     1
 62
     5
 63
     7
421
 16777215
176
     1
 74
     1
176
     1
 91
        4
176
     1
 64
     7
176
     1
 65
   257
176
     1
 75
     1
176
     1
175
     1
176
     1
 42
1.0
176
     1
 92
        0
176
     1
 66
   257
176
     1
 43
1.0
176
     1
 76
     1
176
     1
 77
     6
176
     1
 78
     2
176
     1
 67
     7
176
     1
 79
     5
176
     1
170
     0
176
     1
171
     0
176
     1
290
     0
176
     1
 93
       13
176
     1
 44
0.0
176
     1
173
     0
176
     1
  0
VISUALSTYLE
  5
2D
102
{ACAD_REACTORS
330
2A
102
}
330
2A
100
AcDbVisualStyle
  2
Gouraud
 70
     2
177
     2
291
     1
 71
     2
176
     1
 72
     2
176
     1
 73
     1
176
     1
 90
        2
176
     1
 40
-0.6
176
     1
 41
30.0
176
     1
 62
     5
 63
     7
421
 16777215
176
     1
 74
     0
176
     1
 91
        4
176
     1
 64
     7
176
     1
 65
   257
176
     1
 75
     1
176
     1
175
     1
176
     1
 42
1.0
176
     1
 92
        0
176
     1
 66
     7
176
     1
 43
1.0
176
     1
 76
     1
176
     1
 77
     6
176
     1
 78
     2
176
     1
 67
     7
176
     1
 79
     5
176
     1
170
     0
176
     1
171
     0
176
     1
290
     0
176
     1
 93
       13
176
     1
 44
0.0
176
     1
173
     0
176
     1
  0
VISUALSTYLE
  5
2E
102
{ACAD_REACTORS
330
2A
102
}
330
2A
100
AcDbVisualStyle
  2
GouraudWithEdges
 70
     3
177
     2
291
     1
 71
     2
176
     1
 72
     2
176
     1
 73
     1
176
     1
 90
        2
176
     1
 40
-0.6
176
     1
 41
30.0
176
     1
 62
     5
 63
     7
421
 16777215
176
     1
 74
     1
176
     1
 91
        4
176
     1
 64
     7
176
     1
 65
   257
176
     1
 75
     1
176
     1
175
     1
176
     1
 42
1.0
176
     1
 92
        0
176
     1
 66
   257
176
     1
 43
1.0
176
     1
 76
     1
176
     1
 77
     6
176
     1
 78
     2
176
     1
 67
     7
176
     1
 79
     5
176
     1
170
     0
176
     1
171
     0
176
     1
290
     0
176
     1
 93
       13
176
     1
 44
0.0
176
     1
173
     0
176
     1
  0
VISUALSTYLE
  5
38
102
{ACAD_REACTORS
330
2A
102
}
330
2A
100
AcDbVisualStyle
  2
Linepattern
 70
    14
177
     2
291
     1
 71
     2
176
     1
 72
     2
176
     1
 73
     0
176
     1
 90
        0
176
     1
 40
-0.6
176
     1
 41
-30.0
176
     1
 62
     5
 63
     7
421
 16777215
176
     1
 74
     1
176
     1
 91
        4
176
     1
 64
     7
176
     1
 65
   257
176
     1
 75
     7
176
     1
175
     7
176
     1
 42
1.0
176
     1
 92
        8
176
     1
 66
     7
176
     1
 43
1.0
176
     1
 76
     1
176
     1
 77
     6
176
     1
 78
     2
176
     1
 67
     7
176
     1
 79
     5
176
     1
170
     0
176
     1
171
     0
176
     1
290
     0
176
     1
 93
        1
176
     1
 44
0.0
176
     1
173
     0
176
     1
  0
VISUALSTYLE
  5
33
102
{ACAD_REACTORS
330
2A
102
}
330
2A
100
AcDbVisualStyle
  2
Realistic
 70
     8
177
     2
291
     0
 71
     2
176
     1
 72
     2
176
     1
 73
     0
176
     1
 90
        0
176
     1
 40
-0.6
176
     1
 41
-30.0
176
     1
 62
     5
 63
     7
421
 16777215
176
     1
 74
     1
176
     1
 91
        0
176
     1
 64
     7
176
     1
 65
   257
176
     1
 75
     1
176
     1
175
     1
176
     1
 42
1.0
176
     1
 92
        8
176
     1
 66
     8
424
  7895160
176
     1
 43
1.0
176
     1
 76
     1
176
     1
 77
     6
176
     1
 78
     2
176
     1
 67
     7
176
     1
 79
     5
176
     1
170
     0
176
     1
171
     0
176
     1
290
     0
176
     1
 93
       13
176
     1
 44
0.0
176
     1
173
     0
176
     1
  0
VISUALSTYLE
  5
37
102
{ACAD_REACTORS
330
2A
102
}
330
2A
100
AcDbVisualStyle
  2
Thicken
 70
    13
177
     2
291
     1
 71
     2
176
     1
 72
     2
176
     1
 73
     0
176
     1
 90
        0
176
     1
 40
-0.6
176
     1
 41
-30.0
176
     1
 62
     5
 63
     7
421
 16777215
176
     1
 74
     1
176
     1
 91
        4
176
     1
 64
     7
176
     1
 65
   257
176
     1
 75
     1
176
     1
175
     1
176
     1
 42
1.0
176
     1
 92
       12
176
     1
 66
     7
176
     1
 43
1.0
176
     1
 76
     1
176
     1
 77
     6
176
     1
 78
     2
176
     1
 67
     7
176
     1
 79
     5
176
     1
170
     0
176
     1
171
     0
176
     1
290
     0
176
     1
 93
        1
176
     1
 44
0.0
176
     1
173
     0
176
     1
  0
ENDSEC
  0
EOF
