  0
SECTION
  2
HEADER
  9
$ACADVER
  1
AC1024
  9
$ACADMAINTVER
 70
     6
  9
$DWGCODEPAGE
  3
ANSI_932
  9
$INSBASE
 10
0.0
 20
0.0
 30
0.0
  9
$EXTMIN
 10
-4455.0
 20
-3150.0
 30
0.0
  9
$EXTMAX
 10
4455.0
 20
3150.0
 30
0.0
  9
$LIMMIN
 10
-4455.0
 20
-3150.0
  9
$LIMMAX
 10
4455.0
 20
3150.0
  9
$ORTHOMODE
 70
     0
  9
$REGENMODE
 70
     1
  9
$FILLMODE
 70
     1
  9
$QTEXTMODE
 70
     0
  9
$MIRRTEXT
 70
     1
  9
$LTSCALE
 40
30.0
  9
$ATTMODE
 70
     1
  9
$TEXTSIZE
 40
2.5
  9
$TRACEWID
 40
1.0
  9
$TEXTSTYLE
  7
Standard
  9
$CLAYER
  8
0
  9
$CELTYPE
  6
ByLayer
  9
$CECOLOR
 62
   256
  9
$CELTSCALE
 40
1.0
  9
$DISPSILH
 70
     0
  9
$DIMSCALE
 40
1.0
  9
$DIMASZ
 40
2.5
  9
$DIMEXO
 40
0.625
  9
$DIMDLI
 40
3.75
  9
$DIMRND
 40
0.0
  9
$DIMDLE
 40
0.0
  9
$DIMEXE
 40
1.25
  9
$DIMTP
 40
0.0
  9
$DIMTM
 40
0.0
  9
$DIMTXT
 40
2.5
  9
$DIMCEN
 40
2.5
  9
$DIMTSZ
 40
0.0
  9
$DIMTOL
 70
     0
  9
$DIMLIM
 70
     0
  9
$DIMTIH
 70
     0
  9
$DIMTOH
 70
     0
  9
$DIMSE1
 70
     0
  9
$DIMSE2
 70
     0
  9
$DIMTAD
 70
     1
  9
$DIMZIN
 70
     8
  9
$DIMBLK
  1

  9
$DIMASO
 70
     1
  9
$DIMSHO
 70
     1
  9
$DIMPOST
  1

  9
$DIMAPOST
  1

  9
$DIMALT
 70
     0
  9
$DIMALTD
 70
     3
  9
$DIMALTF
 40
0.03937007874016
  9
$DIMLFAC
 40
1.0
  9
$DIMTOFL
 70
     1
  9
$DIMTVP
 40
0.0
  9
$DIMTIX
 70
     0
  9
$DIMSOXD
 70
     0
  9
$DIMSAH
 70
     0
  9
$DIMBLK1
  1

  9
$DIMBLK2
  1

  9
$DIMSTYLE
  2
ISO-25
  9
$DIMCLRD
 70
     0
  9
$DIMCLRE
 70
     0
  9
$DIMCLRT
 70
     0
  9
$DIMTFAC
 40
1.0
  9
$DIMGAP
 40
0.625
  9
$DIMJUST
 70
     0
  9
$DIMSD1
 70
     0
  9
$DIMSD2
 70
     0
  9
$DIMTOLJ
 70
     0
  9
$DIMTZIN
 70
     8
  9
$DIMALTZ
 70
     0
  9
$DIMALTTZ
 70
     0
  9
$DIMUPT
 70
     0
  9
$DIMDEC
 70
     2
  9
$DIMTDEC
 70
     2
  9
$DIMALTU
 70
     2
  9
$DIMALTTD
 70
     3
  9
$DIMTXSTY
  7
Standard
  9
$DIMAUNIT
 70
     0
  9
$DIMADEC
 70
     0
  9
$DIMALTRND
 40
0.0
  9
$DIMAZIN
 70
     0
  9
$DIMDSEP
 70
    44
  9
$DIMATFIT
 70
     3
  9
$DIMFRAC
 70
     0
  9
$DIMLDRBLK
  1

  9
$DIMLUNIT
 70
     2
  9
$DIMLWD
 70
    -2
  9
$DIMLWE
 70
    -2
  9
$DIMTMOVE
 70
     0
  9
$DIMFXL
 40
1.0
  9
$DIMFXLON
 70
     0
  9
$DIMJOGANG
 40
0.7853981633974483
  9
$DIMTFILL
 70
     0
  9
$DIMTFILLCLR
 70
     0
  9
$DIMARCSYM
 70
     0
  9
$DIMLTYPE
  6

  9
$DIMLTEX1
  6

  9
$DIMLTEX2
  6

  9
$DIMTXTDIRECTION
 70
     0
  9
$LUNITS
 70
     2
  9
$LUPREC
 70
     4
  9
$SKETCHINC
 40
1.0
  9
$FILLETRAD
 40
10.0
  9
$AUNITS
 70
     0
  9
$AUPREC
 70
     0
  9
$MENU
  1
.
  9
$ELEVATION
 40
0.0
  9
$PELEVATION
 40
0.0
  9
$THICKNESS
 40
0.0
  9
$LIMCHECK
 70
     0
  9
$CHAMFERA
 40
10.0
  9
$CHAMFERB
 40
10.0
  9
$CHAMFERC
 40
20.0
  9
$CHAMFERD
 40
0.0
  9
$SKPOLY
 70
     0
  9
$TDCREATE
 40
2457953.401683507
  9
$TDUCREATE
 40
2457953.026683507
  9
$TDUPDATE
 40
2457953.401683519
  9
$TDUUPDATE
 40
2457953.026683519
  9
$TDINDWG
 40
0.0000000116
  9
$TDUSRTIMER
 40
0.0000000116
  9
$USRTIMER
 70
     1
  9
$ANGBASE
 50
0.0
  9
$ANGDIR
 70
     0
  9
$PDMODE
 70
     0
  9
$PDSIZE
 40
0.0
  9
$PLINEWID
 40
0.0
  9
$SPLFRAME
 70
     0
  9
$SPLINETYPE
 70
     6
  9
$SPLINESEGS
 70
     8
  9
$HANDSEED
  5
38C
  9
$SURFTAB1
 70
     6
  9
$SURFTAB2
 70
     6
  9
$SURFTYPE
 70
     6
  9
$SURFU
 70
     6
  9
$SURFV
 70
     6
  9
$UCSBASE
  2

  9
$UCSNAME
  2

  9
$UCSORG
 10
0.0
 20
0.0
 30
0.0
  9
$UCSXDIR
 10
1.0
 20
0.0
 30
0.0
  9
$UCSYDIR
 10
0.0
 20
1.0
 30
0.0
  9
$UCSORTHOREF
  2

  9
$UCSORTHOVIEW
 70
     0
  9
$UCSORGTOP
 10
0.0
 20
0.0
 30
0.0
  9
$UCSORGBOTTOM
 10
0.0
 20
0.0
 30
0.0
  9
$UCSORGLEFT
 10
0.0
 20
0.0
 30
0.0
  9
$UCSORGRIGHT
 10
0.0
 20
0.0
 30
0.0
  9
$UCSORGFRONT
 10
0.0
 20
0.0
 30
0.0
  9
$UCSORGBACK
 10
0.0
 20
0.0
 30
0.0
  9
$PUCSBASE
  2

  9
$PUCSNAME
  2

  9
$PUCSORG
 10
0.0
 20
0.0
 30
0.0
  9
$PUCSXDIR
 10
1.0
 20
0.0
 30
0.0
  9
$PUCSYDIR
 10
0.0
 20
1.0
 30
0.0
  9
$PUCSORTHOREF
  2

  9
$PUCSORTHOVIEW
 70
     0
  9
$PUCSORGTOP
 10
0.0
 20
0.0
 30
0.0
  9
$PUCSORGBOTTOM
 10
0.0
 20
0.0
 30
0.0
  9
$PUCSORGLEFT
 10
0.0
 20
0.0
 30
0.0
  9
$PUCSORGRIGHT
 10
0.0
 20
0.0
 30
0.0
  9
$PUCSORGFRONT
 10
0.0
 20
0.0
 30
0.0
  9
$PUCSORGBACK
 10
0.0
 20
0.0
 30
0.0
  9
$USERI1
 70
     0
  9
$USERI2
 70
     0
  9
$USERI3
 70
     0
  9
$USERI4
 70
     0
  9
$USERI5
 70
     0
  9
$USERR1
 40
0.0
  9
$USERR2
 40
0.0
  9
$USERR3
 40
0.0
  9
$USERR4
 40
0.0
  9
$USERR5
 40
0.0
  9
$WORLDVIEW
 70
     1
  9
$SHADEDGE
 70
     3
  9
$SHADEDIF
 70
    70
  9
$TILEMODE
 70
     1
  9
$MAXACTVP
 70
    64
  9
$PINSBASE
 10
0.0
 20
0.0
 30
0.0
  9
$PLIMCHECK
 70
     0
  9
$PEXTMIN
 10
1.000000000000000E+20
 20
1.000000000000000E+20
 30
1.000000000000000E+20
  9
$PEXTMAX
 10
-1.000000000000000E+20
 20
-1.000000000000000E+20
 30
-1.000000000000000E+20
  9
$PLIMMIN
 10
0.0
 20
0.0
  9
$PLIMMAX
 10
420.0
 20
297.0
  9
$UNITMODE
 70
     0
  9
$VISRETAIN
 70
     1
  9
$PLINEGEN
 70
     0
  9
$PSLTSCALE
 70
     1
  9
$TREEDEPTH
 70
  3020
  9
$CMLSTYLE
  2
Standard
  9
$CMLJUST
 70
     0
  9
$CMLSCALE
 40
20.0
  9
$PROXYGRAPHICS
 70
     1
  9
$MEASUREMENT
 70
     1
  9
$CELWEIGHT
370
    -1
  9
$ENDCAPS
280
     0
  9
$JOINSTYLE
280
     0
  9
$LWDISPLAY
290
     0
  9
$INSUNITS
 70
     4
  9
$HYPERLINKBASE
  1

  9
$STYLESHEET
  1

  9
$XEDIT
290
     1
  9
$CEPSNTYPE
380
     0
  9
$PSTYLEMODE
290
     1
  9
$FINGERPRINTGUID
  2
{FC09BEDD-C2B0-45F9-8545-17CD46A39D45}
  9
$VERSIONGUID
  2
{FAEB1C32-E019-11D5-929B-00C0DF256EC4}
  9
$EXTNAMES
290
     1
  9
$PSVPSCALE
 40
0.0
  9
$OLESTARTUP
290
     0
  9
$SORTENTS
280
   127
  9
$INDEXCTL
280
     0
  9
$HIDETEXT
280
     1
  9
$XCLIPFRAME
280
     2
  9
$HALOGAP
280
     0
  9
$OBSCOLOR
 70
   257
  9
$OBSLTYPE
280
     0
  9
$INTERSECTIONDISPLAY
280
     0
  9
$INTERSECTIONCOLOR
 70
   257
  9
$DIMASSOC
280
     2
  9
$PROJECTNAME
  1

  9
$CAMERADISPLAY
290
     0
  9
$LENSLENGTH
 40
50.0
  9
$CAMERAHEIGHT
 40
0.0
  9
$STEPSPERSEC
 40
2.0
  9
$STEPSIZE
 40
6.0
  9
$3DDWFPREC
 40
2.0
  9
$PSOLWIDTH
 40
5.0
  9
$PSOLHEIGHT
 40
80.0
  9
$LOFTANG1
 40
1.570796326794897
  9
$LOFTANG2
 40
1.570796326794897
  9
$LOFTMAG1
 40
0.0
  9
$LOFTMAG2
 40
0.0
  9
$LOFTPARAM
 70
     7
  9
$LOFTNORMALS
280
     1
  9
$LATITUDE
 40
37.795
  9
$LONGITUDE
 40
-122.394
  9
$NORTHDIRECTION
 40
0.0
  9
$TIMEZONE
 70
 -8000
  9
$LIGHTGLYPHDISPLAY
280
     1
  9
$TILEMODELIGHTSYNCH
280
     1
  9
$SOLIDHIST
280
     1
  9
$SHOWHIST
280
     1
  9
$DWFFRAME
280
     2
  9
$DGNFRAME
280
     2
  9
$REALWORLDSCALE
290
     1
  9
$INTERFERECOLOR
 62
   256
  9
$CSHADOW
280
     0
  9
$SHADOWPLANELOCATION
 40
0.0
  0
ENDSEC
  0
SECTION
  2
CLASSES
  0
CLASS
  1
ACDBDICTIONARYWDFLT
  2
AcDbDictionaryWithDefault
  3
ObjectDBX Classes
 90
        0
 91
        4
280
     0
281
     0
  0
CLASS
  1
VISUALSTYLE
  2
AcDbVisualStyle
  3
ObjectDBX Classes
 90
     4095
 91
        4
280
     0
281
     0
  0
CLASS
  1
MATERIAL
  2
AcDbMaterial
  3
ObjectDBX Classes
 90
     1153
 91
        4
280
     0
281
     0
  0
ENDSEC
  0
SECTION
  2
TABLES
  0
TABLE
  2
VPORT
  5
8
330
0
100
AcDbSymbolTable
 70
     1
  0
VPORT
  5
29
330
8
100
AcDbSymbolTableRecord
100
AcDbViewportTableRecord
  2
*Active
 70
     0
 10
0.0
 20
0.0
 11
1.0
 21
1.0
 12
0.0
 22
0.0
 13
0.0
 23
0.0
 14
10.0
 24
10.0
 15
10.0
 25
10.0
 16
0.0
 26
0.0
 36
1.0
 17
0.0
 27
0.0
 37
0.0
 40
6930.000000000001
 41
1.414285714285714
 42
50.0
 43
0.0
 44
0.0
 50
0.0
 51
0.0
 71
     0
 72
 10000
 73
     1
 74
     3
 75
     0
 76
     0
 77
     0
 78
     0
281
     0
 65
     1
110
0.0
120
0.0
130
0.0
111
1.0
121
0.0
131
0.0
112
0.0
122
1.0
132
0.0
 79
     0
146
0.0
 60
     3
 61
     5
292
     1
282
     1
141
0.0
142
0.0
 63
   250
  0
ENDTAB
  0
TABLE
  2
LTYPE
  5
5
330
0
100
AcDbSymbolTable
 70
     2
  0
LTYPE
  5
14
330
5
100
AcDbSymbolTableRecord
100
AcDbLinetypeTableRecord
  2
ByBlock
 70
     0
  3

 72
    65
 73
     0
 40
0.0
  0
LTYPE
  5
15
330
5
100
AcDbSymbolTableRecord
100
AcDbLinetypeTableRecord
  2
ByLayer
 70
     0
  3

 72
    65
 73
     0
 40
0.0
  0
LTYPE
  5
16
330
5
100
AcDbSymbolTableRecord
100
AcDbLinetypeTableRecord
  2
Continuous
 70
     0
  3
Solid line
 72
    65
 73
     0
 40
0.0
  0
LTYPE
  5
3F
330
5
100
AcDbSymbolTableRecord
100
AcDbLinetypeTableRecord
  2
JWW_DASHED1
 70
     0
  3
-  --  --  --  --  --  --  --  -
 72
    65
 73
     2
 40
1.693333333333333
 49
0.8466666666666667
 74
     0
 49
-0.8466666666666667
 74
     0
  0
ENDTAB
  0
TABLE
  2
LAYER
  5
2
330
0
100
AcDbSymbolTable
 70
     3
  0
LAYER
  5
10
330
2
100
AcDbSymbolTableRecord
100
AcDbLayerTableRecord
  2
0
 70
     0
 62
     7
  6
Continuous
370
    -3
390
F
347
3E
  0
LAYER
  5
40
330
2
100
AcDbSymbolTableRecord
100
AcDbLayerTableRecord
  2
0-0
 70
     0
 62
     7
  6
Continuous
370
    -3
390
F
347
3E
  0
LAYER
  5
41
330
2
100
AcDbSymbolTableRecord
100
AcDbLayerTableRecord
  2
寸法
 70
     0
 62
     7
  6
Continuous
370
    -3
390
F
347
3E
  0
ENDTAB
  0
TABLE
  2
STYLE
  5
3
330
0
100
AcDbSymbolTable
 70
     1
  0
STYLE
  5
11
330
3
100
AcDbSymbolTableRecord
100
AcDbTextStyleTableRecord
  2
Standard
 70
     0
 40
0.0
 41
1.0
 50
0.0
 71
     0
 42
2.5
  3
txt
  4

  0
ENDTAB
  0
TABLE
  2
VIEW
  5
6
330
0
100
AcDbSymbolTable
 70
     0
  0
ENDTAB
  0
TABLE
  2
UCS
  5
7
330
0
100
AcDbSymbolTable
 70
     0
  0
ENDTAB
  0
TABLE
  2
APPID
  5
9
330
0
100
AcDbSymbolTable
 70
     1
  0
APPID
  5
12
330
9
100
AcDbSymbolTableRecord
100
AcDbRegAppTableRecord
  2
ACAD
 70
     0
  0
ENDTAB
  0
TABLE
  2
DIMSTYLE
  5
A
330
0
100
AcDbSymbolTable
 70
     1
100
AcDbDimStyleTable
  0
DIMSTYLE
105
27
330
A
100
AcDbSymbolTableRecord
100
AcDbDimStyleTableRecord
  2
ISO-25
 70
     0
 41
2.5
 42
0.625
 43
3.75
 44
1.25
 73
     0
 74
     0
 77
     1
 78
     8
140
2.5
141
2.5
143
0.03937007874016
147
0.625
171
     3
172
     1
178
     0
271
     2
272
     2
274
     3
278
    44
283
     0
284
     8
340
11
  0
ENDTAB
  0
TABLE
  2
BLOCK_RECORD
  5
1
330
0
100
AcDbSymbolTable
 70
     1
  0
BLOCK_RECORD
  5
1F
330
1
100
AcDbSymbolTableRecord
100
AcDbBlockTableRecord
  2
*Model_Space
340
22
 70
     0
280
     1
281
     0
  0
BLOCK_RECORD
  5
1B
330
1
100
AcDbSymbolTableRecord
100
AcDbBlockTableRecord
  2
*Paper_Space
340
1E
 70
     0
280
     1
281
     0
  0
BLOCK_RECORD
  5
23
330
1
100
AcDbSymbolTableRecord
100
AcDbBlockTableRecord
  2
*Paper_Space0
340
26
 70
     0
280
     1
281
     0
  0
ENDTAB
  0
ENDSEC
  0
SECTION
  2
BLOCKS
  0
BLOCK
  5
20
330
1F
100
AcDbEntity
  8
0
100
AcDbBlockBegin
  2
*Model_Space
 70
     0
 10
0.0
 20
0.0
 30
0.0
  3
*Model_Space
  1

  0
ENDBLK
  5
21
330
1F
100
AcDbEntity
  8
0
100
AcDbBlockEnd
  0
BLOCK
  5
1C
330
1B
100
AcDbEntity
 67
     1
  8
0
100
AcDbBlockBegin
  2
*Paper_Space
 70
     0
 10
0.0
 20
0.0
 30
0.0
  3
*Paper_Space
  1

  0
ENDBLK
  5
1D
330
1B
100
AcDbEntity
 67
     1
  8
0
100
AcDbBlockEnd
  0
BLOCK
  5
24
330
23
100
AcDbEntity
  8
0
100
AcDbBlockBegin
  2
*Paper_Space0
 70
     0
 10
0.0
 20
0.0
 30
0.0
  3
*Paper_Space0
  1

  0
ENDBLK
  5
25
330
23
100
AcDbEntity
  8
0
100
AcDbBlockEnd
  0
ENDSEC
  0
SECTION
  2
ENTITIES
  0
LINE
  5
42
330
1F
100
AcDbEntity
  8
0-0
  6
Continuous
 62
     7
370
     9
100
AcDbLine
 10
1326.714271577548
 20
-1105.298359187499
 30
0.0
 11
1098.714271577547
 21
-1105.298359187499
 31
0.0
  0
LINE
  5
43
330
1F
100
AcDbEntity
  8
0-0
  6
Continuous
 62
    92
370
    13
100
AcDbLine
 10
1326.714271577548
 20
1224.701640812502
 30
0.0
 11
1326.714271577548
 21
-1135.298359187499
 31
0.0
  0
LINE
  5
44
330
1F
100
AcDbEntity
  8
0-0
  6
Continuous
 62
    92
370
    13
100
AcDbLine
 10
1098.714271577547
 20
1224.701640812502
 30
0.0
 11
1098.714271577547
 21
-1135.298359187499
 31
0.0
  0
LINE
  5
45
330
1F
100
AcDbEntity
  8
0-0
  6
Continuous
 62
     7
370
     9
100
AcDbLine
 10
1326.714271577548
 20
1216.701640812501
 30
0.0
 11
1098.714271577547
 21
1216.701640812501
 31
0.0
  0
LINE
  5
46
330
1F
100
AcDbEntity
  8
0-0
  6
JWW_DASHED1
 62
   120
370
     5
100
AcDbLine
 10
1302.139467637616
 20
-1105.298359187499
 30
0.0
 11
1098.714271577557
 21
-901.8731631274413
 31
0.0
  0
LINE
  5
47
330
1F
100
AcDbEntity
  8
0-0
  6
JWW_DASHED1
 62
   120
370
     5
100
AcDbLine
 10
1287.997332015302
 20
-1105.298359187499
 30
0.0
 11
1098.714271577544
 21
-916.015298749743
 31
0.0
  0
LINE
  5
48
330
1F
100
AcDbEntity
  8
0-0
  6
JWW_DASHED1
 62
   120
370
     5
100
AcDbLine
 10
1273.855196392987
 20
-1105.298359187499
 30
0.0
 11
1098.714271577547
 21
-930.1574343720584
 31
0.0
  0
LINE
  5
49
330
1F
100
AcDbEntity
  8
0-0
  6
JWW_DASHED1
 62
   120
370
     5
100
AcDbLine
 10
1259.713060770673
 20
-1105.298359187499
 30
0.0
 11
1098.714271577547
 21
-944.2995699943755
 31
0.0
  0
LINE
  5
4A
330
1F
100
AcDbEntity
  8
0-0
  6
JWW_DASHED1
 62
   120
370
     5
100
AcDbLine
 10
1245.570925148358
 20
-1105.298359187499
 30
0.0
 11
1098.714271577551
 21
-958.4417056166926
 31
0.0
  0
LINE
  5
4B
330
1F
100
AcDbEntity
  8
0-0
  6
JWW_DASHED1
 62
   120
370
     5
100
AcDbLine
 10
1231.428789526044
 20
-1105.298359187499
 30
0.0
 11
1098.714271577554
 21
-972.5838412390088
 31
0.0
  0
LINE
  5
4C
330
1F
100
AcDbEntity
  8
0-0
  6
JWW_DASHED1
 62
   120
370
     5
100
AcDbLine
 10
1217.286653903729
 20
-1105.298359187499
 30
0.0
 11
1098.714271577554
 21
-986.7259768613259
 31
0.0
  0
LINE
  5
4D
330
1F
100
AcDbEntity
  8
0-0
  6
JWW_DASHED1
 62
   120
370
     5
100
AcDbLine
 10
1203.14451828136
 20
-1105.298359187499
 30
0.0
 11
1098.714271577561
 21
-1000.868112483702
 31
0.0
  0
LINE
  5
4E
330
1F
100
AcDbEntity
  8
0-0
  6
JWW_DASHED1
 62
   120
370
     5
100
AcDbLine
 10
1189.002382659046
 20
-1105.298359187499
 30
0.0
 11
1098.714271577547
 21
-1015.010248106002
 31
0.0
  0
LINE
  5
4F
330
1F
100
AcDbEntity
  8
0-0
  6
JWW_DASHED1
 62
   120
370
     5
100
AcDbLine
 10
1174.860247036731
 20
-1105.298359187499
 30
0.0
 11
1098.714271577551
 21
-1029.152383728319
 31
0.0
  0
LINE
  5
50
330
1F
100
AcDbEntity
  8
0-0
  6
JWW_DASHED1
 62
   120
370
     5
100
AcDbLine
 10
1160.718111414417
 20
-1105.298359187499
 30
0.0
 11
1098.714271577554
 21
-1043.294519350636
 31
0.0
  0
LINE
  5
51
330
1F
100
AcDbEntity
  8
0-0
  6
JWW_DASHED1
 62
   120
370
     5
100
AcDbLine
 10
1146.575975792102
 20
-1105.298359187499
 30
0.0
 11
1098.714271577554
 21
-1057.436654972953
 31
0.0
  0
LINE
  5
52
330
1F
100
AcDbEntity
  8
0-0
  6
JWW_DASHED1
 62
   120
370
     5
100
AcDbLine
 10
1132.433840169788
 20
-1105.298359187499
 30
0.0
 11
1098.714271577557
 21
-1071.57879059527
 31
0.0
  0
LINE
  5
53
330
1F
100
AcDbEntity
  8
0-0
  6
JWW_DASHED1
 62
   120
370
     5
100
AcDbLine
 10
1118.291704547473
 20
-1105.298359187499
 30
0.0
 11
1098.714271577544
 21
-1085.720926217571
 31
0.0
  0
LINE
  5
54
330
1F
100
AcDbEntity
  8
0-0
  6
JWW_DASHED1
 62
   120
370
     5
100
AcDbLine
 10
1104.149568925159
 20
-1105.298359187499
 30
0.0
 11
1098.714271577547
 21
-1099.863061839887
 31
0.0
  0
LINE
  5
55
330
1F
100
AcDbEntity
  8
0-0
  6
JWW_DASHED1
 62
   120
370
     5
100
AcDbLine
 10
1316.281603259931
 20
-1105.298359187499
 30
0.0
 11
1098.714271577554
 21
-887.7310275051238
 31
0.0
  0
LINE
  5
56
330
1F
100
AcDbEntity
  8
0-0
  6
JWW_DASHED1
 62
   120
370
     5
100
AcDbLine
 10
1326.714271577531
 20
1203.579214554865
 30
0.0
 11
1313.591845319913
 21
1216.701640812482
 31
0.0
  0
LINE
  5
57
330
1F
100
AcDbEntity
  8
0-0
  6
JWW_DASHED1
 62
   120
370
     5
100
AcDbLine
 10
1326.714271577531
 20
1189.43707893255
 30
0.0
 11
1299.449709697595
 21
1216.701640812486
 31
0.0
  0
LINE
  5
58
330
1F
100
AcDbEntity
  8
0-0
  6
JWW_DASHED1
 62
   120
370
     5
100
AcDbLine
 10
1326.714271577534
 20
1175.294943310232
 30
0.0
 11
1285.307574075277
 21
1216.701640812489
 31
0.0
  0
LINE
  5
59
330
1F
100
AcDbEntity
  8
0-0
  6
JWW_DASHED1
 62
   120
370
     5
100
AcDbLine
 10
1326.714271577538
 20
1161.152807687916
 30
0.0
 11
1271.165438452959
 21
1216.701640812493
 31
0.0
  0
LINE
  5
5A
330
1F
100
AcDbEntity
  8
0-0
  6
JWW_DASHED1
 62
   120
370
     5
100
AcDbLine
 10
1326.714271577538
 20
1147.010672065598
 30
0.0
 11
1257.023302830641
 21
1216.701640812496
 31
0.0
  0
LINE
  5
5B
330
1F
100
AcDbEntity
  8
0-0
  6
JWW_DASHED1
 62
   120
370
     5
100
AcDbLine
 10
1326.714271577544
 20
1132.868536443224
 30
0.0
 11
1242.881167208269
 21
1216.701640812499
 31
0.0
  0
LINE
  5
5C
330
1F
100
AcDbEntity
  8
0-0
  6
JWW_DASHED1
 62
   120
370
     5
100
AcDbLine
 10
1326.714271577548
 20
1118.726400820906
 30
0.0
 11
1228.739031585954
 21
1216.701640812501
 31
0.0
  0
LINE
  5
5D
330
1F
100
AcDbEntity
  8
0-0
  6
JWW_DASHED1
 62
   120
370
     5
100
AcDbLine
 10
1326.714271577551
 20
1104.584265198589
 30
0.0
 11
1214.596895963636
 21
1216.701640812503
 31
0.0
  0
LINE
  5
5E
330
1F
100
AcDbEntity
  8
0-0
  6
JWW_DASHED1
 62
   120
370
     5
100
AcDbLine
 10
1326.714271577551
 20
1090.442129576273
 30
0.0
 11
1200.454760341318
 21
1216.701640812506
 31
0.0
  0
LINE
  5
5F
330
1F
100
AcDbEntity
  8
0-0
  6
JWW_DASHED1
 62
   120
370
     5
100
AcDbLine
 10
1326.714271577555
 20
1076.299993953955
 30
0.0
 11
1186.312624719004
 21
1216.701640812508
 31
0.0
  0
LINE
  5
60
330
1F
100
AcDbEntity
  8
0-0
  6
JWW_DASHED1
 62
   120
370
     5
100
AcDbLine
 10
1326.714271577544
 20
1062.157858331655
 30
0.0
 11
1172.1704890967
 21
1216.701640812494
 31
0.0
  0
LINE
  5
61
330
1F
100
AcDbEntity
  8
0-0
  6
JWW_DASHED1
 62
   120
370
     5
100
AcDbLine
 10
1326.714271577544
 20
1048.015722709337
 30
0.0
 11
1158.028353474385
 21
1216.701640812496
 31
0.0
  0
LINE
  5
62
330
1F
100
AcDbEntity
  8
0-0
  6
JWW_DASHED1
 62
   120
370
     5
100
AcDbLine
 10
1326.714271577531
 20
1033.873587087036
 30
0.0
 11
1143.886217852071
 21
1216.701640812496
 31
0.0
  0
LINE
  5
63
330
1F
100
AcDbEntity
  8
0-0
  6
JWW_DASHED1
 62
   120
370
     5
100
AcDbLine
 10
1326.714271577531
 20
1019.731451464721
 30
0.0
 11
1129.744082229753
 21
1216.701640812499
 31
0.0
  0
LINE
  5
64
330
1F
100
AcDbEntity
  8
0-0
  6
JWW_DASHED1
 62
   120
370
     5
100
AcDbLine
 10
1326.714271577534
 20
1005.589315842403
 30
0.0
 11
1115.601946607435
 21
1216.701640812503
 31
0.0
  0
LINE
  5
65
330
1F
100
AcDbEntity
  8
0-0
  6
JWW_DASHED1
 62
   120
370
     5
100
AcDbLine
 10
1326.714271577538
 20
991.447180220087
 30
0.0
 11
1101.459810985117
 21
1216.701640812506
 31
0.0
  0
LINE
  5
66
330
1F
100
AcDbEntity
  8
0-0
  6
JWW_DASHED1
 62
   120
370
     5
100
AcDbLine
 10
1326.714271577538
 20
977.3050445977691
 30
0.0
 11
1098.714271577557
 21
1205.305044597753
 31
0.0
  0
LINE
  5
67
330
1F
100
AcDbEntity
  8
0-0
  6
JWW_DASHED1
 62
   120
370
     5
100
AcDbLine
 10
1326.714271577544
 20
963.1629089754529
 30
0.0
 11
1098.714271577557
 21
1191.162908975436
 31
0.0
  0
LINE
  5
68
330
1F
100
AcDbEntity
  8
0-0
  6
JWW_DASHED1
 62
   120
370
     5
100
AcDbLine
 10
1326.714271577544
 20
949.0207733531349
 30
0.0
 11
1098.714271577544
 21
1177.020773353134
 31
0.0
  0
LINE
  5
69
330
1F
100
AcDbEntity
  8
0-0
  6
JWW_DASHED1
 62
   120
370
     5
100
AcDbLine
 10
1326.714271577544
 20
934.8786377308187
 30
0.0
 11
1098.714271577547
 21
1162.878637730818
 31
0.0
  0
LINE
  5
6A
330
1F
100
AcDbEntity
  8
0-0
  6
JWW_DASHED1
 62
   120
370
     5
100
AcDbLine
 10
1326.714271577548
 20
920.7365021085025
 30
0.0
 11
1098.714271577551
 21
1148.736502108502
 31
0.0
  0
LINE
  5
6B
330
1F
100
AcDbEntity
  8
0-0
  6
JWW_DASHED1
 62
   120
370
     5
100
AcDbLine
 10
1326.714271577551
 20
906.5943664861862
 30
0.0
 11
1098.714271577551
 21
1134.594366486185
 31
0.0
  0
LINE
  5
6C
330
1F
100
AcDbEntity
  8
0-0
  6
JWW_DASHED1
 62
   120
370
     5
100
AcDbLine
 10
1326.714271577551
 20
892.4522308638683
 30
0.0
 11
1098.714271577554
 21
1120.452230863867
 31
0.0
  0
LINE
  5
6D
330
1F
100
AcDbEntity
  8
0-0
  6
JWW_DASHED1
 62
   120
370
     5
100
AcDbLine
 10
1326.714271577551
 20
878.3100952415538
 30
0.0
 11
1098.714271577554
 21
1106.310095241551
 31
0.0
  0
LINE
  5
6E
330
1F
100
AcDbEntity
  8
0-0
  6
JWW_DASHED1
 62
   120
370
     5
100
AcDbLine
 10
1326.714271577544
 20
864.1679596192512
 30
0.0
 11
1098.714271577544
 21
1092.16795961925
 31
0.0
  0
LINE
  5
6F
330
1F
100
AcDbEntity
  8
0-0
  6
JWW_DASHED1
 62
   120
370
     5
100
AcDbLine
 10
1326.714271577544
 20
850.0258239969342
 30
0.0
 11
1098.714271577544
 21
1078.025823996934
 31
0.0
  0
LINE
  5
70
330
1F
100
AcDbEntity
  8
0-0
  6
JWW_DASHED1
 62
   120
370
     5
100
AcDbLine
 10
1326.714271577531
 20
835.8836883746333
 30
0.0
 11
1098.714271577547
 21
1063.883688374616
 31
0.0
  0
LINE
  5
71
330
1F
100
AcDbEntity
  8
0-0
  6
JWW_DASHED1
 62
   120
370
     5
100
AcDbLine
 10
1326.714271577531
 20
821.7415527523161
 30
0.0
 11
1098.714271577551
 21
1049.741552752298
 31
0.0
  0
LINE
  5
72
330
1F
100
AcDbEntity
  8
0-0
  6
JWW_DASHED1
 62
   120
370
     5
100
AcDbLine
 10
1326.714271577538
 20
807.599417129941
 30
0.0
 11
1098.714271577557
 21
1035.599417129924
 31
0.0
  0
LINE
  5
73
330
1F
100
AcDbEntity
  8
0-0
  6
JWW_DASHED1
 62
   120
370
     5
100
AcDbLine
 10
1326.714271577544
 20
793.457281507624
 30
0.0
 11
1098.714271577557
 21
1021.457281507608
 31
0.0
  0
LINE
  5
74
330
1F
100
AcDbEntity
  8
0-0
  6
JWW_DASHED1
 62
   120
370
     5
100
AcDbLine
 10
1326.714271577544
 20
779.315145885307
 30
0.0
 11
1098.714271577544
 21
1007.315145885307
 31
0.0
  0
LINE
  5
75
330
1F
100
AcDbEntity
  8
0-0
  6
JWW_DASHED1
 62
   120
370
     5
100
AcDbLine
 10
1326.714271577544
 20
765.1730102629898
 30
0.0
 11
1098.714271577547
 21
993.1730102629888
 31
0.0
  0
LINE
  5
76
330
1F
100
AcDbEntity
  8
0-0
  6
JWW_DASHED1
 62
   120
370
     5
100
AcDbLine
 10
1326.714271577548
 20
751.0308746406736
 30
0.0
 11
1098.714271577551
 21
979.0308746406708
 31
0.0
  0
LINE
  5
77
330
1F
100
AcDbEntity
  8
0-0
  6
JWW_DASHED1
 62
   120
370
     5
100
AcDbLine
 10
1326.714271577551
 20
736.8887390183556
 30
0.0
 11
1098.714271577551
 21
964.8887390183546
 31
0.0
  0
LINE
  5
78
330
1F
100
AcDbEntity
  8
0-0
  6
JWW_DASHED1
 62
   120
370
     5
100
AcDbLine
 10
1326.714271577551
 20
722.7466033960394
 30
0.0
 11
1098.714271577554
 21
950.7466033960384
 31
0.0
  0
LINE
  5
79
330
1F
100
AcDbEntity
  8
0-0
  6
JWW_DASHED1
 62
   120
370
     5
100
AcDbLine
 10
1326.714271577551
 20
708.6044677737257
 30
0.0
 11
1098.714271577554
 21
936.6044677737239
 31
0.0
  0
LINE
  5
7A
330
1F
100
AcDbEntity
  8
0-0
  6
JWW_DASHED1
 62
   120
370
     5
100
AcDbLine
 10
1326.714271577555
 20
694.4623321514104
 30
0.0
 11
1098.714271577557
 21
922.4623321514059
 31
0.0
  0
LINE
  5
7B
330
1F
100
AcDbEntity
  8
0-0
  6
JWW_DASHED1
 62
   120
370
     5
100
AcDbLine
 10
1326.714271577544
 20
680.3201965291053
 30
0.0
 11
1098.714271577544
 21
908.320196529105
 31
0.0
  0
LINE
  5
7C
330
1F
100
AcDbEntity
  8
0-0
  6
JWW_DASHED1
 62
   120
370
     5
100
AcDbLine
 10
1326.714271577531
 20
666.1780609068044
 30
0.0
 11
1098.714271577547
 21
894.1780609067871
 31
0.0
  0
LINE
  5
7D
330
1F
100
AcDbEntity
  8
0-0
  6
JWW_DASHED1
 62
   120
370
     5
100
AcDbLine
 10
1326.714271577531
 20
652.0359252844872
 30
0.0
 11
1098.714271577551
 21
880.0359252844692
 31
0.0
  0
LINE
  5
7E
330
1F
100
AcDbEntity
  8
0-0
  6
JWW_DASHED1
 62
   120
370
     5
100
AcDbLine
 10
1326.714271577534
 20
637.893789662171
 30
0.0
 11
1098.714271577551
 21
865.8937896621529
 31
0.0
  0
LINE
  5
7F
330
1F
100
AcDbEntity
  8
0-0
  6
JWW_DASHED1
 62
   120
370
     5
100
AcDbLine
 10
1326.714271577538
 20
623.7516540398531
 30
0.0
 11
1098.714271577554
 21
851.7516540398367
 31
0.0
  0
LINE
  5
80
330
1F
100
AcDbEntity
  8
0-0
  6
JWW_DASHED1
 62
   120
370
     5
100
AcDbLine
 10
1326.714271577538
 20
609.6095184175376
 30
0.0
 11
1098.714271577557
 21
837.6095184175197
 31
0.0
  0
LINE
  5
81
330
1F
100
AcDbEntity
  8
0-0
  6
JWW_DASHED1
 62
   120
370
     5
100
AcDbLine
 10
1326.714271577544
 20
595.4673827952206
 30
0.0
 11
1098.714271577557
 21
823.4673827952033
 31
0.0
  0
LINE
  5
82
330
1F
100
AcDbEntity
  8
0-0
  6
JWW_DASHED1
 62
   120
370
     5
100
AcDbLine
 10
1326.714271577544
 20
581.3252471729036
 30
0.0
 11
1098.714271577544
 21
809.3252471729016
 31
0.0
  0
LINE
  5
83
330
1F
100
AcDbEntity
  8
0-0
  6
JWW_DASHED1
 62
   120
370
     5
100
AcDbLine
 10
1326.714271577544
 20
567.1831115505864
 30
0.0
 11
1098.714271577547
 21
795.1831115505854
 31
0.0
  0
LINE
  5
84
330
1F
100
AcDbEntity
  8
0-0
  6
JWW_DASHED1
 62
   120
370
     5
100
AcDbLine
 10
1326.714271577548
 20
553.0409759282702
 30
0.0
 11
1098.714271577551
 21
781.0409759282684
 31
0.0
  0
LINE
  5
85
330
1F
100
AcDbEntity
  8
0-0
  6
JWW_DASHED1
 62
   120
370
     5
100
AcDbLine
 10
1326.714271577551
 20
538.8988403059523
 30
0.0
 11
1098.714271577551
 21
766.8988403059504
 31
0.0
  0
LINE
  5
86
330
1F
100
AcDbEntity
  8
0-0
  6
JWW_DASHED1
 62
   120
370
     5
100
AcDbLine
 10
1326.714271577551
 20
524.7567046836368
 30
0.0
 11
1098.714271577554
 21
752.756704683635
 31
0.0
  0
LINE
  5
87
330
1F
100
AcDbEntity
  8
0-0
  6
JWW_DASHED1
 62
   120
370
     5
100
AcDbLine
 10
1326.714271577551
 20
510.6145690613232
 30
0.0
 11
1098.714271577554
 21
738.6145690613205
 31
0.0
  0
LINE
  5
88
330
1F
100
AcDbEntity
  8
0-0
  6
JWW_DASHED1
 62
   120
370
     5
100
AcDbLine
 10
1326.714271577551
 20
496.4724334390078
 30
0.0
 11
1098.714271577554
 21
724.4724334390042
 31
0.0
  0
LINE
  5
89
330
1F
100
AcDbEntity
  8
0-0
  6
JWW_DASHED1
 62
   120
370
     5
100
AcDbLine
 10
1326.714271577531
 20
482.3302978166583
 30
0.0
 11
1098.714271577551
 21
710.3302978166412
 31
0.0
  0
LINE
  5
8A
330
1F
100
AcDbEntity
  8
0-0
  6
JWW_DASHED1
 62
   120
370
     5
100
AcDbLine
 10
1326.714271577534
 20
468.1881621943421
 30
0.0
 11
1098.714271577551
 21
696.1881621943248
 31
0.0
  0
LINE
  5
8B
330
1F
100
AcDbEntity
  8
0-0
  6
JWW_DASHED1
 62
   120
370
     5
100
AcDbLine
 10
1326.714271577538
 20
454.0460265720242
 30
0.0
 11
1098.714271577554
 21
682.0460265720078
 31
0.0
  0
LINE
  5
8C
330
1F
100
AcDbEntity
  8
0-0
  6
JWW_DASHED1
 62
   120
370
     5
100
AcDbLine
 10
1326.714271577538
 20
439.9038909497088
 30
0.0
 11
1098.714271577557
 21
667.9038909496908
 31
0.0
  0
LINE
  5
8D
330
1F
100
AcDbEntity
  8
0-0
  6
JWW_DASHED1
 62
   120
370
     5
100
AcDbLine
 10
1326.714271577544
 20
425.7617553273917
 30
0.0
 11
1098.714271577557
 21
653.7617553273744
 31
0.0
  0
LINE
  5
8E
330
1F
100
AcDbEntity
  8
0-0
  6
JWW_DASHED1
 62
   120
370
     5
100
AcDbLine
 10
1326.714271577544
 20
411.6196197050746
 30
0.0
 11
1098.714271577544
 21
639.6196197050735
 31
0.0
  0
LINE
  5
8F
330
1F
100
AcDbEntity
  8
0-0
  6
JWW_DASHED1
 62
   120
370
     5
100
AcDbLine
 10
1326.714271577544
 20
397.4774840827575
 30
0.0
 11
1098.714271577547
 21
625.4774840827565
 31
0.0
  0
LINE
  5
90
330
1F
100
AcDbEntity
  8
0-0
  6
JWW_DASHED1
 62
   120
370
     5
100
AcDbLine
 10
1326.714271577548
 20
383.3353484604413
 30
0.0
 11
1098.714271577551
 21
611.3353484604395
 31
0.0
  0
LINE
  5
91
330
1F
100
AcDbEntity
  8
0-0
  6
JWW_DASHED1
 62
   120
370
     5
100
AcDbLine
 10
1326.714271577551
 20
369.1932128381234
 30
0.0
 11
1098.714271577551
 21
597.1932128381231
 31
0.0
  0
LINE
  5
92
330
1F
100
AcDbEntity
  8
0-0
  6
JWW_DASHED1
 62
   120
370
     5
100
AcDbLine
 10
1326.714271577551
 20
355.051077215808
 30
0.0
 11
1098.714271577554
 21
583.0510772158061
 31
0.0
  0
LINE
  5
93
330
1F
100
AcDbEntity
  8
0-0
  6
JWW_DASHED1
 62
   120
370
     5
100
AcDbLine
 10
1326.714271577548
 20
340.9089415934969
 30
0.0
 11
1098.714271577551
 21
568.9089415934925
 31
0.0
  0
LINE
  5
94
330
1F
100
AcDbEntity
  8
0-0
  6
JWW_DASHED1
 62
   120
370
     5
100
AcDbLine
 10
1326.714271577551
 20
326.7668059711789
 30
0.0
 11
1098.714271577554
 21
554.7668059711771
 31
0.0
  0
LINE
  5
95
330
1F
100
AcDbEntity
  8
0-0
  6
JWW_DASHED1
 62
   120
370
     5
100
AcDbLine
 10
1326.714271577544
 20
312.6246703488729
 30
0.0
 11
1098.714271577544
 21
540.6246703488711
 31
0.0
  0
LINE
  5
96
330
1F
100
AcDbEntity
  8
0-0
  6
JWW_DASHED1
 62
   120
370
     5
100
AcDbLine
 10
1326.714271577531
 20
298.4825347265721
 30
0.0
 11
1098.714271577547
 21
526.4825347265548
 31
0.0
  0
LINE
  5
97
330
1F
100
AcDbEntity
  8
0-0
  6
JWW_DASHED1
 62
   120
370
     5
100
AcDbLine
 10
1326.714271577531
 20
284.340399104255
 30
0.0
 11
1098.714271577551
 21
512.3403991042378
 31
0.0
  0
LINE
  5
98
330
1F
100
AcDbEntity
  8
0-0
  6
JWW_DASHED1
 62
   120
370
     5
100
AcDbLine
 10
1326.714271577534
 20
270.1982634819387
 30
0.0
 11
1098.714271577551
 21
498.1982634819198
 31
0.0
  0
LINE
  5
99
330
1F
100
AcDbEntity
  8
0-0
  6
JWW_DASHED1
 62
   120
370
     5
100
AcDbLine
 10
1326.714271577538
 20
256.0561278596208
 30
0.0
 11
1098.714271577554
 21
484.0561278596044
 31
0.0
  0
LINE
  5
9A
330
1F
100
AcDbEntity
  8
0-0
  6
JWW_DASHED1
 62
   120
370
     5
100
AcDbLine
 10
1326.714271577538
 20
241.9139922373046
 30
0.0
 11
1098.714271577557
 21
469.9139922372873
 31
0.0
  0
LINE
  5
9B
330
1F
100
AcDbEntity
  8
0-0
  6
JWW_DASHED1
 62
   120
370
     5
100
AcDbLine
 10
1326.714271577544
 20
227.7718566149883
 30
0.0
 11
1098.714271577557
 21
455.7718566149703
 31
0.0
  0
LINE
  5
9C
330
1F
100
AcDbEntity
  8
0-0
  6
JWW_DASHED1
 62
   120
370
     5
100
AcDbLine
 10
1326.714271577544
 20
213.6297209926713
 30
0.0
 11
1098.714271577544
 21
441.6297209926694
 31
0.0
  0
LINE
  5
9D
330
1F
100
AcDbEntity
  8
0-0
  6
JWW_DASHED1
 62
   120
370
     5
100
AcDbLine
 10
1326.714271577544
 20
199.4875853703542
 30
0.0
 11
1098.714271577547
 21
427.4875853703531
 31
0.0
  0
LINE
  5
9E
330
1F
100
AcDbEntity
  8
0-0
  6
JWW_DASHED1
 62
   120
370
     5
100
AcDbLine
 10
1326.714271577548
 20
185.3454497480379
 30
0.0
 11
1098.714271577551
 21
413.3454497480361
 31
0.0
  0
LINE
  5
9F
330
1F
100
AcDbEntity
  8
0-0
  6
JWW_DASHED1
 62
   120
370
     5
100
AcDbLine
 10
1326.714271577551
 20
171.2033141257209
 30
0.0
 11
1098.714271577551
 21
399.2033141257181
 31
0.0
  0
LINE
  5
A0
330
1F
100
AcDbEntity
  8
0-0
  6
JWW_DASHED1
 62
   120
370
     5
100
AcDbLine
 10
1326.714271577551
 20
157.0611785033518
 30
0.0
 11
1098.714271577554
 21
385.0611785033482
 31
0.0
  0
LINE
  5
A1
330
1F
100
AcDbEntity
  8
0-0
  6
JWW_DASHED1
 62
   120
370
     5
100
AcDbLine
 10
1326.714271577544
 20
142.919042881044
 30
0.0
 11
1098.714271577544
 21
370.9190428810422
 31
0.0
  0
LINE
  5
A2
330
1F
100
AcDbEntity
  8
0-0
  6
JWW_DASHED1
 62
   120
370
     5
100
AcDbLine
 10
1326.714271577531
 20
128.7769072587432
 30
0.0
 11
1098.714271577547
 21
356.7769072587259
 31
0.0
  0
LINE
  5
A3
330
1F
100
AcDbEntity
  8
0-0
  6
JWW_DASHED1
 62
   120
370
     5
100
AcDbLine
 10
1326.714271577531
 20
114.6347716364261
 30
0.0
 11
1098.714271577551
 21
342.6347716364089
 31
0.0
  0
LINE
  5
A4
330
1F
100
AcDbEntity
  8
0-0
  6
JWW_DASHED1
 62
   120
370
     5
100
AcDbLine
 10
1326.714271577534
 20
100.4926360141098
 30
0.0
 11
1098.714271577551
 21
328.4926360140909
 31
0.0
  0
LINE
  5
A5
330
1F
100
AcDbEntity
  8
0-0
  6
JWW_DASHED1
 62
   120
370
     5
100
AcDbLine
 10
1326.714271577538
 20
86.35050039179191
 30
0.0
 11
1098.714271577554
 21
314.3505003917755
 31
0.0
  0
LINE
  5
A6
330
1F
100
AcDbEntity
  8
0-0
  6
JWW_DASHED1
 62
   120
370
     5
100
AcDbLine
 10
1326.714271577538
 20
72.20836476947568
 30
0.0
 11
1098.714271577557
 21
300.2083647694585
 31
0.0
  0
LINE
  5
A7
330
1F
100
AcDbEntity
  8
0-0
  6
JWW_DASHED1
 62
   120
370
     5
100
AcDbLine
 10
1326.714271577544
 20
58.06622914715945
 30
0.0
 11
1098.714271577557
 21
286.0662291471414
 31
0.0
  0
LINE
  5
A8
330
1F
100
AcDbEntity
  8
0-0
  6
JWW_DASHED1
 62
   120
370
     5
100
AcDbLine
 10
1326.714271577544
 20
43.92409352484236
 30
0.0
 11
1098.714271577544
 21
271.9240935248405
 31
0.0
  0
LINE
  5
A9
330
1F
100
AcDbEntity
  8
0-0
  6
JWW_DASHED1
 62
   120
370
     5
100
AcDbLine
 10
1326.714271577544
 20
29.78195790252528
 30
0.0
 11
1098.714271577547
 21
257.7819579025243
 31
0.0
  0
LINE
  5
AA
330
1F
100
AcDbEntity
  8
0-0
  6
JWW_DASHED1
 62
   120
370
     5
100
AcDbLine
 10
1326.714271577548
 20
15.63982228020905
 30
0.0
 11
1098.714271577551
 21
243.6398222802072
 31
0.0
  0
LINE
  5
AB
330
1F
100
AcDbEntity
  8
0-0
  6
JWW_DASHED1
 62
   120
370
     5
100
AcDbLine
 10
1326.714271577551
 20
1.497686657891961
 30
0.0
 11
1098.714271577551
 21
229.4976866578892
 31
0.0
  0
LINE
  5
AC
330
1F
100
AcDbEntity
  8
0-0
  6
JWW_DASHED1
 62
   120
370
     5
100
AcDbLine
 10
1326.714271577551
 20
-12.64444896442512
 30
0.0
 11
1098.714271577554
 21
215.3555510355739
 31
0.0
  0
LINE
  5
AD
330
1F
100
AcDbEntity
  8
0-0
  6
JWW_DASHED1
 62
   120
370
     5
100
AcDbLine
 10
1326.714271577548
 20
-26.78658458673283
 30
0.0
 11
1098.714271577551
 21
201.2134154132636
 31
0.0
  0
LINE
  5
AE
330
1F
100
AcDbEntity
  8
0-0
  6
JWW_DASHED1
 62
   120
370
     5
100
AcDbLine
 10
1326.714271577548
 20
-40.92872020904991
 30
0.0
 11
1098.714271577551
 21
187.0712797909457
 31
0.0
  0
LINE
  5
AF
330
1F
100
AcDbEntity
  8
0-0
  6
JWW_DASHED1
 62
   120
370
     5
100
AcDbLine
 10
1326.714271577544
 20
-55.07085583135932
 30
0.0
 11
1098.714271577544
 21
172.9291441686388
 31
0.0
  0
LINE
  5
B0
330
1F
100
AcDbEntity
  8
0-0
  6
JWW_DASHED1
 62
   120
370
     5
100
AcDbLine
 10
1326.714271577531
 20
-69.21299145366021
 30
0.0
 11
1098.714271577547
 21
158.7870085463226
 31
0.0
  0
LINE
  5
B1
330
1F
100
AcDbEntity
  8
0-0
  6
JWW_DASHED1
 62
   120
370
     5
100
AcDbLine
 10
1326.714271577531
 20
-83.3551270759773
 30
0.0
 11
1098.714271577551
 21
144.6448729240055
 31
0.0
  0
LINE
  5
B2
330
1F
100
AcDbEntity
  8
0-0
  6
JWW_DASHED1
 62
   120
370
     5
100
AcDbLine
 10
1326.714271577534
 20
-97.49726269829353
 30
0.0
 11
1098.714271577551
 21
130.5027373016875
 31
0.0
  0
LINE
  5
B3
330
1F
100
AcDbEntity
  8
0-0
  6
JWW_DASHED1
 62
   120
370
     5
100
AcDbLine
 10
1326.714271577538
 20
-111.6393983206115
 30
0.0
 11
1098.714271577554
 21
116.3606016793722
 31
0.0
  0
LINE
  5
B4
330
1F
100
AcDbEntity
  8
0-0
  6
JWW_DASHED1
 62
   120
370
     5
100
AcDbLine
 10
1326.714271577538
 20
-125.7815339429277
 30
0.0
 11
1098.714271577557
 21
102.2184660570551
 31
0.0
  0
LINE
  5
B5
330
1F
100
AcDbEntity
  8
0-0
  6
JWW_DASHED1
 62
   120
370
     5
100
AcDbLine
 10
1326.714271577544
 20
-139.9236695652439
 30
0.0
 11
1098.714271577557
 21
88.076330434738
 31
0.0
  0
LINE
  5
B6
330
1F
100
AcDbEntity
  8
0-0
  6
JWW_DASHED1
 62
   120
370
     5
100
AcDbLine
 10
1326.714271577544
 20
-154.0658051875909
 30
0.0
 11
1098.714271577547
 21
73.93419481240812
 31
0.0
  0
LINE
  5
B7
330
1F
100
AcDbEntity
  8
0-0
  6
JWW_DASHED1
 62
   120
370
     5
100
AcDbLine
 10
1326.714271577551
 20
-168.2079408099378
 30
0.0
 11
1098.714271577551
 21
59.79205919006034
 31
0.0
  0
LINE
  5
B8
330
1F
100
AcDbEntity
  8
0-0
  6
JWW_DASHED1
 62
   120
370
     5
100
AcDbLine
 10
1326.714271577551
 20
-182.350076432254
 30
0.0
 11
1098.714271577554
 21
45.64992356774496
 31
0.0
  0
LINE
  5
B9
330
1F
100
AcDbEntity
  8
0-0
  6
JWW_DASHED1
 62
   120
370
     5
100
AcDbLine
 10
1326.714271577544
 20
-196.4922120545609
 30
0.0
 11
1098.714271577547
 21
31.50778794543555
 31
0.0
  0
LINE
  5
BA
330
1F
100
AcDbEntity
  8
0-0
  6
JWW_DASHED1
 62
   120
370
     5
100
AcDbLine
 10
1326.714271577548
 20
-210.634347676878
 30
0.0
 11
1098.714271577551
 21
17.36565232311932
 31
0.0
  0
LINE
  5
BB
330
1F
100
AcDbEntity
  8
0-0
  6
JWW_DASHED1
 62
   120
370
     5
100
AcDbLine
 10
1326.714271577544
 20
-224.7764832991882
 30
0.0
 11
1098.714271577544
 21
3.22351670080991
 31
0.0
  0
LINE
  5
BC
330
1F
100
AcDbEntity
  8
0-0
  6
JWW_DASHED1
 62
   120
370
     5
100
AcDbLine
 10
1326.714271577544
 20
-238.9186189215053
 30
0.0
 11
1098.714271577547
 21
-10.91861892150632
 31
0.0
  0
LINE
  5
BD
330
1F
100
AcDbEntity
  8
0-0
  6
JWW_DASHED1
 62
   120
370
     5
100
AcDbLine
 10
1326.714271577534
 20
-253.0607545438062
 30
0.0
 11
1098.714271577551
 21
-25.06075454382341
 31
0.0
  0
LINE
  5
BE
330
1F
100
AcDbEntity
  8
0-0
  6
JWW_DASHED1
 62
   120
370
     5
100
AcDbLine
 10
1326.714271577534
 20
-267.2028901661224
 30
0.0
 11
1098.714271577551
 21
-39.20289016614134
 31
0.0
  0
LINE
  5
BF
330
1F
100
AcDbEntity
  8
0-0
  6
JWW_DASHED1
 62
   120
370
     5
100
AcDbLine
 10
1326.714271577538
 20
-281.3450257884404
 30
0.0
 11
1098.714271577554
 21
-53.34502578845672
 31
0.0
  0
LINE
  5
C0
330
1F
100
AcDbEntity
  8
0-0
  6
JWW_DASHED1
 62
   120
370
     5
100
AcDbLine
 10
1326.714271577538
 20
-295.4871614107566
 30
0.0
 11
1098.714271577557
 21
-67.48716141077381
 31
0.0
  0
LINE
  5
C1
330
1F
100
AcDbEntity
  8
0-0
  6
JWW_DASHED1
 62
   120
370
     5
100
AcDbLine
 10
1326.714271577544
 20
-309.6292970330728
 30
0.0
 11
1098.714271577557
 21
-81.6292970330909
 31
0.0
  0
LINE
  5
C2
330
1F
100
AcDbEntity
  8
0-0
  6
JWW_DASHED1
 62
   120
370
     5
100
AcDbLine
 10
1326.714271577544
 20
-323.7714326553899
 30
0.0
 11
1098.714271577544
 21
-95.77143265539178
 31
0.0
  0
LINE
  5
C3
330
1F
100
AcDbEntity
  8
0-0
  6
JWW_DASHED1
 62
   120
370
     5
100
AcDbLine
 10
1326.714271577548
 20
-337.913568277707
 30
0.0
 11
1098.714271577547
 21
-109.913568277708
 31
0.0
  0
LINE
  5
C4
330
1F
100
AcDbEntity
  8
0-0
  6
JWW_DASHED1
 62
   120
370
     5
100
AcDbLine
 10
1326.714271577548
 20
-352.0557039000232
 30
0.0
 11
1098.714271577551
 21
-124.0557039000251
 31
0.0
  0
LINE
  5
C5
330
1F
100
AcDbEntity
  8
0-0
  6
JWW_DASHED1
 62
   120
370
     5
100
AcDbLine
 10
1326.714271577551
 20
-366.1978395223412
 30
0.0
 11
1098.714271577551
 21
-138.197839522343
 31
0.0
  0
LINE
  5
C6
330
1F
100
AcDbEntity
  8
0-0
  6
JWW_DASHED1
 62
   120
370
     5
100
AcDbLine
 10
1326.714271577551
 20
-380.3399751446574
 30
0.0
 11
1098.714271577554
 21
-152.3399751446584
 31
0.0
  0
LINE
  5
C7
330
1F
100
AcDbEntity
  8
0-0
  6
JWW_DASHED1
 62
   120
370
     5
100
AcDbLine
 10
1326.714271577555
 20
-394.4821107669736
 30
0.0
 11
1098.714271577557
 21
-166.4821107669755
 31
0.0
  0
LINE
  5
C8
330
1F
100
AcDbEntity
  8
0-0
  6
JWW_DASHED1
 62
   120
370
     5
100
AcDbLine
 10
1326.714271577548
 20
-408.6242463892796
 30
0.0
 11
1098.714271577551
 21
-180.6242463892823
 31
0.0
  0
LINE
  5
C9
330
1F
100
AcDbEntity
  8
0-0
  6
JWW_DASHED1
 62
   120
370
     5
100
AcDbLine
 10
1326.714271577544
 20
-422.7663820115916
 30
0.0
 11
1098.714271577544
 21
-194.7663820115935
 31
0.0
  0
LINE
  5
CA
330
1F
100
AcDbEntity
  8
0-0
  6
JWW_DASHED1
 62
   120
370
     5
100
AcDbLine
 10
1326.714271577544
 20
-436.9085176339087
 30
0.0
 11
1098.714271577547
 21
-208.9085176339105
 31
0.0
  0
LINE
  5
CB
330
1F
100
AcDbEntity
  8
0-0
  6
JWW_DASHED1
 62
   120
370
     5
100
AcDbLine
 10
1326.714271577534
 20
-451.0506532562096
 30
0.0
 11
1098.714271577551
 21
-223.0506532562268
 31
0.0
  0
LINE
  5
CC
330
1F
100
AcDbEntity
  8
0-0
  6
JWW_DASHED1
 62
   120
370
     5
100
AcDbLine
 10
1326.714271577534
 20
-465.1927888785266
 30
0.0
 11
1098.714271577551
 21
-237.1927888785447
 31
0.0
  0
LINE
  5
CD
330
1F
100
AcDbEntity
  8
0-0
  6
JWW_DASHED1
 62
   120
370
     5
100
AcDbLine
 10
1326.714271577538
 20
-479.3349245008437
 30
0.0
 11
1098.714271577554
 21
-251.3349245008601
 31
0.0
  0
LINE
  5
CE
330
1F
100
AcDbEntity
  8
0-0
  6
JWW_DASHED1
 62
   120
370
     5
100
AcDbLine
 10
1326.714271577544
 20
-493.4770601232188
 30
0.0
 11
1098.714271577544
 21
-265.4770601232207
 31
0.0
  0
LINE
  5
CF
330
1F
100
AcDbEntity
  8
0-0
  6
JWW_DASHED1
 62
   120
370
     5
100
AcDbLine
 10
1326.714271577548
 20
-507.6191957455359
 30
0.0
 11
1098.714271577547
 21
-279.6191957455369
 31
0.0
  0
LINE
  5
D0
330
1F
100
AcDbEntity
  8
0-0
  6
JWW_DASHED1
 62
   120
370
     5
100
AcDbLine
 10
1326.714271577548
 20
-521.7613313678521
 30
0.0
 11
1098.714271577551
 21
-293.761331367854
 31
0.0
  0
LINE
  5
D1
330
1F
100
AcDbEntity
  8
0-0
  6
JWW_DASHED1
 62
   120
370
     5
100
AcDbLine
 10
1326.714271577551
 20
-535.90346699017
 30
0.0
 11
1098.714271577551
 21
-307.9034669901719
 31
0.0
  0
LINE
  5
D2
330
1F
100
AcDbEntity
  8
0-0
  6
JWW_DASHED1
 62
   120
370
     5
100
AcDbLine
 10
1326.714271577551
 20
-550.0456026124863
 30
0.0
 11
1098.714271577554
 21
-322.0456026124873
 31
0.0
  0
LINE
  5
D3
330
1F
100
AcDbEntity
  8
0-0
  6
JWW_DASHED1
 62
   120
370
     5
100
AcDbLine
 10
1326.714271577555
 20
-564.1877382348025
 30
0.0
 11
1098.714271577557
 21
-336.1877382348044
 31
0.0
  0
LINE
  5
D4
330
1F
100
AcDbEntity
  8
0-0
  6
JWW_DASHED1
 62
   120
370
     5
100
AcDbLine
 10
1326.714271577544
 20
-578.3298738571077
 30
0.0
 11
1098.714271577547
 21
-350.3298738571104
 31
0.0
  0
LINE
  5
D5
330
1F
100
AcDbEntity
  8
0-0
  6
JWW_DASHED1
 62
   120
370
     5
100
AcDbLine
 10
1326.714271577544
 20
-592.4720094794204
 30
0.0
 11
1098.714271577544
 21
-364.4720094794224
 31
0.0
  0
LINE
  5
D6
330
1F
100
AcDbEntity
  8
0-0
  6
JWW_DASHED1
 62
   120
370
     5
100
AcDbLine
 10
1326.714271577548
 20
-606.6141451017376
 30
0.0
 11
1098.714271577547
 21
-378.6141451017386
 31
0.0
  0
LINE
  5
D7
330
1F
100
AcDbEntity
  8
0-0
  6
JWW_DASHED1
 62
   120
370
     5
100
AcDbLine
 10
1326.714271577534
 20
-620.7562807240384
 30
0.0
 11
1098.714271577551
 21
-392.7562807240557
 31
0.0
  0
LINE
  5
D8
330
1F
100
AcDbEntity
  8
0-0
  6
JWW_DASHED1
 62
   120
370
     5
100
AcDbLine
 10
1326.714271577534
 20
-634.8984163463547
 30
0.0
 11
1098.714271577554
 21
-406.8984163463736
 31
0.0
  0
LINE
  5
D9
330
1F
100
AcDbEntity
  8
0-0
  6
JWW_DASHED1
 62
   120
370
     5
100
AcDbLine
 10
1326.714271577538
 20
-649.0405519686726
 30
0.0
 11
1098.714271577554
 21
-421.0405519686898
 31
0.0
  0
LINE
  5
DA
330
1F
100
AcDbEntity
  8
0-0
  6
JWW_DASHED1
 62
   120
370
     5
100
AcDbLine
 10
1326.714271577541
 20
-663.1826875909888
 30
0.0
 11
1098.714271577557
 21
-435.1826875910061
 31
0.0
  0
LINE
  5
DB
330
1F
100
AcDbEntity
  8
0-0
  6
JWW_DASHED1
 62
   120
370
     5
100
AcDbLine
 10
1326.714271577544
 20
-677.3248232133051
 30
0.0
 11
1098.714271577557
 21
-449.3248232133232
 31
0.0
  0
LINE
  5
DC
330
1F
100
AcDbEntity
  8
0-0
  6
JWW_DASHED1
 62
   120
370
     5
100
AcDbLine
 10
1326.714271577544
 20
-691.4669588356221
 30
0.0
 11
1098.714271577547
 21
-463.466958835624
 31
0.0
  0
LINE
  5
DD
330
1F
100
AcDbEntity
  8
0-0
  6
JWW_DASHED1
 62
   120
370
     5
100
AcDbLine
 10
1326.714271577548
 20
-705.6090944579392
 30
0.0
 11
1098.714271577547
 21
-477.6090944579403
 31
0.0
  0
LINE
  5
DE
330
1F
100
AcDbEntity
  8
0-0
  6
JWW_DASHED1
 62
   120
370
     5
100
AcDbLine
 10
1326.714271577548
 20
-719.7512300802555
 30
0.0
 11
1098.714271577551
 21
-491.7512300802574
 31
0.0
  0
LINE
  5
DF
330
1F
100
AcDbEntity
  8
0-0
  6
JWW_DASHED1
 62
   120
370
     5
100
AcDbLine
 10
1326.714271577551
 20
-733.8933657025734
 30
0.0
 11
1098.714271577554
 21
-505.8933657025753
 31
0.0
  0
LINE
  5
E0
330
1F
100
AcDbEntity
  8
0-0
  6
JWW_DASHED1
 62
   120
370
     5
100
AcDbLine
 10
1326.714271577555
 20
-748.0355013248897
 30
0.0
 11
1098.714271577554
 21
-520.0355013248907
 31
0.0
  0
LINE
  5
E1
330
1F
100
AcDbEntity
  8
0-0
  6
JWW_DASHED1
 62
   120
370
     5
100
AcDbLine
 10
1326.714271577555
 20
-762.1776369472068
 30
0.0
 11
1098.714271577557
 21
-534.1776369472077
 31
0.0
  0
LINE
  5
E2
330
1F
100
AcDbEntity
  8
0-0
  6
JWW_DASHED1
 62
   120
370
     5
100
AcDbLine
 10
1326.714271577544
 20
-776.3197725695102
 30
0.0
 11
1098.714271577547
 21
-548.3197725695129
 31
0.0
  0
LINE
  5
E3
330
1F
100
AcDbEntity
  8
0-0
  6
JWW_DASHED1
 62
   120
370
     5
100
AcDbLine
 10
1326.714271577544
 20
-790.4619081918247
 30
0.0
 11
1098.714271577547
 21
-562.4619081918257
 31
0.0
  0
LINE
  5
E4
330
1F
100
AcDbEntity
  8
0-0
  6
JWW_DASHED1
 62
   120
370
     5
100
AcDbLine
 10
1326.714271577548
 20
-804.6040438141409
 30
0.0
 11
1098.714271577547
 21
-576.6040438141429
 31
0.0
  0
LINE
  5
E5
330
1F
100
AcDbEntity
  8
0-0
  6
JWW_DASHED1
 62
   120
370
     5
100
AcDbLine
 10
1326.714271577534
 20
-818.7461794364418
 30
0.0
 11
1098.714271577551
 21
-590.746179436459
 31
0.0
  0
LINE
  5
E6
330
1F
100
AcDbEntity
  8
0-0
  6
JWW_DASHED1
 62
   120
370
     5
100
AcDbLine
 10
1326.714271577534
 20
-832.888315058759
 30
0.0
 11
1098.714271577554
 21
-604.8883150587769
 31
0.0
  0
LINE
  5
E7
330
1F
100
AcDbEntity
  8
0-0
  6
JWW_DASHED1
 62
   120
370
     5
100
AcDbLine
 10
1326.714271577538
 20
-847.030450681076
 30
0.0
 11
1098.714271577554
 21
-619.0304506810924
 31
0.0
  0
LINE
  5
E8
330
1F
100
AcDbEntity
  8
0-0
  6
JWW_DASHED1
 62
   120
370
     5
100
AcDbLine
 10
1326.714271577544
 20
-861.172586303451
 30
0.0
 11
1098.714271577547
 21
-633.1725863034529
 31
0.0
  0
LINE
  5
E9
330
1F
100
AcDbEntity
  8
0-0
  6
JWW_DASHED1
 62
   120
370
     5
100
AcDbLine
 10
1326.714271577548
 20
-875.3147219257681
 30
0.0
 11
1098.714271577547
 21
-647.3147219257692
 31
0.0
  0
LINE
  5
EA
330
1F
100
AcDbEntity
  8
0-0
  6
JWW_DASHED1
 62
   120
370
     5
100
AcDbLine
 10
1326.714271577548
 20
-889.4568575480844
 30
0.0
 11
1098.714271577551
 21
-661.4568575480862
 31
0.0
  0
LINE
  5
EB
330
1F
100
AcDbEntity
  8
0-0
  6
JWW_DASHED1
 62
   120
370
     5
100
AcDbLine
 10
1326.714271577551
 20
-903.5989931704028
 30
0.0
 11
1098.714271577554
 21
-675.5989931704033
 31
0.0
  0
LINE
  5
EC
330
1F
100
AcDbEntity
  8
0-0
  6
JWW_DASHED1
 62
   120
370
     5
100
AcDbLine
 10
1326.714271577555
 20
-917.741128792719
 30
0.0
 11
1098.714271577554
 21
-689.7411287927196
 31
0.0
  0
LINE
  5
ED
330
1F
100
AcDbEntity
  8
0-0
  6
JWW_DASHED1
 62
   120
370
     5
100
AcDbLine
 10
1326.714271577555
 20
-931.8832644150352
 30
0.0
 11
1098.714271577557
 21
-703.8832644150366
 31
0.0
  0
LINE
  5
EE
330
1F
100
AcDbEntity
  8
0-0
  6
JWW_DASHED1
 62
   120
370
     5
100
AcDbLine
 10
1326.714271577544
 20
-946.0254000373378
 30
0.0
 11
1098.714271577547
 21
-718.0254000373401
 31
0.0
  0
LINE
  5
EF
330
1F
100
AcDbEntity
  8
0-0
  6
JWW_DASHED1
 62
   120
370
     5
100
AcDbLine
 10
1326.714271577544
 20
-960.167535659654
 30
0.0
 11
1098.714271577547
 21
-732.1675356596546
 31
0.0
  0
LINE
  5
F0
330
1F
100
AcDbEntity
  8
0-0
  6
JWW_DASHED1
 62
   120
370
     5
100
AcDbLine
 10
1326.714271577548
 20
-974.3096712819703
 30
0.0
 11
1098.714271577547
 21
-746.3096712819718
 31
0.0
  0
LINE
  5
F1
330
1F
100
AcDbEntity
  8
0-0
  6
JWW_DASHED1
 62
   120
370
     5
100
AcDbLine
 10
1326.714271577534
 20
-988.4518069042712
 30
0.0
 11
1098.714271577551
 21
-760.4518069042888
 31
0.0
  0
LINE
  5
F2
330
1F
100
AcDbEntity
  8
0-0
  6
JWW_DASHED1
 62
   120
370
     5
100
AcDbLine
 10
1326.714271577534
 20
-1002.593942526588
 30
0.0
 11
1098.714271577554
 21
-774.593942526605
 31
0.0
  0
LINE
  5
F3
330
1F
100
AcDbEntity
  8
0-0
  6
JWW_DASHED1
 62
   120
370
     5
100
AcDbLine
 10
1326.714271577538
 20
-1016.736078148905
 30
0.0
 11
1098.714271577554
 21
-788.7360781489213
 31
0.0
  0
LINE
  5
F4
330
1F
100
AcDbEntity
  8
0-0
  6
JWW_DASHED1
 62
   120
370
     5
100
AcDbLine
 10
1326.714271577541
 20
-1030.878213771221
 30
0.0
 11
1098.714271577557
 21
-802.8782137712392
 31
0.0
  0
LINE
  5
F5
330
1F
100
AcDbEntity
  8
0-0
  6
JWW_DASHED1
 62
   120
370
     5
100
AcDbLine
 10
1326.714271577544
 20
-1045.020349393538
 30
0.0
 11
1098.714271577561
 21
-817.0203493935554
 31
0.0
  0
LINE
  5
F6
330
1F
100
AcDbEntity
  8
0-0
  6
JWW_DASHED1
 62
   120
370
     5
100
AcDbLine
 10
1326.714271577544
 20
-1059.162485015855
 30
0.0
 11
1098.714271577561
 21
-831.1624850158726
 31
0.0
  0
LINE
  5
F7
330
1F
100
AcDbEntity
  8
0-0
  6
JWW_DASHED1
 62
   120
370
     5
100
AcDbLine
 10
1326.714271577548
 20
-1073.304620638171
 30
0.0
 11
1098.714271577547
 21
-845.3046206381725
 31
0.0
  0
LINE
  5
F8
330
1F
100
AcDbEntity
  8
0-0
  6
JWW_DASHED1
 62
   120
370
     5
100
AcDbLine
 10
1326.714271577548
 20
-1087.446756260489
 30
0.0
 11
1098.714271577551
 21
-859.4467562604905
 31
0.0
  0
LINE
  5
F9
330
1F
100
AcDbEntity
  8
0-0
  6
JWW_DASHED1
 62
   120
370
     5
100
AcDbLine
 10
1326.714271577551
 20
-1101.588891882807
 30
0.0
 11
1098.714271577554
 21
-873.5888918828067
 31
0.0
  0
LINE
  5
FA
330
1F
100
AcDbEntity
  8
0-0
  6
Continuous
 62
     7
370
     9
100
AcDbLine
 10
546.7142715775478
 20
-1105.298359187499
 30
0.0
 11
318.7142715775471
 21
-1105.298359187499
 31
0.0
  0
LINE
  5
FB
330
1F
100
AcDbEntity
  8
0-0
  6
Continuous
 62
    92
370
    13
100
AcDbLine
 10
546.7142715775478
 20
1224.701640812502
 30
0.0
 11
546.7142715775478
 21
-1135.298359187499
 31
0.0
  0
LINE
  5
FC
330
1F
100
AcDbEntity
  8
0-0
  6
Continuous
 62
    92
370
    13
100
AcDbLine
 10
318.7142715775471
 20
1224.701640812502
 30
0.0
 11
318.7142715775471
 21
-1135.298359187499
 31
0.0
  0
LINE
  5
FD
330
1F
100
AcDbEntity
  8
0-0
  6
Continuous
 62
     7
370
     9
100
AcDbLine
 10
546.7142715775478
 20
1216.701640812501
 30
0.0
 11
318.7142715775471
 21
1216.701640812501
 31
0.0
  0
LINE
  5
FE
330
1F
100
AcDbEntity
  8
0-0
  6
JWW_DASHED1
 62
   120
370
     5
100
AcDbLine
 10
522.1394676376165
 20
-1105.298359187499
 30
0.0
 11
318.7142715775573
 21
-901.8731631274413
 31
0.0
  0
LINE
  5
FF
330
1F
100
AcDbEntity
  8
0-0
  6
JWW_DASHED1
 62
   120
370
     5
100
AcDbLine
 10
507.9973320153019
 20
-1105.298359187499
 30
0.0
 11
318.7142715775437
 21
-916.015298749743
 31
0.0
  0
LINE
  5
100
330
1F
100
AcDbEntity
  8
0-0
  6
JWW_DASHED1
 62
   120
370
     5
100
AcDbLine
 10
493.8551963929874
 20
-1105.298359187499
 30
0.0
 11
318.7142715775471
 21
-930.1574343720584
 31
0.0
  0
LINE
  5
101
330
1F
100
AcDbEntity
  8
0-0
  6
JWW_DASHED1
 62
   120
370
     5
100
AcDbLine
 10
479.7130607706728
 20
-1105.298359187499
 30
0.0
 11
318.7142715775471
 21
-944.2995699943755
 31
0.0
  0
LINE
  5
102
330
1F
100
AcDbEntity
  8
0-0
  6
JWW_DASHED1
 62
   120
370
     5
100
AcDbLine
 10
465.5709251483583
 20
-1105.298359187499
 30
0.0
 11
318.7142715775505
 21
-958.4417056166926
 31
0.0
  0
LINE
  5
103
330
1F
100
AcDbEntity
  8
0-0
  6
JWW_DASHED1
 62
   120
370
     5
100
AcDbLine
 10
451.4287895260438
 20
-1105.298359187499
 30
0.0
 11
318.7142715775539
 21
-972.5838412390088
 31
0.0
  0
LINE
  5
104
330
1F
100
AcDbEntity
  8
0-0
  6
JWW_DASHED1
 62
   120
370
     5
100
AcDbLine
 10
437.2866539037292
 20
-1105.298359187499
 30
0.0
 11
318.7142715775539
 21
-986.7259768613259
 31
0.0
  0
LINE
  5
105
330
1F
100
AcDbEntity
  8
0-0
  6
JWW_DASHED1
 62
   120
370
     5
100
AcDbLine
 10
423.1445182813601
 20
-1105.298359187499
 30
0.0
 11
318.7142715775607
 21
-1000.868112483702
 31
0.0
  0
LINE
  5
106
330
1F
100
AcDbEntity
  8
0-0
  6
JWW_DASHED1
 62
   120
370
     5
100
AcDbLine
 10
409.0023826590456
 20
-1105.298359187499
 30
0.0
 11
318.7142715775471
 21
-1015.010248106002
 31
0.0
  0
LINE
  5
107
330
1F
100
AcDbEntity
  8
0-0
  6
JWW_DASHED1
 62
   120
370
     5
100
AcDbLine
 10
394.8602470367311
 20
-1105.298359187499
 30
0.0
 11
318.7142715775505
 21
-1029.152383728319
 31
0.0
  0
LINE
  5
108
330
1F
100
AcDbEntity
  8
0-0
  6
JWW_DASHED1
 62
   120
370
     5
100
AcDbLine
 10
380.7181114144166
 20
-1105.298359187499
 30
0.0
 11
318.7142715775539
 21
-1043.294519350636
 31
0.0
  0
LINE
  5
109
330
1F
100
AcDbEntity
  8
0-0
  6
JWW_DASHED1
 62
   120
370
     5
100
AcDbLine
 10
366.575975792102
 20
-1105.298359187499
 30
0.0
 11
318.7142715775539
 21
-1057.436654972953
 31
0.0
  0
LINE
  5
10A
330
1F
100
AcDbEntity
  8
0-0
  6
JWW_DASHED1
 62
   120
370
     5
100
AcDbLine
 10
352.4338401697875
 20
-1105.298359187499
 30
0.0
 11
318.7142715775573
 21
-1071.57879059527
 31
0.0
  0
LINE
  5
10B
330
1F
100
AcDbEntity
  8
0-0
  6
JWW_DASHED1
 62
   120
370
     5
100
AcDbLine
 10
338.291704547473
 20
-1105.298359187499
 30
0.0
 11
318.7142715775437
 21
-1085.720926217571
 31
0.0
  0
LINE
  5
10C
330
1F
100
AcDbEntity
  8
0-0
  6
JWW_DASHED1
 62
   120
370
     5
100
AcDbLine
 10
324.1495689251585
 20
-1105.298359187499
 30
0.0
 11
318.7142715775471
 21
-1099.863061839887
 31
0.0
  0
LINE
  5
10D
330
1F
100
AcDbEntity
  8
0-0
  6
JWW_DASHED1
 62
   120
370
     5
100
AcDbLine
 10
536.281603259931
 20
-1105.298359187499
 30
0.0
 11
318.7142715775539
 21
-887.7310275051238
 31
0.0
  0
LINE
  5
10E
330
1F
100
AcDbEntity
  8
0-0
  6
JWW_DASHED1
 62
   120
370
     5
100
AcDbLine
 10
546.7142715775308
 20
1203.579214554865
 30
0.0
 11
533.5918453199131
 21
1216.701640812482
 31
0.0
  0
LINE
  5
10F
330
1F
100
AcDbEntity
  8
0-0
  6
JWW_DASHED1
 62
   120
370
     5
100
AcDbLine
 10
546.7142715775308
 20
1189.43707893255
 30
0.0
 11
519.4497096975952
 21
1216.701640812486
 31
0.0
  0
LINE
  5
110
330
1F
100
AcDbEntity
  8
0-0
  6
JWW_DASHED1
 62
   120
370
     5
100
AcDbLine
 10
546.7142715775342
 20
1175.294943310232
 30
0.0
 11
505.3075740752772
 21
1216.701640812489
 31
0.0
  0
LINE
  5
111
330
1F
100
AcDbEntity
  8
0-0
  6
JWW_DASHED1
 62
   120
370
     5
100
AcDbLine
 10
546.7142715775376
 20
1161.152807687916
 30
0.0
 11
491.1654384529592
 21
1216.701640812493
 31
0.0
  0
LINE
  5
112
330
1F
100
AcDbEntity
  8
0-0
  6
JWW_DASHED1
 62
   120
370
     5
100
AcDbLine
 10
546.7142715775376
 20
1147.010672065598
 30
0.0
 11
477.0233028306413
 21
1216.701640812496
 31
0.0
  0
LINE
  5
113
330
1F
100
AcDbEntity
  8
0-0
  6
JWW_DASHED1
 62
   120
370
     5
100
AcDbLine
 10
546.7142715775444
 20
1132.868536443224
 30
0.0
 11
462.8811672082688
 21
1216.701640812499
 31
0.0
  0
LINE
  5
114
330
1F
100
AcDbEntity
  8
0-0
  6
JWW_DASHED1
 62
   120
370
     5
100
AcDbLine
 10
546.7142715775478
 20
1118.726400820906
 30
0.0
 11
448.7390315859543
 21
1216.701640812501
 31
0.0
  0
LINE
  5
115
330
1F
100
AcDbEntity
  8
0-0
  6
JWW_DASHED1
 62
   120
370
     5
100
AcDbLine
 10
546.7142715775512
 20
1104.584265198589
 30
0.0
 11
434.5968959636363
 21
1216.701640812503
 31
0.0
  0
LINE
  5
116
330
1F
100
AcDbEntity
  8
0-0
  6
JWW_DASHED1
 62
   120
370
     5
100
AcDbLine
 10
546.7142715775512
 20
1090.442129576273
 30
0.0
 11
420.4547603413184
 21
1216.701640812506
 31
0.0
  0
LINE
  5
117
330
1F
100
AcDbEntity
  8
0-0
  6
JWW_DASHED1
 62
   120
370
     5
100
AcDbLine
 10
546.7142715775547
 20
1076.299993953955
 30
0.0
 11
406.3126247190038
 21
1216.701640812508
 31
0.0
  0
LINE
  5
118
330
1F
100
AcDbEntity
  8
0-0
  6
JWW_DASHED1
 62
   120
370
     5
100
AcDbLine
 10
546.7142715775444
 20
1062.157858331655
 30
0.0
 11
392.1704890966996
 21
1216.701640812494
 31
0.0
  0
LINE
  5
119
330
1F
100
AcDbEntity
  8
0-0
  6
JWW_DASHED1
 62
   120
370
     5
100
AcDbLine
 10
546.7142715775444
 20
1048.015722709337
 30
0.0
 11
378.028353474385
 21
1216.701640812496
 31
0.0
  0
LINE
  5
11A
330
1F
100
AcDbEntity
  8
0-0
  6
JWW_DASHED1
 62
   120
370
     5
100
AcDbLine
 10
546.7142715775308
 20
1033.873587087036
 30
0.0
 11
363.8862178520705
 21
1216.701640812496
 31
0.0
  0
LINE
  5
11B
330
1F
100
AcDbEntity
  8
0-0
  6
JWW_DASHED1
 62
   120
370
     5
100
AcDbLine
 10
546.7142715775308
 20
1019.731451464721
 30
0.0
 11
349.7440822297526
 21
1216.701640812499
 31
0.0
  0
LINE
  5
11C
330
1F
100
AcDbEntity
  8
0-0
  6
JWW_DASHED1
 62
   120
370
     5
100
AcDbLine
 10
546.7142715775342
 20
1005.589315842403
 30
0.0
 11
335.6019466074346
 21
1216.701640812503
 31
0.0
  0
LINE
  5
11D
330
1F
100
AcDbEntity
  8
0-0
  6
JWW_DASHED1
 62
   120
370
     5
100
AcDbLine
 10
546.7142715775376
 20
991.447180220087
 30
0.0
 11
321.4598109851167
 21
1216.701640812506
 31
0.0
  0
LINE
  5
11E
330
1F
100
AcDbEntity
  8
0-0
  6
JWW_DASHED1
 62
   120
370
     5
100
AcDbLine
 10
546.7142715775376
 20
977.3050445977691
 30
0.0
 11
318.7142715775573
 21
1205.305044597753
 31
0.0
  0
LINE
  5
11F
330
1F
100
AcDbEntity
  8
0-0
  6
JWW_DASHED1
 62
   120
370
     5
100
AcDbLine
 10
546.7142715775444
 20
963.1629089754529
 30
0.0
 11
318.7142715775573
 21
1191.162908975436
 31
0.0
  0
LINE
  5
120
330
1F
100
AcDbEntity
  8
0-0
  6
JWW_DASHED1
 62
   120
370
     5
100
AcDbLine
 10
546.7142715775444
 20
949.0207733531349
 30
0.0
 11
318.7142715775437
 21
1177.020773353134
 31
0.0
  0
LINE
  5
121
330
1F
100
AcDbEntity
  8
0-0
  6
JWW_DASHED1
 62
   120
370
     5
100
AcDbLine
 10
546.7142715775444
 20
934.8786377308187
 30
0.0
 11
318.7142715775471
 21
1162.878637730818
 31
0.0
  0
LINE
  5
122
330
1F
100
AcDbEntity
  8
0-0
  6
JWW_DASHED1
 62
   120
370
     5
100
AcDbLine
 10
546.7142715775478
 20
920.7365021085025
 30
0.0
 11
318.7142715775505
 21
1148.736502108502
 31
0.0
  0
LINE
  5
123
330
1F
100
AcDbEntity
  8
0-0
  6
JWW_DASHED1
 62
   120
370
     5
100
AcDbLine
 10
546.7142715775512
 20
906.5943664861862
 30
0.0
 11
318.7142715775505
 21
1134.594366486185
 31
0.0
  0
LINE
  5
124
330
1F
100
AcDbEntity
  8
0-0
  6
JWW_DASHED1
 62
   120
370
     5
100
AcDbLine
 10
546.7142715775512
 20
892.4522308638683
 30
0.0
 11
318.7142715775539
 21
1120.452230863867
 31
0.0
  0
LINE
  5
125
330
1F
100
AcDbEntity
  8
0-0
  6
JWW_DASHED1
 62
   120
370
     5
100
AcDbLine
 10
546.7142715775512
 20
878.3100952415538
 30
0.0
 11
318.7142715775539
 21
1106.310095241551
 31
0.0
  0
LINE
  5
126
330
1F
100
AcDbEntity
  8
0-0
  6
JWW_DASHED1
 62
   120
370
     5
100
AcDbLine
 10
546.7142715775444
 20
864.1679596192512
 30
0.0
 11
318.7142715775437
 21
1092.16795961925
 31
0.0
  0
LINE
  5
127
330
1F
100
AcDbEntity
  8
0-0
  6
JWW_DASHED1
 62
   120
370
     5
100
AcDbLine
 10
546.7142715775444
 20
850.0258239969342
 30
0.0
 11
318.7142715775437
 21
1078.025823996934
 31
0.0
  0
LINE
  5
128
330
1F
100
AcDbEntity
  8
0-0
  6
JWW_DASHED1
 62
   120
370
     5
100
AcDbLine
 10
546.7142715775308
 20
835.8836883746333
 30
0.0
 11
318.7142715775471
 21
1063.883688374616
 31
0.0
  0
LINE
  5
129
330
1F
100
AcDbEntity
  8
0-0
  6
JWW_DASHED1
 62
   120
370
     5
100
AcDbLine
 10
546.7142715775308
 20
821.7415527523161
 30
0.0
 11
318.7142715775505
 21
1049.741552752298
 31
0.0
  0
LINE
  5
12A
330
1F
100
AcDbEntity
  8
0-0
  6
JWW_DASHED1
 62
   120
370
     5
100
AcDbLine
 10
546.7142715775376
 20
807.599417129941
 30
0.0
 11
318.7142715775573
 21
1035.599417129924
 31
0.0
  0
LINE
  5
12B
330
1F
100
AcDbEntity
  8
0-0
  6
JWW_DASHED1
 62
   120
370
     5
100
AcDbLine
 10
546.7142715775444
 20
793.457281507624
 30
0.0
 11
318.7142715775573
 21
1021.457281507608
 31
0.0
  0
LINE
  5
12C
330
1F
100
AcDbEntity
  8
0-0
  6
JWW_DASHED1
 62
   120
370
     5
100
AcDbLine
 10
546.7142715775444
 20
779.315145885307
 30
0.0
 11
318.7142715775437
 21
1007.315145885307
 31
0.0
  0
LINE
  5
12D
330
1F
100
AcDbEntity
  8
0-0
  6
JWW_DASHED1
 62
   120
370
     5
100
AcDbLine
 10
546.7142715775444
 20
765.1730102629898
 30
0.0
 11
318.7142715775471
 21
993.1730102629888
 31
0.0
  0
LINE
  5
12E
330
1F
100
AcDbEntity
  8
0-0
  6
JWW_DASHED1
 62
   120
370
     5
100
AcDbLine
 10
546.7142715775478
 20
751.0308746406736
 30
0.0
 11
318.7142715775505
 21
979.0308746406708
 31
0.0
  0
LINE
  5
12F
330
1F
100
AcDbEntity
  8
0-0
  6
JWW_DASHED1
 62
   120
370
     5
100
AcDbLine
 10
546.7142715775512
 20
736.8887390183556
 30
0.0
 11
318.7142715775505
 21
964.8887390183546
 31
0.0
  0
LINE
  5
130
330
1F
100
AcDbEntity
  8
0-0
  6
JWW_DASHED1
 62
   120
370
     5
100
AcDbLine
 10
546.7142715775512
 20
722.7466033960394
 30
0.0
 11
318.7142715775539
 21
950.7466033960384
 31
0.0
  0
LINE
  5
131
330
1F
100
AcDbEntity
  8
0-0
  6
JWW_DASHED1
 62
   120
370
     5
100
AcDbLine
 10
546.7142715775512
 20
708.6044677737257
 30
0.0
 11
318.7142715775539
 21
936.6044677737239
 31
0.0
  0
LINE
  5
132
330
1F
100
AcDbEntity
  8
0-0
  6
JWW_DASHED1
 62
   120
370
     5
100
AcDbLine
 10
546.7142715775547
 20
694.4623321514104
 30
0.0
 11
318.7142715775573
 21
922.4623321514059
 31
0.0
  0
LINE
  5
133
330
1F
100
AcDbEntity
  8
0-0
  6
JWW_DASHED1
 62
   120
370
     5
100
AcDbLine
 10
546.7142715775444
 20
680.3201965291053
 30
0.0
 11
318.7142715775437
 21
908.320196529105
 31
0.0
  0
LINE
  5
134
330
1F
100
AcDbEntity
  8
0-0
  6
JWW_DASHED1
 62
   120
370
     5
100
AcDbLine
 10
546.7142715775308
 20
666.1780609068044
 30
0.0
 11
318.7142715775471
 21
894.1780609067871
 31
0.0
  0
LINE
  5
135
330
1F
100
AcDbEntity
  8
0-0
  6
JWW_DASHED1
 62
   120
370
     5
100
AcDbLine
 10
546.7142715775308
 20
652.0359252844872
 30
0.0
 11
318.7142715775505
 21
880.0359252844692
 31
0.0
  0
LINE
  5
136
330
1F
100
AcDbEntity
  8
0-0
  6
JWW_DASHED1
 62
   120
370
     5
100
AcDbLine
 10
546.7142715775342
 20
637.893789662171
 30
0.0
 11
318.7142715775505
 21
865.8937896621529
 31
0.0
  0
LINE
  5
137
330
1F
100
AcDbEntity
  8
0-0
  6
JWW_DASHED1
 62
   120
370
     5
100
AcDbLine
 10
546.7142715775376
 20
623.7516540398531
 30
0.0
 11
318.7142715775539
 21
851.7516540398367
 31
0.0
  0
LINE
  5
138
330
1F
100
AcDbEntity
  8
0-0
  6
JWW_DASHED1
 62
   120
370
     5
100
AcDbLine
 10
546.7142715775376
 20
609.6095184175376
 30
0.0
 11
318.7142715775573
 21
837.6095184175197
 31
0.0
  0
LINE
  5
139
330
1F
100
AcDbEntity
  8
0-0
  6
JWW_DASHED1
 62
   120
370
     5
100
AcDbLine
 10
546.7142715775444
 20
595.4673827952206
 30
0.0
 11
318.7142715775573
 21
823.4673827952033
 31
0.0
  0
LINE
  5
13A
330
1F
100
AcDbEntity
  8
0-0
  6
JWW_DASHED1
 62
   120
370
     5
100
AcDbLine
 10
546.7142715775444
 20
581.3252471729036
 30
0.0
 11
318.7142715775437
 21
809.3252471729016
 31
0.0
  0
LINE
  5
13B
330
1F
100
AcDbEntity
  8
0-0
  6
JWW_DASHED1
 62
   120
370
     5
100
AcDbLine
 10
546.7142715775444
 20
567.1831115505864
 30
0.0
 11
318.7142715775471
 21
795.1831115505854
 31
0.0
  0
LINE
  5
13C
330
1F
100
AcDbEntity
  8
0-0
  6
JWW_DASHED1
 62
   120
370
     5
100
AcDbLine
 10
546.7142715775478
 20
553.0409759282702
 30
0.0
 11
318.7142715775505
 21
781.0409759282684
 31
0.0
  0
LINE
  5
13D
330
1F
100
AcDbEntity
  8
0-0
  6
JWW_DASHED1
 62
   120
370
     5
100
AcDbLine
 10
546.7142715775512
 20
538.8988403059523
 30
0.0
 11
318.7142715775505
 21
766.8988403059504
 31
0.0
  0
LINE
  5
13E
330
1F
100
AcDbEntity
  8
0-0
  6
JWW_DASHED1
 62
   120
370
     5
100
AcDbLine
 10
546.7142715775512
 20
524.7567046836368
 30
0.0
 11
318.7142715775539
 21
752.756704683635
 31
0.0
  0
LINE
  5
13F
330
1F
100
AcDbEntity
  8
0-0
  6
JWW_DASHED1
 62
   120
370
     5
100
AcDbLine
 10
546.7142715775512
 20
510.6145690613232
 30
0.0
 11
318.7142715775539
 21
738.6145690613205
 31
0.0
  0
LINE
  5
140
330
1F
100
AcDbEntity
  8
0-0
  6
JWW_DASHED1
 62
   120
370
     5
100
AcDbLine
 10
546.7142715775512
 20
496.4724334390078
 30
0.0
 11
318.7142715775539
 21
724.4724334390042
 31
0.0
  0
LINE
  5
141
330
1F
100
AcDbEntity
  8
0-0
  6
JWW_DASHED1
 62
   120
370
     5
100
AcDbLine
 10
546.7142715775308
 20
482.3302978166583
 30
0.0
 11
318.7142715775505
 21
710.3302978166412
 31
0.0
  0
LINE
  5
142
330
1F
100
AcDbEntity
  8
0-0
  6
JWW_DASHED1
 62
   120
370
     5
100
AcDbLine
 10
546.7142715775342
 20
468.1881621943421
 30
0.0
 11
318.7142715775505
 21
696.1881621943248
 31
0.0
  0
LINE
  5
143
330
1F
100
AcDbEntity
  8
0-0
  6
JWW_DASHED1
 62
   120
370
     5
100
AcDbLine
 10
546.7142715775376
 20
454.0460265720242
 30
0.0
 11
318.7142715775539
 21
682.0460265720078
 31
0.0
  0
LINE
  5
144
330
1F
100
AcDbEntity
  8
0-0
  6
JWW_DASHED1
 62
   120
370
     5
100
AcDbLine
 10
546.7142715775376
 20
439.9038909497088
 30
0.0
 11
318.7142715775573
 21
667.9038909496908
 31
0.0
  0
LINE
  5
145
330
1F
100
AcDbEntity
  8
0-0
  6
JWW_DASHED1
 62
   120
370
     5
100
AcDbLine
 10
546.7142715775444
 20
425.7617553273917
 30
0.0
 11
318.7142715775573
 21
653.7617553273744
 31
0.0
  0
LINE
  5
146
330
1F
100
AcDbEntity
  8
0-0
  6
JWW_DASHED1
 62
   120
370
     5
100
AcDbLine
 10
546.7142715775444
 20
411.6196197050746
 30
0.0
 11
318.7142715775437
 21
639.6196197050735
 31
0.0
  0
LINE
  5
147
330
1F
100
AcDbEntity
  8
0-0
  6
JWW_DASHED1
 62
   120
370
     5
100
AcDbLine
 10
546.7142715775444
 20
397.4774840827575
 30
0.0
 11
318.7142715775471
 21
625.4774840827565
 31
0.0
  0
LINE
  5
148
330
1F
100
AcDbEntity
  8
0-0
  6
JWW_DASHED1
 62
   120
370
     5
100
AcDbLine
 10
546.7142715775478
 20
383.3353484604413
 30
0.0
 11
318.7142715775505
 21
611.3353484604395
 31
0.0
  0
LINE
  5
149
330
1F
100
AcDbEntity
  8
0-0
  6
JWW_DASHED1
 62
   120
370
     5
100
AcDbLine
 10
546.7142715775512
 20
369.1932128381234
 30
0.0
 11
318.7142715775505
 21
597.1932128381231
 31
0.0
  0
LINE
  5
14A
330
1F
100
AcDbEntity
  8
0-0
  6
JWW_DASHED1
 62
   120
370
     5
100
AcDbLine
 10
546.7142715775512
 20
355.051077215808
 30
0.0
 11
318.7142715775539
 21
583.0510772158061
 31
0.0
  0
LINE
  5
14B
330
1F
100
AcDbEntity
  8
0-0
  6
JWW_DASHED1
 62
   120
370
     5
100
AcDbLine
 10
546.7142715775478
 20
340.9089415934969
 30
0.0
 11
318.7142715775505
 21
568.9089415934925
 31
0.0
  0
LINE
  5
14C
330
1F
100
AcDbEntity
  8
0-0
  6
JWW_DASHED1
 62
   120
370
     5
100
AcDbLine
 10
546.7142715775512
 20
326.7668059711789
 30
0.0
 11
318.7142715775539
 21
554.7668059711771
 31
0.0
  0
LINE
  5
14D
330
1F
100
AcDbEntity
  8
0-0
  6
JWW_DASHED1
 62
   120
370
     5
100
AcDbLine
 10
546.7142715775444
 20
312.6246703488729
 30
0.0
 11
318.7142715775437
 21
540.6246703488711
 31
0.0
  0
LINE
  5
14E
330
1F
100
AcDbEntity
  8
0-0
  6
JWW_DASHED1
 62
   120
370
     5
100
AcDbLine
 10
546.7142715775308
 20
298.4825347265721
 30
0.0
 11
318.7142715775471
 21
526.4825347265548
 31
0.0
  0
LINE
  5
14F
330
1F
100
AcDbEntity
  8
0-0
  6
JWW_DASHED1
 62
   120
370
     5
100
AcDbLine
 10
546.7142715775308
 20
284.340399104255
 30
0.0
 11
318.7142715775505
 21
512.3403991042378
 31
0.0
  0
LINE
  5
150
330
1F
100
AcDbEntity
  8
0-0
  6
JWW_DASHED1
 62
   120
370
     5
100
AcDbLine
 10
546.7142715775342
 20
270.1982634819387
 30
0.0
 11
318.7142715775505
 21
498.1982634819198
 31
0.0
  0
LINE
  5
151
330
1F
100
AcDbEntity
  8
0-0
  6
JWW_DASHED1
 62
   120
370
     5
100
AcDbLine
 10
546.7142715775376
 20
256.0561278596208
 30
0.0
 11
318.7142715775539
 21
484.0561278596044
 31
0.0
  0
LINE
  5
152
330
1F
100
AcDbEntity
  8
0-0
  6
JWW_DASHED1
 62
   120
370
     5
100
AcDbLine
 10
546.7142715775376
 20
241.9139922373046
 30
0.0
 11
318.7142715775573
 21
469.9139922372873
 31
0.0
  0
LINE
  5
153
330
1F
100
AcDbEntity
  8
0-0
  6
JWW_DASHED1
 62
   120
370
     5
100
AcDbLine
 10
546.7142715775444
 20
227.7718566149883
 30
0.0
 11
318.7142715775573
 21
455.7718566149703
 31
0.0
  0
LINE
  5
154
330
1F
100
AcDbEntity
  8
0-0
  6
JWW_DASHED1
 62
   120
370
     5
100
AcDbLine
 10
546.7142715775444
 20
213.6297209926713
 30
0.0
 11
318.7142715775437
 21
441.6297209926694
 31
0.0
  0
LINE
  5
155
330
1F
100
AcDbEntity
  8
0-0
  6
JWW_DASHED1
 62
   120
370
     5
100
AcDbLine
 10
546.7142715775444
 20
199.4875853703542
 30
0.0
 11
318.7142715775471
 21
427.4875853703531
 31
0.0
  0
LINE
  5
156
330
1F
100
AcDbEntity
  8
0-0
  6
JWW_DASHED1
 62
   120
370
     5
100
AcDbLine
 10
546.7142715775478
 20
185.3454497480379
 30
0.0
 11
318.7142715775505
 21
413.3454497480361
 31
0.0
  0
LINE
  5
157
330
1F
100
AcDbEntity
  8
0-0
  6
JWW_DASHED1
 62
   120
370
     5
100
AcDbLine
 10
546.7142715775512
 20
171.2033141257209
 30
0.0
 11
318.7142715775505
 21
399.2033141257181
 31
0.0
  0
LINE
  5
158
330
1F
100
AcDbEntity
  8
0-0
  6
JWW_DASHED1
 62
   120
370
     5
100
AcDbLine
 10
546.7142715775512
 20
157.0611785033518
 30
0.0
 11
318.7142715775539
 21
385.0611785033482
 31
0.0
  0
LINE
  5
159
330
1F
100
AcDbEntity
  8
0-0
  6
JWW_DASHED1
 62
   120
370
     5
100
AcDbLine
 10
546.7142715775444
 20
142.919042881044
 30
0.0
 11
318.7142715775437
 21
370.9190428810422
 31
0.0
  0
LINE
  5
15A
330
1F
100
AcDbEntity
  8
0-0
  6
JWW_DASHED1
 62
   120
370
     5
100
AcDbLine
 10
546.7142715775308
 20
128.7769072587432
 30
0.0
 11
318.7142715775471
 21
356.7769072587259
 31
0.0
  0
LINE
  5
15B
330
1F
100
AcDbEntity
  8
0-0
  6
JWW_DASHED1
 62
   120
370
     5
100
AcDbLine
 10
546.7142715775308
 20
114.6347716364261
 30
0.0
 11
318.7142715775505
 21
342.6347716364089
 31
0.0
  0
LINE
  5
15C
330
1F
100
AcDbEntity
  8
0-0
  6
JWW_DASHED1
 62
   120
370
     5
100
AcDbLine
 10
546.7142715775342
 20
100.4926360141098
 30
0.0
 11
318.7142715775505
 21
328.4926360140909
 31
0.0
  0
LINE
  5
15D
330
1F
100
AcDbEntity
  8
0-0
  6
JWW_DASHED1
 62
   120
370
     5
100
AcDbLine
 10
546.7142715775376
 20
86.35050039179191
 30
0.0
 11
318.7142715775539
 21
314.3505003917755
 31
0.0
  0
LINE
  5
15E
330
1F
100
AcDbEntity
  8
0-0
  6
JWW_DASHED1
 62
   120
370
     5
100
AcDbLine
 10
546.7142715775376
 20
72.20836476947568
 30
0.0
 11
318.7142715775573
 21
300.2083647694585
 31
0.0
  0
LINE
  5
15F
330
1F
100
AcDbEntity
  8
0-0
  6
JWW_DASHED1
 62
   120
370
     5
100
AcDbLine
 10
546.7142715775444
 20
58.06622914715945
 30
0.0
 11
318.7142715775573
 21
286.0662291471414
 31
0.0
  0
LINE
  5
160
330
1F
100
AcDbEntity
  8
0-0
  6
JWW_DASHED1
 62
   120
370
     5
100
AcDbLine
 10
546.7142715775444
 20
43.92409352484236
 30
0.0
 11
318.7142715775437
 21
271.9240935248405
 31
0.0
  0
LINE
  5
161
330
1F
100
AcDbEntity
  8
0-0
  6
JWW_DASHED1
 62
   120
370
     5
100
AcDbLine
 10
546.7142715775444
 20
29.78195790252528
 30
0.0
 11
318.7142715775471
 21
257.7819579025243
 31
0.0
  0
LINE
  5
162
330
1F
100
AcDbEntity
  8
0-0
  6
JWW_DASHED1
 62
   120
370
     5
100
AcDbLine
 10
546.7142715775478
 20
15.63982228020905
 30
0.0
 11
318.7142715775505
 21
243.6398222802072
 31
0.0
  0
LINE
  5
163
330
1F
100
AcDbEntity
  8
0-0
  6
JWW_DASHED1
 62
   120
370
     5
100
AcDbLine
 10
546.7142715775512
 20
1.497686657891961
 30
0.0
 11
318.7142715775505
 21
229.4976866578892
 31
0.0
  0
LINE
  5
164
330
1F
100
AcDbEntity
  8
0-0
  6
JWW_DASHED1
 62
   120
370
     5
100
AcDbLine
 10
546.7142715775512
 20
-12.64444896442512
 30
0.0
 11
318.7142715775539
 21
215.3555510355739
 31
0.0
  0
LINE
  5
165
330
1F
100
AcDbEntity
  8
0-0
  6
JWW_DASHED1
 62
   120
370
     5
100
AcDbLine
 10
546.7142715775478
 20
-26.78658458673283
 30
0.0
 11
318.7142715775505
 21
201.2134154132636
 31
0.0
  0
LINE
  5
166
330
1F
100
AcDbEntity
  8
0-0
  6
JWW_DASHED1
 62
   120
370
     5
100
AcDbLine
 10
546.7142715775478
 20
-40.92872020904991
 30
0.0
 11
318.7142715775505
 21
187.0712797909457
 31
0.0
  0
LINE
  5
167
330
1F
100
AcDbEntity
  8
0-0
  6
JWW_DASHED1
 62
   120
370
     5
100
AcDbLine
 10
546.7142715775444
 20
-55.07085583135932
 30
0.0
 11
318.7142715775437
 21
172.9291441686388
 31
0.0
  0
LINE
  5
168
330
1F
100
AcDbEntity
  8
0-0
  6
JWW_DASHED1
 62
   120
370
     5
100
AcDbLine
 10
546.7142715775308
 20
-69.21299145366021
 30
0.0
 11
318.7142715775471
 21
158.7870085463226
 31
0.0
  0
LINE
  5
169
330
1F
100
AcDbEntity
  8
0-0
  6
JWW_DASHED1
 62
   120
370
     5
100
AcDbLine
 10
546.7142715775308
 20
-83.3551270759773
 30
0.0
 11
318.7142715775505
 21
144.6448729240055
 31
0.0
  0
LINE
  5
16A
330
1F
100
AcDbEntity
  8
0-0
  6
JWW_DASHED1
 62
   120
370
     5
100
AcDbLine
 10
546.7142715775342
 20
-97.49726269829353
 30
0.0
 11
318.7142715775505
 21
130.5027373016875
 31
0.0
  0
LINE
  5
16B
330
1F
100
AcDbEntity
  8
0-0
  6
JWW_DASHED1
 62
   120
370
     5
100
AcDbLine
 10
546.7142715775376
 20
-111.6393983206115
 30
0.0
 11
318.7142715775539
 21
116.3606016793722
 31
0.0
  0
LINE
  5
16C
330
1F
100
AcDbEntity
  8
0-0
  6
JWW_DASHED1
 62
   120
370
     5
100
AcDbLine
 10
546.7142715775376
 20
-125.7815339429277
 30
0.0
 11
318.7142715775573
 21
102.2184660570551
 31
0.0
  0
LINE
  5
16D
330
1F
100
AcDbEntity
  8
0-0
  6
JWW_DASHED1
 62
   120
370
     5
100
AcDbLine
 10
546.7142715775444
 20
-139.9236695652439
 30
0.0
 11
318.7142715775573
 21
88.076330434738
 31
0.0
  0
LINE
  5
16E
330
1F
100
AcDbEntity
  8
0-0
  6
JWW_DASHED1
 62
   120
370
     5
100
AcDbLine
 10
546.7142715775444
 20
-154.0658051875909
 30
0.0
 11
318.7142715775471
 21
73.93419481240812
 31
0.0
  0
LINE
  5
16F
330
1F
100
AcDbEntity
  8
0-0
  6
JWW_DASHED1
 62
   120
370
     5
100
AcDbLine
 10
546.7142715775512
 20
-168.2079408099378
 30
0.0
 11
318.7142715775505
 21
59.79205919006034
 31
0.0
  0
LINE
  5
170
330
1F
100
AcDbEntity
  8
0-0
  6
JWW_DASHED1
 62
   120
370
     5
100
AcDbLine
 10
546.7142715775512
 20
-182.350076432254
 30
0.0
 11
318.7142715775539
 21
45.64992356774496
 31
0.0
  0
LINE
  5
171
330
1F
100
AcDbEntity
  8
0-0
  6
JWW_DASHED1
 62
   120
370
     5
100
AcDbLine
 10
546.7142715775444
 20
-196.4922120545609
 30
0.0
 11
318.7142715775471
 21
31.50778794543555
 31
0.0
  0
LINE
  5
172
330
1F
100
AcDbEntity
  8
0-0
  6
JWW_DASHED1
 62
   120
370
     5
100
AcDbLine
 10
546.7142715775478
 20
-210.634347676878
 30
0.0
 11
318.7142715775505
 21
17.36565232311932
 31
0.0
  0
LINE
  5
173
330
1F
100
AcDbEntity
  8
0-0
  6
JWW_DASHED1
 62
   120
370
     5
100
AcDbLine
 10
546.7142715775444
 20
-224.7764832991882
 30
0.0
 11
318.7142715775437
 21
3.22351670080991
 31
0.0
  0
LINE
  5
174
330
1F
100
AcDbEntity
  8
0-0
  6
JWW_DASHED1
 62
   120
370
     5
100
AcDbLine
 10
546.7142715775444
 20
-238.9186189215053
 30
0.0
 11
318.7142715775471
 21
-10.91861892150632
 31
0.0
  0
LINE
  5
175
330
1F
100
AcDbEntity
  8
0-0
  6
JWW_DASHED1
 62
   120
370
     5
100
AcDbLine
 10
546.7142715775342
 20
-253.0607545438062
 30
0.0
 11
318.7142715775505
 21
-25.06075454382341
 31
0.0
  0
LINE
  5
176
330
1F
100
AcDbEntity
  8
0-0
  6
JWW_DASHED1
 62
   120
370
     5
100
AcDbLine
 10
546.7142715775342
 20
-267.2028901661224
 30
0.0
 11
318.7142715775505
 21
-39.20289016614134
 31
0.0
  0
LINE
  5
177
330
1F
100
AcDbEntity
  8
0-0
  6
JWW_DASHED1
 62
   120
370
     5
100
AcDbLine
 10
546.7142715775376
 20
-281.3450257884404
 30
0.0
 11
318.7142715775539
 21
-53.34502578845672
 31
0.0
  0
LINE
  5
178
330
1F
100
AcDbEntity
  8
0-0
  6
JWW_DASHED1
 62
   120
370
     5
100
AcDbLine
 10
546.7142715775376
 20
-295.4871614107566
 30
0.0
 11
318.7142715775573
 21
-67.48716141077381
 31
0.0
  0
LINE
  5
179
330
1F
100
AcDbEntity
  8
0-0
  6
JWW_DASHED1
 62
   120
370
     5
100
AcDbLine
 10
546.7142715775444
 20
-309.6292970330728
 30
0.0
 11
318.7142715775573
 21
-81.6292970330909
 31
0.0
  0
LINE
  5
17A
330
1F
100
AcDbEntity
  8
0-0
  6
JWW_DASHED1
 62
   120
370
     5
100
AcDbLine
 10
546.7142715775444
 20
-323.7714326553899
 30
0.0
 11
318.7142715775437
 21
-95.77143265539178
 31
0.0
  0
LINE
  5
17B
330
1F
100
AcDbEntity
  8
0-0
  6
JWW_DASHED1
 62
   120
370
     5
100
AcDbLine
 10
546.7142715775478
 20
-337.913568277707
 30
0.0
 11
318.7142715775471
 21
-109.913568277708
 31
0.0
  0
LINE
  5
17C
330
1F
100
AcDbEntity
  8
0-0
  6
JWW_DASHED1
 62
   120
370
     5
100
AcDbLine
 10
546.7142715775478
 20
-352.0557039000232
 30
0.0
 11
318.7142715775505
 21
-124.0557039000251
 31
0.0
  0
LINE
  5
17D
330
1F
100
AcDbEntity
  8
0-0
  6
JWW_DASHED1
 62
   120
370
     5
100
AcDbLine
 10
546.7142715775512
 20
-366.1978395223412
 30
0.0
 11
318.7142715775505
 21
-138.197839522343
 31
0.0
  0
LINE
  5
17E
330
1F
100
AcDbEntity
  8
0-0
  6
JWW_DASHED1
 62
   120
370
     5
100
AcDbLine
 10
546.7142715775512
 20
-380.3399751446574
 30
0.0
 11
318.7142715775539
 21
-152.3399751446584
 31
0.0
  0
LINE
  5
17F
330
1F
100
AcDbEntity
  8
0-0
  6
JWW_DASHED1
 62
   120
370
     5
100
AcDbLine
 10
546.7142715775547
 20
-394.4821107669736
 30
0.0
 11
318.7142715775573
 21
-166.4821107669755
 31
0.0
  0
LINE
  5
180
330
1F
100
AcDbEntity
  8
0-0
  6
JWW_DASHED1
 62
   120
370
     5
100
AcDbLine
 10
546.7142715775478
 20
-408.6242463892796
 30
0.0
 11
318.7142715775505
 21
-180.6242463892823
 31
0.0
  0
LINE
  5
181
330
1F
100
AcDbEntity
  8
0-0
  6
JWW_DASHED1
 62
   120
370
     5
100
AcDbLine
 10
546.7142715775444
 20
-422.7663820115916
 30
0.0
 11
318.7142715775437
 21
-194.7663820115935
 31
0.0
  0
LINE
  5
182
330
1F
100
AcDbEntity
  8
0-0
  6
JWW_DASHED1
 62
   120
370
     5
100
AcDbLine
 10
546.7142715775444
 20
-436.9085176339087
 30
0.0
 11
318.7142715775471
 21
-208.9085176339105
 31
0.0
  0
LINE
  5
183
330
1F
100
AcDbEntity
  8
0-0
  6
JWW_DASHED1
 62
   120
370
     5
100
AcDbLine
 10
546.7142715775342
 20
-451.0506532562096
 30
0.0
 11
318.7142715775505
 21
-223.0506532562268
 31
0.0
  0
LINE
  5
184
330
1F
100
AcDbEntity
  8
0-0
  6
JWW_DASHED1
 62
   120
370
     5
100
AcDbLine
 10
546.7142715775342
 20
-465.1927888785266
 30
0.0
 11
318.7142715775505
 21
-237.1927888785447
 31
0.0
  0
LINE
  5
185
330
1F
100
AcDbEntity
  8
0-0
  6
JWW_DASHED1
 62
   120
370
     5
100
AcDbLine
 10
546.7142715775376
 20
-479.3349245008437
 30
0.0
 11
318.7142715775539
 21
-251.3349245008601
 31
0.0
  0
LINE
  5
186
330
1F
100
AcDbEntity
  8
0-0
  6
JWW_DASHED1
 62
   120
370
     5
100
AcDbLine
 10
546.7142715775444
 20
-493.4770601232188
 30
0.0
 11
318.7142715775437
 21
-265.4770601232207
 31
0.0
  0
LINE
  5
187
330
1F
100
AcDbEntity
  8
0-0
  6
JWW_DASHED1
 62
   120
370
     5
100
AcDbLine
 10
546.7142715775478
 20
-507.6191957455359
 30
0.0
 11
318.7142715775471
 21
-279.6191957455369
 31
0.0
  0
LINE
  5
188
330
1F
100
AcDbEntity
  8
0-0
  6
JWW_DASHED1
 62
   120
370
     5
100
AcDbLine
 10
546.7142715775478
 20
-521.7613313678521
 30
0.0
 11
318.7142715775505
 21
-293.761331367854
 31
0.0
  0
LINE
  5
189
330
1F
100
AcDbEntity
  8
0-0
  6
JWW_DASHED1
 62
   120
370
     5
100
AcDbLine
 10
546.7142715775512
 20
-535.90346699017
 30
0.0
 11
318.7142715775505
 21
-307.9034669901719
 31
0.0
  0
LINE
  5
18A
330
1F
100
AcDbEntity
  8
0-0
  6
JWW_DASHED1
 62
   120
370
     5
100
AcDbLine
 10
546.7142715775512
 20
-550.0456026124863
 30
0.0
 11
318.7142715775539
 21
-322.0456026124873
 31
0.0
  0
LINE
  5
18B
330
1F
100
AcDbEntity
  8
0-0
  6
JWW_DASHED1
 62
   120
370
     5
100
AcDbLine
 10
546.7142715775547
 20
-564.1877382348025
 30
0.0
 11
318.7142715775573
 21
-336.1877382348044
 31
0.0
  0
LINE
  5
18C
330
1F
100
AcDbEntity
  8
0-0
  6
JWW_DASHED1
 62
   120
370
     5
100
AcDbLine
 10
546.7142715775444
 20
-578.3298738571077
 30
0.0
 11
318.7142715775471
 21
-350.3298738571104
 31
0.0
  0
LINE
  5
18D
330
1F
100
AcDbEntity
  8
0-0
  6
JWW_DASHED1
 62
   120
370
     5
100
AcDbLine
 10
546.7142715775444
 20
-592.4720094794204
 30
0.0
 11
318.7142715775437
 21
-364.4720094794224
 31
0.0
  0
LINE
  5
18E
330
1F
100
AcDbEntity
  8
0-0
  6
JWW_DASHED1
 62
   120
370
     5
100
AcDbLine
 10
546.7142715775478
 20
-606.6141451017376
 30
0.0
 11
318.7142715775471
 21
-378.6141451017386
 31
0.0
  0
LINE
  5
18F
330
1F
100
AcDbEntity
  8
0-0
  6
JWW_DASHED1
 62
   120
370
     5
100
AcDbLine
 10
546.7142715775342
 20
-620.7562807240384
 30
0.0
 11
318.7142715775505
 21
-392.7562807240557
 31
0.0
  0
LINE
  5
190
330
1F
100
AcDbEntity
  8
0-0
  6
JWW_DASHED1
 62
   120
370
     5
100
AcDbLine
 10
546.7142715775342
 20
-634.8984163463547
 30
0.0
 11
318.7142715775539
 21
-406.8984163463736
 31
0.0
  0
LINE
  5
191
330
1F
100
AcDbEntity
  8
0-0
  6
JWW_DASHED1
 62
   120
370
     5
100
AcDbLine
 10
546.7142715775376
 20
-649.0405519686726
 30
0.0
 11
318.7142715775539
 21
-421.0405519686898
 31
0.0
  0
LINE
  5
192
330
1F
100
AcDbEntity
  8
0-0
  6
JWW_DASHED1
 62
   120
370
     5
100
AcDbLine
 10
546.714271577541
 20
-663.1826875909888
 30
0.0
 11
318.7142715775573
 21
-435.1826875910061
 31
0.0
  0
LINE
  5
193
330
1F
100
AcDbEntity
  8
0-0
  6
JWW_DASHED1
 62
   120
370
     5
100
AcDbLine
 10
546.7142715775444
 20
-677.3248232133051
 30
0.0
 11
318.7142715775573
 21
-449.3248232133232
 31
0.0
  0
LINE
  5
194
330
1F
100
AcDbEntity
  8
0-0
  6
JWW_DASHED1
 62
   120
370
     5
100
AcDbLine
 10
546.7142715775444
 20
-691.4669588356221
 30
0.0
 11
318.7142715775471
 21
-463.466958835624
 31
0.0
  0
LINE
  5
195
330
1F
100
AcDbEntity
  8
0-0
  6
JWW_DASHED1
 62
   120
370
     5
100
AcDbLine
 10
546.7142715775478
 20
-705.6090944579392
 30
0.0
 11
318.7142715775471
 21
-477.6090944579403
 31
0.0
  0
LINE
  5
196
330
1F
100
AcDbEntity
  8
0-0
  6
JWW_DASHED1
 62
   120
370
     5
100
AcDbLine
 10
546.7142715775478
 20
-719.7512300802555
 30
0.0
 11
318.7142715775505
 21
-491.7512300802574
 31
0.0
  0
LINE
  5
197
330
1F
100
AcDbEntity
  8
0-0
  6
JWW_DASHED1
 62
   120
370
     5
100
AcDbLine
 10
546.7142715775512
 20
-733.8933657025734
 30
0.0
 11
318.7142715775539
 21
-505.8933657025753
 31
0.0
  0
LINE
  5
198
330
1F
100
AcDbEntity
  8
0-0
  6
JWW_DASHED1
 62
   120
370
     5
100
AcDbLine
 10
546.7142715775547
 20
-748.0355013248897
 30
0.0
 11
318.7142715775539
 21
-520.0355013248907
 31
0.0
  0
LINE
  5
199
330
1F
100
AcDbEntity
  8
0-0
  6
JWW_DASHED1
 62
   120
370
     5
100
AcDbLine
 10
546.7142715775547
 20
-762.1776369472068
 30
0.0
 11
318.7142715775573
 21
-534.1776369472077
 31
0.0
  0
LINE
  5
19A
330
1F
100
AcDbEntity
  8
0-0
  6
JWW_DASHED1
 62
   120
370
     5
100
AcDbLine
 10
546.7142715775444
 20
-776.3197725695102
 30
0.0
 11
318.7142715775471
 21
-548.3197725695129
 31
0.0
  0
LINE
  5
19B
330
1F
100
AcDbEntity
  8
0-0
  6
JWW_DASHED1
 62
   120
370
     5
100
AcDbLine
 10
546.7142715775444
 20
-790.4619081918247
 30
0.0
 11
318.7142715775471
 21
-562.4619081918257
 31
0.0
  0
LINE
  5
19C
330
1F
100
AcDbEntity
  8
0-0
  6
JWW_DASHED1
 62
   120
370
     5
100
AcDbLine
 10
546.7142715775478
 20
-804.6040438141409
 30
0.0
 11
318.7142715775471
 21
-576.6040438141429
 31
0.0
  0
LINE
  5
19D
330
1F
100
AcDbEntity
  8
0-0
  6
JWW_DASHED1
 62
   120
370
     5
100
AcDbLine
 10
546.7142715775342
 20
-818.7461794364418
 30
0.0
 11
318.7142715775505
 21
-590.746179436459
 31
0.0
  0
LINE
  5
19E
330
1F
100
AcDbEntity
  8
0-0
  6
JWW_DASHED1
 62
   120
370
     5
100
AcDbLine
 10
546.7142715775342
 20
-832.888315058759
 30
0.0
 11
318.7142715775539
 21
-604.8883150587769
 31
0.0
  0
LINE
  5
19F
330
1F
100
AcDbEntity
  8
0-0
  6
JWW_DASHED1
 62
   120
370
     5
100
AcDbLine
 10
546.7142715775376
 20
-847.030450681076
 30
0.0
 11
318.7142715775539
 21
-619.0304506810924
 31
0.0
  0
LINE
  5
1A0
330
1F
100
AcDbEntity
  8
0-0
  6
JWW_DASHED1
 62
   120
370
     5
100
AcDbLine
 10
546.7142715775444
 20
-861.172586303451
 30
0.0
 11
318.7142715775471
 21
-633.1725863034529
 31
0.0
  0
LINE
  5
1A1
330
1F
100
AcDbEntity
  8
0-0
  6
JWW_DASHED1
 62
   120
370
     5
100
AcDbLine
 10
546.7142715775478
 20
-875.3147219257681
 30
0.0
 11
318.7142715775471
 21
-647.3147219257692
 31
0.0
  0
LINE
  5
1A2
330
1F
100
AcDbEntity
  8
0-0
  6
JWW_DASHED1
 62
   120
370
     5
100
AcDbLine
 10
546.7142715775478
 20
-889.4568575480844
 30
0.0
 11
318.7142715775505
 21
-661.4568575480862
 31
0.0
  0
LINE
  5
1A3
330
1F
100
AcDbEntity
  8
0-0
  6
JWW_DASHED1
 62
   120
370
     5
100
AcDbLine
 10
546.7142715775512
 20
-903.5989931704028
 30
0.0
 11
318.7142715775539
 21
-675.5989931704033
 31
0.0
  0
LINE
  5
1A4
330
1F
100
AcDbEntity
  8
0-0
  6
JWW_DASHED1
 62
   120
370
     5
100
AcDbLine
 10
546.7142715775547
 20
-917.741128792719
 30
0.0
 11
318.7142715775539
 21
-689.7411287927196
 31
0.0
  0
LINE
  5
1A5
330
1F
100
AcDbEntity
  8
0-0
  6
JWW_DASHED1
 62
   120
370
     5
100
AcDbLine
 10
546.7142715775547
 20
-931.8832644150352
 30
0.0
 11
318.7142715775573
 21
-703.8832644150366
 31
0.0
  0
LINE
  5
1A6
330
1F
100
AcDbEntity
  8
0-0
  6
JWW_DASHED1
 62
   120
370
     5
100
AcDbLine
 10
546.7142715775444
 20
-946.0254000373378
 30
0.0
 11
318.7142715775471
 21
-718.0254000373401
 31
0.0
  0
LINE
  5
1A7
330
1F
100
AcDbEntity
  8
0-0
  6
JWW_DASHED1
 62
   120
370
     5
100
AcDbLine
 10
546.7142715775444
 20
-960.167535659654
 30
0.0
 11
318.7142715775471
 21
-732.1675356596546
 31
0.0
  0
LINE
  5
1A8
330
1F
100
AcDbEntity
  8
0-0
  6
JWW_DASHED1
 62
   120
370
     5
100
AcDbLine
 10
546.7142715775478
 20
-974.3096712819703
 30
0.0
 11
318.7142715775471
 21
-746.3096712819718
 31
0.0
  0
LINE
  5
1A9
330
1F
100
AcDbEntity
  8
0-0
  6
JWW_DASHED1
 62
   120
370
     5
100
AcDbLine
 10
546.7142715775342
 20
-988.4518069042712
 30
0.0
 11
318.7142715775505
 21
-760.4518069042888
 31
0.0
  0
LINE
  5
1AA
330
1F
100
AcDbEntity
  8
0-0
  6
JWW_DASHED1
 62
   120
370
     5
100
AcDbLine
 10
546.7142715775342
 20
-1002.593942526588
 30
0.0
 11
318.7142715775539
 21
-774.593942526605
 31
0.0
  0
LINE
  5
1AB
330
1F
100
AcDbEntity
  8
0-0
  6
JWW_DASHED1
 62
   120
370
     5
100
AcDbLine
 10
546.7142715775376
 20
-1016.736078148905
 30
0.0
 11
318.7142715775539
 21
-788.7360781489213
 31
0.0
  0
LINE
  5
1AC
330
1F
100
AcDbEntity
  8
0-0
  6
JWW_DASHED1
 62
   120
370
     5
100
AcDbLine
 10
546.714271577541
 20
-1030.878213771221
 30
0.0
 11
318.7142715775573
 21
-802.8782137712392
 31
0.0
  0
LINE
  5
1AD
330
1F
100
AcDbEntity
  8
0-0
  6
JWW_DASHED1
 62
   120
370
     5
100
AcDbLine
 10
546.7142715775444
 20
-1045.020349393538
 30
0.0
 11
318.7142715775607
 21
-817.0203493935554
 31
0.0
  0
LINE
  5
1AE
330
1F
100
AcDbEntity
  8
0-0
  6
JWW_DASHED1
 62
   120
370
     5
100
AcDbLine
 10
546.7142715775444
 20
-1059.162485015855
 30
0.0
 11
318.7142715775607
 21
-831.1624850158726
 31
0.0
  0
LINE
  5
1AF
330
1F
100
AcDbEntity
  8
0-0
  6
JWW_DASHED1
 62
   120
370
     5
100
AcDbLine
 10
546.7142715775478
 20
-1073.304620638171
 30
0.0
 11
318.7142715775471
 21
-845.3046206381725
 31
0.0
  0
LINE
  5
1B0
330
1F
100
AcDbEntity
  8
0-0
  6
JWW_DASHED1
 62
   120
370
     5
100
AcDbLine
 10
546.7142715775478
 20
-1087.446756260489
 30
0.0
 11
318.7142715775505
 21
-859.4467562604905
 31
0.0
  0
LINE
  5
1B1
330
1F
100
AcDbEntity
  8
0-0
  6
JWW_DASHED1
 62
   120
370
     5
100
AcDbLine
 10
546.7142715775512
 20
-1101.588891882807
 30
0.0
 11
318.7142715775539
 21
-873.5888918828067
 31
0.0
  0
LINE
  5
1B2
330
1F
100
AcDbEntity
  8
0-0
  6
Continuous
 62
     7
370
     9
100
AcDbLine
 10
-263.2857284224522
 20
-1105.298359187499
 30
0.0
 11
-491.2857284224529
 21
-1105.298359187499
 31
0.0
  0
LINE
  5
1B3
330
1F
100
AcDbEntity
  8
0-0
  6
Continuous
 62
    92
370
    13
100
AcDbLine
 10
-263.2857284224522
 20
1224.701640812502
 30
0.0
 11
-263.2857284224522
 21
-1135.298359187499
 31
0.0
  0
LINE
  5
1B4
330
1F
100
AcDbEntity
  8
0-0
  6
Continuous
 62
    92
370
    13
100
AcDbLine
 10
-491.2857284224529
 20
1224.701640812502
 30
0.0
 11
-491.2857284224529
 21
-1135.298359187499
 31
0.0
  0
LINE
  5
1B5
330
1F
100
AcDbEntity
  8
0-0
  6
Continuous
 62
     7
370
     9
100
AcDbLine
 10
-263.2857284224522
 20
1216.701640812501
 30
0.0
 11
-491.2857284224529
 21
1216.701640812501
 31
0.0
  0
LINE
  5
1B6
330
1F
100
AcDbEntity
  8
0-0
  6
JWW_DASHED1
 62
   120
370
     5
100
AcDbLine
 10
-287.8605323623836
 20
-1105.298359187499
 30
0.0
 11
-491.2857284224427
 21
-901.8731631274413
 31
0.0
  0
LINE
  5
1B7
330
1F
100
AcDbEntity
  8
0-0
  6
JWW_DASHED1
 62
   120
370
     5
100
AcDbLine
 10
-302.0026679846981
 20
-1105.298359187499
 30
0.0
 11
-491.2857284224563
 21
-916.015298749743
 31
0.0
  0
LINE
  5
1B8
330
1F
100
AcDbEntity
  8
0-0
  6
JWW_DASHED1
 62
   120
370
     5
100
AcDbLine
 10
-316.1448036070126
 20
-1105.298359187499
 30
0.0
 11
-491.2857284224529
 21
-930.1574343720584
 31
0.0
  0
LINE
  5
1B9
330
1F
100
AcDbEntity
  8
0-0
  6
JWW_DASHED1
 62
   120
370
     5
100
AcDbLine
 10
-330.2869392293272
 20
-1105.298359187499
 30
0.0
 11
-491.2857284224529
 21
-944.2995699943755
 31
0.0
  0
LINE
  5
1BA
330
1F
100
AcDbEntity
  8
0-0
  6
JWW_DASHED1
 62
   120
370
     5
100
AcDbLine
 10
-344.4290748516417
 20
-1105.298359187499
 30
0.0
 11
-491.2857284224495
 21
-958.4417056166926
 31
0.0
  0
LINE
  5
1BB
330
1F
100
AcDbEntity
  8
0-0
  6
JWW_DASHED1
 62
   120
370
     5
100
AcDbLine
 10
-358.5712104739562
 20
-1105.298359187499
 30
0.0
 11
-491.2857284224461
 21
-972.5838412390088
 31
0.0
  0
LINE
  5
1BC
330
1F
100
AcDbEntity
  8
0-0
  6
JWW_DASHED1
 62
   120
370
     5
100
AcDbLine
 10
-372.7133460962708
 20
-1105.298359187499
 30
0.0
 11
-491.2857284224461
 21
-986.7259768613259
 31
0.0
  0
LINE
  5
1BD
330
1F
100
AcDbEntity
  8
0-0
  6
JWW_DASHED1
 62
   120
370
     5
100
AcDbLine
 10
-386.8554817186399
 20
-1105.298359187499
 30
0.0
 11
-491.2857284224393
 21
-1000.868112483702
 31
0.0
  0
LINE
  5
1BE
330
1F
100
AcDbEntity
  8
0-0
  6
JWW_DASHED1
 62
   120
370
     5
100
AcDbLine
 10
-400.9976173409544
 20
-1105.298359187499
 30
0.0
 11
-491.2857284224529
 21
-1015.010248106002
 31
0.0
  0
LINE
  5
1BF
330
1F
100
AcDbEntity
  8
0-0
  6
JWW_DASHED1
 62
   120
370
     5
100
AcDbLine
 10
-415.1397529632689
 20
-1105.298359187499
 30
0.0
 11
-491.2857284224495
 21
-1029.152383728319
 31
0.0
  0
LINE
  5
1C0
330
1F
100
AcDbEntity
  8
0-0
  6
JWW_DASHED1
 62
   120
370
     5
100
AcDbLine
 10
-429.2818885855834
 20
-1105.298359187499
 30
0.0
 11
-491.2857284224461
 21
-1043.294519350636
 31
0.0
  0
LINE
  5
1C1
330
1F
100
AcDbEntity
  8
0-0
  6
JWW_DASHED1
 62
   120
370
     5
100
AcDbLine
 10
-443.424024207898
 20
-1105.298359187499
 30
0.0
 11
-491.2857284224461
 21
-1057.436654972953
 31
0.0
  0
LINE
  5
1C2
330
1F
100
AcDbEntity
  8
0-0
  6
JWW_DASHED1
 62
   120
370
     5
100
AcDbLine
 10
-457.5661598302125
 20
-1105.298359187499
 30
0.0
 11
-491.2857284224427
 21
-1071.57879059527
 31
0.0
  0
LINE
  5
1C3
330
1F
100
AcDbEntity
  8
0-0
  6
JWW_DASHED1
 62
   120
370
     5
100
AcDbLine
 10
-471.708295452527
 20
-1105.298359187499
 30
0.0
 11
-491.2857284224563
 21
-1085.720926217571
 31
0.0
  0
LINE
  5
1C4
330
1F
100
AcDbEntity
  8
0-0
  6
JWW_DASHED1
 62
   120
370
     5
100
AcDbLine
 10
-485.8504310748415
 20
-1105.298359187499
 30
0.0
 11
-491.2857284224529
 21
-1099.863061839887
 31
0.0
  0
LINE
  5
1C5
330
1F
100
AcDbEntity
  8
0-0
  6
JWW_DASHED1
 62
   120
370
     5
100
AcDbLine
 10
-273.7183967400691
 20
-1105.298359187499
 30
0.0
 11
-491.2857284224461
 21
-887.7310275051238
 31
0.0
  0
LINE
  5
1C6
330
1F
100
AcDbEntity
  8
0-0
  6
JWW_DASHED1
 62
   120
370
     5
100
AcDbLine
 10
-263.2857284224693
 20
1203.579214554865
 30
0.0
 11
-276.408154680087
 21
1216.701640812482
 31
0.0
  0
LINE
  5
1C7
330
1F
100
AcDbEntity
  8
0-0
  6
JWW_DASHED1
 62
   120
370
     5
100
AcDbLine
 10
-263.2857284224693
 20
1189.43707893255
 30
0.0
 11
-290.5502903024049
 21
1216.701640812486
 31
0.0
  0
LINE
  5
1C8
330
1F
100
AcDbEntity
  8
0-0
  6
JWW_DASHED1
 62
   120
370
     5
100
AcDbLine
 10
-263.2857284224659
 20
1175.294943310232
 30
0.0
 11
-304.6924259247228
 21
1216.701640812489
 31
0.0
  0
LINE
  5
1C9
330
1F
100
AcDbEntity
  8
0-0
  6
JWW_DASHED1
 62
   120
370
     5
100
AcDbLine
 10
-263.2857284224625
 20
1161.152807687916
 30
0.0
 11
-318.8345615470408
 21
1216.701640812493
 31
0.0
  0
LINE
  5
1CA
330
1F
100
AcDbEntity
  8
0-0
  6
JWW_DASHED1
 62
   120
370
     5
100
AcDbLine
 10
-263.2857284224625
 20
1147.010672065598
 30
0.0
 11
-332.9766971693587
 21
1216.701640812496
 31
0.0
  0
LINE
  5
1CB
330
1F
100
AcDbEntity
  8
0-0
  6
JWW_DASHED1
 62
   120
370
     5
100
AcDbLine
 10
-263.2857284224556
 20
1132.868536443224
 30
0.0
 11
-347.1188327917312
 21
1216.701640812499
 31
0.0
  0
LINE
  5
1CC
330
1F
100
AcDbEntity
  8
0-0
  6
JWW_DASHED1
 62
   120
370
     5
100
AcDbLine
 10
-263.2857284224522
 20
1118.726400820906
 30
0.0
 11
-361.2609684140457
 21
1216.701640812501
 31
0.0
  0
LINE
  5
1CD
330
1F
100
AcDbEntity
  8
0-0
  6
JWW_DASHED1
 62
   120
370
     5
100
AcDbLine
 10
-263.2857284224488
 20
1104.584265198589
 30
0.0
 11
-375.4031040363637
 21
1216.701640812503
 31
0.0
  0
LINE
  5
1CE
330
1F
100
AcDbEntity
  8
0-0
  6
JWW_DASHED1
 62
   120
370
     5
100
AcDbLine
 10
-263.2857284224488
 20
1090.442129576273
 30
0.0
 11
-389.5452396586816
 21
1216.701640812506
 31
0.0
  0
LINE
  5
1CF
330
1F
100
AcDbEntity
  8
0-0
  6
JWW_DASHED1
 62
   120
370
     5
100
AcDbLine
 10
-263.2857284224454
 20
1076.299993953955
 30
0.0
 11
-403.6873752809962
 21
1216.701640812508
 31
0.0
  0
LINE
  5
1D0
330
1F
100
AcDbEntity
  8
0-0
  6
JWW_DASHED1
 62
   120
370
     5
100
AcDbLine
 10
-263.2857284224556
 20
1062.157858331655
 30
0.0
 11
-417.8295109033004
 21
1216.701640812494
 31
0.0
  0
LINE
  5
1D1
330
1F
100
AcDbEntity
  8
0-0
  6
JWW_DASHED1
 62
   120
370
     5
100
AcDbLine
 10
-263.2857284224556
 20
1048.015722709337
 30
0.0
 11
-431.971646525615
 21
1216.701640812496
 31
0.0
  0
LINE
  5
1D2
330
1F
100
AcDbEntity
  8
0-0
  6
JWW_DASHED1
 62
   120
370
     5
100
AcDbLine
 10
-263.2857284224693
 20
1033.873587087036
 30
0.0
 11
-446.1137821479295
 21
1216.701640812496
 31
0.0
  0
LINE
  5
1D3
330
1F
100
AcDbEntity
  8
0-0
  6
JWW_DASHED1
 62
   120
370
     5
100
AcDbLine
 10
-263.2857284224693
 20
1019.731451464721
 30
0.0
 11
-460.2559177702474
 21
1216.701640812499
 31
0.0
  0
LINE
  5
1D4
330
1F
100
AcDbEntity
  8
0-0
  6
JWW_DASHED1
 62
   120
370
     5
100
AcDbLine
 10
-263.2857284224659
 20
1005.589315842403
 30
0.0
 11
-474.3980533925654
 21
1216.701640812503
 31
0.0
  0
LINE
  5
1D5
330
1F
100
AcDbEntity
  8
0-0
  6
JWW_DASHED1
 62
   120
370
     5
100
AcDbLine
 10
-263.2857284224625
 20
991.447180220087
 30
0.0
 11
-488.5401890148833
 21
1216.701640812506
 31
0.0
  0
LINE
  5
1D6
330
1F
100
AcDbEntity
  8
0-0
  6
JWW_DASHED1
 62
   120
370
     5
100
AcDbLine
 10
-263.2857284224625
 20
977.3050445977691
 30
0.0
 11
-491.2857284224427
 21
1205.305044597753
 31
0.0
  0
LINE
  5
1D7
330
1F
100
AcDbEntity
  8
0-0
  6
JWW_DASHED1
 62
   120
370
     5
100
AcDbLine
 10
-263.2857284224556
 20
963.1629089754529
 30
0.0
 11
-491.2857284224427
 21
1191.162908975436
 31
0.0
  0
LINE
  5
1D8
330
1F
100
AcDbEntity
  8
0-0
  6
JWW_DASHED1
 62
   120
370
     5
100
AcDbLine
 10
-263.2857284224556
 20
949.0207733531349
 30
0.0
 11
-491.2857284224563
 21
1177.020773353134
 31
0.0
  0
LINE
  5
1D9
330
1F
100
AcDbEntity
  8
0-0
  6
JWW_DASHED1
 62
   120
370
     5
100
AcDbLine
 10
-263.2857284224556
 20
934.8786377308187
 30
0.0
 11
-491.2857284224529
 21
1162.878637730818
 31
0.0
  0
LINE
  5
1DA
330
1F
100
AcDbEntity
  8
0-0
  6
JWW_DASHED1
 62
   120
370
     5
100
AcDbLine
 10
-263.2857284224522
 20
920.7365021085025
 30
0.0
 11
-491.2857284224495
 21
1148.736502108502
 31
0.0
  0
LINE
  5
1DB
330
1F
100
AcDbEntity
  8
0-0
  6
JWW_DASHED1
 62
   120
370
     5
100
AcDbLine
 10
-263.2857284224488
 20
906.5943664861862
 30
0.0
 11
-491.2857284224495
 21
1134.594366486185
 31
0.0
  0
LINE
  5
1DC
330
1F
100
AcDbEntity
  8
0-0
  6
JWW_DASHED1
 62
   120
370
     5
100
AcDbLine
 10
-263.2857284224488
 20
892.4522308638683
 30
0.0
 11
-491.2857284224461
 21
1120.452230863867
 31
0.0
  0
LINE
  5
1DD
330
1F
100
AcDbEntity
  8
0-0
  6
JWW_DASHED1
 62
   120
370
     5
100
AcDbLine
 10
-263.2857284224488
 20
878.3100952415538
 30
0.0
 11
-491.2857284224461
 21
1106.310095241551
 31
0.0
  0
LINE
  5
1DE
330
1F
100
AcDbEntity
  8
0-0
  6
JWW_DASHED1
 62
   120
370
     5
100
AcDbLine
 10
-263.2857284224556
 20
864.1679596192512
 30
0.0
 11
-491.2857284224563
 21
1092.16795961925
 31
0.0
  0
LINE
  5
1DF
330
1F
100
AcDbEntity
  8
0-0
  6
JWW_DASHED1
 62
   120
370
     5
100
AcDbLine
 10
-263.2857284224556
 20
850.0258239969342
 30
0.0
 11
-491.2857284224563
 21
1078.025823996934
 31
0.0
  0
LINE
  5
1E0
330
1F
100
AcDbEntity
  8
0-0
  6
JWW_DASHED1
 62
   120
370
     5
100
AcDbLine
 10
-263.2857284224693
 20
835.8836883746333
 30
0.0
 11
-491.2857284224529
 21
1063.883688374616
 31
0.0
  0
LINE
  5
1E1
330
1F
100
AcDbEntity
  8
0-0
  6
JWW_DASHED1
 62
   120
370
     5
100
AcDbLine
 10
-263.2857284224693
 20
821.7415527523161
 30
0.0
 11
-491.2857284224495
 21
1049.741552752298
 31
0.0
  0
LINE
  5
1E2
330
1F
100
AcDbEntity
  8
0-0
  6
JWW_DASHED1
 62
   120
370
     5
100
AcDbLine
 10
-263.2857284224625
 20
807.599417129941
 30
0.0
 11
-491.2857284224427
 21
1035.599417129924
 31
0.0
  0
LINE
  5
1E3
330
1F
100
AcDbEntity
  8
0-0
  6
JWW_DASHED1
 62
   120
370
     5
100
AcDbLine
 10
-263.2857284224556
 20
793.457281507624
 30
0.0
 11
-491.2857284224427
 21
1021.457281507608
 31
0.0
  0
LINE
  5
1E4
330
1F
100
AcDbEntity
  8
0-0
  6
JWW_DASHED1
 62
   120
370
     5
100
AcDbLine
 10
-263.2857284224556
 20
779.315145885307
 30
0.0
 11
-491.2857284224563
 21
1007.315145885307
 31
0.0
  0
LINE
  5
1E5
330
1F
100
AcDbEntity
  8
0-0
  6
JWW_DASHED1
 62
   120
370
     5
100
AcDbLine
 10
-263.2857284224556
 20
765.1730102629898
 30
0.0
 11
-491.2857284224529
 21
993.1730102629888
 31
0.0
  0
LINE
  5
1E6
330
1F
100
AcDbEntity
  8
0-0
  6
JWW_DASHED1
 62
   120
370
     5
100
AcDbLine
 10
-263.2857284224522
 20
751.0308746406736
 30
0.0
 11
-491.2857284224495
 21
979.0308746406708
 31
0.0
  0
LINE
  5
1E7
330
1F
100
AcDbEntity
  8
0-0
  6
JWW_DASHED1
 62
   120
370
     5
100
AcDbLine
 10
-263.2857284224488
 20
736.8887390183556
 30
0.0
 11
-491.2857284224495
 21
964.8887390183546
 31
0.0
  0
LINE
  5
1E8
330
1F
100
AcDbEntity
  8
0-0
  6
JWW_DASHED1
 62
   120
370
     5
100
AcDbLine
 10
-263.2857284224488
 20
722.7466033960394
 30
0.0
 11
-491.2857284224461
 21
950.7466033960384
 31
0.0
  0
LINE
  5
1E9
330
1F
100
AcDbEntity
  8
0-0
  6
JWW_DASHED1
 62
   120
370
     5
100
AcDbLine
 10
-263.2857284224488
 20
708.6044677737257
 30
0.0
 11
-491.2857284224461
 21
936.6044677737239
 31
0.0
  0
LINE
  5
1EA
330
1F
100
AcDbEntity
  8
0-0
  6
JWW_DASHED1
 62
   120
370
     5
100
AcDbLine
 10
-263.2857284224454
 20
694.4623321514104
 30
0.0
 11
-491.2857284224427
 21
922.4623321514059
 31
0.0
  0
LINE
  5
1EB
330
1F
100
AcDbEntity
  8
0-0
  6
JWW_DASHED1
 62
   120
370
     5
100
AcDbLine
 10
-263.2857284224556
 20
680.3201965291053
 30
0.0
 11
-491.2857284224563
 21
908.320196529105
 31
0.0
  0
LINE
  5
1EC
330
1F
100
AcDbEntity
  8
0-0
  6
JWW_DASHED1
 62
   120
370
     5
100
AcDbLine
 10
-263.2857284224693
 20
666.1780609068044
 30
0.0
 11
-491.2857284224529
 21
894.1780609067871
 31
0.0
  0
LINE
  5
1ED
330
1F
100
AcDbEntity
  8
0-0
  6
JWW_DASHED1
 62
   120
370
     5
100
AcDbLine
 10
-263.2857284224693
 20
652.0359252844872
 30
0.0
 11
-491.2857284224495
 21
880.0359252844692
 31
0.0
  0
LINE
  5
1EE
330
1F
100
AcDbEntity
  8
0-0
  6
JWW_DASHED1
 62
   120
370
     5
100
AcDbLine
 10
-263.2857284224659
 20
637.893789662171
 30
0.0
 11
-491.2857284224495
 21
865.8937896621529
 31
0.0
  0
LINE
  5
1EF
330
1F
100
AcDbEntity
  8
0-0
  6
JWW_DASHED1
 62
   120
370
     5
100
AcDbLine
 10
-263.2857284224625
 20
623.7516540398531
 30
0.0
 11
-491.2857284224461
 21
851.7516540398367
 31
0.0
  0
LINE
  5
1F0
330
1F
100
AcDbEntity
  8
0-0
  6
JWW_DASHED1
 62
   120
370
     5
100
AcDbLine
 10
-263.2857284224625
 20
609.6095184175376
 30
0.0
 11
-491.2857284224427
 21
837.6095184175197
 31
0.0
  0
LINE
  5
1F1
330
1F
100
AcDbEntity
  8
0-0
  6
JWW_DASHED1
 62
   120
370
     5
100
AcDbLine
 10
-263.2857284224556
 20
595.4673827952206
 30
0.0
 11
-491.2857284224427
 21
823.4673827952033
 31
0.0
  0
LINE
  5
1F2
330
1F
100
AcDbEntity
  8
0-0
  6
JWW_DASHED1
 62
   120
370
     5
100
AcDbLine
 10
-263.2857284224556
 20
581.3252471729036
 30
0.0
 11
-491.2857284224563
 21
809.3252471729016
 31
0.0
  0
LINE
  5
1F3
330
1F
100
AcDbEntity
  8
0-0
  6
JWW_DASHED1
 62
   120
370
     5
100
AcDbLine
 10
-263.2857284224556
 20
567.1831115505864
 30
0.0
 11
-491.2857284224529
 21
795.1831115505854
 31
0.0
  0
LINE
  5
1F4
330
1F
100
AcDbEntity
  8
0-0
  6
JWW_DASHED1
 62
   120
370
     5
100
AcDbLine
 10
-263.2857284224522
 20
553.0409759282702
 30
0.0
 11
-491.2857284224495
 21
781.0409759282684
 31
0.0
  0
LINE
  5
1F5
330
1F
100
AcDbEntity
  8
0-0
  6
JWW_DASHED1
 62
   120
370
     5
100
AcDbLine
 10
-263.2857284224488
 20
538.8988403059523
 30
0.0
 11
-491.2857284224495
 21
766.8988403059504
 31
0.0
  0
LINE
  5
1F6
330
1F
100
AcDbEntity
  8
0-0
  6
JWW_DASHED1
 62
   120
370
     5
100
AcDbLine
 10
-263.2857284224488
 20
524.7567046836368
 30
0.0
 11
-491.2857284224461
 21
752.756704683635
 31
0.0
  0
LINE
  5
1F7
330
1F
100
AcDbEntity
  8
0-0
  6
JWW_DASHED1
 62
   120
370
     5
100
AcDbLine
 10
-263.2857284224488
 20
510.6145690613232
 30
0.0
 11
-491.2857284224461
 21
738.6145690613205
 31
0.0
  0
LINE
  5
1F8
330
1F
100
AcDbEntity
  8
0-0
  6
JWW_DASHED1
 62
   120
370
     5
100
AcDbLine
 10
-263.2857284224488
 20
496.4724334390078
 30
0.0
 11
-491.2857284224461
 21
724.4724334390042
 31
0.0
  0
LINE
  5
1F9
330
1F
100
AcDbEntity
  8
0-0
  6
JWW_DASHED1
 62
   120
370
     5
100
AcDbLine
 10
-263.2857284224693
 20
482.3302978166583
 30
0.0
 11
-491.2857284224495
 21
710.3302978166412
 31
0.0
  0
LINE
  5
1FA
330
1F
100
AcDbEntity
  8
0-0
  6
JWW_DASHED1
 62
   120
370
     5
100
AcDbLine
 10
-263.2857284224659
 20
468.1881621943421
 30
0.0
 11
-491.2857284224495
 21
696.1881621943248
 31
0.0
  0
LINE
  5
1FB
330
1F
100
AcDbEntity
  8
0-0
  6
JWW_DASHED1
 62
   120
370
     5
100
AcDbLine
 10
-263.2857284224625
 20
454.0460265720242
 30
0.0
 11
-491.2857284224461
 21
682.0460265720078
 31
0.0
  0
LINE
  5
1FC
330
1F
100
AcDbEntity
  8
0-0
  6
JWW_DASHED1
 62
   120
370
     5
100
AcDbLine
 10
-263.2857284224625
 20
439.9038909497088
 30
0.0
 11
-491.2857284224427
 21
667.9038909496908
 31
0.0
  0
LINE
  5
1FD
330
1F
100
AcDbEntity
  8
0-0
  6
JWW_DASHED1
 62
   120
370
     5
100
AcDbLine
 10
-263.2857284224556
 20
425.7617553273917
 30
0.0
 11
-491.2857284224427
 21
653.7617553273744
 31
0.0
  0
LINE
  5
1FE
330
1F
100
AcDbEntity
  8
0-0
  6
JWW_DASHED1
 62
   120
370
     5
100
AcDbLine
 10
-263.2857284224556
 20
411.6196197050746
 30
0.0
 11
-491.2857284224563
 21
639.6196197050735
 31
0.0
  0
LINE
  5
1FF
330
1F
100
AcDbEntity
  8
0-0
  6
JWW_DASHED1
 62
   120
370
     5
100
AcDbLine
 10
-263.2857284224556
 20
397.4774840827575
 30
0.0
 11
-491.2857284224529
 21
625.4774840827565
 31
0.0
  0
LINE
  5
200
330
1F
100
AcDbEntity
  8
0-0
  6
JWW_DASHED1
 62
   120
370
     5
100
AcDbLine
 10
-263.2857284224522
 20
383.3353484604413
 30
0.0
 11
-491.2857284224495
 21
611.3353484604395
 31
0.0
  0
LINE
  5
201
330
1F
100
AcDbEntity
  8
0-0
  6
JWW_DASHED1
 62
   120
370
     5
100
AcDbLine
 10
-263.2857284224488
 20
369.1932128381234
 30
0.0
 11
-491.2857284224495
 21
597.1932128381231
 31
0.0
  0
LINE
  5
202
330
1F
100
AcDbEntity
  8
0-0
  6
JWW_DASHED1
 62
   120
370
     5
100
AcDbLine
 10
-263.2857284224488
 20
355.051077215808
 30
0.0
 11
-491.2857284224461
 21
583.0510772158061
 31
0.0
  0
LINE
  5
203
330
1F
100
AcDbEntity
  8
0-0
  6
JWW_DASHED1
 62
   120
370
     5
100
AcDbLine
 10
-263.2857284224522
 20
340.9089415934969
 30
0.0
 11
-491.2857284224495
 21
568.9089415934925
 31
0.0
  0
LINE
  5
204
330
1F
100
AcDbEntity
  8
0-0
  6
JWW_DASHED1
 62
   120
370
     5
100
AcDbLine
 10
-263.2857284224488
 20
326.7668059711789
 30
0.0
 11
-491.2857284224461
 21
554.7668059711771
 31
0.0
  0
LINE
  5
205
330
1F
100
AcDbEntity
  8
0-0
  6
JWW_DASHED1
 62
   120
370
     5
100
AcDbLine
 10
-263.2857284224556
 20
312.6246703488729
 30
0.0
 11
-491.2857284224563
 21
540.6246703488711
 31
0.0
  0
LINE
  5
206
330
1F
100
AcDbEntity
  8
0-0
  6
JWW_DASHED1
 62
   120
370
     5
100
AcDbLine
 10
-263.2857284224693
 20
298.4825347265721
 30
0.0
 11
-491.2857284224529
 21
526.4825347265548
 31
0.0
  0
LINE
  5
207
330
1F
100
AcDbEntity
  8
0-0
  6
JWW_DASHED1
 62
   120
370
     5
100
AcDbLine
 10
-263.2857284224693
 20
284.340399104255
 30
0.0
 11
-491.2857284224495
 21
512.3403991042378
 31
0.0
  0
LINE
  5
208
330
1F
100
AcDbEntity
  8
0-0
  6
JWW_DASHED1
 62
   120
370
     5
100
AcDbLine
 10
-263.2857284224659
 20
270.1982634819387
 30
0.0
 11
-491.2857284224495
 21
498.1982634819198
 31
0.0
  0
LINE
  5
209
330
1F
100
AcDbEntity
  8
0-0
  6
JWW_DASHED1
 62
   120
370
     5
100
AcDbLine
 10
-263.2857284224625
 20
256.0561278596208
 30
0.0
 11
-491.2857284224461
 21
484.0561278596044
 31
0.0
  0
LINE
  5
20A
330
1F
100
AcDbEntity
  8
0-0
  6
JWW_DASHED1
 62
   120
370
     5
100
AcDbLine
 10
-263.2857284224625
 20
241.9139922373046
 30
0.0
 11
-491.2857284224427
 21
469.9139922372873
 31
0.0
  0
LINE
  5
20B
330
1F
100
AcDbEntity
  8
0-0
  6
JWW_DASHED1
 62
   120
370
     5
100
AcDbLine
 10
-263.2857284224556
 20
227.7718566149883
 30
0.0
 11
-491.2857284224427
 21
455.7718566149703
 31
0.0
  0
LINE
  5
20C
330
1F
100
AcDbEntity
  8
0-0
  6
JWW_DASHED1
 62
   120
370
     5
100
AcDbLine
 10
-263.2857284224556
 20
213.6297209926713
 30
0.0
 11
-491.2857284224563
 21
441.6297209926694
 31
0.0
  0
LINE
  5
20D
330
1F
100
AcDbEntity
  8
0-0
  6
JWW_DASHED1
 62
   120
370
     5
100
AcDbLine
 10
-263.2857284224556
 20
199.4875853703542
 30
0.0
 11
-491.2857284224529
 21
427.4875853703531
 31
0.0
  0
LINE
  5
20E
330
1F
100
AcDbEntity
  8
0-0
  6
JWW_DASHED1
 62
   120
370
     5
100
AcDbLine
 10
-263.2857284224522
 20
185.3454497480379
 30
0.0
 11
-491.2857284224495
 21
413.3454497480361
 31
0.0
  0
LINE
  5
20F
330
1F
100
AcDbEntity
  8
0-0
  6
JWW_DASHED1
 62
   120
370
     5
100
AcDbLine
 10
-263.2857284224488
 20
171.2033141257209
 30
0.0
 11
-491.2857284224495
 21
399.2033141257181
 31
0.0
  0
LINE
  5
210
330
1F
100
AcDbEntity
  8
0-0
  6
JWW_DASHED1
 62
   120
370
     5
100
AcDbLine
 10
-263.2857284224488
 20
157.0611785033518
 30
0.0
 11
-491.2857284224461
 21
385.0611785033482
 31
0.0
  0
LINE
  5
211
330
1F
100
AcDbEntity
  8
0-0
  6
JWW_DASHED1
 62
   120
370
     5
100
AcDbLine
 10
-263.2857284224556
 20
142.919042881044
 30
0.0
 11
-491.2857284224563
 21
370.9190428810422
 31
0.0
  0
LINE
  5
212
330
1F
100
AcDbEntity
  8
0-0
  6
JWW_DASHED1
 62
   120
370
     5
100
AcDbLine
 10
-263.2857284224693
 20
128.7769072587432
 30
0.0
 11
-491.2857284224529
 21
356.7769072587259
 31
0.0
  0
LINE
  5
213
330
1F
100
AcDbEntity
  8
0-0
  6
JWW_DASHED1
 62
   120
370
     5
100
AcDbLine
 10
-263.2857284224693
 20
114.6347716364261
 30
0.0
 11
-491.2857284224495
 21
342.6347716364089
 31
0.0
  0
LINE
  5
214
330
1F
100
AcDbEntity
  8
0-0
  6
JWW_DASHED1
 62
   120
370
     5
100
AcDbLine
 10
-263.2857284224659
 20
100.4926360141098
 30
0.0
 11
-491.2857284224495
 21
328.4926360140909
 31
0.0
  0
LINE
  5
215
330
1F
100
AcDbEntity
  8
0-0
  6
JWW_DASHED1
 62
   120
370
     5
100
AcDbLine
 10
-263.2857284224625
 20
86.35050039179191
 30
0.0
 11
-491.2857284224461
 21
314.3505003917755
 31
0.0
  0
LINE
  5
216
330
1F
100
AcDbEntity
  8
0-0
  6
JWW_DASHED1
 62
   120
370
     5
100
AcDbLine
 10
-263.2857284224625
 20
72.20836476947568
 30
0.0
 11
-491.2857284224427
 21
300.2083647694585
 31
0.0
  0
LINE
  5
217
330
1F
100
AcDbEntity
  8
0-0
  6
JWW_DASHED1
 62
   120
370
     5
100
AcDbLine
 10
-263.2857284224556
 20
58.06622914715945
 30
0.0
 11
-491.2857284224427
 21
286.0662291471414
 31
0.0
  0
LINE
  5
218
330
1F
100
AcDbEntity
  8
0-0
  6
JWW_DASHED1
 62
   120
370
     5
100
AcDbLine
 10
-263.2857284224556
 20
43.92409352484236
 30
0.0
 11
-491.2857284224563
 21
271.9240935248405
 31
0.0
  0
LINE
  5
219
330
1F
100
AcDbEntity
  8
0-0
  6
JWW_DASHED1
 62
   120
370
     5
100
AcDbLine
 10
-263.2857284224556
 20
29.78195790252528
 30
0.0
 11
-491.2857284224529
 21
257.7819579025243
 31
0.0
  0
LINE
  5
21A
330
1F
100
AcDbEntity
  8
0-0
  6
JWW_DASHED1
 62
   120
370
     5
100
AcDbLine
 10
-263.2857284224522
 20
15.63982228020905
 30
0.0
 11
-491.2857284224495
 21
243.6398222802072
 31
0.0
  0
LINE
  5
21B
330
1F
100
AcDbEntity
  8
0-0
  6
JWW_DASHED1
 62
   120
370
     5
100
AcDbLine
 10
-263.2857284224488
 20
1.497686657891961
 30
0.0
 11
-491.2857284224495
 21
229.4976866578892
 31
0.0
  0
LINE
  5
21C
330
1F
100
AcDbEntity
  8
0-0
  6
JWW_DASHED1
 62
   120
370
     5
100
AcDbLine
 10
-263.2857284224488
 20
-12.64444896442512
 30
0.0
 11
-491.2857284224461
 21
215.3555510355739
 31
0.0
  0
LINE
  5
21D
330
1F
100
AcDbEntity
  8
0-0
  6
JWW_DASHED1
 62
   120
370
     5
100
AcDbLine
 10
-263.2857284224522
 20
-26.78658458673283
 30
0.0
 11
-491.2857284224495
 21
201.2134154132636
 31
0.0
  0
LINE
  5
21E
330
1F
100
AcDbEntity
  8
0-0
  6
JWW_DASHED1
 62
   120
370
     5
100
AcDbLine
 10
-263.2857284224522
 20
-40.92872020904991
 30
0.0
 11
-491.2857284224495
 21
187.0712797909457
 31
0.0
  0
LINE
  5
21F
330
1F
100
AcDbEntity
  8
0-0
  6
JWW_DASHED1
 62
   120
370
     5
100
AcDbLine
 10
-263.2857284224556
 20
-55.07085583135932
 30
0.0
 11
-491.2857284224563
 21
172.9291441686388
 31
0.0
  0
LINE
  5
220
330
1F
100
AcDbEntity
  8
0-0
  6
JWW_DASHED1
 62
   120
370
     5
100
AcDbLine
 10
-263.2857284224693
 20
-69.21299145366021
 30
0.0
 11
-491.2857284224529
 21
158.7870085463226
 31
0.0
  0
LINE
  5
221
330
1F
100
AcDbEntity
  8
0-0
  6
JWW_DASHED1
 62
   120
370
     5
100
AcDbLine
 10
-263.2857284224693
 20
-83.3551270759773
 30
0.0
 11
-491.2857284224495
 21
144.6448729240055
 31
0.0
  0
LINE
  5
222
330
1F
100
AcDbEntity
  8
0-0
  6
JWW_DASHED1
 62
   120
370
     5
100
AcDbLine
 10
-263.2857284224659
 20
-97.49726269829353
 30
0.0
 11
-491.2857284224495
 21
130.5027373016875
 31
0.0
  0
LINE
  5
223
330
1F
100
AcDbEntity
  8
0-0
  6
JWW_DASHED1
 62
   120
370
     5
100
AcDbLine
 10
-263.2857284224625
 20
-111.6393983206115
 30
0.0
 11
-491.2857284224461
 21
116.3606016793722
 31
0.0
  0
LINE
  5
224
330
1F
100
AcDbEntity
  8
0-0
  6
JWW_DASHED1
 62
   120
370
     5
100
AcDbLine
 10
-263.2857284224625
 20
-125.7815339429277
 30
0.0
 11
-491.2857284224427
 21
102.2184660570551
 31
0.0
  0
LINE
  5
225
330
1F
100
AcDbEntity
  8
0-0
  6
JWW_DASHED1
 62
   120
370
     5
100
AcDbLine
 10
-263.2857284224556
 20
-139.9236695652439
 30
0.0
 11
-491.2857284224427
 21
88.076330434738
 31
0.0
  0
LINE
  5
226
330
1F
100
AcDbEntity
  8
0-0
  6
JWW_DASHED1
 62
   120
370
     5
100
AcDbLine
 10
-263.2857284224556
 20
-154.0658051875909
 30
0.0
 11
-491.2857284224529
 21
73.93419481240812
 31
0.0
  0
LINE
  5
227
330
1F
100
AcDbEntity
  8
0-0
  6
JWW_DASHED1
 62
   120
370
     5
100
AcDbLine
 10
-263.2857284224488
 20
-168.2079408099378
 30
0.0
 11
-491.2857284224495
 21
59.79205919006034
 31
0.0
  0
LINE
  5
228
330
1F
100
AcDbEntity
  8
0-0
  6
JWW_DASHED1
 62
   120
370
     5
100
AcDbLine
 10
-263.2857284224488
 20
-182.350076432254
 30
0.0
 11
-491.2857284224461
 21
45.64992356774496
 31
0.0
  0
LINE
  5
229
330
1F
100
AcDbEntity
  8
0-0
  6
JWW_DASHED1
 62
   120
370
     5
100
AcDbLine
 10
-263.2857284224556
 20
-196.4922120545609
 30
0.0
 11
-491.2857284224529
 21
31.50778794543555
 31
0.0
  0
LINE
  5
22A
330
1F
100
AcDbEntity
  8
0-0
  6
JWW_DASHED1
 62
   120
370
     5
100
AcDbLine
 10
-263.2857284224522
 20
-210.634347676878
 30
0.0
 11
-491.2857284224495
 21
17.36565232311932
 31
0.0
  0
LINE
  5
22B
330
1F
100
AcDbEntity
  8
0-0
  6
JWW_DASHED1
 62
   120
370
     5
100
AcDbLine
 10
-263.2857284224556
 20
-224.7764832991882
 30
0.0
 11
-491.2857284224563
 21
3.22351670080991
 31
0.0
  0
LINE
  5
22C
330
1F
100
AcDbEntity
  8
0-0
  6
JWW_DASHED1
 62
   120
370
     5
100
AcDbLine
 10
-263.2857284224556
 20
-238.9186189215053
 30
0.0
 11
-491.2857284224529
 21
-10.91861892150632
 31
0.0
  0
LINE
  5
22D
330
1F
100
AcDbEntity
  8
0-0
  6
JWW_DASHED1
 62
   120
370
     5
100
AcDbLine
 10
-263.2857284224659
 20
-253.0607545438062
 30
0.0
 11
-491.2857284224495
 21
-25.06075454382341
 31
0.0
  0
LINE
  5
22E
330
1F
100
AcDbEntity
  8
0-0
  6
JWW_DASHED1
 62
   120
370
     5
100
AcDbLine
 10
-263.2857284224659
 20
-267.2028901661224
 30
0.0
 11
-491.2857284224495
 21
-39.20289016614134
 31
0.0
  0
LINE
  5
22F
330
1F
100
AcDbEntity
  8
0-0
  6
JWW_DASHED1
 62
   120
370
     5
100
AcDbLine
 10
-263.2857284224625
 20
-281.3450257884404
 30
0.0
 11
-491.2857284224461
 21
-53.34502578845672
 31
0.0
  0
LINE
  5
230
330
1F
100
AcDbEntity
  8
0-0
  6
JWW_DASHED1
 62
   120
370
     5
100
AcDbLine
 10
-263.2857284224625
 20
-295.4871614107566
 30
0.0
 11
-491.2857284224427
 21
-67.48716141077381
 31
0.0
  0
LINE
  5
231
330
1F
100
AcDbEntity
  8
0-0
  6
JWW_DASHED1
 62
   120
370
     5
100
AcDbLine
 10
-263.2857284224556
 20
-309.6292970330728
 30
0.0
 11
-491.2857284224427
 21
-81.6292970330909
 31
0.0
  0
LINE
  5
232
330
1F
100
AcDbEntity
  8
0-0
  6
JWW_DASHED1
 62
   120
370
     5
100
AcDbLine
 10
-263.2857284224556
 20
-323.7714326553899
 30
0.0
 11
-491.2857284224563
 21
-95.77143265539178
 31
0.0
  0
LINE
  5
233
330
1F
100
AcDbEntity
  8
0-0
  6
JWW_DASHED1
 62
   120
370
     5
100
AcDbLine
 10
-263.2857284224522
 20
-337.913568277707
 30
0.0
 11
-491.2857284224529
 21
-109.913568277708
 31
0.0
  0
LINE
  5
234
330
1F
100
AcDbEntity
  8
0-0
  6
JWW_DASHED1
 62
   120
370
     5
100
AcDbLine
 10
-263.2857284224522
 20
-352.0557039000232
 30
0.0
 11
-491.2857284224495
 21
-124.0557039000251
 31
0.0
  0
LINE
  5
235
330
1F
100
AcDbEntity
  8
0-0
  6
JWW_DASHED1
 62
   120
370
     5
100
AcDbLine
 10
-263.2857284224488
 20
-366.1978395223412
 30
0.0
 11
-491.2857284224495
 21
-138.197839522343
 31
0.0
  0
LINE
  5
236
330
1F
100
AcDbEntity
  8
0-0
  6
JWW_DASHED1
 62
   120
370
     5
100
AcDbLine
 10
-263.2857284224488
 20
-380.3399751446574
 30
0.0
 11
-491.2857284224461
 21
-152.3399751446584
 31
0.0
  0
LINE
  5
237
330
1F
100
AcDbEntity
  8
0-0
  6
JWW_DASHED1
 62
   120
370
     5
100
AcDbLine
 10
-263.2857284224454
 20
-394.4821107669736
 30
0.0
 11
-491.2857284224427
 21
-166.4821107669755
 31
0.0
  0
LINE
  5
238
330
1F
100
AcDbEntity
  8
0-0
  6
JWW_DASHED1
 62
   120
370
     5
100
AcDbLine
 10
-263.2857284224522
 20
-408.6242463892796
 30
0.0
 11
-491.2857284224495
 21
-180.6242463892823
 31
0.0
  0
LINE
  5
239
330
1F
100
AcDbEntity
  8
0-0
  6
JWW_DASHED1
 62
   120
370
     5
100
AcDbLine
 10
-263.2857284224556
 20
-422.7663820115916
 30
0.0
 11
-491.2857284224563
 21
-194.7663820115935
 31
0.0
  0
LINE
  5
23A
330
1F
100
AcDbEntity
  8
0-0
  6
JWW_DASHED1
 62
   120
370
     5
100
AcDbLine
 10
-263.2857284224556
 20
-436.9085176339087
 30
0.0
 11
-491.2857284224529
 21
-208.9085176339105
 31
0.0
  0
LINE
  5
23B
330
1F
100
AcDbEntity
  8
0-0
  6
JWW_DASHED1
 62
   120
370
     5
100
AcDbLine
 10
-263.2857284224659
 20
-451.0506532562096
 30
0.0
 11
-491.2857284224495
 21
-223.0506532562268
 31
0.0
  0
LINE
  5
23C
330
1F
100
AcDbEntity
  8
0-0
  6
JWW_DASHED1
 62
   120
370
     5
100
AcDbLine
 10
-263.2857284224659
 20
-465.1927888785266
 30
0.0
 11
-491.2857284224495
 21
-237.1927888785447
 31
0.0
  0
LINE
  5
23D
330
1F
100
AcDbEntity
  8
0-0
  6
JWW_DASHED1
 62
   120
370
     5
100
AcDbLine
 10
-263.2857284224625
 20
-479.3349245008437
 30
0.0
 11
-491.2857284224461
 21
-251.3349245008601
 31
0.0
  0
LINE
  5
23E
330
1F
100
AcDbEntity
  8
0-0
  6
JWW_DASHED1
 62
   120
370
     5
100
AcDbLine
 10
-263.2857284224556
 20
-493.4770601232188
 30
0.0
 11
-491.2857284224563
 21
-265.4770601232207
 31
0.0
  0
LINE
  5
23F
330
1F
100
AcDbEntity
  8
0-0
  6
JWW_DASHED1
 62
   120
370
     5
100
AcDbLine
 10
-263.2857284224522
 20
-507.6191957455359
 30
0.0
 11
-491.2857284224529
 21
-279.6191957455369
 31
0.0
  0
LINE
  5
240
330
1F
100
AcDbEntity
  8
0-0
  6
JWW_DASHED1
 62
   120
370
     5
100
AcDbLine
 10
-263.2857284224522
 20
-521.7613313678521
 30
0.0
 11
-491.2857284224495
 21
-293.761331367854
 31
0.0
  0
LINE
  5
241
330
1F
100
AcDbEntity
  8
0-0
  6
JWW_DASHED1
 62
   120
370
     5
100
AcDbLine
 10
-263.2857284224488
 20
-535.90346699017
 30
0.0
 11
-491.2857284224495
 21
-307.9034669901719
 31
0.0
  0
LINE
  5
242
330
1F
100
AcDbEntity
  8
0-0
  6
JWW_DASHED1
 62
   120
370
     5
100
AcDbLine
 10
-263.2857284224488
 20
-550.0456026124863
 30
0.0
 11
-491.2857284224461
 21
-322.0456026124873
 31
0.0
  0
LINE
  5
243
330
1F
100
AcDbEntity
  8
0-0
  6
JWW_DASHED1
 62
   120
370
     5
100
AcDbLine
 10
-263.2857284224454
 20
-564.1877382348025
 30
0.0
 11
-491.2857284224427
 21
-336.1877382348044
 31
0.0
  0
LINE
  5
244
330
1F
100
AcDbEntity
  8
0-0
  6
JWW_DASHED1
 62
   120
370
     5
100
AcDbLine
 10
-263.2857284224556
 20
-578.3298738571077
 30
0.0
 11
-491.2857284224529
 21
-350.3298738571104
 31
0.0
  0
LINE
  5
245
330
1F
100
AcDbEntity
  8
0-0
  6
JWW_DASHED1
 62
   120
370
     5
100
AcDbLine
 10
-263.2857284224556
 20
-592.4720094794204
 30
0.0
 11
-491.2857284224563
 21
-364.4720094794224
 31
0.0
  0
LINE
  5
246
330
1F
100
AcDbEntity
  8
0-0
  6
JWW_DASHED1
 62
   120
370
     5
100
AcDbLine
 10
-263.2857284224522
 20
-606.6141451017376
 30
0.0
 11
-491.2857284224529
 21
-378.6141451017386
 31
0.0
  0
LINE
  5
247
330
1F
100
AcDbEntity
  8
0-0
  6
JWW_DASHED1
 62
   120
370
     5
100
AcDbLine
 10
-263.2857284224659
 20
-620.7562807240384
 30
0.0
 11
-491.2857284224495
 21
-392.7562807240557
 31
0.0
  0
LINE
  5
248
330
1F
100
AcDbEntity
  8
0-0
  6
JWW_DASHED1
 62
   120
370
     5
100
AcDbLine
 10
-263.2857284224659
 20
-634.8984163463547
 30
0.0
 11
-491.2857284224461
 21
-406.8984163463736
 31
0.0
  0
LINE
  5
249
330
1F
100
AcDbEntity
  8
0-0
  6
JWW_DASHED1
 62
   120
370
     5
100
AcDbLine
 10
-263.2857284224625
 20
-649.0405519686726
 30
0.0
 11
-491.2857284224461
 21
-421.0405519686898
 31
0.0
  0
LINE
  5
24A
330
1F
100
AcDbEntity
  8
0-0
  6
JWW_DASHED1
 62
   120
370
     5
100
AcDbLine
 10
-263.285728422459
 20
-663.1826875909888
 30
0.0
 11
-491.2857284224427
 21
-435.1826875910061
 31
0.0
  0
LINE
  5
24B
330
1F
100
AcDbEntity
  8
0-0
  6
JWW_DASHED1
 62
   120
370
     5
100
AcDbLine
 10
-263.2857284224556
 20
-677.3248232133051
 30
0.0
 11
-491.2857284224427
 21
-449.3248232133232
 31
0.0
  0
LINE
  5
24C
330
1F
100
AcDbEntity
  8
0-0
  6
JWW_DASHED1
 62
   120
370
     5
100
AcDbLine
 10
-263.2857284224556
 20
-691.4669588356221
 30
0.0
 11
-491.2857284224529
 21
-463.466958835624
 31
0.0
  0
LINE
  5
24D
330
1F
100
AcDbEntity
  8
0-0
  6
JWW_DASHED1
 62
   120
370
     5
100
AcDbLine
 10
-263.2857284224522
 20
-705.6090944579392
 30
0.0
 11
-491.2857284224529
 21
-477.6090944579403
 31
0.0
  0
LINE
  5
24E
330
1F
100
AcDbEntity
  8
0-0
  6
JWW_DASHED1
 62
   120
370
     5
100
AcDbLine
 10
-263.2857284224522
 20
-719.7512300802555
 30
0.0
 11
-491.2857284224495
 21
-491.7512300802574
 31
0.0
  0
LINE
  5
24F
330
1F
100
AcDbEntity
  8
0-0
  6
JWW_DASHED1
 62
   120
370
     5
100
AcDbLine
 10
-263.2857284224488
 20
-733.8933657025734
 30
0.0
 11
-491.2857284224461
 21
-505.8933657025753
 31
0.0
  0
LINE
  5
250
330
1F
100
AcDbEntity
  8
0-0
  6
JWW_DASHED1
 62
   120
370
     5
100
AcDbLine
 10
-263.2857284224454
 20
-748.0355013248897
 30
0.0
 11
-491.2857284224461
 21
-520.0355013248907
 31
0.0
  0
LINE
  5
251
330
1F
100
AcDbEntity
  8
0-0
  6
JWW_DASHED1
 62
   120
370
     5
100
AcDbLine
 10
-263.2857284224454
 20
-762.1776369472068
 30
0.0
 11
-491.2857284224427
 21
-534.1776369472077
 31
0.0
  0
LINE
  5
252
330
1F
100
AcDbEntity
  8
0-0
  6
JWW_DASHED1
 62
   120
370
     5
100
AcDbLine
 10
-263.2857284224556
 20
-776.3197725695102
 30
0.0
 11
-491.2857284224529
 21
-548.3197725695129
 31
0.0
  0
LINE
  5
253
330
1F
100
AcDbEntity
  8
0-0
  6
JWW_DASHED1
 62
   120
370
     5
100
AcDbLine
 10
-263.2857284224556
 20
-790.4619081918247
 30
0.0
 11
-491.2857284224529
 21
-562.4619081918257
 31
0.0
  0
LINE
  5
254
330
1F
100
AcDbEntity
  8
0-0
  6
JWW_DASHED1
 62
   120
370
     5
100
AcDbLine
 10
-263.2857284224522
 20
-804.6040438141409
 30
0.0
 11
-491.2857284224529
 21
-576.6040438141429
 31
0.0
  0
LINE
  5
255
330
1F
100
AcDbEntity
  8
0-0
  6
JWW_DASHED1
 62
   120
370
     5
100
AcDbLine
 10
-263.2857284224659
 20
-818.7461794364418
 30
0.0
 11
-491.2857284224495
 21
-590.746179436459
 31
0.0
  0
LINE
  5
256
330
1F
100
AcDbEntity
  8
0-0
  6
JWW_DASHED1
 62
   120
370
     5
100
AcDbLine
 10
-263.2857284224659
 20
-832.888315058759
 30
0.0
 11
-491.2857284224461
 21
-604.8883150587769
 31
0.0
  0
LINE
  5
257
330
1F
100
AcDbEntity
  8
0-0
  6
JWW_DASHED1
 62
   120
370
     5
100
AcDbLine
 10
-263.2857284224625
 20
-847.030450681076
 30
0.0
 11
-491.2857284224461
 21
-619.0304506810924
 31
0.0
  0
LINE
  5
258
330
1F
100
AcDbEntity
  8
0-0
  6
JWW_DASHED1
 62
   120
370
     5
100
AcDbLine
 10
-263.2857284224556
 20
-861.172586303451
 30
0.0
 11
-491.2857284224529
 21
-633.1725863034529
 31
0.0
  0
LINE
  5
259
330
1F
100
AcDbEntity
  8
0-0
  6
JWW_DASHED1
 62
   120
370
     5
100
AcDbLine
 10
-263.2857284224522
 20
-875.3147219257681
 30
0.0
 11
-491.2857284224529
 21
-647.3147219257692
 31
0.0
  0
LINE
  5
25A
330
1F
100
AcDbEntity
  8
0-0
  6
JWW_DASHED1
 62
   120
370
     5
100
AcDbLine
 10
-263.2857284224522
 20
-889.4568575480844
 30
0.0
 11
-491.2857284224495
 21
-661.4568575480862
 31
0.0
  0
LINE
  5
25B
330
1F
100
AcDbEntity
  8
0-0
  6
JWW_DASHED1
 62
   120
370
     5
100
AcDbLine
 10
-263.2857284224488
 20
-903.5989931704028
 30
0.0
 11
-491.2857284224461
 21
-675.5989931704033
 31
0.0
  0
LINE
  5
25C
330
1F
100
AcDbEntity
  8
0-0
  6
JWW_DASHED1
 62
   120
370
     5
100
AcDbLine
 10
-263.2857284224454
 20
-917.741128792719
 30
0.0
 11
-491.2857284224461
 21
-689.7411287927196
 31
0.0
  0
LINE
  5
25D
330
1F
100
AcDbEntity
  8
0-0
  6
JWW_DASHED1
 62
   120
370
     5
100
AcDbLine
 10
-263.2857284224454
 20
-931.8832644150352
 30
0.0
 11
-491.2857284224427
 21
-703.8832644150366
 31
0.0
  0
LINE
  5
25E
330
1F
100
AcDbEntity
  8
0-0
  6
JWW_DASHED1
 62
   120
370
     5
100
AcDbLine
 10
-263.2857284224556
 20
-946.0254000373378
 30
0.0
 11
-491.2857284224529
 21
-718.0254000373401
 31
0.0
  0
LINE
  5
25F
330
1F
100
AcDbEntity
  8
0-0
  6
JWW_DASHED1
 62
   120
370
     5
100
AcDbLine
 10
-263.2857284224556
 20
-960.167535659654
 30
0.0
 11
-491.2857284224529
 21
-732.1675356596546
 31
0.0
  0
LINE
  5
260
330
1F
100
AcDbEntity
  8
0-0
  6
JWW_DASHED1
 62
   120
370
     5
100
AcDbLine
 10
-263.2857284224522
 20
-974.3096712819703
 30
0.0
 11
-491.2857284224529
 21
-746.3096712819718
 31
0.0
  0
LINE
  5
261
330
1F
100
AcDbEntity
  8
0-0
  6
JWW_DASHED1
 62
   120
370
     5
100
AcDbLine
 10
-263.2857284224659
 20
-988.4518069042712
 30
0.0
 11
-491.2857284224495
 21
-760.4518069042888
 31
0.0
  0
LINE
  5
262
330
1F
100
AcDbEntity
  8
0-0
  6
JWW_DASHED1
 62
   120
370
     5
100
AcDbLine
 10
-263.2857284224659
 20
-1002.593942526588
 30
0.0
 11
-491.2857284224461
 21
-774.593942526605
 31
0.0
  0
LINE
  5
263
330
1F
100
AcDbEntity
  8
0-0
  6
JWW_DASHED1
 62
   120
370
     5
100
AcDbLine
 10
-263.2857284224625
 20
-1016.736078148905
 30
0.0
 11
-491.2857284224461
 21
-788.7360781489213
 31
0.0
  0
LINE
  5
264
330
1F
100
AcDbEntity
  8
0-0
  6
JWW_DASHED1
 62
   120
370
     5
100
AcDbLine
 10
-263.285728422459
 20
-1030.878213771221
 30
0.0
 11
-491.2857284224427
 21
-802.8782137712392
 31
0.0
  0
LINE
  5
265
330
1F
100
AcDbEntity
  8
0-0
  6
JWW_DASHED1
 62
   120
370
     5
100
AcDbLine
 10
-263.2857284224556
 20
-1045.020349393538
 30
0.0
 11
-491.2857284224393
 21
-817.0203493935554
 31
0.0
  0
LINE
  5
266
330
1F
100
AcDbEntity
  8
0-0
  6
JWW_DASHED1
 62
   120
370
     5
100
AcDbLine
 10
-263.2857284224556
 20
-1059.162485015855
 30
0.0
 11
-491.2857284224393
 21
-831.1624850158726
 31
0.0
  0
LINE
  5
267
330
1F
100
AcDbEntity
  8
0-0
  6
JWW_DASHED1
 62
   120
370
     5
100
AcDbLine
 10
-263.2857284224522
 20
-1073.304620638171
 30
0.0
 11
-491.2857284224529
 21
-845.3046206381725
 31
0.0
  0
LINE
  5
268
330
1F
100
AcDbEntity
  8
0-0
  6
JWW_DASHED1
 62
   120
370
     5
100
AcDbLine
 10
-263.2857284224522
 20
-1087.446756260489
 30
0.0
 11
-491.2857284224495
 21
-859.4467562604905
 31
0.0
  0
LINE
  5
269
330
1F
100
AcDbEntity
  8
0-0
  6
JWW_DASHED1
 62
   120
370
     5
100
AcDbLine
 10
-263.2857284224488
 20
-1101.588891882807
 30
0.0
 11
-491.2857284224461
 21
-873.5888918828067
 31
0.0
  0
LINE
  5
26A
330
1F
100
AcDbEntity
  8
0-0
  6
Continuous
 62
     7
370
     9
100
AcDbLine
 10
-1043.285728422452
 20
-1105.298359187499
 30
0.0
 11
-1271.285728422453
 21
-1105.298359187499
 31
0.0
  0
LINE
  5
26B
330
1F
100
AcDbEntity
  8
0-0
  6
Continuous
 62
    92
370
    13
100
AcDbLine
 10
-1043.285728422452
 20
1224.701640812502
 30
0.0
 11
-1043.285728422452
 21
-1135.298359187499
 31
0.0
  0
LINE
  5
26C
330
1F
100
AcDbEntity
  8
0-0
  6
Continuous
 62
    92
370
    13
100
AcDbLine
 10
-1271.285728422453
 20
1224.701640812502
 30
0.0
 11
-1271.285728422453
 21
-1135.298359187499
 31
0.0
  0
LINE
  5
26D
330
1F
100
AcDbEntity
  8
0-0
  6
Continuous
 62
     7
370
     9
100
AcDbLine
 10
-1043.285728422452
 20
1216.701640812501
 30
0.0
 11
-1271.285728422453
 21
1216.701640812501
 31
0.0
  0
LINE
  5
26E
330
1F
100
AcDbEntity
  8
0-0
  6
JWW_DASHED1
 62
   120
370
     5
100
AcDbLine
 10
-1067.860532362384
 20
-1105.298359187499
 30
0.0
 11
-1271.285728422443
 21
-901.8731631274413
 31
0.0
  0
LINE
  5
26F
330
1F
100
AcDbEntity
  8
0-0
  6
JWW_DASHED1
 62
   120
370
     5
100
AcDbLine
 10
-1082.002667984698
 20
-1105.298359187499
 30
0.0
 11
-1271.285728422456
 21
-916.015298749743
 31
0.0
  0
LINE
  5
270
330
1F
100
AcDbEntity
  8
0-0
  6
JWW_DASHED1
 62
   120
370
     5
100
AcDbLine
 10
-1096.144803607013
 20
-1105.298359187499
 30
0.0
 11
-1271.285728422453
 21
-930.1574343720584
 31
0.0
  0
LINE
  5
271
330
1F
100
AcDbEntity
  8
0-0
  6
JWW_DASHED1
 62
   120
370
     5
100
AcDbLine
 10
-1110.286939229327
 20
-1105.298359187499
 30
0.0
 11
-1271.285728422453
 21
-944.2995699943755
 31
0.0
  0
LINE
  5
272
330
1F
100
AcDbEntity
  8
0-0
  6
JWW_DASHED1
 62
   120
370
     5
100
AcDbLine
 10
-1124.429074851642
 20
-1105.298359187499
 30
0.0
 11
-1271.285728422449
 21
-958.4417056166926
 31
0.0
  0
LINE
  5
273
330
1F
100
AcDbEntity
  8
0-0
  6
JWW_DASHED1
 62
   120
370
     5
100
AcDbLine
 10
-1138.571210473956
 20
-1105.298359187499
 30
0.0
 11
-1271.285728422446
 21
-972.5838412390088
 31
0.0
  0
LINE
  5
274
330
1F
100
AcDbEntity
  8
0-0
  6
JWW_DASHED1
 62
   120
370
     5
100
AcDbLine
 10
-1152.713346096271
 20
-1105.298359187499
 30
0.0
 11
-1271.285728422446
 21
-986.7259768613259
 31
0.0
  0
LINE
  5
275
330
1F
100
AcDbEntity
  8
0-0
  6
JWW_DASHED1
 62
   120
370
     5
100
AcDbLine
 10
-1166.85548171864
 20
-1105.298359187499
 30
0.0
 11
-1271.285728422439
 21
-1000.868112483702
 31
0.0
  0
LINE
  5
276
330
1F
100
AcDbEntity
  8
0-0
  6
JWW_DASHED1
 62
   120
370
     5
100
AcDbLine
 10
-1180.997617340954
 20
-1105.298359187499
 30
0.0
 11
-1271.285728422453
 21
-1015.010248106002
 31
0.0
  0
LINE
  5
277
330
1F
100
AcDbEntity
  8
0-0
  6
JWW_DASHED1
 62
   120
370
     5
100
AcDbLine
 10
-1195.139752963269
 20
-1105.298359187499
 30
0.0
 11
-1271.285728422449
 21
-1029.152383728319
 31
0.0
  0
LINE
  5
278
330
1F
100
AcDbEntity
  8
0-0
  6
JWW_DASHED1
 62
   120
370
     5
100
AcDbLine
 10
-1209.281888585583
 20
-1105.298359187499
 30
0.0
 11
-1271.285728422446
 21
-1043.294519350636
 31
0.0
  0
LINE
  5
279
330
1F
100
AcDbEntity
  8
0-0
  6
JWW_DASHED1
 62
   120
370
     5
100
AcDbLine
 10
-1223.424024207898
 20
-1105.298359187499
 30
0.0
 11
-1271.285728422446
 21
-1057.436654972953
 31
0.0
  0
LINE
  5
27A
330
1F
100
AcDbEntity
  8
0-0
  6
JWW_DASHED1
 62
   120
370
     5
100
AcDbLine
 10
-1237.566159830212
 20
-1105.298359187499
 30
0.0
 11
-1271.285728422443
 21
-1071.57879059527
 31
0.0
  0
LINE
  5
27B
330
1F
100
AcDbEntity
  8
0-0
  6
JWW_DASHED1
 62
   120
370
     5
100
AcDbLine
 10
-1251.708295452527
 20
-1105.298359187499
 30
0.0
 11
-1271.285728422456
 21
-1085.720926217571
 31
0.0
  0
LINE
  5
27C
330
1F
100
AcDbEntity
  8
0-0
  6
JWW_DASHED1
 62
   120
370
     5
100
AcDbLine
 10
-1265.850431074841
 20
-1105.298359187499
 30
0.0
 11
-1271.285728422453
 21
-1099.863061839887
 31
0.0
  0
LINE
  5
27D
330
1F
100
AcDbEntity
  8
0-0
  6
JWW_DASHED1
 62
   120
370
     5
100
AcDbLine
 10
-1053.718396740069
 20
-1105.298359187499
 30
0.0
 11
-1271.285728422446
 21
-887.7310275051238
 31
0.0
  0
LINE
  5
27E
330
1F
100
AcDbEntity
  8
0-0
  6
JWW_DASHED1
 62
   120
370
     5
100
AcDbLine
 10
-1043.285728422469
 20
1203.579214554865
 30
0.0
 11
-1056.408154680087
 21
1216.701640812482
 31
0.0
  0
LINE
  5
27F
330
1F
100
AcDbEntity
  8
0-0
  6
JWW_DASHED1
 62
   120
370
     5
100
AcDbLine
 10
-1043.285728422469
 20
1189.43707893255
 30
0.0
 11
-1070.550290302405
 21
1216.701640812486
 31
0.0
  0
LINE
  5
280
330
1F
100
AcDbEntity
  8
0-0
  6
JWW_DASHED1
 62
   120
370
     5
100
AcDbLine
 10
-1043.285728422466
 20
1175.294943310232
 30
0.0
 11
-1084.692425924723
 21
1216.701640812489
 31
0.0
  0
LINE
  5
281
330
1F
100
AcDbEntity
  8
0-0
  6
JWW_DASHED1
 62
   120
370
     5
100
AcDbLine
 10
-1043.285728422462
 20
1161.152807687916
 30
0.0
 11
-1098.834561547041
 21
1216.701640812493
 31
0.0
  0
LINE
  5
282
330
1F
100
AcDbEntity
  8
0-0
  6
JWW_DASHED1
 62
   120
370
     5
100
AcDbLine
 10
-1043.285728422462
 20
1147.010672065598
 30
0.0
 11
-1112.976697169359
 21
1216.701640812496
 31
0.0
  0
LINE
  5
283
330
1F
100
AcDbEntity
  8
0-0
  6
JWW_DASHED1
 62
   120
370
     5
100
AcDbLine
 10
-1043.285728422456
 20
1132.868536443224
 30
0.0
 11
-1127.118832791731
 21
1216.701640812499
 31
0.0
  0
LINE
  5
284
330
1F
100
AcDbEntity
  8
0-0
  6
JWW_DASHED1
 62
   120
370
     5
100
AcDbLine
 10
-1043.285728422452
 20
1118.726400820906
 30
0.0
 11
-1141.260968414046
 21
1216.701640812501
 31
0.0
  0
LINE
  5
285
330
1F
100
AcDbEntity
  8
0-0
  6
JWW_DASHED1
 62
   120
370
     5
100
AcDbLine
 10
-1043.285728422449
 20
1104.584265198589
 30
0.0
 11
-1155.403104036364
 21
1216.701640812503
 31
0.0
  0
LINE
  5
286
330
1F
100
AcDbEntity
  8
0-0
  6
JWW_DASHED1
 62
   120
370
     5
100
AcDbLine
 10
-1043.285728422449
 20
1090.442129576273
 30
0.0
 11
-1169.545239658682
 21
1216.701640812506
 31
0.0
  0
LINE
  5
287
330
1F
100
AcDbEntity
  8
0-0
  6
JWW_DASHED1
 62
   120
370
     5
100
AcDbLine
 10
-1043.285728422445
 20
1076.299993953955
 30
0.0
 11
-1183.687375280996
 21
1216.701640812508
 31
0.0
  0
LINE
  5
288
330
1F
100
AcDbEntity
  8
0-0
  6
JWW_DASHED1
 62
   120
370
     5
100
AcDbLine
 10
-1043.285728422456
 20
1062.157858331655
 30
0.0
 11
-1197.8295109033
 21
1216.701640812494
 31
0.0
  0
LINE
  5
289
330
1F
100
AcDbEntity
  8
0-0
  6
JWW_DASHED1
 62
   120
370
     5
100
AcDbLine
 10
-1043.285728422456
 20
1048.015722709337
 30
0.0
 11
-1211.971646525615
 21
1216.701640812496
 31
0.0
  0
LINE
  5
28A
330
1F
100
AcDbEntity
  8
0-0
  6
JWW_DASHED1
 62
   120
370
     5
100
AcDbLine
 10
-1043.285728422469
 20
1033.873587087036
 30
0.0
 11
-1226.113782147929
 21
1216.701640812496
 31
0.0
  0
LINE
  5
28B
330
1F
100
AcDbEntity
  8
0-0
  6
JWW_DASHED1
 62
   120
370
     5
100
AcDbLine
 10
-1043.285728422469
 20
1019.731451464721
 30
0.0
 11
-1240.255917770247
 21
1216.701640812499
 31
0.0
  0
LINE
  5
28C
330
1F
100
AcDbEntity
  8
0-0
  6
JWW_DASHED1
 62
   120
370
     5
100
AcDbLine
 10
-1043.285728422466
 20
1005.589315842403
 30
0.0
 11
-1254.398053392565
 21
1216.701640812503
 31
0.0
  0
LINE
  5
28D
330
1F
100
AcDbEntity
  8
0-0
  6
JWW_DASHED1
 62
   120
370
     5
100
AcDbLine
 10
-1043.285728422462
 20
991.447180220087
 30
0.0
 11
-1268.540189014883
 21
1216.701640812506
 31
0.0
  0
LINE
  5
28E
330
1F
100
AcDbEntity
  8
0-0
  6
JWW_DASHED1
 62
   120
370
     5
100
AcDbLine
 10
-1043.285728422462
 20
977.3050445977691
 30
0.0
 11
-1271.285728422443
 21
1205.305044597753
 31
0.0
  0
LINE
  5
28F
330
1F
100
AcDbEntity
  8
0-0
  6
JWW_DASHED1
 62
   120
370
     5
100
AcDbLine
 10
-1043.285728422456
 20
963.1629089754529
 30
0.0
 11
-1271.285728422443
 21
1191.162908975436
 31
0.0
  0
LINE
  5
290
330
1F
100
AcDbEntity
  8
0-0
  6
JWW_DASHED1
 62
   120
370
     5
100
AcDbLine
 10
-1043.285728422456
 20
949.0207733531349
 30
0.0
 11
-1271.285728422456
 21
1177.020773353134
 31
0.0
  0
LINE
  5
291
330
1F
100
AcDbEntity
  8
0-0
  6
JWW_DASHED1
 62
   120
370
     5
100
AcDbLine
 10
-1043.285728422456
 20
934.8786377308187
 30
0.0
 11
-1271.285728422453
 21
1162.878637730818
 31
0.0
  0
LINE
  5
292
330
1F
100
AcDbEntity
  8
0-0
  6
JWW_DASHED1
 62
   120
370
     5
100
AcDbLine
 10
-1043.285728422452
 20
920.7365021085025
 30
0.0
 11
-1271.285728422449
 21
1148.736502108502
 31
0.0
  0
LINE
  5
293
330
1F
100
AcDbEntity
  8
0-0
  6
JWW_DASHED1
 62
   120
370
     5
100
AcDbLine
 10
-1043.285728422449
 20
906.5943664861862
 30
0.0
 11
-1271.285728422449
 21
1134.594366486185
 31
0.0
  0
LINE
  5
294
330
1F
100
AcDbEntity
  8
0-0
  6
JWW_DASHED1
 62
   120
370
     5
100
AcDbLine
 10
-1043.285728422449
 20
892.4522308638683
 30
0.0
 11
-1271.285728422446
 21
1120.452230863867
 31
0.0
  0
LINE
  5
295
330
1F
100
AcDbEntity
  8
0-0
  6
JWW_DASHED1
 62
   120
370
     5
100
AcDbLine
 10
-1043.285728422449
 20
878.3100952415538
 30
0.0
 11
-1271.285728422446
 21
1106.310095241551
 31
0.0
  0
LINE
  5
296
330
1F
100
AcDbEntity
  8
0-0
  6
JWW_DASHED1
 62
   120
370
     5
100
AcDbLine
 10
-1043.285728422456
 20
864.1679596192512
 30
0.0
 11
-1271.285728422456
 21
1092.16795961925
 31
0.0
  0
LINE
  5
297
330
1F
100
AcDbEntity
  8
0-0
  6
JWW_DASHED1
 62
   120
370
     5
100
AcDbLine
 10
-1043.285728422456
 20
850.0258239969342
 30
0.0
 11
-1271.285728422456
 21
1078.025823996934
 31
0.0
  0
LINE
  5
298
330
1F
100
AcDbEntity
  8
0-0
  6
JWW_DASHED1
 62
   120
370
     5
100
AcDbLine
 10
-1043.285728422469
 20
835.8836883746333
 30
0.0
 11
-1271.285728422453
 21
1063.883688374616
 31
0.0
  0
LINE
  5
299
330
1F
100
AcDbEntity
  8
0-0
  6
JWW_DASHED1
 62
   120
370
     5
100
AcDbLine
 10
-1043.285728422469
 20
821.7415527523161
 30
0.0
 11
-1271.285728422449
 21
1049.741552752298
 31
0.0
  0
LINE
  5
29A
330
1F
100
AcDbEntity
  8
0-0
  6
JWW_DASHED1
 62
   120
370
     5
100
AcDbLine
 10
-1043.285728422462
 20
807.599417129941
 30
0.0
 11
-1271.285728422443
 21
1035.599417129924
 31
0.0
  0
LINE
  5
29B
330
1F
100
AcDbEntity
  8
0-0
  6
JWW_DASHED1
 62
   120
370
     5
100
AcDbLine
 10
-1043.285728422456
 20
793.457281507624
 30
0.0
 11
-1271.285728422443
 21
1021.457281507608
 31
0.0
  0
LINE
  5
29C
330
1F
100
AcDbEntity
  8
0-0
  6
JWW_DASHED1
 62
   120
370
     5
100
AcDbLine
 10
-1043.285728422456
 20
779.315145885307
 30
0.0
 11
-1271.285728422456
 21
1007.315145885307
 31
0.0
  0
LINE
  5
29D
330
1F
100
AcDbEntity
  8
0-0
  6
JWW_DASHED1
 62
   120
370
     5
100
AcDbLine
 10
-1043.285728422456
 20
765.1730102629898
 30
0.0
 11
-1271.285728422453
 21
993.1730102629888
 31
0.0
  0
LINE
  5
29E
330
1F
100
AcDbEntity
  8
0-0
  6
JWW_DASHED1
 62
   120
370
     5
100
AcDbLine
 10
-1043.285728422452
 20
751.0308746406736
 30
0.0
 11
-1271.285728422449
 21
979.0308746406708
 31
0.0
  0
LINE
  5
29F
330
1F
100
AcDbEntity
  8
0-0
  6
JWW_DASHED1
 62
   120
370
     5
100
AcDbLine
 10
-1043.285728422449
 20
736.8887390183556
 30
0.0
 11
-1271.285728422449
 21
964.8887390183546
 31
0.0
  0
LINE
  5
2A0
330
1F
100
AcDbEntity
  8
0-0
  6
JWW_DASHED1
 62
   120
370
     5
100
AcDbLine
 10
-1043.285728422449
 20
722.7466033960394
 30
0.0
 11
-1271.285728422446
 21
950.7466033960384
 31
0.0
  0
LINE
  5
2A1
330
1F
100
AcDbEntity
  8
0-0
  6
JWW_DASHED1
 62
   120
370
     5
100
AcDbLine
 10
-1043.285728422449
 20
708.6044677737257
 30
0.0
 11
-1271.285728422446
 21
936.6044677737239
 31
0.0
  0
LINE
  5
2A2
330
1F
100
AcDbEntity
  8
0-0
  6
JWW_DASHED1
 62
   120
370
     5
100
AcDbLine
 10
-1043.285728422445
 20
694.4623321514104
 30
0.0
 11
-1271.285728422443
 21
922.4623321514059
 31
0.0
  0
LINE
  5
2A3
330
1F
100
AcDbEntity
  8
0-0
  6
JWW_DASHED1
 62
   120
370
     5
100
AcDbLine
 10
-1043.285728422456
 20
680.3201965291053
 30
0.0
 11
-1271.285728422456
 21
908.320196529105
 31
0.0
  0
LINE
  5
2A4
330
1F
100
AcDbEntity
  8
0-0
  6
JWW_DASHED1
 62
   120
370
     5
100
AcDbLine
 10
-1043.285728422469
 20
666.1780609068044
 30
0.0
 11
-1271.285728422453
 21
894.1780609067871
 31
0.0
  0
LINE
  5
2A5
330
1F
100
AcDbEntity
  8
0-0
  6
JWW_DASHED1
 62
   120
370
     5
100
AcDbLine
 10
-1043.285728422469
 20
652.0359252844872
 30
0.0
 11
-1271.285728422449
 21
880.0359252844692
 31
0.0
  0
LINE
  5
2A6
330
1F
100
AcDbEntity
  8
0-0
  6
JWW_DASHED1
 62
   120
370
     5
100
AcDbLine
 10
-1043.285728422466
 20
637.893789662171
 30
0.0
 11
-1271.285728422449
 21
865.8937896621529
 31
0.0
  0
LINE
  5
2A7
330
1F
100
AcDbEntity
  8
0-0
  6
JWW_DASHED1
 62
   120
370
     5
100
AcDbLine
 10
-1043.285728422462
 20
623.7516540398531
 30
0.0
 11
-1271.285728422446
 21
851.7516540398367
 31
0.0
  0
LINE
  5
2A8
330
1F
100
AcDbEntity
  8
0-0
  6
JWW_DASHED1
 62
   120
370
     5
100
AcDbLine
 10
-1043.285728422462
 20
609.6095184175376
 30
0.0
 11
-1271.285728422443
 21
837.6095184175197
 31
0.0
  0
LINE
  5
2A9
330
1F
100
AcDbEntity
  8
0-0
  6
JWW_DASHED1
 62
   120
370
     5
100
AcDbLine
 10
-1043.285728422456
 20
595.4673827952206
 30
0.0
 11
-1271.285728422443
 21
823.4673827952033
 31
0.0
  0
LINE
  5
2AA
330
1F
100
AcDbEntity
  8
0-0
  6
JWW_DASHED1
 62
   120
370
     5
100
AcDbLine
 10
-1043.285728422456
 20
581.3252471729036
 30
0.0
 11
-1271.285728422456
 21
809.3252471729016
 31
0.0
  0
LINE
  5
2AB
330
1F
100
AcDbEntity
  8
0-0
  6
JWW_DASHED1
 62
   120
370
     5
100
AcDbLine
 10
-1043.285728422456
 20
567.1831115505864
 30
0.0
 11
-1271.285728422453
 21
795.1831115505854
 31
0.0
  0
LINE
  5
2AC
330
1F
100
AcDbEntity
  8
0-0
  6
JWW_DASHED1
 62
   120
370
     5
100
AcDbLine
 10
-1043.285728422452
 20
553.0409759282702
 30
0.0
 11
-1271.285728422449
 21
781.0409759282684
 31
0.0
  0
LINE
  5
2AD
330
1F
100
AcDbEntity
  8
0-0
  6
JWW_DASHED1
 62
   120
370
     5
100
AcDbLine
 10
-1043.285728422449
 20
538.8988403059523
 30
0.0
 11
-1271.285728422449
 21
766.8988403059504
 31
0.0
  0
LINE
  5
2AE
330
1F
100
AcDbEntity
  8
0-0
  6
JWW_DASHED1
 62
   120
370
     5
100
AcDbLine
 10
-1043.285728422449
 20
524.7567046836368
 30
0.0
 11
-1271.285728422446
 21
752.756704683635
 31
0.0
  0
LINE
  5
2AF
330
1F
100
AcDbEntity
  8
0-0
  6
JWW_DASHED1
 62
   120
370
     5
100
AcDbLine
 10
-1043.285728422449
 20
510.6145690613232
 30
0.0
 11
-1271.285728422446
 21
738.6145690613205
 31
0.0
  0
LINE
  5
2B0
330
1F
100
AcDbEntity
  8
0-0
  6
JWW_DASHED1
 62
   120
370
     5
100
AcDbLine
 10
-1043.285728422449
 20
496.4724334390078
 30
0.0
 11
-1271.285728422446
 21
724.4724334390042
 31
0.0
  0
LINE
  5
2B1
330
1F
100
AcDbEntity
  8
0-0
  6
JWW_DASHED1
 62
   120
370
     5
100
AcDbLine
 10
-1043.285728422469
 20
482.3302978166583
 30
0.0
 11
-1271.285728422449
 21
710.3302978166412
 31
0.0
  0
LINE
  5
2B2
330
1F
100
AcDbEntity
  8
0-0
  6
JWW_DASHED1
 62
   120
370
     5
100
AcDbLine
 10
-1043.285728422466
 20
468.1881621943421
 30
0.0
 11
-1271.285728422449
 21
696.1881621943248
 31
0.0
  0
LINE
  5
2B3
330
1F
100
AcDbEntity
  8
0-0
  6
JWW_DASHED1
 62
   120
370
     5
100
AcDbLine
 10
-1043.285728422462
 20
454.0460265720242
 30
0.0
 11
-1271.285728422446
 21
682.0460265720078
 31
0.0
  0
LINE
  5
2B4
330
1F
100
AcDbEntity
  8
0-0
  6
JWW_DASHED1
 62
   120
370
     5
100
AcDbLine
 10
-1043.285728422462
 20
439.9038909497088
 30
0.0
 11
-1271.285728422443
 21
667.9038909496908
 31
0.0
  0
LINE
  5
2B5
330
1F
100
AcDbEntity
  8
0-0
  6
JWW_DASHED1
 62
   120
370
     5
100
AcDbLine
 10
-1043.285728422456
 20
425.7617553273917
 30
0.0
 11
-1271.285728422443
 21
653.7617553273744
 31
0.0
  0
LINE
  5
2B6
330
1F
100
AcDbEntity
  8
0-0
  6
JWW_DASHED1
 62
   120
370
     5
100
AcDbLine
 10
-1043.285728422456
 20
411.6196197050746
 30
0.0
 11
-1271.285728422456
 21
639.6196197050735
 31
0.0
  0
LINE
  5
2B7
330
1F
100
AcDbEntity
  8
0-0
  6
JWW_DASHED1
 62
   120
370
     5
100
AcDbLine
 10
-1043.285728422456
 20
397.4774840827575
 30
0.0
 11
-1271.285728422453
 21
625.4774840827565
 31
0.0
  0
LINE
  5
2B8
330
1F
100
AcDbEntity
  8
0-0
  6
JWW_DASHED1
 62
   120
370
     5
100
AcDbLine
 10
-1043.285728422452
 20
383.3353484604413
 30
0.0
 11
-1271.285728422449
 21
611.3353484604395
 31
0.0
  0
LINE
  5
2B9
330
1F
100
AcDbEntity
  8
0-0
  6
JWW_DASHED1
 62
   120
370
     5
100
AcDbLine
 10
-1043.285728422449
 20
369.1932128381234
 30
0.0
 11
-1271.285728422449
 21
597.1932128381231
 31
0.0
  0
LINE
  5
2BA
330
1F
100
AcDbEntity
  8
0-0
  6
JWW_DASHED1
 62
   120
370
     5
100
AcDbLine
 10
-1043.285728422449
 20
355.051077215808
 30
0.0
 11
-1271.285728422446
 21
583.0510772158061
 31
0.0
  0
LINE
  5
2BB
330
1F
100
AcDbEntity
  8
0-0
  6
JWW_DASHED1
 62
   120
370
     5
100
AcDbLine
 10
-1043.285728422452
 20
340.9089415934969
 30
0.0
 11
-1271.285728422449
 21
568.9089415934925
 31
0.0
  0
LINE
  5
2BC
330
1F
100
AcDbEntity
  8
0-0
  6
JWW_DASHED1
 62
   120
370
     5
100
AcDbLine
 10
-1043.285728422449
 20
326.7668059711789
 30
0.0
 11
-1271.285728422446
 21
554.7668059711771
 31
0.0
  0
LINE
  5
2BD
330
1F
100
AcDbEntity
  8
0-0
  6
JWW_DASHED1
 62
   120
370
     5
100
AcDbLine
 10
-1043.285728422456
 20
312.6246703488729
 30
0.0
 11
-1271.285728422456
 21
540.6246703488711
 31
0.0
  0
LINE
  5
2BE
330
1F
100
AcDbEntity
  8
0-0
  6
JWW_DASHED1
 62
   120
370
     5
100
AcDbLine
 10
-1043.285728422469
 20
298.4825347265721
 30
0.0
 11
-1271.285728422453
 21
526.4825347265548
 31
0.0
  0
LINE
  5
2BF
330
1F
100
AcDbEntity
  8
0-0
  6
JWW_DASHED1
 62
   120
370
     5
100
AcDbLine
 10
-1043.285728422469
 20
284.340399104255
 30
0.0
 11
-1271.285728422449
 21
512.3403991042378
 31
0.0
  0
LINE
  5
2C0
330
1F
100
AcDbEntity
  8
0-0
  6
JWW_DASHED1
 62
   120
370
     5
100
AcDbLine
 10
-1043.285728422466
 20
270.1982634819387
 30
0.0
 11
-1271.285728422449
 21
498.1982634819198
 31
0.0
  0
LINE
  5
2C1
330
1F
100
AcDbEntity
  8
0-0
  6
JWW_DASHED1
 62
   120
370
     5
100
AcDbLine
 10
-1043.285728422462
 20
256.0561278596208
 30
0.0
 11
-1271.285728422446
 21
484.0561278596044
 31
0.0
  0
LINE
  5
2C2
330
1F
100
AcDbEntity
  8
0-0
  6
JWW_DASHED1
 62
   120
370
     5
100
AcDbLine
 10
-1043.285728422462
 20
241.9139922373046
 30
0.0
 11
-1271.285728422443
 21
469.9139922372873
 31
0.0
  0
LINE
  5
2C3
330
1F
100
AcDbEntity
  8
0-0
  6
JWW_DASHED1
 62
   120
370
     5
100
AcDbLine
 10
-1043.285728422456
 20
227.7718566149883
 30
0.0
 11
-1271.285728422443
 21
455.7718566149703
 31
0.0
  0
LINE
  5
2C4
330
1F
100
AcDbEntity
  8
0-0
  6
JWW_DASHED1
 62
   120
370
     5
100
AcDbLine
 10
-1043.285728422456
 20
213.6297209926713
 30
0.0
 11
-1271.285728422456
 21
441.6297209926694
 31
0.0
  0
LINE
  5
2C5
330
1F
100
AcDbEntity
  8
0-0
  6
JWW_DASHED1
 62
   120
370
     5
100
AcDbLine
 10
-1043.285728422456
 20
199.4875853703542
 30
0.0
 11
-1271.285728422453
 21
427.4875853703531
 31
0.0
  0
LINE
  5
2C6
330
1F
100
AcDbEntity
  8
0-0
  6
JWW_DASHED1
 62
   120
370
     5
100
AcDbLine
 10
-1043.285728422452
 20
185.3454497480379
 30
0.0
 11
-1271.285728422449
 21
413.3454497480361
 31
0.0
  0
LINE
  5
2C7
330
1F
100
AcDbEntity
  8
0-0
  6
JWW_DASHED1
 62
   120
370
     5
100
AcDbLine
 10
-1043.285728422449
 20
171.2033141257209
 30
0.0
 11
-1271.285728422449
 21
399.2033141257181
 31
0.0
  0
LINE
  5
2C8
330
1F
100
AcDbEntity
  8
0-0
  6
JWW_DASHED1
 62
   120
370
     5
100
AcDbLine
 10
-1043.285728422449
 20
157.0611785033518
 30
0.0
 11
-1271.285728422446
 21
385.0611785033482
 31
0.0
  0
LINE
  5
2C9
330
1F
100
AcDbEntity
  8
0-0
  6
JWW_DASHED1
 62
   120
370
     5
100
AcDbLine
 10
-1043.285728422456
 20
142.919042881044
 30
0.0
 11
-1271.285728422456
 21
370.9190428810422
 31
0.0
  0
LINE
  5
2CA
330
1F
100
AcDbEntity
  8
0-0
  6
JWW_DASHED1
 62
   120
370
     5
100
AcDbLine
 10
-1043.285728422469
 20
128.7769072587432
 30
0.0
 11
-1271.285728422453
 21
356.7769072587259
 31
0.0
  0
LINE
  5
2CB
330
1F
100
AcDbEntity
  8
0-0
  6
JWW_DASHED1
 62
   120
370
     5
100
AcDbLine
 10
-1043.285728422469
 20
114.6347716364261
 30
0.0
 11
-1271.285728422449
 21
342.6347716364089
 31
0.0
  0
LINE
  5
2CC
330
1F
100
AcDbEntity
  8
0-0
  6
JWW_DASHED1
 62
   120
370
     5
100
AcDbLine
 10
-1043.285728422466
 20
100.4926360141098
 30
0.0
 11
-1271.285728422449
 21
328.4926360140909
 31
0.0
  0
LINE
  5
2CD
330
1F
100
AcDbEntity
  8
0-0
  6
JWW_DASHED1
 62
   120
370
     5
100
AcDbLine
 10
-1043.285728422462
 20
86.35050039179191
 30
0.0
 11
-1271.285728422446
 21
314.3505003917755
 31
0.0
  0
LINE
  5
2CE
330
1F
100
AcDbEntity
  8
0-0
  6
JWW_DASHED1
 62
   120
370
     5
100
AcDbLine
 10
-1043.285728422462
 20
72.20836476947568
 30
0.0
 11
-1271.285728422443
 21
300.2083647694585
 31
0.0
  0
LINE
  5
2CF
330
1F
100
AcDbEntity
  8
0-0
  6
JWW_DASHED1
 62
   120
370
     5
100
AcDbLine
 10
-1043.285728422456
 20
58.06622914715945
 30
0.0
 11
-1271.285728422443
 21
286.0662291471414
 31
0.0
  0
LINE
  5
2D0
330
1F
100
AcDbEntity
  8
0-0
  6
JWW_DASHED1
 62
   120
370
     5
100
AcDbLine
 10
-1043.285728422456
 20
43.92409352484236
 30
0.0
 11
-1271.285728422456
 21
271.9240935248405
 31
0.0
  0
LINE
  5
2D1
330
1F
100
AcDbEntity
  8
0-0
  6
JWW_DASHED1
 62
   120
370
     5
100
AcDbLine
 10
-1043.285728422456
 20
29.78195790252528
 30
0.0
 11
-1271.285728422453
 21
257.7819579025243
 31
0.0
  0
LINE
  5
2D2
330
1F
100
AcDbEntity
  8
0-0
  6
JWW_DASHED1
 62
   120
370
     5
100
AcDbLine
 10
-1043.285728422452
 20
15.63982228020905
 30
0.0
 11
-1271.285728422449
 21
243.6398222802072
 31
0.0
  0
LINE
  5
2D3
330
1F
100
AcDbEntity
  8
0-0
  6
JWW_DASHED1
 62
   120
370
     5
100
AcDbLine
 10
-1043.285728422449
 20
1.497686657891961
 30
0.0
 11
-1271.285728422449
 21
229.4976866578892
 31
0.0
  0
LINE
  5
2D4
330
1F
100
AcDbEntity
  8
0-0
  6
JWW_DASHED1
 62
   120
370
     5
100
AcDbLine
 10
-1043.285728422449
 20
-12.64444896442512
 30
0.0
 11
-1271.285728422446
 21
215.3555510355739
 31
0.0
  0
LINE
  5
2D5
330
1F
100
AcDbEntity
  8
0-0
  6
JWW_DASHED1
 62
   120
370
     5
100
AcDbLine
 10
-1043.285728422452
 20
-26.78658458673283
 30
0.0
 11
-1271.285728422449
 21
201.2134154132636
 31
0.0
  0
LINE
  5
2D6
330
1F
100
AcDbEntity
  8
0-0
  6
JWW_DASHED1
 62
   120
370
     5
100
AcDbLine
 10
-1043.285728422452
 20
-40.92872020904991
 30
0.0
 11
-1271.285728422449
 21
187.0712797909457
 31
0.0
  0
LINE
  5
2D7
330
1F
100
AcDbEntity
  8
0-0
  6
JWW_DASHED1
 62
   120
370
     5
100
AcDbLine
 10
-1043.285728422456
 20
-55.07085583135932
 30
0.0
 11
-1271.285728422456
 21
172.9291441686388
 31
0.0
  0
LINE
  5
2D8
330
1F
100
AcDbEntity
  8
0-0
  6
JWW_DASHED1
 62
   120
370
     5
100
AcDbLine
 10
-1043.285728422469
 20
-69.21299145366021
 30
0.0
 11
-1271.285728422453
 21
158.7870085463226
 31
0.0
  0
LINE
  5
2D9
330
1F
100
AcDbEntity
  8
0-0
  6
JWW_DASHED1
 62
   120
370
     5
100
AcDbLine
 10
-1043.285728422469
 20
-83.3551270759773
 30
0.0
 11
-1271.285728422449
 21
144.6448729240055
 31
0.0
  0
LINE
  5
2DA
330
1F
100
AcDbEntity
  8
0-0
  6
JWW_DASHED1
 62
   120
370
     5
100
AcDbLine
 10
-1043.285728422466
 20
-97.49726269829353
 30
0.0
 11
-1271.285728422449
 21
130.5027373016875
 31
0.0
  0
LINE
  5
2DB
330
1F
100
AcDbEntity
  8
0-0
  6
JWW_DASHED1
 62
   120
370
     5
100
AcDbLine
 10
-1043.285728422462
 20
-111.6393983206115
 30
0.0
 11
-1271.285728422446
 21
116.3606016793722
 31
0.0
  0
LINE
  5
2DC
330
1F
100
AcDbEntity
  8
0-0
  6
JWW_DASHED1
 62
   120
370
     5
100
AcDbLine
 10
-1043.285728422462
 20
-125.7815339429277
 30
0.0
 11
-1271.285728422443
 21
102.2184660570551
 31
0.0
  0
LINE
  5
2DD
330
1F
100
AcDbEntity
  8
0-0
  6
JWW_DASHED1
 62
   120
370
     5
100
AcDbLine
 10
-1043.285728422456
 20
-139.9236695652439
 30
0.0
 11
-1271.285728422443
 21
88.076330434738
 31
0.0
  0
LINE
  5
2DE
330
1F
100
AcDbEntity
  8
0-0
  6
JWW_DASHED1
 62
   120
370
     5
100
AcDbLine
 10
-1043.285728422456
 20
-154.0658051875909
 30
0.0
 11
-1271.285728422453
 21
73.93419481240812
 31
0.0
  0
LINE
  5
2DF
330
1F
100
AcDbEntity
  8
0-0
  6
JWW_DASHED1
 62
   120
370
     5
100
AcDbLine
 10
-1043.285728422449
 20
-168.2079408099378
 30
0.0
 11
-1271.285728422449
 21
59.79205919006034
 31
0.0
  0
LINE
  5
2E0
330
1F
100
AcDbEntity
  8
0-0
  6
JWW_DASHED1
 62
   120
370
     5
100
AcDbLine
 10
-1043.285728422449
 20
-182.350076432254
 30
0.0
 11
-1271.285728422446
 21
45.64992356774496
 31
0.0
  0
LINE
  5
2E1
330
1F
100
AcDbEntity
  8
0-0
  6
JWW_DASHED1
 62
   120
370
     5
100
AcDbLine
 10
-1043.285728422456
 20
-196.4922120545609
 30
0.0
 11
-1271.285728422453
 21
31.50778794543555
 31
0.0
  0
LINE
  5
2E2
330
1F
100
AcDbEntity
  8
0-0
  6
JWW_DASHED1
 62
   120
370
     5
100
AcDbLine
 10
-1043.285728422452
 20
-210.634347676878
 30
0.0
 11
-1271.285728422449
 21
17.36565232311932
 31
0.0
  0
LINE
  5
2E3
330
1F
100
AcDbEntity
  8
0-0
  6
JWW_DASHED1
 62
   120
370
     5
100
AcDbLine
 10
-1043.285728422456
 20
-224.7764832991882
 30
0.0
 11
-1271.285728422456
 21
3.22351670080991
 31
0.0
  0
LINE
  5
2E4
330
1F
100
AcDbEntity
  8
0-0
  6
JWW_DASHED1
 62
   120
370
     5
100
AcDbLine
 10
-1043.285728422456
 20
-238.9186189215053
 30
0.0
 11
-1271.285728422453
 21
-10.91861892150632
 31
0.0
  0
LINE
  5
2E5
330
1F
100
AcDbEntity
  8
0-0
  6
JWW_DASHED1
 62
   120
370
     5
100
AcDbLine
 10
-1043.285728422466
 20
-253.0607545438062
 30
0.0
 11
-1271.285728422449
 21
-25.06075454382341
 31
0.0
  0
LINE
  5
2E6
330
1F
100
AcDbEntity
  8
0-0
  6
JWW_DASHED1
 62
   120
370
     5
100
AcDbLine
 10
-1043.285728422466
 20
-267.2028901661224
 30
0.0
 11
-1271.285728422449
 21
-39.20289016614134
 31
0.0
  0
LINE
  5
2E7
330
1F
100
AcDbEntity
  8
0-0
  6
JWW_DASHED1
 62
   120
370
     5
100
AcDbLine
 10
-1043.285728422462
 20
-281.3450257884404
 30
0.0
 11
-1271.285728422446
 21
-53.34502578845672
 31
0.0
  0
LINE
  5
2E8
330
1F
100
AcDbEntity
  8
0-0
  6
JWW_DASHED1
 62
   120
370
     5
100
AcDbLine
 10
-1043.285728422462
 20
-295.4871614107566
 30
0.0
 11
-1271.285728422443
 21
-67.48716141077381
 31
0.0
  0
LINE
  5
2E9
330
1F
100
AcDbEntity
  8
0-0
  6
JWW_DASHED1
 62
   120
370
     5
100
AcDbLine
 10
-1043.285728422456
 20
-309.6292970330728
 30
0.0
 11
-1271.285728422443
 21
-81.6292970330909
 31
0.0
  0
LINE
  5
2EA
330
1F
100
AcDbEntity
  8
0-0
  6
JWW_DASHED1
 62
   120
370
     5
100
AcDbLine
 10
-1043.285728422456
 20
-323.7714326553899
 30
0.0
 11
-1271.285728422456
 21
-95.77143265539178
 31
0.0
  0
LINE
  5
2EB
330
1F
100
AcDbEntity
  8
0-0
  6
JWW_DASHED1
 62
   120
370
     5
100
AcDbLine
 10
-1043.285728422452
 20
-337.913568277707
 30
0.0
 11
-1271.285728422453
 21
-109.913568277708
 31
0.0
  0
LINE
  5
2EC
330
1F
100
AcDbEntity
  8
0-0
  6
JWW_DASHED1
 62
   120
370
     5
100
AcDbLine
 10
-1043.285728422452
 20
-352.0557039000232
 30
0.0
 11
-1271.285728422449
 21
-124.0557039000251
 31
0.0
  0
LINE
  5
2ED
330
1F
100
AcDbEntity
  8
0-0
  6
JWW_DASHED1
 62
   120
370
     5
100
AcDbLine
 10
-1043.285728422449
 20
-366.1978395223412
 30
0.0
 11
-1271.285728422449
 21
-138.197839522343
 31
0.0
  0
LINE
  5
2EE
330
1F
100
AcDbEntity
  8
0-0
  6
JWW_DASHED1
 62
   120
370
     5
100
AcDbLine
 10
-1043.285728422449
 20
-380.3399751446574
 30
0.0
 11
-1271.285728422446
 21
-152.3399751446584
 31
0.0
  0
LINE
  5
2EF
330
1F
100
AcDbEntity
  8
0-0
  6
JWW_DASHED1
 62
   120
370
     5
100
AcDbLine
 10
-1043.285728422445
 20
-394.4821107669736
 30
0.0
 11
-1271.285728422443
 21
-166.4821107669755
 31
0.0
  0
LINE
  5
2F0
330
1F
100
AcDbEntity
  8
0-0
  6
JWW_DASHED1
 62
   120
370
     5
100
AcDbLine
 10
-1043.285728422452
 20
-408.6242463892796
 30
0.0
 11
-1271.285728422449
 21
-180.6242463892823
 31
0.0
  0
LINE
  5
2F1
330
1F
100
AcDbEntity
  8
0-0
  6
JWW_DASHED1
 62
   120
370
     5
100
AcDbLine
 10
-1043.285728422456
 20
-422.7663820115916
 30
0.0
 11
-1271.285728422456
 21
-194.7663820115935
 31
0.0
  0
LINE
  5
2F2
330
1F
100
AcDbEntity
  8
0-0
  6
JWW_DASHED1
 62
   120
370
     5
100
AcDbLine
 10
-1043.285728422456
 20
-436.9085176339087
 30
0.0
 11
-1271.285728422453
 21
-208.9085176339105
 31
0.0
  0
LINE
  5
2F3
330
1F
100
AcDbEntity
  8
0-0
  6
JWW_DASHED1
 62
   120
370
     5
100
AcDbLine
 10
-1043.285728422466
 20
-451.0506532562096
 30
0.0
 11
-1271.285728422449
 21
-223.0506532562268
 31
0.0
  0
LINE
  5
2F4
330
1F
100
AcDbEntity
  8
0-0
  6
JWW_DASHED1
 62
   120
370
     5
100
AcDbLine
 10
-1043.285728422466
 20
-465.1927888785266
 30
0.0
 11
-1271.285728422449
 21
-237.1927888785447
 31
0.0
  0
LINE
  5
2F5
330
1F
100
AcDbEntity
  8
0-0
  6
JWW_DASHED1
 62
   120
370
     5
100
AcDbLine
 10
-1043.285728422462
 20
-479.3349245008437
 30
0.0
 11
-1271.285728422446
 21
-251.3349245008601
 31
0.0
  0
LINE
  5
2F6
330
1F
100
AcDbEntity
  8
0-0
  6
JWW_DASHED1
 62
   120
370
     5
100
AcDbLine
 10
-1043.285728422456
 20
-493.4770601232188
 30
0.0
 11
-1271.285728422456
 21
-265.4770601232207
 31
0.0
  0
LINE
  5
2F7
330
1F
100
AcDbEntity
  8
0-0
  6
JWW_DASHED1
 62
   120
370
     5
100
AcDbLine
 10
-1043.285728422452
 20
-507.6191957455359
 30
0.0
 11
-1271.285728422453
 21
-279.6191957455369
 31
0.0
  0
LINE
  5
2F8
330
1F
100
AcDbEntity
  8
0-0
  6
JWW_DASHED1
 62
   120
370
     5
100
AcDbLine
 10
-1043.285728422452
 20
-521.7613313678521
 30
0.0
 11
-1271.285728422449
 21
-293.761331367854
 31
0.0
  0
LINE
  5
2F9
330
1F
100
AcDbEntity
  8
0-0
  6
JWW_DASHED1
 62
   120
370
     5
100
AcDbLine
 10
-1043.285728422449
 20
-535.90346699017
 30
0.0
 11
-1271.285728422449
 21
-307.9034669901719
 31
0.0
  0
LINE
  5
2FA
330
1F
100
AcDbEntity
  8
0-0
  6
JWW_DASHED1
 62
   120
370
     5
100
AcDbLine
 10
-1043.285728422449
 20
-550.0456026124863
 30
0.0
 11
-1271.285728422446
 21
-322.0456026124873
 31
0.0
  0
LINE
  5
2FB
330
1F
100
AcDbEntity
  8
0-0
  6
JWW_DASHED1
 62
   120
370
     5
100
AcDbLine
 10
-1043.285728422445
 20
-564.1877382348025
 30
0.0
 11
-1271.285728422443
 21
-336.1877382348044
 31
0.0
  0
LINE
  5
2FC
330
1F
100
AcDbEntity
  8
0-0
  6
JWW_DASHED1
 62
   120
370
     5
100
AcDbLine
 10
-1043.285728422456
 20
-578.3298738571077
 30
0.0
 11
-1271.285728422453
 21
-350.3298738571104
 31
0.0
  0
LINE
  5
2FD
330
1F
100
AcDbEntity
  8
0-0
  6
JWW_DASHED1
 62
   120
370
     5
100
AcDbLine
 10
-1043.285728422456
 20
-592.4720094794204
 30
0.0
 11
-1271.285728422456
 21
-364.4720094794224
 31
0.0
  0
LINE
  5
2FE
330
1F
100
AcDbEntity
  8
0-0
  6
JWW_DASHED1
 62
   120
370
     5
100
AcDbLine
 10
-1043.285728422452
 20
-606.6141451017376
 30
0.0
 11
-1271.285728422453
 21
-378.6141451017386
 31
0.0
  0
LINE
  5
2FF
330
1F
100
AcDbEntity
  8
0-0
  6
JWW_DASHED1
 62
   120
370
     5
100
AcDbLine
 10
-1043.285728422466
 20
-620.7562807240384
 30
0.0
 11
-1271.285728422449
 21
-392.7562807240557
 31
0.0
  0
LINE
  5
300
330
1F
100
AcDbEntity
  8
0-0
  6
JWW_DASHED1
 62
   120
370
     5
100
AcDbLine
 10
-1043.285728422466
 20
-634.8984163463547
 30
0.0
 11
-1271.285728422446
 21
-406.8984163463736
 31
0.0
  0
LINE
  5
301
330
1F
100
AcDbEntity
  8
0-0
  6
JWW_DASHED1
 62
   120
370
     5
100
AcDbLine
 10
-1043.285728422462
 20
-649.0405519686726
 30
0.0
 11
-1271.285728422446
 21
-421.0405519686898
 31
0.0
  0
LINE
  5
302
330
1F
100
AcDbEntity
  8
0-0
  6
JWW_DASHED1
 62
   120
370
     5
100
AcDbLine
 10
-1043.285728422459
 20
-663.1826875909888
 30
0.0
 11
-1271.285728422443
 21
-435.1826875910061
 31
0.0
  0
LINE
  5
303
330
1F
100
AcDbEntity
  8
0-0
  6
JWW_DASHED1
 62
   120
370
     5
100
AcDbLine
 10
-1043.285728422456
 20
-677.3248232133051
 30
0.0
 11
-1271.285728422443
 21
-449.3248232133232
 31
0.0
  0
LINE
  5
304
330
1F
100
AcDbEntity
  8
0-0
  6
JWW_DASHED1
 62
   120
370
     5
100
AcDbLine
 10
-1043.285728422456
 20
-691.4669588356221
 30
0.0
 11
-1271.285728422453
 21
-463.466958835624
 31
0.0
  0
LINE
  5
305
330
1F
100
AcDbEntity
  8
0-0
  6
JWW_DASHED1
 62
   120
370
     5
100
AcDbLine
 10
-1043.285728422452
 20
-705.6090944579392
 30
0.0
 11
-1271.285728422453
 21
-477.6090944579403
 31
0.0
  0
LINE
  5
306
330
1F
100
AcDbEntity
  8
0-0
  6
JWW_DASHED1
 62
   120
370
     5
100
AcDbLine
 10
-1043.285728422452
 20
-719.7512300802555
 30
0.0
 11
-1271.285728422449
 21
-491.7512300802574
 31
0.0
  0
LINE
  5
307
330
1F
100
AcDbEntity
  8
0-0
  6
JWW_DASHED1
 62
   120
370
     5
100
AcDbLine
 10
-1043.285728422449
 20
-733.8933657025734
 30
0.0
 11
-1271.285728422446
 21
-505.8933657025753
 31
0.0
  0
LINE
  5
308
330
1F
100
AcDbEntity
  8
0-0
  6
JWW_DASHED1
 62
   120
370
     5
100
AcDbLine
 10
-1043.285728422445
 20
-748.0355013248897
 30
0.0
 11
-1271.285728422446
 21
-520.0355013248907
 31
0.0
  0
LINE
  5
309
330
1F
100
AcDbEntity
  8
0-0
  6
JWW_DASHED1
 62
   120
370
     5
100
AcDbLine
 10
-1043.285728422445
 20
-762.1776369472068
 30
0.0
 11
-1271.285728422443
 21
-534.1776369472077
 31
0.0
  0
LINE
  5
30A
330
1F
100
AcDbEntity
  8
0-0
  6
JWW_DASHED1
 62
   120
370
     5
100
AcDbLine
 10
-1043.285728422456
 20
-776.3197725695102
 30
0.0
 11
-1271.285728422453
 21
-548.3197725695129
 31
0.0
  0
LINE
  5
30B
330
1F
100
AcDbEntity
  8
0-0
  6
JWW_DASHED1
 62
   120
370
     5
100
AcDbLine
 10
-1043.285728422456
 20
-790.4619081918247
 30
0.0
 11
-1271.285728422453
 21
-562.4619081918257
 31
0.0
  0
LINE
  5
30C
330
1F
100
AcDbEntity
  8
0-0
  6
JWW_DASHED1
 62
   120
370
     5
100
AcDbLine
 10
-1043.285728422452
 20
-804.6040438141409
 30
0.0
 11
-1271.285728422453
 21
-576.6040438141429
 31
0.0
  0
LINE
  5
30D
330
1F
100
AcDbEntity
  8
0-0
  6
JWW_DASHED1
 62
   120
370
     5
100
AcDbLine
 10
-1043.285728422466
 20
-818.7461794364418
 30
0.0
 11
-1271.285728422449
 21
-590.746179436459
 31
0.0
  0
LINE
  5
30E
330
1F
100
AcDbEntity
  8
0-0
  6
JWW_DASHED1
 62
   120
370
     5
100
AcDbLine
 10
-1043.285728422466
 20
-832.888315058759
 30
0.0
 11
-1271.285728422446
 21
-604.8883150587769
 31
0.0
  0
LINE
  5
30F
330
1F
100
AcDbEntity
  8
0-0
  6
JWW_DASHED1
 62
   120
370
     5
100
AcDbLine
 10
-1043.285728422462
 20
-847.030450681076
 30
0.0
 11
-1271.285728422446
 21
-619.0304506810924
 31
0.0
  0
LINE
  5
310
330
1F
100
AcDbEntity
  8
0-0
  6
JWW_DASHED1
 62
   120
370
     5
100
AcDbLine
 10
-1043.285728422456
 20
-861.172586303451
 30
0.0
 11
-1271.285728422453
 21
-633.1725863034529
 31
0.0
  0
LINE
  5
311
330
1F
100
AcDbEntity
  8
0-0
  6
JWW_DASHED1
 62
   120
370
     5
100
AcDbLine
 10
-1043.285728422452
 20
-875.3147219257681
 30
0.0
 11
-1271.285728422453
 21
-647.3147219257692
 31
0.0
  0
LINE
  5
312
330
1F
100
AcDbEntity
  8
0-0
  6
JWW_DASHED1
 62
   120
370
     5
100
AcDbLine
 10
-1043.285728422452
 20
-889.4568575480844
 30
0.0
 11
-1271.285728422449
 21
-661.4568575480862
 31
0.0
  0
LINE
  5
313
330
1F
100
AcDbEntity
  8
0-0
  6
JWW_DASHED1
 62
   120
370
     5
100
AcDbLine
 10
-1043.285728422449
 20
-903.5989931704028
 30
0.0
 11
-1271.285728422446
 21
-675.5989931704033
 31
0.0
  0
LINE
  5
314
330
1F
100
AcDbEntity
  8
0-0
  6
JWW_DASHED1
 62
   120
370
     5
100
AcDbLine
 10
-1043.285728422445
 20
-917.741128792719
 30
0.0
 11
-1271.285728422446
 21
-689.7411287927196
 31
0.0
  0
LINE
  5
315
330
1F
100
AcDbEntity
  8
0-0
  6
JWW_DASHED1
 62
   120
370
     5
100
AcDbLine
 10
-1043.285728422445
 20
-931.8832644150352
 30
0.0
 11
-1271.285728422443
 21
-703.8832644150366
 31
0.0
  0
LINE
  5
316
330
1F
100
AcDbEntity
  8
0-0
  6
JWW_DASHED1
 62
   120
370
     5
100
AcDbLine
 10
-1043.285728422456
 20
-946.0254000373378
 30
0.0
 11
-1271.285728422453
 21
-718.0254000373401
 31
0.0
  0
LINE
  5
317
330
1F
100
AcDbEntity
  8
0-0
  6
JWW_DASHED1
 62
   120
370
     5
100
AcDbLine
 10
-1043.285728422456
 20
-960.167535659654
 30
0.0
 11
-1271.285728422453
 21
-732.1675356596546
 31
0.0
  0
LINE
  5
318
330
1F
100
AcDbEntity
  8
0-0
  6
JWW_DASHED1
 62
   120
370
     5
100
AcDbLine
 10
-1043.285728422452
 20
-974.3096712819703
 30
0.0
 11
-1271.285728422453
 21
-746.3096712819718
 31
0.0
  0
LINE
  5
319
330
1F
100
AcDbEntity
  8
0-0
  6
JWW_DASHED1
 62
   120
370
     5
100
AcDbLine
 10
-1043.285728422466
 20
-988.4518069042712
 30
0.0
 11
-1271.285728422449
 21
-760.4518069042888
 31
0.0
  0
LINE
  5
31A
330
1F
100
AcDbEntity
  8
0-0
  6
JWW_DASHED1
 62
   120
370
     5
100
AcDbLine
 10
-1043.285728422466
 20
-1002.593942526588
 30
0.0
 11
-1271.285728422446
 21
-774.593942526605
 31
0.0
  0
LINE
  5
31B
330
1F
100
AcDbEntity
  8
0-0
  6
JWW_DASHED1
 62
   120
370
     5
100
AcDbLine
 10
-1043.285728422462
 20
-1016.736078148905
 30
0.0
 11
-1271.285728422446
 21
-788.7360781489213
 31
0.0
  0
LINE
  5
31C
330
1F
100
AcDbEntity
  8
0-0
  6
JWW_DASHED1
 62
   120
370
     5
100
AcDbLine
 10
-1043.285728422459
 20
-1030.878213771221
 30
0.0
 11
-1271.285728422443
 21
-802.8782137712392
 31
0.0
  0
LINE
  5
31D
330
1F
100
AcDbEntity
  8
0-0
  6
JWW_DASHED1
 62
   120
370
     5
100
AcDbLine
 10
-1043.285728422456
 20
-1045.020349393538
 30
0.0
 11
-1271.285728422439
 21
-817.0203493935554
 31
0.0
  0
LINE
  5
31E
330
1F
100
AcDbEntity
  8
0-0
  6
JWW_DASHED1
 62
   120
370
     5
100
AcDbLine
 10
-1043.285728422456
 20
-1059.162485015855
 30
0.0
 11
-1271.285728422439
 21
-831.1624850158726
 31
0.0
  0
LINE
  5
31F
330
1F
100
AcDbEntity
  8
0-0
  6
JWW_DASHED1
 62
   120
370
     5
100
AcDbLine
 10
-1043.285728422452
 20
-1073.304620638171
 30
0.0
 11
-1271.285728422453
 21
-845.3046206381725
 31
0.0
  0
LINE
  5
320
330
1F
100
AcDbEntity
  8
0-0
  6
JWW_DASHED1
 62
   120
370
     5
100
AcDbLine
 10
-1043.285728422452
 20
-1087.446756260489
 30
0.0
 11
-1271.285728422449
 21
-859.4467562604905
 31
0.0
  0
LINE
  5
321
330
1F
100
AcDbEntity
  8
0-0
  6
JWW_DASHED1
 62
   120
370
     5
100
AcDbLine
 10
-1043.285728422449
 20
-1101.588891882807
 30
0.0
 11
-1271.285728422446
 21
-873.5888918828067
 31
0.0
  0
LINE
  5
322
330
1F
100
AcDbEntity
  8
0-0
  6
Continuous
 62
    92
370
    13
100
AcDbLine
 10
-1559.28572842245
 20
-1144.798359187497
 30
0.0
 11
-1589.28572842245
 21
-1144.798359187497
 31
0.0
  0
LINE
  5
323
330
1F
100
AcDbEntity
  8
0-0
  6
Continuous
 62
    92
370
    13
100
AcDbLine
 10
1644.71427157755
 20
-1144.798359187497
 30
0.0
 11
1614.71427157755
 21
-1144.798359187497
 31
0.0
  0
LINE
  5
324
330
1F
100
AcDbEntity
  8
0-0
  6
Continuous
 62
    92
370
    13
100
AcDbLine
 10
1614.71427157755
 20
-1135.298359187499
 30
0.0
 11
27.71427157754914
 21
-1135.298359187499
 31
0.0
  0
LINE
  5
325
330
1F
100
AcDbEntity
  8
0-0
  6
Continuous
 62
    92
370
    13
100
AcDbLine
 10
-1559.28572842245
 20
-1135.298359187499
 30
0.0
 11
27.71427157754914
 21
-1135.298359187499
 31
0.0
  0
LINE
  5
326
330
1F
100
AcDbEntity
  8
0-0
  6
Continuous
 62
     7
370
     9
100
AcDbLine
 10
63.71427157754923
 20
-148.1983591874982
 30
0.0
 11
63.71427157754923
 21
-207.398359187498
 31
0.0
  0
LINE
  5
327
330
1F
100
AcDbEntity
  8
0-0
  6
Continuous
 62
     7
370
     9
100
AcDbLine
 10
93.71427157754923
 20
-207.398359187498
 30
0.0
 11
93.71427157754923
 21
-148.1983591874982
 31
0.0
  0
ARC
  5
328
330
1F
100
AcDbEntity
  8
0-0
  6
Continuous
 62
     7
370
     9
100
AcDbCircle
 10
78.71427157754923
 20
-148.1983591874982
 30
0.0
 40
15.0
100
AcDbArc
 50
0.0
 51
180.0
  0
ARC
  5
329
330
1F
100
AcDbEntity
  8
0-0
  6
Continuous
 62
     7
370
     9
100
AcDbCircle
 10
78.71427157754923
 20
-207.398359187498
 30
0.0
 40
15.0
100
AcDbArc
 50
180.0
 51
0.0
  0
ARC
  5
32A
330
1F
100
AcDbEntity
  8
0-0
  6
Continuous
 62
    92
370
    13
100
AcDbCircle
 10
59.21427157754778
 20
-237.2983591874981
 30
0.0
 40
1.5
100
AcDbArc
 50
180.0
 51
270.0
  0
LINE
  5
32B
330
1F
100
AcDbEntity
  8
0-0
  6
Continuous
 62
    92
370
    13
100
AcDbLine
 10
57.71427157754914
 20
-237.2983591874981
 30
0.0
 11
57.71427157754914
 21
-118.2983591874985
 31
0.0
  0
LINE
  5
32C
330
1F
100
AcDbEntity
  8
0-0
  6
Continuous
 62
    92
370
    13
100
AcDbLine
 10
59.21427157754778
 20
-238.7983591875002
 30
0.0
 11
98.21427157754982
 21
-238.7983591875002
 31
0.0
  0
ARC
  5
32D
330
1F
100
AcDbEntity
  8
0-0
  6
Continuous
 62
    92
370
    13
100
AcDbCircle
 10
98.21427157754982
 20
-237.2983591874981
 30
0.0
 40
1.5
100
AcDbArc
 50
270.0
 51
0.0
  0
LINE
  5
32E
330
1F
100
AcDbEntity
  8
0-0
  6
Continuous
 62
    92
370
    13
100
AcDbLine
 10
99.71427157755016
 20
-237.2983591874981
 30
0.0
 11
99.71427157755016
 21
-118.2983591874985
 31
0.0
  0
ARC
  5
32F
330
1F
100
AcDbEntity
  8
0-0
  6
Continuous
 62
    92
370
    13
100
AcDbCircle
 10
98.21427157754982
 20
-118.2983591874985
 30
0.0
 40
1.5
100
AcDbArc
 50
0.0
 51
90.00000000000001
  0
LINE
  5
330
330
1F
100
AcDbEntity
  8
0-0
  6
Continuous
 62
    92
370
    13
100
AcDbLine
 10
98.21427157754982
 20
-116.7983591874986
 30
0.0
 11
59.21427157754778
 21
-116.7983591874986
 31
0.0
  0
ARC
  5
331
330
1F
100
AcDbEntity
  8
0-0
  6
Continuous
 62
    92
370
    13
100
AcDbCircle
 10
59.21427157754778
 20
-118.2983591874985
 30
0.0
 40
1.5
100
AcDbArc
 50
90.0
 51
180.0
  0
LINE
  5
332
330
1F
100
AcDbEntity
  8
0-0
  6
Continuous
 62
     7
370
     9
100
AcDbLine
 10
-38.28572842244881
 20
-148.1983591874982
 30
0.0
 11
-38.28572842244881
 21
-207.398359187498
 31
0.0
  0
LINE
  5
333
330
1F
100
AcDbEntity
  8
0-0
  6
Continuous
 62
     7
370
     9
100
AcDbLine
 10
-8.285728422448813
 20
-207.398359187498
 30
0.0
 11
-8.285728422448813
 21
-148.1983591874982
 31
0.0
  0
ARC
  5
334
330
1F
100
AcDbEntity
  8
0-0
  6
Continuous
 62
     7
370
     9
100
AcDbCircle
 10
-23.28572842244881
 20
-148.1983591874982
 30
0.0
 40
15.0
100
AcDbArc
 50
0.0
 51
180.0
  0
ARC
  5
335
330
1F
100
AcDbEntity
  8
0-0
  6
Continuous
 62
     7
370
     9
100
AcDbCircle
 10
-23.28572842244881
 20
-207.398359187498
 30
0.0
 40
15.0
100
AcDbArc
 50
180.0
 51
0.0
  0
ARC
  5
336
330
1F
100
AcDbEntity
  8
0-0
  6
Continuous
 62
    92
370
    13
100
AcDbCircle
 10
-42.78572842244813
 20
-237.2983591874981
 30
0.0
 40
1.5
100
AcDbArc
 50
180.0
 51
270.0
  0
LINE
  5
337
330
1F
100
AcDbEntity
  8
0-0
  6
Continuous
 62
    92
370
    13
100
AcDbLine
 10
-44.28572842244805
 20
-237.2983591874981
 30
0.0
 11
-44.28572842244805
 21
-118.2983591874985
 31
0.0
  0
LINE
  5
338
330
1F
100
AcDbEntity
  8
0-0
  6
Continuous
 62
    92
370
    13
100
AcDbLine
 10
-42.78572842244813
 20
-238.7983591875002
 30
0.0
 11
-3.785728422449495
 21
-238.7983591875002
 31
0.0
  0
ARC
  5
339
330
1F
100
AcDbEntity
  8
0-0
  6
Continuous
 62
    92
370
    13
100
AcDbCircle
 10
-3.785728422449495
 20
-237.2983591874981
 30
0.0
 40
1.5
100
AcDbArc
 50
270.0
 51
0.0
  0
LINE
  5
33A
330
1F
100
AcDbEntity
  8
0-0
  6
Continuous
 62
    92
370
    13
100
AcDbLine
 10
-2.285728422449154
 20
-237.2983591874981
 30
0.0
 11
-2.285728422449154
 21
-118.2983591874985
 31
0.0
  0
ARC
  5
33B
330
1F
100
AcDbEntity
  8
0-0
  6
Continuous
 62
    92
370
    13
100
AcDbCircle
 10
-3.785728422449495
 20
-118.2983591874985
 30
0.0
 40
1.5
100
AcDbArc
 50
0.0
 51
90.00000000000001
  0
LINE
  5
33C
330
1F
100
AcDbEntity
  8
0-0
  6
Continuous
 62
    92
370
    13
100
AcDbLine
 10
-3.785728422449495
 20
-116.7983591874986
 30
0.0
 11
-42.78572842244813
 21
-116.7983591874986
 31
0.0
  0
ARC
  5
33D
330
1F
100
AcDbEntity
  8
0-0
  6
Continuous
 62
    92
370
    13
100
AcDbCircle
 10
-42.78572842244813
 20
-118.2983591874985
 30
0.0
 40
1.5
100
AcDbArc
 50
90.0
 51
180.0
  0
LINE
  5
33E
330
1F
100
AcDbEntity
  8
0-0
  6
Continuous
 62
    92
370
    13
100
AcDbLine
 10
1614.71427157755
 20
1224.701640812502
 30
0.0
 11
27.71427157754914
 21
1224.701640812502
 31
0.0
  0
LINE
  5
33F
330
1F
100
AcDbEntity
  8
0-0
  6
JWW_DASHED1
 62
   120
370
     5
100
AcDbLine
 10
807.7142715775492
 20
-1135.298359187499
 30
0.0
 11
807.7142715775492
 21
1224.701640812502
 31
0.0
  0
LINE
  5
340
330
1F
100
AcDbEntity
  8
0-0
  6
Continuous
 62
    92
370
    13
100
AcDbLine
 10
837.7142715775492
 20
-1135.298359187499
 30
0.0
 11
837.7142715775492
 21
1224.701640812502
 31
0.0
  0
LINE
  5
341
330
1F
100
AcDbEntity
  8
0-0
  6
Continuous
 62
    92
370
    13
100
AcDbLine
 10
27.71427157754914
 20
-1135.298359187499
 30
0.0
 11
27.71427157754914
 21
1224.701640812502
 31
0.0
  0
LINE
  5
342
330
1F
100
AcDbEntity
  8
0-0
  6
Continuous
 62
    92
370
    13
100
AcDbLine
 10
-1559.28572842245
 20
1224.701640812502
 30
0.0
 11
27.71427157754914
 21
1224.701640812502
 31
0.0
  0
LINE
  5
343
330
1F
100
AcDbEntity
  8
0-0
  6
JWW_DASHED1
 62
   120
370
     5
100
AcDbLine
 10
-752.2857284224508
 20
-1135.298359187499
 30
0.0
 11
-752.2857284224508
 21
1224.701640812502
 31
0.0
  0
LINE
  5
344
330
1F
100
AcDbEntity
  8
0-0
  6
Continuous
 62
    92
370
    13
100
AcDbLine
 10
-782.2857284224508
 20
-1135.298359187499
 30
0.0
 11
-782.2857284224508
 21
1224.701640812502
 31
0.0
  0
LINE
  5
345
330
1F
100
AcDbEntity
  8
0-0
  6
Continuous
 62
    92
370
    13
100
AcDbLine
 10
-1559.28572842245
 20
1232.201640812502
 30
0.0
 11
1614.71427157755
 21
1232.201640812502
 31
0.0
  0
LINE
  5
346
330
1F
100
AcDbEntity
  8
0-0
  6
Continuous
 62
    92
370
    13
100
AcDbLine
 10
-1589.28572842245
 20
-1144.798359187497
 30
0.0
 11
-1589.28572842245
 21
1255.201640812503
 31
0.0
  0
LINE
  5
347
330
1F
100
AcDbEntity
  8
0-0
  6
Continuous
 62
    92
370
    13
100
AcDbLine
 10
1644.71427157755
 20
-1144.798359187497
 30
0.0
 11
1644.71427157755
 21
1255.201640812503
 31
0.0
  0
LINE
  5
348
330
1F
100
AcDbEntity
  8
0-0
  6
Continuous
 62
    92
370
    13
100
AcDbLine
 10
-1589.28572842245
 20
1255.201640812503
 30
0.0
 11
1644.71427157755
 21
1255.201640812503
 31
0.0
  0
LINE
  5
349
330
1F
100
AcDbEntity
  8
0-0
  6
Continuous
 62
    92
370
    13
100
AcDbLine
 10
-1559.28572842245
 20
-1144.798359187497
 30
0.0
 11
-1559.28572842245
 21
1255.201640812503
 31
0.0
  0
LINE
  5
34A
330
1F
100
AcDbEntity
  8
0-0
  6
Continuous
 62
    92
370
    13
100
AcDbLine
 10
1614.71427157755
 20
-1144.798359187497
 30
0.0
 11
1614.71427157755
 21
1255.201640812503
 31
0.0
  0
LINE
  5
34B
330
1F
100
AcDbEntity
  8
0-0
  6
JWW_DASHED1
 62
   120
370
     5
100
AcDbLine
 10
-1562.285728422451
 20
-1135.298359187499
 30
0.0
 11
-1562.285728422451
 21
1224.701640812502
 31
0.0
  0
LINE
  5
34C
330
1F
100
AcDbEntity
  8
0-0
  6
JWW_DASHED1
 62
   120
370
     5
100
AcDbLine
 10
1617.714271577549
 20
-1135.298359187499
 30
0.0
 11
1617.714271577549
 21
1224.701640812502
 31
0.0
  0
LINE
  5
34D
330
1F
100
AcDbEntity
  8
0-0
  6
JWW_DASHED1
 62
   120
370
     5
100
AcDbLine
 10
1614.71427157755
 20
1224.701640812502
 30
0.0
 11
1617.714271577549
 21
1224.701640812502
 31
0.0
  0
LINE
  5
34E
330
1F
100
AcDbEntity
  8
0-0
  6
JWW_DASHED1
 62
   120
370
     5
100
AcDbLine
 10
1614.71427157755
 20
-1135.298359187499
 30
0.0
 11
1617.714271577549
 21
-1135.298359187499
 31
0.0
  0
LINE
  5
34F
330
1F
100
AcDbEntity
  8
0-0
  6
JWW_DASHED1
 62
   120
370
     5
100
AcDbLine
 10
-1562.285728422451
 20
1224.701640812502
 30
0.0
 11
-1559.28572842245
 21
1224.701640812502
 31
0.0
  0
LINE
  5
350
330
1F
100
AcDbEntity
  8
0-0
  6
JWW_DASHED1
 62
   120
370
     5
100
AcDbLine
 10
-1562.285728422451
 20
-1135.298359187499
 30
0.0
 11
-1559.28572842245
 21
-1135.298359187499
 31
0.0
  0
LINE
  5
351
330
1F
100
AcDbEntity
  8
0-0
  6
Continuous
 62
     7
370
     9
100
AcDbLine
 10
1551.714271577551
 20
-148.1983591874982
 30
0.0
 11
1551.714271577551
 21
-207.398359187498
 31
0.0
  0
LINE
  5
352
330
1F
100
AcDbEntity
  8
0-0
  6
Continuous
 62
     7
370
     9
100
AcDbLine
 10
1581.714271577551
 20
-207.398359187498
 30
0.0
 11
1581.714271577551
 21
-148.1983591874982
 31
0.0
  0
ARC
  5
353
330
1F
100
AcDbEntity
  8
0-0
  6
Continuous
 62
     7
370
     9
100
AcDbCircle
 10
1566.714271577551
 20
-148.1983591874982
 30
0.0
 40
15.0
100
AcDbArc
 50
0.0
 51
180.0
  0
ARC
  5
354
330
1F
100
AcDbEntity
  8
0-0
  6
Continuous
 62
     7
370
     9
100
AcDbCircle
 10
1566.714271577551
 20
-207.398359187498
 30
0.0
 40
15.0
100
AcDbArc
 50
180.0
 51
0.0
  0
ARC
  5
355
330
1F
100
AcDbEntity
  8
0-0
  6
Continuous
 62
    92
370
    13
100
AcDbCircle
 10
1547.214271577552
 20
-237.2983591874981
 30
0.0
 40
1.5
100
AcDbArc
 50
180.0
 51
270.0
  0
LINE
  5
356
330
1F
100
AcDbEntity
  8
0-0
  6
Continuous
 62
    92
370
    13
100
AcDbLine
 10
1545.714271577551
 20
-237.2983591874981
 30
0.0
 11
1545.714271577551
 21
-118.2983591874985
 31
0.0
  0
LINE
  5
357
330
1F
100
AcDbEntity
  8
0-0
  6
Continuous
 62
    92
370
    13
100
AcDbLine
 10
1547.214271577552
 20
-238.7983591875002
 30
0.0
 11
1586.214271577551
 21
-238.7983591875002
 31
0.0
  0
ARC
  5
358
330
1F
100
AcDbEntity
  8
0-0
  6
Continuous
 62
    92
370
    13
100
AcDbCircle
 10
1586.214271577551
 20
-237.2983591874981
 30
0.0
 40
1.5
100
AcDbArc
 50
270.0
 51
0.0
  0
LINE
  5
359
330
1F
100
AcDbEntity
  8
0-0
  6
Continuous
 62
    92
370
    13
100
AcDbLine
 10
1587.714271577551
 20
-237.2983591874981
 30
0.0
 11
1587.714271577551
 21
-118.2983591874985
 31
0.0
  0
ARC
  5
35A
330
1F
100
AcDbEntity
  8
0-0
  6
Continuous
 62
    92
370
    13
100
AcDbCircle
 10
1586.214271577551
 20
-118.2983591874985
 30
0.0
 40
1.5
100
AcDbArc
 50
0.0
 51
90.00000000000001
  0
LINE
  5
35B
330
1F
100
AcDbEntity
  8
0-0
  6
Continuous
 62
    92
370
    13
100
AcDbLine
 10
1586.214271577551
 20
-116.7983591874986
 30
0.0
 11
1547.214271577552
 21
-116.7983591874986
 31
0.0
  0
ARC
  5
35C
330
1F
100
AcDbEntity
  8
0-0
  6
Continuous
 62
    92
370
    13
100
AcDbCircle
 10
1547.214271577552
 20
-118.2983591874985
 30
0.0
 40
1.5
100
AcDbArc
 50
90.0
 51
180.0
  0
LINE
  5
35D
330
1F
100
AcDbEntity
  8
0-0
  6
Continuous
 62
     7
370
     9
100
AcDbLine
 10
-1526.285728422451
 20
-148.1983591874982
 30
0.0
 11
-1526.285728422451
 21
-207.398359187498
 31
0.0
  0
LINE
  5
35E
330
1F
100
AcDbEntity
  8
0-0
  6
Continuous
 62
     7
370
     9
100
AcDbLine
 10
-1496.285728422451
 20
-207.398359187498
 30
0.0
 11
-1496.285728422451
 21
-148.1983591874982
 31
0.0
  0
ARC
  5
35F
330
1F
100
AcDbEntity
  8
0-0
  6
Continuous
 62
     7
370
     9
100
AcDbCircle
 10
-1511.285728422451
 20
-148.1983591874982
 30
0.0
 40
15.0
100
AcDbArc
 50
0.0
 51
180.0
  0
ARC
  5
360
330
1F
100
AcDbEntity
  8
0-0
  6
Continuous
 62
     7
370
     9
100
AcDbCircle
 10
-1511.285728422451
 20
-207.398359187498
 30
0.0
 40
15.0
100
AcDbArc
 50
180.0
 51
0.0
  0
ARC
  5
361
330
1F
100
AcDbEntity
  8
0-0
  6
Continuous
 62
    92
370
    13
100
AcDbCircle
 10
-1530.785728422452
 20
-237.2983591874981
 30
0.0
 40
1.5
100
AcDbArc
 50
180.0
 51
270.0
  0
LINE
  5
362
330
1F
100
AcDbEntity
  8
0-0
  6
Continuous
 62
    92
370
    13
100
AcDbLine
 10
-1532.285728422451
 20
-237.2983591874981
 30
0.0
 11
-1532.285728422451
 21
-118.2983591874985
 31
0.0
  0
LINE
  5
363
330
1F
100
AcDbEntity
  8
0-0
  6
Continuous
 62
    92
370
    13
100
AcDbLine
 10
-1530.785728422452
 20
-238.7983591875002
 30
0.0
 11
-1491.78572842245
 21
-238.7983591875002
 31
0.0
  0
ARC
  5
364
330
1F
100
AcDbEntity
  8
0-0
  6
Continuous
 62
    92
370
    13
100
AcDbCircle
 10
-1491.78572842245
 20
-237.2983591874981
 30
0.0
 40
1.5
100
AcDbArc
 50
270.0
 51
0.0
  0
LINE
  5
365
330
1F
100
AcDbEntity
  8
0-0
  6
Continuous
 62
    92
370
    13
100
AcDbLine
 10
-1490.28572842245
 20
-237.2983591874981
 30
0.0
 11
-1490.28572842245
 21
-118.2983591874985
 31
0.0
  0
ARC
  5
366
330
1F
100
AcDbEntity
  8
0-0
  6
Continuous
 62
    92
370
    13
100
AcDbCircle
 10
-1491.78572842245
 20
-118.2983591874985
 30
0.0
 40
1.5
100
AcDbArc
 50
0.0
 51
90.00000000000001
  0
LINE
  5
367
330
1F
100
AcDbEntity
  8
0-0
  6
Continuous
 62
    92
370
    13
100
AcDbLine
 10
-1491.78572842245
 20
-116.7983591874986
 30
0.0
 11
-1530.785728422452
 21
-116.7983591874986
 31
0.0
  0
ARC
  5
368
330
1F
100
AcDbEntity
  8
0-0
  6
Continuous
 62
    92
370
    13
100
AcDbCircle
 10
-1530.785728422452
 20
-118.2983591874985
 30
0.0
 40
1.5
100
AcDbArc
 50
90.0
 51
180.0
  0
LWPOLYLINE
  5
369
330
1F
100
AcDbEntity
  8
寸法
  6
Continuous
 62
     7
370
     9
100
AcDbPolyline
 90
        4
 70
     1
 43
3.0
 10
839.2142715775492
 20
-1394.798359187497
 42
0.4142135623731
 10
837.7142715775492
 20
-1393.298359187497
 42
0.4142135623731
 10
836.2142715775491
 20
-1394.798359187497
 42
0.4142135623731
 10
837.7142715775492
 20
-1396.298359187497
 42
0.4142135623731
  0
LWPOLYLINE
  5
36A
330
1F
100
AcDbEntity
  8
寸法
  6
Continuous
 62
     7
370
     9
100
AcDbPolyline
 90
        4
 70
     1
 43
3.0
 10
1646.21427157755
 20
-1794.798359187497
 42
0.4142135623731
 10
1644.71427157755
 20
-1793.298359187497
 42
0.4142135623731
 10
1643.21427157755
 20
-1794.798359187497
 42
0.4142135623731
 10
1644.71427157755
 20
-1796.298359187497
 42
0.4142135623731
  0
LWPOLYLINE
  5
36B
330
1F
100
AcDbEntity
  8
寸法
  6
Continuous
 62
     7
370
     9
100
AcDbPolyline
 90
        4
 70
     1
 43
3.0
 10
1616.21427157755
 20
-1594.798359187497
 42
0.4142135623731
 10
1614.71427157755
 20
-1593.298359187497
 42
0.4142135623731
 10
1613.21427157755
 20
-1594.798359187497
 42
0.4142135623731
 10
1614.71427157755
 20
-1596.298359187497
 42
0.4142135623731
  0
LWPOLYLINE
  5
36C
330
1F
100
AcDbEntity
  8
寸法
  6
Continuous
 62
     7
370
     9
100
AcDbPolyline
 90
        4
 70
     1
 43
3.0
 10
-780.7857284224507
 20
-1394.798359187497
 42
0.4142135623731
 10
-782.2857284224508
 20
-1393.298359187497
 42
0.4142135623731
 10
-783.7857284224508
 20
-1394.798359187497
 42
0.4142135623731
 10
-782.2857284224508
 20
-1396.298359187497
 42
0.4142135623731
  0
LWPOLYLINE
  5
36D
330
1F
100
AcDbEntity
  8
寸法
  6
Continuous
 62
     7
370
     9
100
AcDbPolyline
 90
        4
 70
     1
 43
3.0
 10
29.21427157754914
 20
-1394.798359187497
 42
0.4142135623731
 10
27.71427157754914
 20
-1393.298359187497
 42
0.4142135623731
 10
26.21427157754914
 20
-1394.798359187497
 42
0.4142135623731
 10
27.71427157754914
 20
-1396.298359187497
 42
0.4142135623731
  0
LWPOLYLINE
  5
36E
330
1F
100
AcDbEntity
  8
寸法
  6
Continuous
 62
     7
370
     9
100
AcDbPolyline
 90
        4
 70
     1
 43
3.0
 10
-1587.78572842245
 20
-1794.798359187498
 42
0.4142135623731
 10
-1589.28572842245
 20
-1793.298359187498
 42
0.4142135623731
 10
-1590.78572842245
 20
-1794.798359187498
 42
0.4142135623731
 10
-1589.28572842245
 20
-1796.298359187498
 42
0.4142135623731
  0
LWPOLYLINE
  5
36F
330
1F
100
AcDbEntity
  8
寸法
  6
Continuous
 62
     7
370
     9
100
AcDbPolyline
 90
        4
 70
     1
 43
3.0
 10
-1557.78572842245
 20
-1594.798359187497
 42
0.4142135623731
 10
-1559.28572842245
 20
-1593.298359187497
 42
0.4142135623731
 10
-1560.78572842245
 20
-1594.798359187497
 42
0.4142135623731
 10
-1559.28572842245
 20
-1596.298359187497
 42
0.4142135623731
  0
LINE
  5
370
330
1F
100
AcDbEntity
  8
寸法
  6
Continuous
 62
   120
370
     5
100
AcDbLine
 10
837.7142715775492
 20
-1394.798359187497
 30
0.0
 11
837.7142715775492
 21
-1194.798359187498
 31
0.0
  0
LINE
  5
371
330
1F
100
AcDbEntity
  8
寸法
  6
Continuous
 62
   120
370
     5
100
AcDbLine
 10
1644.71427157755
 20
-1794.798359187497
 30
0.0
 11
1644.71427157755
 21
-1194.798359187498
 31
0.0
  0
LINE
  5
372
330
1F
100
AcDbEntity
  8
寸法
  6
Continuous
 62
   120
370
     5
100
AcDbLine
 10
-1589.28572842245
 20
-1794.798359187498
 30
0.0
 11
1644.71427157755
 21
-1794.798359187497
 31
0.0
  0
LINE
  5
373
330
1F
100
AcDbEntity
  8
寸法
  6
Continuous
 62
   120
370
     5
100
AcDbLine
 10
1614.71427157755
 20
-1594.798359187497
 30
0.0
 11
1614.71427157755
 21
-1194.798359187498
 31
0.0
  0
LINE
  5
374
330
1F
100
AcDbEntity
  8
寸法
  6
Continuous
 62
   120
370
     5
100
AcDbLine
 10
-1559.28572842245
 20
-1594.798359187497
 30
0.0
 11
1614.71427157755
 21
-1594.798359187497
 31
0.0
  0
LINE
  5
375
330
1F
100
AcDbEntity
  8
寸法
  6
Continuous
 62
   120
370
     5
100
AcDbLine
 10
-782.2857284224508
 20
-1394.798359187497
 30
0.0
 11
837.7142715775492
 21
-1394.798359187497
 31
0.0
  0
LINE
  5
376
330
1F
100
AcDbEntity
  8
寸法
  6
Continuous
 62
   120
370
     5
100
AcDbLine
 10
-782.2857284224508
 20
-1394.798359187497
 30
0.0
 11
-782.2857284224508
 21
-1194.798359187498
 31
0.0
  0
LINE
  5
377
330
1F
100
AcDbEntity
  8
寸法
  6
Continuous
 62
   120
370
     5
100
AcDbLine
 10
27.71427157754914
 20
-1394.798359187497
 30
0.0
 11
27.71427157754914
 21
-1194.798359187498
 31
0.0
  0
LINE
  5
378
330
1F
100
AcDbEntity
  8
寸法
  6
Continuous
 62
   120
370
     5
100
AcDbLine
 10
-1589.28572842245
 20
-1794.798359187498
 30
0.0
 11
-1589.28572842245
 21
-1194.798359187498
 31
0.0
  0
LINE
  5
379
330
1F
100
AcDbEntity
  8
寸法
  6
Continuous
 62
   120
370
     5
100
AcDbLine
 10
-1559.28572842245
 20
-1594.798359187497
 30
0.0
 11
-1559.28572842245
 21
-1194.798359187498
 31
0.0
  0
LWPOLYLINE
  5
37A
330
1F
100
AcDbEntity
  8
寸法
  6
Continuous
 62
     7
370
     9
100
AcDbPolyline
 90
        4
 70
     1
 43
3.0
 10
-2037.78572842245
 20
-1144.798359187497
 42
0.4142135623731
 10
-2039.28572842245
 20
-1143.298359187497
 42
0.4142135623731
 10
-2040.78572842245
 20
-1144.798359187497
 42
0.4142135623731
 10
-2039.28572842245
 20
-1146.298359187497
 42
0.4142135623731
  0
LINE
  5
37B
330
1F
100
AcDbEntity
  8
寸法
  6
Continuous
 62
   120
370
     5
100
AcDbLine
 10
-2039.28572842245
 20
-1144.798359187497
 30
0.0
 11
-1639.285728422451
 21
-1144.798359187497
 31
0.0
  0
MTEXT
  5
37C
330
1F
100
AcDbEntity
  8
寸法
  6
Continuous
 62
     7
370
   211
100
AcDbMText
 10
-546.0357284224508
 20
-1388.723359187497
 30
0.0
 40
57.15000000000001
 41
337.5000000000001
 46
0.0
 71
     7
 72
     1
  1
{\fＭＳ ゴシック|b0|i0|c128|p49;ＤＷ＝810}
 73
     1
 44
1.0
  0
MTEXT
  5
37D
330
1F
100
AcDbEntity
  8
寸法
  6
Continuous
 62
     7
370
   211
100
AcDbMText
 10
263.9642715775492
 20
-1388.723359187497
 30
0.0
 40
57.14999999999998
 41
337.4999999999999
 46
0.0
 71
     7
 72
     1
  1
{\fＭＳ ゴシック|b0|i0|c128|p49;ＤＷ＝810}
 73
     1
 44
1.0
  0
MTEXT
  5
37E
330
1F
100
AcDbEntity
  8
寸法
  6
Continuous
 62
     7
370
   211
100
AcDbMText
 10
-178.5357284224509
 20
-1588.723359187497
 30
0.0
 40
57.14999999999999
 41
412.5
 46
0.0
 71
     7
 72
     1
  1
{\fＭＳ ゴシック|b0|i0|c128|p49;枠内＝3,174}
 73
     1
 44
1.0
  0
MTEXT
  5
37F
330
1F
100
AcDbEntity
  8
寸法
  6
Continuous
 62
     7
370
   211
100
AcDbMText
 10
-178.5357284224509
 20
-1788.723359187498
 30
0.0
 40
57.14999999999999
 41
412.5
 46
0.0
 71
     7
 72
     1
  1
{\fＭＳ ゴシック|b0|i0|c128|p49;枠外＝3,234}
 73
     1
 44
1.0
  0
LWPOLYLINE
  5
380
330
1F
100
AcDbEntity
  8
寸法
  6
Continuous
 62
     7
370
     9
100
AcDbPolyline
 90
        4
 70
     1
 43
3.0
 10
-1837.785728422449
 20
-1135.298359187498
 42
0.4142135623731
 10
-1839.285728422449
 20
-1133.798359187498
 42
0.4142135623731
 10
-1840.785728422449
 20
-1135.298359187498
 42
0.4142135623731
 10
-1839.285728422449
 20
-1136.798359187498
 42
0.4142135623731
  0
LINE
  5
381
330
1F
100
AcDbEntity
  8
寸法
  6
Continuous
 62
   120
370
     5
100
AcDbLine
 10
-1839.285728422449
 20
-1135.298359187498
 30
0.0
 11
-1639.285728422451
 21
-1135.298359187498
 31
0.0
  0
LINE
  5
382
330
1F
100
AcDbEntity
  8
寸法
  6
Continuous
 62
   120
370
     5
100
AcDbLine
 10
-1839.285728422449
 20
1224.701640812502
 30
0.0
 11
-1639.285728422451
 21
1224.701640812502
 31
0.0
  0
LINE
  5
383
330
1F
100
AcDbEntity
  8
寸法
  6
Continuous
 62
   120
370
     5
100
AcDbLine
 10
-1839.285728422449
 20
1224.701640812502
 30
0.0
 11
-1839.285728422449
 21
-1135.298359187498
 31
0.0
  0
LWPOLYLINE
  5
384
330
1F
100
AcDbEntity
  8
寸法
  6
Continuous
 62
     7
370
     9
100
AcDbPolyline
 90
        4
 70
     1
 43
3.0
 10
-1837.785728422449
 20
1224.701640812502
 42
0.4142135623731
 10
-1839.285728422449
 20
1226.201640812502
 42
0.4142135623731
 10
-1840.785728422449
 20
1224.701640812502
 42
0.4142135623731
 10
-1839.285728422449
 20
1223.201640812502
 42
0.4142135623731
  0
LINE
  5
385
330
1F
100
AcDbEntity
  8
寸法
  6
Continuous
 62
   120
370
     5
100
AcDbLine
 10
-2039.28572842245
 20
1255.201640812503
 30
0.0
 11
-2039.28572842245
 21
-1144.798359187497
 31
0.0
  0
LINE
  5
386
330
1F
100
AcDbEntity
  8
寸法
  6
Continuous
 62
   120
370
     5
100
AcDbLine
 10
-2039.28572842245
 20
1255.201640812503
 30
0.0
 11
-1639.285728422451
 21
1255.201640812503
 31
0.0
  0
LWPOLYLINE
  5
387
330
1F
100
AcDbEntity
  8
寸法
  6
Continuous
 62
     7
370
     9
100
AcDbPolyline
 90
        4
 70
     1
 43
3.0
 10
-2037.78572842245
 20
1255.201640812503
 42
0.4142135623731
 10
-2039.28572842245
 20
1256.701640812503
 42
0.4142135623731
 10
-2040.78572842245
 20
1255.201640812503
 42
0.4142135623731
 10
-2039.28572842245
 20
1253.701640812503
 42
0.4142135623731
  0
MTEXT
  5
388
330
1F
100
AcDbEntity
  8
寸法
  6
Continuous
 62
     7
370
    70
100
AcDbMText
 10
-2054.28572842245
 20
-167.2233591874967
 30
0.0
 40
57.14999999999999
 41
412.5
 46
0.0
 71
     7
 72
     1
  1
{\fＭＳ ゴシック|b0|i0|c128|p49;枠外＝2,400}
 11
6.123031769111886E-17
 21
1.0
 31
0.0
 73
     1
 44
1.0
  0
MTEXT
  5
389
330
1F
100
AcDbEntity
  8
寸法
  6
Continuous
 62
     7
370
    70
100
AcDbMText
 10
-1854.285728422449
 20
-173.7233591874989
 30
0.0
 40
57.14999999999999
 41
412.5
 46
0.0
 71
     7
 72
     1
  1
{\fＭＳ ゴシック|b0|i0|c128|p49;ＤＨ＝2,360}
 11
6.123031769111886E-17
 21
1.0
 31
0.0
 73
     1
 44
1.0
  0
ENDSEC
  0
SECTION
  2
OBJECTS
  0
DICTIONARY
  5
C
330
0
100
AcDbDictionary
281
     1
  3
ACAD_GROUP
350
D
  3
ACAD_LAYOUT
350
1A
  3
ACAD_MATERIAL
350
3B
  3
ACAD_MLEADERSTYLE
350
38B
  3
ACAD_MLINESTYLE
350
17
  3
ACAD_PLOTSETTINGS
350
19
  3
ACAD_PLOTSTYLENAME
350
E
  3
ACAD_TABLESTYLE
350
38A
  3
ACAD_VISUALSTYLE
350
2A
  0
DICTIONARY
  5
D
102
{ACAD_REACTORS
330
C
102
}
330
C
100
AcDbDictionary
281
     1
  0
DICTIONARY
  5
1A
102
{ACAD_REACTORS
330
C
102
}
330
C
100
AcDbDictionary
281
     1
  3
Layout1
350
1E
  3
Layout2
350
26
  3
Model
350
22
  0
DICTIONARY
  5
3B
102
{ACAD_REACTORS
330
C
102
}
330
C
100
AcDbDictionary
281
     1
  3
ByBlock
350
3D
  3
ByLayer
350
3C
  3
Global
350
3E
  0
DICTIONARY
  5
38B
102
{ACAD_REACTORS
330
C
102
}
330
C
100
AcDbDictionary
281
     1
  0
DICTIONARY
  5
17
102
{ACAD_REACTORS
330
C
102
}
330
C
100
AcDbDictionary
281
     1
  3
Standard
350
18
  0
DICTIONARY
  5
19
102
{ACAD_REACTORS
330
C
102
}
330
C
100
AcDbDictionary
281
     1
  0
ACDBDICTIONARYWDFLT
  5
E
102
{ACAD_REACTORS
330
C
102
}
330
C
100
AcDbDictionary
281
     1
  3
Normal
350
F
100
AcDbDictionaryWithDefault
340
F
  0
DICTIONARY
  5
38A
102
{ACAD_REACTORS
330
C
102
}
330
C
100
AcDbDictionary
281
     1
  0
DICTIONARY
  5
2A
102
{ACAD_REACTORS
330
C
102
}
330
C
100
AcDbDictionary
281
     1
  3
2dWireframe
350
2F
  3
3D Hidden
350
31
  3
3dWireframe
350
30
  3
Basic
350
32
  3
Brighten
350
36
  3
ColorChange
350
3A
  3
Conceptual
350
34
  3
Dim
350
35
  3
Facepattern
350
39
  3
Flat
350
2B
  3
FlatWithEdges
350
2C
  3
Gouraud
350
2D
  3
GouraudWithEdges
350
2E
  3
Linepattern
350
38
  3
Realistic
350
33
  3
Thicken
350
37
  0
LAYOUT
  5
1E
102
{ACAD_REACTORS
330
1A
102
}
330
1A
100
AcDbPlotSettings
  1

  2
none_device
  4

  6

 40
0.0
 41
0.0
 42
0.0
 43
0.0
 44
0.0
 45
0.0
 46
0.0
 47
0.0
 48
0.0
 49
0.0
140
0.0
141
0.0
142
1.0
143
1.0
 70
   688
 72
     0
 73
     0
 74
     5
  7

 75
    16
 76
     0
 77
     5
 78
   300
147
1.0
148
0.0
149
0.0
100
AcDbLayout
  1
Layout1
 70
     1
 71
     1
 10
0.0
 20
0.0
 11
420.0
 21
297.0
 12
0.0
 22
0.0
 32
0.0
 14
1.000000000000000E+20
 24
1.000000000000000E+20
 34
1.000000000000000E+20
 15
-1.000000000000000E+20
 25
-1.000000000000000E+20
 35
-1.000000000000000E+20
146
0.0
 13
0.0
 23
0.0
 33
0.0
 16
1.0
 26
0.0
 36
0.0
 17
0.0
 27
1.0
 37
0.0
 76
     0
330
1B
  0
LAYOUT
  5
26
102
{ACAD_REACTORS
330
1A
102
}
330
1A
100
AcDbPlotSettings
  1

  2
none_device
  4

  6

 40
0.0
 41
0.0
 42
0.0
 43
0.0
 44
0.0
 45
0.0
 46
0.0
 47
0.0
 48
0.0
 49
0.0
140
0.0
141
0.0
142
1.0
143
1.0
 70
   688
 72
     0
 73
     0
 74
     5
  7

 75
    16
 76
     0
 77
     5
 78
   300
147
1.0
148
0.0
149
0.0
100
AcDbLayout
  1
Layout2
 70
     1
 71
     2
 10
0.0
 20
0.0
 11
0.0
 21
0.0
 12
0.0
 22
0.0
 32
0.0
 14
0.0
 24
0.0
 34
0.0
 15
0.0
 25
0.0
 35
0.0
146
0.0
 13
0.0
 23
0.0
 33
0.0
 16
1.0
 26
0.0
 36
0.0
 17
0.0
 27
1.0
 37
0.0
 76
     0
330
23
  0
LAYOUT
  5
22
102
{ACAD_REACTORS
330
1A
102
}
330
1A
100
AcDbPlotSettings
  1

  2
none_device
  4

  6

 40
0.0
 41
0.0
 42
0.0
 43
0.0
 44
0.0
 45
0.0
 46
0.0
 47
0.0
 48
0.0
 49
0.0
140
0.0
141
0.0
142
1.0
143
1.0
 70
  1712
 72
     0
 73
     0
 74
     0
  7

 75
     0
 76
     0
 77
     5
 78
   300
147
1.0
148
0.0
149
0.0
100
AcDbLayout
  1
Model
 70
     1
 71
     0
 10
-4455.0
 20
-3150.0
 11
4455.0
 21
3150.0
 12
0.0
 22
0.0
 32
0.0
 14
-4455.0
 24
-3150.0
 34
0.0
 15
4455.0
 25
3150.0
 35
0.0
146
0.0
 13
0.0
 23
0.0
 33
0.0
 16
1.0
 26
0.0
 36
0.0
 17
0.0
 27
1.0
 37
0.0
 76
     0
330
1F
331
29
  0
MATERIAL
  5
3D
102
{ACAD_REACTORS
330
3B
102
}
330
3B
100
AcDbMaterial
  1
ByBlock
 72
     1
 94
      127
  0
MATERIAL
  5
3C
102
{ACAD_REACTORS
330
3B
102
}
330
3B
100
AcDbMaterial
  1
ByLayer
 72
     1
 94
      127
  0
MATERIAL
  5
3E
102
{ACAD_REACTORS
330
3B
102
}
330
3B
100
AcDbMaterial
  1
Global
 72
     1
 94
      127
  0
MLINESTYLE
  5
18
102
{ACAD_REACTORS
330
17
102
}
330
17
100
AcDbMlineStyle
  2
Standard
 70
     0
  3

 62
   256
 51
90.0
 52
90.0
 71
     2
 49
0.5
 62
   256
  6
BYLAYER
 49
-0.5
 62
   256
  6
BYLAYER
  0
ACDBPLACEHOLDER
  5
F
102
{ACAD_REACTORS
330
E
102
}
330
E
  0
VISUALSTYLE
  5
2F
102
{ACAD_REACTORS
330
2A
102
}
330
2A
100
AcDbVisualStyle
  2
2dWireframe
 70
     4
177
     2
291
     0
 71
     0
176
     1
 72
     2
176
     1
 73
     0
176
     1
 90
        0
176
     1
 40
-0.6
176
     1
 41
-30.0
176
     1
 62
     5
 63
     7
421
 16777215
176
     1
 74
     1
176
     1
 91
        4
176
     1
 64
     7
176
     1
 65
   257
176
     1
 75
     1
176
     1
175
     1
176
     1
 42
1.0
176
     1
 92
        0
176
     1
 66
   257
176
     1
 43
1.0
176
     1
 76
     1
176
     1
 77
     6
176
     1
 78
     2
176
     1
 67
     7
176
     1
 79
     5
176
     1
170
     0
176
     1
171
     0
176
     1
290
     0
176
     1
 93
        1
176
     1
 44
0.0
176
     1
173
     0
176
     1
  0
VISUALSTYLE
  5
31
102
{ACAD_REACTORS
330
2A
102
}
330
2A
100
AcDbVisualStyle
  2
3D Hidden
 70
     6
177
     2
291
     0
 71
     1
176
     1
 72
     2
176
     1
 73
     2
176
     1
 90
        0
176
     1
 40
-0.6
176
     1
 41
-30.0
176
     1
 62
     5
 63
     7
421
 16777215
176
     1
 74
     2
176
     1
 91
        2
176
     1
 64
     7
176
     1
 65
   257
176
     1
 75
     2
176
     1
175
     1
176
     1
 42
40.0
176
     1
 92
        0
176
     1
 66
   257
176
     1
 43
1.0
176
     1
 76
     1
176
     1
 77
     6
176
     1
 78
     2
176
     1
 67
     7
176
     1
 79
     3
176
     1
170
     0
176
     1
171
     0
176
     1
290
     0
176
     1
 93
        1
176
     1
 44
0.0
176
     1
173
     0
176
     1
  0
VISUALSTYLE
  5
30
102
{ACAD_REACTORS
330
2A
102
}
330
2A
100
AcDbVisualStyle
  2
3dWireframe
 70
     5
177
     2
291
     0
 71
     0
176
     1
 72
     2
176
     1
 73
     0
176
     1
 90
        0
176
     1
 40
-0.6
176
     1
 41
-30.0
176
     1
 62
     5
 63
     7
421
 16777215
176
     1
 74
     1
176
     1
 91
        4
176
     1
 64
     7
176
     1
 65
   257
176
     1
 75
     1
176
     1
175
     1
176
     1
 42
1.0
176
     1
 92
        0
176
     1
 66
   257
176
     1
 43
1.0
176
     1
 76
     1
176
     1
 77
     6
176
     1
 78
     2
176
     1
 67
     7
176
     1
 79
     5
176
     1
170
     0
176
     1
171
     0
176
     1
290
     0
176
     1
 93
        1
176
     1
 44
0.0
176
     1
173
     0
176
     1
  0
VISUALSTYLE
  5
32
102
{ACAD_REACTORS
330
2A
102
}
330
2A
100
AcDbVisualStyle
  2
Basic
 70
     7
177
     2
291
     1
 71
     1
176
     1
 72
     0
176
     1
 73
     1
176
     1
 90
        0
176
     1
 40
-0.6
176
     1
 41
-30.0
176
     1
 62
     5
 63
     7
421
 16777215
176
     1
 74
     0
176
     1
 91
        4
176
     1
 64
     7
176
     1
 65
   257
176
     1
 75
     1
176
     1
175
     1
176
     1
 42
1.0
176
     1
 92
        8
176
     1
 66
     7
176
     1
 43
1.0
176
     1
 76
     1
176
     1
 77
     6
176
     1
 78
     2
176
     1
 67
     7
176
     1
 79
     5
176
     1
170
     0
176
     1
171
     0
176
     1
290
     0
176
     1
 93
        1
176
     1
 44
0.0
176
     1
173
     0
176
     1
  0
VISUALSTYLE
  5
36
102
{ACAD_REACTORS
330
2A
102
}
330
2A
100
AcDbVisualStyle
  2
Brighten
 70
    12
177
     2
291
     1
 71
     2
176
     1
 72
     2
176
     1
 73
     0
176
     1
 90
        0
176
     1
 40
-0.6
176
     1
 41
-30.0
176
     1
 62
     5
 63
     7
421
 16777215
176
     1
 74
     1
176
     1
 91
        4
176
     1
 64
     7
176
     1
 65
   257
176
     1
 75
     1
176
     1
175
     1
176
     1
 42
1.0
176
     1
 92
        8
176
     1
 66
     7
176
     1
 43
1.0
176
     1
 76
     1
176
     1
 77
     6
176
     1
 78
     2
176
     1
 67
     7
176
     1
 79
     5
176
     1
170
     0
176
     1
171
     0
176
     1
290
     0
176
     1
 93
        1
176
     1
 44
50.0
176
     1
173
     0
176
     1
  0
VISUALSTYLE
  5
3A
102
{ACAD_REACTORS
330
2A
102
}
330
2A
100
AcDbVisualStyle
  2
ColorChange
 70
    16
177
     2
291
     1
 71
     2
176
     1
 72
     2
176
     1
 73
     3
176
     1
 90
        0
176
     1
 40
-0.6
176
     1
 41
-30.0
176
     1
 62
     5
 63
     8
421
  8421504
176
     1
 74
     1
176
     1
 91
        4
176
     1
 64
     7
176
     1
 65
   257
176
     1
 75
     1
176
     1
175
     1
176
     1
 42
1.0
176
     1
 92
        8
176
     1
 66
     8
424
  8421504
176
     1
 43
1.0
176
     1
 76
     1
176
     1
 77
     6
176
     1
 78
     2
176
     1
 67
     7
176
     1
 79
     5
176
     1
170
     0
176
     1
171
     0
176
     1
290
     0
176
     1
 93
        1
176
     1
 44
0.0
176
     1
173
     0
176
     1
  0
VISUALSTYLE
  5
34
102
{ACAD_REACTORS
330
2A
102
}
330
2A
100
AcDbVisualStyle
  2
Conceptual
 70
     9
177
     2
291
     0
 71
     3
176
     1
 72
     2
176
     1
 73
     0
176
     1
 90
        0
176
     1
 40
-0.6
176
     1
 41
-30.0
176
     1
 62
     5
 63
     7
421
 16777215
176
     1
 74
     2
176
     1
 91
        2
176
     1
 64
     7
176
     1
 65
   257
176
     1
 75
     1
176
     1
175
     1
176
     1
 42
40.0
176
     1
 92
        8
176
     1
 66
     7
176
     1
 43
1.0
176
     1
 76
     1
176
     1
 77
     6
176
     1
 78
     2
176
     1
 67
     7
176
     1
 79
     3
176
     1
170
     0
176
     1
171
     0
176
     1
290
     0
176
     1
 93
        1
176
     1
 44
0.0
176
     1
173
     0
176
     1
  0
VISUALSTYLE
  5
35
102
{ACAD_REACTORS
330
2A
102
}
330
2A
100
AcDbVisualStyle
  2
Dim
 70
    11
177
     2
291
     1
 71
     2
176
     1
 72
     2
176
     1
 73
     0
176
     1
 90
        0
176
     1
 40
-0.6
176
     1
 41
-30.0
176
     1
 62
     5
 63
     7
421
 16777215
176
     1
 74
     1
176
     1
 91
        4
176
     1
 64
     7
176
     1
 65
   257
176
     1
 75
     1
176
     1
175
     1
176
     1
 42
1.0
176
     1
 92
        8
176
     1
 66
     7
176
     1
 43
1.0
176
     1
 76
     1
176
     1
 77
     6
176
     1
 78
     2
176
     1
 67
     7
176
     1
 79
     5
176
     1
170
     0
176
     1
171
     0
176
     1
290
     0
176
     1
 93
        1
176
     1
 44
-50.0
176
     1
173
     0
176
     1
  0
VISUALSTYLE
  5
39
102
{ACAD_REACTORS
330
2A
102
}
330
2A
100
AcDbVisualStyle
  2
Facepattern
 70
    15
177
     2
291
     1
 71
     2
176
     1
 72
     2
176
     1
 73
     0
176
     1
 90
        0
176
     1
 40
-0.6
176
     1
 41
-30.0
176
     1
 62
     5
 63
     7
421
 16777215
176
     1
 74
     1
176
     1
 91
        4
176
     1
 64
     7
176
     1
 65
   257
176
     1
 75
     1
176
     1
175
     1
176
     1
 42
1.0
176
     1
 92
        8
176
     1
 66
     7
176
     1
 43
1.0
176
     1
 76
     1
176
     1
 77
     6
176
     1
 78
     2
176
     1
 67
     7
176
     1
 79
     5
176
     1
170
     0
176
     1
171
     0
176
     1
290
     0
176
     1
 93
        1
176
     1
 44
0.0
176
     1
173
     0
176
     1
  0
VISUALSTYLE
  5
2B
102
{ACAD_REACTORS
330
2A
102
}
330
2A
100
AcDbVisualStyle
  2
Flat
 70
     0
177
     2
291
     1
 71
     2
176
     1
 72
     1
176
     1
 73
     1
176
     1
 90
        2
176
     1
 40
-0.6
176
     1
 41
30.0
176
     1
 62
     5
 63
     7
421
 16777215
176
     1
 74
     0
176
     1
 91
        4
176
     1
 64
     7
176
     1
 65
   257
176
     1
 75
     1
176
     1
175
     1
176
     1
 42
1.0
176
     1
 92
        8
176
     1
 66
     7
176
     1
 43
1.0
176
     1
 76
     1
176
     1
 77
     6
176
     1
 78
     2
176
     1
 67
     7
176
     1
 79
     5
176
     1
170
     0
176
     1
171
     0
176
     1
290
     0
176
     1
 93
       13
176
     1
 44
0.0
176
     1
173
     0
176
     1
  0
VISUALSTYLE
  5
2C
102
{ACAD_REACTORS
330
2A
102
}
330
2A
100
AcDbVisualStyle
  2
FlatWithEdges
 70
     1
177
     2
291
     1
 71
     2
176
     1
 72
     1
176
     1
 73
     1
176
     1
 90
        2
176
     1
 40
-0.6
176
     1
 41
30.0
176
     1
 62
     5
 63
     7
421
 16777215
176
     1
 74
     1
176
     1
 91
        4
176
     1
 64
     7
176
     1
 65
   257
176
     1
 75
     1
176
     1
175
     1
176
     1
 42
1.0
176
     1
 92
        0
176
     1
 66
   257
176
     1
 43
1.0
176
     1
 76
     1
176
     1
 77
     6
176
     1
 78
     2
176
     1
 67
     7
176
     1
 79
     5
176
     1
170
     0
176
     1
171
     0
176
     1
290
     0
176
     1
 93
       13
176
     1
 44
0.0
176
     1
173
     0
176
     1
  0
VISUALSTYLE
  5
2D
102
{ACAD_REACTORS
330
2A
102
}
330
2A
100
AcDbVisualStyle
  2
Gouraud
 70
     2
177
     2
291
     1
 71
     2
176
     1
 72
     2
176
     1
 73
     1
176
     1
 90
        2
176
     1
 40
-0.6
176
     1
 41
30.0
176
     1
 62
     5
 63
     7
421
 16777215
176
     1
 74
     0
176
     1
 91
        4
176
     1
 64
     7
176
     1
 65
   257
176
     1
 75
     1
176
     1
175
     1
176
     1
 42
1.0
176
     1
 92
        0
176
     1
 66
     7
176
     1
 43
1.0
176
     1
 76
     1
176
     1
 77
     6
176
     1
 78
     2
176
     1
 67
     7
176
     1
 79
     5
176
     1
170
     0
176
     1
171
     0
176
     1
290
     0
176
     1
 93
       13
176
     1
 44
0.0
176
     1
173
     0
176
     1
  0
VISUALSTYLE
  5
2E
102
{ACAD_REACTORS
330
2A
102
}
330
2A
100
AcDbVisualStyle
  2
GouraudWithEdges
 70
     3
177
     2
291
     1
 71
     2
176
     1
 72
     2
176
     1
 73
     1
176
     1
 90
        2
176
     1
 40
-0.6
176
     1
 41
30.0
176
     1
 62
     5
 63
     7
421
 16777215
176
     1
 74
     1
176
     1
 91
        4
176
     1
 64
     7
176
     1
 65
   257
176
     1
 75
     1
176
     1
175
     1
176
     1
 42
1.0
176
     1
 92
        0
176
     1
 66
   257
176
     1
 43
1.0
176
     1
 76
     1
176
     1
 77
     6
176
     1
 78
     2
176
     1
 67
     7
176
     1
 79
     5
176
     1
170
     0
176
     1
171
     0
176
     1
290
     0
176
     1
 93
       13
176
     1
 44
0.0
176
     1
173
     0
176
     1
  0
VISUALSTYLE
  5
38
102
{ACAD_REACTORS
330
2A
102
}
330
2A
100
AcDbVisualStyle
  2
Linepattern
 70
    14
177
     2
291
     1
 71
     2
176
     1
 72
     2
176
     1
 73
     0
176
     1
 90
        0
176
     1
 40
-0.6
176
     1
 41
-30.0
176
     1
 62
     5
 63
     7
421
 16777215
176
     1
 74
     1
176
     1
 91
        4
176
     1
 64
     7
176
     1
 65
   257
176
     1
 75
     7
176
     1
175
     7
176
     1
 42
1.0
176
     1
 92
        8
176
     1
 66
     7
176
     1
 43
1.0
176
     1
 76
     1
176
     1
 77
     6
176
     1
 78
     2
176
     1
 67
     7
176
     1
 79
     5
176
     1
170
     0
176
     1
171
     0
176
     1
290
     0
176
     1
 93
        1
176
     1
 44
0.0
176
     1
173
     0
176
     1
  0
VISUALSTYLE
  5
33
102
{ACAD_REACTORS
330
2A
102
}
330
2A
100
AcDbVisualStyle
  2
Realistic
 70
     8
177
     2
291
     0
 71
     2
176
     1
 72
     2
176
     1
 73
     0
176
     1
 90
        0
176
     1
 40
-0.6
176
     1
 41
-30.0
176
     1
 62
     5
 63
     7
421
 16777215
176
     1
 74
     1
176
     1
 91
        0
176
     1
 64
     7
176
     1
 65
   257
176
     1
 75
     1
176
     1
175
     1
176
     1
 42
1.0
176
     1
 92
        8
176
     1
 66
     8
424
  7895160
176
     1
 43
1.0
176
     1
 76
     1
176
     1
 77
     6
176
     1
 78
     2
176
     1
 67
     7
176
     1
 79
     5
176
     1
170
     0
176
     1
171
     0
176
     1
290
     0
176
     1
 93
       13
176
     1
 44
0.0
176
     1
173
     0
176
     1
  0
VISUALSTYLE
  5
37
102
{ACAD_REACTORS
330
2A
102
}
330
2A
100
AcDbVisualStyle
  2
Thicken
 70
    13
177
     2
291
     1
 71
     2
176
     1
 72
     2
176
     1
 73
     0
176
     1
 90
        0
176
     1
 40
-0.6
176
     1
 41
-30.0
176
     1
 62
     5
 63
     7
421
 16777215
176
     1
 74
     1
176
     1
 91
        4
176
     1
 64
     7
176
     1
 65
   257
176
     1
 75
     1
176
     1
175
     1
176
     1
 42
1.0
176
     1
 92
       12
176
     1
 66
     7
176
     1
 43
1.0
176
     1
 76
     1
176
     1
 77
     6
176
     1
 78
     2
176
     1
 67
     7
176
     1
 79
     5
176
     1
170
     0
176
     1
171
     0
176
     1
290
     0
176
     1
 93
        1
176
     1
 44
0.0
176
     1
173
     0
176
     1
  0
ENDSEC
  0
EOF
