  0
SECTION
  2
HEADER
  9
$ACADVER
  1
AC1024
  9
$ACADMAINTVER
 70
     6
  9
$DWGCODEPAGE
  3
ANSI_932
  9
$INSBASE
 10
0.0
 20
0.0
 30
0.0
  9
$EXTMIN
 10
-4455.0
 20
-3150.0
 30
0.0
  9
$EXTMAX
 10
4455.0
 20
3150.0
 30
0.0
  9
$LIMMIN
 10
-4455.0
 20
-3150.0
  9
$LIMMAX
 10
4455.0
 20
3150.0
  9
$ORTHOMODE
 70
     0
  9
$REGENMODE
 70
     1
  9
$FILLMODE
 70
     1
  9
$QTEXTMODE
 70
     0
  9
$MIRRTEXT
 70
     1
  9
$LTSCALE
 40
30.0
  9
$ATTMODE
 70
     1
  9
$TEXTSIZE
 40
2.5
  9
$TRACEWID
 40
1.0
  9
$TEXTSTYLE
  7
Standard
  9
$CLAYER
  8
0
  9
$CELTYPE
  6
ByLayer
  9
$CECOLOR
 62
   256
  9
$CELTSCALE
 40
1.0
  9
$DISPSILH
 70
     0
  9
$DIMSCALE
 40
1.0
  9
$DIMASZ
 40
2.5
  9
$DIMEXO
 40
0.625
  9
$DIMDLI
 40
3.75
  9
$DIMRND
 40
0.0
  9
$DIMDLE
 40
0.0
  9
$DIMEXE
 40
1.25
  9
$DIMTP
 40
0.0
  9
$DIMTM
 40
0.0
  9
$DIMTXT
 40
2.5
  9
$DIMCEN
 40
2.5
  9
$DIMTSZ
 40
0.0
  9
$DIMTOL
 70
     0
  9
$DIMLIM
 70
     0
  9
$DIMTIH
 70
     0
  9
$DIMTOH
 70
     0
  9
$DIMSE1
 70
     0
  9
$DIMSE2
 70
     0
  9
$DIMTAD
 70
     1
  9
$DIMZIN
 70
     8
  9
$DIMBLK
  1

  9
$DIMASO
 70
     1
  9
$DIMSHO
 70
     1
  9
$DIMPOST
  1

  9
$DIMAPOST
  1

  9
$DIMALT
 70
     0
  9
$DIMALTD
 70
     3
  9
$DIMALTF
 40
0.03937007874016
  9
$DIMLFAC
 40
1.0
  9
$DIMTOFL
 70
     1
  9
$DIMTVP
 40
0.0
  9
$DIMTIX
 70
     0
  9
$DIMSOXD
 70
     0
  9
$DIMSAH
 70
     0
  9
$DIMBLK1
  1

  9
$DIMBLK2
  1

  9
$DIMSTYLE
  2
ISO-25
  9
$DIMCLRD
 70
     0
  9
$DIMCLRE
 70
     0
  9
$DIMCLRT
 70
     0
  9
$DIMTFAC
 40
1.0
  9
$DIMGAP
 40
0.625
  9
$DIMJUST
 70
     0
  9
$DIMSD1
 70
     0
  9
$DIMSD2
 70
     0
  9
$DIMTOLJ
 70
     0
  9
$DIMTZIN
 70
     8
  9
$DIMALTZ
 70
     0
  9
$DIMALTTZ
 70
     0
  9
$DIMUPT
 70
     0
  9
$DIMDEC
 70
     2
  9
$DIMTDEC
 70
     2
  9
$DIMALTU
 70
     2
  9
$DIMALTTD
 70
     3
  9
$DIMTXSTY
  7
Standard
  9
$DIMAUNIT
 70
     0
  9
$DIMADEC
 70
     0
  9
$DIMALTRND
 40
0.0
  9
$DIMAZIN
 70
     0
  9
$DIMDSEP
 70
    44
  9
$DIMATFIT
 70
     3
  9
$DIMFRAC
 70
     0
  9
$DIMLDRBLK
  1

  9
$DIMLUNIT
 70
     2
  9
$DIMLWD
 70
    -2
  9
$DIMLWE
 70
    -2
  9
$DIMTMOVE
 70
     0
  9
$DIMFXL
 40
1.0
  9
$DIMFXLON
 70
     0
  9
$DIMJOGANG
 40
0.7853981633974483
  9
$DIMTFILL
 70
     0
  9
$DIMTFILLCLR
 70
     0
  9
$DIMARCSYM
 70
     0
  9
$DIMLTYPE
  6

  9
$DIMLTEX1
  6

  9
$DIMLTEX2
  6

  9
$DIMTXTDIRECTION
 70
     0
  9
$LUNITS
 70
     2
  9
$LUPREC
 70
     4
  9
$SKETCHINC
 40
1.0
  9
$FILLETRAD
 40
10.0
  9
$AUNITS
 70
     0
  9
$AUPREC
 70
     0
  9
$MENU
  1
.
  9
$ELEVATION
 40
0.0
  9
$PELEVATION
 40
0.0
  9
$THICKNESS
 40
0.0
  9
$LIMCHECK
 70
     0
  9
$CHAMFERA
 40
10.0
  9
$CHAMFERB
 40
10.0
  9
$CHAMFERC
 40
20.0
  9
$CHAMFERD
 40
0.0
  9
$SKPOLY
 70
     0
  9
$TDCREATE
 40
2457953.401584954
  9
$TDUCREATE
 40
2457953.026584954
  9
$TDUPDATE
 40
2457953.401584965
  9
$TDUUPDATE
 40
2457953.026584965
  9
$TDINDWG
 40
0.0000000116
  9
$TDUSRTIMER
 40
0.0000000116
  9
$USRTIMER
 70
     1
  9
$ANGBASE
 50
0.0
  9
$ANGDIR
 70
     0
  9
$PDMODE
 70
     0
  9
$PDSIZE
 40
0.0
  9
$PLINEWID
 40
0.0
  9
$SPLFRAME
 70
     0
  9
$SPLINETYPE
 70
     6
  9
$SPLINESEGS
 70
     8
  9
$HANDSEED
  5
27B
  9
$SURFTAB1
 70
     6
  9
$SURFTAB2
 70
     6
  9
$SURFTYPE
 70
     6
  9
$SURFU
 70
     6
  9
$SURFV
 70
     6
  9
$UCSBASE
  2

  9
$UCSNAME
  2

  9
$UCSORG
 10
0.0
 20
0.0
 30
0.0
  9
$UCSXDIR
 10
1.0
 20
0.0
 30
0.0
  9
$UCSYDIR
 10
0.0
 20
1.0
 30
0.0
  9
$UCSORTHOREF
  2

  9
$UCSORTHOVIEW
 70
     0
  9
$UCSORGTOP
 10
0.0
 20
0.0
 30
0.0
  9
$UCSORGBOTTOM
 10
0.0
 20
0.0
 30
0.0
  9
$UCSORGLEFT
 10
0.0
 20
0.0
 30
0.0
  9
$UCSORGRIGHT
 10
0.0
 20
0.0
 30
0.0
  9
$UCSORGFRONT
 10
0.0
 20
0.0
 30
0.0
  9
$UCSORGBACK
 10
0.0
 20
0.0
 30
0.0
  9
$PUCSBASE
  2

  9
$PUCSNAME
  2

  9
$PUCSORG
 10
0.0
 20
0.0
 30
0.0
  9
$PUCSXDIR
 10
1.0
 20
0.0
 30
0.0
  9
$PUCSYDIR
 10
0.0
 20
1.0
 30
0.0
  9
$PUCSORTHOREF
  2

  9
$PUCSORTHOVIEW
 70
     0
  9
$PUCSORGTOP
 10
0.0
 20
0.0
 30
0.0
  9
$PUCSORGBOTTOM
 10
0.0
 20
0.0
 30
0.0
  9
$PUCSORGLEFT
 10
0.0
 20
0.0
 30
0.0
  9
$PUCSORGRIGHT
 10
0.0
 20
0.0
 30
0.0
  9
$PUCSORGFRONT
 10
0.0
 20
0.0
 30
0.0
  9
$PUCSORGBACK
 10
0.0
 20
0.0
 30
0.0
  9
$USERI1
 70
     0
  9
$USERI2
 70
     0
  9
$USERI3
 70
     0
  9
$USERI4
 70
     0
  9
$USERI5
 70
     0
  9
$USERR1
 40
0.0
  9
$USERR2
 40
0.0
  9
$USERR3
 40
0.0
  9
$USERR4
 40
0.0
  9
$USERR5
 40
0.0
  9
$WORLDVIEW
 70
     1
  9
$SHADEDGE
 70
     3
  9
$SHADEDIF
 70
    70
  9
$TILEMODE
 70
     1
  9
$MAXACTVP
 70
    64
  9
$PINSBASE
 10
0.0
 20
0.0
 30
0.0
  9
$PLIMCHECK
 70
     0
  9
$PEXTMIN
 10
1.000000000000000E+20
 20
1.000000000000000E+20
 30
1.000000000000000E+20
  9
$PEXTMAX
 10
-1.000000000000000E+20
 20
-1.000000000000000E+20
 30
-1.000000000000000E+20
  9
$PLIMMIN
 10
0.0
 20
0.0
  9
$PLIMMAX
 10
420.0
 20
297.0
  9
$UNITMODE
 70
     0
  9
$VISRETAIN
 70
     1
  9
$PLINEGEN
 70
     0
  9
$PSLTSCALE
 70
     1
  9
$TREEDEPTH
 70
  3020
  9
$CMLSTYLE
  2
Standard
  9
$CMLJUST
 70
     0
  9
$CMLSCALE
 40
20.0
  9
$PROXYGRAPHICS
 70
     1
  9
$MEASUREMENT
 70
     1
  9
$CELWEIGHT
370
    -1
  9
$ENDCAPS
280
     0
  9
$JOINSTYLE
280
     0
  9
$LWDISPLAY
290
     0
  9
$INSUNITS
 70
     4
  9
$HYPERLINKBASE
  1

  9
$STYLESHEET
  1

  9
$XEDIT
290
     1
  9
$CEPSNTYPE
380
     0
  9
$PSTYLEMODE
290
     1
  9
$FINGERPRINTGUID
  2
{33302342-18F5-40E5-977A-30A4FECA1791}
  9
$VERSIONGUID
  2
{FAEB1C32-E019-11D5-929B-00C0DF256EC4}
  9
$EXTNAMES
290
     1
  9
$PSVPSCALE
 40
0.0
  9
$OLESTARTUP
290
     0
  9
$SORTENTS
280
   127
  9
$INDEXCTL
280
     0
  9
$HIDETEXT
280
     1
  9
$XCLIPFRAME
280
     2
  9
$HALOGAP
280
     0
  9
$OBSCOLOR
 70
   257
  9
$OBSLTYPE
280
     0
  9
$INTERSECTIONDISPLAY
280
     0
  9
$INTERSECTIONCOLOR
 70
   257
  9
$DIMASSOC
280
     2
  9
$PROJECTNAME
  1

  9
$CAMERADISPLAY
290
     0
  9
$LENSLENGTH
 40
50.0
  9
$CAMERAHEIGHT
 40
0.0
  9
$STEPSPERSEC
 40
2.0
  9
$STEPSIZE
 40
6.0
  9
$3DDWFPREC
 40
2.0
  9
$PSOLWIDTH
 40
5.0
  9
$PSOLHEIGHT
 40
80.0
  9
$LOFTANG1
 40
1.570796326794897
  9
$LOFTANG2
 40
1.570796326794897
  9
$LOFTMAG1
 40
0.0
  9
$LOFTMAG2
 40
0.0
  9
$LOFTPARAM
 70
     7
  9
$LOFTNORMALS
280
     1
  9
$LATITUDE
 40
37.795
  9
$LONGITUDE
 40
-122.394
  9
$NORTHDIRECTION
 40
0.0
  9
$TIMEZONE
 70
 -8000
  9
$LIGHTGLYPHDISPLAY
280
     1
  9
$TILEMODELIGHTSYNCH
280
     1
  9
$SOLIDHIST
280
     1
  9
$SHOWHIST
280
     1
  9
$DWFFRAME
280
     2
  9
$DGNFRAME
280
     2
  9
$REALWORLDSCALE
290
     1
  9
$INTERFERECOLOR
 62
   256
  9
$CSHADOW
280
     0
  9
$SHADOWPLANELOCATION
 40
0.0
  0
ENDSEC
  0
SECTION
  2
CLASSES
  0
CLASS
  1
ACDBDICTIONARYWDFLT
  2
AcDbDictionaryWithDefault
  3
ObjectDBX Classes
 90
        0
 91
        4
280
     0
281
     0
  0
CLASS
  1
VISUALSTYLE
  2
AcDbVisualStyle
  3
ObjectDBX Classes
 90
     4095
 91
        4
280
     0
281
     0
  0
CLASS
  1
MATERIAL
  2
AcDbMaterial
  3
ObjectDBX Classes
 90
     1153
 91
        4
280
     0
281
     0
  0
ENDSEC
  0
SECTION
  2
TABLES
  0
TABLE
  2
VPORT
  5
8
330
0
100
AcDbSymbolTable
 70
     1
  0
VPORT
  5
29
330
8
100
AcDbSymbolTableRecord
100
AcDbViewportTableRecord
  2
*Active
 70
     0
 10
0.0
 20
0.0
 11
1.0
 21
1.0
 12
0.0
 22
0.0
 13
0.0
 23
0.0
 14
10.0
 24
10.0
 15
10.0
 25
10.0
 16
0.0
 26
0.0
 36
1.0
 17
0.0
 27
0.0
 37
0.0
 40
6930.000000000001
 41
1.414285714285714
 42
50.0
 43
0.0
 44
0.0
 50
0.0
 51
0.0
 71
     0
 72
 10000
 73
     1
 74
     3
 75
     0
 76
     0
 77
     0
 78
     0
281
     0
 65
     1
110
0.0
120
0.0
130
0.0
111
1.0
121
0.0
131
0.0
112
0.0
122
1.0
132
0.0
 79
     0
146
0.0
 60
     3
 61
     5
292
     1
282
     1
141
0.0
142
0.0
 63
   250
  0
ENDTAB
  0
TABLE
  2
LTYPE
  5
5
330
0
100
AcDbSymbolTable
 70
     2
  0
LTYPE
  5
14
330
5
100
AcDbSymbolTableRecord
100
AcDbLinetypeTableRecord
  2
ByBlock
 70
     0
  3

 72
    65
 73
     0
 40
0.0
  0
LTYPE
  5
15
330
5
100
AcDbSymbolTableRecord
100
AcDbLinetypeTableRecord
  2
ByLayer
 70
     0
  3

 72
    65
 73
     0
 40
0.0
  0
LTYPE
  5
16
330
5
100
AcDbSymbolTableRecord
100
AcDbLinetypeTableRecord
  2
Continuous
 70
     0
  3
Solid line
 72
    65
 73
     0
 40
0.0
  0
LTYPE
  5
3F
330
5
100
AcDbSymbolTableRecord
100
AcDbLinetypeTableRecord
  2
JWW_DASHED1
 70
     0
  3
-  --  --  --  --  --  --  --  -
 72
    65
 73
     2
 40
1.693333333333333
 49
0.8466666666666667
 74
     0
 49
-0.8466666666666667
 74
     0
  0
ENDTAB
  0
TABLE
  2
LAYER
  5
2
330
0
100
AcDbSymbolTable
 70
     4
  0
LAYER
  5
10
330
2
100
AcDbSymbolTableRecord
100
AcDbLayerTableRecord
  2
0
 70
     0
 62
     7
  6
Continuous
370
    -3
390
F
347
3E
  0
LAYER
  5
40
330
2
100
AcDbSymbolTableRecord
100
AcDbLayerTableRecord
  2
0-0
 70
     0
 62
     7
  6
Continuous
370
    -3
390
F
347
3E
  0
LAYER
  5
41
330
2
100
AcDbSymbolTableRecord
100
AcDbLayerTableRecord
  2
寸法
 70
     0
 62
     7
  6
Continuous
370
    -3
390
F
347
3E
  0
LAYER
  5
42
330
2
100
AcDbSymbolTableRecord
100
AcDbLayerTableRecord
  2
文字
 70
     0
 62
     7
  6
Continuous
370
    -3
390
F
347
3E
  0
ENDTAB
  0
TABLE
  2
STYLE
  5
3
330
0
100
AcDbSymbolTable
 70
     1
  0
STYLE
  5
11
330
3
100
AcDbSymbolTableRecord
100
AcDbTextStyleTableRecord
  2
Standard
 70
     0
 40
0.0
 41
1.0
 50
0.0
 71
     0
 42
2.5
  3
txt
  4

  0
ENDTAB
  0
TABLE
  2
VIEW
  5
6
330
0
100
AcDbSymbolTable
 70
     0
  0
ENDTAB
  0
TABLE
  2
UCS
  5
7
330
0
100
AcDbSymbolTable
 70
     0
  0
ENDTAB
  0
TABLE
  2
APPID
  5
9
330
0
100
AcDbSymbolTable
 70
     1
  0
APPID
  5
12
330
9
100
AcDbSymbolTableRecord
100
AcDbRegAppTableRecord
  2
ACAD
 70
     0
  0
ENDTAB
  0
TABLE
  2
DIMSTYLE
  5
A
330
0
100
AcDbSymbolTable
 70
     1
100
AcDbDimStyleTable
  0
DIMSTYLE
105
27
330
A
100
AcDbSymbolTableRecord
100
AcDbDimStyleTableRecord
  2
ISO-25
 70
     0
 41
2.5
 42
0.625
 43
3.75
 44
1.25
 73
     0
 74
     0
 77
     1
 78
     8
140
2.5
141
2.5
143
0.03937007874016
147
0.625
171
     3
172
     1
178
     0
271
     2
272
     2
274
     3
278
    44
283
     0
284
     8
340
11
  0
ENDTAB
  0
TABLE
  2
BLOCK_RECORD
  5
1
330
0
100
AcDbSymbolTable
 70
     1
  0
BLOCK_RECORD
  5
1F
330
1
100
AcDbSymbolTableRecord
100
AcDbBlockTableRecord
  2
*Model_Space
340
22
 70
     0
280
     1
281
     0
  0
BLOCK_RECORD
  5
1B
330
1
100
AcDbSymbolTableRecord
100
AcDbBlockTableRecord
  2
*Paper_Space
340
1E
 70
     0
280
     1
281
     0
  0
BLOCK_RECORD
  5
23
330
1
100
AcDbSymbolTableRecord
100
AcDbBlockTableRecord
  2
*Paper_Space0
340
26
 70
     0
280
     1
281
     0
  0
ENDTAB
  0
ENDSEC
  0
SECTION
  2
BLOCKS
  0
BLOCK
  5
20
330
1F
100
AcDbEntity
  8
0
100
AcDbBlockBegin
  2
*Model_Space
 70
     0
 10
0.0
 20
0.0
 30
0.0
  3
*Model_Space
  1

  0
ENDBLK
  5
21
330
1F
100
AcDbEntity
  8
0
100
AcDbBlockEnd
  0
BLOCK
  5
1C
330
1B
100
AcDbEntity
 67
     1
  8
0
100
AcDbBlockBegin
  2
*Paper_Space
 70
     0
 10
0.0
 20
0.0
 30
0.0
  3
*Paper_Space
  1

  0
ENDBLK
  5
1D
330
1B
100
AcDbEntity
 67
     1
  8
0
100
AcDbBlockEnd
  0
BLOCK
  5
24
330
23
100
AcDbEntity
  8
0
100
AcDbBlockBegin
  2
*Paper_Space0
 70
     0
 10
0.0
 20
0.0
 30
0.0
  3
*Paper_Space0
  1

  0
ENDBLK
  5
25
330
23
100
AcDbEntity
  8
0
100
AcDbBlockEnd
  0
ENDSEC
  0
SECTION
  2
ENTITIES
  0
LINE
  5
43
330
1F
100
AcDbEntity
  8
0-0
  6
Continuous
 62
    92
370
    13
100
AcDbLine
 10
-771.5946081715506
 20
-1141.819022097947
 30
0.0
 11
-801.5946081715506
 21
-1141.819022097947
 31
0.0
  0
LINE
  5
44
330
1F
100
AcDbEntity
  8
0-0
  6
Continuous
 62
    92
370
    13
100
AcDbLine
 10
842.405391828448
 20
-1141.819022097947
 30
0.0
 11
812.405391828448
 21
-1141.819022097947
 31
0.0
  0
LINE
  5
45
330
1F
100
AcDbEntity
  8
0-0
  6
Continuous
 62
    92
370
    13
100
AcDbLine
 10
812.405391828448
 20
-1141.819022097947
 30
0.0
 11
812.405391828448
 21
-1133.11424310511
 31
0.0
  0
ARC
  5
46
330
1F
100
AcDbEntity
  8
0-0
  6
Continuous
 62
    92
370
    13
100
AcDbCircle
 10
-743.0946081715526
 20
-115.3190220979474
 30
0.0
 40
1.5
100
AcDbArc
 50
90.0
 51
180.0
  0
LINE
  5
47
330
1F
100
AcDbEntity
  8
0-0
  6
Continuous
 62
    92
370
    13
100
AcDbLine
 10
-704.0946081715506
 20
-113.819022097947
 30
0.0
 11
-743.0946081715526
 21
-113.819022097947
 31
0.0
  0
ARC
  5
48
330
1F
100
AcDbEntity
  8
0-0
  6
Continuous
 62
    92
370
    13
100
AcDbCircle
 10
-704.0946081715506
 20
-115.3190220979474
 30
0.0
 40
1.5
100
AcDbArc
 50
0.0
 51
90.00000000000001
  0
LINE
  5
49
330
1F
100
AcDbEntity
  8
0-0
  6
Continuous
 62
    92
370
    13
100
AcDbLine
 10
-702.594608171552
 20
-234.3190220979466
 30
0.0
 11
-702.594608171552
 21
-115.3190220979474
 31
0.0
  0
ARC
  5
4A
330
1F
100
AcDbEntity
  8
0-0
  6
Continuous
 62
    92
370
    13
100
AcDbCircle
 10
-704.0946081715506
 20
-234.3190220979466
 30
0.0
 40
1.5
100
AcDbArc
 50
270.0
 51
0.0
  0
LINE
  5
4B
330
1F
100
AcDbEntity
  8
0-0
  6
Continuous
 62
    92
370
    13
100
AcDbLine
 10
-743.0946081715526
 20
-235.8190220979486
 30
0.0
 11
-704.0946081715506
 21
-235.8190220979486
 31
0.0
  0
LINE
  5
4C
330
1F
100
AcDbEntity
  8
0-0
  6
Continuous
 62
    92
370
    13
100
AcDbLine
 10
-744.5946081715505
 20
-234.3190220979466
 30
0.0
 11
-744.5946081715505
 21
-115.3190220979474
 31
0.0
  0
ARC
  5
4D
330
1F
100
AcDbEntity
  8
0-0
  6
Continuous
 62
    92
370
    13
100
AcDbCircle
 10
-743.0946081715526
 20
-234.3190220979466
 30
0.0
 40
1.5
100
AcDbArc
 50
180.0
 51
270.0
  0
ARC
  5
4E
330
1F
100
AcDbEntity
  8
0-0
  6
Continuous
 62
     7
370
     9
100
AcDbCircle
 10
-723.5946081715517
 20
-204.4190220979465
 30
0.0
 40
15.0
100
AcDbArc
 50
180.0
 51
0.0
  0
ARC
  5
4F
330
1F
100
AcDbEntity
  8
0-0
  6
Continuous
 62
     7
370
     9
100
AcDbCircle
 10
-723.5946081715517
 20
-145.2190220979492
 30
0.0
 40
15.0
100
AcDbArc
 50
0.0
 51
180.0
  0
LINE
  5
50
330
1F
100
AcDbEntity
  8
0-0
  6
Continuous
 62
     7
370
     9
100
AcDbLine
 10
-708.5946081715517
 20
-204.4190220979465
 30
0.0
 11
-708.5946081715517
 21
-145.2190220979492
 31
0.0
  0
LINE
  5
51
330
1F
100
AcDbEntity
  8
0-0
  6
Continuous
 62
     7
370
     9
100
AcDbLine
 10
-738.5946081715517
 20
-145.2190220979492
 30
0.0
 11
-738.5946081715517
 21
-204.4190220979465
 31
0.0
  0
LINE
  5
52
330
1F
100
AcDbEntity
  8
0-0
  6
JWW_DASHED1
 62
   120
370
     5
100
AcDbLine
 10
-774.5946081715505
 20
-1132.319022097947
 30
0.0
 11
-771.5946081715506
 21
-1132.319022097947
 31
0.0
  0
LINE
  5
53
330
1F
100
AcDbEntity
  8
0-0
  6
Continuous
 62
    92
370
    13
100
AcDbLine
 10
812.405391828448
 20
-1132.781257295452
 30
0.0
 11
812.405391828448
 21
1258.180977902053
 31
0.0
  0
ARC
  5
54
330
1F
100
AcDbEntity
  8
0-0
  6
Continuous
 62
    92
370
    13
100
AcDbCircle
 10
744.905391828448
 20
-115.3190220979474
 30
0.0
 40
1.5
100
AcDbArc
 50
90.0
 51
180.0
  0
LINE
  5
55
330
1F
100
AcDbEntity
  8
0-0
  6
Continuous
 62
    92
370
    13
100
AcDbLine
 10
783.9053918284501
 20
-113.819022097947
 30
0.0
 11
744.905391828448
 21
-113.819022097947
 31
0.0
  0
ARC
  5
56
330
1F
100
AcDbEntity
  8
0-0
  6
Continuous
 62
    92
370
    13
100
AcDbCircle
 10
783.9053918284501
 20
-115.3190220979474
 30
0.0
 40
1.5
100
AcDbArc
 50
0.0
 51
90.00000000000001
  0
LINE
  5
57
330
1F
100
AcDbEntity
  8
0-0
  6
Continuous
 62
    92
370
    13
100
AcDbLine
 10
785.4053918284478
 20
-234.3190220979466
 30
0.0
 11
785.4053918284478
 21
-115.3190220979474
 31
0.0
  0
ARC
  5
58
330
1F
100
AcDbEntity
  8
0-0
  6
Continuous
 62
    92
370
    13
100
AcDbCircle
 10
783.9053918284501
 20
-234.3190220979466
 30
0.0
 40
1.5
100
AcDbArc
 50
270.0
 51
0.0
  0
LINE
  5
59
330
1F
100
AcDbEntity
  8
0-0
  6
Continuous
 62
    92
370
    13
100
AcDbLine
 10
744.905391828448
 20
-235.8190220979486
 30
0.0
 11
783.9053918284501
 21
-235.8190220979486
 31
0.0
  0
LINE
  5
5A
330
1F
100
AcDbEntity
  8
0-0
  6
Continuous
 62
    92
370
    13
100
AcDbLine
 10
743.4053918284476
 20
-234.3190220979466
 30
0.0
 11
743.4053918284476
 21
-115.3190220979474
 31
0.0
  0
ARC
  5
5B
330
1F
100
AcDbEntity
  8
0-0
  6
Continuous
 62
    92
370
    13
100
AcDbCircle
 10
744.905391828448
 20
-234.3190220979466
 30
0.0
 40
1.5
100
AcDbArc
 50
180.0
 51
270.0
  0
ARC
  5
5C
330
1F
100
AcDbEntity
  8
0-0
  6
Continuous
 62
     7
370
     9
100
AcDbCircle
 10
764.405391828449
 20
-204.4190220979465
 30
0.0
 40
15.0
100
AcDbArc
 50
180.0
 51
0.0
  0
ARC
  5
5D
330
1F
100
AcDbEntity
  8
0-0
  6
Continuous
 62
     7
370
     9
100
AcDbCircle
 10
764.405391828449
 20
-145.2190220979492
 30
0.0
 40
15.0
100
AcDbArc
 50
0.0
 51
180.0
  0
LINE
  5
5E
330
1F
100
AcDbEntity
  8
0-0
  6
Continuous
 62
     7
370
     9
100
AcDbLine
 10
779.405391828449
 20
-204.4190220979465
 30
0.0
 11
779.405391828449
 21
-145.2190220979492
 31
0.0
  0
LINE
  5
5F
330
1F
100
AcDbEntity
  8
0-0
  6
Continuous
 62
     7
370
     9
100
AcDbLine
 10
749.405391828449
 20
-145.2190220979492
 30
0.0
 11
749.405391828449
 21
-204.4190220979465
 31
0.0
  0
LINE
  5
60
330
1F
100
AcDbEntity
  8
0-0
  6
JWW_DASHED1
 62
   120
370
     5
100
AcDbLine
 10
815.4053918284478
 20
-1132.319022097947
 30
0.0
 11
812.405391828448
 21
-1132.319022097947
 31
0.0
  0
LINE
  5
61
330
1F
100
AcDbEntity
  8
0-0
  6
Continuous
 62
    92
370
    13
100
AcDbLine
 10
-771.5946081715506
 20
-1132.319022097947
 30
0.0
 11
812.405391828448
 21
-1132.319022097947
 31
0.0
  0
LINE
  5
62
330
1F
100
AcDbEntity
  8
0-0
  6
JWW_DASHED1
 62
   120
370
     5
100
AcDbLine
 10
-774.5946081715505
 20
1227.680977902054
 30
0.0
 11
-774.5946081715505
 21
-1132.319022097947
 31
0.0
  0
LINE
  5
63
330
1F
100
AcDbEntity
  8
0-0
  6
JWW_DASHED1
 62
   120
370
     5
100
AcDbLine
 10
-771.5946081715506
 20
1227.680977902054
 30
0.0
 11
-774.5946081715505
 21
1227.680977902054
 31
0.0
  0
LINE
  5
64
330
1F
100
AcDbEntity
  8
0-0
  6
JWW_DASHED1
 62
   120
370
     5
100
AcDbLine
 10
815.4053918284478
 20
1227.680977902054
 30
0.0
 11
815.4053918284478
 21
-1132.319022097947
 31
0.0
  0
LINE
  5
65
330
1F
100
AcDbEntity
  8
0-0
  6
JWW_DASHED1
 62
   120
370
     5
100
AcDbLine
 10
812.405391828448
 20
1227.680977902054
 30
0.0
 11
815.4053918284478
 21
1227.680977902054
 31
0.0
  0
LINE
  5
66
330
1F
100
AcDbEntity
  8
0-0
  6
Continuous
 62
    92
370
    13
100
AcDbLine
 10
5.405391828449524
 20
-1132.319022097947
 30
0.0
 11
5.405391828449524
 21
1227.680977902054
 31
0.0
  0
LINE
  5
67
330
1F
100
AcDbEntity
  8
0-0
  6
JWW_DASHED1
 62
   120
370
     5
100
AcDbLine
 10
35.40539182845038
 20
-1132.319022097947
 30
0.0
 11
35.40539182845038
 21
1227.680977902054
 31
0.0
  0
LINE
  5
68
330
1F
100
AcDbEntity
  8
0-0
  6
Continuous
 62
    92
370
    13
100
AcDbLine
 10
812.405391828448
 20
1227.680977902054
 30
0.0
 11
-771.5946081715506
 21
1227.680977902054
 31
0.0
  0
LINE
  5
69
330
1F
100
AcDbEntity
  8
0-0
  6
Continuous
 62
    92
370
    13
100
AcDbLine
 10
-771.5946081715506
 20
1235.180977902054
 30
0.0
 11
812.405391828448
 21
1235.180977902054
 31
0.0
  0
LINE
  5
6A
330
1F
100
AcDbEntity
  8
0-0
  6
Continuous
 62
    92
370
    13
100
AcDbLine
 10
-801.5946081715506
 20
-1141.819022097947
 30
0.0
 11
-801.5946081715506
 21
1258.180977902053
 31
0.0
  0
LINE
  5
6B
330
1F
100
AcDbEntity
  8
0-0
  6
Continuous
 62
    92
370
    13
100
AcDbLine
 10
842.405391828448
 20
-1141.819022097947
 30
0.0
 11
842.405391828448
 21
1258.180977902053
 31
0.0
  0
LINE
  5
6C
330
1F
100
AcDbEntity
  8
0-0
  6
Continuous
 62
    92
370
    13
100
AcDbLine
 10
-801.5946081715506
 20
1258.180977902053
 30
0.0
 11
842.405391828448
 21
1258.180977902053
 31
0.0
  0
LINE
  5
6D
330
1F
100
AcDbEntity
  8
0-0
  6
Continuous
 62
    92
370
    13
100
AcDbLine
 10
-771.5946081715506
 20
-1141.819022097947
 30
0.0
 11
-771.5946081715506
 21
1258.180977902053
 31
0.0
  0
LINE
  5
6E
330
1F
100
AcDbEntity
  8
0-0
  6
Continuous
 62
    92
370
    13
100
AcDbLine
 10
705.4053918284499
 20
-1132.537080224777
 30
0.0
 11
705.4053918284499
 21
1227.680977902053
 31
0.0
  0
LINE
  5
6F
330
1F
100
AcDbEntity
  8
0-0
  6
Continuous
 62
    92
370
    13
100
AcDbLine
 10
-664.594608171549
 20
-1132.537080224777
 30
0.0
 11
-664.594608171549
 21
1227.680977902053
 31
0.0
  0
LINE
  5
70
330
1F
100
AcDbEntity
  8
0-0
  6
Continuous
 62
     7
370
     9
100
AcDbLine
 10
-664.594608171549
 20
-1102.537080224777
 30
0.0
 11
-584.5946081715501
 21
-1102.537080224777
 31
0.0
  0
LINE
  5
71
330
1F
100
AcDbEntity
  8
0-0
  6
Continuous
 62
     7
370
     9
100
AcDbLine
 10
-664.594608171549
 20
1219.680977902054
 30
0.0
 11
-584.5946081715501
 21
1219.680977902054
 31
0.0
  0
LINE
  5
72
330
1F
100
AcDbEntity
  8
0-0
  6
Continuous
 62
    92
370
    13
100
AcDbLine
 10
-584.5946081715501
 20
-1132.537080224777
 30
0.0
 11
-584.5946081715501
 21
1227.680977902053
 31
0.0
  0
LINE
  5
73
330
1F
100
AcDbEntity
  8
0-0
  6
Continuous
 62
     7
370
     9
100
AcDbLine
 10
705.4053918284499
 20
-1102.537080224777
 30
0.0
 11
625.405391828451
 21
-1102.537080224777
 31
0.0
  0
LINE
  5
74
330
1F
100
AcDbEntity
  8
0-0
  6
Continuous
 62
     7
370
     9
100
AcDbLine
 10
705.4053918284499
 20
1219.680977902054
 30
0.0
 11
625.405391828451
 21
1219.680977902054
 31
0.0
  0
LINE
  5
75
330
1F
100
AcDbEntity
  8
0-0
  6
Continuous
 62
    92
370
    13
100
AcDbLine
 10
625.405391828451
 20
-1132.537080224777
 30
0.0
 11
625.405391828451
 21
1227.680977902053
 31
0.0
  0
LINE
  5
76
330
1F
100
AcDbEntity
  8
0-0
  6
JWW_DASHED1
 62
   120
370
     5
100
AcDbLine
 10
-594.4052334762332
 20
-1102.537080224786
 30
0.0
 11
-584.5946081715399
 21
-1092.726454920095
 31
0.0
  0
LINE
  5
77
330
1F
100
AcDbEntity
  8
0-0
  6
JWW_DASHED1
 62
   120
370
     5
100
AcDbLine
 10
-604.3047284113813
 20
-1102.537080224773
 30
0.0
 11
-584.5946081715535
 21
-1082.826959984946
 31
0.0
  0
LINE
  5
78
330
1F
100
AcDbEntity
  8
0-0
  6
JWW_DASHED1
 62
   120
370
     5
100
AcDbLine
 10
-614.2042233466148
 20
-1102.537080224791
 30
0.0
 11
-584.5946081715297
 21
-1072.927465049706
 31
0.0
  0
LINE
  5
79
330
1F
100
AcDbEntity
  8
0-0
  6
JWW_DASHED1
 62
   120
370
     5
100
AcDbLine
 10
-624.1037182818277
 20
-1102.537080224788
 30
0.0
 11
-584.5946081715399
 21
-1063.027970114499
 31
0.0
  0
LINE
  5
7A
330
1F
100
AcDbEntity
  8
0-0
  6
JWW_DASHED1
 62
   120
370
     5
100
AcDbLine
 10
-634.0032132169792
 20
-1102.537080224776
 30
0.0
 11
-584.5946081715501
 21
-1053.128475179349
 31
0.0
  0
LINE
  5
7B
330
1F
100
AcDbEntity
  8
0-0
  6
JWW_DASHED1
 62
   120
370
     5
100
AcDbLine
 10
-643.9027081522058
 20
-1102.537080224788
 30
0.0
 11
-584.5946081715297
 21
-1043.22898024411
 31
0.0
  0
LINE
  5
7C
330
1F
100
AcDbEntity
  8
0-0
  6
JWW_DASHED1
 62
   120
370
     5
100
AcDbLine
 10
-653.8022030874256
 20
-1102.537080224791
 30
0.0
 11
-584.5946081715365
 21
-1033.329485308902
 31
0.0
  0
LINE
  5
7D
330
1F
100
AcDbEntity
  8
0-0
  6
JWW_DASHED1
 62
   120
370
     5
100
AcDbLine
 10
-663.7016980225771
 20
-1102.537080224778
 30
0.0
 11
-584.5946081715501
 21
-1023.429990373751
 31
0.0
  0
LINE
  5
7E
330
1F
100
AcDbEntity
  8
0-0
  6
JWW_DASHED1
 62
   120
370
     5
100
AcDbLine
 10
-664.5946081715422
 20
-1093.530495438527
 30
0.0
 11
-584.5946081715433
 21
-1013.530495438529
 31
0.0
  0
LINE
  5
7F
330
1F
100
AcDbEntity
  8
0-0
  6
JWW_DASHED1
 62
   120
370
     5
100
AcDbLine
 10
-664.594608171549
 20
-1083.631000503319
 30
0.0
 11
-584.5946081715331
 21
-1003.631000503304
 31
0.0
  0
LINE
  5
80
330
1F
100
AcDbEntity
  8
0-0
  6
JWW_DASHED1
 62
   120
370
     5
100
AcDbLine
 10
-664.5946081715456
 20
-1073.731505568155
 30
0.0
 11
-584.5946081715467
 21
-993.7315055681559
 31
0.0
  0
LINE
  5
81
330
1F
100
AcDbEntity
  8
0-0
  6
JWW_DASHED1
 62
   120
370
     5
100
AcDbLine
 10
-664.5946081715524
 20
-1063.832010632946
 30
0.0
 11
-584.5946081715535
 21
-983.8320106329472
 31
0.0
  0
LINE
  5
82
330
1F
100
AcDbEntity
  8
0-0
  6
JWW_DASHED1
 62
   120
370
     5
100
AcDbLine
 10
-664.5946081715456
 20
-1053.932515697722
 30
0.0
 11
-584.5946081715331
 21
-973.9325156977087
 31
0.0
  0
LINE
  5
83
330
1F
100
AcDbEntity
  8
0-0
  6
JWW_DASHED1
 62
   120
370
     5
100
AcDbLine
 10
-664.5946081715422
 20
-1044.033020762557
 30
0.0
 11
-584.5946081715467
 21
-964.0330207625593
 31
0.0
  0
LINE
  5
84
330
1F
100
AcDbEntity
  8
0-0
  6
JWW_DASHED1
 62
   120
370
     5
100
AcDbLine
 10
-664.5946081715524
 20
-1034.133525827349
 30
0.0
 11
-584.5946081715535
 21
-954.1335258273498
 31
0.0
  0
LINE
  5
85
330
1F
100
AcDbEntity
  8
0-0
  6
JWW_DASHED1
 62
   120
370
     5
100
AcDbLine
 10
-664.5946081715456
 20
-1024.234030892156
 30
0.0
 11
-584.5946081715331
 21
-944.234030892141
 31
0.0
  0
LINE
  5
86
330
1F
100
AcDbEntity
  8
0-0
  6
JWW_DASHED1
 62
   120
370
     5
100
AcDbLine
 10
-664.5946081715422
 20
-1014.334535956962
 30
0.0
 11
-584.5946081715433
 21
-934.3345359569622
 31
0.0
  0
LINE
  5
87
330
1F
100
AcDbEntity
  8
0-0
  6
JWW_DASHED1
 62
   120
370
     5
100
AcDbLine
 10
-664.594608171549
 20
-1004.435041021753
 30
0.0
 11
-584.5946081715501
 21
-924.4350410217535
 31
0.0
  0
LINE
  5
88
330
1F
100
AcDbEntity
  8
0-0
  6
JWW_DASHED1
 62
   120
370
     5
100
AcDbLine
 10
-664.5946081715456
 20
-994.5355460865885
 30
0.0
 11
-584.5946081715331
 21
-914.5355460865738
 31
0.0
  0
LINE
  5
89
330
1F
100
AcDbEntity
  8
0-0
  6
JWW_DASHED1
 62
   120
370
     5
100
AcDbLine
 10
-664.5946081715388
 20
-984.6360511513649
 30
0.0
 11
-584.5946081715399
 21
-904.636051151366
 31
0.0
  0
LINE
  5
8A
330
1F
100
AcDbEntity
  8
0-0
  6
JWW_DASHED1
 62
   120
370
     5
100
AcDbLine
 10
-664.594608171549
 20
-974.7365562161563
 30
0.0
 11
-584.5946081715467
 21
-894.7365562161565
 31
0.0
  0
LINE
  5
8B
330
1F
100
AcDbEntity
  8
0-0
  6
JWW_DASHED1
 62
   120
370
     5
100
AcDbLine
 10
-664.5946081715456
 20
-964.8370612809914
 30
0.0
 11
-584.5946081715297
 21
-884.8370612809772
 31
0.0
  0
LINE
  5
8C
330
1F
100
AcDbEntity
  8
0-0
  6
JWW_DASHED1
 62
   120
370
     5
100
AcDbLine
 10
-664.5946081715354
 20
-954.9375663457674
 30
0.0
 11
-584.5946081715399
 21
-874.937566345769
 31
0.0
  0
LINE
  5
8D
330
1F
100
AcDbEntity
  8
0-0
  6
JWW_DASHED1
 62
   120
370
     5
100
AcDbLine
 10
-664.5946081715456
 20
-945.03807141056
 30
0.0
 11
-584.5946081715467
 21
-865.0380714105611
 31
0.0
  0
LINE
  5
8E
330
1F
100
AcDbEntity
  8
0-0
  6
JWW_DASHED1
 62
   120
370
     5
100
AcDbLine
 10
-664.5946081715422
 20
-935.1385764753952
 30
0.0
 11
-584.5946081715297
 21
-855.1385764753802
 31
0.0
  0
LINE
  5
8F
330
1F
100
AcDbEntity
  8
0-0
  6
JWW_DASHED1
 62
   120
370
     5
100
AcDbLine
 10
-664.5946081715524
 20
-925.2390815401866
 30
0.0
 11
-584.5946081715365
 21
-845.2390815401724
 31
0.0
  0
LINE
  5
90
330
1F
100
AcDbEntity
  8
0-0
  6
JWW_DASHED1
 62
   120
370
     5
100
AcDbLine
 10
-664.5946081715422
 20
-915.339586604963
 30
0.0
 11
-584.5946081715433
 21
-835.3395866049641
 31
0.0
  0
LINE
  5
91
330
1F
100
AcDbEntity
  8
0-0
  6
JWW_DASHED1
 62
   120
370
     5
100
AcDbLine
 10
-664.5946081715558
 20
-905.4400916698127
 30
0.0
 11
-584.5946081715535
 21
-825.440091669813
 31
0.0
  0
LINE
  5
92
330
1F
100
AcDbEntity
  8
0-0
  6
JWW_DASHED1
 62
   120
370
     5
100
AcDbLine
 10
-664.594608171549
 20
-895.5405967345899
 30
0.0
 11
-584.5946081715331
 21
-815.5405967345757
 31
0.0
  0
LINE
  5
93
330
1F
100
AcDbEntity
  8
0-0
  6
JWW_DASHED1
 62
   120
370
     5
100
AcDbLine
 10
-664.5946081715422
 20
-885.641101799366
 30
0.0
 11
-584.5946081715433
 21
-805.6411017993684
 31
0.0
  0
LINE
  5
94
330
1F
100
AcDbEntity
  8
0-0
  6
JWW_DASHED1
 62
   120
370
     5
100
AcDbLine
 10
-664.5946081715524
 20
-875.7416068642157
 30
0.0
 11
-584.5946081715535
 21
-795.7416068642168
 31
0.0
  0
LINE
  5
95
330
1F
100
AcDbEntity
  8
0-0
  6
JWW_DASHED1
 62
   120
370
     5
100
AcDbLine
 10
-664.5946081715456
 20
-865.8421119289937
 30
0.0
 11
-584.5946081715331
 21
-785.8421119289787
 31
0.0
  0
LINE
  5
96
330
1F
100
AcDbEntity
  8
0-0
  6
JWW_DASHED1
 62
   120
370
     5
100
AcDbLine
 10
-664.5946081715388
 20
-855.9426169937697
 30
0.0
 11
-584.5946081715399
 21
-775.9426169937713
 31
0.0
  0
LINE
  5
97
330
1F
100
AcDbEntity
  8
0-0
  6
JWW_DASHED1
 62
   120
370
     5
100
AcDbLine
 10
-664.594608171549
 20
-846.0431220586186
 30
0.0
 11
-584.5946081715501
 21
-766.0431220586197
 31
0.0
  0
LINE
  5
98
330
1F
100
AcDbEntity
  8
0-0
  6
JWW_DASHED1
 62
   120
370
     5
100
AcDbLine
 10
-664.5946081715456
 20
-836.1436271233971
 30
0.0
 11
-584.5946081715297
 21
-756.1436271233824
 31
0.0
  0
LINE
  5
99
330
1F
100
AcDbEntity
  8
0-0
  6
JWW_DASHED1
 62
   120
370
     5
100
AcDbLine
 10
-664.5946081715524
 20
-826.2441321881888
 30
0.0
 11
-584.5946081715365
 21
-746.2441321881743
 31
0.0
  0
LINE
  5
9A
330
1F
100
AcDbEntity
  8
0-0
  6
JWW_DASHED1
 62
   120
370
     5
100
AcDbLine
 10
-664.594608171549
 20
-816.3446372530216
 30
0.0
 11
-584.5946081715467
 21
-736.3446372530223
 31
0.0
  0
LINE
  5
9B
330
1F
100
AcDbEntity
  8
0-0
  6
JWW_DASHED1
 62
   120
370
     5
100
AcDbLine
 10
-664.5946081715558
 20
-806.4451423178141
 30
0.0
 11
-584.594608171557
 21
-726.4451423178149
 31
0.0
  0
LINE
  5
9C
330
1F
100
AcDbEntity
  8
0-0
  6
JWW_DASHED1
 62
   120
370
     5
100
AcDbLine
 10
-664.594608171549
 20
-796.5456473825918
 30
0.0
 11
-584.5946081715365
 21
-716.5456473825784
 31
0.0
  0
LINE
  5
9D
330
1F
100
AcDbEntity
  8
0-0
  6
JWW_DASHED1
 62
   120
370
     5
100
AcDbLine
 10
-664.594608171549
 20
-786.6461524474275
 30
0.0
 11
-584.5946081715467
 21
-706.6461524474278
 31
0.0
  0
LINE
  5
9E
330
1F
100
AcDbEntity
  8
0-0
  6
JWW_DASHED1
 62
   120
370
     5
100
AcDbLine
 10
-664.5946081715524
 20
-776.7466575122171
 30
0.0
 11
-584.5946081715535
 21
-696.7466575122178
 31
0.0
  0
LINE
  5
9F
330
1F
100
AcDbEntity
  8
0-0
  6
JWW_DASHED1
 62
   120
370
     5
100
AcDbLine
 10
-664.594608171549
 20
-766.8471625769961
 30
0.0
 11
-584.5946081715331
 21
-686.847162576981
 31
0.0
  0
LINE
  5
A0
330
1F
100
AcDbEntity
  8
0-0
  6
JWW_DASHED1
 62
   120
370
     5
100
AcDbLine
 10
-664.5946081715456
 20
-756.9476676418304
 30
0.0
 11
-584.5946081715467
 21
-676.947667641832
 31
0.0
  0
LINE
  5
A1
330
1F
100
AcDbEntity
  8
0-0
  6
JWW_DASHED1
 62
   120
370
     5
100
AcDbLine
 10
-664.594608171549
 20
-747.0481727066197
 30
0.0
 11
-584.5946081715501
 21
-667.0481727066208
 31
0.0
  0
LINE
  5
A2
330
1F
100
AcDbEntity
  8
0-0
  6
JWW_DASHED1
 62
   120
370
     5
100
AcDbLine
 10
-664.5946081715456
 20
-737.148677771399
 30
0.0
 11
-584.5946081715331
 21
-657.148677771384
 31
0.0
  0
LINE
  5
A3
330
1F
100
AcDbEntity
  8
0-0
  6
JWW_DASHED1
 62
   120
370
     5
100
AcDbLine
 10
-664.5946081715422
 20
-727.2491828362342
 30
0.0
 11
-584.5946081715433
 21
-647.2491828362349
 31
0.0
  0
LINE
  5
A4
330
1F
100
AcDbEntity
  8
0-0
  6
JWW_DASHED1
 62
   120
370
     5
100
AcDbLine
 10
-664.594608171549
 20
-717.3496879010235
 30
0.0
 11
-584.5946081715501
 21
-637.3496879010237
 31
0.0
  0
LINE
  5
A5
330
1F
100
AcDbEntity
  8
0-0
  6
JWW_DASHED1
 62
   120
370
     5
100
AcDbLine
 10
-664.594608171549
 20
-707.4501929658612
 30
0.0
 11
-584.5946081715331
 21
-627.450192965847
 31
0.0
  0
LINE
  5
A6
330
1F
100
AcDbEntity
  8
0-0
  6
JWW_DASHED1
 62
   120
370
     5
100
AcDbLine
 10
-664.5946081715422
 20
-697.5506980306372
 30
0.0
 11
-584.5946081715399
 21
-617.5506980306379
 31
0.0
  0
LINE
  5
A7
330
1F
100
AcDbEntity
  8
0-0
  6
JWW_DASHED1
 62
   120
370
     5
100
AcDbLine
 10
-664.5946081715456
 20
-687.6512030954264
 30
0.0
 11
-584.5946081715467
 21
-607.6512030954267
 31
0.0
  0
LINE
  5
A8
330
1F
100
AcDbEntity
  8
0-0
  6
JWW_DASHED1
 62
   120
370
     5
100
AcDbLine
 10
-664.5946081715456
 20
-677.7517081602646
 30
0.0
 11
-584.5946081715331
 21
-597.75170816025
 31
0.0
  0
LINE
  5
A9
330
1F
100
AcDbEntity
  8
0-0
  6
JWW_DASHED1
 62
   120
370
     5
100
AcDbLine
 10
-664.5946081715388
 20
-667.8522132250406
 30
0.0
 11
-584.5946081715399
 21
-587.8522132250421
 31
0.0
  0
LINE
  5
AA
330
1F
100
AcDbEntity
  8
0-0
  6
JWW_DASHED1
 62
   120
370
     5
100
AcDbLine
 10
-664.5946081715456
 20
-657.9527182898323
 30
0.0
 11
-584.5946081715467
 21
-577.9527182898335
 31
0.0
  0
LINE
  5
AB
330
1F
100
AcDbEntity
  8
0-0
  6
JWW_DASHED1
 62
   120
370
     5
100
AcDbLine
 10
-664.5946081715422
 20
-648.0532233546671
 30
0.0
 11
-584.5946081715297
 21
-568.0532233546529
 31
0.0
  0
LINE
  5
AC
330
1F
100
AcDbEntity
  8
0-0
  6
JWW_DASHED1
 62
   120
370
     5
100
AcDbLine
 10
-664.5946081715524
 20
-638.1537284194598
 30
0.0
 11
-584.5946081715365
 21
-558.1537284194451
 31
0.0
  0
LINE
  5
AD
330
1F
100
AcDbEntity
  8
0-0
  6
JWW_DASHED1
 62
   120
370
     5
100
AcDbLine
 10
-664.5946081715456
 20
-628.2542334842357
 30
0.0
 11
-584.5946081715467
 21
-548.2542334842368
 31
0.0
  0
LINE
  5
AE
330
1F
100
AcDbEntity
  8
0-0
  6
JWW_DASHED1
 62
   120
370
     5
100
AcDbLine
 10
-664.5946081715558
 20
-618.3547385490838
 30
0.0
 11
-584.5946081715535
 21
-538.354738549084
 31
0.0
  0
LINE
  5
AF
330
1F
100
AcDbEntity
  8
0-0
  6
JWW_DASHED1
 62
   120
370
     5
100
AcDbLine
 10
-664.594608171549
 20
-608.4552436138626
 30
0.0
 11
-584.5946081715331
 21
-528.4552436138476
 31
0.0
  0
LINE
  5
B0
330
1F
100
AcDbEntity
  8
0-0
  6
JWW_DASHED1
 62
   120
370
     5
100
AcDbLine
 10
-664.5946081715422
 20
-598.5557486786395
 30
0.0
 11
-584.5946081715433
 21
-518.5557486786402
 31
0.0
  0
LINE
  5
B1
330
1F
100
AcDbEntity
  8
0-0
  6
JWW_DASHED1
 62
   120
370
     5
100
AcDbLine
 10
-664.5946081715524
 20
-588.6562537434867
 30
0.0
 11
-584.5946081715535
 21
-508.656253743487
 31
0.0
  0
LINE
  5
B2
330
1F
100
AcDbEntity
  8
0-0
  6
JWW_DASHED1
 62
   120
370
     5
100
AcDbLine
 10
-664.5946081715456
 20
-578.7567588082657
 30
0.0
 11
-584.5946081715331
 21
-498.756758808251
 31
0.0
  0
LINE
  5
B3
330
1F
100
AcDbEntity
  8
0-0
  6
JWW_DASHED1
 62
   120
370
     5
100
AcDbLine
 10
-664.5946081715388
 20
-568.8572638730425
 30
0.0
 11
-584.5946081715399
 21
-488.8572638730432
 31
0.0
  0
LINE
  5
B4
330
1F
100
AcDbEntity
  8
0-0
  6
JWW_DASHED1
 62
   120
370
     5
100
AcDbLine
 10
-664.594608171549
 20
-558.9577689378896
 30
0.0
 11
-584.5946081715501
 21
-478.9577689378908
 31
0.0
  0
LINE
  5
B5
330
1F
100
AcDbEntity
  8
0-0
  6
JWW_DASHED1
 62
   120
370
     5
100
AcDbLine
 10
-664.5946081715456
 20
-549.0582740026698
 30
0.0
 11
-584.5946081715297
 21
-469.0582740026553
 31
0.0
  0
LINE
  5
B6
330
1F
100
AcDbEntity
  8
0-0
  6
JWW_DASHED1
 62
   120
370
     5
100
AcDbLine
 10
-664.5946081715524
 20
-539.1587790674616
 30
0.0
 11
-584.5946081715399
 21
-459.158779067447
 31
0.0
  0
LINE
  5
B7
330
1F
100
AcDbEntity
  8
0-0
  6
JWW_DASHED1
 62
   120
370
     5
100
AcDbLine
 10
-664.5946081715456
 20
-529.2592841322926
 30
0.0
 11
-584.5946081715467
 21
-449.2592841322933
 31
0.0
  0
LINE
  5
B8
330
1F
100
AcDbEntity
  8
0-0
  6
JWW_DASHED1
 62
   120
370
     5
100
AcDbLine
 10
-664.5946081715558
 20
-519.3597891970848
 30
0.0
 11
-584.594608171557
 21
-439.3597891970859
 31
0.0
  0
LINE
  5
B9
330
1F
100
AcDbEntity
  8
0-0
  6
JWW_DASHED1
 62
   120
370
     5
100
AcDbLine
 10
-664.5946081715524
 20
-509.460294261865
 30
0.0
 11
-584.5946081715365
 21
-429.4602942618503
 31
0.0
  0
LINE
  5
BA
330
1F
100
AcDbEntity
  8
0-0
  6
JWW_DASHED1
 62
   120
370
     5
100
AcDbLine
 10
-664.594608171549
 20
-499.5607993267002
 30
0.0
 11
-584.5946081715501
 21
-419.5607993267014
 31
0.0
  0
LINE
  5
BB
330
1F
100
AcDbEntity
  8
0-0
  6
JWW_DASHED1
 62
   120
370
     5
100
AcDbLine
 10
-664.5946081715524
 20
-489.6613043914877
 30
0.0
 11
-584.5946081715535
 21
-409.661304391488
 31
0.0
  0
LINE
  5
BC
330
1F
100
AcDbEntity
  8
0-0
  6
JWW_DASHED1
 62
   120
370
     5
100
AcDbLine
 10
-664.594608171549
 20
-479.7618094562679
 30
0.0
 11
-584.5946081715331
 21
-399.7618094562533
 31
0.0
  0
LINE
  5
BD
330
1F
100
AcDbEntity
  8
0-0
  6
JWW_DASHED1
 62
   120
370
     5
100
AcDbLine
 10
-664.5946081715456
 20
-469.8623145211031
 30
0.0
 11
-584.5946081715467
 21
-389.8623145211043
 31
0.0
  0
LINE
  5
BE
330
1F
100
AcDbEntity
  8
0-0
  6
JWW_DASHED1
 62
   120
370
     5
100
AcDbLine
 10
-664.594608171549
 20
-459.9628195858907
 30
0.0
 11
-584.5946081715501
 21
-379.9628195858918
 31
0.0
  0
LINE
  5
BF
330
1F
100
AcDbEntity
  8
0-0
  6
JWW_DASHED1
 62
   120
370
     5
100
AcDbLine
 10
-664.5946081715456
 20
-450.0633246506709
 30
0.0
 11
-584.5946081715331
 21
-370.0633246506567
 31
0.0
  0
LINE
  5
C0
330
1F
100
AcDbEntity
  8
0-0
  6
JWW_DASHED1
 62
   120
370
     5
100
AcDbLine
 10
-664.5946081715422
 20
-440.1638297155062
 30
0.0
 11
-584.5946081715467
 21
-360.1638297155077
 31
0.0
  0
LINE
  5
C1
330
1F
100
AcDbEntity
  8
0-0
  6
JWW_DASHED1
 62
   120
370
     5
100
AcDbLine
 10
-664.594608171549
 20
-430.2643347802936
 30
0.0
 11
-584.5946081715467
 21
-350.2643347802947
 31
0.0
  0
LINE
  5
C2
330
1F
100
AcDbEntity
  8
0-0
  6
JWW_DASHED1
 62
   120
370
     5
100
AcDbLine
 10
-664.5946081715456
 20
-420.3648398451041
 30
0.0
 11
-584.5946081715331
 21
-340.3648398450895
 31
0.0
  0
LINE
  5
C3
330
1F
100
AcDbEntity
  8
0-0
  6
JWW_DASHED1
 62
   120
370
     5
100
AcDbLine
 10
-664.5946081715422
 20
-410.465344909909
 30
0.0
 11
-584.5946081715433
 21
-330.4653449099115
 31
0.0
  0
LINE
  5
C4
330
1F
100
AcDbEntity
  8
0-0
  6
JWW_DASHED1
 62
   120
370
     5
100
AcDbLine
 10
-664.594608171549
 20
-400.5658499747012
 30
0.0
 11
-584.5946081715501
 21
-320.5658499747028
 31
0.0
  0
LINE
  5
C5
330
1F
100
AcDbEntity
  8
0-0
  6
JWW_DASHED1
 62
   120
370
     5
100
AcDbLine
 10
-664.5946081715456
 20
-390.6663550395365
 30
0.0
 11
-584.5946081715331
 21
-310.6663550395218
 31
0.0
  0
LINE
  5
C6
330
1F
100
AcDbEntity
  8
0-0
  6
JWW_DASHED1
 62
   120
370
     5
100
AcDbLine
 10
-664.5946081715558
 20
-380.7668601043291
 30
0.0
 11
-584.5946081715399
 21
-300.766860104314
 31
0.0
  0
LINE
  5
C7
330
1F
100
AcDbEntity
  8
0-0
  6
JWW_DASHED1
 62
   120
370
     5
100
AcDbLine
 10
-664.594608171549
 20
-370.867365169105
 30
0.0
 11
-584.5946081715501
 21
-290.8673651691066
 31
0.0
  0
LINE
  5
C8
330
1F
100
AcDbEntity
  8
0-0
  6
JWW_DASHED1
 62
   120
370
     5
100
AcDbLine
 10
-664.5946081715456
 20
-360.9678702339403
 30
0.0
 11
-584.5946081715467
 21
-280.967870233941
 31
0.0
  0
LINE
  5
C9
330
1F
100
AcDbEntity
  8
0-0
  6
JWW_DASHED1
 62
   120
370
     5
100
AcDbLine
 10
-664.5946081715524
 20
-351.068375298732
 30
0.0
 11
-584.5946081715399
 21
-271.068375298717
 31
0.0
  0
LINE
  5
CA
330
1F
100
AcDbEntity
  8
0-0
  6
JWW_DASHED1
 62
   120
370
     5
100
AcDbLine
 10
-664.5946081715456
 20
-341.1688803635084
 30
0.0
 11
-584.5946081715467
 21
-261.1688803635093
 31
0.0
  0
LINE
  5
CB
330
1F
100
AcDbEntity
  8
0-0
  6
JWW_DASHED1
 62
   120
370
     5
100
AcDbLine
 10
-664.5946081715524
 20
-331.2693854283548
 30
0.0
 11
-584.5946081715535
 21
-251.2693854283542
 31
0.0
  0
LINE
  5
CC
330
1F
100
AcDbEntity
  8
0-0
  6
JWW_DASHED1
 62
   120
370
     5
100
AcDbLine
 10
-664.594608171549
 20
-321.3698904931354
 30
0.0
 11
-584.5946081715365
 21
-241.369890493121
 31
0.0
  0
LINE
  5
CD
330
1F
100
AcDbEntity
  8
0-0
  6
JWW_DASHED1
 62
   120
370
     5
100
AcDbLine
 10
-664.5946081715422
 20
-311.4703955579114
 30
0.0
 11
-584.5946081715433
 21
-231.470395557913
 31
0.0
  0
LINE
  5
CE
330
1F
100
AcDbEntity
  8
0-0
  6
JWW_DASHED1
 62
   120
370
     5
100
AcDbLine
 10
-664.594608171549
 20
-301.5709006227569
 30
0.0
 11
-584.5946081715501
 21
-221.570900622758
 31
0.0
  0
LINE
  5
CF
330
1F
100
AcDbEntity
  8
0-0
  6
JWW_DASHED1
 62
   120
370
     5
100
AcDbLine
 10
-664.594608171549
 20
-291.6714056875388
 30
0.0
 11
-584.5946081715331
 21
-211.6714056875242
 31
0.0
  0
LINE
  5
D0
330
1F
100
AcDbEntity
  8
0-0
  6
JWW_DASHED1
 62
   120
370
     5
100
AcDbLine
 10
-664.5946081715422
 20
-281.7719107523147
 30
0.0
 11
-584.5946081715433
 21
-201.7719107523159
 31
0.0
  0
LINE
  5
D1
330
1F
100
AcDbEntity
  8
0-0
  6
JWW_DASHED1
 62
   120
370
     5
100
AcDbLine
 10
-664.594608171549
 20
-271.8724158171607
 30
0.0
 11
-584.5946081715501
 21
-191.8724158171609
 31
0.0
  0
LINE
  5
D2
330
1F
100
AcDbEntity
  8
0-0
  6
JWW_DASHED1
 62
   120
370
     5
100
AcDbLine
 10
-664.5946081715456
 20
-261.9729208819417
 30
0.0
 11
-584.5946081715331
 21
-181.9729208819271
 31
0.0
  0
LINE
  5
D3
330
1F
100
AcDbEntity
  8
0-0
  6
JWW_DASHED1
 62
   120
370
     5
100
AcDbLine
 10
-664.5946081715558
 20
-252.0734259467343
 30
0.0
 11
-584.5946081715399
 21
-172.0734259467193
 31
0.0
  0
LINE
  5
D4
330
1F
100
AcDbEntity
  8
0-0
  6
JWW_DASHED1
 62
   120
370
     5
100
AcDbLine
 10
-664.5946081715456
 20
-242.173931011563
 30
0.0
 11
-584.5946081715467
 21
-162.1739310115643
 31
0.0
  0
LINE
  5
D5
330
1F
100
AcDbEntity
  8
0-0
  6
JWW_DASHED1
 62
   120
370
     5
100
AcDbLine
 10
-664.5946081715558
 20
-232.2744360763549
 30
0.0
 11
-584.5946081715535
 21
-152.2744360763556
 31
0.0
  0
LINE
  5
D6
330
1F
100
AcDbEntity
  8
0-0
  6
JWW_DASHED1
 62
   120
370
     5
100
AcDbLine
 10
-664.5946081715524
 20
-222.3749411411373
 30
0.0
 11
-584.5946081715399
 21
-142.3749411411231
 31
0.0
  0
LINE
  5
D7
330
1F
100
AcDbEntity
  8
0-0
  6
JWW_DASHED1
 62
   120
370
     5
100
AcDbLine
 10
-664.594608171549
 20
-212.4754462059725
 30
0.0
 11
-584.5946081715501
 21
-132.4754462059732
 31
0.0
  0
LINE
  5
D8
330
1F
100
AcDbEntity
  8
0-0
  6
JWW_DASHED1
 62
   120
370
     5
100
AcDbLine
 10
-664.5946081715524
 20
-202.5759512707579
 30
0.0
 11
-584.5946081715535
 21
-122.575951270759
 31
0.0
  0
LINE
  5
D9
330
1F
100
AcDbEntity
  8
0-0
  6
JWW_DASHED1
 62
   120
370
     5
100
AcDbLine
 10
-664.594608171549
 20
-192.6764563355407
 30
0.0
 11
-584.5946081715365
 21
-112.676456335526
 31
0.0
  0
LINE
  5
DA
330
1F
100
AcDbEntity
  8
0-0
  6
JWW_DASHED1
 62
   120
370
     5
100
AcDbLine
 10
-664.5946081715456
 20
-182.7769614003755
 30
0.0
 11
-584.5946081715467
 21
-102.776961400377
 31
0.0
  0
LINE
  5
DB
330
1F
100
AcDbEntity
  8
0-0
  6
JWW_DASHED1
 62
   120
370
     5
100
AcDbLine
 10
-664.594608171549
 20
-172.8774664651617
 30
0.0
 11
-584.5946081715501
 21
-92.87746646516155
 31
0.0
  0
LINE
  5
DC
330
1F
100
AcDbEntity
  8
0-0
  6
JWW_DASHED1
 62
   120
370
     5
100
AcDbLine
 10
-664.594608171549
 20
-162.9779715299441
 30
0.0
 11
-584.5946081715331
 21
-82.97797152992942
 31
0.0
  0
LINE
  5
DD
330
1F
100
AcDbEntity
  8
0-0
  6
JWW_DASHED1
 62
   120
370
     5
100
AcDbLine
 10
-664.5946081715456
 20
-153.0784765947789
 30
0.0
 11
-584.5946081715467
 21
-73.07847659478043
 31
0.0
  0
LINE
  5
DE
330
1F
100
AcDbEntity
  8
0-0
  6
JWW_DASHED1
 62
   120
370
     5
100
AcDbLine
 10
-664.5946081715456
 20
-143.1789816595646
 30
0.0
 11
-584.5946081715467
 21
-63.17898165956535
 31
0.0
  0
LINE
  5
DF
330
1F
100
AcDbEntity
  8
0-0
  6
JWW_DASHED1
 62
   120
370
     5
100
AcDbLine
 10
-664.594608171549
 20
-133.2794867244058
 30
0.0
 11
-584.5946081715365
 21
-53.27948672439163
 31
0.0
  0
LINE
  5
E0
330
1F
100
AcDbEntity
  8
0-0
  6
JWW_DASHED1
 62
   120
370
     5
100
AcDbLine
 10
-664.5946081715422
 20
-123.3799917891822
 30
0.0
 11
-584.5946081715433
 21
-43.37999178918338
 31
0.0
  0
LINE
  5
E1
330
1F
100
AcDbEntity
  8
0-0
  6
JWW_DASHED1
 62
   120
370
     5
100
AcDbLine
 10
-664.5946081715524
 20
-113.4804968539748
 30
0.0
 11
-584.5946081715535
 21
-33.48049685397555
 31
0.0
  0
LINE
  5
E2
330
1F
100
AcDbEntity
  8
0-0
  6
JWW_DASHED1
 62
   120
370
     5
100
AcDbLine
 10
-664.594608171549
 20
-103.5810019188092
 30
0.0
 11
-584.5946081715331
 21
-23.58100191879458
 31
0.0
  0
LINE
  5
E3
330
1F
100
AcDbEntity
  8
0-0
  6
JWW_DASHED1
 62
   120
370
     5
100
AcDbLine
 10
-664.5946081715558
 20
-93.6815069836014
 30
0.0
 11
-584.5946081715399
 21
-13.68150698358676
 31
0.0
  0
LINE
  5
E4
330
1F
100
AcDbEntity
  8
0-0
  6
JWW_DASHED1
 62
   120
370
     5
100
AcDbLine
 10
-664.594608171549
 20
-83.7820120483778
 30
0.0
 11
-584.5946081715501
 21
-3.782012048378078
 31
0.0
  0
LINE
  5
E5
330
1F
100
AcDbEntity
  8
0-0
  6
JWW_DASHED1
 62
   120
370
     5
100
AcDbLine
 10
-664.5946081715558
 20
-73.88251711322113
 30
0.0
 11
-584.5946081715535
 21
6.117482886777736
 31
0.0
  0
LINE
  5
E6
330
1F
100
AcDbEntity
  8
0-0
  6
JWW_DASHED1
 62
   120
370
     5
100
AcDbLine
 10
-664.5946081715558
 20
-63.9830221780052
 30
0.0
 11
-584.5946081715399
 21
16.01697782200944
 31
0.0
  0
LINE
  5
E7
330
1F
100
AcDbEntity
  8
0-0
  6
JWW_DASHED1
 62
   120
370
     5
100
AcDbLine
 10
-664.5946081715456
 20
-54.08352724278075
 30
0.0
 11
-584.5946081715467
 21
25.91647275721854
 31
0.0
  0
LINE
  5
E8
330
1F
100
AcDbEntity
  8
0-0
  6
JWW_DASHED1
 62
   120
370
     5
100
AcDbLine
 10
-664.5946081715524
 20
-44.18403230762493
 30
0.0
 11
-584.5946081715535
 21
35.81596769237478
 31
0.0
  0
LINE
  5
E9
330
1F
100
AcDbEntity
  8
0-0
  6
JWW_DASHED1
 62
   120
370
     5
100
AcDbLine
 10
-664.5946081715524
 20
-34.28453737240773
 30
0.0
 11
-584.5946081715365
 21
45.71546262760648
 31
0.0
  0
LINE
  5
EA
330
1F
100
AcDbEntity
  8
0-0
  6
JWW_DASHED1
 62
   120
370
     5
100
AcDbLine
 10
-664.5946081715456
 20
-24.38504243718455
 30
0.0
 11
-584.5946081715467
 21
55.61495756281431
 31
0.0
  0
LINE
  5
EB
330
1F
100
AcDbEntity
  8
0-0
  6
JWW_DASHED1
 62
   120
370
     5
100
AcDbLine
 10
-664.594608171549
 20
-14.48554750202788
 30
0.0
 11
-584.5946081715501
 21
65.51445249797183
 31
0.0
  0
LINE
  5
EC
330
1F
100
AcDbEntity
  8
0-0
  6
JWW_DASHED1
 62
   120
370
     5
100
AcDbLine
 10
-664.594608171549
 20
-4.586052566811105
 30
0.0
 11
-584.5946081715331
 21
75.41394743320353
 31
0.0
  0
LINE
  5
ED
330
1F
100
AcDbEntity
  8
0-0
  6
JWW_DASHED1
 62
   120
370
     5
100
AcDbLine
 10
-664.5946081715422
 20
5.313442368412495
 30
0.0
 11
-584.5946081715433
 21
85.31344236841136
 31
0.0
  0
LINE
  5
EE
330
1F
100
AcDbEntity
  8
0-0
  6
JWW_DASHED1
 62
   120
370
     5
100
AcDbLine
 10
-664.594608171549
 20
15.21293730356916
 30
0.0
 11
-584.5946081715467
 21
95.21293730356888
 31
0.0
  0
LINE
  5
EF
330
1F
100
AcDbEntity
  8
0-0
  6
JWW_DASHED1
 62
   120
370
     5
100
AcDbLine
 10
-664.594608171549
 20
25.11243223878552
 30
0.0
 11
-584.5946081715331
 21
105.1124322387997
 31
0.0
  0
LINE
  5
F0
330
1F
100
AcDbEntity
  8
0-0
  6
JWW_DASHED1
 62
   120
370
     5
100
AcDbLine
 10
-664.5946081715558
 20
35.01192717399377
 30
0.0
 11
-584.5946081715399
 21
115.011927174008
 31
0.0
  0
LINE
  5
F1
330
1F
100
AcDbEntity
  8
0-0
  6
JWW_DASHED1
 62
   120
370
     5
100
AcDbLine
 10
-664.5946081715456
 20
44.91142210916621
 30
0.0
 11
-584.5946081715467
 21
124.9114221091655
 31
0.0
  0
LINE
  5
F2
330
1F
100
AcDbEntity
  8
0-0
  6
JWW_DASHED1
 62
   120
370
     5
100
AcDbLine
 10
-664.5946081715524
 20
54.81091704437446
 30
0.0
 11
-584.5946081715535
 21
134.8109170443738
 31
0.0
  0
LINE
  5
F3
330
1F
100
AcDbEntity
  8
0-0
  6
JWW_DASHED1
 62
   120
370
     5
100
AcDbLine
 10
-664.5946081715422
 20
64.71041197954733
 30
0.0
 11
-584.5946081715433
 21
144.7104119795458
 31
0.0
  0
LINE
  5
F4
330
1F
100
AcDbEntity
  8
0-0
  6
JWW_DASHED1
 62
   120
370
     5
100
AcDbLine
 10
-664.594608171549
 20
74.60990691475516
 30
0.0
 11
-584.5946081715501
 21
154.609906914754
 31
0.0
  0
LINE
  5
F5
330
1F
100
AcDbEntity
  8
0-0
  6
JWW_DASHED1
 62
   120
370
     5
100
AcDbLine
 10
-664.594608171549
 20
84.50940184997108
 30
0.0
 11
-584.5946081715501
 21
164.5094018499708
 31
0.0
  0
LINE
  5
F6
330
1F
100
AcDbEntity
  8
0-0
  6
JWW_DASHED1
 62
   120
370
     5
100
AcDbLine
 10
-664.5946081715558
 20
94.40889678512818
 30
0.0
 11
-584.5946081715399
 21
174.4088967851428
 31
0.0
  0
LINE
  5
F7
330
1F
100
AcDbEntity
  8
0-0
  6
JWW_DASHED1
 62
   120
370
     5
100
AcDbLine
 10
-664.594608171549
 20
104.3083917203514
 30
0.0
 11
-584.5946081715501
 21
184.3083917203506
 31
0.0
  0
LINE
  5
F8
330
1F
100
AcDbEntity
  8
0-0
  6
JWW_DASHED1
 62
   120
370
     5
100
AcDbLine
 10
-664.594608171549
 20
114.2078866555677
 30
0.0
 11
-584.5946081715467
 21
194.2078866555678
 31
0.0
  0
LINE
  5
F9
330
1F
100
AcDbEntity
  8
0-0
  6
JWW_DASHED1
 62
   120
370
     5
100
AcDbLine
 10
-664.5946081715524
 20
124.1073815907252
 30
0.0
 11
-584.5946081715399
 21
204.1073815907399
 31
0.0
  0
LINE
  5
FA
330
1F
100
AcDbEntity
  8
0-0
  6
JWW_DASHED1
 62
   120
370
     5
100
AcDbLine
 10
-664.5946081715456
 20
134.0068765259484
 30
0.0
 11
-584.5946081715467
 21
214.0068765259477
 31
0.0
  0
LINE
  5
FB
330
1F
100
AcDbEntity
  8
0-0
  6
JWW_DASHED1
 62
   120
370
     5
100
AcDbLine
 10
-664.5946081715456
 20
143.9063714611648
 30
0.0
 11
-584.5946081715467
 21
223.9063714611645
 31
0.0
  0
LINE
  5
FC
330
1F
100
AcDbEntity
  8
0-0
  6
JWW_DASHED1
 62
   120
370
     5
100
AcDbLine
 10
-664.5946081715524
 20
153.805866396321
 30
0.0
 11
-584.5946081715365
 21
233.8058663963356
 31
0.0
  0
LINE
  5
FD
330
1F
100
AcDbEntity
  8
0-0
  6
JWW_DASHED1
 62
   120
370
     5
100
AcDbLine
 10
-664.5946081715422
 20
163.7053613315454
 30
0.0
 11
-584.5946081715467
 21
243.7053613315439
 31
0.0
  0
LINE
  5
FE
330
1F
100
AcDbEntity
  8
0-0
  6
JWW_DASHED1
 62
   120
370
     5
100
AcDbLine
 10
-664.5946081715524
 20
173.6048562667537
 30
0.0
 11
-584.5946081715535
 21
253.6048562667521
 31
0.0
  0
LINE
  5
FF
330
1F
100
AcDbEntity
  8
0-0
  6
JWW_DASHED1
 62
   120
370
     5
100
AcDbLine
 10
-664.594608171549
 20
183.504351201918
 30
0.0
 11
-584.5946081715331
 21
263.5043512019326
 31
0.0
  0
LINE
  5
100
330
1F
100
AcDbEntity
  8
0-0
  6
JWW_DASHED1
 62
   120
370
     5
100
AcDbLine
 10
-664.5946081715558
 20
193.4038461371259
 30
0.0
 11
-584.5946081715433
 21
273.4038461371409
 31
0.0
  0
LINE
  5
101
330
1F
100
AcDbEntity
  8
0-0
  6
JWW_DASHED1
 62
   120
370
     5
100
AcDbLine
 10
-664.594608171549
 20
203.3033410723499
 30
0.0
 11
-584.5946081715501
 21
283.3033410723488
 31
0.0
  0
LINE
  5
102
330
1F
100
AcDbEntity
  8
0-0
  6
JWW_DASHED1
 62
   120
370
     5
100
AcDbLine
 10
-664.5946081715524
 20
213.2028360075078
 30
0.0
 11
-584.5946081715535
 21
293.2028360075076
 31
0.0
  0
LINE
  5
103
330
1F
100
AcDbEntity
  8
0-0
  6
JWW_DASHED1
 62
   120
370
     5
100
AcDbLine
 10
-664.5946081715558
 20
223.1023309427229
 30
0.0
 11
-584.5946081715399
 21
303.1023309427376
 31
0.0
  0
LINE
  5
104
330
1F
100
AcDbEntity
  8
0-0
  6
JWW_DASHED1
 62
   120
370
     5
100
AcDbLine
 10
-664.594608171549
 20
233.0018258779461
 30
0.0
 11
-584.5946081715501
 21
313.0018258779454
 31
0.0
  0
LINE
  5
105
330
1F
100
AcDbEntity
  8
0-0
  6
JWW_DASHED1
 62
   120
370
     5
100
AcDbLine
 10
-664.5946081715524
 20
242.9013208131049
 30
0.0
 11
-584.5946081715535
 21
322.9013208131038
 31
0.0
  0
LINE
  5
106
330
1F
100
AcDbEntity
  8
0-0
  6
JWW_DASHED1
 62
   120
370
     5
100
AcDbLine
 10
-664.5946081715524
 20
252.80081574832
 30
0.0
 11
-584.5946081715399
 21
332.8008157483338
 31
0.0
  0
LINE
  5
107
330
1F
100
AcDbEntity
  8
0-0
  6
JWW_DASHED1
 62
   120
370
     5
100
AcDbLine
 10
-664.594608171549
 20
262.7003106834848
 30
0.0
 11
-584.5946081715501
 21
342.7003106834832
 31
0.0
  0
LINE
  5
108
330
1F
100
AcDbEntity
  8
0-0
  6
JWW_DASHED1
 62
   120
370
     5
100
AcDbLine
 10
-664.594608171549
 20
272.5998056187019
 30
0.0
 11
-584.5946081715501
 21
352.5998056187012
 31
0.0
  0
LINE
  5
109
330
1F
100
AcDbEntity
  8
0-0
  6
JWW_DASHED1
 62
   120
370
     5
100
AcDbLine
 10
-664.594608171549
 20
282.4993005539162
 30
0.0
 11
-584.5946081715365
 21
362.4993005539304
 31
0.0
  0
LINE
  5
10A
330
1F
100
AcDbEntity
  8
0-0
  6
JWW_DASHED1
 62
   120
370
     5
100
AcDbLine
 10
-664.5946081715456
 20
292.3987954890817
 30
0.0
 11
-584.5946081715467
 21
372.3987954890802
 31
0.0
  0
LINE
  5
10B
330
1F
100
AcDbEntity
  8
0-0
  6
JWW_DASHED1
 62
   120
370
     5
100
AcDbLine
 10
-664.5946081715456
 20
302.298290424299
 30
0.0
 11
-584.5946081715467
 21
382.2982904242979
 31
0.0
  0
LINE
  5
10C
330
1F
100
AcDbEntity
  8
0-0
  6
JWW_DASHED1
 62
   120
370
     5
100
AcDbLine
 10
-664.594608171549
 20
312.1977853595127
 30
0.0
 11
-584.5946081715501
 21
392.1977853595121
 31
0.0
  0
LINE
  5
10D
330
1F
100
AcDbEntity
  8
0-0
  6
JWW_DASHED1
 62
   120
370
     5
100
AcDbLine
 10
-664.5946081715456
 20
322.0972802946775
 30
0.0
 11
-584.5946081715467
 21
402.0972802946764
 31
0.0
  0
LINE
  5
10E
330
1F
100
AcDbEntity
  8
0-0
  6
JWW_DASHED1
 62
   120
370
     5
100
AcDbLine
 10
-664.5946081715524
 20
331.9967752298858
 30
0.0
 11
-584.5946081715535
 21
411.9967752298842
 31
0.0
  0
LINE
  5
10F
330
1F
100
AcDbEntity
  8
0-0
  6
JWW_DASHED1
 62
   120
370
     5
100
AcDbLine
 10
-664.5946081715524
 20
341.8962701651043
 30
0.0
 11
-584.5946081715535
 21
421.8962701651027
 31
0.0
  0
LINE
  5
110
330
1F
100
AcDbEntity
  8
0-0
  6
JWW_DASHED1
 62
   120
370
     5
100
AcDbLine
 10
-664.5946081715592
 20
351.7957651002592
 30
0.0
 11
-584.5946081715433
 21
431.7957651002735
 31
0.0
  0
LINE
  5
111
330
1F
100
AcDbEntity
  8
0-0
  6
JWW_DASHED1
 62
   120
370
     5
100
AcDbLine
 10
-664.5946081715524
 20
361.6952600354824
 30
0.0
 11
-584.5946081715535
 21
441.6952600354813
 31
0.0
  0
LINE
  5
112
330
1F
100
AcDbEntity
  8
0-0
  6
JWW_DASHED1
 62
   120
370
     5
100
AcDbLine
 10
-664.594608171549
 20
371.5947549707009
 30
0.0
 11
-584.5946081715501
 21
451.5947549706998
 31
0.0
  0
LINE
  5
113
330
1F
100
AcDbEntity
  8
0-0
  6
JWW_DASHED1
 62
   120
370
     5
100
AcDbLine
 10
-664.5946081715558
 20
381.4942499058559
 30
0.0
 11
-584.5946081715433
 21
461.4942499058701
 31
0.0
  0
LINE
  5
114
330
1F
100
AcDbEntity
  8
0-0
  6
JWW_DASHED1
 62
   120
370
     5
100
AcDbLine
 10
-664.594608171549
 20
391.3937448410795
 30
0.0
 11
-584.5946081715501
 21
471.3937448410779
 31
0.0
  0
LINE
  5
115
330
1F
100
AcDbEntity
  8
0-0
  6
JWW_DASHED1
 62
   120
370
     5
100
AcDbLine
 10
-664.5946081715456
 20
401.2932397762979
 30
0.0
 11
-584.5946081715467
 21
481.2932397762968
 31
0.0
  0
LINE
  5
116
330
1F
100
AcDbEntity
  8
0-0
  6
JWW_DASHED1
 62
   120
370
     5
100
AcDbLine
 10
-664.5946081715558
 20
411.1927347114516
 30
0.0
 11
-584.5946081715399
 21
491.1927347114667
 31
0.0
  0
LINE
  5
117
330
1F
100
AcDbEntity
  8
0-0
  6
JWW_DASHED1
 62
   120
370
     5
100
AcDbLine
 10
-664.5946081715456
 20
421.0922296466765
 30
0.0
 11
-584.5946081715467
 21
501.0922296466749
 31
0.0
  0
LINE
  5
118
330
1F
100
AcDbEntity
  8
0-0
  6
JWW_DASHED1
 62
   120
370
     5
100
AcDbLine
 10
-664.5946081715456
 20
430.9917245818946
 30
0.0
 11
-584.5946081715467
 21
510.9917245818939
 31
0.0
  0
LINE
  5
119
330
1F
100
AcDbEntity
  8
0-0
  6
JWW_DASHED1
 62
   120
370
     5
100
AcDbLine
 10
-664.5946081715524
 20
440.8912195170487
 30
0.0
 11
-584.5946081715365
 21
520.8912195170637
 31
0.0
  0
LINE
  5
11A
330
1F
100
AcDbEntity
  8
0-0
  6
JWW_DASHED1
 62
   120
370
     5
100
AcDbLine
 10
-664.5946081715456
 20
450.7907144522727
 30
0.0
 11
-584.5946081715467
 21
530.7907144522711
 31
0.0
  0
LINE
  5
11B
330
1F
100
AcDbEntity
  8
0-0
  6
JWW_DASHED1
 62
   120
370
     5
100
AcDbLine
 10
-664.5946081715456
 20
460.6902093874323
 30
0.0
 11
-584.5946081715467
 21
540.6902093874317
 31
0.0
  0
LINE
  5
11C
330
1F
100
AcDbEntity
  8
0-0
  6
JWW_DASHED1
 62
   120
370
     5
100
AcDbLine
 10
-664.594608171549
 20
470.5897043226457
 30
0.0
 11
-584.5946081715365
 21
550.5897043226599
 31
0.0
  0
LINE
  5
11D
330
1F
100
AcDbEntity
  8
0-0
  6
JWW_DASHED1
 62
   120
370
     5
100
AcDbLine
 10
-664.5946081715592
 20
480.4891992578536
 30
0.0
 11
-584.5946081715433
 21
560.4891992578682
 31
0.0
  0
LINE
  5
11E
330
1F
100
AcDbEntity
  8
0-0
  6
JWW_DASHED1
 62
   120
370
     5
100
AcDbLine
 10
-664.5946081715456
 20
490.3886941930294
 30
0.0
 11
-584.5946081715467
 21
570.3886941930283
 31
0.0
  0
LINE
  5
11F
330
1F
100
AcDbEntity
  8
0-0
  6
JWW_DASHED1
 62
   120
370
     5
100
AcDbLine
 10
-664.5946081715524
 20
500.2881891282368
 30
0.0
 11
-584.5946081715535
 21
580.2881891282374
 31
0.0
  0
LINE
  5
120
330
1F
100
AcDbEntity
  8
0-0
  6
JWW_DASHED1
 62
   120
370
     5
100
AcDbLine
 10
-664.5946081715558
 20
510.1876840634502
 30
0.0
 11
-584.5946081715399
 21
590.1876840634648
 31
0.0
  0
LINE
  5
121
330
1F
100
AcDbEntity
  8
0-0
  6
JWW_DASHED1
 62
   120
370
     5
100
AcDbLine
 10
-664.5946081715524
 20
520.0871789986154
 30
0.0
 11
-584.5946081715535
 21
600.0871789986138
 31
0.0
  0
LINE
  5
122
330
1F
100
AcDbEntity
  8
0-0
  6
JWW_DASHED1
 62
   120
370
     5
100
AcDbLine
 10
-664.594608171549
 20
529.9866739338338
 30
0.0
 11
-584.5946081715501
 21
609.9866739338336
 31
0.0
  0
LINE
  5
123
330
1F
100
AcDbEntity
  8
0-0
  6
JWW_DASHED1
 62
   120
370
     5
100
AcDbLine
 10
-664.5946081715524
 20
539.8861688690472
 30
0.0
 11
-584.5946081715399
 21
619.8861688690614
 31
0.0
  0
LINE
  5
124
330
1F
100
AcDbEntity
  8
0-0
  6
JWW_DASHED1
 62
   120
370
     5
100
AcDbLine
 10
-664.594608171549
 20
549.7856638042119
 30
0.0
 11
-584.5946081715535
 21
629.7856638042105
 31
0.0
  0
LINE
  5
125
330
1F
100
AcDbEntity
  8
0-0
  6
JWW_DASHED1
 62
   120
370
     5
100
AcDbLine
 10
-664.594608171549
 20
559.6851587394309
 30
0.0
 11
-584.5946081715501
 21
639.6851587394302
 31
0.0
  0
LINE
  5
126
330
1F
100
AcDbEntity
  8
0-0
  6
JWW_DASHED1
 62
   120
370
     5
100
AcDbLine
 10
-664.5946081715524
 20
569.5846536746438
 30
0.0
 11
-584.5946081715365
 21
649.5846536746585
 31
0.0
  0
LINE
  5
127
330
1F
100
AcDbEntity
  8
0-0
  6
JWW_DASHED1
 62
   120
370
     5
100
AcDbLine
 10
-664.594608171549
 20
579.4841486098082
 30
0.0
 11
-584.5946081715501
 21
659.4841486098074
 31
0.0
  0
LINE
  5
128
330
1F
100
AcDbEntity
  8
0-0
  6
JWW_DASHED1
 62
   120
370
     5
100
AcDbLine
 10
-664.5946081715456
 20
589.383643545028
 30
0.0
 11
-584.5946081715467
 21
669.3836435450277
 31
0.0
  0
LINE
  5
129
330
1F
100
AcDbEntity
  8
0-0
  6
JWW_DASHED1
 62
   120
370
     5
100
AcDbLine
 10
-664.594608171549
 20
599.28313848024
 30
0.0
 11
-584.5946081715501
 21
679.2831384802389
 31
0.0
  0
LINE
  5
12A
330
1F
100
AcDbEntity
  8
0-0
  6
JWW_DASHED1
 62
   120
370
     5
100
AcDbLine
 10
-664.5946081715456
 20
609.1826334154048
 30
0.0
 11
-584.5946081715467
 21
689.1826334154036
 31
0.0
  0
LINE
  5
12B
330
1F
100
AcDbEntity
  8
0-0
  6
JWW_DASHED1
 62
   120
370
     5
100
AcDbLine
 10
-664.5946081715558
 20
619.0821283506131
 30
0.0
 11
-584.594608171557
 21
699.0821283506124
 31
0.0
  0
LINE
  5
12C
330
1F
100
AcDbEntity
  8
0-0
  6
JWW_DASHED1
 62
   120
370
     5
100
AcDbLine
 10
-664.5946081715524
 20
628.9816232858328
 30
0.0
 11
-584.5946081715535
 21
708.9816232858321
 31
0.0
  0
LINE
  5
12D
330
1F
100
AcDbEntity
  8
0-0
  6
JWW_DASHED1
 62
   120
370
     5
100
AcDbLine
 10
-664.5946081715592
 20
638.8811182209861
 30
0.0
 11
-584.5946081715467
 21
718.8811182210007
 31
0.0
  0
LINE
  5
12E
330
1F
100
AcDbEntity
  8
0-0
  6
JWW_DASHED1
 62
   120
370
     5
100
AcDbLine
 10
-664.5946081715524
 20
648.7806131562102
 30
0.0
 11
-584.5946081715535
 21
728.7806131562086
 31
0.0
  0
LINE
  5
12F
330
1F
100
AcDbEntity
  8
0-0
  6
JWW_DASHED1
 62
   120
370
     5
100
AcDbLine
 10
-664.594608171549
 20
658.6801080914008
 30
0.0
 11
-584.5946081715535
 21
738.6801080913997
 31
0.0
  0
LINE
  5
130
330
1F
100
AcDbEntity
  8
0-0
  6
JWW_DASHED1
 62
   120
370
     5
100
AcDbLine
 10
-664.5946081715592
 20
668.5796030265827
 30
0.0
 11
-584.5946081715433
 21
748.5796030265974
 31
0.0
  0
LINE
  5
131
330
1F
100
AcDbEntity
  8
0-0
  6
JWW_DASHED1
 62
   120
370
     5
100
AcDbLine
 10
-664.5946081715524
 20
678.4790979618059
 30
0.0
 11
-584.5946081715501
 21
758.4790979618056
 31
0.0
  0
LINE
  5
132
330
1F
100
AcDbEntity
  8
0-0
  6
JWW_DASHED1
 62
   120
370
     5
100
AcDbLine
 10
-664.5946081715524
 20
688.3785928969677
 30
0.0
 11
-584.5946081715501
 21
768.3785928969673
 31
0.0
  0
LINE
  5
133
330
1F
100
AcDbEntity
  8
0-0
  6
JWW_DASHED1
 62
   120
370
     5
100
AcDbLine
 10
-664.5946081715558
 20
698.2780878321797
 30
0.0
 11
-584.5946081715399
 21
778.2780878321939
 31
0.0
  0
LINE
  5
134
330
1F
100
AcDbEntity
  8
0-0
  6
JWW_DASHED1
 62
   120
370
     5
100
AcDbLine
 10
-664.594608171549
 20
708.1775827674029
 30
0.0
 11
-584.5946081715501
 21
788.1775827674022
 31
0.0
  0
LINE
  5
135
330
1F
100
AcDbEntity
  8
0-0
  6
JWW_DASHED1
 62
   120
370
     5
100
AcDbLine
 10
-664.594608171549
 20
718.0770777025647
 30
0.0
 11
-584.5946081715501
 21
798.077077702564
 31
0.0
  0
LINE
  5
136
330
1F
100
AcDbEntity
  8
0-0
  6
JWW_DASHED1
 62
   120
370
     5
100
AcDbLine
 10
-664.5946081715524
 20
727.9765726377764
 30
0.0
 11
-584.5946081715399
 21
807.976572637791
 31
0.0
  0
LINE
  5
137
330
1F
100
AcDbEntity
  8
0-0
  6
JWW_DASHED1
 62
   120
370
     5
100
AcDbLine
 10
-664.5946081715456
 20
737.8760675730005
 30
0.0
 11
-584.5946081715467
 21
817.8760675729989
 31
0.0
  0
LINE
  5
138
330
1F
100
AcDbEntity
  8
0-0
  6
JWW_DASHED1
 62
   120
370
     5
100
AcDbLine
 10
-664.5946081715456
 20
747.7755625081618
 30
0.0
 11
-584.5946081715467
 21
827.7755625081611
 31
0.0
  0
LINE
  5
139
330
1F
100
AcDbEntity
  8
0-0
  6
JWW_DASHED1
 62
   120
370
     5
100
AcDbLine
 10
-664.5946081715524
 20
757.675057443373
 30
0.0
 11
-584.5946081715365
 21
837.6750574433877
 31
0.0
  0
LINE
  5
13A
330
1F
100
AcDbEntity
  8
0-0
  6
JWW_DASHED1
 62
   120
370
     5
100
AcDbLine
 10
-664.5946081715592
 20
767.5745523785808
 30
0.0
 11
-584.5946081715433
 21
847.5745523785959
 31
0.0
  0
LINE
  5
13B
330
1F
100
AcDbEntity
  8
0-0
  6
JWW_DASHED1
 62
   120
370
     5
100
AcDbLine
 10
-664.5946081715422
 20
777.4740473137588
 30
0.0
 11
-584.5946081715433
 21
857.4740473137581
 31
0.0
  0
LINE
  5
13C
330
1F
100
AcDbEntity
  8
0-0
  6
JWW_DASHED1
 62
   120
370
     5
100
AcDbLine
 10
-664.5946081715524
 20
787.373542248967
 30
0.0
 11
-584.5946081715535
 21
867.3735422489664
 31
0.0
  0
LINE
  5
13D
330
1F
100
AcDbEntity
  8
0-0
  6
JWW_DASHED1
 62
   120
370
     5
100
AcDbLine
 10
-664.5946081715558
 20
797.2730371841778
 30
0.0
 11
-584.5946081715433
 21
877.2730371841925
 31
0.0
  0
LINE
  5
13E
330
1F
100
AcDbEntity
  8
0-0
  6
JWW_DASHED1
 62
   120
370
     5
100
AcDbLine
 10
-664.5946081715558
 20
807.1725321193426
 30
0.0
 11
-584.594608171557
 21
887.1725321193411
 31
0.0
  0
LINE
  5
13F
330
1F
100
AcDbEntity
  8
0-0
  6
JWW_DASHED1
 62
   120
370
     5
100
AcDbLine
 10
-664.594608171549
 20
817.0720270545633
 30
0.0
 11
-584.5946081715501
 21
897.072027054563
 31
0.0
  0
LINE
  5
140
330
1F
100
AcDbEntity
  8
0-0
  6
JWW_DASHED1
 62
   120
370
     5
100
AcDbLine
 10
-664.5946081715558
 20
826.9715219897745
 30
0.0
 11
-584.5946081715399
 21
906.9715219897887
 31
0.0
  0
LINE
  5
141
330
1F
100
AcDbEntity
  8
0-0
  6
JWW_DASHED1
 62
   120
370
     5
100
AcDbLine
 10
-664.5946081715524
 20
836.8710169249392
 30
0.0
 11
-584.5946081715535
 21
916.8710169249381
 31
0.0
  0
LINE
  5
142
330
1F
100
AcDbEntity
  8
0-0
  6
JWW_DASHED1
 62
   120
370
     5
100
AcDbLine
 10
-664.5946081715456
 20
846.7705118601607
 30
0.0
 11
-584.5946081715467
 21
926.77051186016
 31
0.0
  0
LINE
  5
143
330
1F
100
AcDbEntity
  8
0-0
  6
JWW_DASHED1
 62
   120
370
     5
100
AcDbLine
 10
-664.5946081715558
 20
856.6700067953412
 30
0.0
 11
-584.5946081715399
 21
936.6700067953564
 31
0.0
  0
LINE
  5
144
330
1F
100
AcDbEntity
  8
0-0
  6
JWW_DASHED1
 62
   120
370
     5
100
AcDbLine
 10
-664.594608171549
 20
866.5695017305359
 30
0.0
 11
-584.5946081715501
 21
946.5695017305347
 31
0.0
  0
LINE
  5
145
330
1F
100
AcDbEntity
  8
0-0
  6
JWW_DASHED1
 62
   120
370
     5
100
AcDbLine
 10
-664.5946081715456
 20
876.4689966657573
 30
0.0
 11
-584.5946081715467
 21
956.468996665757
 31
0.0
  0
LINE
  5
146
330
1F
100
AcDbEntity
  8
0-0
  6
JWW_DASHED1
 62
   120
370
     5
100
AcDbLine
 10
-664.5946081715558
 20
886.3684916009089
 30
0.0
 11
-584.5946081715399
 21
966.3684916009236
 31
0.0
  0
LINE
  5
147
330
1F
100
AcDbEntity
  8
0-0
  6
JWW_DASHED1
 62
   120
370
     5
100
AcDbLine
 10
-664.594608171549
 20
896.2679865361329
 30
0.0
 11
-584.5946081715467
 21
976.2679865361317
 31
0.0
  0
LINE
  5
148
330
1F
100
AcDbEntity
  8
0-0
  6
JWW_DASHED1
 62
   120
370
     5
100
AcDbLine
 10
-664.5946081715558
 20
906.1674814713408
 30
0.0
 11
-584.594608171557
 21
986.1674814713397
 31
0.0
  0
LINE
  5
149
330
1F
100
AcDbEntity
  8
0-0
  6
JWW_DASHED1
 62
   120
370
     5
100
AcDbLine
 10
-664.5946081715524
 20
916.066976406506
 30
0.0
 11
-584.5946081715399
 21
996.0669764065201
 31
0.0
  0
LINE
  5
14A
330
1F
100
AcDbEntity
  8
0-0
  6
JWW_DASHED1
 62
   120
370
     5
100
AcDbLine
 10
-664.5946081715626
 20
925.9664713417134
 30
0.0
 11
-584.5946081715467
 21
1005.966471341728
 31
0.0
  0
LINE
  5
14B
330
1F
100
AcDbEntity
  8
0-0
  6
JWW_DASHED1
 62
   120
370
     5
100
AcDbLine
 10
-664.5946081715524
 20
935.8659662769373
 30
0.0
 11
-584.5946081715535
 21
1015.865966276936
 31
0.0
  0
LINE
  5
14C
330
1F
100
AcDbEntity
  8
0-0
  6
JWW_DASHED1
 62
   120
370
     5
100
AcDbLine
 10
-664.5946081715524
 20
945.7654612121005
 30
0.0
 11
-584.5946081715535
 21
1025.7654612121
 31
0.0
  0
LINE
  5
14D
330
1F
100
AcDbEntity
  8
0-0
  6
JWW_DASHED1
 62
   120
370
     5
100
AcDbLine
 10
-664.5946081715592
 20
955.6649561473104
 30
0.0
 11
-584.5946081715433
 21
1035.664956147325
 31
0.0
  0
LINE
  5
14E
330
1F
100
AcDbEntity
  8
0-0
  6
JWW_DASHED1
 62
   120
370
     5
100
AcDbLine
 10
-664.5946081715524
 20
965.564451082534
 30
0.0
 11
-584.5946081715535
 21
1045.564451082533
 31
0.0
  0
LINE
  5
14F
330
1F
100
AcDbEntity
  8
0-0
  6
JWW_DASHED1
 62
   120
370
     5
100
AcDbLine
 10
-664.594608171549
 20
975.4639460176975
 30
0.0
 11
-584.5946081715501
 21
1055.463946017697
 31
0.0
  0
LINE
  5
150
330
1F
100
AcDbEntity
  8
0-0
  6
JWW_DASHED1
 62
   120
370
     5
100
AcDbLine
 10
-664.5946081715558
 20
985.363440952907
 30
0.0
 11
-584.5946081715433
 21
1065.363440952922
 31
0.0
  0
LINE
  5
151
330
1F
100
AcDbEntity
  8
0-0
  6
JWW_DASHED1
 62
   120
370
     5
100
AcDbLine
 10
-664.594608171549
 20
995.2629358881311
 30
0.0
 11
-584.5946081715501
 21
1075.26293588813
 31
0.0
  0
LINE
  5
152
330
1F
100
AcDbEntity
  8
0-0
  6
JWW_DASHED1
 62
   120
370
     5
100
AcDbLine
 10
-664.594608171549
 20
1005.162430823294
 30
0.0
 11
-584.5946081715467
 21
1085.162430823294
 31
0.0
  0
LINE
  5
153
330
1F
100
AcDbEntity
  8
0-0
  6
JWW_DASHED1
 62
   120
370
     5
100
AcDbLine
 10
-664.5946081715558
 20
1015.061925758504
 30
0.0
 11
-584.5946081715399
 21
1095.061925758518
 31
0.0
  0
LINE
  5
154
330
1F
100
AcDbEntity
  8
0-0
  6
JWW_DASHED1
 62
   120
370
     5
100
AcDbLine
 10
-664.5946081715456
 20
1024.961420693728
 30
0.0
 11
-584.5946081715467
 21
1104.961420693726
 31
0.0
  0
LINE
  5
155
330
1F
100
AcDbEntity
  8
0-0
  6
JWW_DASHED1
 62
   120
370
     5
100
AcDbLine
 10
-664.5946081715456
 20
1034.860915628891
 30
0.0
 11
-584.5946081715467
 21
1114.860915628891
 31
0.0
  0
LINE
  5
156
330
1F
100
AcDbEntity
  8
0-0
  6
JWW_DASHED1
 62
   120
370
     5
100
AcDbLine
 10
-664.5946081715524
 20
1044.7604105641
 30
0.0
 11
-584.5946081715535
 21
1124.760410564099
 31
0.0
  0
LINE
  5
157
330
1F
100
AcDbEntity
  8
0-0
  6
JWW_DASHED1
 62
   120
370
     5
100
AcDbLine
 10
-664.5946081715456
 20
1054.659905499295
 30
0.0
 11
-584.5946081715467
 21
1134.659905499293
 31
0.0
  0
LINE
  5
158
330
1F
100
AcDbEntity
  8
0-0
  6
JWW_DASHED1
 62
   120
370
     5
100
AcDbLine
 10
-664.5946081715558
 20
1064.559400434473
 30
0.0
 11
-584.5946081715604
 21
1144.559400434472
 31
0.0
  0
LINE
  5
159
330
1F
100
AcDbEntity
  8
0-0
  6
JWW_DASHED1
 62
   120
370
     5
100
AcDbLine
 10
-664.5946081715524
 20
1074.458895369696
 30
0.0
 11
-584.5946081715535
 21
1154.458895369695
 31
0.0
  0
LINE
  5
15A
330
1F
100
AcDbEntity
  8
0-0
  6
JWW_DASHED1
 62
   120
370
     5
100
AcDbLine
 10
-664.5946081715626
 20
1084.358390304846
 30
0.0
 11
-584.5946081715467
 21
1164.358390304861
 31
0.0
  0
LINE
  5
15B
330
1F
100
AcDbEntity
  8
0-0
  6
JWW_DASHED1
 62
   120
370
     5
100
AcDbLine
 10
-664.5946081715558
 20
1094.25788524007
 30
0.0
 11
-584.594608171557
 21
1174.257885240069
 31
0.0
  0
LINE
  5
15C
330
1F
100
AcDbEntity
  8
0-0
  6
JWW_DASHED1
 62
   120
370
     5
100
AcDbLine
 10
-664.594608171549
 20
1104.157380175293
 30
0.0
 11
-584.5946081715501
 21
1184.157380175292
 31
0.0
  0
LINE
  5
15D
330
1F
100
AcDbEntity
  8
0-0
  6
JWW_DASHED1
 62
   120
370
     5
100
AcDbLine
 10
-664.5946081715592
 20
1114.056875110443
 30
0.0
 11
-584.5946081715467
 21
1194.056875110457
 31
0.0
  0
LINE
  5
15E
330
1F
100
AcDbEntity
  8
0-0
  6
JWW_DASHED1
 62
   120
370
     5
100
AcDbLine
 10
-664.5946081715524
 20
1123.956370045667
 30
0.0
 11
-584.5946081715535
 21
1203.956370045666
 31
0.0
  0
LINE
  5
15F
330
1F
100
AcDbEntity
  8
0-0
  6
JWW_DASHED1
 62
   120
370
     5
100
AcDbLine
 10
-664.5946081715456
 20
1133.85586498089
 30
0.0
 11
-584.5946081715467
 21
1213.855864980889
 31
0.0
  0
LINE
  5
160
330
1F
100
AcDbEntity
  8
0-0
  6
JWW_DASHED1
 62
   120
370
     5
100
AcDbLine
 10
-664.5946081715592
 20
1143.75535991604
 30
0.0
 11
-588.6689901855495
 21
1219.680977902048
 31
0.0
  0
LINE
  5
161
330
1F
100
AcDbEntity
  8
0-0
  6
JWW_DASHED1
 62
   120
370
     5
100
AcDbLine
 10
-664.594608171549
 20
1153.654854851263
 30
0.0
 11
-598.5684851207591
 21
1219.680977902056
 31
0.0
  0
LINE
  5
162
330
1F
100
AcDbEntity
  8
0-0
  6
JWW_DASHED1
 62
   120
370
     5
100
AcDbLine
 10
-664.5946081715422
 20
1163.554349786487
 30
0.0
 11
-608.4679800559823
 21
1219.680977902048
 31
0.0
  0
LINE
  5
163
330
1F
100
AcDbEntity
  8
0-0
  6
JWW_DASHED1
 62
   120
370
     5
100
AcDbLine
 10
-664.5946081715558
 20
1173.453844721637
 30
0.0
 11
-618.3674749911406
 21
1219.680977902051
 31
0.0
  0
LINE
  5
164
330
1F
100
AcDbEntity
  8
0-0
  6
JWW_DASHED1
 62
   120
370
     5
100
AcDbLine
 10
-664.594608171549
 20
1183.35333965686
 30
0.0
 11
-628.2669699263536
 21
1219.680977902053
 31
0.0
  0
LINE
  5
165
330
1F
100
AcDbEntity
  8
0-0
  6
JWW_DASHED1
 62
   120
370
     5
100
AcDbLine
 10
-664.5946081715558
 20
1193.252834592068
 30
0.0
 11
-638.1664648615631
 21
1219.680977902062
 31
0.0
  0
LINE
  5
166
330
1F
100
AcDbEntity
  8
0-0
  6
JWW_DASHED1
 62
   120
370
     5
100
AcDbLine
 10
-664.5946081715524
 20
1203.152329527233
 30
0.0
 11
-648.0659597967317
 21
1219.680977902055
 31
0.0
  0
LINE
  5
167
330
1F
100
AcDbEntity
  8
0-0
  6
JWW_DASHED1
 62
   120
370
     5
100
AcDbLine
 10
-664.5946081715626
 20
1213.051824462441
 30
0.0
 11
-657.9654547319378
 21
1219.680977902065
 31
0.0
  0
LINE
  5
168
330
1F
100
AcDbEntity
  8
0-0
  6
JWW_DASHED1
 62
   120
370
     5
100
AcDbLine
 10
695.5947665237668
 20
-1102.537080224786
 30
0.0
 11
705.4053918284601
 21
-1092.726454920095
 31
0.0
  0
LINE
  5
169
330
1F
100
AcDbEntity
  8
0-0
  6
JWW_DASHED1
 62
   120
370
     5
100
AcDbLine
 10
685.6952715886152
 20
-1102.537080224773
 30
0.0
 11
705.4053918284465
 21
-1082.826959984946
 31
0.0
  0
LINE
  5
16A
330
1F
100
AcDbEntity
  8
0-0
  6
JWW_DASHED1
 62
   120
370
     5
100
AcDbLine
 10
675.7957766533852
 20
-1102.537080224791
 30
0.0
 11
705.4053918284669
 21
-1072.927465049706
 31
0.0
  0
LINE
  5
16B
330
1F
100
AcDbEntity
  8
0-0
  6
JWW_DASHED1
 62
   120
370
     5
100
AcDbLine
 10
665.8962817181689
 20
-1102.537080224788
 30
0.0
 11
705.4053918284601
 21
-1063.027970114499
 31
0.0
  0
LINE
  5
16C
330
1F
100
AcDbEntity
  8
0-0
  6
JWW_DASHED1
 62
   120
370
     5
100
AcDbLine
 10
655.9967867830208
 20
-1102.537080224776
 30
0.0
 11
705.4053918284465
 21
-1053.128475179349
 31
0.0
  0
LINE
  5
16D
330
1F
100
AcDbEntity
  8
0-0
  6
JWW_DASHED1
 62
   120
370
     5
100
AcDbLine
 10
646.0972918477908
 20
-1102.537080224788
 30
0.0
 11
705.4053918284703
 21
-1043.22898024411
 31
0.0
  0
LINE
  5
16E
330
1F
100
AcDbEntity
  8
0-0
  6
JWW_DASHED1
 62
   120
370
     5
100
AcDbLine
 10
636.1977969125744
 20
-1102.537080224791
 30
0.0
 11
705.4053918284601
 21
-1033.329485308902
 31
0.0
  0
LINE
  5
16F
330
1F
100
AcDbEntity
  8
0-0
  6
JWW_DASHED1
 62
   120
370
     5
100
AcDbLine
 10
626.2983019774229
 20
-1102.537080224778
 30
0.0
 11
705.4053918284499
 21
-1023.429990373751
 31
0.0
  0
LINE
  5
170
330
1F
100
AcDbEntity
  8
0-0
  6
JWW_DASHED1
 62
   120
370
     5
100
AcDbLine
 10
625.4053918284578
 20
-1093.530495438527
 30
0.0
 11
705.4053918284567
 21
-1013.530495438529
 31
0.0
  0
LINE
  5
171
330
1F
100
AcDbEntity
  8
0-0
  6
JWW_DASHED1
 62
   120
370
     5
100
AcDbLine
 10
625.405391828451
 20
-1083.631000503319
 30
0.0
 11
705.4053918284635
 21
-1003.631000503304
 31
0.0
  0
LINE
  5
172
330
1F
100
AcDbEntity
  8
0-0
  6
JWW_DASHED1
 62
   120
370
     5
100
AcDbLine
 10
625.405391828451
 20
-1073.731505568155
 30
0.0
 11
705.4053918284533
 21
-993.7315055681559
 31
0.0
  0
LINE
  5
173
330
1F
100
AcDbEntity
  8
0-0
  6
JWW_DASHED1
 62
   120
370
     5
100
AcDbLine
 10
625.4053918284442
 20
-1063.832010632946
 30
0.0
 11
705.4053918284465
 21
-983.8320106329472
 31
0.0
  0
LINE
  5
174
330
1F
100
AcDbEntity
  8
0-0
  6
JWW_DASHED1
 62
   120
370
     5
100
AcDbLine
 10
625.405391828451
 20
-1053.932515697722
 30
0.0
 11
705.4053918284669
 21
-973.9325156977087
 31
0.0
  0
LINE
  5
175
330
1F
100
AcDbEntity
  8
0-0
  6
JWW_DASHED1
 62
   120
370
     5
100
AcDbLine
 10
625.4053918284544
 20
-1044.033020762557
 30
0.0
 11
705.4053918284533
 21
-964.0330207625593
 31
0.0
  0
LINE
  5
176
330
1F
100
AcDbEntity
  8
0-0
  6
JWW_DASHED1
 62
   120
370
     5
100
AcDbLine
 10
625.4053918284476
 20
-1034.133525827349
 30
0.0
 11
705.4053918284465
 21
-954.1335258273498
 31
0.0
  0
LINE
  5
177
330
1F
100
AcDbEntity
  8
0-0
  6
JWW_DASHED1
 62
   120
370
     5
100
AcDbLine
 10
625.405391828451
 20
-1024.234030892156
 30
0.0
 11
705.4053918284669
 21
-944.234030892141
 31
0.0
  0
LINE
  5
178
330
1F
100
AcDbEntity
  8
0-0
  6
JWW_DASHED1
 62
   120
370
     5
100
AcDbLine
 10
625.4053918284578
 20
-1014.334535956962
 30
0.0
 11
705.4053918284567
 21
-934.3345359569622
 31
0.0
  0
LINE
  5
179
330
1F
100
AcDbEntity
  8
0-0
  6
JWW_DASHED1
 62
   120
370
     5
100
AcDbLine
 10
625.405391828451
 20
-1004.435041021753
 30
0.0
 11
705.4053918284499
 21
-924.4350410217535
 31
0.0
  0
LINE
  5
17A
330
1F
100
AcDbEntity
  8
0-0
  6
JWW_DASHED1
 62
   120
370
     5
100
AcDbLine
 10
625.405391828451
 20
-994.5355460865885
 30
0.0
 11
705.4053918284669
 21
-914.5355460865738
 31
0.0
  0
LINE
  5
17B
330
1F
100
AcDbEntity
  8
0-0
  6
JWW_DASHED1
 62
   120
370
     5
100
AcDbLine
 10
625.4053918284578
 20
-984.6360511513649
 30
0.0
 11
705.4053918284601
 21
-904.636051151366
 31
0.0
  0
LINE
  5
17C
330
1F
100
AcDbEntity
  8
0-0
  6
JWW_DASHED1
 62
   120
370
     5
100
AcDbLine
 10
625.405391828451
 20
-974.7365562161563
 30
0.0
 11
705.4053918284499
 21
-894.7365562161565
 31
0.0
  0
LINE
  5
17D
330
1F
100
AcDbEntity
  8
0-0
  6
JWW_DASHED1
 62
   120
370
     5
100
AcDbLine
 10
625.4053918284544
 20
-964.8370612809914
 30
0.0
 11
705.4053918284669
 21
-884.8370612809772
 31
0.0
  0
LINE
  5
17E
330
1F
100
AcDbEntity
  8
0-0
  6
JWW_DASHED1
 62
   120
370
     5
100
AcDbLine
 10
625.4053918284612
 20
-954.9375663457674
 30
0.0
 11
705.4053918284601
 21
-874.937566345769
 31
0.0
  0
LINE
  5
17F
330
1F
100
AcDbEntity
  8
0-0
  6
JWW_DASHED1
 62
   120
370
     5
100
AcDbLine
 10
625.405391828451
 20
-945.03807141056
 30
0.0
 11
705.4053918284533
 21
-865.0380714105611
 31
0.0
  0
LINE
  5
180
330
1F
100
AcDbEntity
  8
0-0
  6
JWW_DASHED1
 62
   120
370
     5
100
AcDbLine
 10
625.4053918284578
 20
-935.1385764753952
 30
0.0
 11
705.4053918284703
 21
-855.1385764753802
 31
0.0
  0
LINE
  5
181
330
1F
100
AcDbEntity
  8
0-0
  6
JWW_DASHED1
 62
   120
370
     5
100
AcDbLine
 10
625.4053918284476
 20
-925.2390815401866
 30
0.0
 11
705.4053918284635
 21
-845.2390815401724
 31
0.0
  0
LINE
  5
182
330
1F
100
AcDbEntity
  8
0-0
  6
JWW_DASHED1
 62
   120
370
     5
100
AcDbLine
 10
625.4053918284578
 20
-915.339586604963
 30
0.0
 11
705.4053918284533
 21
-835.3395866049641
 31
0.0
  0
LINE
  5
183
330
1F
100
AcDbEntity
  8
0-0
  6
JWW_DASHED1
 62
   120
370
     5
100
AcDbLine
 10
625.4053918284442
 20
-905.4400916698127
 30
0.0
 11
705.405391828443
 21
-825.440091669813
 31
0.0
  0
LINE
  5
184
330
1F
100
AcDbEntity
  8
0-0
  6
JWW_DASHED1
 62
   120
370
     5
100
AcDbLine
 10
625.405391828451
 20
-895.5405967345899
 30
0.0
 11
705.4053918284669
 21
-815.5405967345757
 31
0.0
  0
LINE
  5
185
330
1F
100
AcDbEntity
  8
0-0
  6
JWW_DASHED1
 62
   120
370
     5
100
AcDbLine
 10
625.4053918284578
 20
-885.641101799366
 30
0.0
 11
705.4053918284567
 21
-805.6411017993684
 31
0.0
  0
LINE
  5
186
330
1F
100
AcDbEntity
  8
0-0
  6
JWW_DASHED1
 62
   120
370
     5
100
AcDbLine
 10
625.4053918284476
 20
-875.7416068642157
 30
0.0
 11
705.4053918284465
 21
-795.7416068642168
 31
0.0
  0
LINE
  5
187
330
1F
100
AcDbEntity
  8
0-0
  6
JWW_DASHED1
 62
   120
370
     5
100
AcDbLine
 10
625.405391828451
 20
-865.8421119289937
 30
0.0
 11
705.4053918284669
 21
-785.8421119289787
 31
0.0
  0
LINE
  5
188
330
1F
100
AcDbEntity
  8
0-0
  6
JWW_DASHED1
 62
   120
370
     5
100
AcDbLine
 10
625.4053918284612
 20
-855.9426169937697
 30
0.0
 11
705.4053918284601
 21
-775.9426169937713
 31
0.0
  0
LINE
  5
189
330
1F
100
AcDbEntity
  8
0-0
  6
JWW_DASHED1
 62
   120
370
     5
100
AcDbLine
 10
625.405391828451
 20
-846.0431220586186
 30
0.0
 11
705.4053918284465
 21
-766.0431220586197
 31
0.0
  0
LINE
  5
18A
330
1F
100
AcDbEntity
  8
0-0
  6
JWW_DASHED1
 62
   120
370
     5
100
AcDbLine
 10
625.4053918284544
 20
-836.1436271233971
 30
0.0
 11
705.4053918284703
 21
-756.1436271233824
 31
0.0
  0
LINE
  5
18B
330
1F
100
AcDbEntity
  8
0-0
  6
JWW_DASHED1
 62
   120
370
     5
100
AcDbLine
 10
625.4053918284476
 20
-826.2441321881888
 30
0.0
 11
705.4053918284601
 21
-746.2441321881743
 31
0.0
  0
LINE
  5
18C
330
1F
100
AcDbEntity
  8
0-0
  6
JWW_DASHED1
 62
   120
370
     5
100
AcDbLine
 10
625.405391828451
 20
-816.3446372530216
 30
0.0
 11
705.4053918284533
 21
-736.3446372530223
 31
0.0
  0
LINE
  5
18D
330
1F
100
AcDbEntity
  8
0-0
  6
JWW_DASHED1
 62
   120
370
     5
100
AcDbLine
 10
625.4053918284442
 20
-806.4451423178141
 30
0.0
 11
705.405391828443
 21
-726.4451423178149
 31
0.0
  0
LINE
  5
18E
330
1F
100
AcDbEntity
  8
0-0
  6
JWW_DASHED1
 62
   120
370
     5
100
AcDbLine
 10
625.405391828451
 20
-796.5456473825918
 30
0.0
 11
705.4053918284635
 21
-716.5456473825784
 31
0.0
  0
LINE
  5
18F
330
1F
100
AcDbEntity
  8
0-0
  6
JWW_DASHED1
 62
   120
370
     5
100
AcDbLine
 10
625.405391828451
 20
-786.6461524474275
 30
0.0
 11
705.4053918284533
 21
-706.6461524474278
 31
0.0
  0
LINE
  5
190
330
1F
100
AcDbEntity
  8
0-0
  6
JWW_DASHED1
 62
   120
370
     5
100
AcDbLine
 10
625.4053918284442
 20
-776.7466575122171
 30
0.0
 11
705.4053918284465
 21
-696.7466575122178
 31
0.0
  0
LINE
  5
191
330
1F
100
AcDbEntity
  8
0-0
  6
JWW_DASHED1
 62
   120
370
     5
100
AcDbLine
 10
625.405391828451
 20
-766.8471625769961
 30
0.0
 11
705.4053918284669
 21
-686.847162576981
 31
0.0
  0
LINE
  5
192
330
1F
100
AcDbEntity
  8
0-0
  6
JWW_DASHED1
 62
   120
370
     5
100
AcDbLine
 10
625.4053918284544
 20
-756.9476676418304
 30
0.0
 11
705.4053918284533
 21
-676.947667641832
 31
0.0
  0
LINE
  5
193
330
1F
100
AcDbEntity
  8
0-0
  6
JWW_DASHED1
 62
   120
370
     5
100
AcDbLine
 10
625.4053918284476
 20
-747.0481727066197
 30
0.0
 11
705.4053918284465
 21
-667.0481727066208
 31
0.0
  0
LINE
  5
194
330
1F
100
AcDbEntity
  8
0-0
  6
JWW_DASHED1
 62
   120
370
     5
100
AcDbLine
 10
625.405391828451
 20
-737.148677771399
 30
0.0
 11
705.4053918284669
 21
-657.148677771384
 31
0.0
  0
LINE
  5
195
330
1F
100
AcDbEntity
  8
0-0
  6
JWW_DASHED1
 62
   120
370
     5
100
AcDbLine
 10
625.4053918284578
 20
-727.2491828362342
 30
0.0
 11
705.4053918284533
 21
-647.2491828362349
 31
0.0
  0
LINE
  5
196
330
1F
100
AcDbEntity
  8
0-0
  6
JWW_DASHED1
 62
   120
370
     5
100
AcDbLine
 10
625.405391828451
 20
-717.3496879010235
 30
0.0
 11
705.4053918284499
 21
-637.3496879010237
 31
0.0
  0
LINE
  5
197
330
1F
100
AcDbEntity
  8
0-0
  6
JWW_DASHED1
 62
   120
370
     5
100
AcDbLine
 10
625.405391828451
 20
-707.4501929658612
 30
0.0
 11
705.4053918284669
 21
-627.450192965847
 31
0.0
  0
LINE
  5
198
330
1F
100
AcDbEntity
  8
0-0
  6
JWW_DASHED1
 62
   120
370
     5
100
AcDbLine
 10
625.4053918284578
 20
-697.5506980306372
 30
0.0
 11
705.4053918284601
 21
-617.5506980306379
 31
0.0
  0
LINE
  5
199
330
1F
100
AcDbEntity
  8
0-0
  6
JWW_DASHED1
 62
   120
370
     5
100
AcDbLine
 10
625.405391828451
 20
-687.6512030954264
 30
0.0
 11
705.4053918284533
 21
-607.6512030954267
 31
0.0
  0
LINE
  5
19A
330
1F
100
AcDbEntity
  8
0-0
  6
JWW_DASHED1
 62
   120
370
     5
100
AcDbLine
 10
625.405391828451
 20
-677.7517081602646
 30
0.0
 11
705.4053918284669
 21
-597.75170816025
 31
0.0
  0
LINE
  5
19B
330
1F
100
AcDbEntity
  8
0-0
  6
JWW_DASHED1
 62
   120
370
     5
100
AcDbLine
 10
625.4053918284612
 20
-667.8522132250406
 30
0.0
 11
705.4053918284601
 21
-587.8522132250421
 31
0.0
  0
LINE
  5
19C
330
1F
100
AcDbEntity
  8
0-0
  6
JWW_DASHED1
 62
   120
370
     5
100
AcDbLine
 10
625.405391828451
 20
-657.9527182898323
 30
0.0
 11
705.4053918284533
 21
-577.9527182898335
 31
0.0
  0
LINE
  5
19D
330
1F
100
AcDbEntity
  8
0-0
  6
JWW_DASHED1
 62
   120
370
     5
100
AcDbLine
 10
625.4053918284578
 20
-648.0532233546671
 30
0.0
 11
705.4053918284703
 21
-568.0532233546529
 31
0.0
  0
LINE
  5
19E
330
1F
100
AcDbEntity
  8
0-0
  6
JWW_DASHED1
 62
   120
370
     5
100
AcDbLine
 10
625.4053918284476
 20
-638.1537284194598
 30
0.0
 11
705.4053918284601
 21
-558.1537284194451
 31
0.0
  0
LINE
  5
19F
330
1F
100
AcDbEntity
  8
0-0
  6
JWW_DASHED1
 62
   120
370
     5
100
AcDbLine
 10
625.4053918284544
 20
-628.2542334842357
 30
0.0
 11
705.4053918284533
 21
-548.2542334842368
 31
0.0
  0
LINE
  5
1A0
330
1F
100
AcDbEntity
  8
0-0
  6
JWW_DASHED1
 62
   120
370
     5
100
AcDbLine
 10
625.4053918284442
 20
-618.3547385490838
 30
0.0
 11
705.4053918284465
 21
-538.354738549084
 31
0.0
  0
LINE
  5
1A1
330
1F
100
AcDbEntity
  8
0-0
  6
JWW_DASHED1
 62
   120
370
     5
100
AcDbLine
 10
625.405391828451
 20
-608.4552436138626
 30
0.0
 11
705.4053918284635
 21
-528.4552436138476
 31
0.0
  0
LINE
  5
1A2
330
1F
100
AcDbEntity
  8
0-0
  6
JWW_DASHED1
 62
   120
370
     5
100
AcDbLine
 10
625.4053918284578
 20
-598.5557486786395
 30
0.0
 11
705.4053918284567
 21
-518.5557486786402
 31
0.0
  0
LINE
  5
1A3
330
1F
100
AcDbEntity
  8
0-0
  6
JWW_DASHED1
 62
   120
370
     5
100
AcDbLine
 10
625.4053918284476
 20
-588.6562537434867
 30
0.0
 11
705.4053918284465
 21
-508.656253743487
 31
0.0
  0
LINE
  5
1A4
330
1F
100
AcDbEntity
  8
0-0
  6
JWW_DASHED1
 62
   120
370
     5
100
AcDbLine
 10
625.405391828451
 20
-578.7567588082657
 30
0.0
 11
705.4053918284669
 21
-498.756758808251
 31
0.0
  0
LINE
  5
1A5
330
1F
100
AcDbEntity
  8
0-0
  6
JWW_DASHED1
 62
   120
370
     5
100
AcDbLine
 10
625.4053918284578
 20
-568.8572638730425
 30
0.0
 11
705.4053918284601
 21
-488.8572638730432
 31
0.0
  0
LINE
  5
1A6
330
1F
100
AcDbEntity
  8
0-0
  6
JWW_DASHED1
 62
   120
370
     5
100
AcDbLine
 10
625.405391828451
 20
-558.9577689378896
 30
0.0
 11
705.4053918284499
 21
-478.9577689378908
 31
0.0
  0
LINE
  5
1A7
330
1F
100
AcDbEntity
  8
0-0
  6
JWW_DASHED1
 62
   120
370
     5
100
AcDbLine
 10
625.4053918284544
 20
-549.0582740026698
 30
0.0
 11
705.4053918284669
 21
-469.0582740026553
 31
0.0
  0
LINE
  5
1A8
330
1F
100
AcDbEntity
  8
0-0
  6
JWW_DASHED1
 62
   120
370
     5
100
AcDbLine
 10
625.4053918284442
 20
-539.1587790674616
 30
0.0
 11
705.4053918284601
 21
-459.158779067447
 31
0.0
  0
LINE
  5
1A9
330
1F
100
AcDbEntity
  8
0-0
  6
JWW_DASHED1
 62
   120
370
     5
100
AcDbLine
 10
625.405391828451
 20
-529.2592841322926
 30
0.0
 11
705.4053918284533
 21
-449.2592841322933
 31
0.0
  0
LINE
  5
1AA
330
1F
100
AcDbEntity
  8
0-0
  6
JWW_DASHED1
 62
   120
370
     5
100
AcDbLine
 10
625.4053918284442
 20
-519.3597891970848
 30
0.0
 11
705.405391828443
 21
-439.3597891970859
 31
0.0
  0
LINE
  5
1AB
330
1F
100
AcDbEntity
  8
0-0
  6
JWW_DASHED1
 62
   120
370
     5
100
AcDbLine
 10
625.4053918284476
 20
-509.460294261865
 30
0.0
 11
705.4053918284601
 21
-429.4602942618503
 31
0.0
  0
LINE
  5
1AC
330
1F
100
AcDbEntity
  8
0-0
  6
JWW_DASHED1
 62
   120
370
     5
100
AcDbLine
 10
625.405391828451
 20
-499.5607993267002
 30
0.0
 11
705.4053918284499
 21
-419.5607993267014
 31
0.0
  0
LINE
  5
1AD
330
1F
100
AcDbEntity
  8
0-0
  6
JWW_DASHED1
 62
   120
370
     5
100
AcDbLine
 10
625.4053918284476
 20
-489.6613043914877
 30
0.0
 11
705.4053918284465
 21
-409.661304391488
 31
0.0
  0
LINE
  5
1AE
330
1F
100
AcDbEntity
  8
0-0
  6
JWW_DASHED1
 62
   120
370
     5
100
AcDbLine
 10
625.405391828451
 20
-479.7618094562679
 30
0.0
 11
705.4053918284669
 21
-399.7618094562533
 31
0.0
  0
LINE
  5
1AF
330
1F
100
AcDbEntity
  8
0-0
  6
JWW_DASHED1
 62
   120
370
     5
100
AcDbLine
 10
625.405391828451
 20
-469.8623145211031
 30
0.0
 11
705.4053918284533
 21
-389.8623145211043
 31
0.0
  0
LINE
  5
1B0
330
1F
100
AcDbEntity
  8
0-0
  6
JWW_DASHED1
 62
   120
370
     5
100
AcDbLine
 10
625.405391828451
 20
-459.9628195858907
 30
0.0
 11
705.4053918284465
 21
-379.9628195858918
 31
0.0
  0
LINE
  5
1B1
330
1F
100
AcDbEntity
  8
0-0
  6
JWW_DASHED1
 62
   120
370
     5
100
AcDbLine
 10
625.405391828451
 20
-450.0633246506709
 30
0.0
 11
705.4053918284669
 21
-370.0633246506567
 31
0.0
  0
LINE
  5
1B2
330
1F
100
AcDbEntity
  8
0-0
  6
JWW_DASHED1
 62
   120
370
     5
100
AcDbLine
 10
625.4053918284578
 20
-440.1638297155062
 30
0.0
 11
705.4053918284533
 21
-360.1638297155077
 31
0.0
  0
LINE
  5
1B3
330
1F
100
AcDbEntity
  8
0-0
  6
JWW_DASHED1
 62
   120
370
     5
100
AcDbLine
 10
625.405391828451
 20
-430.2643347802936
 30
0.0
 11
705.4053918284499
 21
-350.2643347802947
 31
0.0
  0
LINE
  5
1B4
330
1F
100
AcDbEntity
  8
0-0
  6
JWW_DASHED1
 62
   120
370
     5
100
AcDbLine
 10
625.405391828451
 20
-420.3648398451041
 30
0.0
 11
705.4053918284669
 21
-340.3648398450895
 31
0.0
  0
LINE
  5
1B5
330
1F
100
AcDbEntity
  8
0-0
  6
JWW_DASHED1
 62
   120
370
     5
100
AcDbLine
 10
625.4053918284578
 20
-410.465344909909
 30
0.0
 11
705.4053918284567
 21
-330.4653449099115
 31
0.0
  0
LINE
  5
1B6
330
1F
100
AcDbEntity
  8
0-0
  6
JWW_DASHED1
 62
   120
370
     5
100
AcDbLine
 10
625.405391828451
 20
-400.5658499747012
 30
0.0
 11
705.4053918284465
 21
-320.5658499747028
 31
0.0
  0
LINE
  5
1B7
330
1F
100
AcDbEntity
  8
0-0
  6
JWW_DASHED1
 62
   120
370
     5
100
AcDbLine
 10
625.405391828451
 20
-390.6663550395365
 30
0.0
 11
705.4053918284669
 21
-310.6663550395218
 31
0.0
  0
LINE
  5
1B8
330
1F
100
AcDbEntity
  8
0-0
  6
JWW_DASHED1
 62
   120
370
     5
100
AcDbLine
 10
625.4053918284442
 20
-380.7668601043291
 30
0.0
 11
705.4053918284601
 21
-300.766860104314
 31
0.0
  0
LINE
  5
1B9
330
1F
100
AcDbEntity
  8
0-0
  6
JWW_DASHED1
 62
   120
370
     5
100
AcDbLine
 10
625.405391828451
 20
-370.867365169105
 30
0.0
 11
705.4053918284499
 21
-290.8673651691066
 31
0.0
  0
LINE
  5
1BA
330
1F
100
AcDbEntity
  8
0-0
  6
JWW_DASHED1
 62
   120
370
     5
100
AcDbLine
 10
625.4053918284544
 20
-360.9678702339403
 30
0.0
 11
705.4053918284533
 21
-280.967870233941
 31
0.0
  0
LINE
  5
1BB
330
1F
100
AcDbEntity
  8
0-0
  6
JWW_DASHED1
 62
   120
370
     5
100
AcDbLine
 10
625.4053918284442
 20
-351.068375298732
 30
0.0
 11
705.4053918284601
 21
-271.068375298717
 31
0.0
  0
LINE
  5
1BC
330
1F
100
AcDbEntity
  8
0-0
  6
JWW_DASHED1
 62
   120
370
     5
100
AcDbLine
 10
625.4053918284544
 20
-341.1688803635084
 30
0.0
 11
705.4053918284533
 21
-261.1688803635093
 31
0.0
  0
LINE
  5
1BD
330
1F
100
AcDbEntity
  8
0-0
  6
JWW_DASHED1
 62
   120
370
     5
100
AcDbLine
 10
625.4053918284442
 20
-331.2693854283548
 30
0.0
 11
705.4053918284465
 21
-251.2693854283542
 31
0.0
  0
LINE
  5
1BE
330
1F
100
AcDbEntity
  8
0-0
  6
JWW_DASHED1
 62
   120
370
     5
100
AcDbLine
 10
625.4053918284476
 20
-321.3698904931354
 30
0.0
 11
705.4053918284635
 21
-241.369890493121
 31
0.0
  0
LINE
  5
1BF
330
1F
100
AcDbEntity
  8
0-0
  6
JWW_DASHED1
 62
   120
370
     5
100
AcDbLine
 10
625.4053918284578
 20
-311.4703955579114
 30
0.0
 11
705.4053918284533
 21
-231.470395557913
 31
0.0
  0
LINE
  5
1C0
330
1F
100
AcDbEntity
  8
0-0
  6
JWW_DASHED1
 62
   120
370
     5
100
AcDbLine
 10
625.405391828451
 20
-301.5709006227569
 30
0.0
 11
705.4053918284465
 21
-221.570900622758
 31
0.0
  0
LINE
  5
1C1
330
1F
100
AcDbEntity
  8
0-0
  6
JWW_DASHED1
 62
   120
370
     5
100
AcDbLine
 10
625.405391828451
 20
-291.6714056875388
 30
0.0
 11
705.4053918284669
 21
-211.6714056875242
 31
0.0
  0
LINE
  5
1C2
330
1F
100
AcDbEntity
  8
0-0
  6
JWW_DASHED1
 62
   120
370
     5
100
AcDbLine
 10
625.4053918284578
 20
-281.7719107523147
 30
0.0
 11
705.4053918284567
 21
-201.7719107523159
 31
0.0
  0
LINE
  5
1C3
330
1F
100
AcDbEntity
  8
0-0
  6
JWW_DASHED1
 62
   120
370
     5
100
AcDbLine
 10
625.405391828451
 20
-271.8724158171607
 30
0.0
 11
705.4053918284499
 21
-191.8724158171609
 31
0.0
  0
LINE
  5
1C4
330
1F
100
AcDbEntity
  8
0-0
  6
JWW_DASHED1
 62
   120
370
     5
100
AcDbLine
 10
625.405391828451
 20
-261.9729208819417
 30
0.0
 11
705.4053918284669
 21
-181.9729208819271
 31
0.0
  0
LINE
  5
1C5
330
1F
100
AcDbEntity
  8
0-0
  6
JWW_DASHED1
 62
   120
370
     5
100
AcDbLine
 10
625.4053918284442
 20
-252.0734259467343
 30
0.0
 11
705.4053918284601
 21
-172.0734259467193
 31
0.0
  0
LINE
  5
1C6
330
1F
100
AcDbEntity
  8
0-0
  6
JWW_DASHED1
 62
   120
370
     5
100
AcDbLine
 10
625.405391828451
 20
-242.173931011563
 30
0.0
 11
705.4053918284533
 21
-162.1739310115643
 31
0.0
  0
LINE
  5
1C7
330
1F
100
AcDbEntity
  8
0-0
  6
JWW_DASHED1
 62
   120
370
     5
100
AcDbLine
 10
625.4053918284442
 20
-232.2744360763549
 30
0.0
 11
705.4053918284465
 21
-152.2744360763556
 31
0.0
  0
LINE
  5
1C8
330
1F
100
AcDbEntity
  8
0-0
  6
JWW_DASHED1
 62
   120
370
     5
100
AcDbLine
 10
625.4053918284476
 20
-222.3749411411373
 30
0.0
 11
705.4053918284601
 21
-142.3749411411231
 31
0.0
  0
LINE
  5
1C9
330
1F
100
AcDbEntity
  8
0-0
  6
JWW_DASHED1
 62
   120
370
     5
100
AcDbLine
 10
625.405391828451
 20
-212.4754462059725
 30
0.0
 11
705.4053918284499
 21
-132.4754462059732
 31
0.0
  0
LINE
  5
1CA
330
1F
100
AcDbEntity
  8
0-0
  6
JWW_DASHED1
 62
   120
370
     5
100
AcDbLine
 10
625.4053918284476
 20
-202.5759512707579
 30
0.0
 11
705.4053918284465
 21
-122.575951270759
 31
0.0
  0
LINE
  5
1CB
330
1F
100
AcDbEntity
  8
0-0
  6
JWW_DASHED1
 62
   120
370
     5
100
AcDbLine
 10
625.405391828451
 20
-192.6764563355407
 30
0.0
 11
705.4053918284635
 21
-112.676456335526
 31
0.0
  0
LINE
  5
1CC
330
1F
100
AcDbEntity
  8
0-0
  6
JWW_DASHED1
 62
   120
370
     5
100
AcDbLine
 10
625.405391828451
 20
-182.7769614003755
 30
0.0
 11
705.4053918284499
 21
-102.776961400377
 31
0.0
  0
LINE
  5
1CD
330
1F
100
AcDbEntity
  8
0-0
  6
JWW_DASHED1
 62
   120
370
     5
100
AcDbLine
 10
625.405391828451
 20
-172.8774664651617
 30
0.0
 11
705.4053918284499
 21
-92.87746646516155
 31
0.0
  0
LINE
  5
1CE
330
1F
100
AcDbEntity
  8
0-0
  6
JWW_DASHED1
 62
   120
370
     5
100
AcDbLine
 10
625.405391828451
 20
-162.9779715299441
 30
0.0
 11
705.4053918284669
 21
-82.97797152992942
 31
0.0
  0
LINE
  5
1CF
330
1F
100
AcDbEntity
  8
0-0
  6
JWW_DASHED1
 62
   120
370
     5
100
AcDbLine
 10
625.4053918284544
 20
-153.0784765947789
 30
0.0
 11
705.4053918284533
 21
-73.07847659478043
 31
0.0
  0
LINE
  5
1D0
330
1F
100
AcDbEntity
  8
0-0
  6
JWW_DASHED1
 62
   120
370
     5
100
AcDbLine
 10
625.405391828451
 20
-143.1789816595646
 30
0.0
 11
705.4053918284533
 21
-63.17898165956535
 31
0.0
  0
LINE
  5
1D1
330
1F
100
AcDbEntity
  8
0-0
  6
JWW_DASHED1
 62
   120
370
     5
100
AcDbLine
 10
625.405391828451
 20
-133.2794867244058
 30
0.0
 11
705.4053918284635
 21
-53.27948672439163
 31
0.0
  0
LINE
  5
1D2
330
1F
100
AcDbEntity
  8
0-0
  6
JWW_DASHED1
 62
   120
370
     5
100
AcDbLine
 10
625.4053918284578
 20
-123.3799917891822
 30
0.0
 11
705.4053918284533
 21
-43.37999178918338
 31
0.0
  0
LINE
  5
1D3
330
1F
100
AcDbEntity
  8
0-0
  6
JWW_DASHED1
 62
   120
370
     5
100
AcDbLine
 10
625.4053918284476
 20
-113.4804968539748
 30
0.0
 11
705.4053918284465
 21
-33.48049685397555
 31
0.0
  0
LINE
  5
1D4
330
1F
100
AcDbEntity
  8
0-0
  6
JWW_DASHED1
 62
   120
370
     5
100
AcDbLine
 10
625.405391828451
 20
-103.5810019188092
 30
0.0
 11
705.4053918284669
 21
-23.58100191879458
 31
0.0
  0
LINE
  5
1D5
330
1F
100
AcDbEntity
  8
0-0
  6
JWW_DASHED1
 62
   120
370
     5
100
AcDbLine
 10
625.4053918284442
 20
-93.6815069836014
 30
0.0
 11
705.4053918284567
 21
-13.68150698358676
 31
0.0
  0
LINE
  5
1D6
330
1F
100
AcDbEntity
  8
0-0
  6
JWW_DASHED1
 62
   120
370
     5
100
AcDbLine
 10
625.405391828451
 20
-83.7820120483778
 30
0.0
 11
705.4053918284499
 21
-3.782012048378078
 31
0.0
  0
LINE
  5
1D7
330
1F
100
AcDbEntity
  8
0-0
  6
JWW_DASHED1
 62
   120
370
     5
100
AcDbLine
 10
625.4053918284442
 20
-73.88251711322113
 30
0.0
 11
705.405391828443
 21
6.117482886777736
 31
0.0
  0
LINE
  5
1D8
330
1F
100
AcDbEntity
  8
0-0
  6
JWW_DASHED1
 62
   120
370
     5
100
AcDbLine
 10
625.4053918284442
 20
-63.9830221780052
 30
0.0
 11
705.4053918284601
 21
16.01697782200944
 31
0.0
  0
LINE
  5
1D9
330
1F
100
AcDbEntity
  8
0-0
  6
JWW_DASHED1
 62
   120
370
     5
100
AcDbLine
 10
625.405391828451
 20
-54.08352724278075
 30
0.0
 11
705.4053918284533
 21
25.91647275721854
 31
0.0
  0
LINE
  5
1DA
330
1F
100
AcDbEntity
  8
0-0
  6
JWW_DASHED1
 62
   120
370
     5
100
AcDbLine
 10
625.4053918284476
 20
-44.18403230762493
 30
0.0
 11
705.4053918284465
 21
35.81596769237478
 31
0.0
  0
LINE
  5
1DB
330
1F
100
AcDbEntity
  8
0-0
  6
JWW_DASHED1
 62
   120
370
     5
100
AcDbLine
 10
625.4053918284476
 20
-34.28453737240773
 30
0.0
 11
705.4053918284601
 21
45.71546262760648
 31
0.0
  0
LINE
  5
1DC
330
1F
100
AcDbEntity
  8
0-0
  6
JWW_DASHED1
 62
   120
370
     5
100
AcDbLine
 10
625.4053918284544
 20
-24.38504243718455
 30
0.0
 11
705.4053918284533
 21
55.61495756281431
 31
0.0
  0
LINE
  5
1DD
330
1F
100
AcDbEntity
  8
0-0
  6
JWW_DASHED1
 62
   120
370
     5
100
AcDbLine
 10
625.405391828451
 20
-14.48554750202788
 30
0.0
 11
705.4053918284499
 21
65.51445249797183
 31
0.0
  0
LINE
  5
1DE
330
1F
100
AcDbEntity
  8
0-0
  6
JWW_DASHED1
 62
   120
370
     5
100
AcDbLine
 10
625.405391828451
 20
-4.586052566811105
 30
0.0
 11
705.4053918284635
 21
75.41394743320353
 31
0.0
  0
LINE
  5
1DF
330
1F
100
AcDbEntity
  8
0-0
  6
JWW_DASHED1
 62
   120
370
     5
100
AcDbLine
 10
625.4053918284578
 20
5.313442368412495
 30
0.0
 11
705.4053918284567
 21
85.31344236841136
 31
0.0
  0
LINE
  5
1E0
330
1F
100
AcDbEntity
  8
0-0
  6
JWW_DASHED1
 62
   120
370
     5
100
AcDbLine
 10
625.405391828451
 20
15.21293730356916
 30
0.0
 11
705.4053918284533
 21
95.21293730356888
 31
0.0
  0
LINE
  5
1E1
330
1F
100
AcDbEntity
  8
0-0
  6
JWW_DASHED1
 62
   120
370
     5
100
AcDbLine
 10
625.405391828451
 20
25.11243223878552
 30
0.0
 11
705.4053918284669
 21
105.1124322387997
 31
0.0
  0
LINE
  5
1E2
330
1F
100
AcDbEntity
  8
0-0
  6
JWW_DASHED1
 62
   120
370
     5
100
AcDbLine
 10
625.4053918284442
 20
35.01192717399377
 30
0.0
 11
705.4053918284601
 21
115.011927174008
 31
0.0
  0
LINE
  5
1E3
330
1F
100
AcDbEntity
  8
0-0
  6
JWW_DASHED1
 62
   120
370
     5
100
AcDbLine
 10
625.4053918284544
 20
44.91142210916621
 30
0.0
 11
705.4053918284533
 21
124.9114221091655
 31
0.0
  0
LINE
  5
1E4
330
1F
100
AcDbEntity
  8
0-0
  6
JWW_DASHED1
 62
   120
370
     5
100
AcDbLine
 10
625.4053918284442
 20
54.81091704437446
 30
0.0
 11
705.4053918284465
 21
134.8109170443738
 31
0.0
  0
LINE
  5
1E5
330
1F
100
AcDbEntity
  8
0-0
  6
JWW_DASHED1
 62
   120
370
     5
100
AcDbLine
 10
625.4053918284578
 20
64.71041197954733
 30
0.0
 11
705.4053918284567
 21
144.7104119795458
 31
0.0
  0
LINE
  5
1E6
330
1F
100
AcDbEntity
  8
0-0
  6
JWW_DASHED1
 62
   120
370
     5
100
AcDbLine
 10
625.4053918284476
 20
74.60990691475516
 30
0.0
 11
705.4053918284465
 21
154.609906914754
 31
0.0
  0
LINE
  5
1E7
330
1F
100
AcDbEntity
  8
0-0
  6
JWW_DASHED1
 62
   120
370
     5
100
AcDbLine
 10
625.4053918284476
 20
84.50940184997108
 30
0.0
 11
705.4053918284465
 21
164.5094018499708
 31
0.0
  0
LINE
  5
1E8
330
1F
100
AcDbEntity
  8
0-0
  6
JWW_DASHED1
 62
   120
370
     5
100
AcDbLine
 10
625.4053918284442
 20
94.40889678512818
 30
0.0
 11
705.4053918284601
 21
174.4088967851428
 31
0.0
  0
LINE
  5
1E9
330
1F
100
AcDbEntity
  8
0-0
  6
JWW_DASHED1
 62
   120
370
     5
100
AcDbLine
 10
625.405391828451
 20
104.3083917203514
 30
0.0
 11
705.4053918284499
 21
184.3083917203506
 31
0.0
  0
LINE
  5
1EA
330
1F
100
AcDbEntity
  8
0-0
  6
JWW_DASHED1
 62
   120
370
     5
100
AcDbLine
 10
625.405391828451
 20
114.2078866555677
 30
0.0
 11
705.4053918284499
 21
194.2078866555678
 31
0.0
  0
LINE
  5
1EB
330
1F
100
AcDbEntity
  8
0-0
  6
JWW_DASHED1
 62
   120
370
     5
100
AcDbLine
 10
625.4053918284442
 20
124.1073815907252
 30
0.0
 11
705.4053918284601
 21
204.1073815907399
 31
0.0
  0
LINE
  5
1EC
330
1F
100
AcDbEntity
  8
0-0
  6
JWW_DASHED1
 62
   120
370
     5
100
AcDbLine
 10
625.405391828451
 20
134.0068765259484
 30
0.0
 11
705.4053918284533
 21
214.0068765259477
 31
0.0
  0
LINE
  5
1ED
330
1F
100
AcDbEntity
  8
0-0
  6
JWW_DASHED1
 62
   120
370
     5
100
AcDbLine
 10
625.405391828451
 20
143.9063714611648
 30
0.0
 11
705.4053918284533
 21
223.9063714611645
 31
0.0
  0
LINE
  5
1EE
330
1F
100
AcDbEntity
  8
0-0
  6
JWW_DASHED1
 62
   120
370
     5
100
AcDbLine
 10
625.4053918284476
 20
153.805866396321
 30
0.0
 11
705.4053918284601
 21
233.8058663963356
 31
0.0
  0
LINE
  5
1EF
330
1F
100
AcDbEntity
  8
0-0
  6
JWW_DASHED1
 62
   120
370
     5
100
AcDbLine
 10
625.4053918284578
 20
163.7053613315454
 30
0.0
 11
705.4053918284533
 21
243.7053613315439
 31
0.0
  0
LINE
  5
1F0
330
1F
100
AcDbEntity
  8
0-0
  6
JWW_DASHED1
 62
   120
370
     5
100
AcDbLine
 10
625.4053918284476
 20
173.6048562667537
 30
0.0
 11
705.4053918284465
 21
253.6048562667521
 31
0.0
  0
LINE
  5
1F1
330
1F
100
AcDbEntity
  8
0-0
  6
JWW_DASHED1
 62
   120
370
     5
100
AcDbLine
 10
625.405391828451
 20
183.504351201918
 30
0.0
 11
705.4053918284669
 21
263.5043512019326
 31
0.0
  0
LINE
  5
1F2
330
1F
100
AcDbEntity
  8
0-0
  6
JWW_DASHED1
 62
   120
370
     5
100
AcDbLine
 10
625.4053918284408
 20
193.4038461371259
 30
0.0
 11
705.4053918284567
 21
273.4038461371409
 31
0.0
  0
LINE
  5
1F3
330
1F
100
AcDbEntity
  8
0-0
  6
JWW_DASHED1
 62
   120
370
     5
100
AcDbLine
 10
625.405391828451
 20
203.3033410723499
 30
0.0
 11
705.4053918284465
 21
283.3033410723488
 31
0.0
  0
LINE
  5
1F4
330
1F
100
AcDbEntity
  8
0-0
  6
JWW_DASHED1
 62
   120
370
     5
100
AcDbLine
 10
625.4053918284442
 20
213.2028360075078
 30
0.0
 11
705.4053918284465
 21
293.2028360075076
 31
0.0
  0
LINE
  5
1F5
330
1F
100
AcDbEntity
  8
0-0
  6
JWW_DASHED1
 62
   120
370
     5
100
AcDbLine
 10
625.4053918284442
 20
223.1023309427229
 30
0.0
 11
705.4053918284601
 21
303.1023309427376
 31
0.0
  0
LINE
  5
1F6
330
1F
100
AcDbEntity
  8
0-0
  6
JWW_DASHED1
 62
   120
370
     5
100
AcDbLine
 10
625.405391828451
 20
233.0018258779461
 30
0.0
 11
705.4053918284499
 21
313.0018258779454
 31
0.0
  0
LINE
  5
1F7
330
1F
100
AcDbEntity
  8
0-0
  6
JWW_DASHED1
 62
   120
370
     5
100
AcDbLine
 10
625.4053918284476
 20
242.9013208131049
 30
0.0
 11
705.4053918284465
 21
322.9013208131038
 31
0.0
  0
LINE
  5
1F8
330
1F
100
AcDbEntity
  8
0-0
  6
JWW_DASHED1
 62
   120
370
     5
100
AcDbLine
 10
625.4053918284476
 20
252.80081574832
 30
0.0
 11
705.4053918284601
 21
332.8008157483338
 31
0.0
  0
LINE
  5
1F9
330
1F
100
AcDbEntity
  8
0-0
  6
JWW_DASHED1
 62
   120
370
     5
100
AcDbLine
 10
625.405391828451
 20
262.7003106834848
 30
0.0
 11
705.4053918284465
 21
342.7003106834832
 31
0.0
  0
LINE
  5
1FA
330
1F
100
AcDbEntity
  8
0-0
  6
JWW_DASHED1
 62
   120
370
     5
100
AcDbLine
 10
625.405391828451
 20
272.5998056187019
 30
0.0
 11
705.4053918284499
 21
352.5998056187012
 31
0.0
  0
LINE
  5
1FB
330
1F
100
AcDbEntity
  8
0-0
  6
JWW_DASHED1
 62
   120
370
     5
100
AcDbLine
 10
625.4053918284476
 20
282.4993005539162
 30
0.0
 11
705.4053918284635
 21
362.4993005539304
 31
0.0
  0
LINE
  5
1FC
330
1F
100
AcDbEntity
  8
0-0
  6
JWW_DASHED1
 62
   120
370
     5
100
AcDbLine
 10
625.405391828451
 20
292.3987954890817
 30
0.0
 11
705.4053918284499
 21
372.3987954890802
 31
0.0
  0
LINE
  5
1FD
330
1F
100
AcDbEntity
  8
0-0
  6
JWW_DASHED1
 62
   120
370
     5
100
AcDbLine
 10
625.405391828451
 20
302.298290424299
 30
0.0
 11
705.4053918284533
 21
382.2982904242979
 31
0.0
  0
LINE
  5
1FE
330
1F
100
AcDbEntity
  8
0-0
  6
JWW_DASHED1
 62
   120
370
     5
100
AcDbLine
 10
625.405391828451
 20
312.1977853595127
 30
0.0
 11
705.4053918284499
 21
392.1977853595121
 31
0.0
  0
LINE
  5
1FF
330
1F
100
AcDbEntity
  8
0-0
  6
JWW_DASHED1
 62
   120
370
     5
100
AcDbLine
 10
625.4053918284544
 20
322.0972802946775
 30
0.0
 11
705.4053918284533
 21
402.0972802946764
 31
0.0
  0
LINE
  5
200
330
1F
100
AcDbEntity
  8
0-0
  6
JWW_DASHED1
 62
   120
370
     5
100
AcDbLine
 10
625.4053918284442
 20
331.9967752298858
 30
0.0
 11
705.405391828443
 21
411.9967752298842
 31
0.0
  0
LINE
  5
201
330
1F
100
AcDbEntity
  8
0-0
  6
JWW_DASHED1
 62
   120
370
     5
100
AcDbLine
 10
625.4053918284476
 20
341.8962701651043
 30
0.0
 11
705.4053918284465
 21
421.8962701651027
 31
0.0
  0
LINE
  5
202
330
1F
100
AcDbEntity
  8
0-0
  6
JWW_DASHED1
 62
   120
370
     5
100
AcDbLine
 10
625.4053918284408
 20
351.7957651002592
 30
0.0
 11
705.4053918284533
 21
431.7957651002735
 31
0.0
  0
LINE
  5
203
330
1F
100
AcDbEntity
  8
0-0
  6
JWW_DASHED1
 62
   120
370
     5
100
AcDbLine
 10
625.4053918284476
 20
361.6952600354824
 30
0.0
 11
705.4053918284465
 21
441.6952600354813
 31
0.0
  0
LINE
  5
204
330
1F
100
AcDbEntity
  8
0-0
  6
JWW_DASHED1
 62
   120
370
     5
100
AcDbLine
 10
625.405391828451
 20
371.5947549707009
 30
0.0
 11
705.4053918284465
 21
451.5947549706998
 31
0.0
  0
LINE
  5
205
330
1F
100
AcDbEntity
  8
0-0
  6
JWW_DASHED1
 62
   120
370
     5
100
AcDbLine
 10
625.4053918284442
 20
381.4942499058559
 30
0.0
 11
705.4053918284567
 21
461.4942499058701
 31
0.0
  0
LINE
  5
206
330
1F
100
AcDbEntity
  8
0-0
  6
JWW_DASHED1
 62
   120
370
     5
100
AcDbLine
 10
625.405391828451
 20
391.3937448410795
 30
0.0
 11
705.4053918284465
 21
471.3937448410779
 31
0.0
  0
LINE
  5
207
330
1F
100
AcDbEntity
  8
0-0
  6
JWW_DASHED1
 62
   120
370
     5
100
AcDbLine
 10
625.405391828451
 20
401.2932397762979
 30
0.0
 11
705.4053918284533
 21
481.2932397762968
 31
0.0
  0
LINE
  5
208
330
1F
100
AcDbEntity
  8
0-0
  6
JWW_DASHED1
 62
   120
370
     5
100
AcDbLine
 10
625.4053918284442
 20
411.1927347114516
 30
0.0
 11
705.4053918284601
 21
491.1927347114667
 31
0.0
  0
LINE
  5
209
330
1F
100
AcDbEntity
  8
0-0
  6
JWW_DASHED1
 62
   120
370
     5
100
AcDbLine
 10
625.405391828451
 20
421.0922296466765
 30
0.0
 11
705.4053918284533
 21
501.0922296466749
 31
0.0
  0
LINE
  5
20A
330
1F
100
AcDbEntity
  8
0-0
  6
JWW_DASHED1
 62
   120
370
     5
100
AcDbLine
 10
625.4053918284544
 20
430.9917245818946
 30
0.0
 11
705.4053918284533
 21
510.9917245818939
 31
0.0
  0
LINE
  5
20B
330
1F
100
AcDbEntity
  8
0-0
  6
JWW_DASHED1
 62
   120
370
     5
100
AcDbLine
 10
625.4053918284476
 20
440.8912195170487
 30
0.0
 11
705.4053918284601
 21
520.8912195170637
 31
0.0
  0
LINE
  5
20C
330
1F
100
AcDbEntity
  8
0-0
  6
JWW_DASHED1
 62
   120
370
     5
100
AcDbLine
 10
625.4053918284544
 20
450.7907144522727
 30
0.0
 11
705.4053918284533
 21
530.7907144522711
 31
0.0
  0
LINE
  5
20D
330
1F
100
AcDbEntity
  8
0-0
  6
JWW_DASHED1
 62
   120
370
     5
100
AcDbLine
 10
625.405391828451
 20
460.6902093874323
 30
0.0
 11
705.4053918284533
 21
540.6902093874317
 31
0.0
  0
LINE
  5
20E
330
1F
100
AcDbEntity
  8
0-0
  6
JWW_DASHED1
 62
   120
370
     5
100
AcDbLine
 10
625.405391828451
 20
470.5897043226457
 30
0.0
 11
705.4053918284635
 21
550.5897043226599
 31
0.0
  0
LINE
  5
20F
330
1F
100
AcDbEntity
  8
0-0
  6
JWW_DASHED1
 62
   120
370
     5
100
AcDbLine
 10
625.4053918284408
 20
480.4891992578536
 30
0.0
 11
705.4053918284533
 21
560.4891992578682
 31
0.0
  0
LINE
  5
210
330
1F
100
AcDbEntity
  8
0-0
  6
JWW_DASHED1
 62
   120
370
     5
100
AcDbLine
 10
625.4053918284544
 20
490.3886941930294
 30
0.0
 11
705.4053918284533
 21
570.3886941930283
 31
0.0
  0
LINE
  5
211
330
1F
100
AcDbEntity
  8
0-0
  6
JWW_DASHED1
 62
   120
370
     5
100
AcDbLine
 10
625.4053918284442
 20
500.2881891282368
 30
0.0
 11
705.4053918284465
 21
580.2881891282374
 31
0.0
  0
LINE
  5
212
330
1F
100
AcDbEntity
  8
0-0
  6
JWW_DASHED1
 62
   120
370
     5
100
AcDbLine
 10
625.4053918284442
 20
510.1876840634502
 30
0.0
 11
705.4053918284567
 21
590.1876840634648
 31
0.0
  0
LINE
  5
213
330
1F
100
AcDbEntity
  8
0-0
  6
JWW_DASHED1
 62
   120
370
     5
100
AcDbLine
 10
625.4053918284442
 20
520.0871789986154
 30
0.0
 11
705.4053918284465
 21
600.0871789986138
 31
0.0
  0
LINE
  5
214
330
1F
100
AcDbEntity
  8
0-0
  6
JWW_DASHED1
 62
   120
370
     5
100
AcDbLine
 10
625.4053918284476
 20
529.9866739338338
 30
0.0
 11
705.4053918284465
 21
609.9866739338336
 31
0.0
  0
LINE
  5
215
330
1F
100
AcDbEntity
  8
0-0
  6
JWW_DASHED1
 62
   120
370
     5
100
AcDbLine
 10
625.4053918284442
 20
539.8861688690472
 30
0.0
 11
705.4053918284601
 21
619.8861688690614
 31
0.0
  0
LINE
  5
216
330
1F
100
AcDbEntity
  8
0-0
  6
JWW_DASHED1
 62
   120
370
     5
100
AcDbLine
 10
625.4053918284476
 20
549.7856638042119
 30
0.0
 11
705.4053918284465
 21
629.7856638042105
 31
0.0
  0
LINE
  5
217
330
1F
100
AcDbEntity
  8
0-0
  6
JWW_DASHED1
 62
   120
370
     5
100
AcDbLine
 10
625.405391828451
 20
559.6851587394309
 30
0.0
 11
705.4053918284499
 21
639.6851587394302
 31
0.0
  0
LINE
  5
218
330
1F
100
AcDbEntity
  8
0-0
  6
JWW_DASHED1
 62
   120
370
     5
100
AcDbLine
 10
625.4053918284476
 20
569.5846536746438
 30
0.0
 11
705.4053918284601
 21
649.5846536746585
 31
0.0
  0
LINE
  5
219
330
1F
100
AcDbEntity
  8
0-0
  6
JWW_DASHED1
 62
   120
370
     5
100
AcDbLine
 10
625.405391828451
 20
579.4841486098082
 30
0.0
 11
705.4053918284499
 21
659.4841486098074
 31
0.0
  0
LINE
  5
21A
330
1F
100
AcDbEntity
  8
0-0
  6
JWW_DASHED1
 62
   120
370
     5
100
AcDbLine
 10
625.4053918284544
 20
589.383643545028
 30
0.0
 11
705.4053918284533
 21
669.3836435450277
 31
0.0
  0
LINE
  5
21B
330
1F
100
AcDbEntity
  8
0-0
  6
JWW_DASHED1
 62
   120
370
     5
100
AcDbLine
 10
625.405391828451
 20
599.28313848024
 30
0.0
 11
705.4053918284465
 21
679.2831384802389
 31
0.0
  0
LINE
  5
21C
330
1F
100
AcDbEntity
  8
0-0
  6
JWW_DASHED1
 62
   120
370
     5
100
AcDbLine
 10
625.405391828451
 20
609.1826334154048
 30
0.0
 11
705.4053918284533
 21
689.1826334154036
 31
0.0
  0
LINE
  5
21D
330
1F
100
AcDbEntity
  8
0-0
  6
JWW_DASHED1
 62
   120
370
     5
100
AcDbLine
 10
625.4053918284442
 20
619.0821283506131
 30
0.0
 11
705.405391828443
 21
699.0821283506124
 31
0.0
  0
LINE
  5
21E
330
1F
100
AcDbEntity
  8
0-0
  6
JWW_DASHED1
 62
   120
370
     5
100
AcDbLine
 10
625.4053918284476
 20
628.9816232858328
 30
0.0
 11
705.4053918284465
 21
708.9816232858321
 31
0.0
  0
LINE
  5
21F
330
1F
100
AcDbEntity
  8
0-0
  6
JWW_DASHED1
 62
   120
370
     5
100
AcDbLine
 10
625.4053918284374
 20
638.8811182209861
 30
0.0
 11
705.4053918284533
 21
718.8811182210007
 31
0.0
  0
LINE
  5
220
330
1F
100
AcDbEntity
  8
0-0
  6
JWW_DASHED1
 62
   120
370
     5
100
AcDbLine
 10
625.4053918284476
 20
648.7806131562102
 30
0.0
 11
705.4053918284465
 21
728.7806131562086
 31
0.0
  0
LINE
  5
221
330
1F
100
AcDbEntity
  8
0-0
  6
JWW_DASHED1
 62
   120
370
     5
100
AcDbLine
 10
625.4053918284476
 20
658.6801080914008
 30
0.0
 11
705.4053918284465
 21
738.6801080913997
 31
0.0
  0
LINE
  5
222
330
1F
100
AcDbEntity
  8
0-0
  6
JWW_DASHED1
 62
   120
370
     5
100
AcDbLine
 10
625.4053918284408
 20
668.5796030265827
 30
0.0
 11
705.4053918284567
 21
748.5796030265974
 31
0.0
  0
LINE
  5
223
330
1F
100
AcDbEntity
  8
0-0
  6
JWW_DASHED1
 62
   120
370
     5
100
AcDbLine
 10
625.4053918284476
 20
678.4790979618059
 30
0.0
 11
705.4053918284465
 21
758.4790979618056
 31
0.0
  0
LINE
  5
224
330
1F
100
AcDbEntity
  8
0-0
  6
JWW_DASHED1
 62
   120
370
     5
100
AcDbLine
 10
625.4053918284476
 20
688.3785928969677
 30
0.0
 11
705.4053918284465
 21
768.3785928969673
 31
0.0
  0
LINE
  5
225
330
1F
100
AcDbEntity
  8
0-0
  6
JWW_DASHED1
 62
   120
370
     5
100
AcDbLine
 10
625.4053918284442
 20
698.2780878321797
 30
0.0
 11
705.4053918284601
 21
778.2780878321939
 31
0.0
  0
LINE
  5
226
330
1F
100
AcDbEntity
  8
0-0
  6
JWW_DASHED1
 62
   120
370
     5
100
AcDbLine
 10
625.405391828451
 20
708.1775827674029
 30
0.0
 11
705.4053918284499
 21
788.1775827674022
 31
0.0
  0
LINE
  5
227
330
1F
100
AcDbEntity
  8
0-0
  6
JWW_DASHED1
 62
   120
370
     5
100
AcDbLine
 10
625.405391828451
 20
718.0770777025647
 30
0.0
 11
705.4053918284499
 21
798.077077702564
 31
0.0
  0
LINE
  5
228
330
1F
100
AcDbEntity
  8
0-0
  6
JWW_DASHED1
 62
   120
370
     5
100
AcDbLine
 10
625.4053918284442
 20
727.9765726377764
 30
0.0
 11
705.4053918284601
 21
807.976572637791
 31
0.0
  0
LINE
  5
229
330
1F
100
AcDbEntity
  8
0-0
  6
JWW_DASHED1
 62
   120
370
     5
100
AcDbLine
 10
625.4053918284544
 20
737.8760675730005
 30
0.0
 11
705.4053918284533
 21
817.8760675729989
 31
0.0
  0
LINE
  5
22A
330
1F
100
AcDbEntity
  8
0-0
  6
JWW_DASHED1
 62
   120
370
     5
100
AcDbLine
 10
625.405391828451
 20
747.7755625081618
 30
0.0
 11
705.4053918284533
 21
827.7755625081611
 31
0.0
  0
LINE
  5
22B
330
1F
100
AcDbEntity
  8
0-0
  6
JWW_DASHED1
 62
   120
370
     5
100
AcDbLine
 10
625.4053918284476
 20
757.675057443373
 30
0.0
 11
705.4053918284635
 21
837.6750574433877
 31
0.0
  0
LINE
  5
22C
330
1F
100
AcDbEntity
  8
0-0
  6
JWW_DASHED1
 62
   120
370
     5
100
AcDbLine
 10
625.4053918284374
 20
767.5745523785808
 30
0.0
 11
705.4053918284533
 21
847.5745523785959
 31
0.0
  0
LINE
  5
22D
330
1F
100
AcDbEntity
  8
0-0
  6
JWW_DASHED1
 62
   120
370
     5
100
AcDbLine
 10
625.4053918284578
 20
777.4740473137588
 30
0.0
 11
705.4053918284533
 21
857.4740473137581
 31
0.0
  0
LINE
  5
22E
330
1F
100
AcDbEntity
  8
0-0
  6
JWW_DASHED1
 62
   120
370
     5
100
AcDbLine
 10
625.4053918284476
 20
787.373542248967
 30
0.0
 11
705.4053918284465
 21
867.3735422489664
 31
0.0
  0
LINE
  5
22F
330
1F
100
AcDbEntity
  8
0-0
  6
JWW_DASHED1
 62
   120
370
     5
100
AcDbLine
 10
625.4053918284442
 20
797.2730371841778
 30
0.0
 11
705.4053918284567
 21
877.2730371841925
 31
0.0
  0
LINE
  5
230
330
1F
100
AcDbEntity
  8
0-0
  6
JWW_DASHED1
 62
   120
370
     5
100
AcDbLine
 10
625.4053918284442
 20
807.1725321193426
 30
0.0
 11
705.405391828443
 21
887.1725321193411
 31
0.0
  0
LINE
  5
231
330
1F
100
AcDbEntity
  8
0-0
  6
JWW_DASHED1
 62
   120
370
     5
100
AcDbLine
 10
625.405391828451
 20
817.0720270545633
 30
0.0
 11
705.4053918284499
 21
897.072027054563
 31
0.0
  0
LINE
  5
232
330
1F
100
AcDbEntity
  8
0-0
  6
JWW_DASHED1
 62
   120
370
     5
100
AcDbLine
 10
625.4053918284442
 20
826.9715219897745
 30
0.0
 11
705.4053918284601
 21
906.9715219897887
 31
0.0
  0
LINE
  5
233
330
1F
100
AcDbEntity
  8
0-0
  6
JWW_DASHED1
 62
   120
370
     5
100
AcDbLine
 10
625.4053918284476
 20
836.8710169249392
 30
0.0
 11
705.4053918284465
 21
916.8710169249381
 31
0.0
  0
LINE
  5
234
330
1F
100
AcDbEntity
  8
0-0
  6
JWW_DASHED1
 62
   120
370
     5
100
AcDbLine
 10
625.405391828451
 20
846.7705118601607
 30
0.0
 11
705.4053918284533
 21
926.77051186016
 31
0.0
  0
LINE
  5
235
330
1F
100
AcDbEntity
  8
0-0
  6
JWW_DASHED1
 62
   120
370
     5
100
AcDbLine
 10
625.4053918284442
 20
856.6700067953412
 30
0.0
 11
705.4053918284601
 21
936.6700067953564
 31
0.0
  0
LINE
  5
236
330
1F
100
AcDbEntity
  8
0-0
  6
JWW_DASHED1
 62
   120
370
     5
100
AcDbLine
 10
625.405391828451
 20
866.5695017305359
 30
0.0
 11
705.4053918284465
 21
946.5695017305347
 31
0.0
  0
LINE
  5
237
330
1F
100
AcDbEntity
  8
0-0
  6
JWW_DASHED1
 62
   120
370
     5
100
AcDbLine
 10
625.4053918284544
 20
876.4689966657573
 30
0.0
 11
705.4053918284533
 21
956.468996665757
 31
0.0
  0
LINE
  5
238
330
1F
100
AcDbEntity
  8
0-0
  6
JWW_DASHED1
 62
   120
370
     5
100
AcDbLine
 10
625.4053918284442
 20
886.3684916009089
 30
0.0
 11
705.4053918284601
 21
966.3684916009236
 31
0.0
  0
LINE
  5
239
330
1F
100
AcDbEntity
  8
0-0
  6
JWW_DASHED1
 62
   120
370
     5
100
AcDbLine
 10
625.405391828451
 20
896.2679865361329
 30
0.0
 11
705.4053918284499
 21
976.2679865361317
 31
0.0
  0
LINE
  5
23A
330
1F
100
AcDbEntity
  8
0-0
  6
JWW_DASHED1
 62
   120
370
     5
100
AcDbLine
 10
625.4053918284442
 20
906.1674814713408
 30
0.0
 11
705.405391828443
 21
986.1674814713397
 31
0.0
  0
LINE
  5
23B
330
1F
100
AcDbEntity
  8
0-0
  6
JWW_DASHED1
 62
   120
370
     5
100
AcDbLine
 10
625.4053918284476
 20
916.066976406506
 30
0.0
 11
705.4053918284601
 21
996.0669764065201
 31
0.0
  0
LINE
  5
23C
330
1F
100
AcDbEntity
  8
0-0
  6
JWW_DASHED1
 62
   120
370
     5
100
AcDbLine
 10
625.4053918284374
 20
925.9664713417134
 30
0.0
 11
705.4053918284533
 21
1005.966471341728
 31
0.0
  0
LINE
  5
23D
330
1F
100
AcDbEntity
  8
0-0
  6
JWW_DASHED1
 62
   120
370
     5
100
AcDbLine
 10
625.4053918284442
 20
935.8659662769373
 30
0.0
 11
705.4053918284465
 21
1015.865966276936
 31
0.0
  0
LINE
  5
23E
330
1F
100
AcDbEntity
  8
0-0
  6
JWW_DASHED1
 62
   120
370
     5
100
AcDbLine
 10
625.4053918284476
 20
945.7654612121005
 30
0.0
 11
705.4053918284465
 21
1025.7654612121
 31
0.0
  0
LINE
  5
23F
330
1F
100
AcDbEntity
  8
0-0
  6
JWW_DASHED1
 62
   120
370
     5
100
AcDbLine
 10
625.4053918284408
 20
955.6649561473104
 30
0.0
 11
705.4053918284533
 21
1035.664956147325
 31
0.0
  0
LINE
  5
240
330
1F
100
AcDbEntity
  8
0-0
  6
JWW_DASHED1
 62
   120
370
     5
100
AcDbLine
 10
625.4053918284476
 20
965.564451082534
 30
0.0
 11
705.4053918284465
 21
1045.564451082533
 31
0.0
  0
LINE
  5
241
330
1F
100
AcDbEntity
  8
0-0
  6
JWW_DASHED1
 62
   120
370
     5
100
AcDbLine
 10
625.405391828451
 20
975.4639460176975
 30
0.0
 11
705.4053918284465
 21
1055.463946017697
 31
0.0
  0
LINE
  5
242
330
1F
100
AcDbEntity
  8
0-0
  6
JWW_DASHED1
 62
   120
370
     5
100
AcDbLine
 10
625.4053918284442
 20
985.363440952907
 30
0.0
 11
705.4053918284567
 21
1065.363440952922
 31
0.0
  0
LINE
  5
243
330
1F
100
AcDbEntity
  8
0-0
  6
JWW_DASHED1
 62
   120
370
     5
100
AcDbLine
 10
625.405391828451
 20
995.2629358881311
 30
0.0
 11
705.4053918284465
 21
1075.26293588813
 31
0.0
  0
LINE
  5
244
330
1F
100
AcDbEntity
  8
0-0
  6
JWW_DASHED1
 62
   120
370
     5
100
AcDbLine
 10
625.405391828451
 20
1005.162430823294
 30
0.0
 11
705.4053918284533
 21
1085.162430823294
 31
0.0
  0
LINE
  5
245
330
1F
100
AcDbEntity
  8
0-0
  6
JWW_DASHED1
 62
   120
370
     5
100
AcDbLine
 10
625.4053918284442
 20
1015.061925758504
 30
0.0
 11
705.4053918284601
 21
1095.061925758518
 31
0.0
  0
LINE
  5
246
330
1F
100
AcDbEntity
  8
0-0
  6
JWW_DASHED1
 62
   120
370
     5
100
AcDbLine
 10
625.405391828451
 20
1024.961420693728
 30
0.0
 11
705.4053918284533
 21
1104.961420693726
 31
0.0
  0
LINE
  5
247
330
1F
100
AcDbEntity
  8
0-0
  6
JWW_DASHED1
 62
   120
370
     5
100
AcDbLine
 10
625.4053918284544
 20
1034.860915628891
 30
0.0
 11
705.4053918284533
 21
1114.860915628891
 31
0.0
  0
LINE
  5
248
330
1F
100
AcDbEntity
  8
0-0
  6
JWW_DASHED1
 62
   120
370
     5
100
AcDbLine
 10
625.4053918284476
 20
1044.7604105641
 30
0.0
 11
705.4053918284465
 21
1124.760410564099
 31
0.0
  0
LINE
  5
249
330
1F
100
AcDbEntity
  8
0-0
  6
JWW_DASHED1
 62
   120
370
     5
100
AcDbLine
 10
625.405391828451
 20
1054.659905499295
 30
0.0
 11
705.4053918284499
 21
1134.659905499293
 31
0.0
  0
LINE
  5
24A
330
1F
100
AcDbEntity
  8
0-0
  6
JWW_DASHED1
 62
   120
370
     5
100
AcDbLine
 10
625.4053918284408
 20
1064.559400434473
 30
0.0
 11
705.4053918284396
 21
1144.559400434472
 31
0.0
  0
LINE
  5
24B
330
1F
100
AcDbEntity
  8
0-0
  6
JWW_DASHED1
 62
   120
370
     5
100
AcDbLine
 10
625.4053918284476
 20
1074.458895369696
 30
0.0
 11
705.4053918284465
 21
1154.458895369695
 31
0.0
  0
LINE
  5
24C
330
1F
100
AcDbEntity
  8
0-0
  6
JWW_DASHED1
 62
   120
370
     5
100
AcDbLine
 10
625.4053918284374
 20
1084.358390304846
 30
0.0
 11
705.4053918284533
 21
1164.358390304861
 31
0.0
  0
LINE
  5
24D
330
1F
100
AcDbEntity
  8
0-0
  6
JWW_DASHED1
 62
   120
370
     5
100
AcDbLine
 10
625.4053918284442
 20
1094.25788524007
 30
0.0
 11
705.405391828443
 21
1174.257885240069
 31
0.0
  0
LINE
  5
24E
330
1F
100
AcDbEntity
  8
0-0
  6
JWW_DASHED1
 62
   120
370
     5
100
AcDbLine
 10
625.405391828451
 20
1104.157380175293
 30
0.0
 11
705.4053918284499
 21
1184.157380175292
 31
0.0
  0
LINE
  5
24F
330
1F
100
AcDbEntity
  8
0-0
  6
JWW_DASHED1
 62
   120
370
     5
100
AcDbLine
 10
625.4053918284374
 20
1114.056875110443
 30
0.0
 11
705.4053918284533
 21
1194.056875110457
 31
0.0
  0
LINE
  5
250
330
1F
100
AcDbEntity
  8
0-0
  6
JWW_DASHED1
 62
   120
370
     5
100
AcDbLine
 10
625.4053918284442
 20
1123.956370045667
 30
0.0
 11
705.4053918284465
 21
1203.956370045666
 31
0.0
  0
LINE
  5
251
330
1F
100
AcDbEntity
  8
0-0
  6
JWW_DASHED1
 62
   120
370
     5
100
AcDbLine
 10
625.405391828451
 20
1133.85586498089
 30
0.0
 11
705.4053918284533
 21
1213.855864980889
 31
0.0
  0
LINE
  5
252
330
1F
100
AcDbEntity
  8
0-0
  6
JWW_DASHED1
 62
   120
370
     5
100
AcDbLine
 10
625.4053918284408
 20
1143.75535991604
 30
0.0
 11
701.3310098144505
 21
1219.680977902048
 31
0.0
  0
LINE
  5
253
330
1F
100
AcDbEntity
  8
0-0
  6
JWW_DASHED1
 62
   120
370
     5
100
AcDbLine
 10
625.4053918284476
 20
1153.654854851263
 30
0.0
 11
691.4315148792409
 21
1219.680977902056
 31
0.0
  0
LINE
  5
254
330
1F
100
AcDbEntity
  8
0-0
  6
JWW_DASHED1
 62
   120
370
     5
100
AcDbLine
 10
625.4053918284578
 20
1163.554349786487
 30
0.0
 11
681.5320199440177
 21
1219.680977902048
 31
0.0
  0
LINE
  5
255
330
1F
100
AcDbEntity
  8
0-0
  6
JWW_DASHED1
 62
   120
370
     5
100
AcDbLine
 10
625.4053918284442
 20
1173.453844721637
 30
0.0
 11
671.6325250088594
 21
1219.680977902051
 31
0.0
  0
LINE
  5
256
330
1F
100
AcDbEntity
  8
0-0
  6
JWW_DASHED1
 62
   120
370
     5
100
AcDbLine
 10
625.405391828451
 20
1183.35333965686
 30
0.0
 11
661.733030073643
 21
1219.680977902053
 31
0.0
  0
LINE
  5
257
330
1F
100
AcDbEntity
  8
0-0
  6
JWW_DASHED1
 62
   120
370
     5
100
AcDbLine
 10
625.4053918284442
 20
1193.252834592068
 30
0.0
 11
651.8335351384369
 21
1219.680977902062
 31
0.0
  0
LINE
  5
258
330
1F
100
AcDbEntity
  8
0-0
  6
JWW_DASHED1
 62
   120
370
     5
100
AcDbLine
 10
625.4053918284442
 20
1203.152329527233
 30
0.0
 11
641.9340402032683
 21
1219.680977902055
 31
0.0
  0
LINE
  5
259
330
1F
100
AcDbEntity
  8
0-0
  6
JWW_DASHED1
 62
   120
370
     5
100
AcDbLine
 10
625.4053918284374
 20
1213.051824462441
 30
0.0
 11
632.0345452680588
 21
1219.680977902065
 31
0.0
  0
LWPOLYLINE
  5
25A
330
1F
100
AcDbEntity
  8
寸法
  6
Continuous
 62
     7
370
     9
100
AcDbPolyline
 90
        4
 70
     1
 43
3.0
 10
-1300.094608171551
 20
-1141.819022097947
 42
0.4142135623731
 10
-1301.594608171551
 20
-1140.319022097947
 42
0.4142135623731
 10
-1303.094608171551
 20
-1141.819022097947
 42
0.4142135623731
 10
-1301.594608171551
 20
-1143.319022097947
 42
0.4142135623731
  0
LINE
  5
25B
330
1F
100
AcDbEntity
  8
寸法
  6
Continuous
 62
   120
370
     5
100
AcDbLine
 10
-1301.594608171551
 20
-1141.819022097947
 30
0.0
 11
-851.5946081715513
 21
-1141.819022097947
 31
0.0
  0
LINE
  5
25C
330
1F
100
AcDbEntity
  8
寸法
  6
Continuous
 62
   120
370
     5
100
AcDbLine
 10
-771.5946081715506
 20
-1591.819022097947
 30
0.0
 11
-771.5946081715506
 21
-1191.819022097946
 31
0.0
  0
LINE
  5
25D
330
1F
100
AcDbEntity
  8
寸法
  6
Continuous
 62
   120
370
     5
100
AcDbLine
 10
-801.5946081715506
 20
-1791.819022097945
 30
0.0
 11
-801.5946081715506
 21
-1191.819022097946
 31
0.0
  0
LINE
  5
25E
330
1F
100
AcDbEntity
  8
寸法
  6
Continuous
 62
   120
370
     5
100
AcDbLine
 10
815.4053918284478
 20
-1391.819022097946
 30
0.0
 11
815.4053918284478
 21
-1191.819022097946
 31
0.0
  0
LINE
  5
25F
330
1F
100
AcDbEntity
  8
寸法
  6
Continuous
 62
   120
370
     5
100
AcDbLine
 10
-771.5946081715506
 20
-1591.819022097947
 30
0.0
 11
812.405391828448
 21
-1591.819022097947
 31
0.0
  0
LINE
  5
260
330
1F
100
AcDbEntity
  8
寸法
  6
Continuous
 62
   120
370
     5
100
AcDbLine
 10
812.405391828448
 20
-1591.819022097947
 30
0.0
 11
812.405391828448
 21
-1191.819022097946
 31
0.0
  0
LINE
  5
261
330
1F
100
AcDbEntity
  8
寸法
  6
Continuous
 62
   120
370
     5
100
AcDbLine
 10
-801.5946081715506
 20
-1791.819022097945
 30
0.0
 11
842.405391828448
 21
-1791.819022097945
 31
0.0
  0
LINE
  5
262
330
1F
100
AcDbEntity
  8
寸法
  6
Continuous
 62
   120
370
     5
100
AcDbLine
 10
842.405391828448
 20
-1791.819022097945
 30
0.0
 11
842.405391828448
 21
-1191.819022097946
 31
0.0
  0
LINE
  5
263
330
1F
100
AcDbEntity
  8
寸法
  6
Continuous
 62
   120
370
     5
100
AcDbLine
 10
5.405391828449524
 20
-1391.819022097946
 30
0.0
 11
5.405391828449524
 21
-1191.819022097946
 31
0.0
  0
LINE
  5
264
330
1F
100
AcDbEntity
  8
寸法
  6
Continuous
 62
   120
370
     5
100
AcDbLine
 10
5.405391828449524
 20
-1391.819022097946
 30
0.0
 11
815.4053918284478
 21
-1391.819022097946
 31
0.0
  0
LWPOLYLINE
  5
265
330
1F
100
AcDbEntity
  8
寸法
  6
Continuous
 62
     7
370
     9
100
AcDbPolyline
 90
        4
 70
     1
 43
3.0
 10
-770.0946081715505
 20
-1591.819022097947
 42
0.4142135623731
 10
-771.5946081715506
 20
-1590.319022097947
 42
0.4142135623731
 10
-773.0946081715506
 20
-1591.819022097947
 42
0.4142135623731
 10
-771.5946081715506
 20
-1593.319022097947
 42
0.4142135623731
  0
LWPOLYLINE
  5
266
330
1F
100
AcDbEntity
  8
寸法
  6
Continuous
 62
     7
370
     9
100
AcDbPolyline
 90
        4
 70
     1
 43
3.0
 10
-800.0946081715505
 20
-1791.819022097945
 42
0.4142135623731
 10
-801.5946081715506
 20
-1790.319022097945
 42
0.4142135623731
 10
-803.0946081715506
 20
-1791.819022097945
 42
0.4142135623731
 10
-801.5946081715506
 20
-1793.319022097945
 42
0.4142135623731
  0
LWPOLYLINE
  5
267
330
1F
100
AcDbEntity
  8
寸法
  6
Continuous
 62
     7
370
     9
100
AcDbPolyline
 90
        4
 70
     1
 43
3.0
 10
816.9053918284478
 20
-1391.819022097946
 42
0.4142135623731
 10
815.4053918284478
 20
-1390.319022097946
 42
0.4142135623731
 10
813.9053918284478
 20
-1391.819022097946
 42
0.4142135623731
 10
815.4053918284478
 20
-1393.319022097946
 42
0.4142135623731
  0
LWPOLYLINE
  5
268
330
1F
100
AcDbEntity
  8
寸法
  6
Continuous
 62
     7
370
     9
100
AcDbPolyline
 90
        4
 70
     1
 43
3.0
 10
813.905391828448
 20
-1591.819022097947
 42
0.4142135623731
 10
812.405391828448
 20
-1590.319022097947
 42
0.4142135623731
 10
810.9053918284479
 20
-1591.819022097947
 42
0.4142135623731
 10
812.405391828448
 20
-1593.319022097947
 42
0.4142135623731
  0
LWPOLYLINE
  5
269
330
1F
100
AcDbEntity
  8
寸法
  6
Continuous
 62
     7
370
     9
100
AcDbPolyline
 90
        4
 70
     1
 43
3.0
 10
843.905391828448
 20
-1791.819022097945
 42
0.4142135623731
 10
842.405391828448
 20
-1790.319022097945
 42
0.4142135623731
 10
840.9053918284479
 20
-1791.819022097945
 42
0.4142135623731
 10
842.405391828448
 20
-1793.319022097945
 42
0.4142135623731
  0
LWPOLYLINE
  5
26A
330
1F
100
AcDbEntity
  8
寸法
  6
Continuous
 62
     7
370
     9
100
AcDbPolyline
 90
        4
 70
     1
 43
3.0
 10
6.905391828449524
 20
-1391.819022097946
 42
0.4142135623731
 10
5.405391828449524
 20
-1390.319022097946
 42
0.4142135623731
 10
3.905391828449524
 20
-1391.819022097946
 42
0.4142135623731
 10
5.405391828449524
 20
-1393.319022097946
 42
0.4142135623731
  0
MTEXT
  5
26B
330
1F
100
AcDbEntity
  8
寸法
  6
Continuous
 62
     7
370
   211
100
AcDbMText
 10
241.6553918284487
 20
-1385.744022097946
 30
0.0
 40
57.14999999999998
 41
337.4999999999999
 46
0.0
 71
     7
 72
     1
  1
{\fＭＳ ゴシック|b0|i0|c128|p49;ＤＷ＝810}
 73
     1
 44
1.0
  0
MTEXT
  5
26C
330
1F
100
AcDbEntity
  8
寸法
  6
Continuous
 62
     7
370
   211
100
AcDbMText
 10
-185.8446081715513
 20
-1585.744022097947
 30
0.0
 40
57.14999999999999
 41
412.5
 46
0.0
 71
     7
 72
     1
  1
{\fＭＳ ゴシック|b0|i0|c128|p49;枠内＝1,584}
 73
     1
 44
1.0
  0
MTEXT
  5
26D
330
1F
100
AcDbEntity
  8
寸法
  6
Continuous
 62
     7
370
   211
100
AcDbMText
 10
-185.8446081715513
 20
-1785.744022097946
 30
0.0
 40
57.14999999999999
 41
412.5
 46
0.0
 71
     7
 72
     1
  1
{\fＭＳ ゴシック|b0|i0|c128|p49;枠外＝1,644}
 73
     1
 44
1.0
  0
LINE
  5
26E
330
1F
100
AcDbEntity
  8
寸法
  6
Continuous
 62
   120
370
     5
100
AcDbLine
 10
-1101.594608171551
 20
-1132.319022097947
 30
0.0
 11
-851.5946081715513
 21
-1132.319022097947
 31
0.0
  0
LWPOLYLINE
  5
26F
330
1F
100
AcDbEntity
  8
寸法
  6
Continuous
 62
     7
370
     9
100
AcDbPolyline
 90
        4
 70
     1
 43
3.0
 10
-1100.094608171551
 20
-1132.319022097947
 42
0.4142135623731
 10
-1101.594608171551
 20
-1130.819022097947
 42
0.4142135623731
 10
-1103.094608171551
 20
-1132.319022097947
 42
0.4142135623731
 10
-1101.594608171551
 20
-1133.819022097947
 42
0.4142135623731
  0
LINE
  5
270
330
1F
100
AcDbEntity
  8
寸法
  6
Continuous
 62
   120
370
     5
100
AcDbLine
 10
-1101.594608171551
 20
1227.680977902054
 30
0.0
 11
-851.5946081715513
 21
1227.680977902054
 31
0.0
  0
LINE
  5
271
330
1F
100
AcDbEntity
  8
寸法
  6
Continuous
 62
   120
370
     5
100
AcDbLine
 10
-1101.594608171551
 20
1227.680977902054
 30
0.0
 11
-1101.594608171551
 21
-1132.319022097947
 31
0.0
  0
LWPOLYLINE
  5
272
330
1F
100
AcDbEntity
  8
寸法
  6
Continuous
 62
     7
370
     9
100
AcDbPolyline
 90
        4
 70
     1
 43
3.0
 10
-1100.094608171551
 20
1227.680977902054
 42
0.4142135623731
 10
-1101.594608171551
 20
1229.180977902054
 42
0.4142135623731
 10
-1103.094608171551
 20
1227.680977902054
 42
0.4142135623731
 10
-1101.594608171551
 20
1226.180977902054
 42
0.4142135623731
  0
LINE
  5
273
330
1F
100
AcDbEntity
  8
寸法
  6
Continuous
 62
   120
370
     5
100
AcDbLine
 10
-1301.594608171551
 20
1258.180977902053
 30
0.0
 11
-1301.594608171551
 21
-1141.819022097947
 31
0.0
  0
LINE
  5
274
330
1F
100
AcDbEntity
  8
寸法
  6
Continuous
 62
   120
370
     5
100
AcDbLine
 10
-1301.594608171551
 20
1258.180977902053
 30
0.0
 11
-851.5946081715513
 21
1258.180977902053
 31
0.0
  0
LWPOLYLINE
  5
275
330
1F
100
AcDbEntity
  8
寸法
  6
Continuous
 62
     7
370
     9
100
AcDbPolyline
 90
        4
 70
     1
 43
3.0
 10
-1300.094608171551
 20
1258.180977902053
 42
0.4142135623731
 10
-1301.594608171551
 20
1259.680977902053
 42
0.4142135623731
 10
-1303.094608171551
 20
1258.180977902053
 42
0.4142135623731
 10
-1301.594608171551
 20
1256.680977902053
 42
0.4142135623731
  0
MTEXT
  5
276
330
1F
100
AcDbEntity
  8
寸法
  6
Continuous
 62
     7
370
    70
100
AcDbMText
 10
-1116.594608171551
 20
-170.4940220979462
 30
0.0
 40
57.14999999999999
 41
412.5
 46
0.0
 71
     7
 72
     1
  1
{\fＭＳ ゴシック|b0|i0|c128|p49;ＤＨ＝2,360}
 11
6.123031769111886E-17
 21
1.0
 31
0.0
 73
     1
 44
1.0
  0
MTEXT
  5
277
330
1F
100
AcDbEntity
  8
寸法
  6
Continuous
 62
     7
370
    70
100
AcDbMText
 10
-1316.594608171551
 20
-164.4940220979474
 30
0.0
 40
57.14999999999999
 41
412.5
 46
0.0
 71
     7
 72
     1
  1
{\fＭＳ ゴシック|b0|i0|c128|p49;枠外＝2,400}
 11
6.123031769111886E-17
 21
1.0
 31
0.0
 73
     1
 44
1.0
  0
MTEXT
  5
278
330
1F
100
AcDbEntity
  8
文字
  6
Continuous
 62
     7
370
     9
100
AcDbMText
 10
-1451.594608171553
 20
1667.414096215758
 30
0.0
 40
45.71999999999998
 41
1620.0
 46
0.0
 71
     7
 72
     1
  1
{\fＭＳ ゴシック|b0|i0|c128|p49;※ＸＭは縦木目柄、ＬＭは横木目柄のデザインとなります。}
 73
     1
 44
1.0
  0
ENDSEC
  0
SECTION
  2
OBJECTS
  0
DICTIONARY
  5
C
330
0
100
AcDbDictionary
281
     1
  3
ACAD_GROUP
350
D
  3
ACAD_LAYOUT
350
1A
  3
ACAD_MATERIAL
350
3B
  3
ACAD_MLEADERSTYLE
350
27A
  3
ACAD_MLINESTYLE
350
17
  3
ACAD_PLOTSETTINGS
350
19
  3
ACAD_PLOTSTYLENAME
350
E
  3
ACAD_TABLESTYLE
350
279
  3
ACAD_VISUALSTYLE
350
2A
  0
DICTIONARY
  5
D
102
{ACAD_REACTORS
330
C
102
}
330
C
100
AcDbDictionary
281
     1
  0
DICTIONARY
  5
1A
102
{ACAD_REACTORS
330
C
102
}
330
C
100
AcDbDictionary
281
     1
  3
Layout1
350
1E
  3
Layout2
350
26
  3
Model
350
22
  0
DICTIONARY
  5
3B
102
{ACAD_REACTORS
330
C
102
}
330
C
100
AcDbDictionary
281
     1
  3
ByBlock
350
3D
  3
ByLayer
350
3C
  3
Global
350
3E
  0
DICTIONARY
  5
27A
102
{ACAD_REACTORS
330
C
102
}
330
C
100
AcDbDictionary
281
     1
  0
DICTIONARY
  5
17
102
{ACAD_REACTORS
330
C
102
}
330
C
100
AcDbDictionary
281
     1
  3
Standard
350
18
  0
DICTIONARY
  5
19
102
{ACAD_REACTORS
330
C
102
}
330
C
100
AcDbDictionary
281
     1
  0
ACDBDICTIONARYWDFLT
  5
E
102
{ACAD_REACTORS
330
C
102
}
330
C
100
AcDbDictionary
281
     1
  3
Normal
350
F
100
AcDbDictionaryWithDefault
340
F
  0
DICTIONARY
  5
279
102
{ACAD_REACTORS
330
C
102
}
330
C
100
AcDbDictionary
281
     1
  0
DICTIONARY
  5
2A
102
{ACAD_REACTORS
330
C
102
}
330
C
100
AcDbDictionary
281
     1
  3
2dWireframe
350
2F
  3
3D Hidden
350
31
  3
3dWireframe
350
30
  3
Basic
350
32
  3
Brighten
350
36
  3
ColorChange
350
3A
  3
Conceptual
350
34
  3
Dim
350
35
  3
Facepattern
350
39
  3
Flat
350
2B
  3
FlatWithEdges
350
2C
  3
Gouraud
350
2D
  3
GouraudWithEdges
350
2E
  3
Linepattern
350
38
  3
Realistic
350
33
  3
Thicken
350
37
  0
LAYOUT
  5
1E
102
{ACAD_REACTORS
330
1A
102
}
330
1A
100
AcDbPlotSettings
  1

  2
none_device
  4

  6

 40
0.0
 41
0.0
 42
0.0
 43
0.0
 44
0.0
 45
0.0
 46
0.0
 47
0.0
 48
0.0
 49
0.0
140
0.0
141
0.0
142
1.0
143
1.0
 70
   688
 72
     0
 73
     0
 74
     5
  7

 75
    16
 76
     0
 77
     5
 78
   300
147
1.0
148
0.0
149
0.0
100
AcDbLayout
  1
Layout1
 70
     1
 71
     1
 10
0.0
 20
0.0
 11
420.0
 21
297.0
 12
0.0
 22
0.0
 32
0.0
 14
1.000000000000000E+20
 24
1.000000000000000E+20
 34
1.000000000000000E+20
 15
-1.000000000000000E+20
 25
-1.000000000000000E+20
 35
-1.000000000000000E+20
146
0.0
 13
0.0
 23
0.0
 33
0.0
 16
1.0
 26
0.0
 36
0.0
 17
0.0
 27
1.0
 37
0.0
 76
     0
330
1B
  0
LAYOUT
  5
26
102
{ACAD_REACTORS
330
1A
102
}
330
1A
100
AcDbPlotSettings
  1

  2
none_device
  4

  6

 40
0.0
 41
0.0
 42
0.0
 43
0.0
 44
0.0
 45
0.0
 46
0.0
 47
0.0
 48
0.0
 49
0.0
140
0.0
141
0.0
142
1.0
143
1.0
 70
   688
 72
     0
 73
     0
 74
     5
  7

 75
    16
 76
     0
 77
     5
 78
   300
147
1.0
148
0.0
149
0.0
100
AcDbLayout
  1
Layout2
 70
     1
 71
     2
 10
0.0
 20
0.0
 11
0.0
 21
0.0
 12
0.0
 22
0.0
 32
0.0
 14
0.0
 24
0.0
 34
0.0
 15
0.0
 25
0.0
 35
0.0
146
0.0
 13
0.0
 23
0.0
 33
0.0
 16
1.0
 26
0.0
 36
0.0
 17
0.0
 27
1.0
 37
0.0
 76
     0
330
23
  0
LAYOUT
  5
22
102
{ACAD_REACTORS
330
1A
102
}
330
1A
100
AcDbPlotSettings
  1

  2
none_device
  4

  6

 40
0.0
 41
0.0
 42
0.0
 43
0.0
 44
0.0
 45
0.0
 46
0.0
 47
0.0
 48
0.0
 49
0.0
140
0.0
141
0.0
142
1.0
143
1.0
 70
  1712
 72
     0
 73
     0
 74
     0
  7

 75
     0
 76
     0
 77
     5
 78
   300
147
1.0
148
0.0
149
0.0
100
AcDbLayout
  1
Model
 70
     1
 71
     0
 10
-4455.0
 20
-3150.0
 11
4455.0
 21
3150.0
 12
0.0
 22
0.0
 32
0.0
 14
-4455.0
 24
-3150.0
 34
0.0
 15
4455.0
 25
3150.0
 35
0.0
146
0.0
 13
0.0
 23
0.0
 33
0.0
 16
1.0
 26
0.0
 36
0.0
 17
0.0
 27
1.0
 37
0.0
 76
     0
330
1F
331
29
  0
MATERIAL
  5
3D
102
{ACAD_REACTORS
330
3B
102
}
330
3B
100
AcDbMaterial
  1
ByBlock
 72
     1
 94
      127
  0
MATERIAL
  5
3C
102
{ACAD_REACTORS
330
3B
102
}
330
3B
100
AcDbMaterial
  1
ByLayer
 72
     1
 94
      127
  0
MATERIAL
  5
3E
102
{ACAD_REACTORS
330
3B
102
}
330
3B
100
AcDbMaterial
  1
Global
 72
     1
 94
      127
  0
MLINESTYLE
  5
18
102
{ACAD_REACTORS
330
17
102
}
330
17
100
AcDbMlineStyle
  2
Standard
 70
     0
  3

 62
   256
 51
90.0
 52
90.0
 71
     2
 49
0.5
 62
   256
  6
BYLAYER
 49
-0.5
 62
   256
  6
BYLAYER
  0
ACDBPLACEHOLDER
  5
F
102
{ACAD_REACTORS
330
E
102
}
330
E
  0
VISUALSTYLE
  5
2F
102
{ACAD_REACTORS
330
2A
102
}
330
2A
100
AcDbVisualStyle
  2
2dWireframe
 70
     4
177
     2
291
     0
 71
     0
176
     1
 72
     2
176
     1
 73
     0
176
     1
 90
        0
176
     1
 40
-0.6
176
     1
 41
-30.0
176
     1
 62
     5
 63
     7
421
 16777215
176
     1
 74
     1
176
     1
 91
        4
176
     1
 64
     7
176
     1
 65
   257
176
     1
 75
     1
176
     1
175
     1
176
     1
 42
1.0
176
     1
 92
        0
176
     1
 66
   257
176
     1
 43
1.0
176
     1
 76
     1
176
     1
 77
     6
176
     1
 78
     2
176
     1
 67
     7
176
     1
 79
     5
176
     1
170
     0
176
     1
171
     0
176
     1
290
     0
176
     1
 93
        1
176
     1
 44
0.0
176
     1
173
     0
176
     1
  0
VISUALSTYLE
  5
31
102
{ACAD_REACTORS
330
2A
102
}
330
2A
100
AcDbVisualStyle
  2
3D Hidden
 70
     6
177
     2
291
     0
 71
     1
176
     1
 72
     2
176
     1
 73
     2
176
     1
 90
        0
176
     1
 40
-0.6
176
     1
 41
-30.0
176
     1
 62
     5
 63
     7
421
 16777215
176
     1
 74
     2
176
     1
 91
        2
176
     1
 64
     7
176
     1
 65
   257
176
     1
 75
     2
176
     1
175
     1
176
     1
 42
40.0
176
     1
 92
        0
176
     1
 66
   257
176
     1
 43
1.0
176
     1
 76
     1
176
     1
 77
     6
176
     1
 78
     2
176
     1
 67
     7
176
     1
 79
     3
176
     1
170
     0
176
     1
171
     0
176
     1
290
     0
176
     1
 93
        1
176
     1
 44
0.0
176
     1
173
     0
176
     1
  0
VISUALSTYLE
  5
30
102
{ACAD_REACTORS
330
2A
102
}
330
2A
100
AcDbVisualStyle
  2
3dWireframe
 70
     5
177
     2
291
     0
 71
     0
176
     1
 72
     2
176
     1
 73
     0
176
     1
 90
        0
176
     1
 40
-0.6
176
     1
 41
-30.0
176
     1
 62
     5
 63
     7
421
 16777215
176
     1
 74
     1
176
     1
 91
        4
176
     1
 64
     7
176
     1
 65
   257
176
     1
 75
     1
176
     1
175
     1
176
     1
 42
1.0
176
     1
 92
        0
176
     1
 66
   257
176
     1
 43
1.0
176
     1
 76
     1
176
     1
 77
     6
176
     1
 78
     2
176
     1
 67
     7
176
     1
 79
     5
176
     1
170
     0
176
     1
171
     0
176
     1
290
     0
176
     1
 93
        1
176
     1
 44
0.0
176
     1
173
     0
176
     1
  0
VISUALSTYLE
  5
32
102
{ACAD_REACTORS
330
2A
102
}
330
2A
100
AcDbVisualStyle
  2
Basic
 70
     7
177
     2
291
     1
 71
     1
176
     1
 72
     0
176
     1
 73
     1
176
     1
 90
        0
176
     1
 40
-0.6
176
     1
 41
-30.0
176
     1
 62
     5
 63
     7
421
 16777215
176
     1
 74
     0
176
     1
 91
        4
176
     1
 64
     7
176
     1
 65
   257
176
     1
 75
     1
176
     1
175
     1
176
     1
 42
1.0
176
     1
 92
        8
176
     1
 66
     7
176
     1
 43
1.0
176
     1
 76
     1
176
     1
 77
     6
176
     1
 78
     2
176
     1
 67
     7
176
     1
 79
     5
176
     1
170
     0
176
     1
171
     0
176
     1
290
     0
176
     1
 93
        1
176
     1
 44
0.0
176
     1
173
     0
176
     1
  0
VISUALSTYLE
  5
36
102
{ACAD_REACTORS
330
2A
102
}
330
2A
100
AcDbVisualStyle
  2
Brighten
 70
    12
177
     2
291
     1
 71
     2
176
     1
 72
     2
176
     1
 73
     0
176
     1
 90
        0
176
     1
 40
-0.6
176
     1
 41
-30.0
176
     1
 62
     5
 63
     7
421
 16777215
176
     1
 74
     1
176
     1
 91
        4
176
     1
 64
     7
176
     1
 65
   257
176
     1
 75
     1
176
     1
175
     1
176
     1
 42
1.0
176
     1
 92
        8
176
     1
 66
     7
176
     1
 43
1.0
176
     1
 76
     1
176
     1
 77
     6
176
     1
 78
     2
176
     1
 67
     7
176
     1
 79
     5
176
     1
170
     0
176
     1
171
     0
176
     1
290
     0
176
     1
 93
        1
176
     1
 44
50.0
176
     1
173
     0
176
     1
  0
VISUALSTYLE
  5
3A
102
{ACAD_REACTORS
330
2A
102
}
330
2A
100
AcDbVisualStyle
  2
ColorChange
 70
    16
177
     2
291
     1
 71
     2
176
     1
 72
     2
176
     1
 73
     3
176
     1
 90
        0
176
     1
 40
-0.6
176
     1
 41
-30.0
176
     1
 62
     5
 63
     8
421
  8421504
176
     1
 74
     1
176
     1
 91
        4
176
     1
 64
     7
176
     1
 65
   257
176
     1
 75
     1
176
     1
175
     1
176
     1
 42
1.0
176
     1
 92
        8
176
     1
 66
     8
424
  8421504
176
     1
 43
1.0
176
     1
 76
     1
176
     1
 77
     6
176
     1
 78
     2
176
     1
 67
     7
176
     1
 79
     5
176
     1
170
     0
176
     1
171
     0
176
     1
290
     0
176
     1
 93
        1
176
     1
 44
0.0
176
     1
173
     0
176
     1
  0
VISUALSTYLE
  5
34
102
{ACAD_REACTORS
330
2A
102
}
330
2A
100
AcDbVisualStyle
  2
Conceptual
 70
     9
177
     2
291
     0
 71
     3
176
     1
 72
     2
176
     1
 73
     0
176
     1
 90
        0
176
     1
 40
-0.6
176
     1
 41
-30.0
176
     1
 62
     5
 63
     7
421
 16777215
176
     1
 74
     2
176
     1
 91
        2
176
     1
 64
     7
176
     1
 65
   257
176
     1
 75
     1
176
     1
175
     1
176
     1
 42
40.0
176
     1
 92
        8
176
     1
 66
     7
176
     1
 43
1.0
176
     1
 76
     1
176
     1
 77
     6
176
     1
 78
     2
176
     1
 67
     7
176
     1
 79
     3
176
     1
170
     0
176
     1
171
     0
176
     1
290
     0
176
     1
 93
        1
176
     1
 44
0.0
176
     1
173
     0
176
     1
  0
VISUALSTYLE
  5
35
102
{ACAD_REACTORS
330
2A
102
}
330
2A
100
AcDbVisualStyle
  2
Dim
 70
    11
177
     2
291
     1
 71
     2
176
     1
 72
     2
176
     1
 73
     0
176
     1
 90
        0
176
     1
 40
-0.6
176
     1
 41
-30.0
176
     1
 62
     5
 63
     7
421
 16777215
176
     1
 74
     1
176
     1
 91
        4
176
     1
 64
     7
176
     1
 65
   257
176
     1
 75
     1
176
     1
175
     1
176
     1
 42
1.0
176
     1
 92
        8
176
     1
 66
     7
176
     1
 43
1.0
176
     1
 76
     1
176
     1
 77
     6
176
     1
 78
     2
176
     1
 67
     7
176
     1
 79
     5
176
     1
170
     0
176
     1
171
     0
176
     1
290
     0
176
     1
 93
        1
176
     1
 44
-50.0
176
     1
173
     0
176
     1
  0
VISUALSTYLE
  5
39
102
{ACAD_REACTORS
330
2A
102
}
330
2A
100
AcDbVisualStyle
  2
Facepattern
 70
    15
177
     2
291
     1
 71
     2
176
     1
 72
     2
176
     1
 73
     0
176
     1
 90
        0
176
     1
 40
-0.6
176
     1
 41
-30.0
176
     1
 62
     5
 63
     7
421
 16777215
176
     1
 74
     1
176
     1
 91
        4
176
     1
 64
     7
176
     1
 65
   257
176
     1
 75
     1
176
     1
175
     1
176
     1
 42
1.0
176
     1
 92
        8
176
     1
 66
     7
176
     1
 43
1.0
176
     1
 76
     1
176
     1
 77
     6
176
     1
 78
     2
176
     1
 67
     7
176
     1
 79
     5
176
     1
170
     0
176
     1
171
     0
176
     1
290
     0
176
     1
 93
        1
176
     1
 44
0.0
176
     1
173
     0
176
     1
  0
VISUALSTYLE
  5
2B
102
{ACAD_REACTORS
330
2A
102
}
330
2A
100
AcDbVisualStyle
  2
Flat
 70
     0
177
     2
291
     1
 71
     2
176
     1
 72
     1
176
     1
 73
     1
176
     1
 90
        2
176
     1
 40
-0.6
176
     1
 41
30.0
176
     1
 62
     5
 63
     7
421
 16777215
176
     1
 74
     0
176
     1
 91
        4
176
     1
 64
     7
176
     1
 65
   257
176
     1
 75
     1
176
     1
175
     1
176
     1
 42
1.0
176
     1
 92
        8
176
     1
 66
     7
176
     1
 43
1.0
176
     1
 76
     1
176
     1
 77
     6
176
     1
 78
     2
176
     1
 67
     7
176
     1
 79
     5
176
     1
170
     0
176
     1
171
     0
176
     1
290
     0
176
     1
 93
       13
176
     1
 44
0.0
176
     1
173
     0
176
     1
  0
VISUALSTYLE
  5
2C
102
{ACAD_REACTORS
330
2A
102
}
330
2A
100
AcDbVisualStyle
  2
FlatWithEdges
 70
     1
177
     2
291
     1
 71
     2
176
     1
 72
     1
176
     1
 73
     1
176
     1
 90
        2
176
     1
 40
-0.6
176
     1
 41
30.0
176
     1
 62
     5
 63
     7
421
 16777215
176
     1
 74
     1
176
     1
 91
        4
176
     1
 64
     7
176
     1
 65
   257
176
     1
 75
     1
176
     1
175
     1
176
     1
 42
1.0
176
     1
 92
        0
176
     1
 66
   257
176
     1
 43
1.0
176
     1
 76
     1
176
     1
 77
     6
176
     1
 78
     2
176
     1
 67
     7
176
     1
 79
     5
176
     1
170
     0
176
     1
171
     0
176
     1
290
     0
176
     1
 93
       13
176
     1
 44
0.0
176
     1
173
     0
176
     1
  0
VISUALSTYLE
  5
2D
102
{ACAD_REACTORS
330
2A
102
}
330
2A
100
AcDbVisualStyle
  2
Gouraud
 70
     2
177
     2
291
     1
 71
     2
176
     1
 72
     2
176
     1
 73
     1
176
     1
 90
        2
176
     1
 40
-0.6
176
     1
 41
30.0
176
     1
 62
     5
 63
     7
421
 16777215
176
     1
 74
     0
176
     1
 91
        4
176
     1
 64
     7
176
     1
 65
   257
176
     1
 75
     1
176
     1
175
     1
176
     1
 42
1.0
176
     1
 92
        0
176
     1
 66
     7
176
     1
 43
1.0
176
     1
 76
     1
176
     1
 77
     6
176
     1
 78
     2
176
     1
 67
     7
176
     1
 79
     5
176
     1
170
     0
176
     1
171
     0
176
     1
290
     0
176
     1
 93
       13
176
     1
 44
0.0
176
     1
173
     0
176
     1
  0
VISUALSTYLE
  5
2E
102
{ACAD_REACTORS
330
2A
102
}
330
2A
100
AcDbVisualStyle
  2
GouraudWithEdges
 70
     3
177
     2
291
     1
 71
     2
176
     1
 72
     2
176
     1
 73
     1
176
     1
 90
        2
176
     1
 40
-0.6
176
     1
 41
30.0
176
     1
 62
     5
 63
     7
421
 16777215
176
     1
 74
     1
176
     1
 91
        4
176
     1
 64
     7
176
     1
 65
   257
176
     1
 75
     1
176
     1
175
     1
176
     1
 42
1.0
176
     1
 92
        0
176
     1
 66
   257
176
     1
 43
1.0
176
     1
 76
     1
176
     1
 77
     6
176
     1
 78
     2
176
     1
 67
     7
176
     1
 79
     5
176
     1
170
     0
176
     1
171
     0
176
     1
290
     0
176
     1
 93
       13
176
     1
 44
0.0
176
     1
173
     0
176
     1
  0
VISUALSTYLE
  5
38
102
{ACAD_REACTORS
330
2A
102
}
330
2A
100
AcDbVisualStyle
  2
Linepattern
 70
    14
177
     2
291
     1
 71
     2
176
     1
 72
     2
176
     1
 73
     0
176
     1
 90
        0
176
     1
 40
-0.6
176
     1
 41
-30.0
176
     1
 62
     5
 63
     7
421
 16777215
176
     1
 74
     1
176
     1
 91
        4
176
     1
 64
     7
176
     1
 65
   257
176
     1
 75
     7
176
     1
175
     7
176
     1
 42
1.0
176
     1
 92
        8
176
     1
 66
     7
176
     1
 43
1.0
176
     1
 76
     1
176
     1
 77
     6
176
     1
 78
     2
176
     1
 67
     7
176
     1
 79
     5
176
     1
170
     0
176
     1
171
     0
176
     1
290
     0
176
     1
 93
        1
176
     1
 44
0.0
176
     1
173
     0
176
     1
  0
VISUALSTYLE
  5
33
102
{ACAD_REACTORS
330
2A
102
}
330
2A
100
AcDbVisualStyle
  2
Realistic
 70
     8
177
     2
291
     0
 71
     2
176
     1
 72
     2
176
     1
 73
     0
176
     1
 90
        0
176
     1
 40
-0.6
176
     1
 41
-30.0
176
     1
 62
     5
 63
     7
421
 16777215
176
     1
 74
     1
176
     1
 91
        0
176
     1
 64
     7
176
     1
 65
   257
176
     1
 75
     1
176
     1
175
     1
176
     1
 42
1.0
176
     1
 92
        8
176
     1
 66
     8
424
  7895160
176
     1
 43
1.0
176
     1
 76
     1
176
     1
 77
     6
176
     1
 78
     2
176
     1
 67
     7
176
     1
 79
     5
176
     1
170
     0
176
     1
171
     0
176
     1
290
     0
176
     1
 93
       13
176
     1
 44
0.0
176
     1
173
     0
176
     1
  0
VISUALSTYLE
  5
37
102
{ACAD_REACTORS
330
2A
102
}
330
2A
100
AcDbVisualStyle
  2
Thicken
 70
    13
177
     2
291
     1
 71
     2
176
     1
 72
     2
176
     1
 73
     0
176
     1
 90
        0
176
     1
 40
-0.6
176
     1
 41
-30.0
176
     1
 62
     5
 63
     7
421
 16777215
176
     1
 74
     1
176
     1
 91
        4
176
     1
 64
     7
176
     1
 65
   257
176
     1
 75
     1
176
     1
175
     1
176
     1
 42
1.0
176
     1
 92
       12
176
     1
 66
     7
176
     1
 43
1.0
176
     1
 76
     1
176
     1
 77
     6
176
     1
 78
     2
176
     1
 67
     7
176
     1
 79
     5
176
     1
170
     0
176
     1
171
     0
176
     1
290
     0
176
     1
 93
        1
176
     1
 44
0.0
176
     1
173
     0
176
     1
  0
ENDSEC
  0
EOF
