  0
SECTION
  2
HEADER
  9
$ACADVER
  1
AC1024
  9
$ACADMAINTVER
 70
     6
  9
$DWGCODEPAGE
  3
ANSI_932
  9
$INSBASE
 10
0.0
 20
0.0
 30
0.0
  9
$EXTMIN
 10
-4455.0
 20
-3150.0
 30
0.0
  9
$EXTMAX
 10
4455.0
 20
3150.0
 30
0.0
  9
$LIMMIN
 10
-4455.0
 20
-3150.0
  9
$LIMMAX
 10
4455.0
 20
3150.0
  9
$ORTHOMODE
 70
     0
  9
$REGENMODE
 70
     1
  9
$FILLMODE
 70
     1
  9
$QTEXTMODE
 70
     0
  9
$MIRRTEXT
 70
     1
  9
$LTSCALE
 40
30.0
  9
$ATTMODE
 70
     1
  9
$TEXTSIZE
 40
2.5
  9
$TRACEWID
 40
1.0
  9
$TEXTSTYLE
  7
Standard
  9
$CLAYER
  8
0
  9
$CELTYPE
  6
ByLayer
  9
$CECOLOR
 62
   256
  9
$CELTSCALE
 40
1.0
  9
$DISPSILH
 70
     0
  9
$DIMSCALE
 40
1.0
  9
$DIMASZ
 40
2.5
  9
$DIMEXO
 40
0.625
  9
$DIMDLI
 40
3.75
  9
$DIMRND
 40
0.0
  9
$DIMDLE
 40
0.0
  9
$DIMEXE
 40
1.25
  9
$DIMTP
 40
0.0
  9
$DIMTM
 40
0.0
  9
$DIMTXT
 40
2.5
  9
$DIMCEN
 40
2.5
  9
$DIMTSZ
 40
0.0
  9
$DIMTOL
 70
     0
  9
$DIMLIM
 70
     0
  9
$DIMTIH
 70
     0
  9
$DIMTOH
 70
     0
  9
$DIMSE1
 70
     0
  9
$DIMSE2
 70
     0
  9
$DIMTAD
 70
     1
  9
$DIMZIN
 70
     8
  9
$DIMBLK
  1

  9
$DIMASO
 70
     1
  9
$DIMSHO
 70
     1
  9
$DIMPOST
  1

  9
$DIMAPOST
  1

  9
$DIMALT
 70
     0
  9
$DIMALTD
 70
     3
  9
$DIMALTF
 40
0.03937007874016
  9
$DIMLFAC
 40
1.0
  9
$DIMTOFL
 70
     1
  9
$DIMTVP
 40
0.0
  9
$DIMTIX
 70
     0
  9
$DIMSOXD
 70
     0
  9
$DIMSAH
 70
     0
  9
$DIMBLK1
  1

  9
$DIMBLK2
  1

  9
$DIMSTYLE
  2
ISO-25
  9
$DIMCLRD
 70
     0
  9
$DIMCLRE
 70
     0
  9
$DIMCLRT
 70
     0
  9
$DIMTFAC
 40
1.0
  9
$DIMGAP
 40
0.625
  9
$DIMJUST
 70
     0
  9
$DIMSD1
 70
     0
  9
$DIMSD2
 70
     0
  9
$DIMTOLJ
 70
     0
  9
$DIMTZIN
 70
     8
  9
$DIMALTZ
 70
     0
  9
$DIMALTTZ
 70
     0
  9
$DIMUPT
 70
     0
  9
$DIMDEC
 70
     2
  9
$DIMTDEC
 70
     2
  9
$DIMALTU
 70
     2
  9
$DIMALTTD
 70
     3
  9
$DIMTXSTY
  7
Standard
  9
$DIMAUNIT
 70
     0
  9
$DIMADEC
 70
     0
  9
$DIMALTRND
 40
0.0
  9
$DIMAZIN
 70
     0
  9
$DIMDSEP
 70
    44
  9
$DIMATFIT
 70
     3
  9
$DIMFRAC
 70
     0
  9
$DIMLDRBLK
  1

  9
$DIMLUNIT
 70
     2
  9
$DIMLWD
 70
    -2
  9
$DIMLWE
 70
    -2
  9
$DIMTMOVE
 70
     0
  9
$DIMFXL
 40
1.0
  9
$DIMFXLON
 70
     0
  9
$DIMJOGANG
 40
0.7853981633974483
  9
$DIMTFILL
 70
     0
  9
$DIMTFILLCLR
 70
     0
  9
$DIMARCSYM
 70
     0
  9
$DIMLTYPE
  6

  9
$DIMLTEX1
  6

  9
$DIMLTEX2
  6

  9
$DIMTXTDIRECTION
 70
     0
  9
$LUNITS
 70
     2
  9
$LUPREC
 70
     4
  9
$SKETCHINC
 40
1.0
  9
$FILLETRAD
 40
10.0
  9
$AUNITS
 70
     0
  9
$AUPREC
 70
     0
  9
$MENU
  1
.
  9
$ELEVATION
 40
0.0
  9
$PELEVATION
 40
0.0
  9
$THICKNESS
 40
0.0
  9
$LIMCHECK
 70
     0
  9
$CHAMFERA
 40
10.0
  9
$CHAMFERB
 40
10.0
  9
$CHAMFERC
 40
20.0
  9
$CHAMFERD
 40
0.0
  9
$SKPOLY
 70
     0
  9
$TDCREATE
 40
2457913.546205069
  9
$TDUCREATE
 40
2457913.171205069
  9
$TDUPDATE
 40
2457913.546205081
  9
$TDUUPDATE
 40
2457913.171205081
  9
$TDINDWG
 40
0.0000000116
  9
$TDUSRTIMER
 40
0.0000000116
  9
$USRTIMER
 70
     1
  9
$ANGBASE
 50
0.0
  9
$ANGDIR
 70
     0
  9
$PDMODE
 70
     0
  9
$PDSIZE
 40
0.0
  9
$PLINEWID
 40
0.0
  9
$SPLFRAME
 70
     0
  9
$SPLINETYPE
 70
     6
  9
$SPLINESEGS
 70
     8
  9
$HANDSEED
  5
2E5
  9
$SURFTAB1
 70
     6
  9
$SURFTAB2
 70
     6
  9
$SURFTYPE
 70
     6
  9
$SURFU
 70
     6
  9
$SURFV
 70
     6
  9
$UCSBASE
  2

  9
$UCSNAME
  2

  9
$UCSORG
 10
0.0
 20
0.0
 30
0.0
  9
$UCSXDIR
 10
1.0
 20
0.0
 30
0.0
  9
$UCSYDIR
 10
0.0
 20
1.0
 30
0.0
  9
$UCSORTHOREF
  2

  9
$UCSORTHOVIEW
 70
     0
  9
$UCSORGTOP
 10
0.0
 20
0.0
 30
0.0
  9
$UCSORGBOTTOM
 10
0.0
 20
0.0
 30
0.0
  9
$UCSORGLEFT
 10
0.0
 20
0.0
 30
0.0
  9
$UCSORGRIGHT
 10
0.0
 20
0.0
 30
0.0
  9
$UCSORGFRONT
 10
0.0
 20
0.0
 30
0.0
  9
$UCSORGBACK
 10
0.0
 20
0.0
 30
0.0
  9
$PUCSBASE
  2

  9
$PUCSNAME
  2

  9
$PUCSORG
 10
0.0
 20
0.0
 30
0.0
  9
$PUCSXDIR
 10
1.0
 20
0.0
 30
0.0
  9
$PUCSYDIR
 10
0.0
 20
1.0
 30
0.0
  9
$PUCSORTHOREF
  2

  9
$PUCSORTHOVIEW
 70
     0
  9
$PUCSORGTOP
 10
0.0
 20
0.0
 30
0.0
  9
$PUCSORGBOTTOM
 10
0.0
 20
0.0
 30
0.0
  9
$PUCSORGLEFT
 10
0.0
 20
0.0
 30
0.0
  9
$PUCSORGRIGHT
 10
0.0
 20
0.0
 30
0.0
  9
$PUCSORGFRONT
 10
0.0
 20
0.0
 30
0.0
  9
$PUCSORGBACK
 10
0.0
 20
0.0
 30
0.0
  9
$USERI1
 70
     0
  9
$USERI2
 70
     0
  9
$USERI3
 70
     0
  9
$USERI4
 70
     0
  9
$USERI5
 70
     0
  9
$USERR1
 40
0.0
  9
$USERR2
 40
0.0
  9
$USERR3
 40
0.0
  9
$USERR4
 40
0.0
  9
$USERR5
 40
0.0
  9
$WORLDVIEW
 70
     1
  9
$SHADEDGE
 70
     3
  9
$SHADEDIF
 70
    70
  9
$TILEMODE
 70
     1
  9
$MAXACTVP
 70
    64
  9
$PINSBASE
 10
0.0
 20
0.0
 30
0.0
  9
$PLIMCHECK
 70
     0
  9
$PEXTMIN
 10
1.000000000000000E+20
 20
1.000000000000000E+20
 30
1.000000000000000E+20
  9
$PEXTMAX
 10
-1.000000000000000E+20
 20
-1.000000000000000E+20
 30
-1.000000000000000E+20
  9
$PLIMMIN
 10
0.0
 20
0.0
  9
$PLIMMAX
 10
420.0
 20
297.0
  9
$UNITMODE
 70
     0
  9
$VISRETAIN
 70
     1
  9
$PLINEGEN
 70
     0
  9
$PSLTSCALE
 70
     1
  9
$TREEDEPTH
 70
  3020
  9
$CMLSTYLE
  2
Standard
  9
$CMLJUST
 70
     0
  9
$CMLSCALE
 40
20.0
  9
$PROXYGRAPHICS
 70
     1
  9
$MEASUREMENT
 70
     1
  9
$CELWEIGHT
370
    -1
  9
$ENDCAPS
280
     0
  9
$JOINSTYLE
280
     0
  9
$LWDISPLAY
290
     0
  9
$INSUNITS
 70
     4
  9
$HYPERLINKBASE
  1

  9
$STYLESHEET
  1

  9
$XEDIT
290
     1
  9
$CEPSNTYPE
380
     0
  9
$PSTYLEMODE
290
     1
  9
$FINGERPRINTGUID
  2
{67E12D18-5ECF-4627-827D-346EC70F1313}
  9
$VERSIONGUID
  2
{FAEB1C32-E019-11D5-929B-00C0DF256EC4}
  9
$EXTNAMES
290
     1
  9
$PSVPSCALE
 40
0.0
  9
$OLESTARTUP
290
     0
  9
$SORTENTS
280
   127
  9
$INDEXCTL
280
     0
  9
$HIDETEXT
280
     1
  9
$XCLIPFRAME
280
     2
  9
$HALOGAP
280
     0
  9
$OBSCOLOR
 70
   257
  9
$OBSLTYPE
280
     0
  9
$INTERSECTIONDISPLAY
280
     0
  9
$INTERSECTIONCOLOR
 70
   257
  9
$DIMASSOC
280
     2
  9
$PROJECTNAME
  1

  9
$CAMERADISPLAY
290
     0
  9
$LENSLENGTH
 40
50.0
  9
$CAMERAHEIGHT
 40
0.0
  9
$STEPSPERSEC
 40
2.0
  9
$STEPSIZE
 40
6.0
  9
$3DDWFPREC
 40
2.0
  9
$PSOLWIDTH
 40
5.0
  9
$PSOLHEIGHT
 40
80.0
  9
$LOFTANG1
 40
1.570796326794897
  9
$LOFTANG2
 40
1.570796326794897
  9
$LOFTMAG1
 40
0.0
  9
$LOFTMAG2
 40
0.0
  9
$LOFTPARAM
 70
     7
  9
$LOFTNORMALS
280
     1
  9
$LATITUDE
 40
37.795
  9
$LONGITUDE
 40
-122.394
  9
$NORTHDIRECTION
 40
0.0
  9
$TIMEZONE
 70
 -8000
  9
$LIGHTGLYPHDISPLAY
280
     1
  9
$TILEMODELIGHTSYNCH
280
     1
  9
$SOLIDHIST
280
     1
  9
$SHOWHIST
280
     1
  9
$DWFFRAME
280
     2
  9
$DGNFRAME
280
     2
  9
$REALWORLDSCALE
290
     1
  9
$INTERFERECOLOR
 62
   256
  9
$CSHADOW
280
     0
  9
$SHADOWPLANELOCATION
 40
0.0
  0
ENDSEC
  0
SECTION
  2
CLASSES
  0
CLASS
  1
ACDBDICTIONARYWDFLT
  2
AcDbDictionaryWithDefault
  3
ObjectDBX Classes
 90
        0
 91
        4
280
     0
281
     0
  0
CLASS
  1
VISUALSTYLE
  2
AcDbVisualStyle
  3
ObjectDBX Classes
 90
     4095
 91
        4
280
     0
281
     0
  0
CLASS
  1
MATERIAL
  2
AcDbMaterial
  3
ObjectDBX Classes
 90
     1153
 91
        4
280
     0
281
     0
  0
ENDSEC
  0
SECTION
  2
TABLES
  0
TABLE
  2
VPORT
  5
8
330
0
100
AcDbSymbolTable
 70
     1
  0
VPORT
  5
29
330
8
100
AcDbSymbolTableRecord
100
AcDbViewportTableRecord
  2
*Active
 70
     0
 10
0.0
 20
0.0
 11
1.0
 21
1.0
 12
0.0
 22
0.0
 13
0.0
 23
0.0
 14
10.0
 24
10.0
 15
10.0
 25
10.0
 16
0.0
 26
0.0
 36
1.0
 17
0.0
 27
0.0
 37
0.0
 40
6930.000000000001
 41
1.414285714285714
 42
50.0
 43
0.0
 44
0.0
 50
0.0
 51
0.0
 71
     0
 72
 10000
 73
     1
 74
     3
 75
     0
 76
     0
 77
     0
 78
     0
281
     0
 65
     1
110
0.0
120
0.0
130
0.0
111
1.0
121
0.0
131
0.0
112
0.0
122
1.0
132
0.0
 79
     0
146
0.0
 60
     3
 61
     5
292
     1
282
     1
141
0.0
142
0.0
 63
   250
  0
ENDTAB
  0
TABLE
  2
LTYPE
  5
5
330
0
100
AcDbSymbolTable
 70
     2
  0
LTYPE
  5
14
330
5
100
AcDbSymbolTableRecord
100
AcDbLinetypeTableRecord
  2
ByBlock
 70
     0
  3

 72
    65
 73
     0
 40
0.0
  0
LTYPE
  5
15
330
5
100
AcDbSymbolTableRecord
100
AcDbLinetypeTableRecord
  2
ByLayer
 70
     0
  3

 72
    65
 73
     0
 40
0.0
  0
LTYPE
  5
16
330
5
100
AcDbSymbolTableRecord
100
AcDbLinetypeTableRecord
  2
Continuous
 70
     0
  3
Solid line
 72
    65
 73
     0
 40
0.0
  0
LTYPE
  5
3F
330
5
100
AcDbSymbolTableRecord
100
AcDbLinetypeTableRecord
  2
JWW_DASHED1
 70
     0
  3
-  --  --  --  --  --  --  --  -
 72
    65
 73
     2
 40
1.693333333333333
 49
0.8466666666666667
 74
     0
 49
-0.8466666666666667
 74
     0
  0
ENDTAB
  0
TABLE
  2
LAYER
  5
2
330
0
100
AcDbSymbolTable
 70
     3
  0
LAYER
  5
10
330
2
100
AcDbSymbolTableRecord
100
AcDbLayerTableRecord
  2
0
 70
     0
 62
     7
  6
Continuous
370
    -3
390
F
347
3E
  0
LAYER
  5
40
330
2
100
AcDbSymbolTableRecord
100
AcDbLayerTableRecord
  2
0-0
 70
     0
 62
     7
  6
Continuous
370
    -3
390
F
347
3E
  0
LAYER
  5
41
330
2
100
AcDbSymbolTableRecord
100
AcDbLayerTableRecord
  2
寸法
 70
     0
 62
     7
  6
Continuous
370
    -3
390
F
347
3E
  0
ENDTAB
  0
TABLE
  2
STYLE
  5
3
330
0
100
AcDbSymbolTable
 70
     1
  0
STYLE
  5
11
330
3
100
AcDbSymbolTableRecord
100
AcDbTextStyleTableRecord
  2
Standard
 70
     0
 40
0.0
 41
1.0
 50
0.0
 71
     0
 42
2.5
  3
txt
  4

  0
ENDTAB
  0
TABLE
  2
VIEW
  5
6
330
0
100
AcDbSymbolTable
 70
     0
  0
ENDTAB
  0
TABLE
  2
UCS
  5
7
330
0
100
AcDbSymbolTable
 70
     0
  0
ENDTAB
  0
TABLE
  2
APPID
  5
9
330
0
100
AcDbSymbolTable
 70
     1
  0
APPID
  5
12
330
9
100
AcDbSymbolTableRecord
100
AcDbRegAppTableRecord
  2
ACAD
 70
     0
  0
ENDTAB
  0
TABLE
  2
DIMSTYLE
  5
A
330
0
100
AcDbSymbolTable
 70
     1
100
AcDbDimStyleTable
  0
DIMSTYLE
105
27
330
A
100
AcDbSymbolTableRecord
100
AcDbDimStyleTableRecord
  2
ISO-25
 70
     0
 41
2.5
 42
0.625
 43
3.75
 44
1.25
 73
     0
 74
     0
 77
     1
 78
     8
140
2.5
141
2.5
143
0.03937007874016
147
0.625
171
     3
172
     1
178
     0
271
     2
272
     2
274
     3
278
    44
283
     0
284
     8
340
11
  0
ENDTAB
  0
TABLE
  2
BLOCK_RECORD
  5
1
330
0
100
AcDbSymbolTable
 70
     1
  0
BLOCK_RECORD
  5
1F
330
1
100
AcDbSymbolTableRecord
100
AcDbBlockTableRecord
  2
*Model_Space
340
22
 70
     0
280
     1
281
     0
  0
BLOCK_RECORD
  5
1B
330
1
100
AcDbSymbolTableRecord
100
AcDbBlockTableRecord
  2
*Paper_Space
340
1E
 70
     0
280
     1
281
     0
  0
BLOCK_RECORD
  5
23
330
1
100
AcDbSymbolTableRecord
100
AcDbBlockTableRecord
  2
*Paper_Space0
340
26
 70
     0
280
     1
281
     0
  0
ENDTAB
  0
ENDSEC
  0
SECTION
  2
BLOCKS
  0
BLOCK
  5
20
330
1F
100
AcDbEntity
  8
0
100
AcDbBlockBegin
  2
*Model_Space
 70
     0
 10
0.0
 20
0.0
 30
0.0
  3
*Model_Space
  1

  0
ENDBLK
  5
21
330
1F
100
AcDbEntity
  8
0
100
AcDbBlockEnd
  0
BLOCK
  5
1C
330
1B
100
AcDbEntity
 67
     1
  8
0
100
AcDbBlockBegin
  2
*Paper_Space
 70
     0
 10
0.0
 20
0.0
 30
0.0
  3
*Paper_Space
  1

  0
ENDBLK
  5
1D
330
1B
100
AcDbEntity
 67
     1
  8
0
100
AcDbBlockEnd
  0
BLOCK
  5
24
330
23
100
AcDbEntity
  8
0
100
AcDbBlockBegin
  2
*Paper_Space0
 70
     0
 10
0.0
 20
0.0
 30
0.0
  3
*Paper_Space0
  1

  0
ENDBLK
  5
25
330
23
100
AcDbEntity
  8
0
100
AcDbBlockEnd
  0
ENDSEC
  0
SECTION
  2
ENTITIES
  0
LINE
  5
42
330
1F
100
AcDbEntity
  8
0-0
  6
JWW_DASHED1
 62
   120
370
     5
100
AcDbLine
 10
-262.0513498681609
 20
987.3503889720326
 30
0.0
 11
-259.9767389646034
 21
989.4249998755906
 31
0.0
  0
LINE
  5
43
330
1F
100
AcDbEntity
  8
0-0
  6
JWW_DASHED1
 62
   120
370
     5
100
AcDbLine
 10
-262.0513498681571
 20
980.2793211587515
 30
0.0
 11
-252.9056711513215
 21
989.4249998755868
 31
0.0
  0
LINE
  5
44
330
1F
100
AcDbEntity
  8
0-0
  6
JWW_DASHED1
 62
   120
370
     5
100
AcDbLine
 10
-262.0513498681646
 20
973.2082533455128
 30
0.0
 11
-245.834603338084
 21
989.4249998755936
 31
0.0
  0
LINE
  5
45
330
1F
100
AcDbEntity
  8
0-0
  6
JWW_DASHED1
 62
   120
370
     5
100
AcDbLine
 10
-262.0513498681605
 20
966.1371855322317
 30
0.0
 11
-238.7635355248028
 21
989.4249998755893
 31
0.0
  0
LINE
  5
46
330
1F
100
AcDbEntity
  8
0-0
  6
JWW_DASHED1
 62
   120
370
     5
100
AcDbLine
 10
-262.0513498681564
 20
959.0661177189504
 30
0.0
 11
-231.6924677115195
 21
989.4249998755872
 31
0.0
  0
LINE
  5
47
330
1F
100
AcDbEntity
  8
0-0
  6
JWW_DASHED1
 62
   120
370
     5
100
AcDbLine
 10
-262.0513498681522
 20
951.9950499056688
 30
0.0
 11
-224.6213998982378
 21
989.4249998755834
 31
0.0
  0
LINE
  5
48
330
1F
100
AcDbEntity
  8
0-0
  6
JWW_DASHED1
 62
   120
370
     5
100
AcDbLine
 10
-262.0513498681639
 20
944.9239820923718
 30
0.0
 11
-217.5503320849402
 21
989.4249998755957
 31
0.0
  0
LINE
  5
49
330
1F
100
AcDbEntity
  8
0-0
  6
JWW_DASHED1
 62
   120
370
     5
100
AcDbLine
 10
-262.0513498681598
 20
937.8529142790906
 30
0.0
 11
-210.4792642716586
 21
989.4249998755914
 31
0.0
  0
LINE
  5
4A
330
1F
100
AcDbEntity
  8
0-0
  6
JWW_DASHED1
 62
   120
370
     5
100
AcDbLine
 10
-262.0513498681562
 20
930.7818464658085
 30
0.0
 11
-203.4081964583767
 21
989.424999875588
 31
0.0
  0
LINE
  5
4B
330
1F
100
AcDbEntity
  8
0-0
  6
JWW_DASHED1
 62
   120
370
     5
100
AcDbLine
 10
-262.051349868168
 20
923.7107786525111
 30
0.0
 11
-196.3371286450833
 21
989.4249998755957
 31
0.0
  0
LINE
  5
4C
330
1F
100
AcDbEntity
  8
0-0
  6
JWW_DASHED1
 62
   120
370
     5
100
AcDbLine
 10
-262.0513498681639
 20
916.6397108392299
 30
0.0
 11
-189.2660608318021
 21
989.4249998755914
 31
0.0
  0
LINE
  5
4D
330
1F
100
AcDbEntity
  8
0-0
  6
JWW_DASHED1
 62
   120
370
     5
100
AcDbLine
 10
-262.0513498681556
 20
909.5686430260075
 30
0.0
 11
-182.1949930185746
 21
989.424999875588
 31
0.0
  0
LINE
  5
4E
330
1F
100
AcDbEntity
  8
0-0
  6
JWW_DASHED1
 62
   120
370
     5
100
AcDbLine
 10
-262.0513498681518
 20
902.4975752127255
 30
0.0
 11
-175.1239252052929
 21
989.4249998755843
 31
0.0
  0
LINE
  5
4F
330
1F
100
AcDbEntity
  8
0-0
  6
JWW_DASHED1
 62
   120
370
     5
100
AcDbLine
 10
-262.0513498681626
 20
895.4265073994293
 30
0.0
 11
-168.0528573919955
 21
989.4249998755965
 31
0.0
  0
LINE
  5
50
330
1F
100
AcDbEntity
  8
0-0
  6
JWW_DASHED1
 62
   120
370
     5
100
AcDbLine
 10
-262.0513498681584
 20
888.3554395861481
 30
0.0
 11
-160.9817895787135
 21
989.4249998755927
 31
0.0
  0
LINE
  5
51
330
1F
100
AcDbEntity
  8
0-0
  6
JWW_DASHED1
 62
   120
370
     5
100
AcDbLine
 10
-262.0513498681554
 20
881.2843717728656
 30
0.0
 11
-153.910721765432
 21
989.4249998755889
 31
0.0
  0
LINE
  5
52
330
1F
100
AcDbEntity
  8
0-0
  6
JWW_DASHED1
 62
   120
370
     5
100
AcDbLine
 10
-262.0513498681673
 20
874.2133039595682
 30
0.0
 11
-146.8396539521416
 21
989.424999875594
 31
0.0
  0
LINE
  5
53
330
1F
100
AcDbEntity
  8
0-0
  6
JWW_DASHED1
 62
   120
370
     5
100
AcDbLine
 10
-262.051349868163
 20
867.1422361462869
 30
0.0
 11
-139.7685861388604
 21
989.4249998755897
 31
0.0
  0
LINE
  5
54
330
1F
100
AcDbEntity
  8
0-0
  6
JWW_DASHED1
 62
   120
370
     5
100
AcDbLine
 10
-262.0513498681592
 20
860.0711683330053
 30
0.0
 11
-132.6975183255709
 21
989.4249998755936
 31
0.0
  0
LINE
  5
55
330
1F
100
AcDbEntity
  8
0-0
  6
JWW_DASHED1
 62
   120
370
     5
100
AcDbLine
 10
-262.0513498681552
 20
853.0001005197237
 30
0.0
 11
-125.6264505122891
 21
989.4249998755897
 31
0.0
  0
LINE
  5
56
330
1F
100
AcDbEntity
  8
0-0
  6
JWW_DASHED1
 62
   120
370
     5
100
AcDbLine
 10
-262.0513498681511
 20
845.9290327064424
 30
0.0
 11
-118.5553826990074
 21
989.4249998755859
 31
0.0
  0
LINE
  5
57
330
1F
100
AcDbEntity
  8
0-0
  6
JWW_DASHED1
 62
   120
370
     5
100
AcDbLine
 10
-262.0513498681573
 20
838.8579648932056
 30
0.0
 11
-111.4843148857688
 21
989.424999875594
 31
0.0
  0
LINE
  5
58
330
1F
100
AcDbEntity
  8
0-0
  6
JWW_DASHED1
 62
   120
370
     5
100
AcDbLine
 10
-262.0513498681703
 20
831.7868970799068
 30
0.0
 11
-104.4132470724812
 21
989.4249998755957
 31
0.0
  0
LINE
  5
59
330
1F
100
AcDbEntity
  8
0-0
  6
JWW_DASHED1
 62
   120
370
     5
100
AcDbLine
 10
-262.0513498681664
 20
824.7158292666252
 30
0.0
 11
-97.3421792592
 21
989.4249998755919
 31
0.0
  0
LINE
  5
5A
330
1F
100
AcDbEntity
  8
0-0
  6
JWW_DASHED1
 62
   120
370
     5
100
AcDbLine
 10
-262.0513498681622
 20
817.644761453344
 30
0.0
 11
-90.27111144591856
 21
989.4249998755877
 31
0.0
  0
LINE
  5
5B
330
1F
100
AcDbEntity
  8
0-0
  6
JWW_DASHED1
 62
   120
370
     5
100
AcDbLine
 10
-262.0513498681584
 20
810.5736936400624
 30
0.0
 11
-83.20004363262605
 21
989.4249998755945
 31
0.0
  0
LINE
  5
5C
330
1F
100
AcDbEntity
  8
0-0
  6
JWW_DASHED1
 62
   120
370
     5
100
AcDbLine
 10
-262.0513498681543
 20
803.5026258267807
 30
0.0
 11
-76.12897581934419
 21
989.4249998755911
 31
0.0
  0
LINE
  5
5D
330
1F
100
AcDbEntity
  8
0-0
  6
JWW_DASHED1
 62
   120
370
     5
100
AcDbLine
 10
-262.0513498681503
 20
796.4315580134995
 30
0.0
 11
-69.05790800606276
 21
989.4249998755872
 31
0.0
  0
LINE
  5
5E
330
1F
100
AcDbEntity
  8
0-0
  6
JWW_DASHED1
 62
   120
370
     5
100
AcDbLine
 10
-262.0513498681605
 20
789.3604902002038
 30
0.0
 11
-61.98684019276492
 21
989.4249998755992
 31
0.0
  0
LINE
  5
5F
330
1F
100
AcDbEntity
  8
0-0
  6
JWW_DASHED1
 62
   120
370
     5
100
AcDbLine
 10
-262.0513498681562
 20
782.2894223869225
 30
0.0
 11
-54.91577237948327
 21
989.4249998755953
 31
0.0
  0
LINE
  5
60
330
1F
100
AcDbEntity
  8
0-0
  6
JWW_DASHED1
 62
   120
370
     5
100
AcDbLine
 10
-262.0513498681656
 20
775.2183545736823
 30
0.0
 11
-47.84470456625812
 21
989.4249998755897
 31
0.0
  0
LINE
  5
61
330
1F
100
AcDbEntity
  8
0-0
  6
JWW_DASHED1
 62
   120
370
     5
100
AcDbLine
 10
-262.0513498681613
 20
768.147286760401
 30
0.0
 11
-40.77363675297669
 21
989.4249998755855
 31
0.0
  0
LINE
  5
62
330
1F
100
AcDbEntity
  8
0-0
  6
JWW_DASHED1
 62
   120
370
     5
100
AcDbLine
 10
-262.0513498681575
 20
761.0762189471194
 30
0.0
 11
-33.70256893968097
 21
989.4249998755957
 31
0.0
  0
LINE
  5
63
330
1F
100
AcDbEntity
  8
0-0
  6
JWW_DASHED1
 62
   120
370
     5
100
AcDbLine
 10
-262.0513498681532
 20
754.0051511338381
 30
0.0
 11
-26.63150112639933
 21
989.4249998755919
 31
0.0
  0
LINE
  5
64
330
1F
100
AcDbEntity
  8
0-0
  6
JWW_DASHED1
 62
   120
370
     5
100
AcDbLine
 10
-262.0513498681632
 20
746.9340833205429
 30
0.0
 11
-19.56043331310191
 21
989.4249998756038
 31
0.0
  0
LINE
  5
65
330
1F
100
AcDbEntity
  8
0-0
  6
JWW_DASHED1
 62
   120
370
     5
100
AcDbLine
 10
-262.051349868159
 20
739.8630155072617
 30
0.0
 11
-12.48936549982027
 21
989.4249998756
 31
0.0
  0
LINE
  5
66
330
1F
100
AcDbEntity
  8
0-0
  6
JWW_DASHED1
 62
   120
370
     5
100
AcDbLine
 10
-262.0513498681573
 20
732.7919476939779
 30
0.0
 11
-12.05134986816553
 21
982.7919476939692
 31
0.0
  0
LINE
  5
67
330
1F
100
AcDbEntity
  8
0-0
  6
JWW_DASHED1
 62
   120
370
     5
100
AcDbLine
 10
-262.051349868169
 20
725.7208798806805
 30
0.0
 11
-12.05134986816148
 21
975.720879880688
 31
0.0
  0
LINE
  5
68
330
1F
100
AcDbEntity
  8
0-0
  6
JWW_DASHED1
 62
   120
370
     5
100
AcDbLine
 10
-262.0513498681649
 20
718.6498120673992
 30
0.0
 11
-12.05134986815764
 21
968.6498120674064
 31
0.0
  0
LINE
  5
69
330
1F
100
AcDbEntity
  8
0-0
  6
JWW_DASHED1
 62
   120
370
     5
100
AcDbLine
 10
-262.0513498681609
 20
711.5787442541172
 30
0.0
 11
-12.05134986815359
 21
961.5787442541251
 31
0.0
  0
LINE
  5
6A
330
1F
100
AcDbEntity
  8
0-0
  6
JWW_DASHED1
 62
   120
370
     5
100
AcDbLine
 10
-262.0513498681526
 20
704.5076764408948
 30
0.0
 11
-12.05134986816084
 21
954.5076764408866
 31
0.0
  0
LINE
  5
6B
330
1F
100
AcDbEntity
  8
0-0
  6
JWW_DASHED1
 62
   120
370
     5
100
AcDbLine
 10
-262.051349868162
 20
697.4366086276
 30
0.0
 11
-12.05134986817235
 21
947.43660862759
 31
0.0
  0
LINE
  5
6C
330
1F
100
AcDbEntity
  8
0-0
  6
JWW_DASHED1
 62
   120
370
     5
100
AcDbLine
 10
-262.0513498681579
 20
690.3655408143187
 30
0.0
 11
-12.05134986816851
 21
940.3655408143079
 31
0.0
  0
LINE
  5
6D
330
1F
100
AcDbEntity
  8
0-0
  6
JWW_DASHED1
 62
   120
370
     5
100
AcDbLine
 10
-262.0513498681564
 20
683.2944730010349
 30
0.0
 11
-12.05134986816489
 21
933.2944730010263
 31
0.0
  0
LINE
  5
6E
330
1F
100
AcDbEntity
  8
0-0
  6
JWW_DASHED1
 62
   120
370
     5
100
AcDbLine
 10
-262.0513498681681
 20
676.2234051877375
 30
0.0
 11
-12.05134986816063
 21
926.2234051877451
 31
0.0
  0
LINE
  5
6F
330
1F
100
AcDbEntity
  8
0-0
  6
JWW_DASHED1
 62
   120
370
     5
100
AcDbLine
 10
-262.0513498681641
 20
669.1523373744559
 30
0.0
 11
-12.05134986815679
 21
919.1523373744634
 31
0.0
  0
LINE
  5
70
330
1F
100
AcDbEntity
  8
0-0
  6
JWW_DASHED1
 62
   120
370
     5
100
AcDbLine
 10
-262.0513498681601
 20
662.0812695611743
 30
0.0
 11
-12.05134986816851
 21
912.081269561166
 31
0.0
  0
LINE
  5
71
330
1F
100
AcDbEntity
  8
0-0
  6
JWW_DASHED1
 62
   120
370
     5
100
AcDbLine
 10
-262.051349868156
 20
655.010201747893
 30
0.0
 11
-12.05134986816468
 21
905.0102017478848
 31
0.0
  0
LINE
  5
72
330
1F
100
AcDbEntity
  8
0-0
  6
JWW_DASHED1
 62
   120
370
     5
100
AcDbLine
 10
77.94865013184705
 20
987.9391339346108
 30
0.0
 11
79.43451607282022
 21
989.4249998755838
 31
0.0
  0
LINE
  5
73
330
1F
100
AcDbEntity
  8
0-0
  6
JWW_DASHED1
 62
   120
370
     5
100
AcDbLine
 10
-262.0513498681522
 20
647.9391339346118
 30
0.0
 11
-12.05134986816041
 21
897.9391339346032
 31
0.0
  0
LINE
  5
74
330
1F
100
AcDbEntity
  8
0-0
  6
JWW_DASHED1
 62
   120
370
     5
100
AcDbLine
 10
77.9486501318398
 20
980.8680661213726
 30
0.0
 11
86.50558388605859
 21
989.4249998755914
 31
0.0
  0
LINE
  5
75
330
1F
100
AcDbEntity
  8
0-0
  6
JWW_DASHED1
 62
   120
370
     5
100
AcDbLine
 10
-262.0513498681566
 20
640.8680661213762
 30
0.0
 11
-12.05134986816724
 21
890.8680661213658
 31
0.0
  0
LINE
  5
76
330
1F
100
AcDbEntity
  8
0-0
  6
JWW_DASHED1
 62
   120
370
     5
100
AcDbLine
 10
77.94865013182765
 20
973.7969983080748
 30
0.0
 11
93.57665169935494
 21
989.4249998756026
 31
0.0
  0
LINE
  5
77
330
1F
100
AcDbEntity
  8
0-0
  6
JWW_DASHED1
 62
   120
370
     5
100
AcDbLine
 10
-262.0513498681714
 20
633.7969983080758
 30
0.0
 11
-12.05134986816383
 21
883.7969983080834
 31
0.0
  0
LINE
  5
78
330
1F
100
AcDbEntity
  8
0-0
  6
JWW_DASHED1
 62
   120
370
     5
100
AcDbLine
 10
77.94865013183191
 20
966.7259304947936
 30
0.0
 11
100.6477195126364
 21
989.4249998755982
 31
0.0
  0
LINE
  5
79
330
1F
100
AcDbEntity
  8
0-0
  6
JWW_DASHED1
 62
   120
370
     5
100
AcDbLine
 10
-262.0513498681673
 20
626.7259304947946
 30
0.0
 11
-12.05134986815999
 21
876.7259304948021
 31
0.0
  0
LINE
  5
7A
330
1F
100
AcDbEntity
  8
0-0
  6
JWW_DASHED1
 62
   120
370
     5
100
AcDbLine
 10
77.94865013183575
 20
959.654862681512
 30
0.0
 11
107.7187873259195
 21
989.4249998755957
 31
0.0
  0
LINE
  5
7B
330
1F
100
AcDbEntity
  8
0-0
  6
JWW_DASHED1
 62
   120
370
     5
100
AcDbLine
 10
-262.0513498681632
 20
619.6548626815129
 30
0.0
 11
-12.05134986815594
 21
869.6548626815205
 31
0.0
  0
LINE
  5
7C
330
1F
100
AcDbEntity
  8
0-0
  6
JWW_DASHED1
 62
   120
370
     5
100
AcDbLine
 10
77.9486501318398
 20
952.5837948682307
 30
0.0
 11
114.7898551392014
 21
989.4249998755923
 31
0.0
  0
LINE
  5
7D
330
1F
100
AcDbEntity
  8
0-0
  6
JWW_DASHED1
 62
   120
370
     5
100
AcDbLine
 10
-262.0513498681594
 20
612.5837948682313
 30
0.0
 11
-12.05134986816766
 21
862.5837948682231
 31
0.0
  0
LINE
  5
7E
330
1F
100
AcDbEntity
  8
0-0
  6
JWW_DASHED1
 62
   120
370
     5
100
AcDbLine
 10
77.94865013184385
 20
945.5127270549491
 30
0.0
 11
121.8609229524828
 21
989.4249998755885
 31
0.0
  0
LINE
  5
7F
330
1F
100
AcDbEntity
  8
0-0
  6
JWW_DASHED1
 62
   120
370
     5
100
AcDbLine
 10
-262.0513498681552
 20
605.5127270549501
 30
0.0
 11
-12.05134986816383
 21
855.5127270549418
 31
0.0
  0
LINE
  5
80
330
1F
100
AcDbEntity
  8
0-0
  6
JWW_DASHED1
 62
   120
370
     5
100
AcDbLine
 10
77.9486501318479
 20
938.4416592416678
 30
0.0
 11
128.9319907657647
 21
989.4249998755846
 31
0.0
  0
LINE
  5
81
330
1F
100
AcDbEntity
  8
0-0
  6
JWW_DASHED1
 62
   120
370
     5
100
AcDbLine
 10
-262.0513498681513
 20
598.4416592416688
 30
0.0
 11
-12.05134986815956
 21
848.4416592416602
 31
0.0
  0
LINE
  5
82
330
1F
100
AcDbEntity
  8
0-0
  6
JWW_DASHED1
 62
   120
370
     5
100
AcDbLine
 10
77.9486501318366
 20
931.3705914283709
 30
0.0
 11
136.0030585790623
 21
989.4249998755965
 31
0.0
  0
LINE
  5
83
330
1F
100
AcDbEntity
  8
0-0
  6
JWW_DASHED1
 62
   120
370
     5
100
AcDbLine
 10
-262.0513498681598
 20
591.3705914283748
 30
0.0
 11
-12.05134986817022
 21
841.370591428364
 31
0.0
  0
LINE
  5
84
330
1F
100
AcDbEntity
  8
0-0
  6
JWW_DASHED1
 62
   120
370
     5
100
AcDbLine
 10
77.94865013182466
 20
924.2995236150734
 30
0.0
 11
143.0741263923554
 21
989.4249998756047
 31
0.0
  0
LINE
  5
85
330
1F
100
AcDbEntity
  8
0-0
  6
JWW_DASHED1
 62
   120
370
     5
100
AcDbLine
 10
-262.0513498681556
 20
584.2995236150932
 30
0.0
 11
-12.05134986816596
 21
834.2995236150829
 31
0.0
  0
LINE
  5
86
330
1F
100
AcDbEntity
  8
0-0
  6
JWW_DASHED1
 62
   120
370
     5
100
AcDbLine
 10
77.94865013183255
 20
917.2284558018507
 30
0.0
 11
150.1451942055783
 21
989.4249998755961
 31
0.0
  0
LINE
  5
87
330
1F
100
AcDbEntity
  8
0-0
  6
JWW_DASHED1
 62
   120
370
     5
100
AcDbLine
 10
-262.0513498681664
 20
577.2284558018516
 30
0.0
 11
-12.05134986815892
 21
827.2284558018588
 31
0.0
  0
LINE
  5
88
330
1F
100
AcDbEntity
  8
0-0
  6
JWW_DASHED1
 62
   120
370
     5
100
AcDbLine
 10
77.9486501318366
 20
910.157387988569
 30
0.0
 11
157.2162620188641
 21
989.4249998755965
 31
0.0
  0
LINE
  5
89
330
1F
100
AcDbEntity
  8
0-0
  6
JWW_DASHED1
 62
   120
370
     5
100
AcDbLine
 10
-262.0513498681624
 20
570.1573879885705
 30
0.0
 11
-12.05134986815509
 21
820.1573879885775
 31
0.0
  0
LINE
  5
8A
330
1F
100
AcDbEntity
  8
0-0
  6
JWW_DASHED1
 62
   120
370
     5
100
AcDbLine
 10
77.94865013184086
 20
903.0863201752878
 30
0.0
 11
164.2873298321458
 21
989.4249998755931
 31
0.0
  0
LINE
  5
8B
330
1F
100
AcDbEntity
  8
0-0
  6
JWW_DASHED1
 62
   120
370
     5
100
AcDbLine
 10
-262.0513498681586
 20
563.0863201752884
 30
0.0
 11
-12.05134986816681
 21
813.0863201752801
 31
0.0
  0
LINE
  5
8C
330
1F
100
AcDbEntity
  8
0-0
  6
JWW_DASHED1
 62
   120
370
     5
100
AcDbLine
 10
77.9486501318447
 20
896.0152523620061
 30
0.0
 11
171.3583976454277
 21
989.4249998755893
 31
0.0
  0
LINE
  5
8D
330
1F
100
AcDbEntity
  8
0-0
  6
JWW_DASHED1
 62
   120
370
     5
100
AcDbLine
 10
-262.0513498681545
 20
556.0152523620071
 30
0.0
 11
-12.05134986816276
 21
806.0152523619989
 31
0.0
  0
LINE
  5
8E
330
1F
100
AcDbEntity
  8
0-0
  6
JWW_DASHED1
 62
   120
370
     5
100
AcDbLine
 10
77.94865013183383
 20
888.94418454871
 30
0.0
 11
178.4294654587253
 21
989.4249998756013
 31
0.0
  0
LINE
  5
8F
330
1F
100
AcDbEntity
  8
0-0
  6
JWW_DASHED1
 62
   120
370
     5
100
AcDbLine
 10
-262.0513498681626
 20
548.9441845487136
 30
0.0
 11
-12.05134986817299
 21
798.9441845487032
 31
0.0
  0
LINE
  5
90
330
1F
100
AcDbEntity
  8
0-0
  6
JWW_DASHED1
 62
   120
370
     5
100
AcDbLine
 10
77.94865013183767
 20
881.8731167354283
 30
0.0
 11
185.5005332720068
 21
989.4249998755975
 31
0.0
  0
LINE
  5
91
330
1F
100
AcDbEntity
  8
0-0
  6
JWW_DASHED1
 62
   120
370
     5
100
AcDbLine
 10
-262.0513498681586
 20
541.873116735432
 30
0.0
 11
-12.05134986816915
 21
791.8731167354215
 31
0.0
  0
LINE
  5
92
330
1F
100
AcDbEntity
  8
0-0
  6
JWW_DASHED1
 62
   120
370
     5
100
AcDbLine
 10
77.94865013182509
 20
874.8020489221306
 30
0.0
 11
192.5716010852972
 21
989.4249998756026
 31
0.0
  0
LINE
  5
93
330
1F
100
AcDbEntity
  8
0-0
  6
JWW_DASHED1
 62
   120
370
     5
100
AcDbLine
 10
-262.0513498681584
 20
534.8020489221469
 30
0.0
 11
-12.05134986816681
 21
784.8020489221382
 31
0.0
  0
LINE
  5
94
330
1F
100
AcDbEntity
  8
0-0
  6
JWW_DASHED1
 62
   120
370
     5
100
AcDbLine
 10
77.94865013182914
 20
867.7309811088489
 30
0.0
 11
199.6426688985783
 21
989.4249998755979
 31
0.0
  0
LINE
  5
95
330
1F
100
AcDbEntity
  8
0-0
  6
JWW_DASHED1
 62
   120
370
     5
100
AcDbLine
 10
-262.0513498681701
 20
527.7309811088498
 30
0.0
 11
-12.05134986816255
 21
777.730981108857
 31
0.0
  0
LINE
  5
96
330
1F
100
AcDbEntity
  8
0-0
  6
JWW_DASHED1
 62
   120
370
     5
100
AcDbLine
 10
77.94865013183319
 20
860.6599132955672
 30
0.0
 11
206.7137367118598
 21
989.424999875594
 31
0.0
  0
LINE
  5
97
330
1F
100
AcDbEntity
  8
0-0
  6
JWW_DASHED1
 62
   120
370
     5
100
AcDbLine
 10
-262.051349868166
 20
520.6599132955682
 30
0.0
 11
-12.05134986815871
 21
770.6599132955757
 31
0.0
  0
LINE
  5
98
330
1F
100
AcDbEntity
  8
0-0
  6
JWW_DASHED1
 62
   120
370
     5
100
AcDbLine
 10
77.94865013183703
 20
853.588845482286
 30
0.0
 11
213.7848045251495
 21
989.4249998755982
 31
0.0
  0
LINE
  5
99
330
1F
100
AcDbEntity
  8
0-0
  6
JWW_DASHED1
 62
   120
370
     5
100
AcDbLine
 10
-262.051349868162
 20
513.5888454822866
 30
0.0
 11
-12.05134986815445
 21
763.5888454822946
 31
0.0
  0
LINE
  5
9A
330
1F
100
AcDbEntity
  8
0-0
  6
JWW_DASHED1
 62
   120
370
     5
100
AcDbLine
 10
77.94865013184555
 20
846.5177776690632
 30
0.0
 11
220.8558723383725
 21
989.4249998755902
 31
0.0
  0
LINE
  5
9B
330
1F
100
AcDbEntity
  8
0-0
  6
JWW_DASHED1
 62
   120
370
     5
100
AcDbLine
 10
-262.0513498681537
 20
506.5177776690642
 30
0.0
 11
-12.05134986816212
 21
756.5177776690559
 31
0.0
  0
LINE
  5
9C
330
1F
100
AcDbEntity
  8
0-0
  6
JWW_DASHED1
 62
   120
370
     5
100
AcDbLine
 10
77.9486501318349
 20
839.446709855767
 30
0.0
 11
227.9269401516697
 21
989.4249998756021
 31
0.0
  0
LINE
  5
9D
330
1F
100
AcDbEntity
  8
0-0
  6
JWW_DASHED1
 62
   120
370
     5
100
AcDbLine
 10
-262.0513498681613
 20
499.446709855771
 30
0.0
 11
-12.05134986817193
 21
749.4467098557602
 31
0.0
  0
LINE
  5
9E
330
1F
100
AcDbEntity
  8
0-0
  6
JWW_DASHED1
 62
   120
370
     5
100
AcDbLine
 10
77.94865013183916
 20
832.3756420424859
 30
0.0
 11
234.9980079649516
 21
989.4249998755982
 31
0.0
  0
LINE
  5
9F
330
1F
100
AcDbEntity
  8
0-0
  6
JWW_DASHED1
 62
   120
370
     5
100
AcDbLine
 10
-262.0513498681573
 20
492.3756420424899
 30
0.0
 11
-12.05134986816766
 21
742.3756420424791
 31
0.0
  0
LINE
  5
A0
330
1F
100
AcDbEntity
  8
0-0
  6
JWW_DASHED1
 62
   120
370
     5
100
AcDbLine
 10
77.94865013182594
 20
825.3045742291876
 30
0.0
 11
242.0690757782387
 21
989.4249998756
 31
0.0
  0
LINE
  5
A1
330
1F
100
AcDbEntity
  8
0-0
  6
JWW_DASHED1
 62
   120
370
     5
100
AcDbLine
 10
-262.0513498681575
 20
485.3045742292039
 30
0.0
 11
-12.05134986816596
 21
735.3045742291953
 31
0.0
  0
LINE
  5
A2
330
1F
100
AcDbEntity
  8
0-0
  6
JWW_DASHED1
 62
   120
370
     5
100
AcDbLine
 10
77.94865013183
 20
818.2335064159059
 30
0.0
 11
249.14014359152
 21
989.4249998755957
 31
0.0
  0
LINE
  5
A3
330
1F
100
AcDbEntity
  8
0-0
  6
JWW_DASHED1
 62
   120
370
     5
100
AcDbLine
 10
-262.0513498681692
 20
478.233506415907
 30
0.0
 11
-12.05134986816169
 21
728.233506415914
 31
0.0
  0
LINE
  5
A4
330
1F
100
AcDbEntity
  8
0-0
  6
JWW_DASHED1
 62
   120
370
     5
100
AcDbLine
 10
77.94865013183404
 20
811.1624386026243
 30
0.0
 11
256.2112114048012
 21
989.4249998755914
 31
0.0
  0
LINE
  5
A5
330
1F
100
AcDbEntity
  8
0-0
  6
JWW_DASHED1
 62
   120
370
     5
100
AcDbLine
 10
-262.0513498681649
 20
471.1624386026253
 30
0.0
 11
-12.05134986815786
 21
721.1624386026328
 31
0.0
  0
LINE
  5
A6
330
1F
100
AcDbEntity
  8
0-0
  6
JWW_DASHED1
 62
   120
370
     5
100
AcDbLine
 10
77.9486501318381
 20
804.091370789343
 30
0.0
 11
263.2822792180942
 21
989.4249998755992
 31
0.0
  0
LINE
  5
A7
330
1F
100
AcDbEntity
  8
0-0
  6
JWW_DASHED1
 62
   120
370
     5
100
AcDbLine
 10
-262.0513498681611
 20
464.0913707893436
 30
0.0
 11
-12.05134986816958
 21
714.0913707893354
 31
0.0
  0
LINE
  5
A8
330
1F
100
AcDbEntity
  8
0-0
  6
JWW_DASHED1
 62
   120
370
     5
100
AcDbLine
 10
77.94865013184193
 20
797.0203029760614
 30
0.0
 11
270.3533470313759
 21
989.4249998755953
 31
0.0
  0
LINE
  5
A9
330
1F
100
AcDbEntity
  8
0-0
  6
JWW_DASHED1
 62
   120
370
     5
100
AcDbLine
 10
-262.0513498681571
 20
457.0203029760625
 30
0.0
 11
-12.05134986816553
 21
707.0203029760542
 31
0.0
  0
LINE
  5
AA
330
1F
100
AcDbEntity
  8
0-0
  6
JWW_DASHED1
 62
   120
370
     5
100
AcDbLine
 10
77.94865013184598
 20
789.9492351627798
 30
0.0
 11
277.4244148446577
 21
989.4249998755914
 31
0.0
  0
LINE
  5
AB
330
1F
100
AcDbEntity
  8
0-0
  6
JWW_DASHED1
 62
   120
370
     5
100
AcDbLine
 10
-262.051349868153
 20
449.9492351627812
 30
0.0
 11
-12.05134986816148
 21
699.9492351627725
 31
0.0
  0
LINE
  5
AC
330
1F
100
AcDbEntity
  8
0-0
  6
JWW_DASHED1
 62
   120
370
     5
100
AcDbLine
 10
77.94865013184022
 20
782.8781673495433
 30
0.0
 11
284.4954826578964
 21
989.4249998755995
 31
0.0
  0
LINE
  5
AD
330
1F
100
AcDbEntity
  8
0-0
  6
JWW_DASHED1
 62
   120
370
     5
100
AcDbLine
 10
-262.051349868156
 20
442.8781673495469
 30
0.0
 11
-12.0513498681666
 21
692.8781673495365
 31
0.0
  0
LINE
  5
AE
330
1F
100
AcDbEntity
  8
0-0
  6
JWW_DASHED1
 62
   120
370
     5
100
AcDbLine
 10
77.9486501318268
 20
775.8070995362442
 30
0.0
 11
291.5665504711802
 21
989.4249998755979
 31
0.0
  0
LINE
  5
AF
330
1F
100
AcDbEntity
  8
0-0
  6
JWW_DASHED1
 62
   120
370
     5
100
AcDbLine
 10
-262.0513498681722
 20
435.8070995362452
 30
0.0
 11
-12.0513498681651
 21
685.8070995362523
 31
0.0
  0
LINE
  5
B0
330
1F
100
AcDbEntity
  8
0-0
  6
JWW_DASHED1
 62
   120
370
     5
100
AcDbLine
 10
77.94865013183085
 20
768.7360317229629
 30
0.0
 11
298.6376182844616
 21
989.4249998755936
 31
0.0
  0
LINE
  5
B1
330
1F
100
AcDbEntity
  8
0-0
  6
JWW_DASHED1
 62
   120
370
     5
100
AcDbLine
 10
-262.0513498681684
 20
428.736031722964
 30
0.0
 11
-12.05134986816084
 21
678.7360317229711
 31
0.0
  0
LINE
  5
B2
330
1F
100
AcDbEntity
  8
0-0
  6
JWW_DASHED1
 62
   120
370
     5
100
AcDbLine
 10
77.9486501318349
 20
761.6649639096813
 30
0.0
 11
305.7086860977572
 21
989.4249998756038
 31
0.0
  0
LINE
  5
B3
330
1F
100
AcDbEntity
  8
0-0
  6
JWW_DASHED1
 62
   120
370
     5
100
AcDbLine
 10
-262.0513498681643
 20
421.6649639096823
 30
0.0
 11
-12.051349868157
 21
671.6649639096898
 31
0.0
  0
LINE
  5
B4
330
1F
100
AcDbEntity
  8
0-0
  6
JWW_DASHED1
 62
   120
370
     5
100
AcDbLine
 10
77.94865013183873
 20
754.5938960964002
 30
0.0
 11
312.7797539110389
 21
989.4249998756
 31
0.0
  0
LINE
  5
B5
330
1F
100
AcDbEntity
  8
0-0
  6
JWW_DASHED1
 62
   120
370
     5
100
AcDbLine
 10
-262.0513498681603
 20
414.5938960964007
 30
0.0
 11
-12.05134986816873
 21
664.5938960963924
 31
0.0
  0
LINE
  5
B6
330
1F
100
AcDbEntity
  8
0-0
  6
JWW_DASHED1
 62
   120
370
     5
100
AcDbLine
 10
77.94865013184278
 20
747.5228282831185
 30
0.0
 11
319.8508217243207
 21
989.4249998755961
 31
0.0
  0
LINE
  5
B7
330
1F
100
AcDbEntity
  8
0-0
  6
JWW_DASHED1
 62
   120
370
     5
100
AcDbLine
 10
-262.0513498681562
 20
407.5228282831195
 30
0.0
 11
-12.05134986816468
 21
657.5228282831113
 31
0.0
  0
LINE
  5
B8
330
1F
100
AcDbEntity
  8
0-0
  6
JWW_DASHED1
 62
   120
370
     5
100
AcDbLine
 10
77.94865013184683
 20
740.4517604698368
 30
0.0
 11
326.9218895376022
 21
989.4249998755923
 31
0.0
  0
LINE
  5
B9
330
1F
100
AcDbEntity
  8
0-0
  6
JWW_DASHED1
 62
   120
370
     5
100
AcDbLine
 10
-262.0513498681522
 20
400.4517604698383
 30
0.0
 11
-12.05134986816063
 21
650.4517604698297
 31
0.0
  0
LINE
  5
BA
330
1F
100
AcDbEntity
  8
0-0
  6
JWW_DASHED1
 62
   120
370
     5
100
AcDbLine
 10
77.94865013183724
 20
733.380692656542
 30
0.0
 11
327.9486501318259
 21
983.3806926565303
 31
0.0
  0
LINE
  5
BB
330
1F
100
AcDbEntity
  8
0-0
  6
JWW_DASHED1
 62
   120
370
     5
100
AcDbLine
 10
-262.0513498681592
 20
393.3806926565455
 30
0.0
 11
-12.05134986816958
 21
643.3806926565352
 31
0.0
  0
LINE
  5
BC
330
1F
100
AcDbEntity
  8
0-0
  6
JWW_DASHED1
 62
   120
370
     5
100
AcDbLine
 10
77.94865013182552
 20
726.3096248432446
 30
0.0
 11
327.9486501318299
 21
976.3096248432491
 31
0.0
  0
LINE
  5
BD
330
1F
100
AcDbEntity
  8
0-0
  6
JWW_DASHED1
 62
   120
370
     5
100
AcDbLine
 10
-262.0513498681549
 20
386.3096248432643
 30
0.0
 11
-12.05134986816553
 21
636.3096248432539
 31
0.0
  0
LINE
  5
BE
330
1F
100
AcDbEntity
  8
0-0
  6
JWW_DASHED1
 62
   120
370
     5
100
AcDbLine
 10
77.94865013182722
 20
719.2385570299608
 30
0.0
 11
327.9486501318338
 21
969.2385570299675
 31
0.0
  0
LINE
  5
BF
330
1F
100
AcDbEntity
  8
0-0
  6
JWW_DASHED1
 62
   120
370
     5
100
AcDbLine
 10
-262.051349868172
 20
379.2385570299618
 30
0.0
 11
-12.05134986816446
 21
629.2385570299693
 31
0.0
  0
LINE
  5
C0
330
1F
100
AcDbEntity
  8
0-0
  6
JWW_DASHED1
 62
   120
370
     5
100
AcDbLine
 10
77.94865013183554
 20
712.1674892167384
 30
0.0
 11
327.9486501318262
 21
962.1674892167289
 31
0.0
  0
LINE
  5
C1
330
1F
100
AcDbEntity
  8
0-0
  6
JWW_DASHED1
 62
   120
370
     5
100
AcDbLine
 10
-262.0513498681635
 20
372.1674892167394
 30
0.0
 11
-12.05134986815615
 21
622.167489216747
 31
0.0
  0
LINE
  5
C2
330
1F
100
AcDbEntity
  8
0-0
  6
JWW_DASHED1
 62
   120
370
     5
100
AcDbLine
 10
77.9486501318398
 20
705.0964214034572
 30
0.0
 11
327.9486501318304
 21
955.0964214034477
 31
0.0
  0
LINE
  5
C3
330
1F
100
AcDbEntity
  8
0-0
  6
JWW_DASHED1
 62
   120
370
     5
100
AcDbLine
 10
-262.0513498681594
 20
365.0964214034577
 30
0.0
 11
-12.05134986816788
 21
615.0964214034495
 31
0.0
  0
LINE
  5
C4
330
1F
100
AcDbEntity
  8
0-0
  6
JWW_DASHED1
 62
   120
370
     5
100
AcDbLine
 10
77.94865013184364
 20
698.0253535901755
 30
0.0
 11
327.9486501318343
 21
948.025353590166
 31
0.0
  0
LINE
  5
C5
330
1F
100
AcDbEntity
  8
0-0
  6
JWW_DASHED1
 62
   120
370
     5
100
AcDbLine
 10
-262.0513498681554
 20
358.0253535901766
 30
0.0
 11
-12.05134986816383
 21
608.0253535901683
 31
0.0
  0
LINE
  5
C6
330
1F
100
AcDbEntity
  8
0-0
  6
JWW_DASHED1
 62
   120
370
     5
100
AcDbLine
 10
77.94865013183426
 20
690.9542857768806
 30
0.0
 11
327.948650131823
 21
940.9542857768695
 31
0.0
  0
LINE
  5
C7
330
1F
100
AcDbEntity
  8
0-0
  6
JWW_DASHED1
 62
   120
370
     5
100
AcDbLine
 10
-262.051349868162
 20
350.9542857768843
 30
0.0
 11
-12.05134986817257
 21
600.9542857768738
 31
0.0
  0
LINE
  5
C8
330
1F
100
AcDbEntity
  8
0-0
  6
JWW_DASHED1
 62
   120
370
     5
100
AcDbLine
 10
77.94865013183852
 20
683.883217963599
 30
0.0
 11
327.948650131827
 21
933.8832179635879
 31
0.0
  0
LINE
  5
C9
330
1F
100
AcDbEntity
  8
0-0
  6
JWW_DASHED1
 62
   120
370
     5
100
AcDbLine
 10
-262.0513498681579
 20
343.883217963603
 30
0.0
 11
-12.0513498681683
 21
593.8832179635926
 31
0.0
  0
LINE
  5
CA
330
1F
100
AcDbEntity
  8
0-0
  6
JWW_DASHED1
 62
   120
370
     5
100
AcDbLine
 10
77.94865013182402
 20
676.8121501502991
 30
0.0
 11
327.9486501318306
 21
926.8121501503061
 31
0.0
  0
LINE
  5
CB
330
1F
100
AcDbEntity
  8
0-0
  6
JWW_DASHED1
 62
   120
370
     5
100
AcDbLine
 10
-262.0513498681594
 20
336.8121501503158
 30
0.0
 11
-12.05134986816766
 21
586.8121501503076
 31
0.0
  0
LINE
  5
CC
330
1F
100
AcDbEntity
  8
0-0
  6
JWW_DASHED1
 62
   120
370
     5
100
AcDbLine
 10
77.94865013182807
 20
669.7410823370178
 30
0.0
 11
327.9486501318347
 21
919.7410823370245
 31
0.0
  0
LINE
  5
CD
330
1F
100
AcDbEntity
  8
0-0
  6
JWW_DASHED1
 62
   120
370
     5
100
AcDbLine
 10
-262.0513498681711
 20
329.7410823370188
 30
0.0
 11
-12.05134986816361
 21
579.7410823370263
 31
0.0
  0
LINE
  5
CE
330
1F
100
AcDbEntity
  8
0-0
  6
JWW_DASHED1
 62
   120
370
     5
100
AcDbLine
 10
77.94865013183212
 20
662.6700145237367
 30
0.0
 11
327.9486501318387
 21
912.6700145237429
 31
0.0
  0
LINE
  5
CF
330
1F
100
AcDbEntity
  8
0-0
  6
JWW_DASHED1
 62
   120
370
     5
100
AcDbLine
 10
-262.0513498681671
 20
322.6700145237372
 30
0.0
 11
-12.05134986815956
 21
572.6700145237447
 31
0.0
  0
LINE
  5
D0
330
1F
100
AcDbEntity
  8
0-0
  6
JWW_DASHED1
 62
   120
370
     5
100
AcDbLine
 10
77.94865013183617
 20
655.5989467104554
 30
0.0
 11
327.9486501318269
 21
905.598946710446
 31
0.0
  0
LINE
  5
D1
330
1F
100
AcDbEntity
  8
0-0
  6
JWW_DASHED1
 62
   120
370
     5
100
AcDbLine
 10
-262.051349868163
 20
315.5989467104559
 30
0.0
 11
-12.05134986815551
 21
565.5989467104635
 31
0.0
  0
LINE
  5
D2
330
1F
100
AcDbEntity
  8
0-0
  6
JWW_DASHED1
 62
   120
370
     5
100
AcDbLine
 10
77.94865013184449
 20
648.5278788972325
 30
0.0
 11
327.9486501318352
 21
898.5278788972231
 31
0.0
  0
LINE
  5
D3
330
1F
100
AcDbEntity
  8
0-0
  6
JWW_DASHED1
 62
   120
370
     5
100
AcDbLine
 10
-262.0513498681547
 20
308.5278788972336
 30
0.0
 11
-12.05134986816297
 21
558.5278788972249
 31
0.0
  0
LINE
  5
D4
330
1F
100
AcDbEntity
  8
0-0
  6
JWW_DASHED1
 62
   120
370
     5
100
AcDbLine
 10
77.94865013183554
 20
641.4568110839382
 30
0.0
 11
327.9486501318243
 21
891.4568110839269
 31
0.0
  0
LINE
  5
D5
330
1F
100
AcDbEntity
  8
0-0
  6
JWW_DASHED1
 62
   120
370
     5
100
AcDbLine
 10
-262.0513498681609
 20
301.4568110839417
 30
0.0
 11
-12.05134986817129
 21
551.4568110839314
 31
0.0
  0
LINE
  5
D6
330
1F
100
AcDbEntity
  8
0-0
  6
JWW_DASHED1
 62
   120
370
     5
100
AcDbLine
 10
77.94865013183959
 20
634.3857432706569
 30
0.0
 11
327.9486501318283
 21
884.3857432706453
 31
0.0
  0
LINE
  5
D7
330
1F
100
AcDbEntity
  8
0-0
  6
JWW_DASHED1
 62
   120
370
     5
100
AcDbLine
 10
-262.0513498681566
 20
294.3857432706605
 30
0.0
 11
-12.05134986816724
 21
544.3857432706501
 31
0.0
  0
LINE
  5
D8
330
1F
100
AcDbEntity
  8
0-0
  6
JWW_DASHED1
 62
   120
370
     5
100
AcDbLine
 10
77.94865013182488
 20
627.3146754573561
 30
0.0
 11
327.9486501318315
 21
877.3146754573633
 31
0.0
  0
LINE
  5
D9
330
1F
100
AcDbEntity
  8
0-0
  6
JWW_DASHED1
 62
   120
370
     5
100
AcDbLine
 10
-262.0513498681586
 20
287.3146754573729
 30
0.0
 11
-12.05134986816681
 21
537.3146754573646
 31
0.0
  0
LINE
  5
DA
330
1F
100
AcDbEntity
  8
0-0
  6
JWW_DASHED1
 62
   120
370
     5
100
AcDbLine
 10
77.94865013182893
 20
620.2436076440749
 30
0.0
 11
327.9486501318353
 21
870.2436076440815
 31
0.0
  0
LINE
  5
DB
330
1F
100
AcDbEntity
  8
0-0
  6
JWW_DASHED1
 62
   120
370
     5
100
AcDbLine
 10
-262.0513498681703
 20
280.2436076440759
 30
0.0
 11
-12.05134986816276
 21
530.2436076440835
 31
0.0
  0
LINE
  5
DC
330
1F
100
AcDbEntity
  8
0-0
  6
JWW_DASHED1
 62
   120
370
     5
100
AcDbLine
 10
77.94865013183276
 20
613.1725398307937
 30
0.0
 11
327.9486501318395
 21
863.1725398307999
 31
0.0
  0
LINE
  5
DD
330
1F
100
AcDbEntity
  8
0-0
  6
JWW_DASHED1
 62
   120
370
     5
100
AcDbLine
 10
-262.0513498681664
 20
273.1725398307942
 30
0.0
 11
-12.05134986815892
 21
523.1725398308017
 31
0.0
  0
LINE
  5
DE
330
1F
100
AcDbEntity
  8
0-0
  6
JWW_DASHED1
 62
   120
370
     5
100
AcDbLine
 10
77.94865013183681
 20
606.101472017512
 30
0.0
 11
327.9486501318277
 21
856.1014720175029
 31
0.0
  0
LINE
  5
DF
330
1F
100
AcDbEntity
  8
0-0
  6
JWW_DASHED1
 62
   120
370
     5
100
AcDbLine
 10
-262.0513498681622
 20
266.1014720175131
 30
0.0
 11
-12.05134986817065
 21
516.1014720175048
 31
0.0
  0
LINE
  5
E0
330
1F
100
AcDbEntity
  8
0-0
  6
JWW_DASHED1
 62
   120
370
     5
100
AcDbLine
 10
77.94865013184086
 20
599.0304042042304
 30
0.0
 11
327.9486501318316
 21
849.0304042042213
 31
0.0
  0
LINE
  5
E1
330
1F
100
AcDbEntity
  8
0-0
  6
JWW_DASHED1
 62
   120
370
     5
100
AcDbLine
 10
-262.0513498681579
 20
259.0304042042318
 30
0.0
 11
-12.0513498681666
 21
509.0304042042231
 31
0.0
  0
LINE
  5
E2
330
1F
100
AcDbEntity
  8
0-0
  6
JWW_DASHED1
 62
   120
370
     5
100
AcDbLine
 10
77.94865013184491
 20
591.9593363909491
 30
0.0
 11
327.9486501318358
 21
841.95933639094
 31
0.0
  0
LINE
  5
E3
330
1F
100
AcDbEntity
  8
0-0
  6
JWW_DASHED1
 62
   120
370
     5
100
AcDbLine
 10
-262.0513498681541
 20
251.9593363909502
 30
0.0
 11
-12.05134986816255
 21
501.9593363909415
 31
0.0
  0
LINE
  5
E4
330
1F
100
AcDbEntity
  8
0-0
  6
JWW_DASHED1
 62
   120
370
     5
100
AcDbLine
 10
77.94865013184086
 20
584.888268577714
 30
0.0
 11
327.9486501318297
 21
834.8882685777028
 31
0.0
  0
LINE
  5
E5
330
1F
100
AcDbEntity
  8
0-0
  6
JWW_DASHED1
 62
   120
370
     5
100
AcDbLine
 10
-262.0513498681552
 20
244.888268577718
 30
0.0
 11
-12.05134986816596
 21
494.8882685777072
 31
0.0
  0
LINE
  5
E6
330
1F
100
AcDbEntity
  8
0-0
  6
JWW_DASHED1
 62
   120
370
     5
100
AcDbLine
 10
77.94865013182552
 20
577.8172007644132
 30
0.0
 11
327.9486501318323
 21
827.8172007644202
 31
0.0
  0
LINE
  5
E7
330
1F
100
AcDbEntity
  8
0-0
  6
JWW_DASHED1
 62
   120
370
     5
100
AcDbLine
 10
-262.0513498681577
 20
237.8172007644299
 30
0.0
 11
-12.05134986816617
 21
487.8172007644217
 31
0.0
  0
LINE
  5
E8
330
1F
100
AcDbEntity
  8
0-0
  6
JWW_DASHED1
 62
   120
370
     5
100
AcDbLine
 10
77.94865013182957
 20
570.7461329511319
 30
0.0
 11
327.9486501318364
 21
820.7461329511386
 31
0.0
  0
LINE
  5
E9
330
1F
100
AcDbEntity
  8
0-0
  6
JWW_DASHED1
 62
   120
370
     5
100
AcDbLine
 10
-262.0513498681694
 20
230.7461329511329
 30
0.0
 11
-12.05134986816191
 21
480.7461329511405
 31
0.0
  0
LINE
  5
EA
330
1F
100
AcDbEntity
  8
0-0
  6
JWW_DASHED1
 62
   120
370
     5
100
AcDbLine
 10
77.94865013183362
 20
563.6750651378508
 30
0.0
 11
327.9486501318246
 21
813.6750651378417
 31
0.0
  0
LINE
  5
EB
330
1F
100
AcDbEntity
  8
0-0
  6
JWW_DASHED1
 62
   120
370
     5
100
AcDbLine
 10
-262.0513498681656
 20
223.6750651378513
 30
0.0
 11
-12.05134986815807
 21
473.6750651378588
 31
0.0
  0
LINE
  5
EC
330
1F
100
AcDbEntity
  8
0-0
  6
JWW_DASHED1
 62
   120
370
     5
100
AcDbLine
 10
77.94865013183788
 20
556.6039973245695
 30
0.0
 11
327.9486501318286
 21
806.6039973245599
 31
0.0
  0
LINE
  5
ED
330
1F
100
AcDbEntity
  8
0-0
  6
JWW_DASHED1
 62
   120
370
     5
100
AcDbLine
 10
-262.0513498681613
 20
216.6039973245701
 30
0.0
 11
-12.05134986816979
 21
466.6039973245619
 31
0.0
  0
LINE
  5
EE
330
1F
100
AcDbEntity
  8
0-0
  6
JWW_DASHED1
 62
   120
370
     5
100
AcDbLine
 10
77.94865013184172
 20
549.5329295112874
 30
0.0
 11
327.9486501318324
 21
799.5329295112783
 31
0.0
  0
LINE
  5
EF
330
1F
100
AcDbEntity
  8
0-0
  6
JWW_DASHED1
 62
   120
370
     5
100
AcDbLine
 10
-262.0513498681571
 20
209.5329295112889
 30
0.0
 11
-12.05134986816553
 21
459.5329295112806
 31
0.0
  0
LINE
  5
F0
330
1F
100
AcDbEntity
  8
0-0
  6
JWW_DASHED1
 62
   120
370
     5
100
AcDbLine
 10
77.94865013184577
 20
542.4618616980063
 30
0.0
 11
327.9486501318366
 21
792.4618616979972
 31
0.0
  0
LINE
  5
F1
330
1F
100
AcDbEntity
  8
0-0
  6
JWW_DASHED1
 62
   120
370
     5
100
AcDbLine
 10
-262.0513498681532
 20
202.4618616980072
 30
0.0
 11
-12.05134986816169
 21
452.4618616979985
 31
0.0
  0
LINE
  5
F2
330
1F
100
AcDbEntity
  8
0-0
  6
JWW_DASHED1
 62
   120
370
     5
100
AcDbLine
 10
77.94865013183788
 20
535.3907938847126
 30
0.0
 11
327.9486501318265
 21
785.3907938847015
 31
0.0
  0
LINE
  5
F3
330
1F
100
AcDbEntity
  8
0-0
  6
JWW_DASHED1
 62
   120
370
     5
100
AcDbLine
 10
-262.0513498681584
 20
195.3907938847166
 30
0.0
 11
-12.05134986816894
 21
445.3907938847062
 31
0.0
  0
LINE
  5
F4
330
1F
100
AcDbEntity
  8
0-0
  6
JWW_DASHED1
 62
   120
370
     5
100
AcDbLine
 10
77.94865013182594
 20
528.3197260714156
 30
0.0
 11
327.9486501318306
 21
778.3197260714202
 31
0.0
  0
LINE
  5
F5
330
1F
100
AcDbEntity
  8
0-0
  6
JWW_DASHED1
 62
   120
370
     5
100
AcDbLine
 10
-262.0513498681543
 20
188.319726071435
 30
0.0
 11
-12.0513498681651
 21
438.3197260714242
 31
0.0
  0
LINE
  5
F6
330
1F
100
AcDbEntity
  8
0-0
  6
JWW_DASHED1
 62
   120
370
     5
100
AcDbLine
 10
77.94865013182637
 20
521.2486582581301
 30
0.0
 11
327.9486501318328
 21
771.2486582581369
 31
0.0
  0
LINE
  5
F7
330
1F
100
AcDbEntity
  8
0-0
  6
JWW_DASHED1
 62
   120
370
     5
100
AcDbLine
 10
-262.0513498681731
 20
181.2486582581307
 30
0.0
 11
-12.05134986816532
 21
431.2486582581387
 31
0.0
  0
LINE
  5
F8
330
1F
100
AcDbEntity
  8
0-0
  6
JWW_DASHED1
 62
   120
370
     5
100
AcDbLine
 10
77.94865013183447
 20
514.1775904449078
 30
0.0
 11
327.9486501318253
 21
764.1775904448982
 31
0.0
  0
LINE
  5
F9
330
1F
100
AcDbEntity
  8
0-0
  6
JWW_DASHED1
 62
   120
370
     5
100
AcDbLine
 10
-262.0513498681647
 20
174.1775904449084
 30
0.0
 11
-12.05134986815722
 21
424.1775904449159
 31
0.0
  0
LINE
  5
FA
330
1F
100
AcDbEntity
  8
0-0
  6
JWW_DASHED1
 62
   120
370
     5
100
AcDbLine
 10
77.94865013183852
 20
507.1065226316261
 30
0.0
 11
327.9486501318294
 21
757.106522631617
 31
0.0
  0
LINE
  5
FB
330
1F
100
AcDbEntity
  8
0-0
  6
JWW_DASHED1
 62
   120
370
     5
100
AcDbLine
 10
-262.0513498681605
 20
167.1065226316271
 30
0.0
 11
-12.05134986816894
 21
417.1065226316189
 31
0.0
  0
LINE
  5
FC
330
1F
100
AcDbEntity
  8
0-0
  6
JWW_DASHED1
 62
   120
370
     5
100
AcDbLine
 10
77.94865013184257
 20
500.0354548183445
 30
0.0
 11
327.9486501318332
 21
750.0354548183354
 31
0.0
  0
LINE
  5
FD
330
1F
100
AcDbEntity
  8
0-0
  6
JWW_DASHED1
 62
   120
370
     5
100
AcDbLine
 10
-262.0513498681566
 20
160.0354548183455
 30
0.0
 11
-12.0513498681651
 21
410.0354548183368
 31
0.0
  0
LINE
  5
FE
330
1F
100
AcDbEntity
  8
0-0
  6
JWW_DASHED1
 62
   120
370
     5
100
AcDbLine
 10
77.94865013183511
 20
492.9643870050518
 30
0.0
 11
327.9486501318237
 21
742.9643870050402
 31
0.0
  0
LINE
  5
FF
330
1F
100
AcDbEntity
  8
0-0
  6
JWW_DASHED1
 62
   120
370
     5
100
AcDbLine
 10
-262.0513498681611
 20
152.9643870050553
 30
0.0
 11
-12.05134986817171
 21
402.964387005045
 31
0.0
  0
LINE
  5
100
330
1F
100
AcDbEntity
  8
0-0
  6
JWW_DASHED1
 62
   120
370
     5
100
AcDbLine
 10
77.94865013183916
 20
485.8933191917702
 30
0.0
 11
327.9486501318276
 21
735.8933191917589
 31
0.0
  0
LINE
  5
101
330
1F
100
AcDbEntity
  8
0-0
  6
JWW_DASHED1
 62
   120
370
     5
100
AcDbLine
 10
-262.0513498681571
 20
145.8933191917741
 30
0.0
 11
-12.05134986816766
 21
395.8933191917633
 31
0.0
  0
LINE
  5
102
330
1F
100
AcDbEntity
  8
0-0
  6
JWW_DASHED1
 62
   120
370
     5
100
AcDbLine
 10
77.94865013182317
 20
478.8222513784684
 30
0.0
 11
327.9486501318295
 21
728.8222513784751
 31
0.0
  0
LINE
  5
103
330
1F
100
AcDbEntity
  8
0-0
  6
JWW_DASHED1
 62
   120
370
     5
100
AcDbLine
 10
-262.0513498681601
 20
138.8222513784856
 30
0.0
 11
-12.05134986816873
 21
388.8222513784769
 31
0.0
  0
LINE
  5
104
330
1F
100
AcDbEntity
  8
0-0
  6
JWW_DASHED1
 62
   120
370
     5
100
AcDbLine
 10
77.94865013182701
 20
471.7511835651873
 30
0.0
 11
327.9486501318338
 21
721.751183565194
 31
0.0
  0
LINE
  5
105
330
1F
100
AcDbEntity
  8
0-0
  6
JWW_DASHED1
 62
   120
370
     5
100
AcDbLine
 10
-262.0513498681722
 20
131.7511835651878
 30
0.0
 11
-12.05134986816468
 21
381.7511835651958
 31
0.0
  0
LINE
  5
106
330
1F
100
AcDbEntity
  8
0-0
  6
JWW_DASHED1
 62
   120
370
     5
100
AcDbLine
 10
77.94865013183106
 20
464.680115751906
 30
0.0
 11
327.9486501318376
 21
714.6801157519122
 31
0.0
  0
LINE
  5
107
330
1F
100
AcDbEntity
  8
0-0
  6
JWW_DASHED1
 62
   120
370
     5
100
AcDbLine
 10
-262.051349868168
 20
124.6801157519066
 30
0.0
 11
-12.05134986816063
 21
374.6801157519141
 31
0.0
  0
LINE
  5
108
330
1F
100
AcDbEntity
  8
0-0
  6
JWW_DASHED1
 62
   120
370
     5
100
AcDbLine
 10
77.94865013183511
 20
457.6090479386244
 30
0.0
 11
327.9486501318259
 21
707.6090479386148
 31
0.0
  0
LINE
  5
109
330
1F
100
AcDbEntity
  8
0-0
  6
JWW_DASHED1
 62
   120
370
     5
100
AcDbLine
 10
-262.0513498681641
 20
117.6090479386254
 30
0.0
 11
-12.05134986815658
 21
367.6090479386324
 31
0.0
  0
LINE
  5
10A
330
1F
100
AcDbEntity
  8
0-0
  6
JWW_DASHED1
 62
   120
370
     5
100
AcDbLine
 10
77.94865013184342
 20
450.5379801254015
 30
0.0
 11
327.9486501318341
 21
700.5379801253924
 31
0.0
  0
LINE
  5
10B
330
1F
100
AcDbEntity
  8
0-0
  6
JWW_DASHED1
 62
   120
370
     5
100
AcDbLine
 10
-262.0513498681556
 20
110.537980125403
 30
0.0
 11
-12.05134986816404
 21
360.5379801253943
 31
0.0
  0
LINE
  5
10C
330
1F
100
AcDbEntity
  8
0-0
  6
JWW_DASHED1
 62
   120
370
     5
100
AcDbLine
 10
77.94865013183617
 20
443.4669123121092
 30
0.0
 11
327.9486501318249
 21
693.4669123120976
 31
0.0
  0
LINE
  5
10D
330
1F
100
AcDbEntity
  8
0-0
  6
JWW_DASHED1
 62
   120
370
     5
100
AcDbLine
 10
-262.0513498681601
 20
103.4669123121128
 30
0.0
 11
-12.05134986817065
 21
353.4669123121024
 31
0.0
  0
LINE
  5
10E
330
1F
100
AcDbEntity
  8
0-0
  6
JWW_DASHED1
 62
   120
370
     5
100
AcDbLine
 10
77.94865013184001
 20
436.3958444988272
 30
0.0
 11
327.9486501318289
 21
686.3958444988164
 31
0.0
  0
LINE
  5
10F
330
1F
100
AcDbEntity
  8
0-0
  6
JWW_DASHED1
 62
   120
370
     5
100
AcDbLine
 10
-262.0513498681562
 20
96.39584449883117
 30
0.0
 11
-12.0513498681666
 21
346.3958444988208
 31
0.0
  0
LINE
  5
110
330
1F
100
AcDbEntity
  8
0-0
  6
JWW_DASHED1
 62
   120
370
     5
100
AcDbLine
 10
77.94865013182381
 20
429.3247766855255
 30
0.0
 11
327.9486501318304
 21
679.3247766855322
 31
0.0
  0
LINE
  5
111
330
1F
100
AcDbEntity
  8
0-0
  6
JWW_DASHED1
 62
   120
370
     5
100
AcDbLine
 10
-262.0513498681594
 20
89.32477668554228
 30
0.0
 11
-12.05134986816788
 21
339.3247766855341
 31
0.0
  0
LINE
  5
112
330
1F
100
AcDbEntity
  8
0-0
  6
JWW_DASHED1
 62
   120
370
     5
100
AcDbLine
 10
77.94865013182786
 20
422.2537088722443
 30
0.0
 11
327.9486501318343
 21
672.2537088722505
 31
0.0
  0
LINE
  5
113
330
1F
100
AcDbEntity
  8
0-0
  6
JWW_DASHED1
 62
   120
370
     5
100
AcDbLine
 10
-262.0513498681714
 20
82.25370887224486
 30
0.0
 11
-12.05134986816404
 21
332.2537088722524
 31
0.0
  0
LINE
  5
114
330
1F
100
AcDbEntity
  8
0-0
  6
JWW_DASHED1
 62
   120
370
     5
100
AcDbLine
 10
77.94865013183191
 20
415.1826410589626
 30
0.0
 11
327.9486501318385
 21
665.1826410589694
 31
0.0
  0
LINE
  5
115
330
1F
100
AcDbEntity
  8
0-0
  6
JWW_DASHED1
 62
   120
370
     5
100
AcDbLine
 10
-262.0513498681671
 20
75.18264105896364
 30
0.0
 11
-12.05134986815978
 21
325.1826410589712
 31
0.0
  0
LINE
  5
116
330
1F
100
AcDbEntity
  8
0-0
  6
JWW_DASHED1
 62
   120
370
     5
100
AcDbLine
 10
77.94865013183596
 20
408.111573245681
 30
0.0
 11
327.9486501318268
 21
658.1115732456719
 31
0.0
  0
LINE
  5
117
330
1F
100
AcDbEntity
  8
0-0
  6
JWW_DASHED1
 62
   120
370
     5
100
AcDbLine
 10
-262.0513498681632
 20
68.11157324568242
 30
0.0
 11
-12.05134986815573
 21
318.1115732456896
 31
0.0
  0
LINE
  5
118
330
1F
100
AcDbEntity
  8
0-0
  6
JWW_DASHED1
 62
   120
370
     5
100
AcDbLine
 10
77.94865013184001
 20
401.0405054323998
 30
0.0
 11
327.9486501318309
 21
651.0405054323907
 31
0.0
  0
LINE
  5
119
330
1F
100
AcDbEntity
  8
0-0
  6
JWW_DASHED1
 62
   120
370
     5
100
AcDbLine
 10
-262.0513498681594
 20
61.04050543240035
 30
0.0
 11
-12.05134986816766
 21
311.0405054323921
 31
0.0
  0
LINE
  5
11A
330
1F
100
AcDbEntity
  8
0-0
  6
JWW_DASHED1
 62
   120
370
     5
100
AcDbLine
 10
77.94865013184406
 20
393.9694376191186
 30
0.0
 11
327.9486501318348
 21
643.9694376191095
 31
0.0
  0
LINE
  5
11B
330
1F
100
AcDbEntity
  8
0-0
  6
JWW_DASHED1
 62
   120
370
     5
100
AcDbLine
 10
-262.0513498681552
 20
53.96943761911913
 30
0.0
 11
-12.05134986816361
 21
303.9694376191109
 31
0.0
  0
LINE
  5
11C
330
1F
100
AcDbEntity
  8
0-0
  6
JWW_DASHED1
 62
   120
370
     5
100
AcDbLine
 10
77.94865013183724
 20
386.8983698058263
 30
0.0
 11
327.9486501318259
 21
636.8983698058146
 31
0.0
  0
LINE
  5
11D
330
1F
100
AcDbEntity
  8
0-0
  6
JWW_DASHED1
 62
   120
370
     5
100
AcDbLine
 10
-262.0513498681594
 20
46.89836980582939
 30
0.0
 11
-12.05134986816958
 21
296.8983698058195
 31
0.0
  0
LINE
  5
11E
330
1F
100
AcDbEntity
  8
0-0
  6
JWW_DASHED1
 62
   120
370
     5
100
AcDbLine
 10
77.94865013182466
 20
379.8273019925825
 30
0.0
 11
327.9486501318312
 21
629.8273019925892
 31
0.0
  0
LINE
  5
11F
330
1F
100
AcDbEntity
  8
0-0
  6
JWW_DASHED1
 62
   120
370
     5
100
AcDbLine
 10
-262.0513498681588
 20
39.82730199259933
 30
0.0
 11
-12.05134986816702
 21
289.8273019925911
 31
0.0
  0
LINE
  5
120
330
1F
100
AcDbEntity
  8
0-0
  6
JWW_DASHED1
 62
   120
370
     5
100
AcDbLine
 10
77.94865013182871
 20
372.7562341793014
 30
0.0
 11
327.9486501318352
 21
622.7562341793076
 31
0.0
  0
LINE
  5
121
330
1F
100
AcDbEntity
  8
0-0
  6
JWW_DASHED1
 62
   120
370
     5
100
AcDbLine
 10
-262.0513498681705
 20
32.75623417930191
 30
0.0
 11
-12.05134986816297
 21
282.7562341793099
 31
0.0
  0
LINE
  5
122
330
1F
100
AcDbEntity
  8
0-0
  6
JWW_DASHED1
 62
   120
370
     5
100
AcDbLine
 10
77.94865013183276
 20
365.6851663660197
 30
0.0
 11
327.9486501318235
 21
615.6851663660107
 31
0.0
  0
LINE
  5
123
330
1F
100
AcDbEntity
  8
0-0
  6
JWW_DASHED1
 62
   120
370
     5
100
AcDbLine
 10
-262.0513498681663
 20
25.6851663660207
 30
0.0
 11
-12.05134986815892
 21
275.6851663660278
 31
0.0
  0
LINE
  5
124
330
1F
100
AcDbEntity
  8
0-0
  6
JWW_DASHED1
 62
   120
370
     5
100
AcDbLine
 10
77.94865013183681
 20
358.6140985527385
 30
0.0
 11
327.9486501318275
 21
608.6140985527289
 31
0.0
  0
LINE
  5
125
330
1F
100
AcDbEntity
  8
0-0
  6
JWW_DASHED1
 62
   120
370
     5
100
AcDbLine
 10
-262.0513498681624
 20
18.61409855273948
 30
0.0
 11
-12.05134986817086
 21
268.6140985527308
 31
0.0
  0
LINE
  5
126
330
1F
100
AcDbEntity
  8
0-0
  6
JWW_DASHED1
 62
   120
370
     5
100
AcDbLine
 10
77.94865013184065
 20
351.5430307394569
 30
0.0
 11
327.9486501318315
 21
601.5430307394478
 31
0.0
  0
LINE
  5
127
330
1F
100
AcDbEntity
  8
0-0
  6
JWW_DASHED1
 62
   120
370
     5
100
AcDbLine
 10
-262.0513498681586
 20
11.54303073945741
 30
0.0
 11
-12.05134986816681
 21
261.5430307394491
 31
0.0
  0
LINE
  5
128
330
1F
100
AcDbEntity
  8
0-0
  6
JWW_DASHED1
 62
   120
370
     5
100
AcDbLine
 10
77.9486501318447
 20
344.4719629261756
 30
0.0
 11
327.9486501318356
 21
594.4719629261665
 31
0.0
  0
LINE
  5
129
330
1F
100
AcDbEntity
  8
0-0
  6
JWW_DASHED1
 62
   120
370
     5
100
AcDbLine
 10
-262.0513498681543
 20
4.47196292617619
 30
0.0
 11
-12.05134986816276
 21
254.4719629261679
 31
0.0
  0
LINE
  5
12A
330
1F
100
AcDbEntity
  8
0-0
  6
JWW_DASHED1
 62
   120
370
     5
100
AcDbLine
 10
77.94865013183852
 20
337.4008951128833
 30
0.0
 11
327.948650131827
 21
587.4008951128721
 31
0.0
  0
LINE
  5
12B
330
1F
100
AcDbEntity
  8
0-0
  6
JWW_DASHED1
 62
   120
370
     5
100
AcDbLine
 10
-262.0513498681579
 20
-2.599104887112702
 30
0.0
 11
-12.0513498681683
 21
247.4008951128769
 31
0.0
  0
LINE
  5
12C
330
1F
100
AcDbEntity
  8
0-0
  6
JWW_DASHED1
 62
   120
370
     5
100
AcDbLine
 10
77.94865013184257
 20
330.3298272996021
 30
0.0
 11
327.9486501318312
 21
580.3298272995909
 31
0.0
  0
LINE
  5
12D
330
1F
100
AcDbEntity
  8
0-0
  6
JWW_DASHED1
 62
   120
370
     5
100
AcDbLine
 10
-262.0513498681537
 20
-9.67017270039392
 30
0.0
 11
-12.05134986816425
 21
240.3298272995953
 31
0.0
  0
LINE
  5
12E
330
1F
100
AcDbEntity
  8
0-0
  6
JWW_DASHED1
 62
   120
370
     5
100
AcDbLine
 10
77.9486501318253
 20
323.2587594862996
 30
0.0
 11
327.9486501318318
 21
573.2587594863058
 31
0.0
  0
LINE
  5
12F
330
1F
100
AcDbEntity
  8
0-0
  6
JWW_DASHED1
 62
   120
370
     5
100
AcDbLine
 10
-262.0513498681739
 20
-16.74124051369986
 30
0.0
 11
-12.05134986816638
 21
233.2587594863081
 31
0.0
  0
LINE
  5
130
330
1F
100
AcDbEntity
  8
0-0
  6
JWW_DASHED1
 62
   120
370
     5
100
AcDbLine
 10
77.94865013183362
 20
316.1876916730768
 30
0.0
 11
327.9486501318243
 21
566.1876916730677
 31
0.0
  0
LINE
  5
131
330
1F
100
AcDbEntity
  8
0-0
  6
JWW_DASHED1
 62
   120
370
     5
100
AcDbLine
 10
-262.0513498681654
 20
-23.81230832692225
 30
0.0
 11
-12.05134986815828
 21
226.1876916730849
 31
0.0
  0
LINE
  5
132
330
1F
100
AcDbEntity
  8
0-0
  6
JWW_DASHED1
 62
   120
370
     5
100
AcDbLine
 10
77.94865013183767
 20
309.1166238597955
 30
0.0
 11
327.9486501318283
 21
559.116623859786
 31
0.0
  0
LINE
  5
133
330
1F
100
AcDbEntity
  8
0-0
  6
JWW_DASHED1
 62
   120
370
     5
100
AcDbLine
 10
-262.0513498681615
 20
-30.88337614020347
 30
0.0
 11
-12.05134986817001
 21
219.1166238597879
 31
0.0
  0
LINE
  5
134
330
1F
100
AcDbEntity
  8
0-0
  6
JWW_DASHED1
 62
   120
370
     5
100
AcDbLine
 10
77.9486501318415
 20
302.0455560465139
 30
0.0
 11
327.9486501318323
 21
552.0455560465048
 31
0.0
  0
LINE
  5
135
330
1F
100
AcDbEntity
  8
0-0
  6
JWW_DASHED1
 62
   120
370
     5
100
AcDbLine
 10
-262.0513498681577
 20
-37.95444395348554
 30
0.0
 11
-12.05134986816596
 21
212.0455560465062
 31
0.0
  0
LINE
  5
136
330
1F
100
AcDbEntity
  8
0-0
  6
JWW_DASHED1
 62
   120
370
     5
100
AcDbLine
 10
77.94865013184555
 20
294.9744882332327
 30
0.0
 11
327.9486501318364
 21
544.9744882332232
 31
0.0
  0
LINE
  5
137
330
1F
100
AcDbEntity
  8
0-0
  6
JWW_DASHED1
 62
   120
370
     5
100
AcDbLine
 10
-262.0513498681535
 20
-45.02551176676675
 30
0.0
 11
-12.05134986816191
 21
204.974488233225
 31
0.0
  0
LINE
  5
138
330
1F
100
AcDbEntity
  8
0-0
  6
JWW_DASHED1
 62
   120
370
     5
100
AcDbLine
 10
77.9486501318398
 20
287.9034204199412
 30
0.0
 11
327.9486501318282
 21
537.9034204199296
 31
0.0
  0
LINE
  5
139
330
1F
100
AcDbEntity
  8
0-0
  6
JWW_DASHED1
 62
   120
370
     5
100
AcDbLine
 10
-262.0513498681564
 20
-52.09657958005479
 30
0.0
 11
-12.05134986816702
 21
197.9034204199344
 31
0.0
  0
LINE
  5
13A
330
1F
100
AcDbEntity
  8
0-0
  6
JWW_DASHED1
 62
   120
370
     5
100
AcDbLine
 10
77.94865013182786
 20
280.8323526066438
 30
0.0
 11
327.9486501318323
 21
530.8323526066483
 31
0.0
  0
LINE
  5
13B
330
1F
100
AcDbEntity
  8
0-0
  6
JWW_DASHED1
 62
   120
370
     5
100
AcDbLine
 10
-262.0513498681526
 20
-59.16764739333686
 30
0.0
 11
-12.05134986816297
 21
190.8323526066532
 31
0.0
  0
LINE
  5
13C
330
1F
100
AcDbEntity
  8
0-0
  6
JWW_DASHED1
 62
   120
370
     5
100
AcDbLine
 10
77.94865013182616
 20
273.7612847933566
 30
0.0
 11
327.9486501318324
 21
523.7612847933628
 31
0.0
  0
LINE
  5
13D
330
1F
100
AcDbEntity
  8
0-0
  6
JWW_DASHED1
 62
   120
370
     5
100
AcDbLine
 10
-262.0513498681731
 20
-66.23871520664281
 30
0.0
 11
-12.05134986816553
 21
183.7612847933651
 31
0.0
  0
LINE
  5
13E
330
1F
100
AcDbEntity
  8
0-0
  6
JWW_DASHED1
 62
   120
370
     5
100
AcDbLine
 10
77.94865013183
 20
266.690216980075
 30
0.0
 11
327.9486501318366
 21
516.6902169800817
 31
0.0
  0
LINE
  5
13F
330
1F
100
AcDbEntity
  8
0-0
  6
JWW_DASHED1
 62
   120
370
     5
100
AcDbLine
 10
-262.0513498681692
 20
-73.30978301992403
 30
0.0
 11
-12.05134986816169
 21
176.6902169800831
 31
0.0
  0
LINE
  5
140
330
1F
100
AcDbEntity
  8
0-0
  6
JWW_DASHED1
 62
   120
370
     5
100
AcDbLine
 10
77.94865013183383
 20
259.6191491667934
 30
0.0
 11
327.9486501318249
 21
509.6191491667843
 31
0.0
  0
LINE
  5
141
330
1F
100
AcDbEntity
  8
0-0
  6
JWW_DASHED1
 62
   120
370
     5
100
AcDbLine
 10
-262.0513498681652
 20
-80.38085083320524
 30
0.0
 11
-12.05134986815786
 21
169.6191491668019
 31
0.0
  0
LINE
  5
142
330
1F
100
AcDbEntity
  8
0-0
  6
JWW_DASHED1
 62
   120
370
     5
100
AcDbLine
 10
77.9486501318381
 20
252.5480813535121
 30
0.0
 11
327.9486501318288
 21
502.5480813535026
 31
0.0
  0
LINE
  5
143
330
1F
100
AcDbEntity
  8
0-0
  6
JWW_DASHED1
 62
   120
370
     5
100
AcDbLine
 10
-262.0513498681611
 20
-87.45191864648731
 30
0.0
 11
-12.05134986816937
 21
162.5480813535044
 31
0.0
  0
LINE
  5
144
330
1F
100
AcDbEntity
  8
0-0
  6
JWW_DASHED1
 62
   120
370
     5
100
AcDbLine
 10
77.9486501318366
 20
245.4770135402795
 30
0.0
 11
327.9486501318256
 21
495.4770135402687
 31
0.0
  0
LINE
  5
145
330
1F
100
AcDbEntity
  8
0-0
  6
JWW_DASHED1
 62
   120
370
     5
100
AcDbLine
 10
-262.0513498681596
 20
-94.52298645971652
 30
0.0
 11
-12.05134986817001
 21
155.4770135402731
 31
0.0
  0
LINE
  5
146
330
1F
100
AcDbEntity
  8
0-0
  6
JWW_DASHED1
 62
   120
370
     5
100
AcDbLine
 10
77.94865013184086
 20
238.4059457269983
 30
0.0
 11
327.9486501318297
 21
488.4059457269871
 31
0.0
  0
LINE
  5
147
330
1F
100
AcDbEntity
  8
0-0
  6
JWW_DASHED1
 62
   120
370
     5
100
AcDbLine
 10
-262.0513498681556
 20
-101.5940542729977
 30
0.0
 11
-12.05134986816596
 21
148.4059457269915
 31
0.0
  0
LINE
  5
148
330
1F
100
AcDbEntity
  8
0-0
  6
JWW_DASHED1
 62
   120
370
     5
100
AcDbLine
 10
77.94865013182296
 20
231.3348779136949
 30
0.0
 11
327.9486501318294
 21
481.3348779137016
 31
0.0
  0
LINE
  5
149
330
1F
100
AcDbEntity
  8
0-0
  6
JWW_DASHED1
 62
   120
370
     5
100
AcDbLine
 10
-262.0513498681605
 20
-108.6651220862883
 30
0.0
 11
-12.05134986816873
 21
141.3348779137034
 31
0.0
  0
LINE
  5
14A
330
1F
100
AcDbEntity
  8
0-0
  6
JWW_DASHED1
 62
   120
370
     5
100
AcDbLine
 10
77.9486501318268
 20
224.2638101004137
 30
0.0
 11
327.9486501318335
 21
474.26381010042
 31
0.0
  0
LINE
  5
14B
330
1F
100
AcDbEntity
  8
0-0
  6
JWW_DASHED1
 62
   120
370
     5
100
AcDbLine
 10
-262.0513498681725
 20
-115.7361898995858
 30
0.0
 11
-12.05134986816489
 21
134.2638101004218
 31
0.0
  0
LINE
  5
14C
330
1F
100
AcDbEntity
  8
0-0
  6
JWW_DASHED1
 62
   120
370
     5
100
AcDbLine
 10
77.94865013183085
 20
217.192742287132
 30
0.0
 11
327.9486501318376
 21
467.1927422871387
 31
0.0
  0
LINE
  5
14D
330
1F
100
AcDbEntity
  8
0-0
  6
JWW_DASHED1
 62
   120
370
     5
100
AcDbLine
 10
-262.0513498681684
 20
-122.807257712867
 30
0.0
 11
-12.05134986816084
 21
127.1927422871401
 31
0.0
  0
LINE
  5
14E
330
1F
100
AcDbEntity
  8
0-0
  6
JWW_DASHED1
 62
   120
370
     5
100
AcDbLine
 10
77.9486501318349
 20
210.1216744738504
 30
0.0
 11
327.9486501318256
 21
460.1216744738413
 31
0.0
  0
LINE
  5
14F
330
1F
100
AcDbEntity
  8
0-0
  6
JWW_DASHED1
 62
   120
370
     5
100
AcDbLine
 10
-262.0513498681643
 20
-129.8783255261482
 30
0.0
 11
-12.05134986815679
 21
120.1216744738589
 31
0.0
  0
LINE
  5
150
330
1F
100
AcDbEntity
  8
0-0
  6
JWW_DASHED1
 62
   120
370
     5
100
AcDbLine
 10
77.94865013183895
 20
203.0506066605692
 30
0.0
 11
327.9486501318297
 21
453.0506066605597
 31
0.0
  0
LINE
  5
151
330
1F
100
AcDbEntity
  8
0-0
  6
JWW_DASHED1
 62
   120
370
     5
100
AcDbLine
 10
-262.0513498681601
 20
-136.9493933394298
 30
0.0
 11
-12.05134986816851
 21
113.0506066605615
 31
0.0
  0
LINE
  5
152
330
1F
100
AcDbEntity
  8
0-0
  6
JWW_DASHED1
 62
   120
370
     5
100
AcDbLine
 10
77.948650131843
 20
195.979538847288
 30
0.0
 11
327.9486501318337
 21
445.9795388472784
 31
0.0
  0
LINE
  5
153
330
1F
100
AcDbEntity
  8
0-0
  6
JWW_DASHED1
 62
   120
370
     5
100
AcDbLine
 10
-262.0513498681564
 20
-144.0204611527115
 30
0.0
 11
-12.05134986816468
 21
105.9795388472803
 31
0.0
  0
LINE
  5
154
330
1F
100
AcDbEntity
  8
0-0
  6
JWW_DASHED1
 62
   120
370
     5
100
AcDbLine
 10
77.94865013183788
 20
188.9084710339969
 30
0.0
 11
327.9486501318264
 21
438.9084710339857
 31
0.0
  0
LINE
  5
155
330
1F
100
AcDbEntity
  8
0-0
  6
JWW_DASHED1
 62
   120
370
     5
100
AcDbLine
 10
-262.0513498681584
 20
-151.0915289659991
 30
0.0
 11
-12.05134986816915
 21
98.90847103399011
 31
0.0
  0
LINE
  5
156
330
1F
100
AcDbEntity
  8
0-0
  6
JWW_DASHED1
 62
   120
370
     5
100
AcDbLine
 10
77.94865013182381
 20
181.837403220752
 30
0.0
 11
327.9486501318303
 21
431.8374032207586
 31
0.0
  0
LINE
  5
157
330
1F
100
AcDbEntity
  8
0-0
  6
JWW_DASHED1
 62
   120
370
     5
100
AcDbLine
 10
-262.0513498681596
 20
-158.1625967792313
 30
0.0
 11
-12.05134986816809
 21
91.83740322076048
 31
0.0
  0
LINE
  5
158
330
1F
100
AcDbEntity
  8
0-0
  6
JWW_DASHED1
 62
   120
370
     5
100
AcDbLine
 10
77.94865013182786
 20
174.7663354074707
 30
0.0
 11
327.9486501318343
 21
424.766335407477
 31
0.0
  0
LINE
  5
159
330
1F
100
AcDbEntity
  8
0-0
  6
JWW_DASHED1
 62
   120
370
     5
100
AcDbLine
 10
-262.0513498681711
 20
-165.2336645925283
 30
0.0
 11
-12.05134986816404
 21
84.76633540747883
 31
0.0
  0
LINE
  5
15A
330
1F
100
AcDbEntity
  8
0-0
  6
JWW_DASHED1
 62
   120
370
     5
100
AcDbLine
 10
77.9486501318317
 20
167.6952675941891
 30
0.0
 11
327.9486501318224
 21
417.6952675941795
 31
0.0
  0
LINE
  5
15B
330
1F
100
AcDbEntity
  8
0-0
  6
JWW_DASHED1
 62
   120
370
     5
100
AcDbLine
 10
-262.0513498681673
 20
-172.3047324058099
 30
0.0
 11
-12.05134986815999
 21
77.69526759419719
 31
0.0
  0
LINE
  5
15C
330
1F
100
AcDbEntity
  8
0-0
  6
JWW_DASHED1
 62
   120
370
     5
100
AcDbLine
 10
77.94865013183575
 20
160.6241997809074
 30
0.0
 11
327.9486501318264
 21
410.6241997808984
 31
0.0
  0
LINE
  5
15D
330
1F
100
AcDbEntity
  8
0-0
  6
JWW_DASHED1
 62
   120
370
     5
100
AcDbLine
 10
-262.0513498681635
 20
-179.3758002190916
 30
0.0
 11
-12.05134986817193
 21
70.62419978089977
 31
0.0
  0
LINE
  5
15E
330
1F
100
AcDbEntity
  8
0-0
  6
JWW_DASHED1
 62
   120
370
     5
100
AcDbLine
 10
77.9486501318398
 20
153.5531319676262
 30
0.0
 11
327.9486501318305
 21
403.5531319676171
 31
0.0
  0
LINE
  5
15F
330
1F
100
AcDbEntity
  8
0-0
  6
JWW_DASHED1
 62
   120
370
     5
100
AcDbLine
 10
-262.0513498681592
 20
-186.4468680323728
 30
0.0
 11
-12.05134986816788
 21
63.55313196761855
 31
0.0
  0
LINE
  5
160
330
1F
100
AcDbEntity
  8
0-0
  6
JWW_DASHED1
 62
   120
370
     5
100
AcDbLine
 10
77.94865013184385
 20
146.482064154345
 30
0.0
 11
327.9486501318345
 21
396.4820641543355
 31
0.0
  0
LINE
  5
161
330
1F
100
AcDbEntity
  8
0-0
  6
JWW_DASHED1
 62
   120
370
     5
100
AcDbLine
 10
-262.0513498681556
 20
-193.5179358456544
 30
0.0
 11
-12.05134986816383
 21
56.48206415433734
 31
0.0
  0
LINE
  5
162
330
1F
100
AcDbEntity
  8
0-0
  6
JWW_DASHED1
 62
   120
370
     5
100
AcDbLine
 10
77.94865013183916
 20
139.4109963410544
 30
0.0
 11
327.9486501318277
 21
389.4109963410427
 31
0.0
  0
LINE
  5
163
330
1F
100
AcDbEntity
  8
0-0
  6
JWW_DASHED1
 62
   120
370
     5
100
AcDbLine
 10
-262.0513498681575
 20
-200.589003658942
 30
0.0
 11
-12.05134986816766
 21
49.41099634104759
 31
0.0
  0
LINE
  5
164
330
1F
100
AcDbEntity
  8
0-0
  6
JWW_DASHED1
 62
   120
370
     5
100
AcDbLine
 10
77.948650131843
 20
132.3399285277732
 30
0.0
 11
327.9486501318318
 21
382.3399285277616
 31
0.0
  0
LINE
  5
165
330
1F
100
AcDbEntity
  8
0-0
  6
JWW_DASHED1
 62
   120
370
     5
100
AcDbLine
 10
-262.0513498681532
 20
-207.6600714722233
 30
0.0
 11
-12.05134986816361
 21
42.33992852776638
 31
0.0
  0
LINE
  5
166
330
1F
100
AcDbEntity
  8
0-0
  6
JWW_DASHED1
 62
   120
370
     5
100
AcDbLine
 10
77.94865013182424
 20
125.268860714469
 30
0.0
 11
327.9486501318305
 21
375.2688607144752
 31
0.0
  0
LINE
  5
167
330
1F
100
AcDbEntity
  8
0-0
  6
JWW_DASHED1
 62
   120
370
     5
100
AcDbLine
 10
-262.051349868175
 20
-214.7311392855305
 30
0.0
 11
-12.05134986816745
 21
35.26886071447706
 31
0.0
  0
LINE
  5
168
330
1F
100
AcDbEntity
  8
0-0
  6
JWW_DASHED1
 62
   120
370
     5
100
AcDbLine
 10
77.94865013183255
 20
118.1977929012461
 30
0.0
 11
327.9486501318232
 21
368.1977929012367
 31
0.0
  0
LINE
  5
169
330
1F
100
AcDbEntity
  8
0-0
  6
JWW_DASHED1
 62
   120
370
     5
100
AcDbLine
 10
-262.0513498681667
 20
-221.8022070987529
 30
0.0
 11
-12.05134986815914
 21
28.19779290125425
 31
0.0
  0
LINE
  5
16A
330
1F
100
AcDbEntity
  8
0-0
  6
JWW_DASHED1
 62
   120
370
     5
100
AcDbLine
 10
77.9486501318366
 20
111.1267250879645
 30
0.0
 11
327.9486501318273
 21
361.1267250879554
 31
0.0
  0
LINE
  5
16B
330
1F
100
AcDbEntity
  8
0-0
  6
JWW_DASHED1
 62
   120
370
     5
100
AcDbLine
 10
-262.0513498681626
 20
-228.8732749120345
 30
0.0
 11
-12.05134986817107
 21
21.12672508795683
 31
0.0
  0
LINE
  5
16C
330
1F
100
AcDbEntity
  8
0-0
  6
JWW_DASHED1
 62
   120
370
     5
100
AcDbLine
 10
77.94865013184065
 20
104.0556572746833
 30
0.0
 11
327.9486501318314
 21
354.0556572746738
 31
0.0
  0
LINE
  5
16D
330
1F
100
AcDbEntity
  8
0-0
  6
JWW_DASHED1
 62
   120
370
     5
100
AcDbLine
 10
-262.0513498681588
 20
-235.9443427253161
 30
0.0
 11
-12.05134986816681
 21
14.05565727467561
 31
0.0
  0
LINE
  5
16E
330
1F
100
AcDbEntity
  8
0-0
  6
JWW_DASHED1
 62
   120
370
     5
100
AcDbLine
 10
77.94865013184449
 20
96.98458946140164
 30
0.0
 11
327.9486501318352
 21
346.9845894613921
 31
0.0
  0
LINE
  5
16F
330
1F
100
AcDbEntity
  8
0-0
  6
JWW_DASHED1
 62
   120
370
     5
100
AcDbLine
 10
-262.0513498681547
 20
-243.0154105385974
 30
0.0
 11
-12.05134986816297
 21
6.984589461394393
 31
0.0
  0
LINE
  5
170
330
1F
100
AcDbEntity
  8
0-0
  6
JWW_DASHED1
 62
   120
370
     5
100
AcDbLine
 10
77.94865013184022
 20
89.9135216481119
 30
0.0
 11
327.948650131829
 21
339.9135216481006
 31
0.0
  0
LINE
  5
171
330
1F
100
AcDbEntity
  8
0-0
  6
JWW_DASHED1
 62
   120
370
     5
100
AcDbLine
 10
-262.051349868156
 20
-250.0864783518846
 30
0.0
 11
-12.05134986816617
 21
-0.0864783518944989
 31
0.0
  0
LINE
  5
172
330
1F
100
AcDbEntity
  8
0-0
  6
JWW_DASHED1
 62
   120
370
     5
100
AcDbLine
 10
77.9486501318285
 20
82.8424538348149
 30
0.0
 11
327.9486501318331
 21
332.842453834819
 31
0.0
  0
LINE
  5
173
330
1F
100
AcDbEntity
  8
0-0
  6
JWW_DASHED1
 62
   120
370
     5
100
AcDbLine
 10
-262.0513498681522
 20
-257.1575461651657
 30
0.0
 11
-12.05134986816233
 21
-7.157546165176143
 31
0.0
  0
LINE
  5
174
330
1F
100
AcDbEntity
  8
0-0
  6
JWW_DASHED1
 62
   120
370
     5
100
AcDbLine
 10
77.94865013182509
 20
75.77138602152601
 30
0.0
 11
327.9486501318314
 21
325.7713860215323
 31
0.0
  0
LINE
  5
175
330
1F
100
AcDbEntity
  8
0-0
  6
JWW_DASHED1
 62
   120
370
     5
100
AcDbLine
 10
-262.0513498681742
 20
-264.2286139784734
 30
0.0
 11
-12.05134986816702
 21
-14.22861397846631
 31
0.0
  0
LINE
  5
176
330
1F
100
AcDbEntity
  8
0-0
  6
JWW_DASHED1
 62
   120
370
     5
100
AcDbLine
 10
77.94865013182914
 20
68.70031820824437
 30
0.0
 11
327.9486501318356
 21
318.700318208251
 31
0.0
  0
LINE
  5
177
330
1F
100
AcDbEntity
  8
0-0
  6
JWW_DASHED1
 62
   120
370
     5
100
AcDbLine
 10
-262.0513498681701
 20
-271.2996817917547
 30
0.0
 11
-12.05134986816276
 21
-21.29968179174753
 31
0.0
  0
LINE
  5
178
330
1F
100
AcDbEntity
  8
0-0
  6
JWW_DASHED1
 62
   120
370
     5
100
AcDbLine
 10
77.94865013183298
 20
61.62925039496272
 30
0.0
 11
327.9486501318239
 21
311.6292503949536
 31
0.0
  0
LINE
  5
179
330
1F
100
AcDbEntity
  8
0-0
  6
JWW_DASHED1
 62
   120
370
     5
100
AcDbLine
 10
-262.051349868166
 20
-278.3707496050363
 30
0.0
 11
-12.05134986815892
 21
-28.37074960502918
 31
0.0
  0
LINE
  5
17A
330
1F
100
AcDbEntity
  8
0-0
  6
JWW_DASHED1
 62
   120
370
     5
100
AcDbLine
 10
77.94865013183703
 20
54.55818258168151
 30
0.0
 11
327.9486501318277
 21
304.558182581672
 31
0.0
  0
LINE
  5
17B
330
1F
100
AcDbEntity
  8
0-0
  6
JWW_DASHED1
 62
   120
370
     5
100
AcDbLine
 10
-262.0513498681622
 20
-285.4418174183179
 30
0.0
 11
-12.05134986817065
 21
-35.44181741832617
 31
0.0
  0
LINE
  5
17C
330
1F
100
AcDbEntity
  8
0-0
  6
JWW_DASHED1
 62
   120
370
     5
100
AcDbLine
 10
77.94865013183745
 20
47.4871147684506
 30
0.0
 11
327.9486501318262
 21
297.4871147684398
 31
0.0
  0
LINE
  5
17D
330
1F
100
AcDbEntity
  8
0-0
  6
JWW_DASHED1
 62
   120
370
     5
100
AcDbLine
 10
-262.0513498681588
 20
-292.5128852315454
 30
0.0
 11
-12.05134986816958
 21
-42.51288523155623
 31
0.0
  0
LINE
  5
17E
330
1F
100
AcDbEntity
  8
0-0
  6
JWW_DASHED1
 62
   120
370
     5
100
AcDbLine
 10
77.94865013184129
 20
40.41604695516938
 30
0.0
 11
327.9486501318303
 21
290.4160469551578
 31
0.0
  0
LINE
  5
17F
330
1F
100
AcDbEntity
  8
0-0
  6
JWW_DASHED1
 62
   120
370
     5
100
AcDbLine
 10
-262.0513498681549
 20
-299.5839530448271
 30
0.0
 11
-12.05134986816532
 21
-49.58395304483744
 31
0.0
  0
LINE
  5
180
330
1F
100
AcDbEntity
  8
0-0
  6
JWW_DASHED1
 62
   120
370
     5
100
AcDbLine
 10
77.94865013182168
 20
33.34497914186429
 30
0.0
 11
327.9486501318283
 21
283.3449791418706
 31
0.0
  0
LINE
  5
181
330
1F
100
AcDbEntity
  8
0-0
  6
JWW_DASHED1
 62
   120
370
     5
100
AcDbLine
 10
-262.0513498681615
 20
-306.655020858119
 30
0.0
 11
-12.05134986817001
 21
-56.65502085812761
 31
0.0
  0
LINE
  5
182
330
1F
100
AcDbEntity
  8
0-0
  6
JWW_DASHED1
 62
   120
370
     5
100
AcDbLine
 10
77.94865013182573
 20
26.27391132858264
 30
0.0
 11
327.9486501318322
 21
276.2739113285893
 31
0.0
  0
LINE
  5
183
330
1F
100
AcDbEntity
  8
0-0
  6
JWW_DASHED1
 62
   120
370
     5
100
AcDbLine
 10
-262.0513498681732
 20
-313.7260886714164
 30
0.0
 11
-12.05134986816617
 21
-63.72608867140926
 31
0.0
  0
LINE
  5
184
330
1F
100
AcDbEntity
  8
0-0
  6
JWW_DASHED1
 62
   120
370
     5
100
AcDbLine
 10
77.94865013182978
 20
19.202843515301
 30
0.0
 11
327.9486501318365
 21
269.2028435153081
 31
0.0
  0
LINE
  5
185
330
1F
100
AcDbEntity
  8
0-0
  6
JWW_DASHED1
 62
   120
370
     5
100
AcDbLine
 10
-262.0513498681692
 20
-320.7971564846976
 30
0.0
 11
-12.05134986816191
 21
-70.79715648469048
 31
0.0
  0
LINE
  5
186
330
1F
100
AcDbEntity
  8
0-0
  6
JWW_DASHED1
 62
   120
370
     5
100
AcDbLine
 10
77.94865013183404
 20
12.13177570201978
 30
0.0
 11
327.9486501318247
 21
262.1317757020107
 31
0.0
  0
LINE
  5
187
330
1F
100
AcDbEntity
  8
0-0
  6
JWW_DASHED1
 62
   120
370
     5
100
AcDbLine
 10
-262.0513498681652
 20
-327.8682242979792
 30
0.0
 11
-12.05134986815764
 21
-77.8682242979717
 31
0.0
  0
LINE
  5
188
330
1F
100
AcDbEntity
  8
0-0
  6
JWW_DASHED1
 62
   120
370
     5
100
AcDbLine
 10
77.94865013183788
 20
5.060707888738563
 30
0.0
 11
327.9486501318286
 21
255.060707888729
 31
0.0
  0
LINE
  5
189
330
1F
100
AcDbEntity
  8
0-0
  6
JWW_DASHED1
 62
   120
370
     5
100
AcDbLine
 10
-262.0513498681613
 20
-334.9392921112609
 30
0.0
 11
-12.05134986816979
 21
-84.93929211126911
 31
0.0
  0
LINE
  5
18A
330
1F
100
AcDbEntity
  8
0-0
  6
JWW_DASHED1
 62
   120
370
     5
100
AcDbLine
 10
77.94865013184172
 20
-2.010359924543508
 30
0.0
 11
327.9486501318328
 21
247.9896400754474
 31
0.0
  0
LINE
  5
18B
330
1F
100
AcDbEntity
  8
0-0
  6
JWW_DASHED1
 62
   120
370
     5
100
AcDbLine
 10
-262.0513498681573
 20
-342.0103599245421
 30
0.0
 11
-12.05134986816553
 21
-92.01035992455033
 31
0.0
  0
LINE
  5
18C
330
1F
100
AcDbEntity
  8
0-0
  6
JWW_DASHED1
 62
   120
370
     5
100
AcDbLine
 10
77.9486501318383
 20
-9.0814277378324
 30
0.0
 11
327.9486501318271
 21
240.9185722621564
 31
0.0
  0
LINE
  5
18D
330
1F
100
AcDbEntity
  8
0-0
  6
JWW_DASHED1
 62
   120
370
     5
100
AcDbLine
 10
-262.0513498681579
 20
-349.0814277378284
 30
0.0
 11
-12.0513498681683
 21
-99.0814277378388
 31
0.0
  0
LINE
  5
18E
330
1F
100
AcDbEntity
  8
0-0
  6
JWW_DASHED1
 62
   120
370
     5
100
AcDbLine
 10
77.94865013182253
 20
-16.15249555107866
 30
0.0
 11
327.9486501318292
 21
233.8475044489276
 31
0.0
  0
LINE
  5
18F
330
1F
100
AcDbEntity
  8
0-0
  6
JWW_DASHED1
 62
   120
370
     5
100
AcDbLine
 10
-262.0513498681607
 20
-356.1524955510619
 30
0.0
 11
-12.05134986816915
 21
-106.1524955510706
 31
0.0
  0
LINE
  5
190
330
1F
100
AcDbEntity
  8
0-0
  6
JWW_DASHED1
 62
   120
370
     5
100
AcDbLine
 10
77.9486501318268
 20
-23.22356336435988
 30
0.0
 11
327.9486501318332
 21
226.7764366356464
 31
0.0
  0
LINE
  5
191
330
1F
100
AcDbEntity
  8
0-0
  6
JWW_DASHED1
 62
   120
370
     5
100
AcDbLine
 10
-262.0513498681725
 20
-363.2235633643593
 30
0.0
 11
-12.05134986816532
 21
-113.2235633643522
 31
0.0
  0
LINE
  5
192
330
1F
100
AcDbEntity
  8
0-0
  6
JWW_DASHED1
 62
   120
370
     5
100
AcDbLine
 10
77.94865013183063
 20
-30.29463117764195
 30
0.0
 11
327.9486501318373
 21
219.7053688223652
 31
0.0
  0
LINE
  5
193
330
1F
100
AcDbEntity
  8
0-0
  6
JWW_DASHED1
 62
   120
370
     5
100
AcDbLine
 10
-262.0513498681684
 20
-370.2946311776406
 30
0.0
 11
-12.05134986816105
 21
-120.2946311776334
 31
0.0
  0
LINE
  5
194
330
1F
100
AcDbEntity
  8
0-0
  6
JWW_DASHED1
 62
   120
370
     5
100
AcDbLine
 10
77.9486501318349
 20
-37.36569899092316
 30
0.0
 11
327.9486501318256
 21
212.6343010090677
 31
0.0
  0
LINE
  5
195
330
1F
100
AcDbEntity
  8
0-0
  6
JWW_DASHED1
 62
   120
370
     5
100
AcDbLine
 10
-262.0513498681646
 20
-377.3656989909222
 30
0.0
 11
-12.05134986817278
 21
-127.3656989909308
 31
0.0
  0
LINE
  5
196
330
1F
100
AcDbEntity
  8
0-0
  6
JWW_DASHED1
 62
   120
370
     5
100
AcDbLine
 10
77.94865013183873
 20
-44.43676680420438
 30
0.0
 11
327.9486501318294
 21
205.5632331957861
 31
0.0
  0
LINE
  5
197
330
1F
100
AcDbEntity
  8
0-0
  6
JWW_DASHED1
 62
   120
370
     5
100
AcDbLine
 10
-262.0513498681605
 20
-384.4367668042038
 30
0.0
 11
-12.05134986816894
 21
-134.4367668042121
 31
0.0
  0
LINE
  5
198
330
1F
100
AcDbEntity
  8
0-0
  6
JWW_DASHED1
 62
   120
370
     5
100
AcDbLine
 10
77.94865013184257
 20
-51.50783461748645
 30
0.0
 11
327.9486501318335
 21
198.4921653825045
 31
0.0
  0
LINE
  5
199
330
1F
100
AcDbEntity
  8
0-0
  6
JWW_DASHED1
 62
   120
370
     5
100
AcDbLine
 10
-262.0513498681564
 20
-391.5078346174851
 30
0.0
 11
-12.05134986816468
 21
-141.5078346174933
 31
0.0
  0
LINE
  5
19A
330
1F
100
AcDbEntity
  8
0-0
  6
JWW_DASHED1
 62
   120
370
     5
100
AcDbLine
 10
77.94865013183959
 20
-58.57890243077449
 30
0.0
 11
327.9486501318283
 21
191.4210975692139
 31
0.0
  0
LINE
  5
19B
330
1F
100
AcDbEntity
  8
0-0
  6
JWW_DASHED1
 62
   120
370
     5
100
AcDbLine
 10
-262.0513498681571
 20
-398.5789024307713
 30
0.0
 11
-12.05134986816724
 21
-148.5789024307813
 31
0.0
  0
LINE
  5
19C
330
1F
100
AcDbEntity
  8
0-0
  6
JWW_DASHED1
 62
   120
370
     5
100
AcDbLine
 10
77.94865013184364
 20
-65.64997024405614
 30
0.0
 11
327.9486501318324
 21
184.3500297559326
 31
0.0
  0
LINE
  5
19D
330
1F
100
AcDbEntity
  8
0-0
  6
JWW_DASHED1
 62
   120
370
     5
100
AcDbLine
 10
-262.0513498681528
 20
-405.6499702440526
 30
0.0
 11
-12.05134986816297
 21
-155.6499702440625
 31
0.0
  0
LINE
  5
19E
330
1F
100
AcDbEntity
  8
0-0
  6
JWW_DASHED1
 62
   120
370
     5
100
AcDbLine
 10
77.94865013182317
 20
-72.72103805736208
 30
0.0
 11
327.9486501318297
 21
177.2789619426442
 31
0.0
  0
LINE
  5
19F
330
1F
100
AcDbEntity
  8
0-0
  6
JWW_DASHED1
 62
   120
370
     5
100
AcDbLine
 10
-262.0513498681601
 20
-412.7210380573453
 30
0.0
 11
-12.05134986816851
 21
-162.721038057354
 31
0.0
  0
LINE
  5
1A0
330
1F
100
AcDbEntity
  8
0-0
  6
JWW_DASHED1
 62
   120
370
     5
100
AcDbLine
 10
77.94865013183149
 20
-79.79210587058489
 30
0.0
 11
327.9486501318222
 21
170.207894129406
 31
0.0
  0
LINE
  5
1A1
330
1F
100
AcDbEntity
  8
0-0
  6
JWW_DASHED1
 62
   120
370
     5
100
AcDbLine
 10
-262.0513498681675
 20
-419.7921058705834
 30
0.0
 11
-12.0513498681602
 21
-169.7921058705764
 31
0.0
  0
LINE
  5
1A2
330
1F
100
AcDbEntity
  8
0-0
  6
JWW_DASHED1
 62
   120
370
     5
100
AcDbLine
 10
77.94865013183575
 20
-86.86317368386611
 30
0.0
 11
327.9486501318262
 21
163.1368263161248
 31
0.0
  0
LINE
  5
1A3
330
1F
100
AcDbEntity
  8
0-0
  6
JWW_DASHED1
 62
   120
370
     5
100
AcDbLine
 10
-262.0513498681639
 20
-426.8631736838655
 30
0.0
 11
-12.05134986817193
 21
-176.8631736838738
 31
0.0
  0
LINE
  5
1A4
330
1F
100
AcDbEntity
  8
0-0
  6
JWW_DASHED1
 62
   120
370
     5
100
AcDbLine
 10
77.94865013183959
 20
-93.93424149714733
 30
0.0
 11
327.9486501318303
 21
156.0657585028432
 31
0.0
  0
LINE
  5
1A5
330
1F
100
AcDbEntity
  8
0-0
  6
JWW_DASHED1
 62
   120
370
     5
100
AcDbLine
 10
-262.0513498681596
 20
-433.9342414971468
 30
0.0
 11
-12.05134986816809
 21
-183.934241497155
 31
0.0
  0
LINE
  5
1A6
330
1F
100
AcDbEntity
  8
0-0
  6
JWW_DASHED1
 62
   120
370
     5
100
AcDbLine
 10
77.94865013184342
 20
-101.0053093104294
 30
0.0
 11
327.9486501318343
 21
148.9946906895615
 31
0.0
  0
LINE
  5
1A7
330
1F
100
AcDbEntity
  8
0-0
  6
JWW_DASHED1
 62
   120
370
     5
100
AcDbLine
 10
-262.0513498681558
 20
-441.0053093104284
 30
0.0
 11
-12.05134986816404
 21
-191.0053093104362
 31
0.0
  0
LINE
  5
1A8
330
1F
100
AcDbEntity
  8
0-0
  6
JWW_DASHED1
 62
   120
370
     5
100
AcDbLine
 10
77.94865013184108
 20
-108.076377123717
 30
0.0
 11
327.9486501318297
 21
141.9236228762713
 31
0.0
  0
LINE
  5
1A9
330
1F
100
AcDbEntity
  8
0-0
  6
JWW_DASHED1
 62
   120
370
     5
100
AcDbLine
 10
-262.0513498681556
 20
-448.0763771237134
 30
0.0
 11
-12.05134986816574
 21
-198.0763771237238
 31
0.0
  0
LINE
  5
1AA
330
1F
100
AcDbEntity
  8
0-0
  6
JWW_DASHED1
 62
   120
370
     5
100
AcDbLine
 10
77.94865013182893
 20
-115.1474449370149
 30
0.0
 11
327.9486501318337
 21
134.8525550629897
 31
0.0
  0
LINE
  5
1AB
330
1F
100
AcDbEntity
  8
0-0
  6
JWW_DASHED1
 62
   120
370
     5
100
AcDbLine
 10
-262.0513498681513
 20
-455.1474449369947
 30
0.0
 11
-12.05134986816191
 21
-205.1474449370055
 31
0.0
  0
LINE
  5
1AC
330
1F
100
AcDbEntity
  8
0-0
  6
JWW_DASHED1
 62
   120
370
     5
100
AcDbLine
 10
77.94865013182402
 20
-122.218512750305
 30
0.0
 11
327.9486501318305
 21
127.7814872497012
 31
0.0
  0
LINE
  5
1AD
330
1F
100
AcDbEntity
  8
0-0
  6
JWW_DASHED1
 62
   120
370
     5
100
AcDbLine
 10
-262.0513498681752
 20
-462.2185127503041
 30
0.0
 11
-12.05134986816766
 21
-212.2185127502969
 31
0.0
  0
LINE
  5
1AE
330
1F
100
AcDbEntity
  8
0-0
  6
JWW_DASHED1
 62
   120
370
     5
100
AcDbLine
 10
77.94865013182786
 20
-129.2895805635867
 30
0.0
 11
327.9486501318345
 21
120.71041943642
 31
0.0
  0
LINE
  5
1AF
330
1F
100
AcDbEntity
  8
0-0
  6
JWW_DASHED1
 62
   120
370
     5
100
AcDbLine
 10
-262.0513498681714
 20
-469.2895805635861
 30
0.0
 11
-12.0513498681634
 21
-219.2895805635781
 31
0.0
  0
LINE
  5
1B0
330
1F
100
AcDbEntity
  8
0-0
  6
JWW_DASHED1
 62
   120
370
     5
100
AcDbLine
 10
77.94865013183191
 20
-136.3606483768679
 30
0.0
 11
327.9486501318228
 21
113.639351623123
 31
0.0
  0
LINE
  5
1B1
330
1F
100
AcDbEntity
  8
0-0
  6
JWW_DASHED1
 62
   120
370
     5
100
AcDbLine
 10
-262.0513498681671
 20
-476.3606483768673
 30
0.0
 11
-12.05134986815956
 21
-226.3606483768594
 31
0.0
  0
LINE
  5
1B2
330
1F
100
AcDbEntity
  8
0-0
  6
JWW_DASHED1
 62
   120
370
     5
100
AcDbLine
 10
77.94865013183596
 20
-143.4317161901495
 30
0.0
 11
327.9486501318266
 21
106.5682838098409
 31
0.0
  0
LINE
  5
1B3
330
1F
100
AcDbEntity
  8
0-0
  6
JWW_DASHED1
 62
   120
370
     5
100
AcDbLine
 10
-262.051349868163
 20
-483.4317161901486
 30
0.0
 11
-12.05134986817129
 21
-233.4317161901568
 31
0.0
  0
LINE
  5
1B4
330
1F
100
AcDbEntity
  8
0-0
  6
JWW_DASHED1
 62
   120
370
     5
100
AcDbLine
 10
77.94865013183788
 20
-150.5027840033783
 30
0.0
 11
327.9486501318266
 21
99.49721599661004
 31
0.0
  0
LINE
  5
1B5
330
1F
100
AcDbEntity
  8
0-0
  6
JWW_DASHED1
 62
   120
370
     5
100
AcDbLine
 10
-262.0513498681584
 20
-490.5027840033744
 30
0.0
 11
-12.05134986816873
 21
-240.5027840033851
 31
0.0
  0
LINE
  5
1B6
330
1F
100
AcDbEntity
  8
0-0
  6
JWW_DASHED1
 62
   120
370
     5
100
AcDbLine
 10
77.94865013184172
 20
-157.57385181666
 30
0.0
 11
327.9486501318307
 21
92.42614818332882
 31
0.0
  0
LINE
  5
1B7
330
1F
100
AcDbEntity
  8
0-0
  6
JWW_DASHED1
 62
   120
370
     5
100
AcDbLine
 10
-262.0513498681541
 20
-497.573851816656
 30
0.0
 11
-12.05134986816468
 21
-247.5738518166663
 31
0.0
  0
LINE
  5
1B8
330
1F
100
AcDbEntity
  8
0-0
  6
JWW_DASHED1
 62
   120
370
     5
100
AcDbLine
 10
77.94865013182061
 20
-164.6449196299668
 30
0.0
 11
327.9486501318273
 21
85.35508037003993
 31
0.0
  0
LINE
  5
1B9
330
1F
100
AcDbEntity
  8
0-0
  6
JWW_DASHED1
 62
   120
370
     5
100
AcDbLine
 10
-262.0513498681626
 20
-504.64491962995
 30
0.0
 11
-12.05134986817107
 21
-254.6449196299587
 31
0.0
  0
LINE
  5
1BA
330
1F
100
AcDbEntity
  8
0-0
  6
JWW_DASHED1
 62
   120
370
     5
100
AcDbLine
 10
77.94865013182488
 20
-171.715987443248
 30
0.0
 11
327.9486501318311
 21
78.28401255675828
 31
0.0
  0
LINE
  5
1BB
330
1F
100
AcDbEntity
  8
0-0
  6
JWW_DASHED1
 62
   120
370
     5
100
AcDbLine
 10
-262.0513498681743
 20
-511.7159874432469
 30
0.0
 11
-12.05134986816681
 21
-261.7159874432399
 31
0.0
  0
LINE
  5
1BC
330
1F
100
AcDbEntity
  8
0-0
  6
JWW_DASHED1
 62
   120
370
     5
100
AcDbLine
 10
77.94865013182871
 20
-178.7870552565296
 30
0.0
 11
327.9486501318352
 21
71.21294474347664
 31
0.0
  0
LINE
  5
1BD
330
1F
100
AcDbEntity
  8
0-0
  6
JWW_DASHED1
 62
   120
370
     5
100
AcDbLine
 10
-262.0513498681705
 20
-518.787055256529
 30
0.0
 11
-12.05134986816297
 21
-268.7870552565211
 31
0.0
  0
LINE
  5
1BE
330
1F
100
AcDbEntity
  8
0-0
  6
JWW_DASHED1
 62
   120
370
     5
100
AcDbLine
 10
77.94865013183255
 20
-185.8581230698108
 30
0.0
 11
327.9486501318237
 21
64.14187693018008
 31
0.0
  0
LINE
  5
1BF
330
1F
100
AcDbEntity
  8
0-0
  6
JWW_DASHED1
 62
   120
370
     5
100
AcDbLine
 10
-262.0513498681663
 20
-525.8581230698103
 30
0.0
 11
-12.05134986815914
 21
-275.8581230698027
 31
0.0
  0
LINE
  5
1C0
330
1F
100
AcDbEntity
  8
0-0
  6
JWW_DASHED1
 62
   120
370
     5
100
AcDbLine
 10
77.94865013183681
 20
-192.9291908830925
 30
0.0
 11
327.9486501318275
 21
57.070809116898
 31
0.0
  0
LINE
  5
1C1
330
1F
100
AcDbEntity
  8
0-0
  6
JWW_DASHED1
 62
   120
370
     5
100
AcDbLine
 10
-262.0513498681624
 20
-532.9291908830915
 30
0.0
 11
-12.05134986817086
 21
-282.9291908831001
 31
0.0
  0
LINE
  5
1C2
330
1F
100
AcDbEntity
  8
0-0
  6
JWW_DASHED1
 62
   120
370
     5
100
AcDbLine
 10
77.94865013184108
 20
-200.0002586963737
 30
0.0
 11
327.9486501318315
 21
49.99974130361679
 31
0.0
  0
LINE
  5
1C3
330
1F
100
AcDbEntity
  8
0-0
  6
JWW_DASHED1
 62
   120
370
     5
100
AcDbLine
 10
-262.0513498681586
 20
-540.0002586963731
 30
0.0
 11
-12.05134986816702
 21
-290.0002586963818
 31
0.0
  0
LINE
  5
1C4
330
1F
100
AcDbEntity
  8
0-0
  6
JWW_DASHED1
 62
   120
370
     5
100
AcDbLine
 10
77.94865013183916
 20
-207.0713265096613
 30
0.0
 11
327.9486501318277
 21
42.92867349032704
 31
0.0
  0
LINE
  5
1C5
330
1F
100
AcDbEntity
  8
0-0
  6
JWW_DASHED1
 62
   120
370
     5
100
AcDbLine
 10
-262.0513498681573
 20
-547.0713265096573
 30
0.0
 11
-12.05134986816788
 21
-297.0713265096681
 31
0.0
  0
LINE
  5
1C6
330
1F
100
AcDbEntity
  8
0-0
  6
JWW_DASHED1
 62
   120
370
     5
100
AcDbLine
 10
77.94865013182147
 20
-214.1423943229097
 30
0.0
 11
327.9486501318279
 21
35.85760567709698
 31
0.0
  0
LINE
  5
1C7
330
1F
100
AcDbEntity
  8
0-0
  6
JWW_DASHED1
 62
   120
370
     5
100
AcDbLine
 10
-262.0513498681618
 20
-554.1423943228929
 30
0.0
 11
-12.05134986817022
 21
-304.1423943229016
 31
0.0
  0
LINE
  5
1C8
330
1F
100
AcDbEntity
  8
0-0
  6
JWW_DASHED1
 62
   120
370
     5
100
AcDbLine
 10
77.94865013182573
 20
-221.2134621361909
 30
0.0
 11
327.948650131832
 21
28.78653786381534
 31
0.0
  0
LINE
  5
1C9
330
1F
100
AcDbEntity
  8
0-0
  6
JWW_DASHED1
 62
   120
370
     5
100
AcDbLine
 10
-262.0513498681739
 20
-561.2134621361904
 30
0.0
 11
-12.05134986816596
 21
-311.2134621361828
 31
0.0
  0
LINE
  5
1CA
330
1F
100
AcDbEntity
  8
0-0
  6
JWW_DASHED1
 62
   120
370
     5
100
AcDbLine
 10
77.94865013182957
 20
-228.2845299494726
 30
0.0
 11
327.9486501318362
 21
21.71547005053412
 31
0.0
  0
LINE
  5
1CB
330
1F
100
AcDbEntity
  8
0-0
  6
JWW_DASHED1
 62
   120
370
     5
100
AcDbLine
 10
-262.0513498681697
 20
-568.284529949472
 30
0.0
 11
-12.05134986816233
 21
-318.2845299494645
 31
0.0
  0
LINE
  5
1CC
330
1F
100
AcDbEntity
  8
0-0
  6
JWW_DASHED1
 62
   120
370
     5
100
AcDbLine
 10
77.9486501318334
 20
-235.3555977627542
 30
0.0
 11
327.9486501318245
 21
14.64440223723713
 31
0.0
  0
LINE
  5
1CD
330
1F
100
AcDbEntity
  8
0-0
  6
JWW_DASHED1
 62
   120
370
     5
100
AcDbLine
 10
-262.0513498681654
 20
-575.3555977627532
 30
0.0
 11
-12.05134986817384
 21
-325.3555977627615
 31
0.0
  0
LINE
  5
1CE
330
1F
100
AcDbEntity
  8
0-0
  6
JWW_DASHED1
 62
   120
370
     5
100
AcDbLine
 10
77.94865013183767
 20
-242.4266655760354
 30
0.0
 11
327.9486501318283
 21
7.57333442395506
 31
0.0
  0
LINE
  5
1CF
330
1F
100
AcDbEntity
  8
0-0
  6
JWW_DASHED1
 62
   120
370
     5
100
AcDbLine
 10
-262.0513498681613
 20
-582.4266655760345
 30
0.0
 11
-12.05134986817001
 21
-332.4266655760431
 31
0.0
  0
LINE
  5
1D0
330
1F
100
AcDbEntity
  8
0-0
  6
JWW_DASHED1
 62
   120
370
     5
100
AcDbLine
 10
77.9486501318415
 20
-249.4977333893171
 30
0.0
 11
327.9486501318322
 21
0.5022666106738427
 31
0.0
  0
LINE
  5
1D1
330
1F
100
AcDbEntity
  8
0-0
  6
JWW_DASHED1
 62
   120
370
     5
100
AcDbLine
 10
-262.0513498681573
 20
-589.4977333893156
 30
0.0
 11
-12.05134986816617
 21
-339.4977333893247
 31
0.0
  0
LINE
  5
1D2
330
1F
100
AcDbEntity
  8
0-0
  6
JWW_DASHED1
 62
   120
370
     5
100
AcDbLine
 10
77.94865013184001
 20
-256.5688012026043
 30
0.0
 11
327.948650131829
 21
-6.568801202615049
 31
0.0
  0
LINE
  5
1D3
330
1F
100
AcDbEntity
  8
0-0
  6
JWW_DASHED1
 62
   120
370
     5
100
AcDbLine
 10
-262.051349868156
 20
-596.5688012025998
 30
0.0
 11
-12.05134986816638
 21
-346.5688012026102
 31
0.0
  0
LINE
  5
1D4
330
1F
100
AcDbEntity
  8
0-0
  6
JWW_DASHED1
 62
   120
370
     5
100
AcDbLine
 10
77.94865013184427
 20
-263.6398690158854
 30
0.0
 11
327.9486501318331
 21
-13.63986901589627
 31
0.0
  0
LINE
  5
1D5
330
1F
100
AcDbEntity
  8
0-0
  6
JWW_DASHED1
 62
   120
370
     5
100
AcDbLine
 10
-262.051349868152
 20
-603.6398690158815
 30
0.0
 11
-12.05134986816255
 21
-353.6398690158923
 31
0.0
  0
LINE
  5
1D6
330
1F
100
AcDbEntity
  8
0-0
  6
JWW_DASHED1
 62
   120
370
     5
100
AcDbLine
 10
77.94865013182189
 20
-270.7109368291931
 30
0.0
 11
327.9486501318288
 21
-20.71093682918644
 31
0.0
  0
LINE
  5
1D7
330
1F
100
AcDbEntity
  8
0-0
  6
JWW_DASHED1
 62
   120
370
     5
100
AcDbLine
 10
-262.0513498681613
 20
-610.7109368291764
 30
0.0
 11
-12.05134986816915
 21
-360.7109368291842
 31
0.0
  0
LINE
  5
1D8
330
1F
100
AcDbEntity
  8
0-0
  6
JWW_DASHED1
 62
   120
370
     5
100
AcDbLine
 10
77.94865013182616
 20
-277.7820046424744
 30
0.0
 11
327.9486501318328
 21
-27.78200464246808
 31
0.0
  0
LINE
  5
1D9
330
1F
100
AcDbEntity
  8
0-0
  6
JWW_DASHED1
 62
   120
370
     5
100
AcDbLine
 10
-262.0513498681728
 20
-617.7820046424733
 30
0.0
 11
-12.05134986816553
 21
-367.7820046424658
 31
0.0
  0
LINE
  5
1DA
330
1F
100
AcDbEntity
  8
0-0
  6
JWW_DASHED1
 62
   120
370
     5
100
AcDbLine
 10
77.94865013183426
 20
-284.8530724556971
 30
0.0
 11
327.9486501318252
 21
-34.85307245570624
 31
0.0
  0
LINE
  5
1DB
330
1F
100
AcDbEntity
  8
0-0
  6
JWW_DASHED1
 62
   120
370
     5
100
AcDbLine
 10
-262.0513498681646
 20
-624.8530724556962
 30
0.0
 11
-12.05134986817299
 21
-374.8530724557044
 31
0.0
  0
LINE
  5
1DC
330
1F
100
AcDbEntity
  8
0-0
  6
JWW_DASHED1
 62
   120
370
     5
100
AcDbLine
 10
77.94865013183852
 20
-291.9241402689784
 30
0.0
 11
327.9486501318292
 21
-41.92414026898788
 31
0.0
  0
LINE
  5
1DD
330
1F
100
AcDbEntity
  8
0-0
  6
JWW_DASHED1
 62
   120
370
     5
100
AcDbLine
 10
-262.0513498681605
 20
-631.9241402689773
 30
0.0
 11
-12.05134986816894
 21
-381.9241402689856
 31
0.0
  0
LINE
  5
1DE
330
1F
100
AcDbEntity
  8
0-0
  6
JWW_DASHED1
 62
   120
370
     5
100
AcDbLine
 10
77.94865013184236
 20
-298.99520808226
 30
0.0
 11
327.9486501318332
 21
-48.9952080822691
 31
0.0
  0
LINE
  5
1DF
330
1F
100
AcDbEntity
  8
0-0
  6
JWW_DASHED1
 62
   120
370
     5
100
AcDbLine
 10
-262.0513498681569
 20
-638.9952080822594
 30
0.0
 11
-12.05134986816532
 21
-388.9952080822677
 31
0.0
  0
LINE
  5
1E0
330
1F
100
AcDbEntity
  8
0-0
  6
JWW_DASHED1
 62
   120
370
     5
100
AcDbLine
 10
77.9486501318415
 20
-306.0662758955464
 30
0.0
 11
327.9486501318303
 21
-56.06627589555757
 31
0.0
  0
LINE
  5
1E1
330
1F
100
AcDbEntity
  8
0-0
  6
JWW_DASHED1
 62
   120
370
     5
100
AcDbLine
 10
-262.0513498681547
 20
-646.0662758955424
 30
0.0
 11
-12.05134986816532
 21
-396.0662758955532
 31
0.0
  0
LINE
  5
1E2
330
1F
100
AcDbEntity
  8
0-0
  6
JWW_DASHED1
 62
   120
370
     5
100
AcDbLine
 10
77.94865013182978
 20
-313.1373437088438
 30
0.0
 11
327.9486501318343
 21
-63.13734370883921
 31
0.0
  0
LINE
  5
1E3
330
1F
100
AcDbEntity
  8
0-0
  6
JWW_DASHED1
 62
   120
370
     5
100
AcDbLine
 10
-262.0513498681509
 20
-653.1373437088245
 30
0.0
 11
-12.05134986816148
 21
-403.1373437088344
 31
0.0
  0
LINE
  5
1E4
330
1F
100
AcDbEntity
  8
0-0
  6
JWW_DASHED1
 62
   120
370
     5
100
AcDbLine
 10
77.94865013182275
 20
-320.2084115221361
 30
0.0
 11
327.9486501318294
 21
-70.20841152212938
 31
0.0
  0
LINE
  5
1E5
330
1F
100
AcDbEntity
  8
0-0
  6
JWW_DASHED1
 62
   120
370
     5
100
AcDbLine
 10
-262.0513498681763
 20
-660.2084115221351
 30
0.0
 11
-12.05134986816873
 21
-410.2084115221276
 31
0.0
  0
LINE
  5
1E6
330
1F
100
AcDbEntity
  8
0-0
  6
JWW_DASHED1
 62
   120
370
     5
100
AcDbLine
 10
77.94865013182701
 20
-327.2794793354172
 30
0.0
 11
327.9486501318335
 21
-77.27947933541103
 31
0.0
  0
LINE
  5
1E7
330
1F
100
AcDbEntity
  8
0-0
  6
JWW_DASHED1
 62
   120
370
     5
100
AcDbLine
 10
-262.0513498681725
 20
-667.2794793354167
 30
0.0
 11
-12.05134986816468
 21
-417.2794793354087
 31
0.0
  0
LINE
  5
1E8
330
1F
100
AcDbEntity
  8
0-0
  6
JWW_DASHED1
 62
   120
370
     5
100
AcDbLine
 10
77.94865013183106
 20
-334.3505471486985
 30
0.0
 11
327.9486501318218
 21
-84.35054714870802
 31
0.0
  0
LINE
  5
1E9
330
1F
100
AcDbEntity
  8
0-0
  6
JWW_DASHED1
 62
   120
370
     5
100
AcDbLine
 10
-262.0513498681684
 20
-674.350547148698
 30
0.0
 11
-12.05134986816063
 21
-424.3505471486904
 31
0.0
  0
LINE
  5
1EA
330
1F
100
AcDbEntity
  8
0-0
  6
JWW_DASHED1
 62
   120
370
     5
100
AcDbLine
 10
77.94865013183468
 20
-341.4216149619806
 30
0.0
 11
327.9486501318256
 21
-91.42161496198966
 31
0.0
  0
LINE
  5
1EB
330
1F
100
AcDbEntity
  8
0-0
  6
JWW_DASHED1
 62
   120
370
     5
100
AcDbLine
 10
-262.0513498681643
 20
-681.4216149619791
 30
0.0
 11
-12.05134986817278
 21
-431.4216149619878
 31
0.0
  0
LINE
  5
1EC
330
1F
100
AcDbEntity
  8
0-0
  6
JWW_DASHED1
 62
   120
370
     5
100
AcDbLine
 10
77.94865013183873
 20
-348.4926827752072
 30
0.0
 11
327.9486501318273
 21
-98.49268277521887
 31
0.0
  0
LINE
  5
1ED
330
1F
100
AcDbEntity
  8
0-0
  6
JWW_DASHED1
 62
   120
370
     5
100
AcDbLine
 10
-262.0513498681577
 20
-688.4926827752041
 30
0.0
 11
-12.05134986816809
 21
-438.492682775214
 31
0.0
  0
LINE
  5
1EE
330
1F
100
AcDbEntity
  8
0-0
  6
JWW_DASHED1
 62
   120
370
     5
100
AcDbLine
 10
77.948650131843
 20
-355.5637505884885
 30
0.0
 11
327.9486501318315
 21
-105.5637505885001
 31
0.0
  0
LINE
  5
1EF
330
1F
100
AcDbEntity
  8
0-0
  6
JWW_DASHED1
 62
   120
370
     5
100
AcDbLine
 10
-262.0513498681537
 20
-695.5637505884853
 30
0.0
 11
-12.05134986816425
 21
-445.5637505884957
 31
0.0
  0
LINE
  5
1F0
330
1F
100
AcDbEntity
  8
0-0
  6
JWW_DASHED1
 62
   120
370
     5
100
AcDbLine
 10
77.94865013181976
 20
-362.6348184017974
 30
0.0
 11
327.9486501318262
 21
-112.6348184017907
 31
0.0
  0
LINE
  5
1F1
330
1F
100
AcDbEntity
  8
0-0
  6
JWW_DASHED1
 62
   120
370
     5
100
AcDbLine
 10
-262.0513498681637
 20
-702.6348184017806
 30
0.0
 11
-12.05134986817193
 21
-452.6348184017893
 31
0.0
  0
LINE
  5
1F2
330
1F
100
AcDbEntity
  8
0-0
  6
JWW_DASHED1
 62
   120
370
     5
100
AcDbLine
 10
77.9486501318236
 20
-369.705886215079
 30
0.0
 11
327.9486501318303
 21
-119.7058862150723
 31
0.0
  0
LINE
  5
1F3
330
1F
100
AcDbEntity
  8
0-0
  6
JWW_DASHED1
 62
   120
370
     5
100
AcDbLine
 10
-262.0513498681754
 20
-709.705886215078
 30
0.0
 11
-12.05134986816809
 21
-459.7058862150704
 31
0.0
  0
LINE
  5
1F4
330
1F
100
AcDbEntity
  8
0-0
  6
JWW_DASHED1
 62
   120
370
     5
100
AcDbLine
 10
77.94865013182765
 20
-376.7769540283603
 30
0.0
 11
327.9486501318343
 21
-126.776954028354
 31
0.0
  0
LINE
  5
1F5
330
1F
100
AcDbEntity
  8
0-0
  6
JWW_DASHED1
 62
   120
370
     5
100
AcDbLine
 10
-262.0513498681715
 20
-716.7769540283597
 30
0.0
 11
-12.05134986816404
 21
-466.7769540283517
 31
0.0
  0
LINE
  5
1F6
330
1F
100
AcDbEntity
  8
0-0
  6
JWW_DASHED1
 62
   120
370
     5
100
AcDbLine
 10
77.94865013183191
 20
-383.8480218416414
 30
0.0
 11
327.9486501318226
 21
-133.848021841651
 31
0.0
  0
LINE
  5
1F7
330
1F
100
AcDbEntity
  8
0-0
  6
JWW_DASHED1
 62
   120
370
     5
100
AcDbLine
 10
-262.0513498681673
 20
-723.8480218416408
 30
0.0
 11
-12.05134986816041
 21
-473.8480218416338
 31
0.0
  0
LINE
  5
1F8
330
1F
100
AcDbEntity
  8
0-0
  6
JWW_DASHED1
 62
   120
370
     5
100
AcDbLine
 10
77.94865013183554
 20
-390.9190896549235
 30
0.0
 11
327.9486501318264
 21
-140.9190896549326
 31
0.0
  0
LINE
  5
1F9
330
1F
100
AcDbEntity
  8
0-0
  6
JWW_DASHED1
 62
   120
370
     5
100
AcDbLine
 10
-262.0513498681635
 20
-730.9190896549221
 30
0.0
 11
-12.05134986817193
 21
-480.9190896549308
 31
0.0
  0
LINE
  5
1FA
330
1F
100
AcDbEntity
  8
0-0
  6
JWW_DASHED1
 62
   120
370
     5
100
AcDbLine
 10
77.9486501318398
 20
-397.9901574682048
 30
0.0
 11
327.9486501318307
 21
-147.9901574682138
 31
0.0
  0
LINE
  5
1FB
330
1F
100
AcDbEntity
  8
0-0
  6
JWW_DASHED1
 62
   120
370
     5
100
AcDbLine
 10
-262.0513498681592
 20
-737.9901574682037
 30
0.0
 11
-12.05134986816766
 21
-487.9901574682124
 31
0.0
  0
LINE
  5
1FC
330
1F
100
AcDbEntity
  8
0-0
  6
JWW_DASHED1
 62
   120
370
     5
100
AcDbLine
 10
77.94865013183959
 20
-405.0612252814902
 30
0.0
 11
327.9486501318281
 21
-155.0612252815019
 31
0.0
  0
LINE
  5
1FD
330
1F
100
AcDbEntity
  8
0-0
  6
JWW_DASHED1
 62
   120
370
     5
100
AcDbLine
 10
-262.0513498681569
 20
-745.061225281487
 30
0.0
 11
-12.05134986816702
 21
-495.0612252814971
 31
0.0
  0
LINE
  5
1FE
330
1F
100
AcDbEntity
  8
0-0
  6
JWW_DASHED1
 62
   120
370
     5
100
AcDbLine
 10
77.9486501318204
 20
-412.1322930947403
 30
0.0
 11
327.9486501318271
 21
-162.1322930947336
 31
0.0
  0
LINE
  5
1FF
330
1F
100
AcDbEntity
  8
0-0
  6
JWW_DASHED1
 62
   120
370
     5
100
AcDbLine
 10
-262.0513498681628
 20
-752.1322930947235
 30
0.0
 11
-12.05134986817129
 21
-502.1322930947322
 31
0.0
  0
LINE
  5
200
330
1F
100
AcDbEntity
  8
0-0
  6
JWW_DASHED1
 62
   120
370
     5
100
AcDbLine
 10
77.94865013182445
 20
-419.203360908022
 30
0.0
 11
327.9486501318311
 21
-169.2033609080153
 31
0.0
  0
LINE
  5
201
330
1F
100
AcDbEntity
  8
0-0
  6
JWW_DASHED1
 62
   120
370
     5
100
AcDbLine
 10
-262.0513498681746
 20
-759.203360908021
 30
0.0
 11
-12.05134986816724
 21
-509.2033609080135
 31
0.0
  0
LINE
  5
202
330
1F
100
AcDbEntity
  8
0-0
  6
JWW_DASHED1
 62
   120
370
     5
100
AcDbLine
 10
77.9486501318285
 20
-426.2744287213031
 30
0.0
 11
327.9486501318352
 21
-176.2744287212969
 31
0.0
  0
LINE
  5
203
330
1F
100
AcDbEntity
  8
0-0
  6
JWW_DASHED1
 62
   120
370
     5
100
AcDbLine
 10
-262.0513498681703
 20
-766.2744287213022
 30
0.0
 11
-12.05134986816319
 21
-516.2744287212946
 31
0.0
  0
LINE
  5
204
330
1F
100
AcDbEntity
  8
0-0
  6
JWW_DASHED1
 62
   120
370
     5
100
AcDbLine
 10
77.94865013183276
 20
-433.3454965345844
 30
0.0
 11
327.9486501318235
 21
-183.3454965345939
 31
0.0
  0
LINE
  5
205
330
1F
100
AcDbEntity
  8
0-0
  6
JWW_DASHED1
 62
   120
370
     5
100
AcDbLine
 10
-262.0513498681664
 20
-773.3454965345838
 30
0.0
 11
-12.05134986815914
 21
-523.3454965345767
 31
0.0
  0
LINE
  5
206
330
1F
100
AcDbEntity
  8
0-0
  6
JWW_DASHED1
 62
   120
370
     5
100
AcDbLine
 10
77.94865013183639
 20
-440.4165643478665
 30
0.0
 11
327.9486501318273
 21
-190.4165643478755
 31
0.0
  0
LINE
  5
207
330
1F
100
AcDbEntity
  8
0-0
  6
JWW_DASHED1
 62
   120
370
     5
100
AcDbLine
 10
-262.0513498681626
 20
-780.4165643478655
 30
0.0
 11
-12.05134986817107
 21
-530.4165643478736
 31
0.0
  0
LINE
  5
208
330
1F
100
AcDbEntity
  8
0-0
  6
JWW_DASHED1
 62
   120
370
     5
100
AcDbLine
 10
77.94865013184044
 20
-447.4876321611476
 30
0.0
 11
327.9486501318314
 21
-197.4876321611568
 31
0.0
  0
LINE
  5
209
330
1F
100
AcDbEntity
  8
0-0
  6
JWW_DASHED1
 62
   120
370
     5
100
AcDbLine
 10
-262.0513498681584
 20
-787.4876321611466
 30
0.0
 11
-12.05134986816681
 21
-537.4876321611554
 31
0.0
  0
LINE
  5
20A
330
1F
100
AcDbEntity
  8
0-0
  6
JWW_DASHED1
 62
   120
370
     5
100
AcDbLine
 10
77.94865013184044
 20
-454.5586999744331
 30
0.0
 11
327.9486501318297
 21
-204.5586999744444
 31
0.0
  0
LINE
  5
20B
330
1F
100
AcDbEntity
  8
0-0
  6
JWW_DASHED1
 62
   120
370
     5
100
AcDbLine
 10
-262.0513498681554
 20
-794.5586999744291
 30
0.0
 11
-12.05134986816617
 21
-544.55869997444
 31
0.0
  0
LINE
  5
20C
330
1F
100
AcDbEntity
  8
0-0
  6
JWW_DASHED1
 62
   120
370
     5
100
AcDbLine
 10
77.94865013184534
 20
-461.6297677877139
 30
0.0
 11
327.9486501318335
 21
-211.629767787726
 31
0.0
  0
LINE
  5
20D
330
1F
100
AcDbEntity
  8
0-0
  6
JWW_DASHED1
 62
   120
370
     5
100
AcDbLine
 10
-262.0513498681513
 20
-801.6297677877104
 30
0.0
 11
-12.05134986816169
 21
-551.6297677877212
 31
0.0
  0
LINE
  5
20E
330
1F
100
AcDbEntity
  8
0-0
  6
JWW_DASHED1
 62
   120
370
     5
100
AcDbLine
 10
77.94865013182125
 20
-468.7008356010238
 30
0.0
 11
327.9486501318277
 21
-218.700835601017
 31
0.0
  0
LINE
  5
20F
330
1F
100
AcDbEntity
  8
0-0
  6
JWW_DASHED1
 62
   120
370
     5
100
AcDbLine
 10
-262.0513498681624
 20
-808.7008356010069
 30
0.0
 11
-12.05134986817043
 21
-558.7008356010152
 31
0.0
  0
LINE
  5
210
330
1F
100
AcDbEntity
  8
0-0
  6
JWW_DASHED1
 62
   120
370
     5
100
AcDbLine
 10
77.94865013182509
 20
-475.7719034143049
 30
0.0
 11
327.9486501318318
 21
-225.7719034142987
 31
0.0
  0
LINE
  5
211
330
1F
100
AcDbEntity
  8
0-0
  6
JWW_DASHED1
 62
   120
370
     5
100
AcDbLine
 10
-262.0513498681742
 20
-815.7719034143043
 30
0.0
 11
-12.05134986816638
 21
-565.7719034142964
 31
0.0
  0
LINE
  5
212
330
1F
100
AcDbEntity
  8
0-0
  6
JWW_DASHED1
 62
   120
370
     5
100
AcDbLine
 10
77.94865013183362
 20
-482.8429712275273
 30
0.0
 11
327.9486501318241
 21
-232.8429712275373
 31
0.0
  0
LINE
  5
213
330
1F
100
AcDbEntity
  8
0-0
  6
JWW_DASHED1
 62
   120
370
     5
100
AcDbLine
 10
-262.0513498681658
 20
-822.8429712275267
 30
0.0
 11
-12.05134986817406
 21
-572.842971227535
 31
0.0
  0
LINE
  5
214
330
1F
100
AcDbEntity
  8
0-0
  6
JWW_DASHED1
 62
   120
370
     5
100
AcDbLine
 10
77.94865013183724
 20
-489.9140390408094
 30
0.0
 11
327.9486501318281
 21
-239.9140390408185
 31
0.0
  0
LINE
  5
215
330
1F
100
AcDbEntity
  8
0-0
  6
JWW_DASHED1
 62
   120
370
     5
100
AcDbLine
 10
-262.0513498681615
 20
-829.9140390408083
 30
0.0
 11
-12.05134986817022
 21
-579.9140390408171
 31
0.0
  0
LINE
  5
216
330
1F
100
AcDbEntity
  8
0-0
  6
JWW_DASHED1
 62
   120
370
     5
100
AcDbLine
 10
77.94865013184129
 20
-496.9851068540906
 30
0.0
 11
327.948650131832
 21
-246.9851068541001
 31
0.0
  0
LINE
  5
217
330
1F
100
AcDbEntity
  8
0-0
  6
JWW_DASHED1
 62
   120
370
     5
100
AcDbLine
 10
-262.0513498681577
 20
-836.9851068540896
 30
0.0
 11
-12.05134986816596
 21
-586.9851068540983
 31
0.0
  0
LINE
  5
218
330
1F
100
AcDbEntity
  8
0-0
  6
JWW_DASHED1
 62
   120
370
     5
100
AcDbLine
 10
77.94865013184193
 20
-504.0561746673757
 30
0.0
 11
327.9486501318309
 21
-254.0561746673869
 31
0.0
  0
LINE
  5
219
330
1F
100
AcDbEntity
  8
0-0
  6
JWW_DASHED1
 62
   120
370
     5
100
AcDbLine
 10
-262.0513498681543
 20
-844.0561746673717
 30
0.0
 11
-12.05134986816489
 21
-594.056174667382
 31
0.0
  0
LINE
  5
21A
330
1F
100
AcDbEntity
  8
0-0
  6
JWW_DASHED1
 62
   120
370
     5
100
AcDbLine
 10
77.9486501318462
 20
-511.1272424806569
 30
0.0
 11
327.9486501318349
 21
-261.1272424806681
 31
0.0
  0
LINE
  5
21B
330
1F
100
AcDbEntity
  8
0-0
  6
JWW_DASHED1
 62
   120
370
     5
100
AcDbLine
 10
-262.0513498681505
 20
-851.1272424806533
 30
0.0
 11
-12.05134986816063
 21
-601.1272424806637
 31
0.0
  0
LINE
  5
21C
330
1F
100
AcDbEntity
  8
0-0
  6
JWW_DASHED1
 62
   120
370
     5
100
AcDbLine
 10
77.94865013182189
 20
-518.1983102939666
 30
0.0
 11
327.9486501318286
 21
-268.19831029396
 31
0.0
  0
LINE
  5
21D
330
1F
100
AcDbEntity
  8
0-0
  6
JWW_DASHED1
 62
   120
370
     5
100
AcDbLine
 10
-262.0513498681773
 20
-858.1983102939657
 30
0.0
 11
-12.05134986817001
 21
-608.1983102939586
 31
0.0
  0
LINE
  5
21E
330
1F
100
AcDbEntity
  8
0-0
  6
JWW_DASHED1
 62
   120
370
     5
100
AcDbLine
 10
77.94865013182594
 20
-525.2693781072479
 30
0.0
 11
327.9486501318326
 21
-275.2693781072417
 31
0.0
  0
LINE
  5
21F
330
1F
100
AcDbEntity
  8
0-0
  6
JWW_DASHED1
 62
   120
370
     5
100
AcDbLine
 10
-262.0513498681731
 20
-865.2693781072469
 30
0.0
 11
-12.05134986816617
 21
-615.2693781072402
 31
0.0
  0
LINE
  5
220
330
1F
100
AcDbEntity
  8
0-0
  6
JWW_DASHED1
 62
   120
370
     5
100
AcDbLine
 10
77.94865013182978
 20
-532.34044592053
 30
0.0
 11
327.9486501318207
 21
-282.3404459205391
 31
0.0
  0
LINE
  5
221
330
1F
100
AcDbEntity
  8
0-0
  6
JWW_DASHED1
 62
   120
370
     5
100
AcDbLine
 10
-262.0513498681692
 20
-872.3404459205285
 30
0.0
 11
-12.05134986816191
 21
-622.3404459205215
 31
0.0
  0
LINE
  5
222
330
1F
100
AcDbEntity
  8
0-0
  6
JWW_DASHED1
 62
   120
370
     5
100
AcDbLine
 10
77.94865013183404
 20
-539.4115137338111
 30
0.0
 11
327.9486501318247
 21
-289.4115137338202
 31
0.0
  0
LINE
  5
223
330
1F
100
AcDbEntity
  8
0-0
  6
JWW_DASHED1
 62
   120
370
     5
100
AcDbLine
 10
-262.0513498681654
 20
-879.4115137338101
 30
0.0
 11
-12.05134986817363
 21
-629.4115137338189
 31
0.0
  0
LINE
  5
224
330
1F
100
AcDbEntity
  8
0-0
  6
JWW_DASHED1
 62
   120
370
     5
100
AcDbLine
 10
77.94865013184214
 20
-546.4825815470335
 30
0.0
 11
327.9486501318332
 21
-296.4825815470426
 31
0.0
  0
LINE
  5
225
330
1F
100
AcDbEntity
  8
0-0
  6
JWW_DASHED1
 62
   120
370
     5
100
AcDbLine
 10
-262.0513498681569
 20
-886.482581547033
 30
0.0
 11
-12.0513498681651
 21
-636.4825815470413
 31
0.0
  0
LINE
  5
226
330
1F
100
AcDbEntity
  8
0-0
  6
JWW_DASHED1
 62
   120
370
     5
100
AcDbLine
 10
77.94865013184342
 20
-553.5536493603182
 30
0.0
 11
327.948650131832
 21
-303.5536493603294
 31
0.0
  0
LINE
  5
227
330
1F
100
AcDbEntity
  8
0-0
  6
JWW_DASHED1
 62
   120
370
     5
100
AcDbLine
 10
-262.051349868153
 20
-893.5536493603142
 30
0.0
 11
-12.0513498681634
 21
-643.553649360325
 31
0.0
  0
LINE
  5
228
330
1F
100
AcDbEntity
  8
0-0
  6
JWW_DASHED1
 62
   120
370
     5
100
AcDbLine
 10
77.9486501318317
 20
-560.6247171736152
 30
0.0
 11
327.9486501318362
 21
-310.6247171736106
 31
0.0
  0
LINE
  5
229
330
1F
100
AcDbEntity
  8
0-0
  6
JWW_DASHED1
 62
   120
370
     5
100
AcDbLine
 10
-262.0513498681487
 20
-900.6247171735959
 30
0.0
 11
-12.05134986815914
 21
-650.6247171736062
 31
0.0
  0
LINE
  5
22A
330
1F
100
AcDbEntity
  8
0-0
  6
JWW_DASHED1
 62
   120
370
     5
100
AcDbLine
 10
77.94865013182275
 20
-567.6957849869096
 30
0.0
 11
327.9486501318294
 21
-317.6957849869029
 31
0.0
  0
LINE
  5
22B
330
1F
100
AcDbEntity
  8
0-0
  6
JWW_DASHED1
 62
   120
370
     5
100
AcDbLine
 10
-262.051349868176
 20
-907.6957849869082
 30
0.0
 11
-12.05134986816894
 21
-657.6957849869011
 31
0.0
  0
LINE
  5
22C
330
1F
100
AcDbEntity
  8
0-0
  6
JWW_DASHED1
 62
   120
370
     5
100
AcDbLine
 10
77.9486501318268
 20
-574.7668528001908
 30
0.0
 11
327.9486501318335
 21
-324.7668528001846
 31
0.0
  0
LINE
  5
22D
330
1F
100
AcDbEntity
  8
0-0
  6
JWW_DASHED1
 62
   120
370
     5
100
AcDbLine
 10
-255.8594971923798
 20
-908.5750001243974
 30
0.0
 11
-12.05134986816489
 21
-664.7668528001827
 31
0.0
  0
LINE
  5
22E
330
1F
100
AcDbEntity
  8
0-0
  6
JWW_DASHED1
 62
   120
370
     5
100
AcDbLine
 10
77.94865013183063
 20
-581.8379206134729
 30
0.0
 11
327.9486501318215
 21
-331.837920613482
 31
0.0
  0
LINE
  5
22F
330
1F
100
AcDbEntity
  8
0-0
  6
JWW_DASHED1
 62
   120
370
     5
100
AcDbLine
 10
-248.7884293790986
 20
-908.5750001244021
 30
0.0
 11
-12.05134986816105
 21
-671.8379206134643
 31
0.0
  0
LINE
  5
230
330
1F
100
AcDbEntity
  8
0-0
  6
JWW_DASHED1
 62
   120
370
     5
100
AcDbLine
 10
77.9486501318349
 20
-588.9089884267541
 30
0.0
 11
327.9486501318258
 21
-338.9089884267632
 31
0.0
  0
LINE
  5
231
330
1F
100
AcDbEntity
  8
0-0
  6
JWW_DASHED1
 62
   120
370
     5
100
AcDbLine
 10
-241.7173615658161
 20
-908.575000124405
 30
0.0
 11
-12.05134986817278
 21
-678.9089884267618
 31
0.0
  0
LINE
  5
232
330
1F
100
AcDbEntity
  8
0-0
  6
JWW_DASHED1
 62
   120
370
     5
100
AcDbLine
 10
77.94865013183873
 20
-595.9800562400353
 30
0.0
 11
327.9486501318297
 21
-345.9800562400444
 31
0.0
  0
LINE
  5
233
330
1F
100
AcDbEntity
  8
0-0
  6
JWW_DASHED1
 62
   120
370
     5
100
AcDbLine
 10
-234.6462937525345
 20
-908.5750001244085
 30
0.0
 11
-12.05134986816894
 21
-685.980056240043
 31
0.0
  0
LINE
  5
234
330
1F
100
AcDbEntity
  8
0-0
  6
JWW_DASHED1
 62
   120
370
     5
100
AcDbLine
 10
77.94865013184044
 20
-603.0511240533191
 30
0.0
 11
327.9486501318288
 21
-353.0511240533308
 31
0.0
  0
LINE
  5
235
330
1F
100
AcDbEntity
  8
0-0
  6
JWW_DASHED1
 62
   120
370
     5
100
AcDbLine
 10
-227.5752259392524
 20
-908.5750001244123
 30
0.0
 11
-12.0513498681666
 21
-693.0511240533264
 31
0.0
  0
LINE
  5
236
330
1F
100
AcDbEntity
  8
0-0
  6
JWW_DASHED1
 62
   120
370
     5
100
AcDbLine
 10
77.94865013183042
 20
-610.1221918665875
 30
0.0
 11
327.9486501318352
 21
-360.122191866583
 31
0.0
  0
LINE
  5
237
330
1F
100
AcDbEntity
  8
0-0
  6
JWW_DASHED1
 62
   120
370
     5
100
AcDbLine
 10
-220.5041581260002
 20
-908.5750001244184
 30
0.0
 11
-12.0513498681602
 21
-700.1221918665782
 31
0.0
  0
LINE
  5
238
330
1F
100
AcDbEntity
  8
0-0
  6
JWW_DASHED1
 62
   120
370
     5
100
AcDbLine
 10
77.9486501318236
 20
-617.1932596798525
 30
0.0
 11
327.9486501318297
 21
-367.1932596798463
 31
0.0
  0
LINE
  5
239
330
1F
100
AcDbEntity
  8
0-0
  6
JWW_DASHED1
 62
   120
370
     5
100
AcDbLine
 10
-213.4330903127193
 20
-908.5750001243953
 30
0.0
 11
-12.05134986816809
 21
-707.193259679844
 31
0.0
  0
LINE
  5
23A
330
1F
100
AcDbEntity
  8
0-0
  6
JWW_DASHED1
 62
   120
370
     5
100
AcDbLine
 10
77.94865013182765
 20
-624.2643274931338
 30
0.0
 11
327.9486501318339
 21
-374.2643274931276
 31
0.0
  0
LINE
  5
23B
330
1F
100
AcDbEntity
  8
0-0
  6
JWW_DASHED1
 62
   120
370
     5
100
AcDbLine
 10
-206.3620224994381
 20
-908.5750001244
 30
0.0
 11
-12.05134986816446
 21
-714.2643274931261
 31
0.0
  0
LINE
  5
23C
330
1F
100
AcDbEntity
  8
0-0
  6
JWW_DASHED1
 62
   120
370
     5
100
AcDbLine
 10
77.94865013183149
 20
-631.3353953064159
 30
0.0
 11
327.9486501318224
 21
-381.335395306425
 31
0.0
  0
LINE
  5
23D
330
1F
100
AcDbEntity
  8
0-0
  6
JWW_DASHED1
 62
   120
370
     5
100
AcDbLine
 10
-199.2909546861569
 20
-908.5750001244043
 30
0.0
 11
-12.0513498681602
 21
-721.3353953064073
 31
0.0
  0
LINE
  5
23E
330
1F
100
AcDbEntity
  8
0-0
  6
JWW_DASHED1
 62
   120
370
     5
100
AcDbLine
 10
77.94865013183554
 20
-638.406463119697
 30
0.0
 11
327.9486501318266
 21
-388.4064631197061
 31
0.0
  0
LINE
  5
23F
330
1F
100
AcDbEntity
  8
0-0
  6
JWW_DASHED1
 62
   120
370
     5
100
AcDbLine
 10
-192.219886872871
 20
-908.5750001244038
 30
0.0
 11
-12.05134986817214
 21
-728.4064631197048
 31
0.0
  0
LINE
  5
240
330
1F
100
AcDbEntity
  8
0-0
  6
JWW_DASHED1
 62
   120
370
     5
100
AcDbLine
 10
77.94865013183959
 20
-645.4775309329783
 30
0.0
 11
327.9486501318303
 21
-395.4775309329878
 31
0.0
  0
LINE
  5
241
330
1F
100
AcDbEntity
  8
0-0
  6
JWW_DASHED1
 62
   120
370
     5
100
AcDbLine
 10
-185.1488190595894
 20
-908.5750001244072
 30
0.0
 11
-12.05134986816809
 21
-735.4775309329859
 31
0.0
  0
LINE
  5
242
330
1F
100
AcDbEntity
  8
0-0
  6
JWW_DASHED1
 62
   120
370
     5
100
AcDbLine
 10
77.9486501318415
 20
-652.5485987462621
 30
0.0
 11
327.94865013183
 21
-402.5485987462733
 31
0.0
  0
LINE
  5
243
330
1F
100
AcDbEntity
  8
0-0
  6
JWW_DASHED1
 62
   120
370
     5
100
AcDbLine
 10
-178.0777512463077
 20
-908.5750001244111
 30
0.0
 11
-12.0513498681651
 21
-742.5485987462689
 31
0.0
  0
LINE
  5
244
330
1F
100
AcDbEntity
  8
0-0
  6
JWW_DASHED1
 62
   120
370
     5
100
AcDbLine
 10
77.94865013184555
 20
-659.6196665595432
 30
0.0
 11
327.9486501318343
 21
-409.619666559555
 31
0.0
  0
LINE
  5
245
330
1F
100
AcDbEntity
  8
0-0
  6
JWW_DASHED1
 62
   120
370
     5
100
AcDbLine
 10
-171.0066834330261
 20
-908.5750001244149
 30
0.0
 11
-12.05134986816148
 21
-749.6196665595505
 31
0.0
  0
LINE
  5
246
330
1F
100
AcDbEntity
  8
0-0
  6
JWW_DASHED1
 62
   120
370
     5
100
AcDbLine
 10
77.94865013181976
 20
-666.6907343728543
 30
0.0
 11
327.9486501318264
 21
-416.6907343728481
 31
0.0
  0
LINE
  5
247
330
1F
100
AcDbEntity
  8
0-0
  6
JWW_DASHED1
 62
   120
370
     5
100
AcDbLine
 10
-163.9356156197287
 20
-908.575000124403
 30
0.0
 11
-12.05134986817193
 21
-756.6907343728462
 31
0.0
  0
LINE
  5
248
330
1F
100
AcDbEntity
  8
0-0
  6
JWW_DASHED1
 62
   120
370
     5
100
AcDbLine
 10
77.94865013182402
 20
-673.761802186136
 30
0.0
 11
327.9486501318307
 21
-423.7618021861293
 31
0.0
  0
LINE
  5
249
330
1F
100
AcDbEntity
  8
0-0
  6
JWW_DASHED1
 62
   120
370
     5
100
AcDbLine
 10
-156.8645478064377
 20
-908.5750001243979
 30
0.0
 11
-12.05134986816766
 21
-763.7618021861279
 31
0.0
  0
LINE
  5
24A
330
1F
100
AcDbEntity
  8
0-0
  6
JWW_DASHED1
 62
   120
370
     5
100
AcDbLine
 10
77.94865013183234
 20
-680.8328699993588
 30
0.0
 11
327.9486501318232
 21
-430.8328699993679
 31
0.0
  0
LINE
  5
24B
330
1F
100
AcDbEntity
  8
0-0
  6
JWW_DASHED1
 62
   120
370
     5
100
AcDbLine
 10
-149.793479993208
 20
-908.5750001243987
 30
0.0
 11
-12.05134986817512
 21
-770.832869999366
 31
0.0
  0
LINE
  5
24C
330
1F
100
AcDbEntity
  8
0-0
  6
JWW_DASHED1
 62
   120
370
     5
100
AcDbLine
 10
77.94865013183639
 20
-687.90393781264
 30
0.0
 11
327.9486501318271
 21
-437.9039378126491
 31
0.0
  0
LINE
  5
24D
330
1F
100
AcDbEntity
  8
0-0
  6
JWW_DASHED1
 62
   120
370
     5
100
AcDbLine
 10
-142.7224121799264
 20
-908.575000124403
 30
0.0
 11
-12.05134986817129
 21
-777.9039378126477
 31
0.0
  0
LINE
  5
24E
330
1F
100
AcDbEntity
  8
0-0
  6
JWW_DASHED1
 62
   120
370
     5
100
AcDbLine
 10
77.94865013184044
 20
-694.9750056259212
 30
0.0
 11
327.9486501318311
 21
-444.9750056259307
 31
0.0
  0
LINE
  5
24F
330
1F
100
AcDbEntity
  8
0-0
  6
JWW_DASHED1
 62
   120
370
     5
100
AcDbLine
 10
-135.6513443666445
 20
-908.5750001244064
 30
0.0
 11
-12.05134986816724
 21
-784.9750056259289
 31
0.0
  0
LINE
  5
250
330
1F
100
AcDbEntity
  8
0-0
  6
JWW_DASHED1
 62
   120
370
     5
100
AcDbLine
 10
77.94865013184278
 20
-702.0460734392045
 30
0.0
 11
327.9486501318315
 21
-452.0460734392158
 31
0.0
  0
LINE
  5
251
330
1F
100
AcDbEntity
  8
0-0
  6
JWW_DASHED1
 62
   120
370
     5
100
AcDbLine
 10
-128.5802765533629
 20
-908.5750001244103
 30
0.0
 11
-12.05134986816404
 21
-792.0460734392113
 31
0.0
  0
LINE
  5
252
330
1F
100
AcDbEntity
  8
0-0
  6
JWW_DASHED1
 62
   120
370
     5
100
AcDbLine
 10
77.94865013184662
 20
-709.1171412524862
 30
0.0
 11
327.9486501318354
 21
-459.117141252497
 31
0.0
  0
LINE
  5
253
330
1F
100
AcDbEntity
  8
0-0
  6
JWW_DASHED1
 62
   120
370
     5
100
AcDbLine
 10
-121.5092087400814
 20
-908.575000124414
 30
0.0
 11
-12.0513498681602
 21
-799.1171412524931
 31
0.0
  0
LINE
  5
254
330
1F
100
AcDbEntity
  8
0-0
  6
JWW_DASHED1
 62
   120
370
     5
100
AcDbLine
 10
77.94865013182061
 20
-716.1882090657973
 30
0.0
 11
327.9486501318273
 21
-466.1882090657911
 31
0.0
  0
LINE
  5
255
330
1F
100
AcDbEntity
  8
0-0
  6
JWW_DASHED1
 62
   120
370
     5
100
AcDbLine
 10
-114.4381409267772
 20
-908.5750001243953
 30
0.0
 11
-12.05134986817065
 21
-806.1882090657888
 31
0.0
  0
LINE
  5
256
330
1F
100
AcDbEntity
  8
0-0
  6
JWW_DASHED1
 62
   120
370
     5
100
AcDbLine
 10
77.94865013182488
 20
-723.2592768790789
 30
0.0
 11
327.9486501318315
 21
-473.2592768790722
 31
0.0
  0
LINE
  5
257
330
1F
100
AcDbEntity
  8
0-0
  6
JWW_DASHED1
 62
   120
370
     5
100
AcDbLine
 10
-107.367073113496
 20
-908.5750001243996
 30
0.0
 11
-12.05134986816681
 21
-813.2592768790709
 31
0.0
  0
LINE
  5
258
330
1F
100
AcDbEntity
  8
0-0
  6
JWW_DASHED1
 62
   120
370
     5
100
AcDbLine
 10
77.94865013182871
 20
-730.3303446923605
 30
0.0
 11
327.94865013182
 21
-480.3303446923692
 31
0.0
  0
LINE
  5
259
330
1F
100
AcDbEntity
  8
0-0
  6
JWW_DASHED1
 62
   120
370
     5
100
AcDbLine
 10
-100.2960053002145
 20
-908.5750001244038
 30
0.0
 11
-12.05134986816255
 21
-820.330344692352
 31
0.0
  0
LINE
  5
25A
330
1F
100
AcDbEntity
  8
0-0
  6
JWW_DASHED1
 62
   120
370
     5
100
AcDbLine
 10
77.94865013183298
 20
-737.4014125056418
 30
0.0
 11
327.9486501318237
 21
-487.4014125056509
 31
0.0
  0
LINE
  5
25B
330
1F
100
AcDbEntity
  8
0-0
  6
JWW_DASHED1
 62
   120
370
     5
100
AcDbLine
 10
-93.22493748692267
 20
-908.5750001243974
 30
0.0
 11
-12.0513498681747
 21
-827.4014125056494
 31
0.0
  0
LINE
  5
25C
330
1F
100
AcDbEntity
  8
0-0
  6
JWW_DASHED1
 62
   120
370
     5
100
AcDbLine
 10
77.94865013184129
 20
-744.4724803188642
 30
0.0
 11
327.9486501318318
 21
-494.4724803188737
 31
0.0
  0
LINE
  5
25D
330
1F
100
AcDbEntity
  8
0-0
  6
JWW_DASHED1
 62
   120
370
     5
100
AcDbLine
 10
-86.15386967369986
 20
-908.5750001244055
 30
0.0
 11
-12.05134986816617
 21
-834.4724803188718
 31
0.0
  0
LINE
  5
25E
330
1F
100
AcDbEntity
  8
0-0
  6
JWW_DASHED1
 62
   120
370
     5
100
AcDbLine
 10
77.94865013184385
 20
-751.5435481321471
 30
0.0
 11
327.9486501318324
 21
-501.5435481321588
 31
0.0
  0
LINE
  5
25F
330
1F
100
AcDbEntity
  8
0-0
  6
JWW_DASHED1
 62
   120
370
     5
100
AcDbLine
 10
-79.08280186041821
 20
-908.5750001244094
 30
0.0
 11
-12.05134986816297
 21
-841.5435481321539
 31
0.0
  0
LINE
  5
260
330
1F
100
AcDbEntity
  8
0-0
  6
JWW_DASHED1
 62
   120
370
     5
100
AcDbLine
 10
77.94865013183234
 20
-758.614615945444
 30
0.0
 11
327.9486501318369
 21
-508.6146159454399
 31
0.0
  0
LINE
  5
261
330
1F
100
AcDbEntity
  8
0-0
  6
JWW_DASHED1
 62
   120
370
     5
100
AcDbLine
 10
-72.01173404713657
 20
-908.5750001244132
 30
0.0
 11
-12.05134986815871
 21
-848.6146159454352
 31
0.0
  0
LINE
  5
262
330
1F
100
AcDbEntity
  8
0-0
  6
JWW_DASHED1
 62
   120
370
     5
100
AcDbLine
 10
77.94865013182147
 20
-765.6856837587407
 30
0.0
 11
327.9486501318281
 21
-515.685683758734
 31
0.0
  0
LINE
  5
263
330
1F
100
AcDbEntity
  8
0-0
  6
JWW_DASHED1
 62
   120
370
     5
100
AcDbLine
 10
-64.94066623383532
 20
-908.5750001243974
 30
0.0
 11
-12.05134986816979
 21
-855.6856837587317
 31
0.0
  0
LINE
  5
264
330
1F
100
AcDbEntity
  8
0-0
  6
JWW_DASHED1
 62
   120
370
     5
100
AcDbLine
 10
77.94865013182573
 20
-772.7567515720218
 30
0.0
 11
327.9486501318324
 21
-522.7567515720152
 31
0.0
  0
LINE
  5
265
330
1F
100
AcDbEntity
  8
0-0
  6
JWW_DASHED1
 62
   120
370
     5
100
AcDbLine
 10
-57.8695984205541
 20
-908.5750001244016
 30
0.0
 11
-12.05134986816596
 21
-862.7567515720137
 31
0.0
  0
LINE
  5
266
330
1F
100
AcDbEntity
  8
0-0
  6
JWW_DASHED1
 62
   120
370
     5
100
AcDbLine
 10
77.94865013182978
 20
-779.8278193853031
 30
0.0
 11
327.9486501318203
 21
-529.8278193853126
 31
0.0
  0
LINE
  5
267
330
1F
100
AcDbEntity
  8
0-0
  6
JWW_DASHED1
 62
   120
370
     5
100
AcDbLine
 10
-50.79853060727288
 20
-908.5750001244055
 30
0.0
 11
-12.05134986816191
 21
-869.827819385295
 31
0.0
  0
LINE
  5
268
330
1F
100
AcDbEntity
  8
0-0
  6
JWW_DASHED1
 62
   120
370
     5
100
AcDbLine
 10
77.94865013183383
 20
-786.8988871985847
 30
0.0
 11
327.9486501318245
 21
-536.8988871985938
 31
0.0
  0
LINE
  5
269
330
1F
100
AcDbEntity
  8
0-0
  6
JWW_DASHED1
 62
   120
370
     5
100
AcDbLine
 10
-43.72746279397759
 20
-908.5750001243962
 30
0.0
 11
-12.05134986817384
 21
-876.8988871985924
 31
0.0
  0
LINE
  5
26A
330
1F
100
AcDbEntity
  8
0-0
  6
JWW_DASHED1
 62
   120
370
     5
100
AcDbLine
 10
77.94865013183767
 20
-793.9699550118664
 30
0.0
 11
327.9486501318286
 21
-543.9699550118755
 31
0.0
  0
LINE
  5
26B
330
1F
100
AcDbEntity
  8
0-0
  6
JWW_DASHED1
 62
   120
370
     5
100
AcDbLine
 10
-36.65639498069616
 20
-908.5750001244
 30
0.0
 11
-12.05134986817001
 21
-883.969955011874
 31
0.0
  0
LINE
  5
26C
330
1F
100
AcDbEntity
  8
0-0
  6
JWW_DASHED1
 62
   120
370
     5
100
AcDbLine
 10
77.94865013184065
 20
-801.0410228251488
 30
0.0
 11
327.9486501318294
 21
-551.0410228251596
 31
0.0
  0
LINE
  5
26D
330
1F
100
AcDbEntity
  8
0-0
  6
JWW_DASHED1
 62
   120
370
     5
100
AcDbLine
 10
-29.58532716741409
 20
-908.5750001244038
 30
0.0
 11
-12.05134986816617
 21
-891.0410228251557
 31
0.0
  0
LINE
  5
26E
330
1F
100
AcDbEntity
  8
0-0
  6
JWW_DASHED1
 62
   120
370
     5
100
AcDbLine
 10
77.94865013184491
 20
-808.1120906384301
 30
0.0
 11
327.9486501318335
 21
-558.1120906384417
 31
0.0
  0
LINE
  5
26F
330
1F
100
AcDbEntity
  8
0-0
  6
JWW_DASHED1
 62
   120
370
     5
100
AcDbLine
 10
-22.51425935413266
 20
-908.5750001244072
 30
0.0
 11
-12.05134986816191
 21
-898.1120906384369
 31
0.0
  0
LINE
  5
270
330
1F
100
AcDbEntity
  8
0-0
  6
JWW_DASHED1
 62
   120
370
     5
100
AcDbLine
 10
77.94865013182232
 20
-815.1831584516835
 30
0.0
 11
327.948650131829
 21
-565.183158451677
 31
0.0
  0
LINE
  5
271
330
1F
100
AcDbEntity
  8
0-0
  6
JWW_DASHED1
 62
   120
370
     5
100
AcDbLine
 10
-15.44319154089365
 20
-908.5750001243996
 30
0.0
 11
-12.05134986816894
 21
-905.1831584516747
 31
0.0
  0
LINE
  5
272
330
1F
100
AcDbEntity
  8
0-0
  6
JWW_DASHED1
 62
   120
370
     5
100
AcDbLine
 10
77.94865013182658
 20
-822.2542262649648
 30
0.0
 11
327.9486501318332
 21
-572.2542262649581
 31
0.0
  0
LINE
  5
273
330
1F
100
AcDbEntity
  8
0-0
  6
JWW_DASHED1
 62
   120
370
     5
100
AcDbLine
 10
77.94865013183063
 20
-829.3252940782461
 30
0.0
 11
327.9486501318211
 21
-579.3252940782555
 31
0.0
  0
LINE
  5
274
330
1F
100
AcDbEntity
  8
0-0
  6
JWW_DASHED1
 62
   120
370
     5
100
AcDbLine
 10
77.94865013183426
 20
-836.3963618915277
 30
0.0
 11
327.9486501318254
 21
-586.3963618915368
 31
0.0
  0
LINE
  5
275
330
1F
100
AcDbEntity
  8
0-0
  6
JWW_DASHED1
 62
   120
370
     5
100
AcDbLine
 10
77.94865013183852
 20
-843.4674297048093
 30
0.0
 11
327.9486501318294
 21
-593.4674297048184
 31
0.0
  0
LINE
  5
276
330
1F
100
AcDbEntity
  8
0-0
  6
JWW_DASHED1
 62
   120
370
     5
100
AcDbLine
 10
77.94865013184214
 20
-850.5384975180909
 30
0.0
 11
327.9486501318307
 21
-600.5384975181026
 31
0.0
  0
LINE
  5
277
330
1F
100
AcDbEntity
  8
0-0
  6
JWW_DASHED1
 62
   120
370
     5
100
AcDbLine
 10
77.9486501318462
 20
-857.6095653313722
 30
0.0
 11
327.9486501318348
 21
-607.6095653313838
 31
0.0
  0
LINE
  5
278
330
1F
100
AcDbEntity
  8
0-0
  6
JWW_DASHED1
 62
   120
370
     5
100
AcDbLine
 10
77.94865013181912
 20
-864.680633144685
 30
0.0
 11
327.9486501318258
 21
-614.6806331446787
 31
0.0
  0
LINE
  5
279
330
1F
100
AcDbEntity
  8
0-0
  6
JWW_DASHED1
 62
   120
370
     5
100
AcDbLine
 10
77.94865013182275
 20
-871.751700957967
 30
0.0
 11
327.9486501318297
 21
-621.7517009579599
 31
0.0
  0
LINE
  5
27A
330
1F
100
AcDbEntity
  8
0-0
  6
JWW_DASHED1
 62
   120
370
     5
100
AcDbLine
 10
77.94865013183149
 20
-878.822768771189
 30
0.0
 11
327.948650131822
 21
-628.8227687711985
 31
0.0
  0
LINE
  5
27B
330
1F
100
AcDbEntity
  8
0-0
  6
JWW_DASHED1
 62
   120
370
     5
100
AcDbLine
 10
77.94865013183511
 20
-885.893836584471
 30
0.0
 11
327.9486501318262
 21
-635.8938365844797
 31
0.0
  0
LINE
  5
27C
330
1F
100
AcDbEntity
  8
0-0
  6
JWW_DASHED1
 62
   120
370
     5
100
AcDbLine
 10
77.94865013183937
 20
-892.9649043977522
 30
0.0
 11
327.9486501318303
 21
-642.9649043977613
 31
0.0
  0
LINE
  5
27D
330
1F
100
AcDbEntity
  8
0-0
  6
JWW_DASHED1
 62
   120
370
     5
100
AcDbLine
 10
77.94865013184321
 20
-900.0359722110339
 30
0.0
 11
327.9486501318322
 21
-650.0359722110447
 31
0.0
  0
LINE
  5
27E
330
1F
100
AcDbEntity
  8
0-0
  6
JWW_DASHED1
 62
   120
370
     5
100
AcDbLine
 10
77.94865013184747
 20
-907.1070400243151
 30
0.0
 11
327.948650131836
 21
-657.1070400243268
 31
0.0
  0
LINE
  5
27F
330
1F
100
AcDbEntity
  8
0-0
  6
JWW_DASHED1
 62
   120
370
     5
100
AcDbLine
 10
83.55175784505938
 20
-908.5750001243885
 30
0.0
 11
327.9486501318266
 21
-664.1781078376216
 31
0.0
  0
LINE
  5
280
330
1F
100
AcDbEntity
  8
0-0
  6
JWW_DASHED1
 62
   120
370
     5
100
AcDbLine
 10
90.6228256583406
 20
-908.5750001243928
 30
0.0
 11
327.9486501318305
 21
-671.2491756509029
 31
0.0
  0
LINE
  5
281
330
1F
100
AcDbEntity
  8
0-0
  6
JWW_DASHED1
 62
   120
370
     5
100
AcDbLine
 10
97.6938934716231
 20
-908.5750001243962
 30
0.0
 11
327.9486501318188
 21
-678.3202434642003
 31
0.0
  0
LINE
  5
282
330
1F
100
AcDbEntity
  8
0-0
  6
JWW_DASHED1
 62
   120
370
     5
100
AcDbLine
 10
104.7649612849047
 20
-908.5750001243996
 30
0.0
 11
327.9486501318228
 21
-685.3913112774815
 31
0.0
  0
LINE
  5
283
330
1F
100
AcDbEntity
  8
0-0
  6
JWW_DASHED1
 62
   120
370
     5
100
AcDbLine
 10
111.8360290981864
 20
-908.5750001244038
 30
0.0
 11
327.9486501318264
 21
-692.4623790907635
 31
0.0
  0
LINE
  5
284
330
1F
100
AcDbEntity
  8
0-0
  6
JWW_DASHED1
 62
   120
370
     5
100
AcDbLine
 10
118.9070969114092
 20
-908.5750001244115
 30
0.0
 11
327.9486501318332
 21
-699.5334469039876
 31
0.0
  0
LINE
  5
285
330
1F
100
AcDbEntity
  8
0-0
  6
JWW_DASHED1
 62
   120
370
     5
100
AcDbLine
 10
125.9781647247036
 20
-908.575000124403
 30
0.0
 11
327.9486501318371
 21
-706.6045147172692
 31
0.0
  0
LINE
  5
286
330
1F
100
AcDbEntity
  8
0-0
  6
JWW_DASHED1
 62
   120
370
     5
100
AcDbLine
 10
133.0492325380008
 20
-908.5750001243911
 30
0.0
 11
327.9486501318271
 21
-713.6755825305646
 31
0.0
  0
LINE
  5
287
330
1F
100
AcDbEntity
  8
0-0
  6
JWW_DASHED1
 62
   120
370
     5
100
AcDbLine
 10
140.1203003512821
 20
-908.5750001243953
 30
0.0
 11
327.9486501318311
 21
-720.7466503438462
 31
0.0
  0
LINE
  5
288
330
1F
100
AcDbEntity
  8
0-0
  6
JWW_DASHED1
 62
   120
370
     5
100
AcDbLine
 10
147.1913681645675
 20
-908.5750001243953
 30
0.0
 11
327.9486501318192
 21
-727.8177181571436
 31
0.0
  0
LINE
  5
289
330
1F
100
AcDbEntity
  8
0-0
  6
JWW_DASHED1
 62
   120
370
     5
100
AcDbLine
 10
154.2624359778492
 20
-908.5750001243991
 30
0.0
 11
327.948650131823
 21
-734.8887859704253
 31
0.0
  0
LINE
  5
28A
330
1F
100
AcDbEntity
  8
0-0
  6
JWW_DASHED1
 62
   120
370
     5
100
AcDbLine
 10
161.333503791131
 20
-908.5750001244025
 30
0.0
 11
327.9486501318273
 21
-741.9598537837065
 31
0.0
  0
LINE
  5
28B
330
1F
100
AcDbEntity
  8
0-0
  6
JWW_DASHED1
 62
   120
370
     5
100
AcDbLine
 10
168.4045716044129
 20
-908.5750001244064
 30
0.0
 11
327.9486501318303
 21
-749.030921596989
 31
0.0
  0
LINE
  5
28C
330
1F
100
AcDbEntity
  8
0-0
  6
JWW_DASHED1
 62
   120
370
     5
100
AcDbLine
 10
175.4756394176945
 20
-908.5750001244103
 30
0.0
 11
327.9486501318345
 21
-756.1019894102702
 31
0.0
  0
LINE
  5
28D
330
1F
100
AcDbEntity
  8
0-0
  6
JWW_DASHED1
 62
   120
370
     5
100
AcDbLine
 10
182.5467072310011
 20
-908.5750001243889
 30
0.0
 11
327.9486501318237
 21
-763.1730572235664
 31
0.0
  0
LINE
  5
28E
330
1F
100
AcDbEntity
  8
0-0
  6
JWW_DASHED1
 62
   120
370
     5
100
AcDbLine
 10
189.6177750442235
 20
-908.5750001243979
 30
0.0
 11
327.9486501318318
 21
-770.2441250367892
 31
0.0
  0
LINE
  5
28F
330
1F
100
AcDbEntity
  8
0-0
  6
JWW_DASHED1
 62
   120
370
     5
100
AcDbLine
 10
196.688842857512
 20
-908.5750001243945
 30
0.0
 11
327.94865013182
 21
-777.3151928500865
 31
0.0
  0
LINE
  5
290
330
1F
100
AcDbEntity
  8
0-0
  6
JWW_DASHED1
 62
   120
370
     5
100
AcDbLine
 10
203.7599106707941
 20
-908.5750001243979
 30
0.0
 11
327.9486501318239
 21
-784.3862606633683
 31
0.0
  0
LINE
  5
291
330
1F
100
AcDbEntity
  8
0-0
  6
JWW_DASHED1
 62
   120
370
     5
100
AcDbLine
 10
210.8309784840759
 20
-908.5750001244016
 30
0.0
 11
327.9486501318281
 21
-791.4573284766494
 31
0.0
  0
LINE
  5
292
330
1F
100
AcDbEntity
  8
0-0
  6
JWW_DASHED1
 62
   120
370
     5
100
AcDbLine
 10
217.9020462973575
 20
-908.5750001244055
 30
0.0
 11
327.9486501318314
 21
-798.5283962899315
 31
0.0
  0
LINE
  5
293
330
1F
100
AcDbEntity
  8
0-0
  6
JWW_DASHED1
 62
   120
370
     5
100
AcDbLine
 10
224.973114110639
 20
-908.5750001244094
 30
0.0
 11
327.9486501318354
 21
-805.5994641032132
 31
0.0
  0
LINE
  5
294
330
1F
100
AcDbEntity
  8
0-0
  6
JWW_DASHED1
 62
   120
370
     5
100
AcDbLine
 10
232.0441819239426
 20
-908.5750001243911
 30
0.0
 11
327.9486501318245
 21
-812.6705319165093
 31
0.0
  0
LINE
  5
295
330
1F
100
AcDbEntity
  8
0-0
  6
JWW_DASHED1
 62
   120
370
     5
100
AcDbLine
 10
239.115249737224
 20
-908.5750001243953
 30
0.0
 11
327.9486501318286
 21
-819.741599729791
 31
0.0
  0
LINE
  5
296
330
1F
100
AcDbEntity
  8
0-0
  6
JWW_DASHED1
 62
   120
370
     5
100
AcDbLine
 10
246.1863175505052
 20
-908.5750001243996
 30
0.0
 11
327.9486501318326
 21
-826.8126675430726
 31
0.0
  0
LINE
  5
297
330
1F
100
AcDbEntity
  8
0-0
  6
JWW_DASHED1
 62
   120
370
     5
100
AcDbLine
 10
253.2573853637387
 20
-908.575000124397
 30
0.0
 11
327.9486501318252
 21
-833.8837353563108
 31
0.0
  0
LINE
  5
298
330
1F
100
AcDbEntity
  8
0-0
  6
JWW_DASHED1
 62
   120
370
     5
100
AcDbLine
 10
260.3284531770205
 20
-908.5750001244004
 30
0.0
 11
327.948650131829
 21
-840.9548031695924
 31
0.0
  0
LINE
  5
299
330
1F
100
AcDbEntity
  8
0-0
  6
JWW_DASHED1
 62
   120
370
     5
100
AcDbLine
 10
267.3995209903022
 20
-908.5750001244047
 30
0.0
 11
327.9486501318326
 21
-848.0258709828745
 31
0.0
  0
LINE
  5
29A
330
1F
100
AcDbEntity
  8
0-0
  6
JWW_DASHED1
 62
   120
370
     5
100
AcDbLine
 10
274.4705888035838
 20
-908.5750001244085
 30
0.0
 11
327.9486501318366
 21
-855.0969387961557
 31
0.0
  0
LINE
  5
29B
330
1F
100
AcDbEntity
  8
0-0
  6
JWW_DASHED1
 62
   120
370
     5
100
AcDbLine
 10
281.5416566168844
 20
-908.5750001243936
 30
0.0
 11
327.9486501318254
 21
-862.1680066094523
 31
0.0
  0
LINE
  5
29C
330
1F
100
AcDbEntity
  8
0-0
  6
JWW_DASHED1
 62
   120
370
     5
100
AcDbLine
 10
288.6127244301657
 20
-908.5750001243979
 30
0.0
 11
327.9486501318294
 21
-869.2390744227339
 31
0.0
  0
LINE
  5
29D
330
1F
100
AcDbEntity
  8
0-0
  6
JWW_DASHED1
 62
   120
370
     5
100
AcDbLine
 10
295.6837922434605
 20
-908.5750001243885
 30
0.0
 11
327.9486501318173
 21
-876.3101422360313
 31
0.0
  0
LINE
  5
29E
330
1F
100
AcDbEntity
  8
0-0
  6
JWW_DASHED1
 62
   120
370
     5
100
AcDbLine
 10
302.7548600567422
 20
-908.5750001243919
 30
0.0
 11
327.9486501318215
 21
-883.3812100493129
 31
0.0
  0
LINE
  5
29F
330
1F
100
AcDbEntity
  8
0-0
  6
JWW_DASHED1
 62
   120
370
     5
100
AcDbLine
 10
309.825927870024
 20
-908.5750001243957
 30
0.0
 11
327.9486501318258
 21
-890.4522778625942
 31
0.0
  0
LINE
  5
2A0
330
1F
100
AcDbEntity
  8
0-0
  6
JWW_DASHED1
 62
   120
370
     5
100
AcDbLine
 10
316.8969956833059
 20
-908.5750001243996
 30
0.0
 11
327.9486501318297
 21
-897.5233456758754
 31
0.0
  0
LINE
  5
2A1
330
1F
100
AcDbEntity
  8
0-0
  6
JWW_DASHED1
 62
   120
370
     5
100
AcDbLine
 10
323.9680634965285
 20
-908.5750001244072
 30
0.0
 11
327.9486501318376
 21
-904.5944134890987
 31
0.0
  0
LINE
  5
2A2
330
1F
100
AcDbEntity
  8
0-0
  6
Continuous
 62
    92
370
    13
100
AcDbLine
 10
-262.0513498681654
 20
-1058.575000124405
 30
0.0
 11
-262.0513498681654
 21
1124.424999875595
 31
0.0
  0
LINE
  5
2A3
330
1F
100
AcDbEntity
  8
0-0
  6
Continuous
 62
    92
370
    13
100
AcDbLine
 10
327.9486501318352
 20
-1058.575000124405
 30
0.0
 11
327.9486501318352
 21
1124.424999875595
 31
0.0
  0
LINE
  5
2A4
330
1F
100
AcDbEntity
  8
0-0
  6
Continuous
 62
    92
370
    13
100
AcDbLine
 10
77.94865013183575
 20
989.4249998755948
 30
0.0
 11
77.94865013183575
 21
-908.5750001244047
 31
0.0
  0
LINE
  5
2A5
330
1F
100
AcDbEntity
  8
0-0
  6
Continuous
 62
    92
370
    13
100
AcDbLine
 10
-12.05134986816425
 20
989.4249998755948
 30
0.0
 11
-12.05134986816425
 21
-908.5750001244047
 31
0.0
  0
LINE
  5
2A6
330
1F
100
AcDbEntity
  8
0-0
  6
Continuous
 62
    92
370
    13
100
AcDbLine
 10
-262.0513498681654
 20
989.4249998755948
 30
0.0
 11
327.9486501318352
 21
989.4249998755948
 31
0.0
  0
LINE
  5
2A7
330
1F
100
AcDbEntity
  8
0-0
  6
Continuous
 62
    92
370
    13
100
AcDbLine
 10
-262.0513498681654
 20
-908.5750001244047
 30
0.0
 11
327.9486501318352
 21
-908.5750001244047
 31
0.0
  0
LINE
  5
2A8
330
1F
100
AcDbEntity
  8
0-0
  6
Continuous
 62
    92
370
    13
100
AcDbLine
 10
-1149.051349868165
 20
1138.424999875596
 30
0.0
 11
434.9486501318359
 21
1138.424999875596
 31
0.0
  0
LINE
  5
2A9
330
1F
100
AcDbEntity
  8
0-0
  6
Continuous
 62
    92
370
    13
100
AcDbLine
 10
-1179.051349868165
 20
1168.424999875596
 30
0.0
 11
464.9486501318359
 21
1168.424999875596
 31
0.0
  0
LINE
  5
2AA
330
1F
100
AcDbEntity
  8
0-0
  6
Continuous
 62
    92
370
    13
100
AcDbLine
 10
464.9486501318359
 20
-1078.575000124405
 30
0.0
 11
464.9486501318359
 21
1168.424999875596
 31
0.0
  0
LINE
  5
2AB
330
1F
100
AcDbEntity
  8
0-0
  6
Continuous
 62
    92
370
    13
100
AcDbLine
 10
434.9486501318359
 20
-1078.575000124405
 30
0.0
 11
434.9486501318359
 21
1138.424999875596
 31
0.0
  0
LINE
  5
2AC
330
1F
100
AcDbEntity
  8
0-0
  6
Continuous
 62
    92
370
    13
100
AcDbLine
 10
-1179.051349868165
 20
-1078.575000124405
 30
0.0
 11
-1179.051349868165
 21
1168.424999875596
 31
0.0
  0
LINE
  5
2AD
330
1F
100
AcDbEntity
  8
0-0
  6
Continuous
 62
    92
370
    13
100
AcDbLine
 10
-1149.051349868165
 20
-1078.575000124405
 30
0.0
 11
-1149.051349868165
 21
1138.424999875596
 31
0.0
  0
LINE
  5
2AE
330
1F
100
AcDbEntity
  8
0-0
  6
Continuous
 62
    92
370
    13
100
AcDbLine
 10
434.9486501318359
 20
-1058.575000124405
 30
0.0
 11
-372.0513498681643
 21
-1058.575000124405
 31
0.0
  0
LINE
  5
2AF
330
1F
100
AcDbEntity
  8
0-0
  6
JWW_DASHED1
 62
   120
370
     5
100
AcDbLine
 10
434.9486501318359
 20
-1058.575000124405
 30
0.0
 11
437.9486501318357
 21
-1058.575000124405
 31
0.0
  0
LINE
  5
2B0
330
1F
100
AcDbEntity
  8
0-0
  6
Continuous
 62
    92
370
    13
100
AcDbLine
 10
-1149.051349868165
 20
-1063.575000124405
 30
0.0
 11
434.9486501318359
 21
-1063.575000124405
 31
0.0
  0
LINE
  5
2B1
330
1F
100
AcDbEntity
  8
0-0
  6
Continuous
 62
    92
370
    13
100
AcDbLine
 10
-1179.051349868165
 20
-1078.575000124405
 30
0.0
 11
464.9486501318359
 21
-1078.575000124405
 31
0.0
  0
LINE
  5
2B2
330
1F
100
AcDbEntity
  8
0-0
  6
Continuous
 62
     7
370
     9
100
AcDbLine
 10
401.9486501318361
 20
-71.47500012440631
 30
0.0
 11
401.9486501318361
 21
-130.6750001244045
 31
0.0
  0
LINE
  5
2B3
330
1F
100
AcDbEntity
  8
0-0
  6
Continuous
 62
     7
370
     9
100
AcDbLine
 10
371.9486501318361
 20
-130.6750001244045
 30
0.0
 11
371.9486501318361
 21
-71.47500012440631
 31
0.0
  0
ARC
  5
2B4
330
1F
100
AcDbEntity
  8
0-0
  6
Continuous
 62
     7
370
     9
100
AcDbCircle
 10
386.9486501318361
 20
-71.47500012440631
 30
0.0
 40
15.0
100
AcDbArc
 50
0.0
 51
180.0
  0
ARC
  5
2B5
330
1F
100
AcDbEntity
  8
0-0
  6
Continuous
 62
     7
370
     9
100
AcDbCircle
 10
386.9486501318361
 20
-130.6750001244045
 30
0.0
 40
15.0
100
AcDbArc
 50
180.0
 51
0.0
  0
ARC
  5
2B6
330
1F
100
AcDbEntity
  8
0-0
  6
Continuous
 62
    92
370
    13
100
AcDbCircle
 10
406.4486501318362
 20
-160.5750001244046
 30
0.0
 40
1.5
100
AcDbArc
 50
270.0
 51
0.0
  0
LINE
  5
2B7
330
1F
100
AcDbEntity
  8
0-0
  6
Continuous
 62
    92
370
    13
100
AcDbLine
 10
407.9486501318357
 20
-160.5750001244046
 30
0.0
 11
407.9486501318357
 21
-41.57500012440536
 31
0.0
  0
LINE
  5
2B8
330
1F
100
AcDbEntity
  8
0-0
  6
Continuous
 62
    92
370
    13
100
AcDbLine
 10
406.4486501318362
 20
-162.0750001244058
 30
0.0
 11
367.4486501318368
 21
-162.0750001244058
 31
0.0
  0
ARC
  5
2B9
330
1F
100
AcDbEntity
  8
0-0
  6
Continuous
 62
    92
370
    13
100
AcDbCircle
 10
367.4486501318368
 20
-160.5750001244046
 30
0.0
 40
1.5
100
AcDbArc
 50
180.0
 51
270.0
  0
LINE
  5
2BA
330
1F
100
AcDbEntity
  8
0-0
  6
Continuous
 62
    92
370
    13
100
AcDbLine
 10
365.9486501318364
 20
-160.5750001244046
 30
0.0
 11
365.9486501318364
 21
-41.57500012440536
 31
0.0
  0
ARC
  5
2BB
330
1F
100
AcDbEntity
  8
0-0
  6
Continuous
 62
    92
370
    13
100
AcDbCircle
 10
367.4486501318368
 20
-41.57500012440536
 30
0.0
 40
1.5
100
AcDbArc
 50
89.99999999999999
 51
180.0
  0
LINE
  5
2BC
330
1F
100
AcDbEntity
  8
0-0
  6
Continuous
 62
    92
370
    13
100
AcDbLine
 10
367.4486501318368
 20
-40.07500012440502
 30
0.0
 11
406.4486501318362
 21
-40.07500012440502
 31
0.0
  0
ARC
  5
2BD
330
1F
100
AcDbEntity
  8
0-0
  6
Continuous
 62
    92
370
    13
100
AcDbCircle
 10
406.4486501318362
 20
-41.57500012440536
 30
0.0
 40
1.5
100
AcDbArc
 50
0.0
 51
90.0
  0
LINE
  5
2BE
330
1F
100
AcDbEntity
  8
0-0
  6
JWW_DASHED1
 62
   120
370
     5
100
AcDbLine
 10
437.9486501318357
 20
-1058.575000124405
 30
0.0
 11
437.9486501318357
 21
1124.424999875595
 31
0.0
  0
LINE
  5
2BF
330
1F
100
AcDbEntity
  8
0-0
  6
JWW_DASHED1
 62
   120
370
     5
100
AcDbLine
 10
434.9486501318359
 20
1124.424999875595
 30
0.0
 11
437.9486501318357
 21
1124.424999875595
 31
0.0
  0
LINE
  5
2C0
330
1F
100
AcDbEntity
  8
0-0
  6
JWW_DASHED1
 62
   120
370
     5
100
AcDbLine
 10
-372.0513498681643
 20
-1063.575000124405
 30
0.0
 11
-372.0513498681643
 21
1138.424999875596
 31
0.0
  0
LINE
  5
2C1
330
1F
100
AcDbEntity
  8
0-0
  6
JWW_DASHED1
 62
   120
370
     5
100
AcDbLine
 10
-342.0513498681643
 20
-1063.575000124405
 30
0.0
 11
-342.0513498681643
 21
1138.424999875596
 31
0.0
  0
LINE
  5
2C2
330
1F
100
AcDbEntity
  8
0-0
  6
JWW_DASHED1
 62
   120
370
     5
100
AcDbLine
 10
-372.0513498681643
 20
1124.424999875595
 30
0.0
 11
-372.0513498681643
 21
1120.424999875595
 31
0.0
  0
LINE
  5
2C3
330
1F
100
AcDbEntity
  8
0-0
  6
Continuous
 62
    92
370
    13
100
AcDbLine
 10
-372.0513498681643
 20
1124.424999875595
 30
0.0
 11
-372.0513498681643
 21
-1058.575000124405
 31
0.0
  0
LINE
  5
2C4
330
1F
100
AcDbEntity
  8
0-0
  6
Continuous
 62
    92
370
    13
100
AcDbLine
 10
434.9486501318359
 20
1124.424999875595
 30
0.0
 11
-372.0513498681643
 21
1124.424999875595
 31
0.0
  0
MTEXT
  5
2C5
330
1F
100
AcDbEntity
  8
寸法
  6
Continuous
 62
     7
370
   211
100
AcDbMText
 10
-563.301349868166
 20
-1722.500000124405
 30
0.0
 40
57.14999999999999
 41
412.5
 46
0.0
 71
     7
 72
     1
  1
{\fＭＳ ゴシック|b0|i0|c128|p49;枠外＝1,644}
 73
     1
 44
1.0
  0
MTEXT
  5
2C6
330
1F
100
AcDbEntity
  8
寸法
  6
Continuous
 62
     7
370
   211
100
AcDbMText
 10
-563.301349868166
 20
-1522.500000124405
 30
0.0
 40
57.14999999999999
 41
412.5
 46
0.0
 71
     7
 72
     1
  1
{\fＭＳ ゴシック|b0|i0|c128|p49;枠内＝1,584}
 73
     1
 44
1.0
  0
MTEXT
  5
2C7
330
1F
100
AcDbEntity
  8
寸法
  6
Continuous
 62
     7
370
   211
100
AcDbMText
 10
-135.8013498681643
 20
-1322.500000124405
 30
0.0
 40
57.15
 41
337.5
 46
0.0
 71
     7
 72
     1
  1
{\fＭＳ ゴシック|b0|i0|c128|p49;ＤＷ＝810}
 73
     1
 44
1.0
  0
MTEXT
  5
2C8
330
1F
100
AcDbEntity
  8
寸法
  6
Continuous
 62
     7
370
    70
100
AcDbMText
 10
-1444.051349868166
 20
-182.2500001244049
 30
0.0
 40
57.14999999999999
 41
412.5
 46
0.0
 71
     7
 72
     1
  1
{\fＭＳ ゴシック|b0|i0|c128|p49;ＤＨ＝2,183}
 11
6.123031769111886E-17
 21
1.0
 31
0.0
 73
     1
 44
1.0
  0
MTEXT
  5
2C9
330
1F
100
AcDbEntity
  8
寸法
  6
Continuous
 62
     7
370
    70
100
AcDbMText
 10
-1644.051349868165
 20
-182.2500001244049
 30
0.0
 40
57.14999999999999
 41
412.5
 46
0.0
 71
     7
 72
     1
  1
{\fＭＳ ゴシック|b0|i0|c128|p49;枠外＝2,247}
 11
6.123031769111886E-17
 21
1.0
 31
0.0
 73
     1
 44
1.0
  0
LWPOLYLINE
  5
2CA
330
1F
100
AcDbEntity
  8
寸法
  6
Continuous
 62
     7
370
     9
100
AcDbPolyline
 90
        4
 70
     1
 43
3.0
 10
439.4486501318358
 20
-1328.575000124406
 42
0.4142135623731
 10
437.9486501318357
 20
-1327.075000124406
 42
0.4142135623731
 10
436.4486501318357
 20
-1328.575000124406
 42
0.4142135623731
 10
437.9486501318357
 20
-1330.075000124406
 42
0.4142135623731
  0
LWPOLYLINE
  5
2CB
330
1F
100
AcDbEntity
  8
寸法
  6
Continuous
 62
     7
370
     9
100
AcDbPolyline
 90
        4
 70
     1
 43
3.0
 10
-370.5513498681642
 20
-1328.575000124406
 42
0.4142135623731
 10
-372.0513498681643
 20
-1327.075000124406
 42
0.4142135623731
 10
-373.5513498681643
 20
-1328.575000124406
 42
0.4142135623731
 10
-372.0513498681643
 20
-1330.075000124406
 42
0.4142135623731
  0
LWPOLYLINE
  5
2CC
330
1F
100
AcDbEntity
  8
寸法
  6
Continuous
 62
     7
370
     9
100
AcDbPolyline
 90
        4
 70
     1
 43
3.0
 10
-1177.551349868165
 20
-1728.575000124405
 42
0.4142135623731
 10
-1179.051349868165
 20
-1727.075000124405
 42
0.4142135623731
 10
-1180.551349868165
 20
-1728.575000124405
 42
0.4142135623731
 10
-1179.051349868165
 20
-1730.075000124405
 42
0.4142135623731
  0
LWPOLYLINE
  5
2CD
330
1F
100
AcDbEntity
  8
寸法
  6
Continuous
 62
     7
370
     9
100
AcDbPolyline
 90
        4
 70
     1
 43
3.0
 10
-1147.551349868165
 20
-1528.575000124405
 42
0.4142135623731
 10
-1149.051349868165
 20
-1527.075000124405
 42
0.4142135623731
 10
-1150.551349868165
 20
-1528.575000124405
 42
0.4142135623731
 10
-1149.051349868165
 20
-1530.075000124405
 42
0.4142135623731
  0
LWPOLYLINE
  5
2CE
330
1F
100
AcDbEntity
  8
寸法
  6
Continuous
 62
     7
370
     9
100
AcDbPolyline
 90
        4
 70
     1
 43
3.0
 10
466.448650131836
 20
-1728.575000124405
 42
0.4142135623731
 10
464.9486501318359
 20
-1727.075000124405
 42
0.4142135623731
 10
463.4486501318359
 20
-1728.575000124405
 42
0.4142135623731
 10
464.9486501318359
 20
-1730.075000124405
 42
0.4142135623731
  0
LWPOLYLINE
  5
2CF
330
1F
100
AcDbEntity
  8
寸法
  6
Continuous
 62
     7
370
     9
100
AcDbPolyline
 90
        4
 70
     1
 43
3.0
 10
436.448650131836
 20
-1528.575000124405
 42
0.4142135623731
 10
434.9486501318359
 20
-1527.075000124405
 42
0.4142135623731
 10
433.4486501318359
 20
-1528.575000124405
 42
0.4142135623731
 10
434.9486501318359
 20
-1530.075000124405
 42
0.4142135623731
  0
LINE
  5
2D0
330
1F
100
AcDbEntity
  8
寸法
  6
Continuous
 62
   120
370
     5
100
AcDbLine
 10
437.9486501318357
 20
-1328.575000124406
 30
0.0
 11
-372.0513498681643
 21
-1328.575000124406
 31
0.0
  0
LINE
  5
2D1
330
1F
100
AcDbEntity
  8
寸法
  6
Continuous
 62
   120
370
     5
100
AcDbLine
 10
437.9486501318357
 20
-1328.575000124406
 30
0.0
 11
437.9486501318357
 21
-1128.575000124405
 31
0.0
  0
LINE
  5
2D2
330
1F
100
AcDbEntity
  8
寸法
  6
Continuous
 62
   120
370
     5
100
AcDbLine
 10
-372.0513498681643
 20
-1328.575000124406
 30
0.0
 11
-372.0513498681643
 21
-1128.575000124405
 31
0.0
  0
LINE
  5
2D3
330
1F
100
AcDbEntity
  8
寸法
  6
Continuous
 62
   120
370
     5
100
AcDbLine
 10
-1179.051349868165
 20
-1728.575000124405
 30
0.0
 11
-1179.051349868165
 21
-1128.575000124405
 31
0.0
  0
LINE
  5
2D4
330
1F
100
AcDbEntity
  8
寸法
  6
Continuous
 62
   120
370
     5
100
AcDbLine
 10
464.9486501318359
 20
-1728.575000124405
 30
0.0
 11
-1179.051349868165
 21
-1728.575000124405
 31
0.0
  0
LINE
  5
2D5
330
1F
100
AcDbEntity
  8
寸法
  6
Continuous
 62
   120
370
     5
100
AcDbLine
 10
-1149.051349868165
 20
-1528.575000124405
 30
0.0
 11
-1149.051349868165
 21
-1128.575000124405
 31
0.0
  0
LINE
  5
2D6
330
1F
100
AcDbEntity
  8
寸法
  6
Continuous
 62
   120
370
     5
100
AcDbLine
 10
434.9486501318359
 20
-1528.575000124405
 30
0.0
 11
-1149.051349868165
 21
-1528.575000124405
 31
0.0
  0
LINE
  5
2D7
330
1F
100
AcDbEntity
  8
寸法
  6
Continuous
 62
   120
370
     5
100
AcDbLine
 10
464.9486501318359
 20
-1728.575000124405
 30
0.0
 11
464.9486501318359
 21
-1128.575000124405
 31
0.0
  0
LINE
  5
2D8
330
1F
100
AcDbEntity
  8
寸法
  6
Continuous
 62
   120
370
     5
100
AcDbLine
 10
434.9486501318359
 20
-1528.575000124405
 30
0.0
 11
434.9486501318359
 21
-1128.575000124405
 31
0.0
  0
LINE
  5
2D9
330
1F
100
AcDbEntity
  8
寸法
  6
Continuous
 62
   120
370
     5
100
AcDbLine
 10
-1429.051349868166
 20
-1058.575000124405
 30
0.0
 11
-1229.051349868166
 21
-1058.575000124405
 31
0.0
  0
LINE
  5
2DA
330
1F
100
AcDbEntity
  8
寸法
  6
Continuous
 62
   120
370
     5
100
AcDbLine
 10
-1629.051349868165
 20
-1078.575000124405
 30
0.0
 11
-1229.051349868166
 21
-1078.575000124405
 31
0.0
  0
LWPOLYLINE
  5
2DB
330
1F
100
AcDbEntity
  8
寸法
  6
Continuous
 62
     7
370
     9
100
AcDbPolyline
 90
        4
 70
     1
 43
3.0
 10
-1427.551349868166
 20
-1058.575000124405
 42
0.4142135623731
 10
-1429.051349868166
 20
-1057.075000124405
 42
0.4142135623731
 10
-1430.551349868166
 20
-1058.575000124405
 42
0.4142135623731
 10
-1429.051349868166
 20
-1060.075000124405
 42
0.4142135623731
  0
LWPOLYLINE
  5
2DC
330
1F
100
AcDbEntity
  8
寸法
  6
Continuous
 62
     7
370
     9
100
AcDbPolyline
 90
        4
 70
     1
 43
3.0
 10
-1627.551349868165
 20
-1078.575000124405
 42
0.4142135623731
 10
-1629.051349868165
 20
-1077.075000124405
 42
0.4142135623731
 10
-1630.551349868165
 20
-1078.575000124405
 42
0.4142135623731
 10
-1629.051349868165
 20
-1080.075000124405
 42
0.4142135623731
  0
LINE
  5
2DD
330
1F
100
AcDbEntity
  8
寸法
  6
Continuous
 62
   120
370
     5
100
AcDbLine
 10
-1629.051349868165
 20
1168.424999875596
 30
0.0
 11
-1629.051349868165
 21
-1078.575000124405
 31
0.0
  0
LWPOLYLINE
  5
2DE
330
1F
100
AcDbEntity
  8
寸法
  6
Continuous
 62
     7
370
     9
100
AcDbPolyline
 90
        4
 70
     1
 43
3.0
 10
-1627.551349868165
 20
1168.424999875596
 42
0.4142135623731
 10
-1629.051349868165
 20
1169.924999875596
 42
0.4142135623731
 10
-1630.551349868165
 20
1168.424999875596
 42
0.4142135623731
 10
-1629.051349868165
 20
1166.924999875596
 42
0.4142135623731
  0
LINE
  5
2DF
330
1F
100
AcDbEntity
  8
寸法
  6
Continuous
 62
   120
370
     5
100
AcDbLine
 10
-1429.051349868166
 20
1124.424999875595
 30
0.0
 11
-1429.051349868166
 21
-1058.575000124405
 31
0.0
  0
LWPOLYLINE
  5
2E0
330
1F
100
AcDbEntity
  8
寸法
  6
Continuous
 62
     7
370
     9
100
AcDbPolyline
 90
        4
 70
     1
 43
3.0
 10
-1427.551349868166
 20
1124.424999875595
 42
0.4142135623731
 10
-1429.051349868166
 20
1125.924999875595
 42
0.4142135623731
 10
-1430.551349868166
 20
1124.424999875595
 42
0.4142135623731
 10
-1429.051349868166
 20
1122.924999875595
 42
0.4142135623731
  0
LINE
  5
2E1
330
1F
100
AcDbEntity
  8
寸法
  6
Continuous
 62
   120
370
     5
100
AcDbLine
 10
-1629.051349868165
 20
1168.424999875596
 30
0.0
 11
-1229.051349868166
 21
1168.424999875596
 31
0.0
  0
LINE
  5
2E2
330
1F
100
AcDbEntity
  8
寸法
  6
Continuous
 62
   120
370
     5
100
AcDbLine
 10
-1429.051349868166
 20
1124.424999875595
 30
0.0
 11
-1229.051349868166
 21
1124.424999875595
 31
0.0
  0
ENDSEC
  0
SECTION
  2
OBJECTS
  0
DICTIONARY
  5
C
330
0
100
AcDbDictionary
281
     1
  3
ACAD_GROUP
350
D
  3
ACAD_LAYOUT
350
1A
  3
ACAD_MATERIAL
350
3B
  3
ACAD_MLEADERSTYLE
350
2E4
  3
ACAD_MLINESTYLE
350
17
  3
ACAD_PLOTSETTINGS
350
19
  3
ACAD_PLOTSTYLENAME
350
E
  3
ACAD_TABLESTYLE
350
2E3
  3
ACAD_VISUALSTYLE
350
2A
  0
DICTIONARY
  5
D
102
{ACAD_REACTORS
330
C
102
}
330
C
100
AcDbDictionary
281
     1
  0
DICTIONARY
  5
1A
102
{ACAD_REACTORS
330
C
102
}
330
C
100
AcDbDictionary
281
     1
  3
Layout1
350
1E
  3
Layout2
350
26
  3
Model
350
22
  0
DICTIONARY
  5
3B
102
{ACAD_REACTORS
330
C
102
}
330
C
100
AcDbDictionary
281
     1
  3
ByBlock
350
3D
  3
ByLayer
350
3C
  3
Global
350
3E
  0
DICTIONARY
  5
2E4
102
{ACAD_REACTORS
330
C
102
}
330
C
100
AcDbDictionary
281
     1
  0
DICTIONARY
  5
17
102
{ACAD_REACTORS
330
C
102
}
330
C
100
AcDbDictionary
281
     1
  3
Standard
350
18
  0
DICTIONARY
  5
19
102
{ACAD_REACTORS
330
C
102
}
330
C
100
AcDbDictionary
281
     1
  0
ACDBDICTIONARYWDFLT
  5
E
102
{ACAD_REACTORS
330
C
102
}
330
C
100
AcDbDictionary
281
     1
  3
Normal
350
F
100
AcDbDictionaryWithDefault
340
F
  0
DICTIONARY
  5
2E3
102
{ACAD_REACTORS
330
C
102
}
330
C
100
AcDbDictionary
281
     1
  0
DICTIONARY
  5
2A
102
{ACAD_REACTORS
330
C
102
}
330
C
100
AcDbDictionary
281
     1
  3
2dWireframe
350
2F
  3
3D Hidden
350
31
  3
3dWireframe
350
30
  3
Basic
350
32
  3
Brighten
350
36
  3
ColorChange
350
3A
  3
Conceptual
350
34
  3
Dim
350
35
  3
Facepattern
350
39
  3
Flat
350
2B
  3
FlatWithEdges
350
2C
  3
Gouraud
350
2D
  3
GouraudWithEdges
350
2E
  3
Linepattern
350
38
  3
Realistic
350
33
  3
Thicken
350
37
  0
LAYOUT
  5
1E
102
{ACAD_REACTORS
330
1A
102
}
330
1A
100
AcDbPlotSettings
  1

  2
none_device
  4

  6

 40
0.0
 41
0.0
 42
0.0
 43
0.0
 44
0.0
 45
0.0
 46
0.0
 47
0.0
 48
0.0
 49
0.0
140
0.0
141
0.0
142
1.0
143
1.0
 70
   688
 72
     0
 73
     0
 74
     5
  7

 75
    16
 76
     0
 77
     5
 78
   300
147
1.0
148
0.0
149
0.0
100
AcDbLayout
  1
Layout1
 70
     1
 71
     1
 10
0.0
 20
0.0
 11
420.0
 21
297.0
 12
0.0
 22
0.0
 32
0.0
 14
1.000000000000000E+20
 24
1.000000000000000E+20
 34
1.000000000000000E+20
 15
-1.000000000000000E+20
 25
-1.000000000000000E+20
 35
-1.000000000000000E+20
146
0.0
 13
0.0
 23
0.0
 33
0.0
 16
1.0
 26
0.0
 36
0.0
 17
0.0
 27
1.0
 37
0.0
 76
     0
330
1B
  0
LAYOUT
  5
26
102
{ACAD_REACTORS
330
1A
102
}
330
1A
100
AcDbPlotSettings
  1

  2
none_device
  4

  6

 40
0.0
 41
0.0
 42
0.0
 43
0.0
 44
0.0
 45
0.0
 46
0.0
 47
0.0
 48
0.0
 49
0.0
140
0.0
141
0.0
142
1.0
143
1.0
 70
   688
 72
     0
 73
     0
 74
     5
  7

 75
    16
 76
     0
 77
     5
 78
   300
147
1.0
148
0.0
149
0.0
100
AcDbLayout
  1
Layout2
 70
     1
 71
     2
 10
0.0
 20
0.0
 11
0.0
 21
0.0
 12
0.0
 22
0.0
 32
0.0
 14
0.0
 24
0.0
 34
0.0
 15
0.0
 25
0.0
 35
0.0
146
0.0
 13
0.0
 23
0.0
 33
0.0
 16
1.0
 26
0.0
 36
0.0
 17
0.0
 27
1.0
 37
0.0
 76
     0
330
23
  0
LAYOUT
  5
22
102
{ACAD_REACTORS
330
1A
102
}
330
1A
100
AcDbPlotSettings
  1

  2
none_device
  4

  6

 40
0.0
 41
0.0
 42
0.0
 43
0.0
 44
0.0
 45
0.0
 46
0.0
 47
0.0
 48
0.0
 49
0.0
140
0.0
141
0.0
142
1.0
143
1.0
 70
  1712
 72
     0
 73
     0
 74
     0
  7

 75
     0
 76
     0
 77
     5
 78
   300
147
1.0
148
0.0
149
0.0
100
AcDbLayout
  1
Model
 70
     1
 71
     0
 10
-4455.0
 20
-3150.0
 11
4455.0
 21
3150.0
 12
0.0
 22
0.0
 32
0.0
 14
-4455.0
 24
-3150.0
 34
0.0
 15
4455.0
 25
3150.0
 35
0.0
146
0.0
 13
0.0
 23
0.0
 33
0.0
 16
1.0
 26
0.0
 36
0.0
 17
0.0
 27
1.0
 37
0.0
 76
     0
330
1F
331
29
  0
MATERIAL
  5
3D
102
{ACAD_REACTORS
330
3B
102
}
330
3B
100
AcDbMaterial
  1
ByBlock
 72
     1
 94
      127
  0
MATERIAL
  5
3C
102
{ACAD_REACTORS
330
3B
102
}
330
3B
100
AcDbMaterial
  1
ByLayer
 72
     1
 94
      127
  0
MATERIAL
  5
3E
102
{ACAD_REACTORS
330
3B
102
}
330
3B
100
AcDbMaterial
  1
Global
 72
     1
 94
      127
  0
MLINESTYLE
  5
18
102
{ACAD_REACTORS
330
17
102
}
330
17
100
AcDbMlineStyle
  2
Standard
 70
     0
  3

 62
   256
 51
90.0
 52
90.0
 71
     2
 49
0.5
 62
   256
  6
BYLAYER
 49
-0.5
 62
   256
  6
BYLAYER
  0
ACDBPLACEHOLDER
  5
F
102
{ACAD_REACTORS
330
E
102
}
330
E
  0
VISUALSTYLE
  5
2F
102
{ACAD_REACTORS
330
2A
102
}
330
2A
100
AcDbVisualStyle
  2
2dWireframe
 70
     4
177
     2
291
     0
 71
     0
176
     1
 72
     2
176
     1
 73
     0
176
     1
 90
        0
176
     1
 40
-0.6
176
     1
 41
-30.0
176
     1
 62
     5
 63
     7
421
 16777215
176
     1
 74
     1
176
     1
 91
        4
176
     1
 64
     7
176
     1
 65
   257
176
     1
 75
     1
176
     1
175
     1
176
     1
 42
1.0
176
     1
 92
        0
176
     1
 66
   257
176
     1
 43
1.0
176
     1
 76
     1
176
     1
 77
     6
176
     1
 78
     2
176
     1
 67
     7
176
     1
 79
     5
176
     1
170
     0
176
     1
171
     0
176
     1
290
     0
176
     1
 93
        1
176
     1
 44
0.0
176
     1
173
     0
176
     1
  0
VISUALSTYLE
  5
31
102
{ACAD_REACTORS
330
2A
102
}
330
2A
100
AcDbVisualStyle
  2
3D Hidden
 70
     6
177
     2
291
     0
 71
     1
176
     1
 72
     2
176
     1
 73
     2
176
     1
 90
        0
176
     1
 40
-0.6
176
     1
 41
-30.0
176
     1
 62
     5
 63
     7
421
 16777215
176
     1
 74
     2
176
     1
 91
        2
176
     1
 64
     7
176
     1
 65
   257
176
     1
 75
     2
176
     1
175
     1
176
     1
 42
40.0
176
     1
 92
        0
176
     1
 66
   257
176
     1
 43
1.0
176
     1
 76
     1
176
     1
 77
     6
176
     1
 78
     2
176
     1
 67
     7
176
     1
 79
     3
176
     1
170
     0
176
     1
171
     0
176
     1
290
     0
176
     1
 93
        1
176
     1
 44
0.0
176
     1
173
     0
176
     1
  0
VISUALSTYLE
  5
30
102
{ACAD_REACTORS
330
2A
102
}
330
2A
100
AcDbVisualStyle
  2
3dWireframe
 70
     5
177
     2
291
     0
 71
     0
176
     1
 72
     2
176
     1
 73
     0
176
     1
 90
        0
176
     1
 40
-0.6
176
     1
 41
-30.0
176
     1
 62
     5
 63
     7
421
 16777215
176
     1
 74
     1
176
     1
 91
        4
176
     1
 64
     7
176
     1
 65
   257
176
     1
 75
     1
176
     1
175
     1
176
     1
 42
1.0
176
     1
 92
        0
176
     1
 66
   257
176
     1
 43
1.0
176
     1
 76
     1
176
     1
 77
     6
176
     1
 78
     2
176
     1
 67
     7
176
     1
 79
     5
176
     1
170
     0
176
     1
171
     0
176
     1
290
     0
176
     1
 93
        1
176
     1
 44
0.0
176
     1
173
     0
176
     1
  0
VISUALSTYLE
  5
32
102
{ACAD_REACTORS
330
2A
102
}
330
2A
100
AcDbVisualStyle
  2
Basic
 70
     7
177
     2
291
     1
 71
     1
176
     1
 72
     0
176
     1
 73
     1
176
     1
 90
        0
176
     1
 40
-0.6
176
     1
 41
-30.0
176
     1
 62
     5
 63
     7
421
 16777215
176
     1
 74
     0
176
     1
 91
        4
176
     1
 64
     7
176
     1
 65
   257
176
     1
 75
     1
176
     1
175
     1
176
     1
 42
1.0
176
     1
 92
        8
176
     1
 66
     7
176
     1
 43
1.0
176
     1
 76
     1
176
     1
 77
     6
176
     1
 78
     2
176
     1
 67
     7
176
     1
 79
     5
176
     1
170
     0
176
     1
171
     0
176
     1
290
     0
176
     1
 93
        1
176
     1
 44
0.0
176
     1
173
     0
176
     1
  0
VISUALSTYLE
  5
36
102
{ACAD_REACTORS
330
2A
102
}
330
2A
100
AcDbVisualStyle
  2
Brighten
 70
    12
177
     2
291
     1
 71
     2
176
     1
 72
     2
176
     1
 73
     0
176
     1
 90
        0
176
     1
 40
-0.6
176
     1
 41
-30.0
176
     1
 62
     5
 63
     7
421
 16777215
176
     1
 74
     1
176
     1
 91
        4
176
     1
 64
     7
176
     1
 65
   257
176
     1
 75
     1
176
     1
175
     1
176
     1
 42
1.0
176
     1
 92
        8
176
     1
 66
     7
176
     1
 43
1.0
176
     1
 76
     1
176
     1
 77
     6
176
     1
 78
     2
176
     1
 67
     7
176
     1
 79
     5
176
     1
170
     0
176
     1
171
     0
176
     1
290
     0
176
     1
 93
        1
176
     1
 44
50.0
176
     1
173
     0
176
     1
  0
VISUALSTYLE
  5
3A
102
{ACAD_REACTORS
330
2A
102
}
330
2A
100
AcDbVisualStyle
  2
ColorChange
 70
    16
177
     2
291
     1
 71
     2
176
     1
 72
     2
176
     1
 73
     3
176
     1
 90
        0
176
     1
 40
-0.6
176
     1
 41
-30.0
176
     1
 62
     5
 63
     8
421
  8421504
176
     1
 74
     1
176
     1
 91
        4
176
     1
 64
     7
176
     1
 65
   257
176
     1
 75
     1
176
     1
175
     1
176
     1
 42
1.0
176
     1
 92
        8
176
     1
 66
     8
424
  8421504
176
     1
 43
1.0
176
     1
 76
     1
176
     1
 77
     6
176
     1
 78
     2
176
     1
 67
     7
176
     1
 79
     5
176
     1
170
     0
176
     1
171
     0
176
     1
290
     0
176
     1
 93
        1
176
     1
 44
0.0
176
     1
173
     0
176
     1
  0
VISUALSTYLE
  5
34
102
{ACAD_REACTORS
330
2A
102
}
330
2A
100
AcDbVisualStyle
  2
Conceptual
 70
     9
177
     2
291
     0
 71
     3
176
     1
 72
     2
176
     1
 73
     0
176
     1
 90
        0
176
     1
 40
-0.6
176
     1
 41
-30.0
176
     1
 62
     5
 63
     7
421
 16777215
176
     1
 74
     2
176
     1
 91
        2
176
     1
 64
     7
176
     1
 65
   257
176
     1
 75
     1
176
     1
175
     1
176
     1
 42
40.0
176
     1
 92
        8
176
     1
 66
     7
176
     1
 43
1.0
176
     1
 76
     1
176
     1
 77
     6
176
     1
 78
     2
176
     1
 67
     7
176
     1
 79
     3
176
     1
170
     0
176
     1
171
     0
176
     1
290
     0
176
     1
 93
        1
176
     1
 44
0.0
176
     1
173
     0
176
     1
  0
VISUALSTYLE
  5
35
102
{ACAD_REACTORS
330
2A
102
}
330
2A
100
AcDbVisualStyle
  2
Dim
 70
    11
177
     2
291
     1
 71
     2
176
     1
 72
     2
176
     1
 73
     0
176
     1
 90
        0
176
     1
 40
-0.6
176
     1
 41
-30.0
176
     1
 62
     5
 63
     7
421
 16777215
176
     1
 74
     1
176
     1
 91
        4
176
     1
 64
     7
176
     1
 65
   257
176
     1
 75
     1
176
     1
175
     1
176
     1
 42
1.0
176
     1
 92
        8
176
     1
 66
     7
176
     1
 43
1.0
176
     1
 76
     1
176
     1
 77
     6
176
     1
 78
     2
176
     1
 67
     7
176
     1
 79
     5
176
     1
170
     0
176
     1
171
     0
176
     1
290
     0
176
     1
 93
        1
176
     1
 44
-50.0
176
     1
173
     0
176
     1
  0
VISUALSTYLE
  5
39
102
{ACAD_REACTORS
330
2A
102
}
330
2A
100
AcDbVisualStyle
  2
Facepattern
 70
    15
177
     2
291
     1
 71
     2
176
     1
 72
     2
176
     1
 73
     0
176
     1
 90
        0
176
     1
 40
-0.6
176
     1
 41
-30.0
176
     1
 62
     5
 63
     7
421
 16777215
176
     1
 74
     1
176
     1
 91
        4
176
     1
 64
     7
176
     1
 65
   257
176
     1
 75
     1
176
     1
175
     1
176
     1
 42
1.0
176
     1
 92
        8
176
     1
 66
     7
176
     1
 43
1.0
176
     1
 76
     1
176
     1
 77
     6
176
     1
 78
     2
176
     1
 67
     7
176
     1
 79
     5
176
     1
170
     0
176
     1
171
     0
176
     1
290
     0
176
     1
 93
        1
176
     1
 44
0.0
176
     1
173
     0
176
     1
  0
VISUALSTYLE
  5
2B
102
{ACAD_REACTORS
330
2A
102
}
330
2A
100
AcDbVisualStyle
  2
Flat
 70
     0
177
     2
291
     1
 71
     2
176
     1
 72
     1
176
     1
 73
     1
176
     1
 90
        2
176
     1
 40
-0.6
176
     1
 41
30.0
176
     1
 62
     5
 63
     7
421
 16777215
176
     1
 74
     0
176
     1
 91
        4
176
     1
 64
     7
176
     1
 65
   257
176
     1
 75
     1
176
     1
175
     1
176
     1
 42
1.0
176
     1
 92
        8
176
     1
 66
     7
176
     1
 43
1.0
176
     1
 76
     1
176
     1
 77
     6
176
     1
 78
     2
176
     1
 67
     7
176
     1
 79
     5
176
     1
170
     0
176
     1
171
     0
176
     1
290
     0
176
     1
 93
       13
176
     1
 44
0.0
176
     1
173
     0
176
     1
  0
VISUALSTYLE
  5
2C
102
{ACAD_REACTORS
330
2A
102
}
330
2A
100
AcDbVisualStyle
  2
FlatWithEdges
 70
     1
177
     2
291
     1
 71
     2
176
     1
 72
     1
176
     1
 73
     1
176
     1
 90
        2
176
     1
 40
-0.6
176
     1
 41
30.0
176
     1
 62
     5
 63
     7
421
 16777215
176
     1
 74
     1
176
     1
 91
        4
176
     1
 64
     7
176
     1
 65
   257
176
     1
 75
     1
176
     1
175
     1
176
     1
 42
1.0
176
     1
 92
        0
176
     1
 66
   257
176
     1
 43
1.0
176
     1
 76
     1
176
     1
 77
     6
176
     1
 78
     2
176
     1
 67
     7
176
     1
 79
     5
176
     1
170
     0
176
     1
171
     0
176
     1
290
     0
176
     1
 93
       13
176
     1
 44
0.0
176
     1
173
     0
176
     1
  0
VISUALSTYLE
  5
2D
102
{ACAD_REACTORS
330
2A
102
}
330
2A
100
AcDbVisualStyle
  2
Gouraud
 70
     2
177
     2
291
     1
 71
     2
176
     1
 72
     2
176
     1
 73
     1
176
     1
 90
        2
176
     1
 40
-0.6
176
     1
 41
30.0
176
     1
 62
     5
 63
     7
421
 16777215
176
     1
 74
     0
176
     1
 91
        4
176
     1
 64
     7
176
     1
 65
   257
176
     1
 75
     1
176
     1
175
     1
176
     1
 42
1.0
176
     1
 92
        0
176
     1
 66
     7
176
     1
 43
1.0
176
     1
 76
     1
176
     1
 77
     6
176
     1
 78
     2
176
     1
 67
     7
176
     1
 79
     5
176
     1
170
     0
176
     1
171
     0
176
     1
290
     0
176
     1
 93
       13
176
     1
 44
0.0
176
     1
173
     0
176
     1
  0
VISUALSTYLE
  5
2E
102
{ACAD_REACTORS
330
2A
102
}
330
2A
100
AcDbVisualStyle
  2
GouraudWithEdges
 70
     3
177
     2
291
     1
 71
     2
176
     1
 72
     2
176
     1
 73
     1
176
     1
 90
        2
176
     1
 40
-0.6
176
     1
 41
30.0
176
     1
 62
     5
 63
     7
421
 16777215
176
     1
 74
     1
176
     1
 91
        4
176
     1
 64
     7
176
     1
 65
   257
176
     1
 75
     1
176
     1
175
     1
176
     1
 42
1.0
176
     1
 92
        0
176
     1
 66
   257
176
     1
 43
1.0
176
     1
 76
     1
176
     1
 77
     6
176
     1
 78
     2
176
     1
 67
     7
176
     1
 79
     5
176
     1
170
     0
176
     1
171
     0
176
     1
290
     0
176
     1
 93
       13
176
     1
 44
0.0
176
     1
173
     0
176
     1
  0
VISUALSTYLE
  5
38
102
{ACAD_REACTORS
330
2A
102
}
330
2A
100
AcDbVisualStyle
  2
Linepattern
 70
    14
177
     2
291
     1
 71
     2
176
     1
 72
     2
176
     1
 73
     0
176
     1
 90
        0
176
     1
 40
-0.6
176
     1
 41
-30.0
176
     1
 62
     5
 63
     7
421
 16777215
176
     1
 74
     1
176
     1
 91
        4
176
     1
 64
     7
176
     1
 65
   257
176
     1
 75
     7
176
     1
175
     7
176
     1
 42
1.0
176
     1
 92
        8
176
     1
 66
     7
176
     1
 43
1.0
176
     1
 76
     1
176
     1
 77
     6
176
     1
 78
     2
176
     1
 67
     7
176
     1
 79
     5
176
     1
170
     0
176
     1
171
     0
176
     1
290
     0
176
     1
 93
        1
176
     1
 44
0.0
176
     1
173
     0
176
     1
  0
VISUALSTYLE
  5
33
102
{ACAD_REACTORS
330
2A
102
}
330
2A
100
AcDbVisualStyle
  2
Realistic
 70
     8
177
     2
291
     0
 71
     2
176
     1
 72
     2
176
     1
 73
     0
176
     1
 90
        0
176
     1
 40
-0.6
176
     1
 41
-30.0
176
     1
 62
     5
 63
     7
421
 16777215
176
     1
 74
     1
176
     1
 91
        0
176
     1
 64
     7
176
     1
 65
   257
176
     1
 75
     1
176
     1
175
     1
176
     1
 42
1.0
176
     1
 92
        8
176
     1
 66
     8
424
  7895160
176
     1
 43
1.0
176
     1
 76
     1
176
     1
 77
     6
176
     1
 78
     2
176
     1
 67
     7
176
     1
 79
     5
176
     1
170
     0
176
     1
171
     0
176
     1
290
     0
176
     1
 93
       13
176
     1
 44
0.0
176
     1
173
     0
176
     1
  0
VISUALSTYLE
  5
37
102
{ACAD_REACTORS
330
2A
102
}
330
2A
100
AcDbVisualStyle
  2
Thicken
 70
    13
177
     2
291
     1
 71
     2
176
     1
 72
     2
176
     1
 73
     0
176
     1
 90
        0
176
     1
 40
-0.6
176
     1
 41
-30.0
176
     1
 62
     5
 63
     7
421
 16777215
176
     1
 74
     1
176
     1
 91
        4
176
     1
 64
     7
176
     1
 65
   257
176
     1
 75
     1
176
     1
175
     1
176
     1
 42
1.0
176
     1
 92
       12
176
     1
 66
     7
176
     1
 43
1.0
176
     1
 76
     1
176
     1
 77
     6
176
     1
 78
     2
176
     1
 67
     7
176
     1
 79
     5
176
     1
170
     0
176
     1
171
     0
176
     1
290
     0
176
     1
 93
        1
176
     1
 44
0.0
176
     1
173
     0
176
     1
  0
ENDSEC
  0
EOF
