  0
SECTION
  2
HEADER
  9
$ACADVER
  1
AC1024
  9
$ACADMAINTVER
 70
     6
  9
$DWGCODEPAGE
  3
ANSI_932
  9
$INSBASE
 10
0.0
 20
0.0
 30
0.0
  9
$EXTMIN
 10
-4455.0
 20
-3150.0
 30
0.0
  9
$EXTMAX
 10
4455.0
 20
3150.0
 30
0.0
  9
$LIMMIN
 10
-4455.0
 20
-3150.0
  9
$LIMMAX
 10
4455.0
 20
3150.0
  9
$ORTHOMODE
 70
     0
  9
$REGENMODE
 70
     1
  9
$FILLMODE
 70
     1
  9
$QTEXTMODE
 70
     0
  9
$MIRRTEXT
 70
     1
  9
$LTSCALE
 40
30.0
  9
$ATTMODE
 70
     1
  9
$TEXTSIZE
 40
2.5
  9
$TRACEWID
 40
1.0
  9
$TEXTSTYLE
  7
Standard
  9
$CLAYER
  8
0
  9
$CELTYPE
  6
ByLayer
  9
$CECOLOR
 62
   256
  9
$CELTSCALE
 40
1.0
  9
$DISPSILH
 70
     0
  9
$DIMSCALE
 40
1.0
  9
$DIMASZ
 40
2.5
  9
$DIMEXO
 40
0.625
  9
$DIMDLI
 40
3.75
  9
$DIMRND
 40
0.0
  9
$DIMDLE
 40
0.0
  9
$DIMEXE
 40
1.25
  9
$DIMTP
 40
0.0
  9
$DIMTM
 40
0.0
  9
$DIMTXT
 40
2.5
  9
$DIMCEN
 40
2.5
  9
$DIMTSZ
 40
0.0
  9
$DIMTOL
 70
     0
  9
$DIMLIM
 70
     0
  9
$DIMTIH
 70
     0
  9
$DIMTOH
 70
     0
  9
$DIMSE1
 70
     0
  9
$DIMSE2
 70
     0
  9
$DIMTAD
 70
     1
  9
$DIMZIN
 70
     8
  9
$DIMBLK
  1

  9
$DIMASO
 70
     1
  9
$DIMSHO
 70
     1
  9
$DIMPOST
  1

  9
$DIMAPOST
  1

  9
$DIMALT
 70
     0
  9
$DIMALTD
 70
     3
  9
$DIMALTF
 40
0.03937007874016
  9
$DIMLFAC
 40
1.0
  9
$DIMTOFL
 70
     1
  9
$DIMTVP
 40
0.0
  9
$DIMTIX
 70
     0
  9
$DIMSOXD
 70
     0
  9
$DIMSAH
 70
     0
  9
$DIMBLK1
  1

  9
$DIMBLK2
  1

  9
$DIMSTYLE
  2
ISO-25
  9
$DIMCLRD
 70
     0
  9
$DIMCLRE
 70
     0
  9
$DIMCLRT
 70
     0
  9
$DIMTFAC
 40
1.0
  9
$DIMGAP
 40
0.625
  9
$DIMJUST
 70
     0
  9
$DIMSD1
 70
     0
  9
$DIMSD2
 70
     0
  9
$DIMTOLJ
 70
     0
  9
$DIMTZIN
 70
     8
  9
$DIMALTZ
 70
     0
  9
$DIMALTTZ
 70
     0
  9
$DIMUPT
 70
     0
  9
$DIMDEC
 70
     2
  9
$DIMTDEC
 70
     2
  9
$DIMALTU
 70
     2
  9
$DIMALTTD
 70
     3
  9
$DIMTXSTY
  7
Standard
  9
$DIMAUNIT
 70
     0
  9
$DIMADEC
 70
     0
  9
$DIMALTRND
 40
0.0
  9
$DIMAZIN
 70
     0
  9
$DIMDSEP
 70
    44
  9
$DIMATFIT
 70
     3
  9
$DIMFRAC
 70
     0
  9
$DIMLDRBLK
  1

  9
$DIMLUNIT
 70
     2
  9
$DIMLWD
 70
    -2
  9
$DIMLWE
 70
    -2
  9
$DIMTMOVE
 70
     0
  9
$DIMFXL
 40
1.0
  9
$DIMFXLON
 70
     0
  9
$DIMJOGANG
 40
0.7853981633974483
  9
$DIMTFILL
 70
     0
  9
$DIMTFILLCLR
 70
     0
  9
$DIMARCSYM
 70
     0
  9
$DIMLTYPE
  6

  9
$DIMLTEX1
  6

  9
$DIMLTEX2
  6

  9
$DIMTXTDIRECTION
 70
     0
  9
$LUNITS
 70
     2
  9
$LUPREC
 70
     4
  9
$SKETCHINC
 40
1.0
  9
$FILLETRAD
 40
10.0
  9
$AUNITS
 70
     0
  9
$AUPREC
 70
     0
  9
$MENU
  1
.
  9
$ELEVATION
 40
0.0
  9
$PELEVATION
 40
0.0
  9
$THICKNESS
 40
0.0
  9
$LIMCHECK
 70
     0
  9
$CHAMFERA
 40
10.0
  9
$CHAMFERB
 40
10.0
  9
$CHAMFERC
 40
20.0
  9
$CHAMFERD
 40
0.0
  9
$SKPOLY
 70
     0
  9
$TDCREATE
 40
2457913.545814479
  9
$TDUCREATE
 40
2457913.170814479
  9
$TDUPDATE
 40
2457913.545814491
  9
$TDUUPDATE
 40
2457913.170814491
  9
$TDINDWG
 40
0.0000000116
  9
$TDUSRTIMER
 40
0.0000000116
  9
$USRTIMER
 70
     1
  9
$ANGBASE
 50
0.0
  9
$ANGDIR
 70
     0
  9
$PDMODE
 70
     0
  9
$PDSIZE
 40
0.0
  9
$PLINEWID
 40
0.0
  9
$SPLFRAME
 70
     0
  9
$SPLINETYPE
 70
     6
  9
$SPLINESEGS
 70
     8
  9
$HANDSEED
  5
2E2
  9
$SURFTAB1
 70
     6
  9
$SURFTAB2
 70
     6
  9
$SURFTYPE
 70
     6
  9
$SURFU
 70
     6
  9
$SURFV
 70
     6
  9
$UCSBASE
  2

  9
$UCSNAME
  2

  9
$UCSORG
 10
0.0
 20
0.0
 30
0.0
  9
$UCSXDIR
 10
1.0
 20
0.0
 30
0.0
  9
$UCSYDIR
 10
0.0
 20
1.0
 30
0.0
  9
$UCSORTHOREF
  2

  9
$UCSORTHOVIEW
 70
     0
  9
$UCSORGTOP
 10
0.0
 20
0.0
 30
0.0
  9
$UCSORGBOTTOM
 10
0.0
 20
0.0
 30
0.0
  9
$UCSORGLEFT
 10
0.0
 20
0.0
 30
0.0
  9
$UCSORGRIGHT
 10
0.0
 20
0.0
 30
0.0
  9
$UCSORGFRONT
 10
0.0
 20
0.0
 30
0.0
  9
$UCSORGBACK
 10
0.0
 20
0.0
 30
0.0
  9
$PUCSBASE
  2

  9
$PUCSNAME
  2

  9
$PUCSORG
 10
0.0
 20
0.0
 30
0.0
  9
$PUCSXDIR
 10
1.0
 20
0.0
 30
0.0
  9
$PUCSYDIR
 10
0.0
 20
1.0
 30
0.0
  9
$PUCSORTHOREF
  2

  9
$PUCSORTHOVIEW
 70
     0
  9
$PUCSORGTOP
 10
0.0
 20
0.0
 30
0.0
  9
$PUCSORGBOTTOM
 10
0.0
 20
0.0
 30
0.0
  9
$PUCSORGLEFT
 10
0.0
 20
0.0
 30
0.0
  9
$PUCSORGRIGHT
 10
0.0
 20
0.0
 30
0.0
  9
$PUCSORGFRONT
 10
0.0
 20
0.0
 30
0.0
  9
$PUCSORGBACK
 10
0.0
 20
0.0
 30
0.0
  9
$USERI1
 70
     0
  9
$USERI2
 70
     0
  9
$USERI3
 70
     0
  9
$USERI4
 70
     0
  9
$USERI5
 70
     0
  9
$USERR1
 40
0.0
  9
$USERR2
 40
0.0
  9
$USERR3
 40
0.0
  9
$USERR4
 40
0.0
  9
$USERR5
 40
0.0
  9
$WORLDVIEW
 70
     1
  9
$SHADEDGE
 70
     3
  9
$SHADEDIF
 70
    70
  9
$TILEMODE
 70
     1
  9
$MAXACTVP
 70
    64
  9
$PINSBASE
 10
0.0
 20
0.0
 30
0.0
  9
$PLIMCHECK
 70
     0
  9
$PEXTMIN
 10
1.000000000000000E+20
 20
1.000000000000000E+20
 30
1.000000000000000E+20
  9
$PEXTMAX
 10
-1.000000000000000E+20
 20
-1.000000000000000E+20
 30
-1.000000000000000E+20
  9
$PLIMMIN
 10
0.0
 20
0.0
  9
$PLIMMAX
 10
420.0
 20
297.0
  9
$UNITMODE
 70
     0
  9
$VISRETAIN
 70
     1
  9
$PLINEGEN
 70
     0
  9
$PSLTSCALE
 70
     1
  9
$TREEDEPTH
 70
  3020
  9
$CMLSTYLE
  2
Standard
  9
$CMLJUST
 70
     0
  9
$CMLSCALE
 40
20.0
  9
$PROXYGRAPHICS
 70
     1
  9
$MEASUREMENT
 70
     1
  9
$CELWEIGHT
370
    -1
  9
$ENDCAPS
280
     0
  9
$JOINSTYLE
280
     0
  9
$LWDISPLAY
290
     0
  9
$INSUNITS
 70
     4
  9
$HYPERLINKBASE
  1

  9
$STYLESHEET
  1

  9
$XEDIT
290
     1
  9
$CEPSNTYPE
380
     0
  9
$PSTYLEMODE
290
     1
  9
$FINGERPRINTGUID
  2
{F42D768A-88FB-49D7-BFBD-CEDF45C62FDC}
  9
$VERSIONGUID
  2
{FAEB1C32-E019-11D5-929B-00C0DF256EC4}
  9
$EXTNAMES
290
     1
  9
$PSVPSCALE
 40
0.0
  9
$OLESTARTUP
290
     0
  9
$SORTENTS
280
   127
  9
$INDEXCTL
280
     0
  9
$HIDETEXT
280
     1
  9
$XCLIPFRAME
280
     2
  9
$HALOGAP
280
     0
  9
$OBSCOLOR
 70
   257
  9
$OBSLTYPE
280
     0
  9
$INTERSECTIONDISPLAY
280
     0
  9
$INTERSECTIONCOLOR
 70
   257
  9
$DIMASSOC
280
     2
  9
$PROJECTNAME
  1

  9
$CAMERADISPLAY
290
     0
  9
$LENSLENGTH
 40
50.0
  9
$CAMERAHEIGHT
 40
0.0
  9
$STEPSPERSEC
 40
2.0
  9
$STEPSIZE
 40
6.0
  9
$3DDWFPREC
 40
2.0
  9
$PSOLWIDTH
 40
5.0
  9
$PSOLHEIGHT
 40
80.0
  9
$LOFTANG1
 40
1.570796326794897
  9
$LOFTANG2
 40
1.570796326794897
  9
$LOFTMAG1
 40
0.0
  9
$LOFTMAG2
 40
0.0
  9
$LOFTPARAM
 70
     7
  9
$LOFTNORMALS
280
     1
  9
$LATITUDE
 40
37.795
  9
$LONGITUDE
 40
-122.394
  9
$NORTHDIRECTION
 40
0.0
  9
$TIMEZONE
 70
 -8000
  9
$LIGHTGLYPHDISPLAY
280
     1
  9
$TILEMODELIGHTSYNCH
280
     1
  9
$SOLIDHIST
280
     1
  9
$SHOWHIST
280
     1
  9
$DWFFRAME
280
     2
  9
$DGNFRAME
280
     2
  9
$REALWORLDSCALE
290
     1
  9
$INTERFERECOLOR
 62
   256
  9
$CSHADOW
280
     0
  9
$SHADOWPLANELOCATION
 40
0.0
  0
ENDSEC
  0
SECTION
  2
CLASSES
  0
CLASS
  1
ACDBDICTIONARYWDFLT
  2
AcDbDictionaryWithDefault
  3
ObjectDBX Classes
 90
        0
 91
        4
280
     0
281
     0
  0
CLASS
  1
VISUALSTYLE
  2
AcDbVisualStyle
  3
ObjectDBX Classes
 90
     4095
 91
        4
280
     0
281
     0
  0
CLASS
  1
MATERIAL
  2
AcDbMaterial
  3
ObjectDBX Classes
 90
     1153
 91
        4
280
     0
281
     0
  0
ENDSEC
  0
SECTION
  2
TABLES
  0
TABLE
  2
VPORT
  5
8
330
0
100
AcDbSymbolTable
 70
     1
  0
VPORT
  5
29
330
8
100
AcDbSymbolTableRecord
100
AcDbViewportTableRecord
  2
*Active
 70
     0
 10
0.0
 20
0.0
 11
1.0
 21
1.0
 12
0.0
 22
0.0
 13
0.0
 23
0.0
 14
10.0
 24
10.0
 15
10.0
 25
10.0
 16
0.0
 26
0.0
 36
1.0
 17
0.0
 27
0.0
 37
0.0
 40
6930.000000000001
 41
1.414285714285714
 42
50.0
 43
0.0
 44
0.0
 50
0.0
 51
0.0
 71
     0
 72
 10000
 73
     1
 74
     3
 75
     0
 76
     0
 77
     0
 78
     0
281
     0
 65
     1
110
0.0
120
0.0
130
0.0
111
1.0
121
0.0
131
0.0
112
0.0
122
1.0
132
0.0
 79
     0
146
0.0
 60
     3
 61
     5
292
     1
282
     1
141
0.0
142
0.0
 63
   250
  0
ENDTAB
  0
TABLE
  2
LTYPE
  5
5
330
0
100
AcDbSymbolTable
 70
     2
  0
LTYPE
  5
14
330
5
100
AcDbSymbolTableRecord
100
AcDbLinetypeTableRecord
  2
ByBlock
 70
     0
  3

 72
    65
 73
     0
 40
0.0
  0
LTYPE
  5
15
330
5
100
AcDbSymbolTableRecord
100
AcDbLinetypeTableRecord
  2
ByLayer
 70
     0
  3

 72
    65
 73
     0
 40
0.0
  0
LTYPE
  5
16
330
5
100
AcDbSymbolTableRecord
100
AcDbLinetypeTableRecord
  2
Continuous
 70
     0
  3
Solid line
 72
    65
 73
     0
 40
0.0
  0
LTYPE
  5
3F
330
5
100
AcDbSymbolTableRecord
100
AcDbLinetypeTableRecord
  2
JWW_DASHED1
 70
     0
  3
-  --  --  --  --  --  --  --  -
 72
    65
 73
     2
 40
1.693333333333333
 49
0.8466666666666667
 74
     0
 49
-0.8466666666666667
 74
     0
  0
ENDTAB
  0
TABLE
  2
LAYER
  5
2
330
0
100
AcDbSymbolTable
 70
     3
  0
LAYER
  5
10
330
2
100
AcDbSymbolTableRecord
100
AcDbLayerTableRecord
  2
0
 70
     0
 62
     7
  6
Continuous
370
    -3
390
F
347
3E
  0
LAYER
  5
40
330
2
100
AcDbSymbolTableRecord
100
AcDbLayerTableRecord
  2
寸法
 70
     0
 62
     7
  6
Continuous
370
    -3
390
F
347
3E
  0
LAYER
  5
41
330
2
100
AcDbSymbolTableRecord
100
AcDbLayerTableRecord
  2
0-0
 70
     0
 62
     7
  6
Continuous
370
    -3
390
F
347
3E
  0
ENDTAB
  0
TABLE
  2
STYLE
  5
3
330
0
100
AcDbSymbolTable
 70
     1
  0
STYLE
  5
11
330
3
100
AcDbSymbolTableRecord
100
AcDbTextStyleTableRecord
  2
Standard
 70
     0
 40
0.0
 41
1.0
 50
0.0
 71
     0
 42
2.5
  3
txt
  4

  0
ENDTAB
  0
TABLE
  2
VIEW
  5
6
330
0
100
AcDbSymbolTable
 70
     0
  0
ENDTAB
  0
TABLE
  2
UCS
  5
7
330
0
100
AcDbSymbolTable
 70
     0
  0
ENDTAB
  0
TABLE
  2
APPID
  5
9
330
0
100
AcDbSymbolTable
 70
     1
  0
APPID
  5
12
330
9
100
AcDbSymbolTableRecord
100
AcDbRegAppTableRecord
  2
ACAD
 70
     0
  0
ENDTAB
  0
TABLE
  2
DIMSTYLE
  5
A
330
0
100
AcDbSymbolTable
 70
     1
100
AcDbDimStyleTable
  0
DIMSTYLE
105
27
330
A
100
AcDbSymbolTableRecord
100
AcDbDimStyleTableRecord
  2
ISO-25
 70
     0
 41
2.5
 42
0.625
 43
3.75
 44
1.25
 73
     0
 74
     0
 77
     1
 78
     8
140
2.5
141
2.5
143
0.03937007874016
147
0.625
171
     3
172
     1
178
     0
271
     2
272
     2
274
     3
278
    44
283
     0
284
     8
340
11
  0
ENDTAB
  0
TABLE
  2
BLOCK_RECORD
  5
1
330
0
100
AcDbSymbolTable
 70
     1
  0
BLOCK_RECORD
  5
1F
330
1
100
AcDbSymbolTableRecord
100
AcDbBlockTableRecord
  2
*Model_Space
340
22
 70
     0
280
     1
281
     0
  0
BLOCK_RECORD
  5
1B
330
1
100
AcDbSymbolTableRecord
100
AcDbBlockTableRecord
  2
*Paper_Space
340
1E
 70
     0
280
     1
281
     0
  0
BLOCK_RECORD
  5
23
330
1
100
AcDbSymbolTableRecord
100
AcDbBlockTableRecord
  2
*Paper_Space0
340
26
 70
     0
280
     1
281
     0
  0
ENDTAB
  0
ENDSEC
  0
SECTION
  2
BLOCKS
  0
BLOCK
  5
20
330
1F
100
AcDbEntity
  8
0
100
AcDbBlockBegin
  2
*Model_Space
 70
     0
 10
0.0
 20
0.0
 30
0.0
  3
*Model_Space
  1

  0
ENDBLK
  5
21
330
1F
100
AcDbEntity
  8
0
100
AcDbBlockEnd
  0
BLOCK
  5
1C
330
1B
100
AcDbEntity
 67
     1
  8
0
100
AcDbBlockBegin
  2
*Paper_Space
 70
     0
 10
0.0
 20
0.0
 30
0.0
  3
*Paper_Space
  1

  0
ENDBLK
  5
1D
330
1B
100
AcDbEntity
 67
     1
  8
0
100
AcDbBlockEnd
  0
BLOCK
  5
24
330
23
100
AcDbEntity
  8
0
100
AcDbBlockBegin
  2
*Paper_Space0
 70
     0
 10
0.0
 20
0.0
 30
0.0
  3
*Paper_Space0
  1

  0
ENDBLK
  5
25
330
23
100
AcDbEntity
  8
0
100
AcDbBlockEnd
  0
ENDSEC
  0
SECTION
  2
ENTITIES
  0
LINE
  5
42
330
1F
100
AcDbEntity
  8
寸法
  6
Continuous
 62
   120
370
     5
100
AcDbLine
 10
-1306.970149253741
 20
-1274.823496334028
 30
0.0
 11
-856.970149253741
 21
-1274.823496334028
 31
0.0
  0
LINE
  5
43
330
1F
100
AcDbEntity
  8
寸法
  6
Continuous
 62
   120
370
     5
100
AcDbLine
 10
-1106.970149253741
 20
-1254.823496334027
 30
0.0
 11
-856.970149253741
 21
-1254.823496334027
 31
0.0
  0
LWPOLYLINE
  5
44
330
1F
100
AcDbEntity
  8
寸法
  6
Continuous
 62
     7
370
     9
100
AcDbPolyline
 90
        4
 70
     1
 43
3.0
 10
-1305.470149253741
 20
-1274.823496334028
 42
0.4142135623731
 10
-1306.970149253741
 20
-1273.323496334028
 42
0.4142135623731
 10
-1308.470149253741
 20
-1274.823496334028
 42
0.4142135623731
 10
-1306.970149253741
 20
-1276.323496334028
 42
0.4142135623731
  0
LWPOLYLINE
  5
45
330
1F
100
AcDbEntity
  8
寸法
  6
Continuous
 62
     7
370
     9
100
AcDbPolyline
 90
        4
 70
     1
 43
3.0
 10
-1105.470149253741
 20
-1254.823496334027
 42
0.4142135623731
 10
-1106.970149253741
 20
-1253.323496334027
 42
0.4142135623731
 10
-1108.47014925374
 20
-1254.823496334027
 42
0.4142135623731
 10
-1106.970149253741
 20
-1256.323496334027
 42
0.4142135623731
  0
LINE
  5
46
330
1F
100
AcDbEntity
  8
寸法
  6
Continuous
 62
   120
370
     5
100
AcDbLine
 10
-776.9701492537405
 20
-1724.823496334028
 30
0.0
 11
-776.9701492537405
 21
-1324.823496334027
 31
0.0
  0
LINE
  5
47
330
1F
100
AcDbEntity
  8
寸法
  6
Continuous
 62
   120
370
     5
100
AcDbLine
 10
-806.9701492537405
 20
-1924.823496334026
 30
0.0
 11
-806.9701492537405
 21
-1324.823496334027
 31
0.0
  0
LINE
  5
48
330
1F
100
AcDbEntity
  8
寸法
  6
Continuous
 62
   120
370
     5
100
AcDbLine
 10
810.0298507462588
 20
-1524.823496334027
 30
0.0
 11
810.0298507462588
 21
-1324.823496334027
 31
0.0
  0
LINE
  5
49
330
1F
100
AcDbEntity
  8
寸法
  6
Continuous
 62
   120
370
     5
100
AcDbLine
 10
-776.9701492537405
 20
-1724.823496334028
 30
0.0
 11
807.0298507462581
 21
-1724.823496334028
 31
0.0
  0
LINE
  5
4A
330
1F
100
AcDbEntity
  8
寸法
  6
Continuous
 62
   120
370
     5
100
AcDbLine
 10
807.0298507462581
 20
-1724.823496334028
 30
0.0
 11
807.0298507462581
 21
-1324.823496334027
 31
0.0
  0
LINE
  5
4B
330
1F
100
AcDbEntity
  8
寸法
  6
Continuous
 62
   120
370
     5
100
AcDbLine
 10
-806.9701492537405
 20
-1924.823496334026
 30
0.0
 11
837.0298507462581
 21
-1924.823496334026
 31
0.0
  0
LINE
  5
4C
330
1F
100
AcDbEntity
  8
寸法
  6
Continuous
 62
   120
370
     5
100
AcDbLine
 10
837.0298507462581
 20
-1924.823496334026
 30
0.0
 11
837.0298507462581
 21
-1324.823496334027
 31
0.0
  0
LINE
  5
4D
330
1F
100
AcDbEntity
  8
寸法
  6
Continuous
 62
   120
370
     5
100
AcDbLine
 10
0.0298507462588304
 20
-1524.823496334027
 30
0.0
 11
0.0298507462588304
 21
-1324.823496334027
 31
0.0
  0
LINE
  5
4E
330
1F
100
AcDbEntity
  8
寸法
  6
Continuous
 62
   120
370
     5
100
AcDbLine
 10
0.0298507462588304
 20
-1524.823496334027
 30
0.0
 11
810.0298507462588
 21
-1524.823496334027
 31
0.0
  0
LWPOLYLINE
  5
4F
330
1F
100
AcDbEntity
  8
寸法
  6
Continuous
 62
     7
370
     9
100
AcDbPolyline
 90
        4
 70
     1
 43
3.0
 10
-775.4701492537405
 20
-1724.823496334028
 42
0.4142135623731
 10
-776.9701492537405
 20
-1723.323496334028
 42
0.4142135623731
 10
-778.4701492537405
 20
-1724.823496334028
 42
0.4142135623731
 10
-776.9701492537405
 20
-1726.323496334028
 42
0.4142135623731
  0
LWPOLYLINE
  5
50
330
1F
100
AcDbEntity
  8
寸法
  6
Continuous
 62
     7
370
     9
100
AcDbPolyline
 90
        4
 70
     1
 43
3.0
 10
-805.4701492537405
 20
-1924.823496334026
 42
0.4142135623731
 10
-806.9701492537405
 20
-1923.323496334026
 42
0.4142135623731
 10
-808.4701492537405
 20
-1924.823496334026
 42
0.4142135623731
 10
-806.9701492537405
 20
-1926.323496334026
 42
0.4142135623731
  0
LWPOLYLINE
  5
51
330
1F
100
AcDbEntity
  8
寸法
  6
Continuous
 62
     7
370
     9
100
AcDbPolyline
 90
        4
 70
     1
 43
3.0
 10
811.5298507462588
 20
-1524.823496334027
 42
0.4142135623731
 10
810.0298507462588
 20
-1523.323496334027
 42
0.4142135623731
 10
808.5298507462588
 20
-1524.823496334027
 42
0.4142135623731
 10
810.0298507462588
 20
-1526.323496334027
 42
0.4142135623731
  0
LWPOLYLINE
  5
52
330
1F
100
AcDbEntity
  8
寸法
  6
Continuous
 62
     7
370
     9
100
AcDbPolyline
 90
        4
 70
     1
 43
3.0
 10
808.5298507462581
 20
-1724.823496334028
 42
0.4142135623731
 10
807.0298507462581
 20
-1723.323496334028
 42
0.4142135623731
 10
805.5298507462581
 20
-1724.823496334028
 42
0.4142135623731
 10
807.0298507462581
 20
-1726.323496334028
 42
0.4142135623731
  0
LWPOLYLINE
  5
53
330
1F
100
AcDbEntity
  8
寸法
  6
Continuous
 62
     7
370
     9
100
AcDbPolyline
 90
        4
 70
     1
 43
3.0
 10
838.5298507462581
 20
-1924.823496334026
 42
0.4142135623731
 10
837.0298507462581
 20
-1923.323496334026
 42
0.4142135623731
 10
835.5298507462581
 20
-1924.823496334026
 42
0.4142135623731
 10
837.0298507462581
 20
-1926.323496334026
 42
0.4142135623731
  0
LWPOLYLINE
  5
54
330
1F
100
AcDbEntity
  8
寸法
  6
Continuous
 62
     7
370
     9
100
AcDbPolyline
 90
        4
 70
     1
 43
3.0
 10
1.52985074625883
 20
-1524.823496334027
 42
0.4142135623731
 10
0.0298507462588304
 20
-1523.323496334027
 42
0.4142135623731
 10
-1.47014925374117
 20
-1524.823496334027
 42
0.4142135623731
 10
0.0298507462588304
 20
-1526.323496334027
 42
0.4142135623731
  0
MTEXT
  5
55
330
1F
100
AcDbEntity
  8
寸法
  6
Continuous
 62
     7
370
   211
100
AcDbMText
 10
236.2798507462588
 20
-1518.748496334027
 30
0.0
 40
57.15
 41
337.5
 46
0.0
 71
     7
 72
     1
  1
{\fＭＳ ゴシック|b0|i0|c128|p49;ＤＷ＝810}
 73
     1
 44
1.0
  0
MTEXT
  5
56
330
1F
100
AcDbEntity
  8
寸法
  6
Continuous
 62
     7
370
   211
100
AcDbMText
 10
-191.2201492537412
 20
-1718.748496334028
 30
0.0
 40
57.14999999999999
 41
412.5
 46
0.0
 71
     7
 72
     1
  1
{\fＭＳ ゴシック|b0|i0|c128|p49;枠内＝1,584}
 73
     1
 44
1.0
  0
MTEXT
  5
57
330
1F
100
AcDbEntity
  8
寸法
  6
Continuous
 62
     7
370
   211
100
AcDbMText
 10
-191.2201492537412
 20
-1918.748496334027
 30
0.0
 40
57.14999999999999
 41
412.5
 46
0.0
 71
     7
 72
     1
  1
{\fＭＳ ゴシック|b0|i0|c128|p49;枠外＝1,644}
 73
     1
 44
1.0
  0
LINE
  5
58
330
1F
100
AcDbEntity
  8
寸法
  6
Continuous
 62
   120
370
     5
100
AcDbLine
 10
-1306.970149253741
 20
972.1765036659751
 30
0.0
 11
-1306.970149253741
 21
-1274.823496334028
 31
0.0
  0
LINE
  5
59
330
1F
100
AcDbEntity
  8
寸法
  6
Continuous
 62
   120
370
     5
100
AcDbLine
 10
-1306.970149253741
 20
972.1765036659751
 30
0.0
 11
-856.970149253741
 21
972.1765036659751
 31
0.0
  0
LWPOLYLINE
  5
5A
330
1F
100
AcDbEntity
  8
寸法
  6
Continuous
 62
     7
370
     9
100
AcDbPolyline
 90
        4
 70
     1
 43
3.0
 10
-1305.470149253741
 20
972.1765036659751
 42
0.4142135623731
 10
-1306.970149253741
 20
973.676503665975
 42
0.4142135623731
 10
-1308.470149253741
 20
972.1765036659751
 42
0.4142135623731
 10
-1306.970149253741
 20
970.6765036659751
 42
0.4142135623731
  0
LINE
  5
5B
330
1F
100
AcDbEntity
  8
寸法
  6
Continuous
 62
   120
370
     5
100
AcDbLine
 10
-1106.970149253741
 20
928.1765036659742
 30
0.0
 11
-856.970149253741
 21
928.1765036659742
 31
0.0
  0
LINE
  5
5C
330
1F
100
AcDbEntity
  8
寸法
  6
Continuous
 62
   120
370
     5
100
AcDbLine
 10
-1106.970149253741
 20
928.1765036659742
 30
0.0
 11
-1106.970149253741
 21
-1254.823496334027
 31
0.0
  0
LWPOLYLINE
  5
5D
330
1F
100
AcDbEntity
  8
寸法
  6
Continuous
 62
     7
370
     9
100
AcDbPolyline
 90
        4
 70
     1
 43
3.0
 10
-1105.470149253741
 20
928.1765036659742
 42
0.4142135623731
 10
-1106.970149253741
 20
929.6765036659742
 42
0.4142135623731
 10
-1108.47014925374
 20
928.1765036659742
 42
0.4142135623731
 10
-1106.970149253741
 20
926.6765036659742
 42
0.4142135623731
  0
MTEXT
  5
5E
330
1F
100
AcDbEntity
  8
寸法
  6
Continuous
 62
     7
370
    70
100
AcDbMText
 10
-1321.970149253741
 20
-375.4984963340266
 30
0.0
 40
57.14999999999999
 41
412.5
 46
0.0
 71
     7
 72
     1
  1
{\fＭＳ ゴシック|b0|i0|c128|p49;枠外＝2,247}
 11
6.123031769111886E-17
 21
1.0
 31
0.0
 73
     1
 44
1.0
  0
MTEXT
  5
5F
330
1F
100
AcDbEntity
  8
寸法
  6
Continuous
 62
     7
370
    70
100
AcDbMText
 10
-1121.970149253741
 20
-381.4984963340262
 30
0.0
 40
57.14999999999999
 41
412.5
 46
0.0
 71
     7
 72
     1
  1
{\fＭＳ ゴシック|b0|i0|c128|p49;ＤＨ＝2,183}
 11
6.123031769111886E-17
 21
1.0
 31
0.0
 73
     1
 44
1.0
  0
ARC
  5
60
330
1F
100
AcDbEntity
  8
0-0
  6
Continuous
 62
    92
370
    13
100
AcDbCircle
 10
-748.4701492537425
 20
-237.8234963340277
 30
0.0
 40
1.5
100
AcDbArc
 50
90.0
 51
180.0
  0
LINE
  5
61
330
1F
100
AcDbEntity
  8
0-0
  6
Continuous
 62
    92
370
    13
100
AcDbLine
 10
-709.4701492537405
 20
-236.3234963340274
 30
0.0
 11
-748.4701492537425
 21
-236.3234963340274
 31
0.0
  0
ARC
  5
62
330
1F
100
AcDbEntity
  8
0-0
  6
Continuous
 62
    92
370
    13
100
AcDbCircle
 10
-709.4701492537405
 20
-237.8234963340277
 30
0.0
 40
1.5
100
AcDbArc
 50
0.0
 51
90.00000000000001
  0
LINE
  5
63
330
1F
100
AcDbEntity
  8
0-0
  6
Continuous
 62
    92
370
    13
100
AcDbLine
 10
-707.9701492537419
 20
-356.8234963340269
 30
0.0
 11
-707.9701492537419
 21
-237.8234963340277
 31
0.0
  0
ARC
  5
64
330
1F
100
AcDbEntity
  8
0-0
  6
Continuous
 62
    92
370
    13
100
AcDbCircle
 10
-709.4701492537405
 20
-356.8234963340269
 30
0.0
 40
1.5
100
AcDbArc
 50
270.0
 51
0.0
  0
LINE
  5
65
330
1F
100
AcDbEntity
  8
0-0
  6
Continuous
 62
    92
370
    13
100
AcDbLine
 10
-748.4701492537425
 20
-358.3234963340282
 30
0.0
 11
-709.4701492537405
 21
-358.3234963340282
 31
0.0
  0
LINE
  5
66
330
1F
100
AcDbEntity
  8
0-0
  6
Continuous
 62
    92
370
    13
100
AcDbLine
 10
-749.9701492537412
 20
-356.8234963340269
 30
0.0
 11
-749.9701492537412
 21
-237.8234963340277
 31
0.0
  0
ARC
  5
67
330
1F
100
AcDbEntity
  8
0-0
  6
Continuous
 62
    92
370
    13
100
AcDbCircle
 10
-748.4701492537425
 20
-356.8234963340269
 30
0.0
 40
1.5
100
AcDbArc
 50
180.0
 51
270.0
  0
ARC
  5
68
330
1F
100
AcDbEntity
  8
0-0
  6
Continuous
 62
     7
370
     9
100
AcDbCircle
 10
-728.9701492537415
 20
-326.9234963340268
 30
0.0
 40
15.0
100
AcDbArc
 50
180.0
 51
0.0
  0
ARC
  5
69
330
1F
100
AcDbEntity
  8
0-0
  6
Continuous
 62
     7
370
     9
100
AcDbCircle
 10
-728.9701492537415
 20
-267.7234963340287
 30
0.0
 40
15.0
100
AcDbArc
 50
0.0
 51
180.0
  0
LINE
  5
6A
330
1F
100
AcDbEntity
  8
0-0
  6
Continuous
 62
     7
370
     9
100
AcDbLine
 10
-713.9701492537415
 20
-326.9234963340268
 30
0.0
 11
-713.9701492537415
 21
-267.7234963340287
 31
0.0
  0
LINE
  5
6B
330
1F
100
AcDbEntity
  8
0-0
  6
Continuous
 62
     7
370
     9
100
AcDbLine
 10
-743.9701492537415
 20
-267.7234963340287
 30
0.0
 11
-743.9701492537415
 21
-326.9234963340268
 31
0.0
  0
LINE
  5
6C
330
1F
100
AcDbEntity
  8
0-0
  6
JWW_DASHED1
 62
   120
370
     5
100
AcDbLine
 10
-779.9701492537412
 20
-1254.823496334027
 30
0.0
 11
-776.9701492537405
 21
-1254.823496334027
 31
0.0
  0
LINE
  5
6D
330
1F
100
AcDbEntity
  8
0-0
  6
Continuous
 62
    92
370
    13
100
AcDbLine
 10
837.0298507462581
 20
-1274.823496334028
 30
0.0
 11
-806.9701492537405
 21
-1274.823496334028
 31
0.0
  0
LINE
  5
6E
330
1F
100
AcDbEntity
  8
0-0
  6
Continuous
 62
    92
370
    13
100
AcDbLine
 10
807.0298507462581
 20
-1259.823496334028
 30
0.0
 11
-776.9701492537405
 21
-1259.823496334028
 31
0.0
  0
LINE
  5
6F
330
1F
100
AcDbEntity
  8
0-0
  6
Continuous
 62
    92
370
    13
100
AcDbLine
 10
807.0298507462581
 20
-1274.823496334028
 30
0.0
 11
807.0298507462581
 21
-1254.61871734119
 31
0.0
  0
LINE
  5
70
330
1F
100
AcDbEntity
  8
0-0
  6
Continuous
 62
    92
370
    13
100
AcDbLine
 10
807.0298507462581
 20
-1254.61871734119
 30
0.0
 11
807.0298507462581
 21
-1254.285731531532
 31
0.0
  0
ARC
  5
71
330
1F
100
AcDbEntity
  8
0-0
  6
Continuous
 62
    92
370
    13
100
AcDbCircle
 10
739.5298507462581
 20
-237.8234963340277
 30
0.0
 40
1.5
100
AcDbArc
 50
90.0
 51
180.0
  0
LINE
  5
72
330
1F
100
AcDbEntity
  8
0-0
  6
Continuous
 62
    92
370
    13
100
AcDbLine
 10
778.5298507462602
 20
-236.3234963340274
 30
0.0
 11
739.5298507462581
 21
-236.3234963340274
 31
0.0
  0
ARC
  5
73
330
1F
100
AcDbEntity
  8
0-0
  6
Continuous
 62
    92
370
    13
100
AcDbCircle
 10
778.5298507462602
 20
-237.8234963340277
 30
0.0
 40
1.5
100
AcDbArc
 50
0.0
 51
90.00000000000001
  0
LINE
  5
74
330
1F
100
AcDbEntity
  8
0-0
  6
Continuous
 62
    92
370
    13
100
AcDbLine
 10
780.0298507462588
 20
-356.8234963340269
 30
0.0
 11
780.0298507462588
 21
-237.8234963340277
 31
0.0
  0
ARC
  5
75
330
1F
100
AcDbEntity
  8
0-0
  6
Continuous
 62
    92
370
    13
100
AcDbCircle
 10
778.5298507462602
 20
-356.8234963340269
 30
0.0
 40
1.5
100
AcDbArc
 50
270.0
 51
0.0
  0
LINE
  5
76
330
1F
100
AcDbEntity
  8
0-0
  6
Continuous
 62
    92
370
    13
100
AcDbLine
 10
739.5298507462581
 20
-358.3234963340282
 30
0.0
 11
778.5298507462602
 21
-358.3234963340282
 31
0.0
  0
LINE
  5
77
330
1F
100
AcDbEntity
  8
0-0
  6
Continuous
 62
    92
370
    13
100
AcDbLine
 10
738.0298507462578
 20
-356.8234963340269
 30
0.0
 11
738.0298507462578
 21
-237.8234963340277
 31
0.0
  0
ARC
  5
78
330
1F
100
AcDbEntity
  8
0-0
  6
Continuous
 62
    92
370
    13
100
AcDbCircle
 10
739.5298507462581
 20
-356.8234963340269
 30
0.0
 40
1.5
100
AcDbArc
 50
180.0
 51
270.0
  0
ARC
  5
79
330
1F
100
AcDbEntity
  8
0-0
  6
Continuous
 62
     7
370
     9
100
AcDbCircle
 10
759.0298507462592
 20
-326.9234963340268
 30
0.0
 40
15.0
100
AcDbArc
 50
180.0
 51
0.0
  0
ARC
  5
7A
330
1F
100
AcDbEntity
  8
0-0
  6
Continuous
 62
     7
370
     9
100
AcDbCircle
 10
759.0298507462592
 20
-267.7234963340287
 30
0.0
 40
15.0
100
AcDbArc
 50
0.0
 51
180.0
  0
LINE
  5
7B
330
1F
100
AcDbEntity
  8
0-0
  6
Continuous
 62
     7
370
     9
100
AcDbLine
 10
774.0298507462592
 20
-326.9234963340268
 30
0.0
 11
774.0298507462592
 21
-267.7234963340287
 31
0.0
  0
LINE
  5
7C
330
1F
100
AcDbEntity
  8
0-0
  6
Continuous
 62
     7
370
     9
100
AcDbLine
 10
744.0298507462592
 20
-267.7234963340287
 30
0.0
 11
744.0298507462592
 21
-326.9234963340268
 31
0.0
  0
LINE
  5
7D
330
1F
100
AcDbEntity
  8
0-0
  6
JWW_DASHED1
 62
   120
370
     5
100
AcDbLine
 10
810.0298507462588
 20
-1254.823496334027
 30
0.0
 11
807.0298507462581
 21
-1254.823496334027
 31
0.0
  0
LINE
  5
7E
330
1F
100
AcDbEntity
  8
0-0
  6
Continuous
 62
    92
370
    13
100
AcDbLine
 10
-776.9701492537405
 20
-1254.823496334027
 30
0.0
 11
807.0298507462581
 21
-1254.823496334027
 31
0.0
  0
LINE
  5
7F
330
1F
100
AcDbEntity
  8
0-0
  6
Continuous
 62
     7
370
     9
100
AcDbLine
 10
-661.4701492537406
 20
-1104.823496334027
 30
0.0
 11
-676.4701492537406
 21
-1119.823496334027
 31
0.0
  0
LINE
  5
80
330
1F
100
AcDbEntity
  8
0-0
  6
Continuous
 62
     7
370
     9
100
AcDbLine
 10
-88.47014925374168
 20
-1104.823496334027
 30
0.0
 11
-73.47014925374168
 21
-1119.823496334027
 31
0.0
  0
LINE
  5
81
330
1F
100
AcDbEntity
  8
0-0
  6
Continuous
 62
     7
370
     9
100
AcDbLine
 10
-676.4701492537406
 20
-1119.823496334027
 30
0.0
 11
-73.47014925374168
 21
-1119.823496334027
 31
0.0
  0
LINE
  5
82
330
1F
100
AcDbEntity
  8
0-0
  6
Continuous
 62
     7
370
     9
100
AcDbLine
 10
-631.4701492537406
 20
-1074.823496334027
 30
0.0
 11
-646.4701492537406
 21
-1089.823496334027
 31
0.0
  0
LINE
  5
83
330
1F
100
AcDbEntity
  8
0-0
  6
Continuous
 62
     7
370
     9
100
AcDbLine
 10
-118.4701492537417
 20
-1074.823496334027
 30
0.0
 11
-103.4701492537417
 21
-1089.823496334027
 31
0.0
  0
LINE
  5
84
330
1F
100
AcDbEntity
  8
0-0
  6
Continuous
 62
     7
370
     9
100
AcDbLine
 10
-631.4701492537406
 20
-1074.823496334027
 30
0.0
 11
-118.4701492537417
 21
-1074.823496334027
 31
0.0
  0
LINE
  5
85
330
1F
100
AcDbEntity
  8
0-0
  6
Continuous
 62
    92
370
    13
100
AcDbLine
 10
-661.4701492537406
 20
-1104.823496334027
 30
0.0
 11
-88.47014925374168
 21
-1104.823496334027
 31
0.0
  0
LINE
  5
86
330
1F
100
AcDbEntity
  8
0-0
  6
Continuous
 62
     7
370
     9
100
AcDbLine
 10
118.5298507462593
 20
-1104.823496334027
 30
0.0
 11
103.5298507462593
 21
-1119.823496334027
 31
0.0
  0
LINE
  5
87
330
1F
100
AcDbEntity
  8
0-0
  6
Continuous
 62
     7
370
     9
100
AcDbLine
 10
691.5298507462583
 20
-1104.823496334027
 30
0.0
 11
706.5298507462583
 21
-1119.823496334027
 31
0.0
  0
LINE
  5
88
330
1F
100
AcDbEntity
  8
0-0
  6
Continuous
 62
     7
370
     9
100
AcDbLine
 10
103.5298507462593
 20
-1119.823496334027
 30
0.0
 11
706.5298507462583
 21
-1119.823496334027
 31
0.0
  0
LINE
  5
89
330
1F
100
AcDbEntity
  8
0-0
  6
Continuous
 62
     7
370
     9
100
AcDbLine
 10
148.5298507462593
 20
-1074.823496334027
 30
0.0
 11
133.5298507462593
 21
-1089.823496334027
 31
0.0
  0
LINE
  5
8A
330
1F
100
AcDbEntity
  8
0-0
  6
Continuous
 62
     7
370
     9
100
AcDbLine
 10
661.5298507462583
 20
-1074.823496334027
 30
0.0
 11
676.5298507462583
 21
-1089.823496334027
 31
0.0
  0
LINE
  5
8B
330
1F
100
AcDbEntity
  8
0-0
  6
Continuous
 62
     7
370
     9
100
AcDbLine
 10
148.5298507462593
 20
-1074.823496334027
 30
0.0
 11
661.5298507462583
 21
-1074.823496334027
 31
0.0
  0
LINE
  5
8C
330
1F
100
AcDbEntity
  8
0-0
  6
Continuous
 62
    92
370
    13
100
AcDbLine
 10
118.5298507462593
 20
-1104.823496334027
 30
0.0
 11
691.5298507462583
 21
-1104.823496334027
 31
0.0
  0
LINE
  5
8D
330
1F
100
AcDbEntity
  8
0-0
  6
JWW_DASHED1
 62
   120
370
     5
100
AcDbLine
 10
-779.9701492537412
 20
928.1765036659742
 30
0.0
 11
-779.9701492537412
 21
-1254.823496334027
 31
0.0
  0
LINE
  5
8E
330
1F
100
AcDbEntity
  8
0-0
  6
JWW_DASHED1
 62
   120
370
     5
100
AcDbLine
 10
-776.9701492537405
 20
928.1765036659742
 30
0.0
 11
-779.9701492537412
 21
928.1765036659742
 31
0.0
  0
LINE
  5
8F
330
1F
100
AcDbEntity
  8
0-0
  6
JWW_DASHED1
 62
   120
370
     5
100
AcDbLine
 10
810.0298507462588
 20
928.1765036659742
 30
0.0
 11
810.0298507462588
 21
-1254.823496334027
 31
0.0
  0
LINE
  5
90
330
1F
100
AcDbEntity
  8
0-0
  6
JWW_DASHED1
 62
   120
370
     5
100
AcDbLine
 10
807.0298507462581
 20
928.1765036659742
 30
0.0
 11
810.0298507462588
 21
928.1765036659742
 31
0.0
  0
LINE
  5
91
330
1F
100
AcDbEntity
  8
0-0
  6
Continuous
 62
    92
370
    13
100
AcDbLine
 10
0.0298507462588304
 20
-1254.823496334027
 30
0.0
 11
0.0298507462588304
 21
928.1765036659742
 31
0.0
  0
LINE
  5
92
330
1F
100
AcDbEntity
  8
0-0
  6
JWW_DASHED1
 62
   120
370
     5
100
AcDbLine
 10
30.02985074626054
 20
-1254.823496334027
 30
0.0
 11
30.02985074626054
 21
928.1765036659742
 31
0.0
  0
LINE
  5
93
330
1F
100
AcDbEntity
  8
0-0
  6
Continuous
 62
    92
370
    13
100
AcDbLine
 10
807.0298507462581
 20
928.1765036659742
 30
0.0
 11
-776.9701492537405
 21
928.1765036659742
 31
0.0
  0
LINE
  5
94
330
1F
100
AcDbEntity
  8
0-0
  6
Continuous
 62
     7
370
     9
100
AcDbLine
 10
-676.4701492537406
 20
808.1765036659755
 30
0.0
 11
-661.4701492537406
 21
793.1765036659755
 31
0.0
  0
LINE
  5
95
330
1F
100
AcDbEntity
  8
0-0
  6
Continuous
 62
     7
370
     9
100
AcDbLine
 10
-676.4701492537406
 20
-1254.823496334027
 30
0.0
 11
-676.4701492537406
 21
928.1765036659755
 31
0.0
  0
LINE
  5
96
330
1F
100
AcDbEntity
  8
0-0
  6
Continuous
 62
     7
370
     9
100
AcDbLine
 10
-73.47014925374168
 20
808.1765036659755
 30
0.0
 11
-88.47014925374168
 21
793.1765036659755
 31
0.0
  0
LINE
  5
97
330
1F
100
AcDbEntity
  8
0-0
  6
Continuous
 62
     7
370
     9
100
AcDbLine
 10
-73.47014925374168
 20
-1254.823496334027
 30
0.0
 11
-73.47014925374168
 21
928.1765036659755
 31
0.0
  0
LINE
  5
98
330
1F
100
AcDbEntity
  8
0-0
  6
Continuous
 62
     7
370
     9
100
AcDbLine
 10
-676.4701492537406
 20
808.1765036659755
 30
0.0
 11
-73.47014925374168
 21
808.1765036659755
 31
0.0
  0
LINE
  5
99
330
1F
100
AcDbEntity
  8
0-0
  6
Continuous
 62
    92
370
    13
100
AcDbLine
 10
-661.4701492537406
 20
793.1765036659755
 30
0.0
 11
-88.47014925374168
 21
793.1765036659755
 31
0.0
  0
LINE
  5
9A
330
1F
100
AcDbEntity
  8
0-0
  6
Continuous
 62
     7
370
     9
100
AcDbLine
 10
103.5298507462593
 20
808.1765036659755
 30
0.0
 11
118.5298507462593
 21
793.1765036659755
 31
0.0
  0
LINE
  5
9B
330
1F
100
AcDbEntity
  8
0-0
  6
Continuous
 62
     7
370
     9
100
AcDbLine
 10
103.5298507462593
 20
-1254.823496334027
 30
0.0
 11
103.5298507462593
 21
928.1765036659755
 31
0.0
  0
LINE
  5
9C
330
1F
100
AcDbEntity
  8
0-0
  6
Continuous
 62
     7
370
     9
100
AcDbLine
 10
706.5298507462583
 20
808.1765036659755
 30
0.0
 11
691.5298507462583
 21
793.1765036659755
 31
0.0
  0
LINE
  5
9D
330
1F
100
AcDbEntity
  8
0-0
  6
Continuous
 62
     7
370
     9
100
AcDbLine
 10
706.5298507462583
 20
-1254.823496334027
 30
0.0
 11
706.5298507462583
 21
928.1765036659755
 31
0.0
  0
LINE
  5
9E
330
1F
100
AcDbEntity
  8
0-0
  6
Continuous
 62
     7
370
     9
100
AcDbLine
 10
103.5298507462593
 20
808.1765036659755
 30
0.0
 11
706.5298507462583
 21
808.1765036659755
 31
0.0
  0
LINE
  5
9F
330
1F
100
AcDbEntity
  8
0-0
  6
Continuous
 62
    92
370
    13
100
AcDbLine
 10
118.5298507462593
 20
793.1765036659755
 30
0.0
 11
691.5298507462583
 21
793.1765036659755
 31
0.0
  0
LINE
  5
A0
330
1F
100
AcDbEntity
  8
0-0
  6
Continuous
 62
    92
370
    13
100
AcDbLine
 10
-776.9701492537405
 20
942.1765036659751
 30
0.0
 11
807.0298507462581
 21
942.1765036659751
 31
0.0
  0
LINE
  5
A1
330
1F
100
AcDbEntity
  8
0-0
  6
Continuous
 62
    92
370
    13
100
AcDbLine
 10
-776.9701492537405
 20
-1274.823496334028
 30
0.0
 11
-776.9701492537405
 21
972.1765036659751
 31
0.0
  0
LINE
  5
A2
330
1F
100
AcDbEntity
  8
0-0
  6
Continuous
 62
    92
370
    13
100
AcDbLine
 10
-806.9701492537405
 20
-1274.823496334028
 30
0.0
 11
-806.9701492537405
 21
972.1765036659751
 31
0.0
  0
LINE
  5
A3
330
1F
100
AcDbEntity
  8
0-0
  6
Continuous
 62
    92
370
    13
100
AcDbLine
 10
837.0298507462581
 20
-1274.823496334028
 30
0.0
 11
837.0298507462581
 21
972.1765036659751
 31
0.0
  0
LINE
  5
A4
330
1F
100
AcDbEntity
  8
0-0
  6
Continuous
 62
    92
370
    13
100
AcDbLine
 10
807.0298507462581
 20
-1254.285731531532
 30
0.0
 11
807.0298507462581
 21
972.1765036659751
 31
0.0
  0
LINE
  5
A5
330
1F
100
AcDbEntity
  8
0-0
  6
Continuous
 62
    92
370
    13
100
AcDbLine
 10
-806.9701492537405
 20
972.1765036659751
 30
0.0
 11
837.0298507462581
 21
972.1765036659751
 31
0.0
  0
LINE
  5
A6
330
1F
100
AcDbEntity
  8
0-0
  6
Continuous
 62
     7
370
     9
100
AcDbLine
 10
-661.4701492537406
 20
-519.823496334027
 30
0.0
 11
-676.4701492537406
 21
-534.823496334027
 31
0.0
  0
LINE
  5
A7
330
1F
100
AcDbEntity
  8
0-0
  6
Continuous
 62
     7
370
     9
100
AcDbLine
 10
-676.4701492537406
 20
-609.823496334027
 30
0.0
 11
-661.4701492537406
 21
-624.823496334027
 31
0.0
  0
LINE
  5
A8
330
1F
100
AcDbEntity
  8
0-0
  6
Continuous
 62
     7
370
     9
100
AcDbLine
 10
-88.47014925374168
 20
-519.823496334027
 30
0.0
 11
-73.47014925374168
 21
-534.823496334027
 31
0.0
  0
LINE
  5
A9
330
1F
100
AcDbEntity
  8
0-0
  6
Continuous
 62
     7
370
     9
100
AcDbLine
 10
-73.47014925374168
 20
-609.823496334027
 30
0.0
 11
-88.47014925374168
 21
-624.823496334027
 31
0.0
  0
LINE
  5
AA
330
1F
100
AcDbEntity
  8
0-0
  6
Continuous
 62
     7
370
     9
100
AcDbLine
 10
-676.4701492537406
 20
-534.823496334027
 30
0.0
 11
-73.47014925374168
 21
-534.823496334027
 31
0.0
  0
LINE
  5
AB
330
1F
100
AcDbEntity
  8
0-0
  6
Continuous
 62
     7
370
     9
100
AcDbLine
 10
-676.4701492537406
 20
-609.823496334027
 30
0.0
 11
-73.47014925374168
 21
-609.823496334027
 31
0.0
  0
LINE
  5
AC
330
1F
100
AcDbEntity
  8
0-0
  6
Continuous
 62
     7
370
     9
100
AcDbLine
 10
-631.4701492537406
 20
-1074.823496334027
 30
0.0
 11
-631.4701492537406
 21
-654.823496334027
 31
0.0
  0
LINE
  5
AD
330
1F
100
AcDbEntity
  8
0-0
  6
Continuous
 62
     7
370
     9
100
AcDbLine
 10
-646.4701492537406
 20
-639.823496334027
 30
0.0
 11
-631.4701492537406
 21
-654.823496334027
 31
0.0
  0
LINE
  5
AE
330
1F
100
AcDbEntity
  8
0-0
  6
Continuous
 62
     7
370
     9
100
AcDbLine
 10
-103.4701492537417
 20
-639.823496334027
 30
0.0
 11
-118.4701492537417
 21
-654.823496334027
 31
0.0
  0
LINE
  5
AF
330
1F
100
AcDbEntity
  8
0-0
  6
Continuous
 62
     7
370
     9
100
AcDbLine
 10
-631.4701492537406
 20
-654.823496334027
 30
0.0
 11
-118.4701492537417
 21
-654.823496334027
 31
0.0
  0
LINE
  5
B0
330
1F
100
AcDbEntity
  8
0-0
  6
Continuous
 62
     7
370
     9
100
AcDbLine
 10
-118.4701492537417
 20
-1074.823496334027
 30
0.0
 11
-118.4701492537417
 21
-654.823496334027
 31
0.0
  0
LINE
  5
B1
330
1F
100
AcDbEntity
  8
0-0
  6
Continuous
 62
    92
370
    13
100
AcDbLine
 10
-661.4701492537406
 20
-519.823496334027
 30
0.0
 11
-88.47014925374168
 21
-519.823496334027
 31
0.0
  0
LINE
  5
B2
330
1F
100
AcDbEntity
  8
0-0
  6
Continuous
 62
    92
370
    13
100
AcDbLine
 10
-661.4701492537406
 20
-624.823496334027
 30
0.0
 11
-88.47014925374168
 21
-624.823496334027
 31
0.0
  0
LINE
  5
B3
330
1F
100
AcDbEntity
  8
0-0
  6
Continuous
 62
    92
370
    13
100
AcDbLine
 10
-661.4701492537406
 20
-519.823496334027
 30
0.0
 11
-661.4701492537406
 21
793.1765036659755
 31
0.0
  0
LINE
  5
B4
330
1F
100
AcDbEntity
  8
0-0
  6
Continuous
 62
    92
370
    13
100
AcDbLine
 10
-661.4701492537406
 20
-1104.823496334027
 30
0.0
 11
-661.4701492537406
 21
-624.823496334027
 31
0.0
  0
LINE
  5
B5
330
1F
100
AcDbEntity
  8
0-0
  6
Continuous
 62
    92
370
    13
100
AcDbLine
 10
-88.47014925374168
 20
-519.823496334027
 30
0.0
 11
-88.47014925374168
 21
793.1765036659755
 31
0.0
  0
LINE
  5
B6
330
1F
100
AcDbEntity
  8
0-0
  6
Continuous
 62
    92
370
    13
100
AcDbLine
 10
-88.47014925374168
 20
-1104.823496334027
 30
0.0
 11
-88.47014925374168
 21
-624.823496334027
 31
0.0
  0
LINE
  5
B7
330
1F
100
AcDbEntity
  8
0-0
  6
Continuous
 62
     7
370
     9
100
AcDbLine
 10
118.5298507462593
 20
-519.823496334027
 30
0.0
 11
103.5298507462593
 21
-534.823496334027
 31
0.0
  0
LINE
  5
B8
330
1F
100
AcDbEntity
  8
0-0
  6
Continuous
 62
     7
370
     9
100
AcDbLine
 10
103.5298507462593
 20
-609.823496334027
 30
0.0
 11
118.5298507462593
 21
-624.823496334027
 31
0.0
  0
LINE
  5
B9
330
1F
100
AcDbEntity
  8
0-0
  6
Continuous
 62
     7
370
     9
100
AcDbLine
 10
691.5298507462583
 20
-519.823496334027
 30
0.0
 11
706.5298507462583
 21
-534.823496334027
 31
0.0
  0
LINE
  5
BA
330
1F
100
AcDbEntity
  8
0-0
  6
Continuous
 62
     7
370
     9
100
AcDbLine
 10
706.5298507462583
 20
-609.823496334027
 30
0.0
 11
691.5298507462583
 21
-624.823496334027
 31
0.0
  0
LINE
  5
BB
330
1F
100
AcDbEntity
  8
0-0
  6
Continuous
 62
     7
370
     9
100
AcDbLine
 10
103.5298507462593
 20
-534.823496334027
 30
0.0
 11
706.5298507462583
 21
-534.823496334027
 31
0.0
  0
LINE
  5
BC
330
1F
100
AcDbEntity
  8
0-0
  6
Continuous
 62
     7
370
     9
100
AcDbLine
 10
103.5298507462593
 20
-609.823496334027
 30
0.0
 11
706.5298507462583
 21
-609.823496334027
 31
0.0
  0
LINE
  5
BD
330
1F
100
AcDbEntity
  8
0-0
  6
Continuous
 62
     7
370
     9
100
AcDbLine
 10
148.5298507462593
 20
-1074.823496334027
 30
0.0
 11
148.5298507462593
 21
-654.823496334027
 31
0.0
  0
LINE
  5
BE
330
1F
100
AcDbEntity
  8
0-0
  6
Continuous
 62
     7
370
     9
100
AcDbLine
 10
133.5298507462593
 20
-639.823496334027
 30
0.0
 11
148.5298507462593
 21
-654.823496334027
 31
0.0
  0
LINE
  5
BF
330
1F
100
AcDbEntity
  8
0-0
  6
Continuous
 62
     7
370
     9
100
AcDbLine
 10
676.5298507462583
 20
-639.823496334027
 30
0.0
 11
661.5298507462583
 21
-654.823496334027
 31
0.0
  0
LINE
  5
C0
330
1F
100
AcDbEntity
  8
0-0
  6
Continuous
 62
     7
370
     9
100
AcDbLine
 10
148.5298507462593
 20
-654.823496334027
 30
0.0
 11
661.5298507462583
 21
-654.823496334027
 31
0.0
  0
LINE
  5
C1
330
1F
100
AcDbEntity
  8
0-0
  6
Continuous
 62
     7
370
     9
100
AcDbLine
 10
661.5298507462583
 20
-1074.823496334027
 30
0.0
 11
661.5298507462583
 21
-654.823496334027
 31
0.0
  0
LINE
  5
C2
330
1F
100
AcDbEntity
  8
0-0
  6
Continuous
 62
    92
370
    13
100
AcDbLine
 10
118.5298507462593
 20
-519.823496334027
 30
0.0
 11
691.5298507462583
 21
-519.823496334027
 31
0.0
  0
LINE
  5
C3
330
1F
100
AcDbEntity
  8
0-0
  6
Continuous
 62
    92
370
    13
100
AcDbLine
 10
118.5298507462593
 20
-624.823496334027
 30
0.0
 11
691.5298507462583
 21
-624.823496334027
 31
0.0
  0
LINE
  5
C4
330
1F
100
AcDbEntity
  8
0-0
  6
Continuous
 62
    92
370
    13
100
AcDbLine
 10
118.5298507462593
 20
-519.823496334027
 30
0.0
 11
118.5298507462593
 21
793.1765036659755
 31
0.0
  0
LINE
  5
C5
330
1F
100
AcDbEntity
  8
0-0
  6
Continuous
 62
    92
370
    13
100
AcDbLine
 10
118.5298507462593
 20
-1104.823496334027
 30
0.0
 11
118.5298507462593
 21
-624.823496334027
 31
0.0
  0
LINE
  5
C6
330
1F
100
AcDbEntity
  8
0-0
  6
Continuous
 62
    92
370
    13
100
AcDbLine
 10
691.5298507462583
 20
-519.823496334027
 30
0.0
 11
691.5298507462583
 21
793.1765036659755
 31
0.0
  0
LINE
  5
C7
330
1F
100
AcDbEntity
  8
0-0
  6
Continuous
 62
    92
370
    13
100
AcDbLine
 10
691.5298507462583
 20
-1104.823496334027
 30
0.0
 11
691.5298507462583
 21
-624.823496334027
 31
0.0
  0
LINE
  5
C8
330
1F
100
AcDbEntity
  8
0-0
  6
JWW_DASHED1
 62
   120
370
     5
100
AcDbLine
 10
-94.47014923379122
 20
-519.823496334027
 30
0.0
 11
-94.47014923379122
 21
793.1765036659755
 31
0.0
  0
LINE
  5
C9
330
1F
100
AcDbEntity
  8
0-0
  6
JWW_DASHED1
 62
   120
370
     5
100
AcDbLine
 10
-95.47014923369119
 20
-519.823496334027
 30
0.0
 11
-95.47014923369119
 21
793.1765036659755
 31
0.0
  0
LINE
  5
CA
330
1F
100
AcDbEntity
  8
0-0
  6
JWW_DASHED1
 62
   120
370
     5
100
AcDbLine
 10
-108.4701492347912
 20
-519.823496334027
 30
0.0
 11
-108.4701492347912
 21
793.1765036659755
 31
0.0
  0
LINE
  5
CB
330
1F
100
AcDbEntity
  8
0-0
  6
JWW_DASHED1
 62
   120
370
     5
100
AcDbLine
 10
-109.4701492346912
 20
-519.823496334027
 30
0.0
 11
-109.4701492346912
 21
793.1765036659755
 31
0.0
  0
LINE
  5
CC
330
1F
100
AcDbEntity
  8
0-0
  6
JWW_DASHED1
 62
   120
370
     5
100
AcDbLine
 10
-122.4701492357912
 20
-519.823496334027
 30
0.0
 11
-122.4701492357912
 21
793.1765036659755
 31
0.0
  0
LINE
  5
CD
330
1F
100
AcDbEntity
  8
0-0
  6
JWW_DASHED1
 62
   120
370
     5
100
AcDbLine
 10
-123.4701492356912
 20
-519.823496334027
 30
0.0
 11
-123.4701492356912
 21
793.1765036659755
 31
0.0
  0
LINE
  5
CE
330
1F
100
AcDbEntity
  8
0-0
  6
JWW_DASHED1
 62
   120
370
     5
100
AcDbLine
 10
-136.4701492367912
 20
-519.823496334027
 30
0.0
 11
-136.4701492367912
 21
793.1765036659755
 31
0.0
  0
LINE
  5
CF
330
1F
100
AcDbEntity
  8
0-0
  6
JWW_DASHED1
 62
   120
370
     5
100
AcDbLine
 10
-137.4701492366912
 20
-519.823496334027
 30
0.0
 11
-137.4701492366912
 21
793.1765036659755
 31
0.0
  0
LINE
  5
D0
330
1F
100
AcDbEntity
  8
0-0
  6
JWW_DASHED1
 62
   120
370
     5
100
AcDbLine
 10
-150.4701492377912
 20
-519.823496334027
 30
0.0
 11
-150.4701492377912
 21
793.1765036659755
 31
0.0
  0
LINE
  5
D1
330
1F
100
AcDbEntity
  8
0-0
  6
JWW_DASHED1
 62
   120
370
     5
100
AcDbLine
 10
-151.4701492376912
 20
-519.823496334027
 30
0.0
 11
-151.4701492376912
 21
793.1765036659755
 31
0.0
  0
LINE
  5
D2
330
1F
100
AcDbEntity
  8
0-0
  6
JWW_DASHED1
 62
   120
370
     5
100
AcDbLine
 10
-164.4701492387912
 20
-519.823496334027
 30
0.0
 11
-164.4701492387912
 21
793.1765036659755
 31
0.0
  0
LINE
  5
D3
330
1F
100
AcDbEntity
  8
0-0
  6
JWW_DASHED1
 62
   120
370
     5
100
AcDbLine
 10
-165.4701492386912
 20
-519.823496334027
 30
0.0
 11
-165.4701492386912
 21
793.1765036659755
 31
0.0
  0
LINE
  5
D4
330
1F
100
AcDbEntity
  8
0-0
  6
JWW_DASHED1
 62
   120
370
     5
100
AcDbLine
 10
-178.4701492397912
 20
-519.823496334027
 30
0.0
 11
-178.4701492397912
 21
793.1765036659755
 31
0.0
  0
LINE
  5
D5
330
1F
100
AcDbEntity
  8
0-0
  6
JWW_DASHED1
 62
   120
370
     5
100
AcDbLine
 10
-179.4701492396912
 20
-519.823496334027
 30
0.0
 11
-179.4701492396912
 21
793.1765036659755
 31
0.0
  0
LINE
  5
D6
330
1F
100
AcDbEntity
  8
0-0
  6
JWW_DASHED1
 62
   120
370
     5
100
AcDbLine
 10
-192.4701492407912
 20
-519.823496334027
 30
0.0
 11
-192.4701492407912
 21
793.1765036659755
 31
0.0
  0
LINE
  5
D7
330
1F
100
AcDbEntity
  8
0-0
  6
JWW_DASHED1
 62
   120
370
     5
100
AcDbLine
 10
-193.4701492406912
 20
-519.823496334027
 30
0.0
 11
-193.4701492406912
 21
793.1765036659755
 31
0.0
  0
LINE
  5
D8
330
1F
100
AcDbEntity
  8
0-0
  6
JWW_DASHED1
 62
   120
370
     5
100
AcDbLine
 10
-206.4701492417913
 20
-519.823496334027
 30
0.0
 11
-206.4701492417913
 21
793.1765036659755
 31
0.0
  0
LINE
  5
D9
330
1F
100
AcDbEntity
  8
0-0
  6
JWW_DASHED1
 62
   120
370
     5
100
AcDbLine
 10
-207.4701492416912
 20
-519.823496334027
 30
0.0
 11
-207.4701492416912
 21
793.1765036659755
 31
0.0
  0
LINE
  5
DA
330
1F
100
AcDbEntity
  8
0-0
  6
JWW_DASHED1
 62
   120
370
     5
100
AcDbLine
 10
-220.4701492427913
 20
-519.823496334027
 30
0.0
 11
-220.4701492427913
 21
793.1765036659755
 31
0.0
  0
LINE
  5
DB
330
1F
100
AcDbEntity
  8
0-0
  6
JWW_DASHED1
 62
   120
370
     5
100
AcDbLine
 10
-221.4701492426912
 20
-519.823496334027
 30
0.0
 11
-221.4701492426912
 21
793.1765036659755
 31
0.0
  0
LINE
  5
DC
330
1F
100
AcDbEntity
  8
0-0
  6
JWW_DASHED1
 62
   120
370
     5
100
AcDbLine
 10
-234.4701492437912
 20
-519.823496334027
 30
0.0
 11
-234.4701492437912
 21
793.1765036659755
 31
0.0
  0
LINE
  5
DD
330
1F
100
AcDbEntity
  8
0-0
  6
JWW_DASHED1
 62
   120
370
     5
100
AcDbLine
 10
-235.4701492436912
 20
-519.823496334027
 30
0.0
 11
-235.4701492436912
 21
793.1765036659755
 31
0.0
  0
LINE
  5
DE
330
1F
100
AcDbEntity
  8
0-0
  6
JWW_DASHED1
 62
   120
370
     5
100
AcDbLine
 10
-248.4701492447913
 20
-519.823496334027
 30
0.0
 11
-248.4701492447913
 21
793.1765036659755
 31
0.0
  0
LINE
  5
DF
330
1F
100
AcDbEntity
  8
0-0
  6
JWW_DASHED1
 62
   120
370
     5
100
AcDbLine
 10
-249.4701492446912
 20
-519.823496334027
 30
0.0
 11
-249.4701492446912
 21
793.1765036659755
 31
0.0
  0
LINE
  5
E0
330
1F
100
AcDbEntity
  8
0-0
  6
JWW_DASHED1
 62
   120
370
     5
100
AcDbLine
 10
-262.4701492457913
 20
-519.823496334027
 30
0.0
 11
-262.4701492457913
 21
793.1765036659755
 31
0.0
  0
LINE
  5
E1
330
1F
100
AcDbEntity
  8
0-0
  6
JWW_DASHED1
 62
   120
370
     5
100
AcDbLine
 10
-263.4701492456912
 20
-519.823496334027
 30
0.0
 11
-263.4701492456912
 21
793.1765036659755
 31
0.0
  0
LINE
  5
E2
330
1F
100
AcDbEntity
  8
0-0
  6
JWW_DASHED1
 62
   120
370
     5
100
AcDbLine
 10
-276.4701492467913
 20
-519.823496334027
 30
0.0
 11
-276.4701492467913
 21
793.1765036659755
 31
0.0
  0
LINE
  5
E3
330
1F
100
AcDbEntity
  8
0-0
  6
JWW_DASHED1
 62
   120
370
     5
100
AcDbLine
 10
-277.4701492466912
 20
-519.823496334027
 30
0.0
 11
-277.4701492466912
 21
793.1765036659755
 31
0.0
  0
LINE
  5
E4
330
1F
100
AcDbEntity
  8
0-0
  6
JWW_DASHED1
 62
   120
370
     5
100
AcDbLine
 10
-290.4701492477913
 20
-519.823496334027
 30
0.0
 11
-290.4701492477913
 21
793.1765036659755
 31
0.0
  0
LINE
  5
E5
330
1F
100
AcDbEntity
  8
0-0
  6
JWW_DASHED1
 62
   120
370
     5
100
AcDbLine
 10
-291.4701492476912
 20
-519.823496334027
 30
0.0
 11
-291.4701492476912
 21
793.1765036659755
 31
0.0
  0
LINE
  5
E6
330
1F
100
AcDbEntity
  8
0-0
  6
JWW_DASHED1
 62
   120
370
     5
100
AcDbLine
 10
-304.4701492487912
 20
-519.823496334027
 30
0.0
 11
-304.4701492487912
 21
793.1765036659755
 31
0.0
  0
LINE
  5
E7
330
1F
100
AcDbEntity
  8
0-0
  6
JWW_DASHED1
 62
   120
370
     5
100
AcDbLine
 10
-305.4701492486913
 20
-519.823496334027
 30
0.0
 11
-305.4701492486913
 21
793.1765036659755
 31
0.0
  0
LINE
  5
E8
330
1F
100
AcDbEntity
  8
0-0
  6
JWW_DASHED1
 62
   120
370
     5
100
AcDbLine
 10
-318.4701492497913
 20
-519.823496334027
 30
0.0
 11
-318.4701492497913
 21
793.1765036659755
 31
0.0
  0
LINE
  5
E9
330
1F
100
AcDbEntity
  8
0-0
  6
JWW_DASHED1
 62
   120
370
     5
100
AcDbLine
 10
-319.4701492496912
 20
-519.823496334027
 30
0.0
 11
-319.4701492496912
 21
793.1765036659755
 31
0.0
  0
LINE
  5
EA
330
1F
100
AcDbEntity
  8
0-0
  6
JWW_DASHED1
 62
   120
370
     5
100
AcDbLine
 10
-332.4701492507913
 20
-519.823496334027
 30
0.0
 11
-332.4701492507913
 21
793.1765036659755
 31
0.0
  0
LINE
  5
EB
330
1F
100
AcDbEntity
  8
0-0
  6
JWW_DASHED1
 62
   120
370
     5
100
AcDbLine
 10
-333.4701492506912
 20
-519.823496334027
 30
0.0
 11
-333.4701492506912
 21
793.1765036659755
 31
0.0
  0
LINE
  5
EC
330
1F
100
AcDbEntity
  8
0-0
  6
JWW_DASHED1
 62
   120
370
     5
100
AcDbLine
 10
-346.4701492517913
 20
-519.823496334027
 30
0.0
 11
-346.4701492517913
 21
793.1765036659755
 31
0.0
  0
LINE
  5
ED
330
1F
100
AcDbEntity
  8
0-0
  6
JWW_DASHED1
 62
   120
370
     5
100
AcDbLine
 10
-347.4701492516913
 20
-519.823496334027
 30
0.0
 11
-347.4701492516913
 21
793.1765036659755
 31
0.0
  0
LINE
  5
EE
330
1F
100
AcDbEntity
  8
0-0
  6
JWW_DASHED1
 62
   120
370
     5
100
AcDbLine
 10
-360.4701492527913
 20
-519.823496334027
 30
0.0
 11
-360.4701492527913
 21
793.1765036659755
 31
0.0
  0
LINE
  5
EF
330
1F
100
AcDbEntity
  8
0-0
  6
JWW_DASHED1
 62
   120
370
     5
100
AcDbLine
 10
-361.4701492526913
 20
-519.823496334027
 30
0.0
 11
-361.4701492526913
 21
793.1765036659755
 31
0.0
  0
LINE
  5
F0
330
1F
100
AcDbEntity
  8
0-0
  6
JWW_DASHED1
 62
   120
370
     5
100
AcDbLine
 10
-374.4701492537913
 20
-519.823496334027
 30
0.0
 11
-374.4701492537913
 21
793.1765036659755
 31
0.0
  0
LINE
  5
F1
330
1F
100
AcDbEntity
  8
0-0
  6
JWW_DASHED1
 62
   120
370
     5
100
AcDbLine
 10
-375.4701492536913
 20
-519.823496334027
 30
0.0
 11
-375.4701492536913
 21
793.1765036659755
 31
0.0
  0
LINE
  5
F2
330
1F
100
AcDbEntity
  8
0-0
  6
JWW_DASHED1
 62
   120
370
     5
100
AcDbLine
 10
-388.4701492547913
 20
-519.823496334027
 30
0.0
 11
-388.4701492547913
 21
793.1765036659755
 31
0.0
  0
LINE
  5
F3
330
1F
100
AcDbEntity
  8
0-0
  6
JWW_DASHED1
 62
   120
370
     5
100
AcDbLine
 10
-389.4701492546913
 20
-519.823496334027
 30
0.0
 11
-389.4701492546913
 21
793.1765036659755
 31
0.0
  0
LINE
  5
F4
330
1F
100
AcDbEntity
  8
0-0
  6
JWW_DASHED1
 62
   120
370
     5
100
AcDbLine
 10
-402.4701492557913
 20
-519.823496334027
 30
0.0
 11
-402.4701492557913
 21
793.1765036659755
 31
0.0
  0
LINE
  5
F5
330
1F
100
AcDbEntity
  8
0-0
  6
JWW_DASHED1
 62
   120
370
     5
100
AcDbLine
 10
-403.4701492556912
 20
-519.823496334027
 30
0.0
 11
-403.4701492556912
 21
793.1765036659755
 31
0.0
  0
LINE
  5
F6
330
1F
100
AcDbEntity
  8
0-0
  6
JWW_DASHED1
 62
   120
370
     5
100
AcDbLine
 10
-416.4701492567913
 20
-519.823496334027
 30
0.0
 11
-416.4701492567913
 21
793.1765036659755
 31
0.0
  0
LINE
  5
F7
330
1F
100
AcDbEntity
  8
0-0
  6
JWW_DASHED1
 62
   120
370
     5
100
AcDbLine
 10
-417.4701492566913
 20
-519.823496334027
 30
0.0
 11
-417.4701492566913
 21
793.1765036659755
 31
0.0
  0
LINE
  5
F8
330
1F
100
AcDbEntity
  8
0-0
  6
JWW_DASHED1
 62
   120
370
     5
100
AcDbLine
 10
-430.4701492577913
 20
-519.823496334027
 30
0.0
 11
-430.4701492577913
 21
793.1765036659755
 31
0.0
  0
LINE
  5
F9
330
1F
100
AcDbEntity
  8
0-0
  6
JWW_DASHED1
 62
   120
370
     5
100
AcDbLine
 10
-431.4701492576913
 20
-519.823496334027
 30
0.0
 11
-431.4701492576913
 21
793.1765036659755
 31
0.0
  0
LINE
  5
FA
330
1F
100
AcDbEntity
  8
0-0
  6
JWW_DASHED1
 62
   120
370
     5
100
AcDbLine
 10
-444.4701492587913
 20
-519.823496334027
 30
0.0
 11
-444.4701492587913
 21
793.1765036659755
 31
0.0
  0
LINE
  5
FB
330
1F
100
AcDbEntity
  8
0-0
  6
JWW_DASHED1
 62
   120
370
     5
100
AcDbLine
 10
-445.4701492586913
 20
-519.823496334027
 30
0.0
 11
-445.4701492586913
 21
793.1765036659755
 31
0.0
  0
LINE
  5
FC
330
1F
100
AcDbEntity
  8
0-0
  6
JWW_DASHED1
 62
   120
370
     5
100
AcDbLine
 10
-458.4701492597913
 20
-519.823496334027
 30
0.0
 11
-458.4701492597913
 21
793.1765036659755
 31
0.0
  0
LINE
  5
FD
330
1F
100
AcDbEntity
  8
0-0
  6
JWW_DASHED1
 62
   120
370
     5
100
AcDbLine
 10
-459.4701492596913
 20
-519.823496334027
 30
0.0
 11
-459.4701492596913
 21
793.1765036659755
 31
0.0
  0
LINE
  5
FE
330
1F
100
AcDbEntity
  8
0-0
  6
JWW_DASHED1
 62
   120
370
     5
100
AcDbLine
 10
-472.4701492607913
 20
-519.823496334027
 30
0.0
 11
-472.4701492607913
 21
793.1765036659755
 31
0.0
  0
LINE
  5
FF
330
1F
100
AcDbEntity
  8
0-0
  6
JWW_DASHED1
 62
   120
370
     5
100
AcDbLine
 10
-473.4701492606913
 20
-519.823496334027
 30
0.0
 11
-473.4701492606913
 21
793.1765036659755
 31
0.0
  0
LINE
  5
100
330
1F
100
AcDbEntity
  8
0-0
  6
JWW_DASHED1
 62
   120
370
     5
100
AcDbLine
 10
-486.4701492617913
 20
-519.823496334027
 30
0.0
 11
-486.4701492617913
 21
793.1765036659755
 31
0.0
  0
LINE
  5
101
330
1F
100
AcDbEntity
  8
0-0
  6
JWW_DASHED1
 62
   120
370
     5
100
AcDbLine
 10
-487.4701492616913
 20
-519.823496334027
 30
0.0
 11
-487.4701492616913
 21
793.1765036659755
 31
0.0
  0
LINE
  5
102
330
1F
100
AcDbEntity
  8
0-0
  6
JWW_DASHED1
 62
   120
370
     5
100
AcDbLine
 10
-500.4701492627913
 20
-519.823496334027
 30
0.0
 11
-500.4701492627913
 21
793.1765036659755
 31
0.0
  0
LINE
  5
103
330
1F
100
AcDbEntity
  8
0-0
  6
JWW_DASHED1
 62
   120
370
     5
100
AcDbLine
 10
-501.4701492626913
 20
-519.823496334027
 30
0.0
 11
-501.4701492626913
 21
793.1765036659755
 31
0.0
  0
LINE
  5
104
330
1F
100
AcDbEntity
  8
0-0
  6
JWW_DASHED1
 62
   120
370
     5
100
AcDbLine
 10
-514.4701492637911
 20
-519.823496334027
 30
0.0
 11
-514.4701492637911
 21
793.1765036659755
 31
0.0
  0
LINE
  5
105
330
1F
100
AcDbEntity
  8
0-0
  6
JWW_DASHED1
 62
   120
370
     5
100
AcDbLine
 10
-515.4701492636913
 20
-519.823496334027
 30
0.0
 11
-515.4701492636913
 21
793.1765036659755
 31
0.0
  0
LINE
  5
106
330
1F
100
AcDbEntity
  8
0-0
  6
JWW_DASHED1
 62
   120
370
     5
100
AcDbLine
 10
-528.4701492647913
 20
-519.823496334027
 30
0.0
 11
-528.4701492647913
 21
793.1765036659755
 31
0.0
  0
LINE
  5
107
330
1F
100
AcDbEntity
  8
0-0
  6
JWW_DASHED1
 62
   120
370
     5
100
AcDbLine
 10
-529.4701492646913
 20
-519.823496334027
 30
0.0
 11
-529.4701492646913
 21
793.1765036659755
 31
0.0
  0
LINE
  5
108
330
1F
100
AcDbEntity
  8
0-0
  6
JWW_DASHED1
 62
   120
370
     5
100
AcDbLine
 10
-542.4701492657912
 20
-519.823496334027
 30
0.0
 11
-542.4701492657912
 21
793.1765036659755
 31
0.0
  0
LINE
  5
109
330
1F
100
AcDbEntity
  8
0-0
  6
JWW_DASHED1
 62
   120
370
     5
100
AcDbLine
 10
-543.4701492656914
 20
-519.823496334027
 30
0.0
 11
-543.4701492656914
 21
793.1765036659755
 31
0.0
  0
LINE
  5
10A
330
1F
100
AcDbEntity
  8
0-0
  6
JWW_DASHED1
 62
   120
370
     5
100
AcDbLine
 10
-556.4701492667914
 20
-519.823496334027
 30
0.0
 11
-556.4701492667914
 21
793.1765036659755
 31
0.0
  0
LINE
  5
10B
330
1F
100
AcDbEntity
  8
0-0
  6
JWW_DASHED1
 62
   120
370
     5
100
AcDbLine
 10
-557.4701492666914
 20
-519.823496334027
 30
0.0
 11
-557.4701492666914
 21
793.1765036659755
 31
0.0
  0
LINE
  5
10C
330
1F
100
AcDbEntity
  8
0-0
  6
JWW_DASHED1
 62
   120
370
     5
100
AcDbLine
 10
-570.4701492677912
 20
-519.823496334027
 30
0.0
 11
-570.4701492677912
 21
793.1765036659755
 31
0.0
  0
LINE
  5
10D
330
1F
100
AcDbEntity
  8
0-0
  6
JWW_DASHED1
 62
   120
370
     5
100
AcDbLine
 10
-571.4701492676913
 20
-519.823496334027
 30
0.0
 11
-571.4701492676913
 21
793.1765036659755
 31
0.0
  0
LINE
  5
10E
330
1F
100
AcDbEntity
  8
0-0
  6
JWW_DASHED1
 62
   120
370
     5
100
AcDbLine
 10
-584.4701492687914
 20
-519.823496334027
 30
0.0
 11
-584.4701492687914
 21
793.1765036659755
 31
0.0
  0
LINE
  5
10F
330
1F
100
AcDbEntity
  8
0-0
  6
JWW_DASHED1
 62
   120
370
     5
100
AcDbLine
 10
-585.4701492686913
 20
-519.823496334027
 30
0.0
 11
-585.4701492686913
 21
793.1765036659755
 31
0.0
  0
LINE
  5
110
330
1F
100
AcDbEntity
  8
0-0
  6
JWW_DASHED1
 62
   120
370
     5
100
AcDbLine
 10
-598.4701492697911
 20
-519.823496334027
 30
0.0
 11
-598.4701492697911
 21
793.1765036659755
 31
0.0
  0
LINE
  5
111
330
1F
100
AcDbEntity
  8
0-0
  6
JWW_DASHED1
 62
   120
370
     5
100
AcDbLine
 10
-599.4701492696913
 20
-519.823496334027
 30
0.0
 11
-599.4701492696913
 21
793.1765036659755
 31
0.0
  0
LINE
  5
112
330
1F
100
AcDbEntity
  8
0-0
  6
JWW_DASHED1
 62
   120
370
     5
100
AcDbLine
 10
-612.4701492707914
 20
-519.823496334027
 30
0.0
 11
-612.4701492707914
 21
793.1765036659755
 31
0.0
  0
LINE
  5
113
330
1F
100
AcDbEntity
  8
0-0
  6
JWW_DASHED1
 62
   120
370
     5
100
AcDbLine
 10
-613.4701492706913
 20
-519.823496334027
 30
0.0
 11
-613.4701492706913
 21
793.1765036659755
 31
0.0
  0
LINE
  5
114
330
1F
100
AcDbEntity
  8
0-0
  6
JWW_DASHED1
 62
   120
370
     5
100
AcDbLine
 10
-626.4701492717911
 20
-519.823496334027
 30
0.0
 11
-626.4701492717911
 21
793.1765036659755
 31
0.0
  0
LINE
  5
115
330
1F
100
AcDbEntity
  8
0-0
  6
JWW_DASHED1
 62
   120
370
     5
100
AcDbLine
 10
-627.4701492716913
 20
-519.823496334027
 30
0.0
 11
-627.4701492716913
 21
793.1765036659755
 31
0.0
  0
LINE
  5
116
330
1F
100
AcDbEntity
  8
0-0
  6
JWW_DASHED1
 62
   120
370
     5
100
AcDbLine
 10
-640.4701492727913
 20
-519.823496334027
 30
0.0
 11
-640.4701492727913
 21
793.1765036659755
 31
0.0
  0
LINE
  5
117
330
1F
100
AcDbEntity
  8
0-0
  6
JWW_DASHED1
 62
   120
370
     5
100
AcDbLine
 10
-641.4701492726911
 20
-519.823496334027
 30
0.0
 11
-641.4701492726911
 21
793.1765036659755
 31
0.0
  0
LINE
  5
118
330
1F
100
AcDbEntity
  8
0-0
  6
JWW_DASHED1
 62
   120
370
     5
100
AcDbLine
 10
-654.4701492737911
 20
-519.823496334027
 30
0.0
 11
-654.4701492737911
 21
793.1765036659755
 31
0.0
  0
LINE
  5
119
330
1F
100
AcDbEntity
  8
0-0
  6
JWW_DASHED1
 62
   120
370
     5
100
AcDbLine
 10
-655.4701492736913
 20
-519.823496334027
 30
0.0
 11
-655.4701492736913
 21
793.1765036659755
 31
0.0
  0
LINE
  5
11A
330
1F
100
AcDbEntity
  8
0-0
  6
JWW_DASHED1
 62
   120
370
     5
100
AcDbLine
 10
-661.4701492537406
 20
-507.8234963799754
 30
0.0
 11
-88.47014925374168
 21
-507.8234963799754
 31
0.0
  0
LINE
  5
11B
330
1F
100
AcDbEntity
  8
0-0
  6
JWW_DASHED1
 62
   120
370
     5
100
AcDbLine
 10
-661.4701492537406
 20
-506.8234963800757
 30
0.0
 11
-88.47014925374168
 21
-506.8234963800757
 31
0.0
  0
LINE
  5
11C
330
1F
100
AcDbEntity
  8
0-0
  6
JWW_DASHED1
 62
   120
370
     5
100
AcDbLine
 10
-661.4701492537406
 20
-493.8234963789756
 30
0.0
 11
-88.47014925374168
 21
-493.8234963789756
 31
0.0
  0
LINE
  5
11D
330
1F
100
AcDbEntity
  8
0-0
  6
JWW_DASHED1
 62
   120
370
     5
100
AcDbLine
 10
-661.4701492537406
 20
-492.8234963790759
 30
0.0
 11
-88.47014925374168
 21
-492.8234963790759
 31
0.0
  0
LINE
  5
11E
330
1F
100
AcDbEntity
  8
0-0
  6
JWW_DASHED1
 62
   120
370
     5
100
AcDbLine
 10
-661.4701492537406
 20
-479.8234963779759
 30
0.0
 11
-88.47014925374168
 21
-479.8234963779759
 31
0.0
  0
LINE
  5
11F
330
1F
100
AcDbEntity
  8
0-0
  6
JWW_DASHED1
 62
   120
370
     5
100
AcDbLine
 10
-661.4701492537406
 20
-478.8234963780757
 30
0.0
 11
-88.47014925374168
 21
-478.8234963780757
 31
0.0
  0
LINE
  5
120
330
1F
100
AcDbEntity
  8
0-0
  6
JWW_DASHED1
 62
   120
370
     5
100
AcDbLine
 10
-661.4701492537406
 20
-465.8234963769756
 30
0.0
 11
-88.47014925374168
 21
-465.8234963769756
 31
0.0
  0
LINE
  5
121
330
1F
100
AcDbEntity
  8
0-0
  6
JWW_DASHED1
 62
   120
370
     5
100
AcDbLine
 10
-661.4701492537406
 20
-464.8234963770755
 30
0.0
 11
-88.47014925374168
 21
-464.8234963770755
 31
0.0
  0
LINE
  5
122
330
1F
100
AcDbEntity
  8
0-0
  6
JWW_DASHED1
 62
   120
370
     5
100
AcDbLine
 10
-661.4701492537406
 20
-451.8234963759754
 30
0.0
 11
-88.47014925374168
 21
-451.8234963759754
 31
0.0
  0
LINE
  5
123
330
1F
100
AcDbEntity
  8
0-0
  6
JWW_DASHED1
 62
   120
370
     5
100
AcDbLine
 10
-661.4701492537406
 20
-450.8234963760756
 30
0.0
 11
-88.47014925374168
 21
-450.8234963760756
 31
0.0
  0
LINE
  5
124
330
1F
100
AcDbEntity
  8
0-0
  6
JWW_DASHED1
 62
   120
370
     5
100
AcDbLine
 10
-661.4701492537406
 20
-437.8234963749756
 30
0.0
 11
-88.47014925374168
 21
-437.8234963749756
 31
0.0
  0
LINE
  5
125
330
1F
100
AcDbEntity
  8
0-0
  6
JWW_DASHED1
 62
   120
370
     5
100
AcDbLine
 10
-661.4701492537406
 20
-436.8234963750758
 30
0.0
 11
-88.47014925374168
 21
-436.8234963750758
 31
0.0
  0
LINE
  5
126
330
1F
100
AcDbEntity
  8
0-0
  6
JWW_DASHED1
 62
   120
370
     5
100
AcDbLine
 10
-661.4701492537406
 20
-423.8234963739758
 30
0.0
 11
-88.47014925374168
 21
-423.8234963739758
 31
0.0
  0
LINE
  5
127
330
1F
100
AcDbEntity
  8
0-0
  6
JWW_DASHED1
 62
   120
370
     5
100
AcDbLine
 10
-661.4701492537406
 20
-422.8234963740756
 30
0.0
 11
-88.47014925374168
 21
-422.8234963740756
 31
0.0
  0
LINE
  5
128
330
1F
100
AcDbEntity
  8
0-0
  6
JWW_DASHED1
 62
   120
370
     5
100
AcDbLine
 10
-661.4701492537406
 20
-409.8234963729756
 30
0.0
 11
-88.47014925374168
 21
-409.8234963729756
 31
0.0
  0
LINE
  5
129
330
1F
100
AcDbEntity
  8
0-0
  6
JWW_DASHED1
 62
   120
370
     5
100
AcDbLine
 10
-661.4701492537406
 20
-408.8234963730754
 30
0.0
 11
-88.47014925374168
 21
-408.8234963730754
 31
0.0
  0
LINE
  5
12A
330
1F
100
AcDbEntity
  8
0-0
  6
JWW_DASHED1
 62
   120
370
     5
100
AcDbLine
 10
-661.4701492537406
 20
-395.8234963719754
 30
0.0
 11
-88.47014925374168
 21
-395.8234963719754
 31
0.0
  0
LINE
  5
12B
330
1F
100
AcDbEntity
  8
0-0
  6
JWW_DASHED1
 62
   120
370
     5
100
AcDbLine
 10
-661.4701492537406
 20
-394.8234963720756
 30
0.0
 11
-88.47014925374168
 21
-394.8234963720756
 31
0.0
  0
LINE
  5
12C
330
1F
100
AcDbEntity
  8
0-0
  6
JWW_DASHED1
 62
   120
370
     5
100
AcDbLine
 10
-661.4701492537406
 20
-381.8234963709756
 30
0.0
 11
-88.47014925374168
 21
-381.8234963709756
 31
0.0
  0
LINE
  5
12D
330
1F
100
AcDbEntity
  8
0-0
  6
JWW_DASHED1
 62
   120
370
     5
100
AcDbLine
 10
-661.4701492537406
 20
-380.8234963710759
 30
0.0
 11
-88.47014925374168
 21
-380.8234963710759
 31
0.0
  0
LINE
  5
12E
330
1F
100
AcDbEntity
  8
0-0
  6
JWW_DASHED1
 62
   120
370
     5
100
AcDbLine
 10
-661.4701492537406
 20
-367.8234963699758
 30
0.0
 11
-88.47014925374168
 21
-367.8234963699758
 31
0.0
  0
LINE
  5
12F
330
1F
100
AcDbEntity
  8
0-0
  6
JWW_DASHED1
 62
   120
370
     5
100
AcDbLine
 10
-661.4701492537406
 20
-366.8234963700756
 30
0.0
 11
-88.47014925374168
 21
-366.8234963700756
 31
0.0
  0
LINE
  5
130
330
1F
100
AcDbEntity
  8
0-0
  6
JWW_DASHED1
 62
   120
370
     5
100
AcDbLine
 10
-661.4701492537406
 20
-353.8234963689756
 30
0.0
 11
-88.47014925374168
 21
-353.8234963689756
 31
0.0
  0
LINE
  5
131
330
1F
100
AcDbEntity
  8
0-0
  6
JWW_DASHED1
 62
   120
370
     5
100
AcDbLine
 10
-661.4701492537406
 20
-352.8234963690754
 30
0.0
 11
-88.47014925374168
 21
-352.8234963690754
 31
0.0
  0
LINE
  5
132
330
1F
100
AcDbEntity
  8
0-0
  6
JWW_DASHED1
 62
   120
370
     5
100
AcDbLine
 10
-661.4701492537406
 20
-339.8234963679754
 30
0.0
 11
-88.47014925374168
 21
-339.8234963679754
 31
0.0
  0
LINE
  5
133
330
1F
100
AcDbEntity
  8
0-0
  6
JWW_DASHED1
 62
   120
370
     5
100
AcDbLine
 10
-661.4701492537406
 20
-338.8234963680756
 30
0.0
 11
-88.47014925374168
 21
-338.8234963680756
 31
0.0
  0
LINE
  5
134
330
1F
100
AcDbEntity
  8
0-0
  6
JWW_DASHED1
 62
   120
370
     5
100
AcDbLine
 10
-661.4701492537406
 20
-325.8234963669756
 30
0.0
 11
-88.47014925374168
 21
-325.8234963669756
 31
0.0
  0
LINE
  5
135
330
1F
100
AcDbEntity
  8
0-0
  6
JWW_DASHED1
 62
   120
370
     5
100
AcDbLine
 10
-661.4701492537406
 20
-324.8234963670758
 30
0.0
 11
-88.47014925374168
 21
-324.8234963670758
 31
0.0
  0
LINE
  5
136
330
1F
100
AcDbEntity
  8
0-0
  6
JWW_DASHED1
 62
   120
370
     5
100
AcDbLine
 10
-661.4701492537406
 20
-311.8234963659758
 30
0.0
 11
-88.47014925374168
 21
-311.8234963659758
 31
0.0
  0
LINE
  5
137
330
1F
100
AcDbEntity
  8
0-0
  6
JWW_DASHED1
 62
   120
370
     5
100
AcDbLine
 10
-661.4701492537406
 20
-310.8234963660756
 30
0.0
 11
-88.47014925374168
 21
-310.8234963660756
 31
0.0
  0
LINE
  5
138
330
1F
100
AcDbEntity
  8
0-0
  6
JWW_DASHED1
 62
   120
370
     5
100
AcDbLine
 10
-661.4701492537406
 20
-297.8234963649755
 30
0.0
 11
-88.47014925374168
 21
-297.8234963649755
 31
0.0
  0
LINE
  5
139
330
1F
100
AcDbEntity
  8
0-0
  6
JWW_DASHED1
 62
   120
370
     5
100
AcDbLine
 10
-661.4701492537406
 20
-296.8234963650754
 30
0.0
 11
-88.47014925374168
 21
-296.8234963650754
 31
0.0
  0
LINE
  5
13A
330
1F
100
AcDbEntity
  8
0-0
  6
JWW_DASHED1
 62
   120
370
     5
100
AcDbLine
 10
-661.4701492537406
 20
-283.8234963639753
 30
0.0
 11
-88.47014925374168
 21
-283.8234963639753
 31
0.0
  0
LINE
  5
13B
330
1F
100
AcDbEntity
  8
0-0
  6
JWW_DASHED1
 62
   120
370
     5
100
AcDbLine
 10
-661.4701492537406
 20
-282.8234963640756
 30
0.0
 11
-88.47014925374168
 21
-282.8234963640756
 31
0.0
  0
LINE
  5
13C
330
1F
100
AcDbEntity
  8
0-0
  6
JWW_DASHED1
 62
   120
370
     5
100
AcDbLine
 10
-661.4701492537406
 20
-269.8234963629756
 30
0.0
 11
-88.47014925374168
 21
-269.8234963629756
 31
0.0
  0
LINE
  5
13D
330
1F
100
AcDbEntity
  8
0-0
  6
JWW_DASHED1
 62
   120
370
     5
100
AcDbLine
 10
-661.4701492537406
 20
-268.8234963630758
 30
0.0
 11
-88.47014925374168
 21
-268.8234963630758
 31
0.0
  0
LINE
  5
13E
330
1F
100
AcDbEntity
  8
0-0
  6
JWW_DASHED1
 62
   120
370
     5
100
AcDbLine
 10
-661.4701492537406
 20
-255.8234963619758
 30
0.0
 11
-88.47014925374168
 21
-255.8234963619758
 31
0.0
  0
LINE
  5
13F
330
1F
100
AcDbEntity
  8
0-0
  6
JWW_DASHED1
 62
   120
370
     5
100
AcDbLine
 10
-661.4701492537406
 20
-254.8234963620756
 30
0.0
 11
-88.47014925374168
 21
-254.8234963620756
 31
0.0
  0
LINE
  5
140
330
1F
100
AcDbEntity
  8
0-0
  6
JWW_DASHED1
 62
   120
370
     5
100
AcDbLine
 10
-661.4701492537406
 20
-241.8234963609756
 30
0.0
 11
-88.47014925374168
 21
-241.8234963609756
 31
0.0
  0
LINE
  5
141
330
1F
100
AcDbEntity
  8
0-0
  6
JWW_DASHED1
 62
   120
370
     5
100
AcDbLine
 10
-661.4701492537406
 20
-240.8234963610754
 30
0.0
 11
-88.47014925374168
 21
-240.8234963610754
 31
0.0
  0
LINE
  5
142
330
1F
100
AcDbEntity
  8
0-0
  6
JWW_DASHED1
 62
   120
370
     5
100
AcDbLine
 10
-661.4701492537406
 20
-227.8234963599753
 30
0.0
 11
-88.47014925374168
 21
-227.8234963599753
 31
0.0
  0
LINE
  5
143
330
1F
100
AcDbEntity
  8
0-0
  6
JWW_DASHED1
 62
   120
370
     5
100
AcDbLine
 10
-661.4701492537406
 20
-226.8234963600756
 30
0.0
 11
-88.47014925374168
 21
-226.8234963600756
 31
0.0
  0
LINE
  5
144
330
1F
100
AcDbEntity
  8
0-0
  6
JWW_DASHED1
 62
   120
370
     5
100
AcDbLine
 10
-661.4701492537406
 20
-213.8234963589755
 30
0.0
 11
-88.47014925374168
 21
-213.8234963589755
 31
0.0
  0
LINE
  5
145
330
1F
100
AcDbEntity
  8
0-0
  6
JWW_DASHED1
 62
   120
370
     5
100
AcDbLine
 10
-661.4701492537406
 20
-212.8234963590758
 30
0.0
 11
-88.47014925374168
 21
-212.8234963590758
 31
0.0
  0
LINE
  5
146
330
1F
100
AcDbEntity
  8
0-0
  6
JWW_DASHED1
 62
   120
370
     5
100
AcDbLine
 10
-661.4701492537406
 20
-199.8234963579758
 30
0.0
 11
-88.47014925374168
 21
-199.8234963579758
 31
0.0
  0
LINE
  5
147
330
1F
100
AcDbEntity
  8
0-0
  6
JWW_DASHED1
 62
   120
370
     5
100
AcDbLine
 10
-661.4701492537406
 20
-198.8234963580756
 30
0.0
 11
-88.47014925374168
 21
-198.8234963580756
 31
0.0
  0
LINE
  5
148
330
1F
100
AcDbEntity
  8
0-0
  6
JWW_DASHED1
 62
   120
370
     5
100
AcDbLine
 10
-661.4701492537406
 20
-185.8234963569755
 30
0.0
 11
-88.47014925374168
 21
-185.8234963569755
 31
0.0
  0
LINE
  5
149
330
1F
100
AcDbEntity
  8
0-0
  6
JWW_DASHED1
 62
   120
370
     5
100
AcDbLine
 10
-661.4701492537406
 20
-184.8234963570754
 30
0.0
 11
-88.47014925374168
 21
-184.8234963570754
 31
0.0
  0
LINE
  5
14A
330
1F
100
AcDbEntity
  8
0-0
  6
JWW_DASHED1
 62
   120
370
     5
100
AcDbLine
 10
-661.4701492537406
 20
-171.8234963559753
 30
0.0
 11
-88.47014925374168
 21
-171.8234963559753
 31
0.0
  0
LINE
  5
14B
330
1F
100
AcDbEntity
  8
0-0
  6
JWW_DASHED1
 62
   120
370
     5
100
AcDbLine
 10
-661.4701492537406
 20
-170.8234963560756
 30
0.0
 11
-88.47014925374168
 21
-170.8234963560756
 31
0.0
  0
LINE
  5
14C
330
1F
100
AcDbEntity
  8
0-0
  6
JWW_DASHED1
 62
   120
370
     5
100
AcDbLine
 10
-661.4701492537406
 20
-157.8234963549755
 30
0.0
 11
-88.47014925374168
 21
-157.8234963549755
 31
0.0
  0
LINE
  5
14D
330
1F
100
AcDbEntity
  8
0-0
  6
JWW_DASHED1
 62
   120
370
     5
100
AcDbLine
 10
-661.4701492537406
 20
-156.8234963550758
 30
0.0
 11
-88.47014925374168
 21
-156.8234963550758
 31
0.0
  0
LINE
  5
14E
330
1F
100
AcDbEntity
  8
0-0
  6
JWW_DASHED1
 62
   120
370
     5
100
AcDbLine
 10
-661.4701492537406
 20
-143.8234963539757
 30
0.0
 11
-88.47014925374168
 21
-143.8234963539757
 31
0.0
  0
LINE
  5
14F
330
1F
100
AcDbEntity
  8
0-0
  6
JWW_DASHED1
 62
   120
370
     5
100
AcDbLine
 10
-661.4701492537406
 20
-142.8234963540756
 30
0.0
 11
-88.47014925374168
 21
-142.8234963540756
 31
0.0
  0
LINE
  5
150
330
1F
100
AcDbEntity
  8
0-0
  6
JWW_DASHED1
 62
   120
370
     5
100
AcDbLine
 10
-661.4701492537406
 20
-129.8234963529755
 30
0.0
 11
-88.47014925374168
 21
-129.8234963529755
 31
0.0
  0
LINE
  5
151
330
1F
100
AcDbEntity
  8
0-0
  6
JWW_DASHED1
 62
   120
370
     5
100
AcDbLine
 10
-661.4701492537406
 20
-128.8234963530753
 30
0.0
 11
-88.47014925374168
 21
-128.8234963530753
 31
0.0
  0
LINE
  5
152
330
1F
100
AcDbEntity
  8
0-0
  6
JWW_DASHED1
 62
   120
370
     5
100
AcDbLine
 10
-661.4701492537406
 20
-115.8234963519753
 30
0.0
 11
-88.47014925374168
 21
-115.8234963519753
 31
0.0
  0
LINE
  5
153
330
1F
100
AcDbEntity
  8
0-0
  6
JWW_DASHED1
 62
   120
370
     5
100
AcDbLine
 10
-661.4701492537406
 20
-114.8234963520756
 30
0.0
 11
-88.47014925374168
 21
-114.8234963520756
 31
0.0
  0
LINE
  5
154
330
1F
100
AcDbEntity
  8
0-0
  6
JWW_DASHED1
 62
   120
370
     5
100
AcDbLine
 10
-661.4701492537406
 20
-101.8234963509755
 30
0.0
 11
-88.47014925374168
 21
-101.8234963509755
 31
0.0
  0
LINE
  5
155
330
1F
100
AcDbEntity
  8
0-0
  6
JWW_DASHED1
 62
   120
370
     5
100
AcDbLine
 10
-661.4701492537406
 20
-100.8234963510753
 30
0.0
 11
-88.47014925374168
 21
-100.8234963510753
 31
0.0
  0
LINE
  5
156
330
1F
100
AcDbEntity
  8
0-0
  6
JWW_DASHED1
 62
   120
370
     5
100
AcDbLine
 10
-661.4701492537406
 20
-87.82349634997573
 30
0.0
 11
-88.47014925374168
 21
-87.82349634997573
 31
0.0
  0
LINE
  5
157
330
1F
100
AcDbEntity
  8
0-0
  6
JWW_DASHED1
 62
   120
370
     5
100
AcDbLine
 10
-661.4701492537406
 20
-86.82349635007554
 30
0.0
 11
-88.47014925374168
 21
-86.82349635007554
 31
0.0
  0
LINE
  5
158
330
1F
100
AcDbEntity
  8
0-0
  6
JWW_DASHED1
 62
   120
370
     5
100
AcDbLine
 10
-661.4701492537406
 20
-73.82349634897551
 30
0.0
 11
-88.47014925374168
 21
-73.82349634897551
 31
0.0
  0
LINE
  5
159
330
1F
100
AcDbEntity
  8
0-0
  6
JWW_DASHED1
 62
   120
370
     5
100
AcDbLine
 10
-661.4701492537406
 20
-72.82349634907533
 30
0.0
 11
-88.47014925374168
 21
-72.82349634907533
 31
0.0
  0
LINE
  5
15A
330
1F
100
AcDbEntity
  8
0-0
  6
JWW_DASHED1
 62
   120
370
     5
100
AcDbLine
 10
-661.4701492537406
 20
-59.82349634797572
 30
0.0
 11
-88.47014925374168
 21
-59.82349634797572
 31
0.0
  0
LINE
  5
15B
330
1F
100
AcDbEntity
  8
0-0
  6
JWW_DASHED1
 62
   120
370
     5
100
AcDbLine
 10
-661.4701492537406
 20
-58.82349634807554
 30
0.0
 11
-88.47014925374168
 21
-58.82349634807554
 31
0.0
  0
LINE
  5
15C
330
1F
100
AcDbEntity
  8
0-0
  6
JWW_DASHED1
 62
   120
370
     5
100
AcDbLine
 10
-661.4701492537406
 20
-45.8234963469755
 30
0.0
 11
-88.47014925374168
 21
-45.8234963469755
 31
0.0
  0
LINE
  5
15D
330
1F
100
AcDbEntity
  8
0-0
  6
JWW_DASHED1
 62
   120
370
     5
100
AcDbLine
 10
-661.4701492537406
 20
-44.82349634707532
 30
0.0
 11
-88.47014925374168
 21
-44.82349634707532
 31
0.0
  0
LINE
  5
15E
330
1F
100
AcDbEntity
  8
0-0
  6
JWW_DASHED1
 62
   120
370
     5
100
AcDbLine
 10
-661.4701492537406
 20
-31.82349634597571
 30
0.0
 11
-88.47014925374168
 21
-31.82349634597571
 31
0.0
  0
LINE
  5
15F
330
1F
100
AcDbEntity
  8
0-0
  6
JWW_DASHED1
 62
   120
370
     5
100
AcDbLine
 10
-661.4701492537406
 20
-30.82349634607553
 30
0.0
 11
-88.47014925374168
 21
-30.82349634607553
 31
0.0
  0
LINE
  5
160
330
1F
100
AcDbEntity
  8
0-0
  6
JWW_DASHED1
 62
   120
370
     5
100
AcDbLine
 10
-661.4701492537406
 20
-17.8234963449755
 30
0.0
 11
-88.47014925374168
 21
-17.8234963449755
 31
0.0
  0
LINE
  5
161
330
1F
100
AcDbEntity
  8
0-0
  6
JWW_DASHED1
 62
   120
370
     5
100
AcDbLine
 10
-661.4701492537406
 20
-16.82349634507531
 30
0.0
 11
-88.47014925374168
 21
-16.82349634507531
 31
0.0
  0
LINE
  5
162
330
1F
100
AcDbEntity
  8
0-0
  6
JWW_DASHED1
 62
   120
370
     5
100
AcDbLine
 10
-661.4701492537406
 20
-3.823496343975705
 30
0.0
 11
-88.47014925374168
 21
-3.823496343975705
 31
0.0
  0
LINE
  5
163
330
1F
100
AcDbEntity
  8
0-0
  6
JWW_DASHED1
 62
   120
370
     5
100
AcDbLine
 10
-661.4701492537406
 20
-2.823496344075522
 30
0.0
 11
-88.47014925374168
 21
-2.823496344075522
 31
0.0
  0
LINE
  5
164
330
1F
100
AcDbEntity
  8
0-0
  6
JWW_DASHED1
 62
   120
370
     5
100
AcDbLine
 10
-661.4701492537406
 20
10.17650365702451
 30
0.0
 11
-88.47014925374168
 21
10.17650365702451
 31
0.0
  0
LINE
  5
165
330
1F
100
AcDbEntity
  8
0-0
  6
JWW_DASHED1
 62
   120
370
     5
100
AcDbLine
 10
-661.4701492537406
 20
11.17650365692469
 30
0.0
 11
-88.47014925374168
 21
11.17650365692469
 31
0.0
  0
LINE
  5
166
330
1F
100
AcDbEntity
  8
0-0
  6
JWW_DASHED1
 62
   120
370
     5
100
AcDbLine
 10
-661.4701492537406
 20
24.1765036580243
 30
0.0
 11
-88.47014925374168
 21
24.1765036580243
 31
0.0
  0
LINE
  5
167
330
1F
100
AcDbEntity
  8
0-0
  6
JWW_DASHED1
 62
   120
370
     5
100
AcDbLine
 10
-661.4701492537406
 20
25.17650365792448
 30
0.0
 11
-88.47014925374168
 21
25.17650365792448
 31
0.0
  0
LINE
  5
168
330
1F
100
AcDbEntity
  8
0-0
  6
JWW_DASHED1
 62
   120
370
     5
100
AcDbLine
 10
-661.4701492537406
 20
38.17650365902452
 30
0.0
 11
-88.47014925374168
 21
38.17650365902452
 31
0.0
  0
LINE
  5
169
330
1F
100
AcDbEntity
  8
0-0
  6
JWW_DASHED1
 62
   120
370
     5
100
AcDbLine
 10
-661.4701492537406
 20
39.1765036589247
 30
0.0
 11
-88.47014925374168
 21
39.1765036589247
 31
0.0
  0
LINE
  5
16A
330
1F
100
AcDbEntity
  8
0-0
  6
JWW_DASHED1
 62
   120
370
     5
100
AcDbLine
 10
-661.4701492537406
 20
52.17650366002431
 30
0.0
 11
-88.47014925374168
 21
52.17650366002431
 31
0.0
  0
LINE
  5
16B
330
1F
100
AcDbEntity
  8
0-0
  6
JWW_DASHED1
 62
   120
370
     5
100
AcDbLine
 10
-661.4701492537406
 20
53.17650365992449
 30
0.0
 11
-88.47014925374168
 21
53.17650365992449
 31
0.0
  0
LINE
  5
16C
330
1F
100
AcDbEntity
  8
0-0
  6
JWW_DASHED1
 62
   120
370
     5
100
AcDbLine
 10
-661.4701492537406
 20
66.17650366102453
 30
0.0
 11
-88.47014925374168
 21
66.17650366102453
 31
0.0
  0
LINE
  5
16D
330
1F
100
AcDbEntity
  8
0-0
  6
JWW_DASHED1
 62
   120
370
     5
100
AcDbLine
 10
-661.4701492537406
 20
67.17650366092471
 30
0.0
 11
-88.47014925374168
 21
67.17650366092471
 31
0.0
  0
LINE
  5
16E
330
1F
100
AcDbEntity
  8
0-0
  6
JWW_DASHED1
 62
   120
370
     5
100
AcDbLine
 10
-661.4701492537406
 20
80.17650366202432
 30
0.0
 11
-88.47014925374168
 21
80.17650366202432
 31
0.0
  0
LINE
  5
16F
330
1F
100
AcDbEntity
  8
0-0
  6
JWW_DASHED1
 62
   120
370
     5
100
AcDbLine
 10
-661.4701492537406
 20
81.1765036619245
 30
0.0
 11
-88.47014925374168
 21
81.1765036619245
 31
0.0
  0
LINE
  5
170
330
1F
100
AcDbEntity
  8
0-0
  6
JWW_DASHED1
 62
   120
370
     5
100
AcDbLine
 10
-661.4701492537406
 20
94.17650366302453
 30
0.0
 11
-88.47014925374168
 21
94.17650366302453
 31
0.0
  0
LINE
  5
171
330
1F
100
AcDbEntity
  8
0-0
  6
JWW_DASHED1
 62
   120
370
     5
100
AcDbLine
 10
-661.4701492537406
 20
95.17650366292472
 30
0.0
 11
-88.47014925374168
 21
95.17650366292472
 31
0.0
  0
LINE
  5
172
330
1F
100
AcDbEntity
  8
0-0
  6
JWW_DASHED1
 62
   120
370
     5
100
AcDbLine
 10
-661.4701492537406
 20
108.1765036640243
 30
0.0
 11
-88.47014925374168
 21
108.1765036640243
 31
0.0
  0
LINE
  5
173
330
1F
100
AcDbEntity
  8
0-0
  6
JWW_DASHED1
 62
   120
370
     5
100
AcDbLine
 10
-661.4701492537406
 20
109.1765036639245
 30
0.0
 11
-88.47014925374168
 21
109.1765036639245
 31
0.0
  0
LINE
  5
174
330
1F
100
AcDbEntity
  8
0-0
  6
JWW_DASHED1
 62
   120
370
     5
100
AcDbLine
 10
-661.4701492537406
 20
122.1765036650245
 30
0.0
 11
-88.47014925374168
 21
122.1765036650245
 31
0.0
  0
LINE
  5
175
330
1F
100
AcDbEntity
  8
0-0
  6
JWW_DASHED1
 62
   120
370
     5
100
AcDbLine
 10
-661.4701492537406
 20
123.1765036649247
 30
0.0
 11
-88.47014925374168
 21
123.1765036649247
 31
0.0
  0
LINE
  5
176
330
1F
100
AcDbEntity
  8
0-0
  6
JWW_DASHED1
 62
   120
370
     5
100
AcDbLine
 10
-661.4701492537406
 20
136.1765036660243
 30
0.0
 11
-88.47014925374168
 21
136.1765036660243
 31
0.0
  0
LINE
  5
177
330
1F
100
AcDbEntity
  8
0-0
  6
JWW_DASHED1
 62
   120
370
     5
100
AcDbLine
 10
-661.4701492537406
 20
137.1765036659245
 30
0.0
 11
-88.47014925374168
 21
137.1765036659245
 31
0.0
  0
LINE
  5
178
330
1F
100
AcDbEntity
  8
0-0
  6
JWW_DASHED1
 62
   120
370
     5
100
AcDbLine
 10
-661.4701492537406
 20
150.1765036670245
 30
0.0
 11
-88.47014925374168
 21
150.1765036670245
 31
0.0
  0
LINE
  5
179
330
1F
100
AcDbEntity
  8
0-0
  6
JWW_DASHED1
 62
   120
370
     5
100
AcDbLine
 10
-661.4701492537406
 20
151.1765036669247
 30
0.0
 11
-88.47014925374168
 21
151.1765036669247
 31
0.0
  0
LINE
  5
17A
330
1F
100
AcDbEntity
  8
0-0
  6
JWW_DASHED1
 62
   120
370
     5
100
AcDbLine
 10
-661.4701492537406
 20
164.1765036680243
 30
0.0
 11
-88.47014925374168
 21
164.1765036680243
 31
0.0
  0
LINE
  5
17B
330
1F
100
AcDbEntity
  8
0-0
  6
JWW_DASHED1
 62
   120
370
     5
100
AcDbLine
 10
-661.4701492537406
 20
165.1765036679245
 30
0.0
 11
-88.47014925374168
 21
165.1765036679245
 31
0.0
  0
LINE
  5
17C
330
1F
100
AcDbEntity
  8
0-0
  6
JWW_DASHED1
 62
   120
370
     5
100
AcDbLine
 10
-661.4701492537406
 20
178.1765036690246
 30
0.0
 11
-88.47014925374168
 21
178.1765036690246
 31
0.0
  0
LINE
  5
17D
330
1F
100
AcDbEntity
  8
0-0
  6
JWW_DASHED1
 62
   120
370
     5
100
AcDbLine
 10
-661.4701492537406
 20
179.1765036689247
 30
0.0
 11
-88.47014925374168
 21
179.1765036689247
 31
0.0
  0
LINE
  5
17E
330
1F
100
AcDbEntity
  8
0-0
  6
JWW_DASHED1
 62
   120
370
     5
100
AcDbLine
 10
-661.4701492537406
 20
192.1765036700243
 30
0.0
 11
-88.47014925374168
 21
192.1765036700243
 31
0.0
  0
LINE
  5
17F
330
1F
100
AcDbEntity
  8
0-0
  6
JWW_DASHED1
 62
   120
370
     5
100
AcDbLine
 10
-661.4701492537406
 20
193.1765036699245
 30
0.0
 11
-88.47014925374168
 21
193.1765036699245
 31
0.0
  0
LINE
  5
180
330
1F
100
AcDbEntity
  8
0-0
  6
JWW_DASHED1
 62
   120
370
     5
100
AcDbLine
 10
-661.4701492537406
 20
206.1765036710246
 30
0.0
 11
-88.47014925374168
 21
206.1765036710246
 31
0.0
  0
LINE
  5
181
330
1F
100
AcDbEntity
  8
0-0
  6
JWW_DASHED1
 62
   120
370
     5
100
AcDbLine
 10
-661.4701492537406
 20
207.1765036709247
 30
0.0
 11
-88.47014925374168
 21
207.1765036709247
 31
0.0
  0
LINE
  5
182
330
1F
100
AcDbEntity
  8
0-0
  6
JWW_DASHED1
 62
   120
370
     5
100
AcDbLine
 10
-661.4701492537406
 20
220.1765036720244
 30
0.0
 11
-88.47014925374168
 21
220.1765036720244
 31
0.0
  0
LINE
  5
183
330
1F
100
AcDbEntity
  8
0-0
  6
JWW_DASHED1
 62
   120
370
     5
100
AcDbLine
 10
-661.4701492537406
 20
221.1765036719245
 30
0.0
 11
-88.47014925374168
 21
221.1765036719245
 31
0.0
  0
LINE
  5
184
330
1F
100
AcDbEntity
  8
0-0
  6
JWW_DASHED1
 62
   120
370
     5
100
AcDbLine
 10
-661.4701492537406
 20
234.1765036730246
 30
0.0
 11
-88.47014925374168
 21
234.1765036730246
 31
0.0
  0
LINE
  5
185
330
1F
100
AcDbEntity
  8
0-0
  6
JWW_DASHED1
 62
   120
370
     5
100
AcDbLine
 10
-661.4701492537406
 20
235.1765036729243
 30
0.0
 11
-88.47014925374168
 21
235.1765036729243
 31
0.0
  0
LINE
  5
186
330
1F
100
AcDbEntity
  8
0-0
  6
JWW_DASHED1
 62
   120
370
     5
100
AcDbLine
 10
-661.4701492537406
 20
248.1765036740244
 30
0.0
 11
-88.47014925374168
 21
248.1765036740244
 31
0.0
  0
LINE
  5
187
330
1F
100
AcDbEntity
  8
0-0
  6
JWW_DASHED1
 62
   120
370
     5
100
AcDbLine
 10
-661.4701492537406
 20
249.1765036739245
 30
0.0
 11
-88.47014925374168
 21
249.1765036739245
 31
0.0
  0
LINE
  5
188
330
1F
100
AcDbEntity
  8
0-0
  6
JWW_DASHED1
 62
   120
370
     5
100
AcDbLine
 10
-661.4701492537406
 20
262.1765036750246
 30
0.0
 11
-88.47014925374168
 21
262.1765036750246
 31
0.0
  0
LINE
  5
189
330
1F
100
AcDbEntity
  8
0-0
  6
JWW_DASHED1
 62
   120
370
     5
100
AcDbLine
 10
-661.4701492537406
 20
263.1765036749248
 30
0.0
 11
-88.47014925374168
 21
263.1765036749248
 31
0.0
  0
LINE
  5
18A
330
1F
100
AcDbEntity
  8
0-0
  6
JWW_DASHED1
 62
   120
370
     5
100
AcDbLine
 10
-661.4701492537406
 20
276.1765036760244
 30
0.0
 11
-88.47014925374168
 21
276.1765036760244
 31
0.0
  0
LINE
  5
18B
330
1F
100
AcDbEntity
  8
0-0
  6
JWW_DASHED1
 62
   120
370
     5
100
AcDbLine
 10
-661.4701492537406
 20
277.1765036759246
 30
0.0
 11
-88.47014925374168
 21
277.1765036759246
 31
0.0
  0
LINE
  5
18C
330
1F
100
AcDbEntity
  8
0-0
  6
JWW_DASHED1
 62
   120
370
     5
100
AcDbLine
 10
-661.4701492537406
 20
290.1765036770246
 30
0.0
 11
-88.47014925374168
 21
290.1765036770246
 31
0.0
  0
LINE
  5
18D
330
1F
100
AcDbEntity
  8
0-0
  6
JWW_DASHED1
 62
   120
370
     5
100
AcDbLine
 10
-661.4701492537406
 20
291.1765036769243
 30
0.0
 11
-88.47014925374168
 21
291.1765036769243
 31
0.0
  0
LINE
  5
18E
330
1F
100
AcDbEntity
  8
0-0
  6
JWW_DASHED1
 62
   120
370
     5
100
AcDbLine
 10
-661.4701492537406
 20
304.1765036780243
 30
0.0
 11
-88.47014925374168
 21
304.1765036780243
 31
0.0
  0
LINE
  5
18F
330
1F
100
AcDbEntity
  8
0-0
  6
JWW_DASHED1
 62
   120
370
     5
100
AcDbLine
 10
-661.4701492537406
 20
305.1765036779245
 30
0.0
 11
-88.47014925374168
 21
305.1765036779245
 31
0.0
  0
LINE
  5
190
330
1F
100
AcDbEntity
  8
0-0
  6
JWW_DASHED1
 62
   120
370
     5
100
AcDbLine
 10
-661.4701492537406
 20
318.1765036790246
 30
0.0
 11
-88.47014925374168
 21
318.1765036790246
 31
0.0
  0
LINE
  5
191
330
1F
100
AcDbEntity
  8
0-0
  6
JWW_DASHED1
 62
   120
370
     5
100
AcDbLine
 10
-661.4701492537406
 20
319.1765036789247
 30
0.0
 11
-88.47014925374168
 21
319.1765036789247
 31
0.0
  0
LINE
  5
192
330
1F
100
AcDbEntity
  8
0-0
  6
JWW_DASHED1
 62
   120
370
     5
100
AcDbLine
 10
-661.4701492537406
 20
332.1765036800244
 30
0.0
 11
-88.47014925374168
 21
332.1765036800244
 31
0.0
  0
LINE
  5
193
330
1F
100
AcDbEntity
  8
0-0
  6
JWW_DASHED1
 62
   120
370
     5
100
AcDbLine
 10
-661.4701492537406
 20
333.1765036799246
 30
0.0
 11
-88.47014925374168
 21
333.1765036799246
 31
0.0
  0
LINE
  5
194
330
1F
100
AcDbEntity
  8
0-0
  6
JWW_DASHED1
 62
   120
370
     5
100
AcDbLine
 10
-661.4701492537406
 20
346.1765036810246
 30
0.0
 11
-88.47014925374168
 21
346.1765036810246
 31
0.0
  0
LINE
  5
195
330
1F
100
AcDbEntity
  8
0-0
  6
JWW_DASHED1
 62
   120
370
     5
100
AcDbLine
 10
-661.4701492537406
 20
347.1765036809244
 30
0.0
 11
-88.47014925374168
 21
347.1765036809244
 31
0.0
  0
LINE
  5
196
330
1F
100
AcDbEntity
  8
0-0
  6
JWW_DASHED1
 62
   120
370
     5
100
AcDbLine
 10
-661.4701492537406
 20
360.1765036820244
 30
0.0
 11
-88.47014925374168
 21
360.1765036820244
 31
0.0
  0
LINE
  5
197
330
1F
100
AcDbEntity
  8
0-0
  6
JWW_DASHED1
 62
   120
370
     5
100
AcDbLine
 10
-661.4701492537406
 20
361.1765036819246
 30
0.0
 11
-88.47014925374168
 21
361.1765036819246
 31
0.0
  0
LINE
  5
198
330
1F
100
AcDbEntity
  8
0-0
  6
JWW_DASHED1
 62
   120
370
     5
100
AcDbLine
 10
-661.4701492537406
 20
374.1765036830246
 30
0.0
 11
-88.47014925374168
 21
374.1765036830246
 31
0.0
  0
LINE
  5
199
330
1F
100
AcDbEntity
  8
0-0
  6
JWW_DASHED1
 62
   120
370
     5
100
AcDbLine
 10
-661.4701492537406
 20
375.1765036829248
 30
0.0
 11
-88.47014925374168
 21
375.1765036829248
 31
0.0
  0
LINE
  5
19A
330
1F
100
AcDbEntity
  8
0-0
  6
JWW_DASHED1
 62
   120
370
     5
100
AcDbLine
 10
-661.4701492537406
 20
388.1765036840244
 30
0.0
 11
-88.47014925374168
 21
388.1765036840244
 31
0.0
  0
LINE
  5
19B
330
1F
100
AcDbEntity
  8
0-0
  6
JWW_DASHED1
 62
   120
370
     5
100
AcDbLine
 10
-661.4701492537406
 20
389.1765036839246
 30
0.0
 11
-88.47014925374168
 21
389.1765036839246
 31
0.0
  0
LINE
  5
19C
330
1F
100
AcDbEntity
  8
0-0
  6
JWW_DASHED1
 62
   120
370
     5
100
AcDbLine
 10
-661.4701492537406
 20
402.1765036850246
 30
0.0
 11
-88.47014925374168
 21
402.1765036850246
 31
0.0
  0
LINE
  5
19D
330
1F
100
AcDbEntity
  8
0-0
  6
JWW_DASHED1
 62
   120
370
     5
100
AcDbLine
 10
-661.4701492537406
 20
403.1765036849243
 30
0.0
 11
-88.47014925374168
 21
403.1765036849243
 31
0.0
  0
LINE
  5
19E
330
1F
100
AcDbEntity
  8
0-0
  6
JWW_DASHED1
 62
   120
370
     5
100
AcDbLine
 10
-661.4701492537406
 20
416.1765036860244
 30
0.0
 11
-88.47014925374168
 21
416.1765036860244
 31
0.0
  0
LINE
  5
19F
330
1F
100
AcDbEntity
  8
0-0
  6
JWW_DASHED1
 62
   120
370
     5
100
AcDbLine
 10
-661.4701492537406
 20
417.1765036859246
 30
0.0
 11
-88.47014925374168
 21
417.1765036859246
 31
0.0
  0
LINE
  5
1A0
330
1F
100
AcDbEntity
  8
0-0
  6
JWW_DASHED1
 62
   120
370
     5
100
AcDbLine
 10
-661.4701492537406
 20
430.1765036870246
 30
0.0
 11
-88.47014925374168
 21
430.1765036870246
 31
0.0
  0
LINE
  5
1A1
330
1F
100
AcDbEntity
  8
0-0
  6
JWW_DASHED1
 62
   120
370
     5
100
AcDbLine
 10
-661.4701492537406
 20
431.1765036869244
 30
0.0
 11
-88.47014925374168
 21
431.1765036869244
 31
0.0
  0
LINE
  5
1A2
330
1F
100
AcDbEntity
  8
0-0
  6
JWW_DASHED1
 62
   120
370
     5
100
AcDbLine
 10
-661.4701492537406
 20
444.1765036880244
 30
0.0
 11
-88.47014925374168
 21
444.1765036880244
 31
0.0
  0
LINE
  5
1A3
330
1F
100
AcDbEntity
  8
0-0
  6
JWW_DASHED1
 62
   120
370
     5
100
AcDbLine
 10
-661.4701492537406
 20
445.1765036879246
 30
0.0
 11
-88.47014925374168
 21
445.1765036879246
 31
0.0
  0
LINE
  5
1A4
330
1F
100
AcDbEntity
  8
0-0
  6
JWW_DASHED1
 62
   120
370
     5
100
AcDbLine
 10
-661.4701492537406
 20
458.1765036890246
 30
0.0
 11
-88.47014925374168
 21
458.1765036890246
 31
0.0
  0
LINE
  5
1A5
330
1F
100
AcDbEntity
  8
0-0
  6
JWW_DASHED1
 62
   120
370
     5
100
AcDbLine
 10
-661.4701492537406
 20
459.1765036889244
 30
0.0
 11
-88.47014925374168
 21
459.1765036889244
 31
0.0
  0
LINE
  5
1A6
330
1F
100
AcDbEntity
  8
0-0
  6
JWW_DASHED1
 62
   120
370
     5
100
AcDbLine
 10
-661.4701492537406
 20
472.1765036900244
 30
0.0
 11
-88.47014925374168
 21
472.1765036900244
 31
0.0
  0
LINE
  5
1A7
330
1F
100
AcDbEntity
  8
0-0
  6
JWW_DASHED1
 62
   120
370
     5
100
AcDbLine
 10
-661.4701492537406
 20
473.1765036899246
 30
0.0
 11
-88.47014925374168
 21
473.1765036899246
 31
0.0
  0
LINE
  5
1A8
330
1F
100
AcDbEntity
  8
0-0
  6
JWW_DASHED1
 62
   120
370
     5
100
AcDbLine
 10
-661.4701492537406
 20
486.1765036910247
 30
0.0
 11
-88.47014925374168
 21
486.1765036910247
 31
0.0
  0
LINE
  5
1A9
330
1F
100
AcDbEntity
  8
0-0
  6
JWW_DASHED1
 62
   120
370
     5
100
AcDbLine
 10
-661.4701492537406
 20
487.1765036909244
 30
0.0
 11
-88.47014925374168
 21
487.1765036909244
 31
0.0
  0
LINE
  5
1AA
330
1F
100
AcDbEntity
  8
0-0
  6
JWW_DASHED1
 62
   120
370
     5
100
AcDbLine
 10
-661.4701492537406
 20
500.1765036920244
 30
0.0
 11
-88.47014925374168
 21
500.1765036920244
 31
0.0
  0
LINE
  5
1AB
330
1F
100
AcDbEntity
  8
0-0
  6
JWW_DASHED1
 62
   120
370
     5
100
AcDbLine
 10
-661.4701492537406
 20
501.1765036919246
 30
0.0
 11
-88.47014925374168
 21
501.1765036919246
 31
0.0
  0
LINE
  5
1AC
330
1F
100
AcDbEntity
  8
0-0
  6
JWW_DASHED1
 62
   120
370
     5
100
AcDbLine
 10
-661.4701492537406
 20
514.1765036930246
 30
0.0
 11
-88.47014925374168
 21
514.1765036930246
 31
0.0
  0
LINE
  5
1AD
330
1F
100
AcDbEntity
  8
0-0
  6
JWW_DASHED1
 62
   120
370
     5
100
AcDbLine
 10
-661.4701492537406
 20
515.1765036929244
 30
0.0
 11
-88.47014925374168
 21
515.1765036929244
 31
0.0
  0
LINE
  5
1AE
330
1F
100
AcDbEntity
  8
0-0
  6
JWW_DASHED1
 62
   120
370
     5
100
AcDbLine
 10
-661.4701492537406
 20
528.1765036940244
 30
0.0
 11
-88.47014925374168
 21
528.1765036940244
 31
0.0
  0
LINE
  5
1AF
330
1F
100
AcDbEntity
  8
0-0
  6
JWW_DASHED1
 62
   120
370
     5
100
AcDbLine
 10
-661.4701492537406
 20
529.1765036939246
 30
0.0
 11
-88.47014925374168
 21
529.1765036939246
 31
0.0
  0
LINE
  5
1B0
330
1F
100
AcDbEntity
  8
0-0
  6
JWW_DASHED1
 62
   120
370
     5
100
AcDbLine
 10
-661.4701492537406
 20
542.1765036950246
 30
0.0
 11
-88.47014925374168
 21
542.1765036950246
 31
0.0
  0
LINE
  5
1B1
330
1F
100
AcDbEntity
  8
0-0
  6
JWW_DASHED1
 62
   120
370
     5
100
AcDbLine
 10
-661.4701492537406
 20
543.1765036949243
 30
0.0
 11
-88.47014925374168
 21
543.1765036949243
 31
0.0
  0
LINE
  5
1B2
330
1F
100
AcDbEntity
  8
0-0
  6
JWW_DASHED1
 62
   120
370
     5
100
AcDbLine
 10
-661.4701492537406
 20
556.1765036960244
 30
0.0
 11
-88.47014925374168
 21
556.1765036960244
 31
0.0
  0
LINE
  5
1B3
330
1F
100
AcDbEntity
  8
0-0
  6
JWW_DASHED1
 62
   120
370
     5
100
AcDbLine
 10
-661.4701492537406
 20
557.1765036959246
 30
0.0
 11
-88.47014925374168
 21
557.1765036959246
 31
0.0
  0
LINE
  5
1B4
330
1F
100
AcDbEntity
  8
0-0
  6
JWW_DASHED1
 62
   120
370
     5
100
AcDbLine
 10
-661.4701492537406
 20
570.1765036970246
 30
0.0
 11
-88.47014925374168
 21
570.1765036970246
 31
0.0
  0
LINE
  5
1B5
330
1F
100
AcDbEntity
  8
0-0
  6
JWW_DASHED1
 62
   120
370
     5
100
AcDbLine
 10
-661.4701492537406
 20
571.1765036969244
 30
0.0
 11
-88.47014925374168
 21
571.1765036969244
 31
0.0
  0
LINE
  5
1B6
330
1F
100
AcDbEntity
  8
0-0
  6
JWW_DASHED1
 62
   120
370
     5
100
AcDbLine
 10
-661.4701492537406
 20
584.1765036980245
 30
0.0
 11
-88.47014925374168
 21
584.1765036980245
 31
0.0
  0
LINE
  5
1B7
330
1F
100
AcDbEntity
  8
0-0
  6
JWW_DASHED1
 62
   120
370
     5
100
AcDbLine
 10
-661.4701492537406
 20
585.1765036979247
 30
0.0
 11
-88.47014925374168
 21
585.1765036979247
 31
0.0
  0
LINE
  5
1B8
330
1F
100
AcDbEntity
  8
0-0
  6
JWW_DASHED1
 62
   120
370
     5
100
AcDbLine
 10
-661.4701492537406
 20
598.1765036990247
 30
0.0
 11
-88.47014925374168
 21
598.1765036990247
 31
0.0
  0
LINE
  5
1B9
330
1F
100
AcDbEntity
  8
0-0
  6
JWW_DASHED1
 62
   120
370
     5
100
AcDbLine
 10
-661.4701492537406
 20
599.1765036989244
 30
0.0
 11
-88.47014925374168
 21
599.1765036989244
 31
0.0
  0
LINE
  5
1BA
330
1F
100
AcDbEntity
  8
0-0
  6
JWW_DASHED1
 62
   120
370
     5
100
AcDbLine
 10
-661.4701492537406
 20
612.1765037000245
 30
0.0
 11
-88.47014925374168
 21
612.1765037000245
 31
0.0
  0
LINE
  5
1BB
330
1F
100
AcDbEntity
  8
0-0
  6
JWW_DASHED1
 62
   120
370
     5
100
AcDbLine
 10
-661.4701492537406
 20
613.1765036999246
 30
0.0
 11
-88.47014925374168
 21
613.1765036999246
 31
0.0
  0
LINE
  5
1BC
330
1F
100
AcDbEntity
  8
0-0
  6
JWW_DASHED1
 62
   120
370
     5
100
AcDbLine
 10
-661.4701492537406
 20
626.1765037010247
 30
0.0
 11
-88.47014925374168
 21
626.1765037010247
 31
0.0
  0
LINE
  5
1BD
330
1F
100
AcDbEntity
  8
0-0
  6
JWW_DASHED1
 62
   120
370
     5
100
AcDbLine
 10
-661.4701492537406
 20
627.1765037009244
 30
0.0
 11
-88.47014925374168
 21
627.1765037009244
 31
0.0
  0
LINE
  5
1BE
330
1F
100
AcDbEntity
  8
0-0
  6
JWW_DASHED1
 62
   120
370
     5
100
AcDbLine
 10
-661.4701492537406
 20
640.1765037020244
 30
0.0
 11
-88.47014925374168
 21
640.1765037020244
 31
0.0
  0
LINE
  5
1BF
330
1F
100
AcDbEntity
  8
0-0
  6
JWW_DASHED1
 62
   120
370
     5
100
AcDbLine
 10
-661.4701492537406
 20
641.1765037019246
 30
0.0
 11
-88.47014925374168
 21
641.1765037019246
 31
0.0
  0
LINE
  5
1C0
330
1F
100
AcDbEntity
  8
0-0
  6
JWW_DASHED1
 62
   120
370
     5
100
AcDbLine
 10
-661.4701492537406
 20
654.1765037030247
 30
0.0
 11
-88.47014925374168
 21
654.1765037030247
 31
0.0
  0
LINE
  5
1C1
330
1F
100
AcDbEntity
  8
0-0
  6
JWW_DASHED1
 62
   120
370
     5
100
AcDbLine
 10
-661.4701492537406
 20
655.1765037029245
 30
0.0
 11
-88.47014925374168
 21
655.1765037029245
 31
0.0
  0
LINE
  5
1C2
330
1F
100
AcDbEntity
  8
0-0
  6
JWW_DASHED1
 62
   120
370
     5
100
AcDbLine
 10
-661.4701492537406
 20
668.1765037040245
 30
0.0
 11
-88.47014925374168
 21
668.1765037040245
 31
0.0
  0
LINE
  5
1C3
330
1F
100
AcDbEntity
  8
0-0
  6
JWW_DASHED1
 62
   120
370
     5
100
AcDbLine
 10
-661.4701492537406
 20
669.1765037039247
 30
0.0
 11
-88.47014925374168
 21
669.1765037039247
 31
0.0
  0
LINE
  5
1C4
330
1F
100
AcDbEntity
  8
0-0
  6
JWW_DASHED1
 62
   120
370
     5
100
AcDbLine
 10
-661.4701492537406
 20
682.1765037050247
 30
0.0
 11
-88.47014925374168
 21
682.1765037050247
 31
0.0
  0
LINE
  5
1C5
330
1F
100
AcDbEntity
  8
0-0
  6
JWW_DASHED1
 62
   120
370
     5
100
AcDbLine
 10
-661.4701492537406
 20
683.1765037049245
 30
0.0
 11
-88.47014925374168
 21
683.1765037049245
 31
0.0
  0
LINE
  5
1C6
330
1F
100
AcDbEntity
  8
0-0
  6
JWW_DASHED1
 62
   120
370
     5
100
AcDbLine
 10
-661.4701492537406
 20
696.1765037060245
 30
0.0
 11
-88.47014925374168
 21
696.1765037060245
 31
0.0
  0
LINE
  5
1C7
330
1F
100
AcDbEntity
  8
0-0
  6
JWW_DASHED1
 62
   120
370
     5
100
AcDbLine
 10
-661.4701492537406
 20
697.1765037059247
 30
0.0
 11
-88.47014925374168
 21
697.1765037059247
 31
0.0
  0
LINE
  5
1C8
330
1F
100
AcDbEntity
  8
0-0
  6
JWW_DASHED1
 62
   120
370
     5
100
AcDbLine
 10
-661.4701492537406
 20
710.1765037070247
 30
0.0
 11
-88.47014925374168
 21
710.1765037070247
 31
0.0
  0
LINE
  5
1C9
330
1F
100
AcDbEntity
  8
0-0
  6
JWW_DASHED1
 62
   120
370
     5
100
AcDbLine
 10
-661.4701492537406
 20
711.1765037069244
 30
0.0
 11
-88.47014925374168
 21
711.1765037069244
 31
0.0
  0
LINE
  5
1CA
330
1F
100
AcDbEntity
  8
0-0
  6
JWW_DASHED1
 62
   120
370
     5
100
AcDbLine
 10
-661.4701492537406
 20
724.1765037080245
 30
0.0
 11
-88.47014925374168
 21
724.1765037080245
 31
0.0
  0
LINE
  5
1CB
330
1F
100
AcDbEntity
  8
0-0
  6
JWW_DASHED1
 62
   120
370
     5
100
AcDbLine
 10
-661.4701492537406
 20
725.1765037079247
 30
0.0
 11
-88.47014925374168
 21
725.1765037079247
 31
0.0
  0
LINE
  5
1CC
330
1F
100
AcDbEntity
  8
0-0
  6
JWW_DASHED1
 62
   120
370
     5
100
AcDbLine
 10
-661.4701492537406
 20
738.1765037090247
 30
0.0
 11
-88.47014925374168
 21
738.1765037090247
 31
0.0
  0
LINE
  5
1CD
330
1F
100
AcDbEntity
  8
0-0
  6
JWW_DASHED1
 62
   120
370
     5
100
AcDbLine
 10
-661.4701492537406
 20
739.1765037089244
 30
0.0
 11
-88.47014925374168
 21
739.1765037089244
 31
0.0
  0
LINE
  5
1CE
330
1F
100
AcDbEntity
  8
0-0
  6
JWW_DASHED1
 62
   120
370
     5
100
AcDbLine
 10
-661.4701492537406
 20
752.1765037100245
 30
0.0
 11
-88.47014925374168
 21
752.1765037100245
 31
0.0
  0
LINE
  5
1CF
330
1F
100
AcDbEntity
  8
0-0
  6
JWW_DASHED1
 62
   120
370
     5
100
AcDbLine
 10
-661.4701492537406
 20
753.1765037099246
 30
0.0
 11
-88.47014925374168
 21
753.1765037099246
 31
0.0
  0
LINE
  5
1D0
330
1F
100
AcDbEntity
  8
0-0
  6
JWW_DASHED1
 62
   120
370
     5
100
AcDbLine
 10
-661.4701492537406
 20
766.1765037110247
 30
0.0
 11
-88.47014925374168
 21
766.1765037110247
 31
0.0
  0
LINE
  5
1D1
330
1F
100
AcDbEntity
  8
0-0
  6
JWW_DASHED1
 62
   120
370
     5
100
AcDbLine
 10
-661.4701492537406
 20
767.1765037109244
 30
0.0
 11
-88.47014925374168
 21
767.1765037109244
 31
0.0
  0
LINE
  5
1D2
330
1F
100
AcDbEntity
  8
0-0
  6
JWW_DASHED1
 62
   120
370
     5
100
AcDbLine
 10
-661.4701492537406
 20
780.1765037120244
 30
0.0
 11
-88.47014925374168
 21
780.1765037120244
 31
0.0
  0
LINE
  5
1D3
330
1F
100
AcDbEntity
  8
0-0
  6
JWW_DASHED1
 62
   120
370
     5
100
AcDbLine
 10
-661.4701492537406
 20
781.1765037119246
 30
0.0
 11
-88.47014925374168
 21
781.1765037119246
 31
0.0
  0
LINE
  5
1D4
330
1F
100
AcDbEntity
  8
0-0
  6
JWW_DASHED1
 62
   120
370
     5
100
AcDbLine
 10
685.5298507662088
 20
-519.823496334027
 30
0.0
 11
685.5298507662088
 21
793.1765036659755
 31
0.0
  0
LINE
  5
1D5
330
1F
100
AcDbEntity
  8
0-0
  6
JWW_DASHED1
 62
   120
370
     5
100
AcDbLine
 10
684.5298507663088
 20
-519.823496334027
 30
0.0
 11
684.5298507663088
 21
793.1765036659755
 31
0.0
  0
LINE
  5
1D6
330
1F
100
AcDbEntity
  8
0-0
  6
JWW_DASHED1
 62
   120
370
     5
100
AcDbLine
 10
671.5298507652087
 20
-519.823496334027
 30
0.0
 11
671.5298507652087
 21
793.1765036659755
 31
0.0
  0
LINE
  5
1D7
330
1F
100
AcDbEntity
  8
0-0
  6
JWW_DASHED1
 62
   120
370
     5
100
AcDbLine
 10
670.5298507653088
 20
-519.823496334027
 30
0.0
 11
670.5298507653088
 21
793.1765036659755
 31
0.0
  0
LINE
  5
1D8
330
1F
100
AcDbEntity
  8
0-0
  6
JWW_DASHED1
 62
   120
370
     5
100
AcDbLine
 10
657.5298507642087
 20
-519.823496334027
 30
0.0
 11
657.5298507642087
 21
793.1765036659755
 31
0.0
  0
LINE
  5
1D9
330
1F
100
AcDbEntity
  8
0-0
  6
JWW_DASHED1
 62
   120
370
     5
100
AcDbLine
 10
656.5298507643088
 20
-519.823496334027
 30
0.0
 11
656.5298507643088
 21
793.1765036659755
 31
0.0
  0
LINE
  5
1DA
330
1F
100
AcDbEntity
  8
0-0
  6
JWW_DASHED1
 62
   120
370
     5
100
AcDbLine
 10
643.5298507632087
 20
-519.823496334027
 30
0.0
 11
643.5298507632087
 21
793.1765036659755
 31
0.0
  0
LINE
  5
1DB
330
1F
100
AcDbEntity
  8
0-0
  6
JWW_DASHED1
 62
   120
370
     5
100
AcDbLine
 10
642.5298507633088
 20
-519.823496334027
 30
0.0
 11
642.5298507633088
 21
793.1765036659755
 31
0.0
  0
LINE
  5
1DC
330
1F
100
AcDbEntity
  8
0-0
  6
JWW_DASHED1
 62
   120
370
     5
100
AcDbLine
 10
629.5298507622088
 20
-519.823496334027
 30
0.0
 11
629.5298507622088
 21
793.1765036659755
 31
0.0
  0
LINE
  5
1DD
330
1F
100
AcDbEntity
  8
0-0
  6
JWW_DASHED1
 62
   120
370
     5
100
AcDbLine
 10
628.5298507623088
 20
-519.823496334027
 30
0.0
 11
628.5298507623088
 21
793.1765036659755
 31
0.0
  0
LINE
  5
1DE
330
1F
100
AcDbEntity
  8
0-0
  6
JWW_DASHED1
 62
   120
370
     5
100
AcDbLine
 10
615.5298507612088
 20
-519.823496334027
 30
0.0
 11
615.5298507612088
 21
793.1765036659755
 31
0.0
  0
LINE
  5
1DF
330
1F
100
AcDbEntity
  8
0-0
  6
JWW_DASHED1
 62
   120
370
     5
100
AcDbLine
 10
614.5298507613088
 20
-519.823496334027
 30
0.0
 11
614.5298507613088
 21
793.1765036659755
 31
0.0
  0
LINE
  5
1E0
330
1F
100
AcDbEntity
  8
0-0
  6
JWW_DASHED1
 62
   120
370
     5
100
AcDbLine
 10
601.5298507602088
 20
-519.823496334027
 30
0.0
 11
601.5298507602088
 21
793.1765036659755
 31
0.0
  0
LINE
  5
1E1
330
1F
100
AcDbEntity
  8
0-0
  6
JWW_DASHED1
 62
   120
370
     5
100
AcDbLine
 10
600.5298507603088
 20
-519.823496334027
 30
0.0
 11
600.5298507603088
 21
793.1765036659755
 31
0.0
  0
LINE
  5
1E2
330
1F
100
AcDbEntity
  8
0-0
  6
JWW_DASHED1
 62
   120
370
     5
100
AcDbLine
 10
587.5298507592088
 20
-519.823496334027
 30
0.0
 11
587.5298507592088
 21
793.1765036659755
 31
0.0
  0
LINE
  5
1E3
330
1F
100
AcDbEntity
  8
0-0
  6
JWW_DASHED1
 62
   120
370
     5
100
AcDbLine
 10
586.5298507593088
 20
-519.823496334027
 30
0.0
 11
586.5298507593088
 21
793.1765036659755
 31
0.0
  0
LINE
  5
1E4
330
1F
100
AcDbEntity
  8
0-0
  6
JWW_DASHED1
 62
   120
370
     5
100
AcDbLine
 10
573.5298507582088
 20
-519.823496334027
 30
0.0
 11
573.5298507582088
 21
793.1765036659755
 31
0.0
  0
LINE
  5
1E5
330
1F
100
AcDbEntity
  8
0-0
  6
JWW_DASHED1
 62
   120
370
     5
100
AcDbLine
 10
572.5298507583088
 20
-519.823496334027
 30
0.0
 11
572.5298507583088
 21
793.1765036659755
 31
0.0
  0
LINE
  5
1E6
330
1F
100
AcDbEntity
  8
0-0
  6
JWW_DASHED1
 62
   120
370
     5
100
AcDbLine
 10
559.5298507572088
 20
-519.823496334027
 30
0.0
 11
559.5298507572088
 21
793.1765036659755
 31
0.0
  0
LINE
  5
1E7
330
1F
100
AcDbEntity
  8
0-0
  6
JWW_DASHED1
 62
   120
370
     5
100
AcDbLine
 10
558.5298507573087
 20
-519.823496334027
 30
0.0
 11
558.5298507573087
 21
793.1765036659755
 31
0.0
  0
LINE
  5
1E8
330
1F
100
AcDbEntity
  8
0-0
  6
JWW_DASHED1
 62
   120
370
     5
100
AcDbLine
 10
545.5298507562087
 20
-519.823496334027
 30
0.0
 11
545.5298507562087
 21
793.1765036659755
 31
0.0
  0
LINE
  5
1E9
330
1F
100
AcDbEntity
  8
0-0
  6
JWW_DASHED1
 62
   120
370
     5
100
AcDbLine
 10
544.5298507563087
 20
-519.823496334027
 30
0.0
 11
544.5298507563087
 21
793.1765036659755
 31
0.0
  0
LINE
  5
1EA
330
1F
100
AcDbEntity
  8
0-0
  6
JWW_DASHED1
 62
   120
370
     5
100
AcDbLine
 10
531.5298507552087
 20
-519.823496334027
 30
0.0
 11
531.5298507552087
 21
793.1765036659755
 31
0.0
  0
LINE
  5
1EB
330
1F
100
AcDbEntity
  8
0-0
  6
JWW_DASHED1
 62
   120
370
     5
100
AcDbLine
 10
530.5298507553088
 20
-519.823496334027
 30
0.0
 11
530.5298507553088
 21
793.1765036659755
 31
0.0
  0
LINE
  5
1EC
330
1F
100
AcDbEntity
  8
0-0
  6
JWW_DASHED1
 62
   120
370
     5
100
AcDbLine
 10
517.5298507542087
 20
-519.823496334027
 30
0.0
 11
517.5298507542087
 21
793.1765036659755
 31
0.0
  0
LINE
  5
1ED
330
1F
100
AcDbEntity
  8
0-0
  6
JWW_DASHED1
 62
   120
370
     5
100
AcDbLine
 10
516.5298507543088
 20
-519.823496334027
 30
0.0
 11
516.5298507543088
 21
793.1765036659755
 31
0.0
  0
LINE
  5
1EE
330
1F
100
AcDbEntity
  8
0-0
  6
JWW_DASHED1
 62
   120
370
     5
100
AcDbLine
 10
503.5298507532087
 20
-519.823496334027
 30
0.0
 11
503.5298507532087
 21
793.1765036659755
 31
0.0
  0
LINE
  5
1EF
330
1F
100
AcDbEntity
  8
0-0
  6
JWW_DASHED1
 62
   120
370
     5
100
AcDbLine
 10
502.5298507533088
 20
-519.823496334027
 30
0.0
 11
502.5298507533088
 21
793.1765036659755
 31
0.0
  0
LINE
  5
1F0
330
1F
100
AcDbEntity
  8
0-0
  6
JWW_DASHED1
 62
   120
370
     5
100
AcDbLine
 10
489.5298507522087
 20
-519.823496334027
 30
0.0
 11
489.5298507522087
 21
793.1765036659755
 31
0.0
  0
LINE
  5
1F1
330
1F
100
AcDbEntity
  8
0-0
  6
JWW_DASHED1
 62
   120
370
     5
100
AcDbLine
 10
488.5298507523088
 20
-519.823496334027
 30
0.0
 11
488.5298507523088
 21
793.1765036659755
 31
0.0
  0
LINE
  5
1F2
330
1F
100
AcDbEntity
  8
0-0
  6
JWW_DASHED1
 62
   120
370
     5
100
AcDbLine
 10
475.5298507512088
 20
-519.823496334027
 30
0.0
 11
475.5298507512088
 21
793.1765036659755
 31
0.0
  0
LINE
  5
1F3
330
1F
100
AcDbEntity
  8
0-0
  6
JWW_DASHED1
 62
   120
370
     5
100
AcDbLine
 10
474.5298507513087
 20
-519.823496334027
 30
0.0
 11
474.5298507513087
 21
793.1765036659755
 31
0.0
  0
LINE
  5
1F4
330
1F
100
AcDbEntity
  8
0-0
  6
JWW_DASHED1
 62
   120
370
     5
100
AcDbLine
 10
461.5298507502087
 20
-519.823496334027
 30
0.0
 11
461.5298507502087
 21
793.1765036659755
 31
0.0
  0
LINE
  5
1F5
330
1F
100
AcDbEntity
  8
0-0
  6
JWW_DASHED1
 62
   120
370
     5
100
AcDbLine
 10
460.5298507503088
 20
-519.823496334027
 30
0.0
 11
460.5298507503088
 21
793.1765036659755
 31
0.0
  0
LINE
  5
1F6
330
1F
100
AcDbEntity
  8
0-0
  6
JWW_DASHED1
 62
   120
370
     5
100
AcDbLine
 10
447.5298507492087
 20
-519.823496334027
 30
0.0
 11
447.5298507492087
 21
793.1765036659755
 31
0.0
  0
LINE
  5
1F7
330
1F
100
AcDbEntity
  8
0-0
  6
JWW_DASHED1
 62
   120
370
     5
100
AcDbLine
 10
446.5298507493088
 20
-519.823496334027
 30
0.0
 11
446.5298507493088
 21
793.1765036659755
 31
0.0
  0
LINE
  5
1F8
330
1F
100
AcDbEntity
  8
0-0
  6
JWW_DASHED1
 62
   120
370
     5
100
AcDbLine
 10
433.5298507482087
 20
-519.823496334027
 30
0.0
 11
433.5298507482087
 21
793.1765036659755
 31
0.0
  0
LINE
  5
1F9
330
1F
100
AcDbEntity
  8
0-0
  6
JWW_DASHED1
 62
   120
370
     5
100
AcDbLine
 10
432.5298507483087
 20
-519.823496334027
 30
0.0
 11
432.5298507483087
 21
793.1765036659755
 31
0.0
  0
LINE
  5
1FA
330
1F
100
AcDbEntity
  8
0-0
  6
JWW_DASHED1
 62
   120
370
     5
100
AcDbLine
 10
419.5298507472087
 20
-519.823496334027
 30
0.0
 11
419.5298507472087
 21
793.1765036659755
 31
0.0
  0
LINE
  5
1FB
330
1F
100
AcDbEntity
  8
0-0
  6
JWW_DASHED1
 62
   120
370
     5
100
AcDbLine
 10
418.5298507473087
 20
-519.823496334027
 30
0.0
 11
418.5298507473087
 21
793.1765036659755
 31
0.0
  0
LINE
  5
1FC
330
1F
100
AcDbEntity
  8
0-0
  6
JWW_DASHED1
 62
   120
370
     5
100
AcDbLine
 10
405.5298507462087
 20
-519.823496334027
 30
0.0
 11
405.5298507462087
 21
793.1765036659755
 31
0.0
  0
LINE
  5
1FD
330
1F
100
AcDbEntity
  8
0-0
  6
JWW_DASHED1
 62
   120
370
     5
100
AcDbLine
 10
404.5298507463087
 20
-519.823496334027
 30
0.0
 11
404.5298507463087
 21
793.1765036659755
 31
0.0
  0
LINE
  5
1FE
330
1F
100
AcDbEntity
  8
0-0
  6
JWW_DASHED1
 62
   120
370
     5
100
AcDbLine
 10
391.5298507452087
 20
-519.823496334027
 30
0.0
 11
391.5298507452087
 21
793.1765036659755
 31
0.0
  0
LINE
  5
1FF
330
1F
100
AcDbEntity
  8
0-0
  6
JWW_DASHED1
 62
   120
370
     5
100
AcDbLine
 10
390.5298507453087
 20
-519.823496334027
 30
0.0
 11
390.5298507453087
 21
793.1765036659755
 31
0.0
  0
LINE
  5
200
330
1F
100
AcDbEntity
  8
0-0
  6
JWW_DASHED1
 62
   120
370
     5
100
AcDbLine
 10
377.5298507442087
 20
-519.823496334027
 30
0.0
 11
377.5298507442087
 21
793.1765036659755
 31
0.0
  0
LINE
  5
201
330
1F
100
AcDbEntity
  8
0-0
  6
JWW_DASHED1
 62
   120
370
     5
100
AcDbLine
 10
376.5298507443088
 20
-519.823496334027
 30
0.0
 11
376.5298507443088
 21
793.1765036659755
 31
0.0
  0
LINE
  5
202
330
1F
100
AcDbEntity
  8
0-0
  6
JWW_DASHED1
 62
   120
370
     5
100
AcDbLine
 10
363.5298507432087
 20
-519.823496334027
 30
0.0
 11
363.5298507432087
 21
793.1765036659755
 31
0.0
  0
LINE
  5
203
330
1F
100
AcDbEntity
  8
0-0
  6
JWW_DASHED1
 62
   120
370
     5
100
AcDbLine
 10
362.5298507433087
 20
-519.823496334027
 30
0.0
 11
362.5298507433087
 21
793.1765036659755
 31
0.0
  0
LINE
  5
204
330
1F
100
AcDbEntity
  8
0-0
  6
JWW_DASHED1
 62
   120
370
     5
100
AcDbLine
 10
349.5298507422087
 20
-519.823496334027
 30
0.0
 11
349.5298507422087
 21
793.1765036659755
 31
0.0
  0
LINE
  5
205
330
1F
100
AcDbEntity
  8
0-0
  6
JWW_DASHED1
 62
   120
370
     5
100
AcDbLine
 10
348.5298507423087
 20
-519.823496334027
 30
0.0
 11
348.5298507423087
 21
793.1765036659755
 31
0.0
  0
LINE
  5
206
330
1F
100
AcDbEntity
  8
0-0
  6
JWW_DASHED1
 62
   120
370
     5
100
AcDbLine
 10
335.5298507412087
 20
-519.823496334027
 30
0.0
 11
335.5298507412087
 21
793.1765036659755
 31
0.0
  0
LINE
  5
207
330
1F
100
AcDbEntity
  8
0-0
  6
JWW_DASHED1
 62
   120
370
     5
100
AcDbLine
 10
334.5298507413087
 20
-519.823496334027
 30
0.0
 11
334.5298507413087
 21
793.1765036659755
 31
0.0
  0
LINE
  5
208
330
1F
100
AcDbEntity
  8
0-0
  6
JWW_DASHED1
 62
   120
370
     5
100
AcDbLine
 10
321.5298507402087
 20
-519.823496334027
 30
0.0
 11
321.5298507402087
 21
793.1765036659755
 31
0.0
  0
LINE
  5
209
330
1F
100
AcDbEntity
  8
0-0
  6
JWW_DASHED1
 62
   120
370
     5
100
AcDbLine
 10
320.5298507403087
 20
-519.823496334027
 30
0.0
 11
320.5298507403087
 21
793.1765036659755
 31
0.0
  0
LINE
  5
20A
330
1F
100
AcDbEntity
  8
0-0
  6
JWW_DASHED1
 62
   120
370
     5
100
AcDbLine
 10
307.5298507392087
 20
-519.823496334027
 30
0.0
 11
307.5298507392087
 21
793.1765036659755
 31
0.0
  0
LINE
  5
20B
330
1F
100
AcDbEntity
  8
0-0
  6
JWW_DASHED1
 62
   120
370
     5
100
AcDbLine
 10
306.5298507393087
 20
-519.823496334027
 30
0.0
 11
306.5298507393087
 21
793.1765036659755
 31
0.0
  0
LINE
  5
20C
330
1F
100
AcDbEntity
  8
0-0
  6
JWW_DASHED1
 62
   120
370
     5
100
AcDbLine
 10
293.5298507382087
 20
-519.823496334027
 30
0.0
 11
293.5298507382087
 21
793.1765036659755
 31
0.0
  0
LINE
  5
20D
330
1F
100
AcDbEntity
  8
0-0
  6
JWW_DASHED1
 62
   120
370
     5
100
AcDbLine
 10
292.5298507383087
 20
-519.823496334027
 30
0.0
 11
292.5298507383087
 21
793.1765036659755
 31
0.0
  0
LINE
  5
20E
330
1F
100
AcDbEntity
  8
0-0
  6
JWW_DASHED1
 62
   120
370
     5
100
AcDbLine
 10
279.5298507372087
 20
-519.823496334027
 30
0.0
 11
279.5298507372087
 21
793.1765036659755
 31
0.0
  0
LINE
  5
20F
330
1F
100
AcDbEntity
  8
0-0
  6
JWW_DASHED1
 62
   120
370
     5
100
AcDbLine
 10
278.5298507373087
 20
-519.823496334027
 30
0.0
 11
278.5298507373087
 21
793.1765036659755
 31
0.0
  0
LINE
  5
210
330
1F
100
AcDbEntity
  8
0-0
  6
JWW_DASHED1
 62
   120
370
     5
100
AcDbLine
 10
265.5298507362089
 20
-519.823496334027
 30
0.0
 11
265.5298507362089
 21
793.1765036659755
 31
0.0
  0
LINE
  5
211
330
1F
100
AcDbEntity
  8
0-0
  6
JWW_DASHED1
 62
   120
370
     5
100
AcDbLine
 10
264.5298507363087
 20
-519.823496334027
 30
0.0
 11
264.5298507363087
 21
793.1765036659755
 31
0.0
  0
LINE
  5
212
330
1F
100
AcDbEntity
  8
0-0
  6
JWW_DASHED1
 62
   120
370
     5
100
AcDbLine
 10
251.5298507352087
 20
-519.823496334027
 30
0.0
 11
251.5298507352087
 21
793.1765036659755
 31
0.0
  0
LINE
  5
213
330
1F
100
AcDbEntity
  8
0-0
  6
JWW_DASHED1
 62
   120
370
     5
100
AcDbLine
 10
250.5298507353087
 20
-519.823496334027
 30
0.0
 11
250.5298507353087
 21
793.1765036659755
 31
0.0
  0
LINE
  5
214
330
1F
100
AcDbEntity
  8
0-0
  6
JWW_DASHED1
 62
   120
370
     5
100
AcDbLine
 10
237.5298507342089
 20
-519.823496334027
 30
0.0
 11
237.5298507342089
 21
793.1765036659755
 31
0.0
  0
LINE
  5
215
330
1F
100
AcDbEntity
  8
0-0
  6
JWW_DASHED1
 62
   120
370
     5
100
AcDbLine
 10
236.5298507343087
 20
-519.823496334027
 30
0.0
 11
236.5298507343087
 21
793.1765036659755
 31
0.0
  0
LINE
  5
216
330
1F
100
AcDbEntity
  8
0-0
  6
JWW_DASHED1
 62
   120
370
     5
100
AcDbLine
 10
223.5298507332087
 20
-519.823496334027
 30
0.0
 11
223.5298507332087
 21
793.1765036659755
 31
0.0
  0
LINE
  5
217
330
1F
100
AcDbEntity
  8
0-0
  6
JWW_DASHED1
 62
   120
370
     5
100
AcDbLine
 10
222.5298507333087
 20
-519.823496334027
 30
0.0
 11
222.5298507333087
 21
793.1765036659755
 31
0.0
  0
LINE
  5
218
330
1F
100
AcDbEntity
  8
0-0
  6
JWW_DASHED1
 62
   120
370
     5
100
AcDbLine
 10
209.5298507322089
 20
-519.823496334027
 30
0.0
 11
209.5298507322089
 21
793.1765036659755
 31
0.0
  0
LINE
  5
219
330
1F
100
AcDbEntity
  8
0-0
  6
JWW_DASHED1
 62
   120
370
     5
100
AcDbLine
 10
208.5298507323087
 20
-519.823496334027
 30
0.0
 11
208.5298507323087
 21
793.1765036659755
 31
0.0
  0
LINE
  5
21A
330
1F
100
AcDbEntity
  8
0-0
  6
JWW_DASHED1
 62
   120
370
     5
100
AcDbLine
 10
195.5298507312087
 20
-519.823496334027
 30
0.0
 11
195.5298507312087
 21
793.1765036659755
 31
0.0
  0
LINE
  5
21B
330
1F
100
AcDbEntity
  8
0-0
  6
JWW_DASHED1
 62
   120
370
     5
100
AcDbLine
 10
194.5298507313087
 20
-519.823496334027
 30
0.0
 11
194.5298507313087
 21
793.1765036659755
 31
0.0
  0
LINE
  5
21C
330
1F
100
AcDbEntity
  8
0-0
  6
JWW_DASHED1
 62
   120
370
     5
100
AcDbLine
 10
181.5298507302089
 20
-519.823496334027
 30
0.0
 11
181.5298507302089
 21
793.1765036659755
 31
0.0
  0
LINE
  5
21D
330
1F
100
AcDbEntity
  8
0-0
  6
JWW_DASHED1
 62
   120
370
     5
100
AcDbLine
 10
180.5298507303087
 20
-519.823496334027
 30
0.0
 11
180.5298507303087
 21
793.1765036659755
 31
0.0
  0
LINE
  5
21E
330
1F
100
AcDbEntity
  8
0-0
  6
JWW_DASHED1
 62
   120
370
     5
100
AcDbLine
 10
167.5298507292086
 20
-519.823496334027
 30
0.0
 11
167.5298507292086
 21
793.1765036659755
 31
0.0
  0
LINE
  5
21F
330
1F
100
AcDbEntity
  8
0-0
  6
JWW_DASHED1
 62
   120
370
     5
100
AcDbLine
 10
166.5298507293087
 20
-519.823496334027
 30
0.0
 11
166.5298507293087
 21
793.1765036659755
 31
0.0
  0
LINE
  5
220
330
1F
100
AcDbEntity
  8
0-0
  6
JWW_DASHED1
 62
   120
370
     5
100
AcDbLine
 10
153.5298507282089
 20
-519.823496334027
 30
0.0
 11
153.5298507282089
 21
793.1765036659755
 31
0.0
  0
LINE
  5
221
330
1F
100
AcDbEntity
  8
0-0
  6
JWW_DASHED1
 62
   120
370
     5
100
AcDbLine
 10
152.5298507283087
 20
-519.823496334027
 30
0.0
 11
152.5298507283087
 21
793.1765036659755
 31
0.0
  0
LINE
  5
222
330
1F
100
AcDbEntity
  8
0-0
  6
JWW_DASHED1
 62
   120
370
     5
100
AcDbLine
 10
139.5298507272086
 20
-519.823496334027
 30
0.0
 11
139.5298507272086
 21
793.1765036659755
 31
0.0
  0
LINE
  5
223
330
1F
100
AcDbEntity
  8
0-0
  6
JWW_DASHED1
 62
   120
370
     5
100
AcDbLine
 10
138.5298507273089
 20
-519.823496334027
 30
0.0
 11
138.5298507273089
 21
793.1765036659755
 31
0.0
  0
LINE
  5
224
330
1F
100
AcDbEntity
  8
0-0
  6
JWW_DASHED1
 62
   120
370
     5
100
AcDbLine
 10
125.5298507262088
 20
-519.823496334027
 30
0.0
 11
125.5298507262088
 21
793.1765036659755
 31
0.0
  0
LINE
  5
225
330
1F
100
AcDbEntity
  8
0-0
  6
JWW_DASHED1
 62
   120
370
     5
100
AcDbLine
 10
124.5298507263087
 20
-519.823496334027
 30
0.0
 11
124.5298507263087
 21
793.1765036659755
 31
0.0
  0
LINE
  5
226
330
1F
100
AcDbEntity
  8
0-0
  6
JWW_DASHED1
 62
   120
370
     5
100
AcDbLine
 10
118.5298507462593
 20
-507.8234963799754
 30
0.0
 11
691.5298507462583
 21
-507.8234963799754
 31
0.0
  0
LINE
  5
227
330
1F
100
AcDbEntity
  8
0-0
  6
JWW_DASHED1
 62
   120
370
     5
100
AcDbLine
 10
118.5298507462593
 20
-506.8234963800757
 30
0.0
 11
691.5298507462583
 21
-506.8234963800757
 31
0.0
  0
LINE
  5
228
330
1F
100
AcDbEntity
  8
0-0
  6
JWW_DASHED1
 62
   120
370
     5
100
AcDbLine
 10
118.5298507462593
 20
-493.8234963789756
 30
0.0
 11
691.5298507462583
 21
-493.8234963789756
 31
0.0
  0
LINE
  5
229
330
1F
100
AcDbEntity
  8
0-0
  6
JWW_DASHED1
 62
   120
370
     5
100
AcDbLine
 10
118.5298507462593
 20
-492.8234963790759
 30
0.0
 11
691.5298507462583
 21
-492.8234963790759
 31
0.0
  0
LINE
  5
22A
330
1F
100
AcDbEntity
  8
0-0
  6
JWW_DASHED1
 62
   120
370
     5
100
AcDbLine
 10
118.5298507462593
 20
-479.8234963779759
 30
0.0
 11
691.5298507462583
 21
-479.8234963779759
 31
0.0
  0
LINE
  5
22B
330
1F
100
AcDbEntity
  8
0-0
  6
JWW_DASHED1
 62
   120
370
     5
100
AcDbLine
 10
118.5298507462593
 20
-478.8234963780757
 30
0.0
 11
691.5298507462583
 21
-478.8234963780757
 31
0.0
  0
LINE
  5
22C
330
1F
100
AcDbEntity
  8
0-0
  6
JWW_DASHED1
 62
   120
370
     5
100
AcDbLine
 10
118.5298507462593
 20
-465.8234963769756
 30
0.0
 11
691.5298507462583
 21
-465.8234963769756
 31
0.0
  0
LINE
  5
22D
330
1F
100
AcDbEntity
  8
0-0
  6
JWW_DASHED1
 62
   120
370
     5
100
AcDbLine
 10
118.5298507462593
 20
-464.8234963770755
 30
0.0
 11
691.5298507462583
 21
-464.8234963770755
 31
0.0
  0
LINE
  5
22E
330
1F
100
AcDbEntity
  8
0-0
  6
JWW_DASHED1
 62
   120
370
     5
100
AcDbLine
 10
118.5298507462593
 20
-451.8234963759754
 30
0.0
 11
691.5298507462583
 21
-451.8234963759754
 31
0.0
  0
LINE
  5
22F
330
1F
100
AcDbEntity
  8
0-0
  6
JWW_DASHED1
 62
   120
370
     5
100
AcDbLine
 10
118.5298507462593
 20
-450.8234963760756
 30
0.0
 11
691.5298507462583
 21
-450.8234963760756
 31
0.0
  0
LINE
  5
230
330
1F
100
AcDbEntity
  8
0-0
  6
JWW_DASHED1
 62
   120
370
     5
100
AcDbLine
 10
118.5298507462593
 20
-437.8234963749756
 30
0.0
 11
691.5298507462583
 21
-437.8234963749756
 31
0.0
  0
LINE
  5
231
330
1F
100
AcDbEntity
  8
0-0
  6
JWW_DASHED1
 62
   120
370
     5
100
AcDbLine
 10
118.5298507462593
 20
-436.8234963750758
 30
0.0
 11
691.5298507462583
 21
-436.8234963750758
 31
0.0
  0
LINE
  5
232
330
1F
100
AcDbEntity
  8
0-0
  6
JWW_DASHED1
 62
   120
370
     5
100
AcDbLine
 10
118.5298507462593
 20
-423.8234963739758
 30
0.0
 11
691.5298507462583
 21
-423.8234963739758
 31
0.0
  0
LINE
  5
233
330
1F
100
AcDbEntity
  8
0-0
  6
JWW_DASHED1
 62
   120
370
     5
100
AcDbLine
 10
118.5298507462593
 20
-422.8234963740756
 30
0.0
 11
691.5298507462583
 21
-422.8234963740756
 31
0.0
  0
LINE
  5
234
330
1F
100
AcDbEntity
  8
0-0
  6
JWW_DASHED1
 62
   120
370
     5
100
AcDbLine
 10
118.5298507462593
 20
-409.8234963729756
 30
0.0
 11
691.5298507462583
 21
-409.8234963729756
 31
0.0
  0
LINE
  5
235
330
1F
100
AcDbEntity
  8
0-0
  6
JWW_DASHED1
 62
   120
370
     5
100
AcDbLine
 10
118.5298507462593
 20
-408.8234963730754
 30
0.0
 11
691.5298507462583
 21
-408.8234963730754
 31
0.0
  0
LINE
  5
236
330
1F
100
AcDbEntity
  8
0-0
  6
JWW_DASHED1
 62
   120
370
     5
100
AcDbLine
 10
118.5298507462593
 20
-395.8234963719754
 30
0.0
 11
691.5298507462583
 21
-395.8234963719754
 31
0.0
  0
LINE
  5
237
330
1F
100
AcDbEntity
  8
0-0
  6
JWW_DASHED1
 62
   120
370
     5
100
AcDbLine
 10
118.5298507462593
 20
-394.8234963720756
 30
0.0
 11
691.5298507462583
 21
-394.8234963720756
 31
0.0
  0
LINE
  5
238
330
1F
100
AcDbEntity
  8
0-0
  6
JWW_DASHED1
 62
   120
370
     5
100
AcDbLine
 10
118.5298507462593
 20
-381.8234963709756
 30
0.0
 11
691.5298507462583
 21
-381.8234963709756
 31
0.0
  0
LINE
  5
239
330
1F
100
AcDbEntity
  8
0-0
  6
JWW_DASHED1
 62
   120
370
     5
100
AcDbLine
 10
118.5298507462593
 20
-380.8234963710759
 30
0.0
 11
691.5298507462583
 21
-380.8234963710759
 31
0.0
  0
LINE
  5
23A
330
1F
100
AcDbEntity
  8
0-0
  6
JWW_DASHED1
 62
   120
370
     5
100
AcDbLine
 10
118.5298507462593
 20
-367.8234963699758
 30
0.0
 11
691.5298507462583
 21
-367.8234963699758
 31
0.0
  0
LINE
  5
23B
330
1F
100
AcDbEntity
  8
0-0
  6
JWW_DASHED1
 62
   120
370
     5
100
AcDbLine
 10
118.5298507462593
 20
-366.8234963700756
 30
0.0
 11
691.5298507462583
 21
-366.8234963700756
 31
0.0
  0
LINE
  5
23C
330
1F
100
AcDbEntity
  8
0-0
  6
JWW_DASHED1
 62
   120
370
     5
100
AcDbLine
 10
118.5298507462593
 20
-353.8234963689756
 30
0.0
 11
691.5298507462583
 21
-353.8234963689756
 31
0.0
  0
LINE
  5
23D
330
1F
100
AcDbEntity
  8
0-0
  6
JWW_DASHED1
 62
   120
370
     5
100
AcDbLine
 10
118.5298507462593
 20
-352.8234963690754
 30
0.0
 11
691.5298507462583
 21
-352.8234963690754
 31
0.0
  0
LINE
  5
23E
330
1F
100
AcDbEntity
  8
0-0
  6
JWW_DASHED1
 62
   120
370
     5
100
AcDbLine
 10
118.5298507462593
 20
-339.8234963679754
 30
0.0
 11
691.5298507462583
 21
-339.8234963679754
 31
0.0
  0
LINE
  5
23F
330
1F
100
AcDbEntity
  8
0-0
  6
JWW_DASHED1
 62
   120
370
     5
100
AcDbLine
 10
118.5298507462593
 20
-338.8234963680756
 30
0.0
 11
691.5298507462583
 21
-338.8234963680756
 31
0.0
  0
LINE
  5
240
330
1F
100
AcDbEntity
  8
0-0
  6
JWW_DASHED1
 62
   120
370
     5
100
AcDbLine
 10
118.5298507462593
 20
-325.8234963669756
 30
0.0
 11
691.5298507462583
 21
-325.8234963669756
 31
0.0
  0
LINE
  5
241
330
1F
100
AcDbEntity
  8
0-0
  6
JWW_DASHED1
 62
   120
370
     5
100
AcDbLine
 10
118.5298507462593
 20
-324.8234963670758
 30
0.0
 11
691.5298507462583
 21
-324.8234963670758
 31
0.0
  0
LINE
  5
242
330
1F
100
AcDbEntity
  8
0-0
  6
JWW_DASHED1
 62
   120
370
     5
100
AcDbLine
 10
118.5298507462593
 20
-311.8234963659758
 30
0.0
 11
691.5298507462583
 21
-311.8234963659758
 31
0.0
  0
LINE
  5
243
330
1F
100
AcDbEntity
  8
0-0
  6
JWW_DASHED1
 62
   120
370
     5
100
AcDbLine
 10
118.5298507462593
 20
-310.8234963660756
 30
0.0
 11
691.5298507462583
 21
-310.8234963660756
 31
0.0
  0
LINE
  5
244
330
1F
100
AcDbEntity
  8
0-0
  6
JWW_DASHED1
 62
   120
370
     5
100
AcDbLine
 10
118.5298507462593
 20
-297.8234963649755
 30
0.0
 11
691.5298507462583
 21
-297.8234963649755
 31
0.0
  0
LINE
  5
245
330
1F
100
AcDbEntity
  8
0-0
  6
JWW_DASHED1
 62
   120
370
     5
100
AcDbLine
 10
118.5298507462593
 20
-296.8234963650754
 30
0.0
 11
691.5298507462583
 21
-296.8234963650754
 31
0.0
  0
LINE
  5
246
330
1F
100
AcDbEntity
  8
0-0
  6
JWW_DASHED1
 62
   120
370
     5
100
AcDbLine
 10
118.5298507462593
 20
-283.8234963639753
 30
0.0
 11
691.5298507462583
 21
-283.8234963639753
 31
0.0
  0
LINE
  5
247
330
1F
100
AcDbEntity
  8
0-0
  6
JWW_DASHED1
 62
   120
370
     5
100
AcDbLine
 10
118.5298507462593
 20
-282.8234963640756
 30
0.0
 11
691.5298507462583
 21
-282.8234963640756
 31
0.0
  0
LINE
  5
248
330
1F
100
AcDbEntity
  8
0-0
  6
JWW_DASHED1
 62
   120
370
     5
100
AcDbLine
 10
118.5298507462593
 20
-269.8234963629756
 30
0.0
 11
691.5298507462583
 21
-269.8234963629756
 31
0.0
  0
LINE
  5
249
330
1F
100
AcDbEntity
  8
0-0
  6
JWW_DASHED1
 62
   120
370
     5
100
AcDbLine
 10
118.5298507462593
 20
-268.8234963630758
 30
0.0
 11
691.5298507462583
 21
-268.8234963630758
 31
0.0
  0
LINE
  5
24A
330
1F
100
AcDbEntity
  8
0-0
  6
JWW_DASHED1
 62
   120
370
     5
100
AcDbLine
 10
118.5298507462593
 20
-255.8234963619758
 30
0.0
 11
691.5298507462583
 21
-255.8234963619758
 31
0.0
  0
LINE
  5
24B
330
1F
100
AcDbEntity
  8
0-0
  6
JWW_DASHED1
 62
   120
370
     5
100
AcDbLine
 10
118.5298507462593
 20
-254.8234963620756
 30
0.0
 11
691.5298507462583
 21
-254.8234963620756
 31
0.0
  0
LINE
  5
24C
330
1F
100
AcDbEntity
  8
0-0
  6
JWW_DASHED1
 62
   120
370
     5
100
AcDbLine
 10
118.5298507462593
 20
-241.8234963609756
 30
0.0
 11
691.5298507462583
 21
-241.8234963609756
 31
0.0
  0
LINE
  5
24D
330
1F
100
AcDbEntity
  8
0-0
  6
JWW_DASHED1
 62
   120
370
     5
100
AcDbLine
 10
118.5298507462593
 20
-240.8234963610754
 30
0.0
 11
691.5298507462583
 21
-240.8234963610754
 31
0.0
  0
LINE
  5
24E
330
1F
100
AcDbEntity
  8
0-0
  6
JWW_DASHED1
 62
   120
370
     5
100
AcDbLine
 10
118.5298507462593
 20
-227.8234963599753
 30
0.0
 11
691.5298507462583
 21
-227.8234963599753
 31
0.0
  0
LINE
  5
24F
330
1F
100
AcDbEntity
  8
0-0
  6
JWW_DASHED1
 62
   120
370
     5
100
AcDbLine
 10
118.5298507462593
 20
-226.8234963600756
 30
0.0
 11
691.5298507462583
 21
-226.8234963600756
 31
0.0
  0
LINE
  5
250
330
1F
100
AcDbEntity
  8
0-0
  6
JWW_DASHED1
 62
   120
370
     5
100
AcDbLine
 10
118.5298507462593
 20
-213.8234963589755
 30
0.0
 11
691.5298507462583
 21
-213.8234963589755
 31
0.0
  0
LINE
  5
251
330
1F
100
AcDbEntity
  8
0-0
  6
JWW_DASHED1
 62
   120
370
     5
100
AcDbLine
 10
118.5298507462593
 20
-212.8234963590758
 30
0.0
 11
691.5298507462583
 21
-212.8234963590758
 31
0.0
  0
LINE
  5
252
330
1F
100
AcDbEntity
  8
0-0
  6
JWW_DASHED1
 62
   120
370
     5
100
AcDbLine
 10
118.5298507462593
 20
-199.8234963579758
 30
0.0
 11
691.5298507462583
 21
-199.8234963579758
 31
0.0
  0
LINE
  5
253
330
1F
100
AcDbEntity
  8
0-0
  6
JWW_DASHED1
 62
   120
370
     5
100
AcDbLine
 10
118.5298507462593
 20
-198.8234963580756
 30
0.0
 11
691.5298507462583
 21
-198.8234963580756
 31
0.0
  0
LINE
  5
254
330
1F
100
AcDbEntity
  8
0-0
  6
JWW_DASHED1
 62
   120
370
     5
100
AcDbLine
 10
118.5298507462593
 20
-185.8234963569755
 30
0.0
 11
691.5298507462583
 21
-185.8234963569755
 31
0.0
  0
LINE
  5
255
330
1F
100
AcDbEntity
  8
0-0
  6
JWW_DASHED1
 62
   120
370
     5
100
AcDbLine
 10
118.5298507462593
 20
-184.8234963570754
 30
0.0
 11
691.5298507462583
 21
-184.8234963570754
 31
0.0
  0
LINE
  5
256
330
1F
100
AcDbEntity
  8
0-0
  6
JWW_DASHED1
 62
   120
370
     5
100
AcDbLine
 10
118.5298507462593
 20
-171.8234963559753
 30
0.0
 11
691.5298507462583
 21
-171.8234963559753
 31
0.0
  0
LINE
  5
257
330
1F
100
AcDbEntity
  8
0-0
  6
JWW_DASHED1
 62
   120
370
     5
100
AcDbLine
 10
118.5298507462593
 20
-170.8234963560756
 30
0.0
 11
691.5298507462583
 21
-170.8234963560756
 31
0.0
  0
LINE
  5
258
330
1F
100
AcDbEntity
  8
0-0
  6
JWW_DASHED1
 62
   120
370
     5
100
AcDbLine
 10
118.5298507462593
 20
-157.8234963549755
 30
0.0
 11
691.5298507462583
 21
-157.8234963549755
 31
0.0
  0
LINE
  5
259
330
1F
100
AcDbEntity
  8
0-0
  6
JWW_DASHED1
 62
   120
370
     5
100
AcDbLine
 10
118.5298507462593
 20
-156.8234963550758
 30
0.0
 11
691.5298507462583
 21
-156.8234963550758
 31
0.0
  0
LINE
  5
25A
330
1F
100
AcDbEntity
  8
0-0
  6
JWW_DASHED1
 62
   120
370
     5
100
AcDbLine
 10
118.5298507462593
 20
-143.8234963539757
 30
0.0
 11
691.5298507462583
 21
-143.8234963539757
 31
0.0
  0
LINE
  5
25B
330
1F
100
AcDbEntity
  8
0-0
  6
JWW_DASHED1
 62
   120
370
     5
100
AcDbLine
 10
118.5298507462593
 20
-142.8234963540756
 30
0.0
 11
691.5298507462583
 21
-142.8234963540756
 31
0.0
  0
LINE
  5
25C
330
1F
100
AcDbEntity
  8
0-0
  6
JWW_DASHED1
 62
   120
370
     5
100
AcDbLine
 10
118.5298507462593
 20
-129.8234963529755
 30
0.0
 11
691.5298507462583
 21
-129.8234963529755
 31
0.0
  0
LINE
  5
25D
330
1F
100
AcDbEntity
  8
0-0
  6
JWW_DASHED1
 62
   120
370
     5
100
AcDbLine
 10
118.5298507462593
 20
-128.8234963530753
 30
0.0
 11
691.5298507462583
 21
-128.8234963530753
 31
0.0
  0
LINE
  5
25E
330
1F
100
AcDbEntity
  8
0-0
  6
JWW_DASHED1
 62
   120
370
     5
100
AcDbLine
 10
118.5298507462593
 20
-115.8234963519753
 30
0.0
 11
691.5298507462583
 21
-115.8234963519753
 31
0.0
  0
LINE
  5
25F
330
1F
100
AcDbEntity
  8
0-0
  6
JWW_DASHED1
 62
   120
370
     5
100
AcDbLine
 10
118.5298507462593
 20
-114.8234963520756
 30
0.0
 11
691.5298507462583
 21
-114.8234963520756
 31
0.0
  0
LINE
  5
260
330
1F
100
AcDbEntity
  8
0-0
  6
JWW_DASHED1
 62
   120
370
     5
100
AcDbLine
 10
118.5298507462593
 20
-101.8234963509755
 30
0.0
 11
691.5298507462583
 21
-101.8234963509755
 31
0.0
  0
LINE
  5
261
330
1F
100
AcDbEntity
  8
0-0
  6
JWW_DASHED1
 62
   120
370
     5
100
AcDbLine
 10
118.5298507462593
 20
-100.8234963510753
 30
0.0
 11
691.5298507462583
 21
-100.8234963510753
 31
0.0
  0
LINE
  5
262
330
1F
100
AcDbEntity
  8
0-0
  6
JWW_DASHED1
 62
   120
370
     5
100
AcDbLine
 10
118.5298507462593
 20
-87.82349634997573
 30
0.0
 11
691.5298507462583
 21
-87.82349634997573
 31
0.0
  0
LINE
  5
263
330
1F
100
AcDbEntity
  8
0-0
  6
JWW_DASHED1
 62
   120
370
     5
100
AcDbLine
 10
118.5298507462593
 20
-86.82349635007554
 30
0.0
 11
691.5298507462583
 21
-86.82349635007554
 31
0.0
  0
LINE
  5
264
330
1F
100
AcDbEntity
  8
0-0
  6
JWW_DASHED1
 62
   120
370
     5
100
AcDbLine
 10
118.5298507462593
 20
-73.82349634897551
 30
0.0
 11
691.5298507462583
 21
-73.82349634897551
 31
0.0
  0
LINE
  5
265
330
1F
100
AcDbEntity
  8
0-0
  6
JWW_DASHED1
 62
   120
370
     5
100
AcDbLine
 10
118.5298507462593
 20
-72.82349634907533
 30
0.0
 11
691.5298507462583
 21
-72.82349634907533
 31
0.0
  0
LINE
  5
266
330
1F
100
AcDbEntity
  8
0-0
  6
JWW_DASHED1
 62
   120
370
     5
100
AcDbLine
 10
118.5298507462593
 20
-59.82349634797572
 30
0.0
 11
691.5298507462583
 21
-59.82349634797572
 31
0.0
  0
LINE
  5
267
330
1F
100
AcDbEntity
  8
0-0
  6
JWW_DASHED1
 62
   120
370
     5
100
AcDbLine
 10
118.5298507462593
 20
-58.82349634807554
 30
0.0
 11
691.5298507462583
 21
-58.82349634807554
 31
0.0
  0
LINE
  5
268
330
1F
100
AcDbEntity
  8
0-0
  6
JWW_DASHED1
 62
   120
370
     5
100
AcDbLine
 10
118.5298507462593
 20
-45.8234963469755
 30
0.0
 11
691.5298507462583
 21
-45.8234963469755
 31
0.0
  0
LINE
  5
269
330
1F
100
AcDbEntity
  8
0-0
  6
JWW_DASHED1
 62
   120
370
     5
100
AcDbLine
 10
118.5298507462593
 20
-44.82349634707532
 30
0.0
 11
691.5298507462583
 21
-44.82349634707532
 31
0.0
  0
LINE
  5
26A
330
1F
100
AcDbEntity
  8
0-0
  6
JWW_DASHED1
 62
   120
370
     5
100
AcDbLine
 10
118.5298507462593
 20
-31.82349634597571
 30
0.0
 11
691.5298507462583
 21
-31.82349634597571
 31
0.0
  0
LINE
  5
26B
330
1F
100
AcDbEntity
  8
0-0
  6
JWW_DASHED1
 62
   120
370
     5
100
AcDbLine
 10
118.5298507462593
 20
-30.82349634607553
 30
0.0
 11
691.5298507462583
 21
-30.82349634607553
 31
0.0
  0
LINE
  5
26C
330
1F
100
AcDbEntity
  8
0-0
  6
JWW_DASHED1
 62
   120
370
     5
100
AcDbLine
 10
118.5298507462593
 20
-17.8234963449755
 30
0.0
 11
691.5298507462583
 21
-17.8234963449755
 31
0.0
  0
LINE
  5
26D
330
1F
100
AcDbEntity
  8
0-0
  6
JWW_DASHED1
 62
   120
370
     5
100
AcDbLine
 10
118.5298507462593
 20
-16.82349634507531
 30
0.0
 11
691.5298507462583
 21
-16.82349634507531
 31
0.0
  0
LINE
  5
26E
330
1F
100
AcDbEntity
  8
0-0
  6
JWW_DASHED1
 62
   120
370
     5
100
AcDbLine
 10
118.5298507462593
 20
-3.823496343975705
 30
0.0
 11
691.5298507462583
 21
-3.823496343975705
 31
0.0
  0
LINE
  5
26F
330
1F
100
AcDbEntity
  8
0-0
  6
JWW_DASHED1
 62
   120
370
     5
100
AcDbLine
 10
118.5298507462593
 20
-2.823496344075522
 30
0.0
 11
691.5298507462583
 21
-2.823496344075522
 31
0.0
  0
LINE
  5
270
330
1F
100
AcDbEntity
  8
0-0
  6
JWW_DASHED1
 62
   120
370
     5
100
AcDbLine
 10
118.5298507462593
 20
10.17650365702451
 30
0.0
 11
691.5298507462583
 21
10.17650365702451
 31
0.0
  0
LINE
  5
271
330
1F
100
AcDbEntity
  8
0-0
  6
JWW_DASHED1
 62
   120
370
     5
100
AcDbLine
 10
118.5298507462593
 20
11.17650365692469
 30
0.0
 11
691.5298507462583
 21
11.17650365692469
 31
0.0
  0
LINE
  5
272
330
1F
100
AcDbEntity
  8
0-0
  6
JWW_DASHED1
 62
   120
370
     5
100
AcDbLine
 10
118.5298507462593
 20
24.1765036580243
 30
0.0
 11
691.5298507462583
 21
24.1765036580243
 31
0.0
  0
LINE
  5
273
330
1F
100
AcDbEntity
  8
0-0
  6
JWW_DASHED1
 62
   120
370
     5
100
AcDbLine
 10
118.5298507462593
 20
25.17650365792448
 30
0.0
 11
691.5298507462583
 21
25.17650365792448
 31
0.0
  0
LINE
  5
274
330
1F
100
AcDbEntity
  8
0-0
  6
JWW_DASHED1
 62
   120
370
     5
100
AcDbLine
 10
118.5298507462593
 20
38.17650365902452
 30
0.0
 11
691.5298507462583
 21
38.17650365902452
 31
0.0
  0
LINE
  5
275
330
1F
100
AcDbEntity
  8
0-0
  6
JWW_DASHED1
 62
   120
370
     5
100
AcDbLine
 10
118.5298507462593
 20
39.1765036589247
 30
0.0
 11
691.5298507462583
 21
39.1765036589247
 31
0.0
  0
LINE
  5
276
330
1F
100
AcDbEntity
  8
0-0
  6
JWW_DASHED1
 62
   120
370
     5
100
AcDbLine
 10
118.5298507462593
 20
52.17650366002431
 30
0.0
 11
691.5298507462583
 21
52.17650366002431
 31
0.0
  0
LINE
  5
277
330
1F
100
AcDbEntity
  8
0-0
  6
JWW_DASHED1
 62
   120
370
     5
100
AcDbLine
 10
118.5298507462593
 20
53.17650365992449
 30
0.0
 11
691.5298507462583
 21
53.17650365992449
 31
0.0
  0
LINE
  5
278
330
1F
100
AcDbEntity
  8
0-0
  6
JWW_DASHED1
 62
   120
370
     5
100
AcDbLine
 10
118.5298507462593
 20
66.17650366102453
 30
0.0
 11
691.5298507462583
 21
66.17650366102453
 31
0.0
  0
LINE
  5
279
330
1F
100
AcDbEntity
  8
0-0
  6
JWW_DASHED1
 62
   120
370
     5
100
AcDbLine
 10
118.5298507462593
 20
67.17650366092471
 30
0.0
 11
691.5298507462583
 21
67.17650366092471
 31
0.0
  0
LINE
  5
27A
330
1F
100
AcDbEntity
  8
0-0
  6
JWW_DASHED1
 62
   120
370
     5
100
AcDbLine
 10
118.5298507462593
 20
80.17650366202432
 30
0.0
 11
691.5298507462583
 21
80.17650366202432
 31
0.0
  0
LINE
  5
27B
330
1F
100
AcDbEntity
  8
0-0
  6
JWW_DASHED1
 62
   120
370
     5
100
AcDbLine
 10
118.5298507462593
 20
81.1765036619245
 30
0.0
 11
691.5298507462583
 21
81.1765036619245
 31
0.0
  0
LINE
  5
27C
330
1F
100
AcDbEntity
  8
0-0
  6
JWW_DASHED1
 62
   120
370
     5
100
AcDbLine
 10
118.5298507462593
 20
94.17650366302453
 30
0.0
 11
691.5298507462583
 21
94.17650366302453
 31
0.0
  0
LINE
  5
27D
330
1F
100
AcDbEntity
  8
0-0
  6
JWW_DASHED1
 62
   120
370
     5
100
AcDbLine
 10
118.5298507462593
 20
95.17650366292472
 30
0.0
 11
691.5298507462583
 21
95.17650366292472
 31
0.0
  0
LINE
  5
27E
330
1F
100
AcDbEntity
  8
0-0
  6
JWW_DASHED1
 62
   120
370
     5
100
AcDbLine
 10
118.5298507462593
 20
108.1765036640243
 30
0.0
 11
691.5298507462583
 21
108.1765036640243
 31
0.0
  0
LINE
  5
27F
330
1F
100
AcDbEntity
  8
0-0
  6
JWW_DASHED1
 62
   120
370
     5
100
AcDbLine
 10
118.5298507462593
 20
109.1765036639245
 30
0.0
 11
691.5298507462583
 21
109.1765036639245
 31
0.0
  0
LINE
  5
280
330
1F
100
AcDbEntity
  8
0-0
  6
JWW_DASHED1
 62
   120
370
     5
100
AcDbLine
 10
118.5298507462593
 20
122.1765036650245
 30
0.0
 11
691.5298507462583
 21
122.1765036650245
 31
0.0
  0
LINE
  5
281
330
1F
100
AcDbEntity
  8
0-0
  6
JWW_DASHED1
 62
   120
370
     5
100
AcDbLine
 10
118.5298507462593
 20
123.1765036649247
 30
0.0
 11
691.5298507462583
 21
123.1765036649247
 31
0.0
  0
LINE
  5
282
330
1F
100
AcDbEntity
  8
0-0
  6
JWW_DASHED1
 62
   120
370
     5
100
AcDbLine
 10
118.5298507462593
 20
136.1765036660243
 30
0.0
 11
691.5298507462583
 21
136.1765036660243
 31
0.0
  0
LINE
  5
283
330
1F
100
AcDbEntity
  8
0-0
  6
JWW_DASHED1
 62
   120
370
     5
100
AcDbLine
 10
118.5298507462593
 20
137.1765036659245
 30
0.0
 11
691.5298507462583
 21
137.1765036659245
 31
0.0
  0
LINE
  5
284
330
1F
100
AcDbEntity
  8
0-0
  6
JWW_DASHED1
 62
   120
370
     5
100
AcDbLine
 10
118.5298507462593
 20
150.1765036670245
 30
0.0
 11
691.5298507462583
 21
150.1765036670245
 31
0.0
  0
LINE
  5
285
330
1F
100
AcDbEntity
  8
0-0
  6
JWW_DASHED1
 62
   120
370
     5
100
AcDbLine
 10
118.5298507462593
 20
151.1765036669247
 30
0.0
 11
691.5298507462583
 21
151.1765036669247
 31
0.0
  0
LINE
  5
286
330
1F
100
AcDbEntity
  8
0-0
  6
JWW_DASHED1
 62
   120
370
     5
100
AcDbLine
 10
118.5298507462593
 20
164.1765036680243
 30
0.0
 11
691.5298507462583
 21
164.1765036680243
 31
0.0
  0
LINE
  5
287
330
1F
100
AcDbEntity
  8
0-0
  6
JWW_DASHED1
 62
   120
370
     5
100
AcDbLine
 10
118.5298507462593
 20
165.1765036679245
 30
0.0
 11
691.5298507462583
 21
165.1765036679245
 31
0.0
  0
LINE
  5
288
330
1F
100
AcDbEntity
  8
0-0
  6
JWW_DASHED1
 62
   120
370
     5
100
AcDbLine
 10
118.5298507462593
 20
178.1765036690246
 30
0.0
 11
691.5298507462583
 21
178.1765036690246
 31
0.0
  0
LINE
  5
289
330
1F
100
AcDbEntity
  8
0-0
  6
JWW_DASHED1
 62
   120
370
     5
100
AcDbLine
 10
118.5298507462593
 20
179.1765036689247
 30
0.0
 11
691.5298507462583
 21
179.1765036689247
 31
0.0
  0
LINE
  5
28A
330
1F
100
AcDbEntity
  8
0-0
  6
JWW_DASHED1
 62
   120
370
     5
100
AcDbLine
 10
118.5298507462593
 20
192.1765036700243
 30
0.0
 11
691.5298507462583
 21
192.1765036700243
 31
0.0
  0
LINE
  5
28B
330
1F
100
AcDbEntity
  8
0-0
  6
JWW_DASHED1
 62
   120
370
     5
100
AcDbLine
 10
118.5298507462593
 20
193.1765036699245
 30
0.0
 11
691.5298507462583
 21
193.1765036699245
 31
0.0
  0
LINE
  5
28C
330
1F
100
AcDbEntity
  8
0-0
  6
JWW_DASHED1
 62
   120
370
     5
100
AcDbLine
 10
118.5298507462593
 20
206.1765036710246
 30
0.0
 11
691.5298507462583
 21
206.1765036710246
 31
0.0
  0
LINE
  5
28D
330
1F
100
AcDbEntity
  8
0-0
  6
JWW_DASHED1
 62
   120
370
     5
100
AcDbLine
 10
118.5298507462593
 20
207.1765036709247
 30
0.0
 11
691.5298507462583
 21
207.1765036709247
 31
0.0
  0
LINE
  5
28E
330
1F
100
AcDbEntity
  8
0-0
  6
JWW_DASHED1
 62
   120
370
     5
100
AcDbLine
 10
118.5298507462593
 20
220.1765036720244
 30
0.0
 11
691.5298507462583
 21
220.1765036720244
 31
0.0
  0
LINE
  5
28F
330
1F
100
AcDbEntity
  8
0-0
  6
JWW_DASHED1
 62
   120
370
     5
100
AcDbLine
 10
118.5298507462593
 20
221.1765036719245
 30
0.0
 11
691.5298507462583
 21
221.1765036719245
 31
0.0
  0
LINE
  5
290
330
1F
100
AcDbEntity
  8
0-0
  6
JWW_DASHED1
 62
   120
370
     5
100
AcDbLine
 10
118.5298507462593
 20
234.1765036730246
 30
0.0
 11
691.5298507462583
 21
234.1765036730246
 31
0.0
  0
LINE
  5
291
330
1F
100
AcDbEntity
  8
0-0
  6
JWW_DASHED1
 62
   120
370
     5
100
AcDbLine
 10
118.5298507462593
 20
235.1765036729243
 30
0.0
 11
691.5298507462583
 21
235.1765036729243
 31
0.0
  0
LINE
  5
292
330
1F
100
AcDbEntity
  8
0-0
  6
JWW_DASHED1
 62
   120
370
     5
100
AcDbLine
 10
118.5298507462593
 20
248.1765036740244
 30
0.0
 11
691.5298507462583
 21
248.1765036740244
 31
0.0
  0
LINE
  5
293
330
1F
100
AcDbEntity
  8
0-0
  6
JWW_DASHED1
 62
   120
370
     5
100
AcDbLine
 10
118.5298507462593
 20
249.1765036739245
 30
0.0
 11
691.5298507462583
 21
249.1765036739245
 31
0.0
  0
LINE
  5
294
330
1F
100
AcDbEntity
  8
0-0
  6
JWW_DASHED1
 62
   120
370
     5
100
AcDbLine
 10
118.5298507462593
 20
262.1765036750246
 30
0.0
 11
691.5298507462583
 21
262.1765036750246
 31
0.0
  0
LINE
  5
295
330
1F
100
AcDbEntity
  8
0-0
  6
JWW_DASHED1
 62
   120
370
     5
100
AcDbLine
 10
118.5298507462593
 20
263.1765036749248
 30
0.0
 11
691.5298507462583
 21
263.1765036749248
 31
0.0
  0
LINE
  5
296
330
1F
100
AcDbEntity
  8
0-0
  6
JWW_DASHED1
 62
   120
370
     5
100
AcDbLine
 10
118.5298507462593
 20
276.1765036760244
 30
0.0
 11
691.5298507462583
 21
276.1765036760244
 31
0.0
  0
LINE
  5
297
330
1F
100
AcDbEntity
  8
0-0
  6
JWW_DASHED1
 62
   120
370
     5
100
AcDbLine
 10
118.5298507462593
 20
277.1765036759246
 30
0.0
 11
691.5298507462583
 21
277.1765036759246
 31
0.0
  0
LINE
  5
298
330
1F
100
AcDbEntity
  8
0-0
  6
JWW_DASHED1
 62
   120
370
     5
100
AcDbLine
 10
118.5298507462593
 20
290.1765036770246
 30
0.0
 11
691.5298507462583
 21
290.1765036770246
 31
0.0
  0
LINE
  5
299
330
1F
100
AcDbEntity
  8
0-0
  6
JWW_DASHED1
 62
   120
370
     5
100
AcDbLine
 10
118.5298507462593
 20
291.1765036769243
 30
0.0
 11
691.5298507462583
 21
291.1765036769243
 31
0.0
  0
LINE
  5
29A
330
1F
100
AcDbEntity
  8
0-0
  6
JWW_DASHED1
 62
   120
370
     5
100
AcDbLine
 10
118.5298507462593
 20
304.1765036780243
 30
0.0
 11
691.5298507462583
 21
304.1765036780243
 31
0.0
  0
LINE
  5
29B
330
1F
100
AcDbEntity
  8
0-0
  6
JWW_DASHED1
 62
   120
370
     5
100
AcDbLine
 10
118.5298507462593
 20
305.1765036779245
 30
0.0
 11
691.5298507462583
 21
305.1765036779245
 31
0.0
  0
LINE
  5
29C
330
1F
100
AcDbEntity
  8
0-0
  6
JWW_DASHED1
 62
   120
370
     5
100
AcDbLine
 10
118.5298507462593
 20
318.1765036790246
 30
0.0
 11
691.5298507462583
 21
318.1765036790246
 31
0.0
  0
LINE
  5
29D
330
1F
100
AcDbEntity
  8
0-0
  6
JWW_DASHED1
 62
   120
370
     5
100
AcDbLine
 10
118.5298507462593
 20
319.1765036789247
 30
0.0
 11
691.5298507462583
 21
319.1765036789247
 31
0.0
  0
LINE
  5
29E
330
1F
100
AcDbEntity
  8
0-0
  6
JWW_DASHED1
 62
   120
370
     5
100
AcDbLine
 10
118.5298507462593
 20
332.1765036800244
 30
0.0
 11
691.5298507462583
 21
332.1765036800244
 31
0.0
  0
LINE
  5
29F
330
1F
100
AcDbEntity
  8
0-0
  6
JWW_DASHED1
 62
   120
370
     5
100
AcDbLine
 10
118.5298507462593
 20
333.1765036799246
 30
0.0
 11
691.5298507462583
 21
333.1765036799246
 31
0.0
  0
LINE
  5
2A0
330
1F
100
AcDbEntity
  8
0-0
  6
JWW_DASHED1
 62
   120
370
     5
100
AcDbLine
 10
118.5298507462593
 20
346.1765036810246
 30
0.0
 11
691.5298507462583
 21
346.1765036810246
 31
0.0
  0
LINE
  5
2A1
330
1F
100
AcDbEntity
  8
0-0
  6
JWW_DASHED1
 62
   120
370
     5
100
AcDbLine
 10
118.5298507462593
 20
347.1765036809244
 30
0.0
 11
691.5298507462583
 21
347.1765036809244
 31
0.0
  0
LINE
  5
2A2
330
1F
100
AcDbEntity
  8
0-0
  6
JWW_DASHED1
 62
   120
370
     5
100
AcDbLine
 10
118.5298507462593
 20
360.1765036820244
 30
0.0
 11
691.5298507462583
 21
360.1765036820244
 31
0.0
  0
LINE
  5
2A3
330
1F
100
AcDbEntity
  8
0-0
  6
JWW_DASHED1
 62
   120
370
     5
100
AcDbLine
 10
118.5298507462593
 20
361.1765036819246
 30
0.0
 11
691.5298507462583
 21
361.1765036819246
 31
0.0
  0
LINE
  5
2A4
330
1F
100
AcDbEntity
  8
0-0
  6
JWW_DASHED1
 62
   120
370
     5
100
AcDbLine
 10
118.5298507462593
 20
374.1765036830246
 30
0.0
 11
691.5298507462583
 21
374.1765036830246
 31
0.0
  0
LINE
  5
2A5
330
1F
100
AcDbEntity
  8
0-0
  6
JWW_DASHED1
 62
   120
370
     5
100
AcDbLine
 10
118.5298507462593
 20
375.1765036829248
 30
0.0
 11
691.5298507462583
 21
375.1765036829248
 31
0.0
  0
LINE
  5
2A6
330
1F
100
AcDbEntity
  8
0-0
  6
JWW_DASHED1
 62
   120
370
     5
100
AcDbLine
 10
118.5298507462593
 20
388.1765036840244
 30
0.0
 11
691.5298507462583
 21
388.1765036840244
 31
0.0
  0
LINE
  5
2A7
330
1F
100
AcDbEntity
  8
0-0
  6
JWW_DASHED1
 62
   120
370
     5
100
AcDbLine
 10
118.5298507462593
 20
389.1765036839246
 30
0.0
 11
691.5298507462583
 21
389.1765036839246
 31
0.0
  0
LINE
  5
2A8
330
1F
100
AcDbEntity
  8
0-0
  6
JWW_DASHED1
 62
   120
370
     5
100
AcDbLine
 10
118.5298507462593
 20
402.1765036850246
 30
0.0
 11
691.5298507462583
 21
402.1765036850246
 31
0.0
  0
LINE
  5
2A9
330
1F
100
AcDbEntity
  8
0-0
  6
JWW_DASHED1
 62
   120
370
     5
100
AcDbLine
 10
118.5298507462593
 20
403.1765036849243
 30
0.0
 11
691.5298507462583
 21
403.1765036849243
 31
0.0
  0
LINE
  5
2AA
330
1F
100
AcDbEntity
  8
0-0
  6
JWW_DASHED1
 62
   120
370
     5
100
AcDbLine
 10
118.5298507462593
 20
416.1765036860244
 30
0.0
 11
691.5298507462583
 21
416.1765036860244
 31
0.0
  0
LINE
  5
2AB
330
1F
100
AcDbEntity
  8
0-0
  6
JWW_DASHED1
 62
   120
370
     5
100
AcDbLine
 10
118.5298507462593
 20
417.1765036859246
 30
0.0
 11
691.5298507462583
 21
417.1765036859246
 31
0.0
  0
LINE
  5
2AC
330
1F
100
AcDbEntity
  8
0-0
  6
JWW_DASHED1
 62
   120
370
     5
100
AcDbLine
 10
118.5298507462593
 20
430.1765036870246
 30
0.0
 11
691.5298507462583
 21
430.1765036870246
 31
0.0
  0
LINE
  5
2AD
330
1F
100
AcDbEntity
  8
0-0
  6
JWW_DASHED1
 62
   120
370
     5
100
AcDbLine
 10
118.5298507462593
 20
431.1765036869244
 30
0.0
 11
691.5298507462583
 21
431.1765036869244
 31
0.0
  0
LINE
  5
2AE
330
1F
100
AcDbEntity
  8
0-0
  6
JWW_DASHED1
 62
   120
370
     5
100
AcDbLine
 10
118.5298507462593
 20
444.1765036880244
 30
0.0
 11
691.5298507462583
 21
444.1765036880244
 31
0.0
  0
LINE
  5
2AF
330
1F
100
AcDbEntity
  8
0-0
  6
JWW_DASHED1
 62
   120
370
     5
100
AcDbLine
 10
118.5298507462593
 20
445.1765036879246
 30
0.0
 11
691.5298507462583
 21
445.1765036879246
 31
0.0
  0
LINE
  5
2B0
330
1F
100
AcDbEntity
  8
0-0
  6
JWW_DASHED1
 62
   120
370
     5
100
AcDbLine
 10
118.5298507462593
 20
458.1765036890246
 30
0.0
 11
691.5298507462583
 21
458.1765036890246
 31
0.0
  0
LINE
  5
2B1
330
1F
100
AcDbEntity
  8
0-0
  6
JWW_DASHED1
 62
   120
370
     5
100
AcDbLine
 10
118.5298507462593
 20
459.1765036889244
 30
0.0
 11
691.5298507462583
 21
459.1765036889244
 31
0.0
  0
LINE
  5
2B2
330
1F
100
AcDbEntity
  8
0-0
  6
JWW_DASHED1
 62
   120
370
     5
100
AcDbLine
 10
118.5298507462593
 20
472.1765036900244
 30
0.0
 11
691.5298507462583
 21
472.1765036900244
 31
0.0
  0
LINE
  5
2B3
330
1F
100
AcDbEntity
  8
0-0
  6
JWW_DASHED1
 62
   120
370
     5
100
AcDbLine
 10
118.5298507462593
 20
473.1765036899246
 30
0.0
 11
691.5298507462583
 21
473.1765036899246
 31
0.0
  0
LINE
  5
2B4
330
1F
100
AcDbEntity
  8
0-0
  6
JWW_DASHED1
 62
   120
370
     5
100
AcDbLine
 10
118.5298507462593
 20
486.1765036910247
 30
0.0
 11
691.5298507462583
 21
486.1765036910247
 31
0.0
  0
LINE
  5
2B5
330
1F
100
AcDbEntity
  8
0-0
  6
JWW_DASHED1
 62
   120
370
     5
100
AcDbLine
 10
118.5298507462593
 20
487.1765036909244
 30
0.0
 11
691.5298507462583
 21
487.1765036909244
 31
0.0
  0
LINE
  5
2B6
330
1F
100
AcDbEntity
  8
0-0
  6
JWW_DASHED1
 62
   120
370
     5
100
AcDbLine
 10
118.5298507462593
 20
500.1765036920244
 30
0.0
 11
691.5298507462583
 21
500.1765036920244
 31
0.0
  0
LINE
  5
2B7
330
1F
100
AcDbEntity
  8
0-0
  6
JWW_DASHED1
 62
   120
370
     5
100
AcDbLine
 10
118.5298507462593
 20
501.1765036919246
 30
0.0
 11
691.5298507462583
 21
501.1765036919246
 31
0.0
  0
LINE
  5
2B8
330
1F
100
AcDbEntity
  8
0-0
  6
JWW_DASHED1
 62
   120
370
     5
100
AcDbLine
 10
118.5298507462593
 20
514.1765036930246
 30
0.0
 11
691.5298507462583
 21
514.1765036930246
 31
0.0
  0
LINE
  5
2B9
330
1F
100
AcDbEntity
  8
0-0
  6
JWW_DASHED1
 62
   120
370
     5
100
AcDbLine
 10
118.5298507462593
 20
515.1765036929244
 30
0.0
 11
691.5298507462583
 21
515.1765036929244
 31
0.0
  0
LINE
  5
2BA
330
1F
100
AcDbEntity
  8
0-0
  6
JWW_DASHED1
 62
   120
370
     5
100
AcDbLine
 10
118.5298507462593
 20
528.1765036940244
 30
0.0
 11
691.5298507462583
 21
528.1765036940244
 31
0.0
  0
LINE
  5
2BB
330
1F
100
AcDbEntity
  8
0-0
  6
JWW_DASHED1
 62
   120
370
     5
100
AcDbLine
 10
118.5298507462593
 20
529.1765036939246
 30
0.0
 11
691.5298507462583
 21
529.1765036939246
 31
0.0
  0
LINE
  5
2BC
330
1F
100
AcDbEntity
  8
0-0
  6
JWW_DASHED1
 62
   120
370
     5
100
AcDbLine
 10
118.5298507462593
 20
542.1765036950246
 30
0.0
 11
691.5298507462583
 21
542.1765036950246
 31
0.0
  0
LINE
  5
2BD
330
1F
100
AcDbEntity
  8
0-0
  6
JWW_DASHED1
 62
   120
370
     5
100
AcDbLine
 10
118.5298507462593
 20
543.1765036949243
 30
0.0
 11
691.5298507462583
 21
543.1765036949243
 31
0.0
  0
LINE
  5
2BE
330
1F
100
AcDbEntity
  8
0-0
  6
JWW_DASHED1
 62
   120
370
     5
100
AcDbLine
 10
118.5298507462593
 20
556.1765036960244
 30
0.0
 11
691.5298507462583
 21
556.1765036960244
 31
0.0
  0
LINE
  5
2BF
330
1F
100
AcDbEntity
  8
0-0
  6
JWW_DASHED1
 62
   120
370
     5
100
AcDbLine
 10
118.5298507462593
 20
557.1765036959246
 30
0.0
 11
691.5298507462583
 21
557.1765036959246
 31
0.0
  0
LINE
  5
2C0
330
1F
100
AcDbEntity
  8
0-0
  6
JWW_DASHED1
 62
   120
370
     5
100
AcDbLine
 10
118.5298507462593
 20
570.1765036970246
 30
0.0
 11
691.5298507462583
 21
570.1765036970246
 31
0.0
  0
LINE
  5
2C1
330
1F
100
AcDbEntity
  8
0-0
  6
JWW_DASHED1
 62
   120
370
     5
100
AcDbLine
 10
118.5298507462593
 20
571.1765036969244
 30
0.0
 11
691.5298507462583
 21
571.1765036969244
 31
0.0
  0
LINE
  5
2C2
330
1F
100
AcDbEntity
  8
0-0
  6
JWW_DASHED1
 62
   120
370
     5
100
AcDbLine
 10
118.5298507462593
 20
584.1765036980245
 30
0.0
 11
691.5298507462583
 21
584.1765036980245
 31
0.0
  0
LINE
  5
2C3
330
1F
100
AcDbEntity
  8
0-0
  6
JWW_DASHED1
 62
   120
370
     5
100
AcDbLine
 10
118.5298507462593
 20
585.1765036979247
 30
0.0
 11
691.5298507462583
 21
585.1765036979247
 31
0.0
  0
LINE
  5
2C4
330
1F
100
AcDbEntity
  8
0-0
  6
JWW_DASHED1
 62
   120
370
     5
100
AcDbLine
 10
118.5298507462593
 20
598.1765036990247
 30
0.0
 11
691.5298507462583
 21
598.1765036990247
 31
0.0
  0
LINE
  5
2C5
330
1F
100
AcDbEntity
  8
0-0
  6
JWW_DASHED1
 62
   120
370
     5
100
AcDbLine
 10
118.5298507462593
 20
599.1765036989244
 30
0.0
 11
691.5298507462583
 21
599.1765036989244
 31
0.0
  0
LINE
  5
2C6
330
1F
100
AcDbEntity
  8
0-0
  6
JWW_DASHED1
 62
   120
370
     5
100
AcDbLine
 10
118.5298507462593
 20
612.1765037000245
 30
0.0
 11
691.5298507462583
 21
612.1765037000245
 31
0.0
  0
LINE
  5
2C7
330
1F
100
AcDbEntity
  8
0-0
  6
JWW_DASHED1
 62
   120
370
     5
100
AcDbLine
 10
118.5298507462593
 20
613.1765036999246
 30
0.0
 11
691.5298507462583
 21
613.1765036999246
 31
0.0
  0
LINE
  5
2C8
330
1F
100
AcDbEntity
  8
0-0
  6
JWW_DASHED1
 62
   120
370
     5
100
AcDbLine
 10
118.5298507462593
 20
626.1765037010247
 30
0.0
 11
691.5298507462583
 21
626.1765037010247
 31
0.0
  0
LINE
  5
2C9
330
1F
100
AcDbEntity
  8
0-0
  6
JWW_DASHED1
 62
   120
370
     5
100
AcDbLine
 10
118.5298507462593
 20
627.1765037009244
 30
0.0
 11
691.5298507462583
 21
627.1765037009244
 31
0.0
  0
LINE
  5
2CA
330
1F
100
AcDbEntity
  8
0-0
  6
JWW_DASHED1
 62
   120
370
     5
100
AcDbLine
 10
118.5298507462593
 20
640.1765037020244
 30
0.0
 11
691.5298507462583
 21
640.1765037020244
 31
0.0
  0
LINE
  5
2CB
330
1F
100
AcDbEntity
  8
0-0
  6
JWW_DASHED1
 62
   120
370
     5
100
AcDbLine
 10
118.5298507462593
 20
641.1765037019246
 30
0.0
 11
691.5298507462583
 21
641.1765037019246
 31
0.0
  0
LINE
  5
2CC
330
1F
100
AcDbEntity
  8
0-0
  6
JWW_DASHED1
 62
   120
370
     5
100
AcDbLine
 10
118.5298507462593
 20
654.1765037030247
 30
0.0
 11
691.5298507462583
 21
654.1765037030247
 31
0.0
  0
LINE
  5
2CD
330
1F
100
AcDbEntity
  8
0-0
  6
JWW_DASHED1
 62
   120
370
     5
100
AcDbLine
 10
118.5298507462593
 20
655.1765037029245
 30
0.0
 11
691.5298507462583
 21
655.1765037029245
 31
0.0
  0
LINE
  5
2CE
330
1F
100
AcDbEntity
  8
0-0
  6
JWW_DASHED1
 62
   120
370
     5
100
AcDbLine
 10
118.5298507462593
 20
668.1765037040245
 30
0.0
 11
691.5298507462583
 21
668.1765037040245
 31
0.0
  0
LINE
  5
2CF
330
1F
100
AcDbEntity
  8
0-0
  6
JWW_DASHED1
 62
   120
370
     5
100
AcDbLine
 10
118.5298507462593
 20
669.1765037039247
 30
0.0
 11
691.5298507462583
 21
669.1765037039247
 31
0.0
  0
LINE
  5
2D0
330
1F
100
AcDbEntity
  8
0-0
  6
JWW_DASHED1
 62
   120
370
     5
100
AcDbLine
 10
118.5298507462593
 20
682.1765037050247
 30
0.0
 11
691.5298507462583
 21
682.1765037050247
 31
0.0
  0
LINE
  5
2D1
330
1F
100
AcDbEntity
  8
0-0
  6
JWW_DASHED1
 62
   120
370
     5
100
AcDbLine
 10
118.5298507462593
 20
683.1765037049245
 30
0.0
 11
691.5298507462583
 21
683.1765037049245
 31
0.0
  0
LINE
  5
2D2
330
1F
100
AcDbEntity
  8
0-0
  6
JWW_DASHED1
 62
   120
370
     5
100
AcDbLine
 10
118.5298507462593
 20
696.1765037060245
 30
0.0
 11
691.5298507462583
 21
696.1765037060245
 31
0.0
  0
LINE
  5
2D3
330
1F
100
AcDbEntity
  8
0-0
  6
JWW_DASHED1
 62
   120
370
     5
100
AcDbLine
 10
118.5298507462593
 20
697.1765037059247
 30
0.0
 11
691.5298507462583
 21
697.1765037059247
 31
0.0
  0
LINE
  5
2D4
330
1F
100
AcDbEntity
  8
0-0
  6
JWW_DASHED1
 62
   120
370
     5
100
AcDbLine
 10
118.5298507462593
 20
710.1765037070247
 30
0.0
 11
691.5298507462583
 21
710.1765037070247
 31
0.0
  0
LINE
  5
2D5
330
1F
100
AcDbEntity
  8
0-0
  6
JWW_DASHED1
 62
   120
370
     5
100
AcDbLine
 10
118.5298507462593
 20
711.1765037069244
 30
0.0
 11
691.5298507462583
 21
711.1765037069244
 31
0.0
  0
LINE
  5
2D6
330
1F
100
AcDbEntity
  8
0-0
  6
JWW_DASHED1
 62
   120
370
     5
100
AcDbLine
 10
118.5298507462593
 20
724.1765037080245
 30
0.0
 11
691.5298507462583
 21
724.1765037080245
 31
0.0
  0
LINE
  5
2D7
330
1F
100
AcDbEntity
  8
0-0
  6
JWW_DASHED1
 62
   120
370
     5
100
AcDbLine
 10
118.5298507462593
 20
725.1765037079247
 30
0.0
 11
691.5298507462583
 21
725.1765037079247
 31
0.0
  0
LINE
  5
2D8
330
1F
100
AcDbEntity
  8
0-0
  6
JWW_DASHED1
 62
   120
370
     5
100
AcDbLine
 10
118.5298507462593
 20
738.1765037090247
 30
0.0
 11
691.5298507462583
 21
738.1765037090247
 31
0.0
  0
LINE
  5
2D9
330
1F
100
AcDbEntity
  8
0-0
  6
JWW_DASHED1
 62
   120
370
     5
100
AcDbLine
 10
118.5298507462593
 20
739.1765037089244
 30
0.0
 11
691.5298507462583
 21
739.1765037089244
 31
0.0
  0
LINE
  5
2DA
330
1F
100
AcDbEntity
  8
0-0
  6
JWW_DASHED1
 62
   120
370
     5
100
AcDbLine
 10
118.5298507462593
 20
752.1765037100245
 30
0.0
 11
691.5298507462583
 21
752.1765037100245
 31
0.0
  0
LINE
  5
2DB
330
1F
100
AcDbEntity
  8
0-0
  6
JWW_DASHED1
 62
   120
370
     5
100
AcDbLine
 10
118.5298507462593
 20
753.1765037099246
 30
0.0
 11
691.5298507462583
 21
753.1765037099246
 31
0.0
  0
LINE
  5
2DC
330
1F
100
AcDbEntity
  8
0-0
  6
JWW_DASHED1
 62
   120
370
     5
100
AcDbLine
 10
118.5298507462593
 20
766.1765037110247
 30
0.0
 11
691.5298507462583
 21
766.1765037110247
 31
0.0
  0
LINE
  5
2DD
330
1F
100
AcDbEntity
  8
0-0
  6
JWW_DASHED1
 62
   120
370
     5
100
AcDbLine
 10
118.5298507462593
 20
767.1765037109244
 30
0.0
 11
691.5298507462583
 21
767.1765037109244
 31
0.0
  0
LINE
  5
2DE
330
1F
100
AcDbEntity
  8
0-0
  6
JWW_DASHED1
 62
   120
370
     5
100
AcDbLine
 10
118.5298507462593
 20
780.1765037120244
 30
0.0
 11
691.5298507462583
 21
780.1765037120244
 31
0.0
  0
LINE
  5
2DF
330
1F
100
AcDbEntity
  8
0-0
  6
JWW_DASHED1
 62
   120
370
     5
100
AcDbLine
 10
118.5298507462593
 20
781.1765037119246
 30
0.0
 11
691.5298507462583
 21
781.1765037119246
 31
0.0
  0
ENDSEC
  0
SECTION
  2
OBJECTS
  0
DICTIONARY
  5
C
330
0
100
AcDbDictionary
281
     1
  3
ACAD_GROUP
350
D
  3
ACAD_LAYOUT
350
1A
  3
ACAD_MATERIAL
350
3B
  3
ACAD_MLEADERSTYLE
350
2E1
  3
ACAD_MLINESTYLE
350
17
  3
ACAD_PLOTSETTINGS
350
19
  3
ACAD_PLOTSTYLENAME
350
E
  3
ACAD_TABLESTYLE
350
2E0
  3
ACAD_VISUALSTYLE
350
2A
  0
DICTIONARY
  5
D
102
{ACAD_REACTORS
330
C
102
}
330
C
100
AcDbDictionary
281
     1
  0
DICTIONARY
  5
1A
102
{ACAD_REACTORS
330
C
102
}
330
C
100
AcDbDictionary
281
     1
  3
Layout1
350
1E
  3
Layout2
350
26
  3
Model
350
22
  0
DICTIONARY
  5
3B
102
{ACAD_REACTORS
330
C
102
}
330
C
100
AcDbDictionary
281
     1
  3
ByBlock
350
3D
  3
ByLayer
350
3C
  3
Global
350
3E
  0
DICTIONARY
  5
2E1
102
{ACAD_REACTORS
330
C
102
}
330
C
100
AcDbDictionary
281
     1
  0
DICTIONARY
  5
17
102
{ACAD_REACTORS
330
C
102
}
330
C
100
AcDbDictionary
281
     1
  3
Standard
350
18
  0
DICTIONARY
  5
19
102
{ACAD_REACTORS
330
C
102
}
330
C
100
AcDbDictionary
281
     1
  0
ACDBDICTIONARYWDFLT
  5
E
102
{ACAD_REACTORS
330
C
102
}
330
C
100
AcDbDictionary
281
     1
  3
Normal
350
F
100
AcDbDictionaryWithDefault
340
F
  0
DICTIONARY
  5
2E0
102
{ACAD_REACTORS
330
C
102
}
330
C
100
AcDbDictionary
281
     1
  0
DICTIONARY
  5
2A
102
{ACAD_REACTORS
330
C
102
}
330
C
100
AcDbDictionary
281
     1
  3
2dWireframe
350
2F
  3
3D Hidden
350
31
  3
3dWireframe
350
30
  3
Basic
350
32
  3
Brighten
350
36
  3
ColorChange
350
3A
  3
Conceptual
350
34
  3
Dim
350
35
  3
Facepattern
350
39
  3
Flat
350
2B
  3
FlatWithEdges
350
2C
  3
Gouraud
350
2D
  3
GouraudWithEdges
350
2E
  3
Linepattern
350
38
  3
Realistic
350
33
  3
Thicken
350
37
  0
LAYOUT
  5
1E
102
{ACAD_REACTORS
330
1A
102
}
330
1A
100
AcDbPlotSettings
  1

  2
none_device
  4

  6

 40
0.0
 41
0.0
 42
0.0
 43
0.0
 44
0.0
 45
0.0
 46
0.0
 47
0.0
 48
0.0
 49
0.0
140
0.0
141
0.0
142
1.0
143
1.0
 70
   688
 72
     0
 73
     0
 74
     5
  7

 75
    16
 76
     0
 77
     5
 78
   300
147
1.0
148
0.0
149
0.0
100
AcDbLayout
  1
Layout1
 70
     1
 71
     1
 10
0.0
 20
0.0
 11
420.0
 21
297.0
 12
0.0
 22
0.0
 32
0.0
 14
1.000000000000000E+20
 24
1.000000000000000E+20
 34
1.000000000000000E+20
 15
-1.000000000000000E+20
 25
-1.000000000000000E+20
 35
-1.000000000000000E+20
146
0.0
 13
0.0
 23
0.0
 33
0.0
 16
1.0
 26
0.0
 36
0.0
 17
0.0
 27
1.0
 37
0.0
 76
     0
330
1B
  0
LAYOUT
  5
26
102
{ACAD_REACTORS
330
1A
102
}
330
1A
100
AcDbPlotSettings
  1

  2
none_device
  4

  6

 40
0.0
 41
0.0
 42
0.0
 43
0.0
 44
0.0
 45
0.0
 46
0.0
 47
0.0
 48
0.0
 49
0.0
140
0.0
141
0.0
142
1.0
143
1.0
 70
   688
 72
     0
 73
     0
 74
     5
  7

 75
    16
 76
     0
 77
     5
 78
   300
147
1.0
148
0.0
149
0.0
100
AcDbLayout
  1
Layout2
 70
     1
 71
     2
 10
0.0
 20
0.0
 11
0.0
 21
0.0
 12
0.0
 22
0.0
 32
0.0
 14
0.0
 24
0.0
 34
0.0
 15
0.0
 25
0.0
 35
0.0
146
0.0
 13
0.0
 23
0.0
 33
0.0
 16
1.0
 26
0.0
 36
0.0
 17
0.0
 27
1.0
 37
0.0
 76
     0
330
23
  0
LAYOUT
  5
22
102
{ACAD_REACTORS
330
1A
102
}
330
1A
100
AcDbPlotSettings
  1

  2
none_device
  4

  6

 40
0.0
 41
0.0
 42
0.0
 43
0.0
 44
0.0
 45
0.0
 46
0.0
 47
0.0
 48
0.0
 49
0.0
140
0.0
141
0.0
142
1.0
143
1.0
 70
  1712
 72
     0
 73
     0
 74
     0
  7

 75
     0
 76
     0
 77
     5
 78
   300
147
1.0
148
0.0
149
0.0
100
AcDbLayout
  1
Model
 70
     1
 71
     0
 10
-4455.0
 20
-3150.0
 11
4455.0
 21
3150.0
 12
0.0
 22
0.0
 32
0.0
 14
-4455.0
 24
-3150.0
 34
0.0
 15
4455.0
 25
3150.0
 35
0.0
146
0.0
 13
0.0
 23
0.0
 33
0.0
 16
1.0
 26
0.0
 36
0.0
 17
0.0
 27
1.0
 37
0.0
 76
     0
330
1F
331
29
  0
MATERIAL
  5
3D
102
{ACAD_REACTORS
330
3B
102
}
330
3B
100
AcDbMaterial
  1
ByBlock
 72
     1
 94
      127
  0
MATERIAL
  5
3C
102
{ACAD_REACTORS
330
3B
102
}
330
3B
100
AcDbMaterial
  1
ByLayer
 72
     1
 94
      127
  0
MATERIAL
  5
3E
102
{ACAD_REACTORS
330
3B
102
}
330
3B
100
AcDbMaterial
  1
Global
 72
     1
 94
      127
  0
MLINESTYLE
  5
18
102
{ACAD_REACTORS
330
17
102
}
330
17
100
AcDbMlineStyle
  2
Standard
 70
     0
  3

 62
   256
 51
90.0
 52
90.0
 71
     2
 49
0.5
 62
   256
  6
BYLAYER
 49
-0.5
 62
   256
  6
BYLAYER
  0
ACDBPLACEHOLDER
  5
F
102
{ACAD_REACTORS
330
E
102
}
330
E
  0
VISUALSTYLE
  5
2F
102
{ACAD_REACTORS
330
2A
102
}
330
2A
100
AcDbVisualStyle
  2
2dWireframe
 70
     4
177
     2
291
     0
 71
     0
176
     1
 72
     2
176
     1
 73
     0
176
     1
 90
        0
176
     1
 40
-0.6
176
     1
 41
-30.0
176
     1
 62
     5
 63
     7
421
 16777215
176
     1
 74
     1
176
     1
 91
        4
176
     1
 64
     7
176
     1
 65
   257
176
     1
 75
     1
176
     1
175
     1
176
     1
 42
1.0
176
     1
 92
        0
176
     1
 66
   257
176
     1
 43
1.0
176
     1
 76
     1
176
     1
 77
     6
176
     1
 78
     2
176
     1
 67
     7
176
     1
 79
     5
176
     1
170
     0
176
     1
171
     0
176
     1
290
     0
176
     1
 93
        1
176
     1
 44
0.0
176
     1
173
     0
176
     1
  0
VISUALSTYLE
  5
31
102
{ACAD_REACTORS
330
2A
102
}
330
2A
100
AcDbVisualStyle
  2
3D Hidden
 70
     6
177
     2
291
     0
 71
     1
176
     1
 72
     2
176
     1
 73
     2
176
     1
 90
        0
176
     1
 40
-0.6
176
     1
 41
-30.0
176
     1
 62
     5
 63
     7
421
 16777215
176
     1
 74
     2
176
     1
 91
        2
176
     1
 64
     7
176
     1
 65
   257
176
     1
 75
     2
176
     1
175
     1
176
     1
 42
40.0
176
     1
 92
        0
176
     1
 66
   257
176
     1
 43
1.0
176
     1
 76
     1
176
     1
 77
     6
176
     1
 78
     2
176
     1
 67
     7
176
     1
 79
     3
176
     1
170
     0
176
     1
171
     0
176
     1
290
     0
176
     1
 93
        1
176
     1
 44
0.0
176
     1
173
     0
176
     1
  0
VISUALSTYLE
  5
30
102
{ACAD_REACTORS
330
2A
102
}
330
2A
100
AcDbVisualStyle
  2
3dWireframe
 70
     5
177
     2
291
     0
 71
     0
176
     1
 72
     2
176
     1
 73
     0
176
     1
 90
        0
176
     1
 40
-0.6
176
     1
 41
-30.0
176
     1
 62
     5
 63
     7
421
 16777215
176
     1
 74
     1
176
     1
 91
        4
176
     1
 64
     7
176
     1
 65
   257
176
     1
 75
     1
176
     1
175
     1
176
     1
 42
1.0
176
     1
 92
        0
176
     1
 66
   257
176
     1
 43
1.0
176
     1
 76
     1
176
     1
 77
     6
176
     1
 78
     2
176
     1
 67
     7
176
     1
 79
     5
176
     1
170
     0
176
     1
171
     0
176
     1
290
     0
176
     1
 93
        1
176
     1
 44
0.0
176
     1
173
     0
176
     1
  0
VISUALSTYLE
  5
32
102
{ACAD_REACTORS
330
2A
102
}
330
2A
100
AcDbVisualStyle
  2
Basic
 70
     7
177
     2
291
     1
 71
     1
176
     1
 72
     0
176
     1
 73
     1
176
     1
 90
        0
176
     1
 40
-0.6
176
     1
 41
-30.0
176
     1
 62
     5
 63
     7
421
 16777215
176
     1
 74
     0
176
     1
 91
        4
176
     1
 64
     7
176
     1
 65
   257
176
     1
 75
     1
176
     1
175
     1
176
     1
 42
1.0
176
     1
 92
        8
176
     1
 66
     7
176
     1
 43
1.0
176
     1
 76
     1
176
     1
 77
     6
176
     1
 78
     2
176
     1
 67
     7
176
     1
 79
     5
176
     1
170
     0
176
     1
171
     0
176
     1
290
     0
176
     1
 93
        1
176
     1
 44
0.0
176
     1
173
     0
176
     1
  0
VISUALSTYLE
  5
36
102
{ACAD_REACTORS
330
2A
102
}
330
2A
100
AcDbVisualStyle
  2
Brighten
 70
    12
177
     2
291
     1
 71
     2
176
     1
 72
     2
176
     1
 73
     0
176
     1
 90
        0
176
     1
 40
-0.6
176
     1
 41
-30.0
176
     1
 62
     5
 63
     7
421
 16777215
176
     1
 74
     1
176
     1
 91
        4
176
     1
 64
     7
176
     1
 65
   257
176
     1
 75
     1
176
     1
175
     1
176
     1
 42
1.0
176
     1
 92
        8
176
     1
 66
     7
176
     1
 43
1.0
176
     1
 76
     1
176
     1
 77
     6
176
     1
 78
     2
176
     1
 67
     7
176
     1
 79
     5
176
     1
170
     0
176
     1
171
     0
176
     1
290
     0
176
     1
 93
        1
176
     1
 44
50.0
176
     1
173
     0
176
     1
  0
VISUALSTYLE
  5
3A
102
{ACAD_REACTORS
330
2A
102
}
330
2A
100
AcDbVisualStyle
  2
ColorChange
 70
    16
177
     2
291
     1
 71
     2
176
     1
 72
     2
176
     1
 73
     3
176
     1
 90
        0
176
     1
 40
-0.6
176
     1
 41
-30.0
176
     1
 62
     5
 63
     8
421
  8421504
176
     1
 74
     1
176
     1
 91
        4
176
     1
 64
     7
176
     1
 65
   257
176
     1
 75
     1
176
     1
175
     1
176
     1
 42
1.0
176
     1
 92
        8
176
     1
 66
     8
424
  8421504
176
     1
 43
1.0
176
     1
 76
     1
176
     1
 77
     6
176
     1
 78
     2
176
     1
 67
     7
176
     1
 79
     5
176
     1
170
     0
176
     1
171
     0
176
     1
290
     0
176
     1
 93
        1
176
     1
 44
0.0
176
     1
173
     0
176
     1
  0
VISUALSTYLE
  5
34
102
{ACAD_REACTORS
330
2A
102
}
330
2A
100
AcDbVisualStyle
  2
Conceptual
 70
     9
177
     2
291
     0
 71
     3
176
     1
 72
     2
176
     1
 73
     0
176
     1
 90
        0
176
     1
 40
-0.6
176
     1
 41
-30.0
176
     1
 62
     5
 63
     7
421
 16777215
176
     1
 74
     2
176
     1
 91
        2
176
     1
 64
     7
176
     1
 65
   257
176
     1
 75
     1
176
     1
175
     1
176
     1
 42
40.0
176
     1
 92
        8
176
     1
 66
     7
176
     1
 43
1.0
176
     1
 76
     1
176
     1
 77
     6
176
     1
 78
     2
176
     1
 67
     7
176
     1
 79
     3
176
     1
170
     0
176
     1
171
     0
176
     1
290
     0
176
     1
 93
        1
176
     1
 44
0.0
176
     1
173
     0
176
     1
  0
VISUALSTYLE
  5
35
102
{ACAD_REACTORS
330
2A
102
}
330
2A
100
AcDbVisualStyle
  2
Dim
 70
    11
177
     2
291
     1
 71
     2
176
     1
 72
     2
176
     1
 73
     0
176
     1
 90
        0
176
     1
 40
-0.6
176
     1
 41
-30.0
176
     1
 62
     5
 63
     7
421
 16777215
176
     1
 74
     1
176
     1
 91
        4
176
     1
 64
     7
176
     1
 65
   257
176
     1
 75
     1
176
     1
175
     1
176
     1
 42
1.0
176
     1
 92
        8
176
     1
 66
     7
176
     1
 43
1.0
176
     1
 76
     1
176
     1
 77
     6
176
     1
 78
     2
176
     1
 67
     7
176
     1
 79
     5
176
     1
170
     0
176
     1
171
     0
176
     1
290
     0
176
     1
 93
        1
176
     1
 44
-50.0
176
     1
173
     0
176
     1
  0
VISUALSTYLE
  5
39
102
{ACAD_REACTORS
330
2A
102
}
330
2A
100
AcDbVisualStyle
  2
Facepattern
 70
    15
177
     2
291
     1
 71
     2
176
     1
 72
     2
176
     1
 73
     0
176
     1
 90
        0
176
     1
 40
-0.6
176
     1
 41
-30.0
176
     1
 62
     5
 63
     7
421
 16777215
176
     1
 74
     1
176
     1
 91
        4
176
     1
 64
     7
176
     1
 65
   257
176
     1
 75
     1
176
     1
175
     1
176
     1
 42
1.0
176
     1
 92
        8
176
     1
 66
     7
176
     1
 43
1.0
176
     1
 76
     1
176
     1
 77
     6
176
     1
 78
     2
176
     1
 67
     7
176
     1
 79
     5
176
     1
170
     0
176
     1
171
     0
176
     1
290
     0
176
     1
 93
        1
176
     1
 44
0.0
176
     1
173
     0
176
     1
  0
VISUALSTYLE
  5
2B
102
{ACAD_REACTORS
330
2A
102
}
330
2A
100
AcDbVisualStyle
  2
Flat
 70
     0
177
     2
291
     1
 71
     2
176
     1
 72
     1
176
     1
 73
     1
176
     1
 90
        2
176
     1
 40
-0.6
176
     1
 41
30.0
176
     1
 62
     5
 63
     7
421
 16777215
176
     1
 74
     0
176
     1
 91
        4
176
     1
 64
     7
176
     1
 65
   257
176
     1
 75
     1
176
     1
175
     1
176
     1
 42
1.0
176
     1
 92
        8
176
     1
 66
     7
176
     1
 43
1.0
176
     1
 76
     1
176
     1
 77
     6
176
     1
 78
     2
176
     1
 67
     7
176
     1
 79
     5
176
     1
170
     0
176
     1
171
     0
176
     1
290
     0
176
     1
 93
       13
176
     1
 44
0.0
176
     1
173
     0
176
     1
  0
VISUALSTYLE
  5
2C
102
{ACAD_REACTORS
330
2A
102
}
330
2A
100
AcDbVisualStyle
  2
FlatWithEdges
 70
     1
177
     2
291
     1
 71
     2
176
     1
 72
     1
176
     1
 73
     1
176
     1
 90
        2
176
     1
 40
-0.6
176
     1
 41
30.0
176
     1
 62
     5
 63
     7
421
 16777215
176
     1
 74
     1
176
     1
 91
        4
176
     1
 64
     7
176
     1
 65
   257
176
     1
 75
     1
176
     1
175
     1
176
     1
 42
1.0
176
     1
 92
        0
176
     1
 66
   257
176
     1
 43
1.0
176
     1
 76
     1
176
     1
 77
     6
176
     1
 78
     2
176
     1
 67
     7
176
     1
 79
     5
176
     1
170
     0
176
     1
171
     0
176
     1
290
     0
176
     1
 93
       13
176
     1
 44
0.0
176
     1
173
     0
176
     1
  0
VISUALSTYLE
  5
2D
102
{ACAD_REACTORS
330
2A
102
}
330
2A
100
AcDbVisualStyle
  2
Gouraud
 70
     2
177
     2
291
     1
 71
     2
176
     1
 72
     2
176
     1
 73
     1
176
     1
 90
        2
176
     1
 40
-0.6
176
     1
 41
30.0
176
     1
 62
     5
 63
     7
421
 16777215
176
     1
 74
     0
176
     1
 91
        4
176
     1
 64
     7
176
     1
 65
   257
176
     1
 75
     1
176
     1
175
     1
176
     1
 42
1.0
176
     1
 92
        0
176
     1
 66
     7
176
     1
 43
1.0
176
     1
 76
     1
176
     1
 77
     6
176
     1
 78
     2
176
     1
 67
     7
176
     1
 79
     5
176
     1
170
     0
176
     1
171
     0
176
     1
290
     0
176
     1
 93
       13
176
     1
 44
0.0
176
     1
173
     0
176
     1
  0
VISUALSTYLE
  5
2E
102
{ACAD_REACTORS
330
2A
102
}
330
2A
100
AcDbVisualStyle
  2
GouraudWithEdges
 70
     3
177
     2
291
     1
 71
     2
176
     1
 72
     2
176
     1
 73
     1
176
     1
 90
        2
176
     1
 40
-0.6
176
     1
 41
30.0
176
     1
 62
     5
 63
     7
421
 16777215
176
     1
 74
     1
176
     1
 91
        4
176
     1
 64
     7
176
     1
 65
   257
176
     1
 75
     1
176
     1
175
     1
176
     1
 42
1.0
176
     1
 92
        0
176
     1
 66
   257
176
     1
 43
1.0
176
     1
 76
     1
176
     1
 77
     6
176
     1
 78
     2
176
     1
 67
     7
176
     1
 79
     5
176
     1
170
     0
176
     1
171
     0
176
     1
290
     0
176
     1
 93
       13
176
     1
 44
0.0
176
     1
173
     0
176
     1
  0
VISUALSTYLE
  5
38
102
{ACAD_REACTORS
330
2A
102
}
330
2A
100
AcDbVisualStyle
  2
Linepattern
 70
    14
177
     2
291
     1
 71
     2
176
     1
 72
     2
176
     1
 73
     0
176
     1
 90
        0
176
     1
 40
-0.6
176
     1
 41
-30.0
176
     1
 62
     5
 63
     7
421
 16777215
176
     1
 74
     1
176
     1
 91
        4
176
     1
 64
     7
176
     1
 65
   257
176
     1
 75
     7
176
     1
175
     7
176
     1
 42
1.0
176
     1
 92
        8
176
     1
 66
     7
176
     1
 43
1.0
176
     1
 76
     1
176
     1
 77
     6
176
     1
 78
     2
176
     1
 67
     7
176
     1
 79
     5
176
     1
170
     0
176
     1
171
     0
176
     1
290
     0
176
     1
 93
        1
176
     1
 44
0.0
176
     1
173
     0
176
     1
  0
VISUALSTYLE
  5
33
102
{ACAD_REACTORS
330
2A
102
}
330
2A
100
AcDbVisualStyle
  2
Realistic
 70
     8
177
     2
291
     0
 71
     2
176
     1
 72
     2
176
     1
 73
     0
176
     1
 90
        0
176
     1
 40
-0.6
176
     1
 41
-30.0
176
     1
 62
     5
 63
     7
421
 16777215
176
     1
 74
     1
176
     1
 91
        0
176
     1
 64
     7
176
     1
 65
   257
176
     1
 75
     1
176
     1
175
     1
176
     1
 42
1.0
176
     1
 92
        8
176
     1
 66
     8
424
  7895160
176
     1
 43
1.0
176
     1
 76
     1
176
     1
 77
     6
176
     1
 78
     2
176
     1
 67
     7
176
     1
 79
     5
176
     1
170
     0
176
     1
171
     0
176
     1
290
     0
176
     1
 93
       13
176
     1
 44
0.0
176
     1
173
     0
176
     1
  0
VISUALSTYLE
  5
37
102
{ACAD_REACTORS
330
2A
102
}
330
2A
100
AcDbVisualStyle
  2
Thicken
 70
    13
177
     2
291
     1
 71
     2
176
     1
 72
     2
176
     1
 73
     0
176
     1
 90
        0
176
     1
 40
-0.6
176
     1
 41
-30.0
176
     1
 62
     5
 63
     7
421
 16777215
176
     1
 74
     1
176
     1
 91
        4
176
     1
 64
     7
176
     1
 65
   257
176
     1
 75
     1
176
     1
175
     1
176
     1
 42
1.0
176
     1
 92
       12
176
     1
 66
     7
176
     1
 43
1.0
176
     1
 76
     1
176
     1
 77
     6
176
     1
 78
     2
176
     1
 67
     7
176
     1
 79
     5
176
     1
170
     0
176
     1
171
     0
176
     1
290
     0
176
     1
 93
        1
176
     1
 44
0.0
176
     1
173
     0
176
     1
  0
ENDSEC
  0
EOF
