  0
SECTION
  2
HEADER
  9
$ACADVER
  1
AC1024
  9
$ACADMAINTVER
 70
     6
  9
$DWGCODEPAGE
  3
ANSI_932
  9
$INSBASE
 10
0.0
 20
0.0
 30
0.0
  9
$EXTMIN
 10
-4455.0
 20
-3150.0
 30
0.0
  9
$EXTMAX
 10
4455.0
 20
3150.0
 30
0.0
  9
$LIMMIN
 10
-4455.0
 20
-3150.0
  9
$LIMMAX
 10
4455.0
 20
3150.0
  9
$ORTHOMODE
 70
     0
  9
$REGENMODE
 70
     1
  9
$FILLMODE
 70
     1
  9
$QTEXTMODE
 70
     0
  9
$MIRRTEXT
 70
     1
  9
$LTSCALE
 40
30.0
  9
$ATTMODE
 70
     1
  9
$TEXTSIZE
 40
2.5
  9
$TRACEWID
 40
1.0
  9
$TEXTSTYLE
  7
Standard
  9
$CLAYER
  8
0
  9
$CELTYPE
  6
ByLayer
  9
$CECOLOR
 62
   256
  9
$CELTSCALE
 40
1.0
  9
$DISPSILH
 70
     0
  9
$DIMSCALE
 40
1.0
  9
$DIMASZ
 40
2.5
  9
$DIMEXO
 40
0.625
  9
$DIMDLI
 40
3.75
  9
$DIMRND
 40
0.0
  9
$DIMDLE
 40
0.0
  9
$DIMEXE
 40
1.25
  9
$DIMTP
 40
0.0
  9
$DIMTM
 40
0.0
  9
$DIMTXT
 40
2.5
  9
$DIMCEN
 40
2.5
  9
$DIMTSZ
 40
0.0
  9
$DIMTOL
 70
     0
  9
$DIMLIM
 70
     0
  9
$DIMTIH
 70
     0
  9
$DIMTOH
 70
     0
  9
$DIMSE1
 70
     0
  9
$DIMSE2
 70
     0
  9
$DIMTAD
 70
     1
  9
$DIMZIN
 70
     8
  9
$DIMBLK
  1

  9
$DIMASO
 70
     1
  9
$DIMSHO
 70
     1
  9
$DIMPOST
  1

  9
$DIMAPOST
  1

  9
$DIMALT
 70
     0
  9
$DIMALTD
 70
     3
  9
$DIMALTF
 40
0.03937007874016
  9
$DIMLFAC
 40
1.0
  9
$DIMTOFL
 70
     1
  9
$DIMTVP
 40
0.0
  9
$DIMTIX
 70
     0
  9
$DIMSOXD
 70
     0
  9
$DIMSAH
 70
     0
  9
$DIMBLK1
  1

  9
$DIMBLK2
  1

  9
$DIMSTYLE
  2
ISO-25
  9
$DIMCLRD
 70
     0
  9
$DIMCLRE
 70
     0
  9
$DIMCLRT
 70
     0
  9
$DIMTFAC
 40
1.0
  9
$DIMGAP
 40
0.625
  9
$DIMJUST
 70
     0
  9
$DIMSD1
 70
     0
  9
$DIMSD2
 70
     0
  9
$DIMTOLJ
 70
     0
  9
$DIMTZIN
 70
     8
  9
$DIMALTZ
 70
     0
  9
$DIMALTTZ
 70
     0
  9
$DIMUPT
 70
     0
  9
$DIMDEC
 70
     2
  9
$DIMTDEC
 70
     2
  9
$DIMALTU
 70
     2
  9
$DIMALTTD
 70
     3
  9
$DIMTXSTY
  7
Standard
  9
$DIMAUNIT
 70
     0
  9
$DIMADEC
 70
     0
  9
$DIMALTRND
 40
0.0
  9
$DIMAZIN
 70
     0
  9
$DIMDSEP
 70
    44
  9
$DIMATFIT
 70
     3
  9
$DIMFRAC
 70
     0
  9
$DIMLDRBLK
  1

  9
$DIMLUNIT
 70
     2
  9
$DIMLWD
 70
    -2
  9
$DIMLWE
 70
    -2
  9
$DIMTMOVE
 70
     0
  9
$DIMFXL
 40
1.0
  9
$DIMFXLON
 70
     0
  9
$DIMJOGANG
 40
0.7853981633974483
  9
$DIMTFILL
 70
     0
  9
$DIMTFILLCLR
 70
     0
  9
$DIMARCSYM
 70
     0
  9
$DIMLTYPE
  6

  9
$DIMLTEX1
  6

  9
$DIMLTEX2
  6

  9
$DIMTXTDIRECTION
 70
     0
  9
$LUNITS
 70
     2
  9
$LUPREC
 70
     4
  9
$SKETCHINC
 40
1.0
  9
$FILLETRAD
 40
10.0
  9
$AUNITS
 70
     0
  9
$AUPREC
 70
     0
  9
$MENU
  1
.
  9
$ELEVATION
 40
0.0
  9
$PELEVATION
 40
0.0
  9
$THICKNESS
 40
0.0
  9
$LIMCHECK
 70
     0
  9
$CHAMFERA
 40
10.0
  9
$CHAMFERB
 40
10.0
  9
$CHAMFERC
 40
20.0
  9
$CHAMFERD
 40
0.0
  9
$SKPOLY
 70
     0
  9
$TDCREATE
 40
2457913.545549988
  9
$TDUCREATE
 40
2457913.170549988
  9
$TDUPDATE
 40
2457913.54555
  9
$TDUUPDATE
 40
2457913.17055
  9
$TDINDWG
 40
0.0000000116
  9
$TDUSRTIMER
 40
0.0000000116
  9
$USRTIMER
 70
     1
  9
$ANGBASE
 50
0.0
  9
$ANGDIR
 70
     0
  9
$PDMODE
 70
     0
  9
$PDSIZE
 40
0.0
  9
$PLINEWID
 40
0.0
  9
$SPLFRAME
 70
     0
  9
$SPLINETYPE
 70
     6
  9
$SPLINESEGS
 70
     8
  9
$HANDSEED
  5
2F6
  9
$SURFTAB1
 70
     6
  9
$SURFTAB2
 70
     6
  9
$SURFTYPE
 70
     6
  9
$SURFU
 70
     6
  9
$SURFV
 70
     6
  9
$UCSBASE
  2

  9
$UCSNAME
  2

  9
$UCSORG
 10
0.0
 20
0.0
 30
0.0
  9
$UCSXDIR
 10
1.0
 20
0.0
 30
0.0
  9
$UCSYDIR
 10
0.0
 20
1.0
 30
0.0
  9
$UCSORTHOREF
  2

  9
$UCSORTHOVIEW
 70
     0
  9
$UCSORGTOP
 10
0.0
 20
0.0
 30
0.0
  9
$UCSORGBOTTOM
 10
0.0
 20
0.0
 30
0.0
  9
$UCSORGLEFT
 10
0.0
 20
0.0
 30
0.0
  9
$UCSORGRIGHT
 10
0.0
 20
0.0
 30
0.0
  9
$UCSORGFRONT
 10
0.0
 20
0.0
 30
0.0
  9
$UCSORGBACK
 10
0.0
 20
0.0
 30
0.0
  9
$PUCSBASE
  2

  9
$PUCSNAME
  2

  9
$PUCSORG
 10
0.0
 20
0.0
 30
0.0
  9
$PUCSXDIR
 10
1.0
 20
0.0
 30
0.0
  9
$PUCSYDIR
 10
0.0
 20
1.0
 30
0.0
  9
$PUCSORTHOREF
  2

  9
$PUCSORTHOVIEW
 70
     0
  9
$PUCSORGTOP
 10
0.0
 20
0.0
 30
0.0
  9
$PUCSORGBOTTOM
 10
0.0
 20
0.0
 30
0.0
  9
$PUCSORGLEFT
 10
0.0
 20
0.0
 30
0.0
  9
$PUCSORGRIGHT
 10
0.0
 20
0.0
 30
0.0
  9
$PUCSORGFRONT
 10
0.0
 20
0.0
 30
0.0
  9
$PUCSORGBACK
 10
0.0
 20
0.0
 30
0.0
  9
$USERI1
 70
     0
  9
$USERI2
 70
     0
  9
$USERI3
 70
     0
  9
$USERI4
 70
     0
  9
$USERI5
 70
     0
  9
$USERR1
 40
0.0
  9
$USERR2
 40
0.0
  9
$USERR3
 40
0.0
  9
$USERR4
 40
0.0
  9
$USERR5
 40
0.0
  9
$WORLDVIEW
 70
     1
  9
$SHADEDGE
 70
     3
  9
$SHADEDIF
 70
    70
  9
$TILEMODE
 70
     1
  9
$MAXACTVP
 70
    64
  9
$PINSBASE
 10
0.0
 20
0.0
 30
0.0
  9
$PLIMCHECK
 70
     0
  9
$PEXTMIN
 10
1.000000000000000E+20
 20
1.000000000000000E+20
 30
1.000000000000000E+20
  9
$PEXTMAX
 10
-1.000000000000000E+20
 20
-1.000000000000000E+20
 30
-1.000000000000000E+20
  9
$PLIMMIN
 10
0.0
 20
0.0
  9
$PLIMMAX
 10
420.0
 20
297.0
  9
$UNITMODE
 70
     0
  9
$VISRETAIN
 70
     1
  9
$PLINEGEN
 70
     0
  9
$PSLTSCALE
 70
     1
  9
$TREEDEPTH
 70
  3020
  9
$CMLSTYLE
  2
Standard
  9
$CMLJUST
 70
     0
  9
$CMLSCALE
 40
20.0
  9
$PROXYGRAPHICS
 70
     1
  9
$MEASUREMENT
 70
     1
  9
$CELWEIGHT
370
    -1
  9
$ENDCAPS
280
     0
  9
$JOINSTYLE
280
     0
  9
$LWDISPLAY
290
     0
  9
$INSUNITS
 70
     4
  9
$HYPERLINKBASE
  1

  9
$STYLESHEET
  1

  9
$XEDIT
290
     1
  9
$CEPSNTYPE
380
     0
  9
$PSTYLEMODE
290
     1
  9
$FINGERPRINTGUID
  2
{A45A321D-B1FF-4500-AECA-9EE80EDA5A7C}
  9
$VERSIONGUID
  2
{FAEB1C32-E019-11D5-929B-00C0DF256EC4}
  9
$EXTNAMES
290
     1
  9
$PSVPSCALE
 40
0.0
  9
$OLESTARTUP
290
     0
  9
$SORTENTS
280
   127
  9
$INDEXCTL
280
     0
  9
$HIDETEXT
280
     1
  9
$XCLIPFRAME
280
     2
  9
$HALOGAP
280
     0
  9
$OBSCOLOR
 70
   257
  9
$OBSLTYPE
280
     0
  9
$INTERSECTIONDISPLAY
280
     0
  9
$INTERSECTIONCOLOR
 70
   257
  9
$DIMASSOC
280
     2
  9
$PROJECTNAME
  1

  9
$CAMERADISPLAY
290
     0
  9
$LENSLENGTH
 40
50.0
  9
$CAMERAHEIGHT
 40
0.0
  9
$STEPSPERSEC
 40
2.0
  9
$STEPSIZE
 40
6.0
  9
$3DDWFPREC
 40
2.0
  9
$PSOLWIDTH
 40
5.0
  9
$PSOLHEIGHT
 40
80.0
  9
$LOFTANG1
 40
1.570796326794897
  9
$LOFTANG2
 40
1.570796326794897
  9
$LOFTMAG1
 40
0.0
  9
$LOFTMAG2
 40
0.0
  9
$LOFTPARAM
 70
     7
  9
$LOFTNORMALS
280
     1
  9
$LATITUDE
 40
37.795
  9
$LONGITUDE
 40
-122.394
  9
$NORTHDIRECTION
 40
0.0
  9
$TIMEZONE
 70
 -8000
  9
$LIGHTGLYPHDISPLAY
280
     1
  9
$TILEMODELIGHTSYNCH
280
     1
  9
$SOLIDHIST
280
     1
  9
$SHOWHIST
280
     1
  9
$DWFFRAME
280
     2
  9
$DGNFRAME
280
     2
  9
$REALWORLDSCALE
290
     1
  9
$INTERFERECOLOR
 62
   256
  9
$CSHADOW
280
     0
  9
$SHADOWPLANELOCATION
 40
0.0
  0
ENDSEC
  0
SECTION
  2
CLASSES
  0
CLASS
  1
ACDBDICTIONARYWDFLT
  2
AcDbDictionaryWithDefault
  3
ObjectDBX Classes
 90
        0
 91
        4
280
     0
281
     0
  0
CLASS
  1
VISUALSTYLE
  2
AcDbVisualStyle
  3
ObjectDBX Classes
 90
     4095
 91
        4
280
     0
281
     0
  0
CLASS
  1
MATERIAL
  2
AcDbMaterial
  3
ObjectDBX Classes
 90
     1153
 91
        4
280
     0
281
     0
  0
ENDSEC
  0
SECTION
  2
TABLES
  0
TABLE
  2
VPORT
  5
8
330
0
100
AcDbSymbolTable
 70
     1
  0
VPORT
  5
29
330
8
100
AcDbSymbolTableRecord
100
AcDbViewportTableRecord
  2
*Active
 70
     0
 10
0.0
 20
0.0
 11
1.0
 21
1.0
 12
0.0
 22
0.0
 13
0.0
 23
0.0
 14
10.0
 24
10.0
 15
10.0
 25
10.0
 16
0.0
 26
0.0
 36
1.0
 17
0.0
 27
0.0
 37
0.0
 40
6930.000000000001
 41
1.414285714285714
 42
50.0
 43
0.0
 44
0.0
 50
0.0
 51
0.0
 71
     0
 72
 10000
 73
     1
 74
     3
 75
     0
 76
     0
 77
     0
 78
     0
281
     0
 65
     1
110
0.0
120
0.0
130
0.0
111
1.0
121
0.0
131
0.0
112
0.0
122
1.0
132
0.0
 79
     0
146
0.0
 60
     3
 61
     5
292
     1
282
     1
141
0.0
142
0.0
 63
   250
  0
ENDTAB
  0
TABLE
  2
LTYPE
  5
5
330
0
100
AcDbSymbolTable
 70
     2
  0
LTYPE
  5
14
330
5
100
AcDbSymbolTableRecord
100
AcDbLinetypeTableRecord
  2
ByBlock
 70
     0
  3

 72
    65
 73
     0
 40
0.0
  0
LTYPE
  5
15
330
5
100
AcDbSymbolTableRecord
100
AcDbLinetypeTableRecord
  2
ByLayer
 70
     0
  3

 72
    65
 73
     0
 40
0.0
  0
LTYPE
  5
16
330
5
100
AcDbSymbolTableRecord
100
AcDbLinetypeTableRecord
  2
Continuous
 70
     0
  3
Solid line
 72
    65
 73
     0
 40
0.0
  0
LTYPE
  5
3F
330
5
100
AcDbSymbolTableRecord
100
AcDbLinetypeTableRecord
  2
JWW_DASHED1
 70
     0
  3
-  --  --  --  --  --  --  --  -
 72
    65
 73
     2
 40
1.693333333333333
 49
0.8466666666666667
 74
     0
 49
-0.8466666666666667
 74
     0
  0
ENDTAB
  0
TABLE
  2
LAYER
  5
2
330
0
100
AcDbSymbolTable
 70
     3
  0
LAYER
  5
10
330
2
100
AcDbSymbolTableRecord
100
AcDbLayerTableRecord
  2
0
 70
     0
 62
     7
  6
Continuous
370
    -3
390
F
347
3E
  0
LAYER
  5
40
330
2
100
AcDbSymbolTableRecord
100
AcDbLayerTableRecord
  2
寸法
 70
     0
 62
     7
  6
Continuous
370
    -3
390
F
347
3E
  0
LAYER
  5
41
330
2
100
AcDbSymbolTableRecord
100
AcDbLayerTableRecord
  2
0-0
 70
     0
 62
     7
  6
Continuous
370
    -3
390
F
347
3E
  0
ENDTAB
  0
TABLE
  2
STYLE
  5
3
330
0
100
AcDbSymbolTable
 70
     1
  0
STYLE
  5
11
330
3
100
AcDbSymbolTableRecord
100
AcDbTextStyleTableRecord
  2
Standard
 70
     0
 40
0.0
 41
1.0
 50
0.0
 71
     0
 42
2.5
  3
txt
  4

  0
ENDTAB
  0
TABLE
  2
VIEW
  5
6
330
0
100
AcDbSymbolTable
 70
     0
  0
ENDTAB
  0
TABLE
  2
UCS
  5
7
330
0
100
AcDbSymbolTable
 70
     0
  0
ENDTAB
  0
TABLE
  2
APPID
  5
9
330
0
100
AcDbSymbolTable
 70
     1
  0
APPID
  5
12
330
9
100
AcDbSymbolTableRecord
100
AcDbRegAppTableRecord
  2
ACAD
 70
     0
  0
ENDTAB
  0
TABLE
  2
DIMSTYLE
  5
A
330
0
100
AcDbSymbolTable
 70
     1
100
AcDbDimStyleTable
  0
DIMSTYLE
105
27
330
A
100
AcDbSymbolTableRecord
100
AcDbDimStyleTableRecord
  2
ISO-25
 70
     0
 41
2.5
 42
0.625
 43
3.75
 44
1.25
 73
     0
 74
     0
 77
     1
 78
     8
140
2.5
141
2.5
143
0.03937007874016
147
0.625
171
     3
172
     1
178
     0
271
     2
272
     2
274
     3
278
    44
283
     0
284
     8
340
11
  0
ENDTAB
  0
TABLE
  2
BLOCK_RECORD
  5
1
330
0
100
AcDbSymbolTable
 70
     1
  0
BLOCK_RECORD
  5
1F
330
1
100
AcDbSymbolTableRecord
100
AcDbBlockTableRecord
  2
*Model_Space
340
22
 70
     0
280
     1
281
     0
  0
BLOCK_RECORD
  5
1B
330
1
100
AcDbSymbolTableRecord
100
AcDbBlockTableRecord
  2
*Paper_Space
340
1E
 70
     0
280
     1
281
     0
  0
BLOCK_RECORD
  5
23
330
1
100
AcDbSymbolTableRecord
100
AcDbBlockTableRecord
  2
*Paper_Space0
340
26
 70
     0
280
     1
281
     0
  0
ENDTAB
  0
ENDSEC
  0
SECTION
  2
BLOCKS
  0
BLOCK
  5
20
330
1F
100
AcDbEntity
  8
0
100
AcDbBlockBegin
  2
*Model_Space
 70
     0
 10
0.0
 20
0.0
 30
0.0
  3
*Model_Space
  1

  0
ENDBLK
  5
21
330
1F
100
AcDbEntity
  8
0
100
AcDbBlockEnd
  0
BLOCK
  5
1C
330
1B
100
AcDbEntity
 67
     1
  8
0
100
AcDbBlockBegin
  2
*Paper_Space
 70
     0
 10
0.0
 20
0.0
 30
0.0
  3
*Paper_Space
  1

  0
ENDBLK
  5
1D
330
1B
100
AcDbEntity
 67
     1
  8
0
100
AcDbBlockEnd
  0
BLOCK
  5
24
330
23
100
AcDbEntity
  8
0
100
AcDbBlockBegin
  2
*Paper_Space0
 70
     0
 10
0.0
 20
0.0
 30
0.0
  3
*Paper_Space0
  1

  0
ENDBLK
  5
25
330
23
100
AcDbEntity
  8
0
100
AcDbBlockEnd
  0
ENDSEC
  0
SECTION
  2
ENTITIES
  0
LINE
  5
42
330
1F
100
AcDbEntity
  8
寸法
  6
Continuous
 62
   120
370
     5
100
AcDbLine
 10
-1307.405796527678
 20
-1290.806333824994
 30
0.0
 11
-857.4057965276783
 21
-1290.806333824994
 31
0.0
  0
LINE
  5
43
330
1F
100
AcDbEntity
  8
寸法
  6
Continuous
 62
   120
370
     5
100
AcDbLine
 10
-1107.405796527678
 20
-1270.806333824994
 30
0.0
 11
-857.4057965276783
 21
-1270.806333824994
 31
0.0
  0
LWPOLYLINE
  5
44
330
1F
100
AcDbEntity
  8
寸法
  6
Continuous
 62
     7
370
     9
100
AcDbPolyline
 90
        4
 70
     1
 43
3.0
 10
-1305.905796527678
 20
-1290.806333824994
 42
0.4142135623731
 10
-1307.405796527678
 20
-1289.306333824994
 42
0.4142135623731
 10
-1308.905796527678
 20
-1290.806333824994
 42
0.4142135623731
 10
-1307.405796527678
 20
-1292.306333824994
 42
0.4142135623731
  0
LWPOLYLINE
  5
45
330
1F
100
AcDbEntity
  8
寸法
  6
Continuous
 62
     7
370
     9
100
AcDbPolyline
 90
        4
 70
     1
 43
3.0
 10
-1105.905796527678
 20
-1270.806333824994
 42
0.4142135623731
 10
-1107.405796527678
 20
-1269.306333824994
 42
0.4142135623731
 10
-1108.905796527678
 20
-1270.806333824994
 42
0.4142135623731
 10
-1107.405796527678
 20
-1272.306333824993
 42
0.4142135623731
  0
LINE
  5
46
330
1F
100
AcDbEntity
  8
寸法
  6
Continuous
 62
   120
370
     5
100
AcDbLine
 10
-777.4057965276777
 20
-1740.806333824994
 30
0.0
 11
-777.4057965276777
 21
-1340.806333824994
 31
0.0
  0
LINE
  5
47
330
1F
100
AcDbEntity
  8
寸法
  6
Continuous
 62
   120
370
     5
100
AcDbLine
 10
-807.4057965276777
 20
-1940.806333824993
 30
0.0
 11
-807.4057965276777
 21
-1340.806333824994
 31
0.0
  0
LINE
  5
48
330
1F
100
AcDbEntity
  8
寸法
  6
Continuous
 62
   120
370
     5
100
AcDbLine
 10
809.5942034723216
 20
-1540.806333824994
 30
0.0
 11
809.5942034723216
 21
-1340.806333824994
 31
0.0
  0
LINE
  5
49
330
1F
100
AcDbEntity
  8
寸法
  6
Continuous
 62
   120
370
     5
100
AcDbLine
 10
-777.4057965276777
 20
-1740.806333824994
 30
0.0
 11
806.5942034723209
 21
-1740.806333824994
 31
0.0
  0
LINE
  5
4A
330
1F
100
AcDbEntity
  8
寸法
  6
Continuous
 62
   120
370
     5
100
AcDbLine
 10
806.5942034723209
 20
-1740.806333824994
 30
0.0
 11
806.5942034723209
 21
-1340.806333824994
 31
0.0
  0
LINE
  5
4B
330
1F
100
AcDbEntity
  8
寸法
  6
Continuous
 62
   120
370
     5
100
AcDbLine
 10
-807.4057965276777
 20
-1940.806333824993
 30
0.0
 11
836.5942034723209
 21
-1940.806333824993
 31
0.0
  0
LINE
  5
4C
330
1F
100
AcDbEntity
  8
寸法
  6
Continuous
 62
   120
370
     5
100
AcDbLine
 10
836.5942034723209
 20
-1940.806333824993
 30
0.0
 11
836.5942034723209
 21
-1340.806333824994
 31
0.0
  0
LINE
  5
4D
330
1F
100
AcDbEntity
  8
寸法
  6
Continuous
 62
   120
370
     5
100
AcDbLine
 10
-0.4057965276783904
 20
-1540.806333824994
 30
0.0
 11
-0.4057965276783904
 21
-1340.806333824994
 31
0.0
  0
LINE
  5
4E
330
1F
100
AcDbEntity
  8
寸法
  6
Continuous
 62
   120
370
     5
100
AcDbLine
 10
-0.4057965276783904
 20
-1540.806333824994
 30
0.0
 11
809.5942034723216
 21
-1540.806333824994
 31
0.0
  0
LWPOLYLINE
  5
4F
330
1F
100
AcDbEntity
  8
寸法
  6
Continuous
 62
     7
370
     9
100
AcDbPolyline
 90
        4
 70
     1
 43
3.0
 10
-775.9057965276777
 20
-1740.806333824994
 42
0.4142135623731
 10
-777.4057965276777
 20
-1739.306333824994
 42
0.4142135623731
 10
-778.9057965276777
 20
-1740.806333824994
 42
0.4142135623731
 10
-777.4057965276777
 20
-1742.306333824994
 42
0.4142135623731
  0
LWPOLYLINE
  5
50
330
1F
100
AcDbEntity
  8
寸法
  6
Continuous
 62
     7
370
     9
100
AcDbPolyline
 90
        4
 70
     1
 43
3.0
 10
-805.9057965276777
 20
-1940.806333824993
 42
0.4142135623731
 10
-807.4057965276777
 20
-1939.306333824993
 42
0.4142135623731
 10
-808.9057965276777
 20
-1940.806333824993
 42
0.4142135623731
 10
-807.4057965276777
 20
-1942.306333824993
 42
0.4142135623731
  0
LWPOLYLINE
  5
51
330
1F
100
AcDbEntity
  8
寸法
  6
Continuous
 62
     7
370
     9
100
AcDbPolyline
 90
        4
 70
     1
 43
3.0
 10
811.0942034723216
 20
-1540.806333824994
 42
0.4142135623731
 10
809.5942034723216
 20
-1539.306333824994
 42
0.4142135623731
 10
808.0942034723216
 20
-1540.806333824994
 42
0.4142135623731
 10
809.5942034723216
 20
-1542.306333824993
 42
0.4142135623731
  0
LWPOLYLINE
  5
52
330
1F
100
AcDbEntity
  8
寸法
  6
Continuous
 62
     7
370
     9
100
AcDbPolyline
 90
        4
 70
     1
 43
3.0
 10
808.0942034723209
 20
-1740.806333824994
 42
0.4142135623731
 10
806.5942034723209
 20
-1739.306333824994
 42
0.4142135623731
 10
805.0942034723209
 20
-1740.806333824994
 42
0.4142135623731
 10
806.5942034723209
 20
-1742.306333824994
 42
0.4142135623731
  0
LWPOLYLINE
  5
53
330
1F
100
AcDbEntity
  8
寸法
  6
Continuous
 62
     7
370
     9
100
AcDbPolyline
 90
        4
 70
     1
 43
3.0
 10
838.0942034723209
 20
-1940.806333824993
 42
0.4142135623731
 10
836.5942034723209
 20
-1939.306333824993
 42
0.4142135623731
 10
835.0942034723209
 20
-1940.806333824993
 42
0.4142135623731
 10
836.5942034723209
 20
-1942.306333824993
 42
0.4142135623731
  0
LWPOLYLINE
  5
54
330
1F
100
AcDbEntity
  8
寸法
  6
Continuous
 62
     7
370
     9
100
AcDbPolyline
 90
        4
 70
     1
 43
3.0
 10
1.09420347232161
 20
-1540.806333824994
 42
0.4142135623731
 10
-0.4057965276783904
 20
-1539.306333824994
 42
0.4142135623731
 10
-1.90579652767839
 20
-1540.806333824994
 42
0.4142135623731
 10
-0.4057965276783904
 20
-1542.306333824993
 42
0.4142135623731
  0
MTEXT
  5
55
330
1F
100
AcDbEntity
  8
寸法
  6
Continuous
 62
     7
370
   211
100
AcDbMText
 10
235.8442034723216
 20
-1534.731333824993
 30
0.0
 40
57.15
 41
337.5
 46
0.0
 71
     7
 72
     1
  1
{\fＭＳ ゴシック|b0|i0|c128|p49;ＤＷ＝810}
 73
     1
 44
1.0
  0
MTEXT
  5
56
330
1F
100
AcDbEntity
  8
寸法
  6
Continuous
 62
     7
370
   211
100
AcDbMText
 10
-191.6557965276784
 20
-1734.731333824994
 30
0.0
 40
57.14999999999999
 41
412.5
 46
0.0
 71
     7
 72
     1
  1
{\fＭＳ ゴシック|b0|i0|c128|p49;枠内＝1,584}
 73
     1
 44
1.0
  0
MTEXT
  5
57
330
1F
100
AcDbEntity
  8
寸法
  6
Continuous
 62
     7
370
   211
100
AcDbMText
 10
-191.6557965276784
 20
-1934.731333824994
 30
0.0
 40
57.14999999999999
 41
412.5
 46
0.0
 71
     7
 72
     1
  1
{\fＭＳ ゴシック|b0|i0|c128|p49;枠外＝1,644}
 73
     1
 44
1.0
  0
LINE
  5
58
330
1F
100
AcDbEntity
  8
寸法
  6
Continuous
 62
   120
370
     5
100
AcDbLine
 10
-1307.405796527678
 20
956.1936661750087
 30
0.0
 11
-1307.405796527678
 21
-1290.806333824994
 31
0.0
  0
LINE
  5
59
330
1F
100
AcDbEntity
  8
寸法
  6
Continuous
 62
   120
370
     5
100
AcDbLine
 10
-1307.405796527678
 20
956.1936661750087
 30
0.0
 11
-857.4057965276783
 21
956.1936661750087
 31
0.0
  0
LWPOLYLINE
  5
5A
330
1F
100
AcDbEntity
  8
寸法
  6
Continuous
 62
     7
370
     9
100
AcDbPolyline
 90
        4
 70
     1
 43
3.0
 10
-1305.905796527678
 20
956.1936661750087
 42
0.4142135623731
 10
-1307.405796527678
 20
957.6936661750087
 42
0.4142135623731
 10
-1308.905796527678
 20
956.1936661750087
 42
0.4142135623731
 10
-1307.405796527678
 20
954.6936661750087
 42
0.4142135623731
  0
LINE
  5
5B
330
1F
100
AcDbEntity
  8
寸法
  6
Continuous
 62
   120
370
     5
100
AcDbLine
 10
-1107.405796527678
 20
912.1936661750078
 30
0.0
 11
-857.4057965276783
 21
912.1936661750078
 31
0.0
  0
LINE
  5
5C
330
1F
100
AcDbEntity
  8
寸法
  6
Continuous
 62
   120
370
     5
100
AcDbLine
 10
-1107.405796527678
 20
912.1936661750078
 30
0.0
 11
-1107.405796527678
 21
-1270.806333824994
 31
0.0
  0
LWPOLYLINE
  5
5D
330
1F
100
AcDbEntity
  8
寸法
  6
Continuous
 62
     7
370
     9
100
AcDbPolyline
 90
        4
 70
     1
 43
3.0
 10
-1105.905796527678
 20
912.1936661750078
 42
0.4142135623731
 10
-1107.405796527678
 20
913.6936661750078
 42
0.4142135623731
 10
-1108.905796527678
 20
912.1936661750078
 42
0.4142135623731
 10
-1107.405796527678
 20
910.6936661750078
 42
0.4142135623731
  0
MTEXT
  5
5E
330
1F
100
AcDbEntity
  8
寸法
  6
Continuous
 62
     7
370
    70
100
AcDbMText
 10
-1122.405796527678
 20
-397.4813338249926
 30
0.0
 40
57.14999999999999
 41
412.5
 46
0.0
 71
     7
 72
     1
  1
{\fＭＳ ゴシック|b0|i0|c128|p49;ＤＨ＝2,183}
 11
6.123031769111886E-17
 21
1.0
 31
0.0
 73
     1
 44
1.0
  0
MTEXT
  5
5F
330
1F
100
AcDbEntity
  8
寸法
  6
Continuous
 62
     7
370
    70
100
AcDbMText
 10
-1322.405796527678
 20
-391.481333824993
 30
0.0
 40
57.14999999999999
 41
412.5
 46
0.0
 71
     7
 72
     1
  1
{\fＭＳ ゴシック|b0|i0|c128|p49;枠外＝2,247}
 11
6.123031769111886E-17
 21
1.0
 31
0.0
 73
     1
 44
1.0
  0
ARC
  5
60
330
1F
100
AcDbEntity
  8
0-0
  6
Continuous
 62
    92
370
    13
100
AcDbCircle
 10
-748.9057965276797
 20
-253.8063338249941
 30
0.0
 40
1.5
100
AcDbArc
 50
90.0
 51
180.0
  0
LINE
  5
61
330
1F
100
AcDbEntity
  8
0-0
  6
Continuous
 62
    92
370
    13
100
AcDbLine
 10
-709.9057965276777
 20
-252.3063338249938
 30
0.0
 11
-748.9057965276797
 21
-252.3063338249938
 31
0.0
  0
ARC
  5
62
330
1F
100
AcDbEntity
  8
0-0
  6
Continuous
 62
    92
370
    13
100
AcDbCircle
 10
-709.9057965276777
 20
-253.8063338249941
 30
0.0
 40
1.5
100
AcDbArc
 50
0.0
 51
90.00000000000001
  0
LINE
  5
63
330
1F
100
AcDbEntity
  8
0-0
  6
Continuous
 62
    92
370
    13
100
AcDbLine
 10
-708.4057965276791
 20
-372.8063338249933
 30
0.0
 11
-708.4057965276791
 21
-253.8063338249941
 31
0.0
  0
ARC
  5
64
330
1F
100
AcDbEntity
  8
0-0
  6
Continuous
 62
    92
370
    13
100
AcDbCircle
 10
-709.9057965276777
 20
-372.8063338249933
 30
0.0
 40
1.5
100
AcDbArc
 50
270.0
 51
0.0
  0
LINE
  5
65
330
1F
100
AcDbEntity
  8
0-0
  6
Continuous
 62
    92
370
    13
100
AcDbLine
 10
-748.9057965276797
 20
-374.3063338249945
 30
0.0
 11
-709.9057965276777
 21
-374.3063338249945
 31
0.0
  0
LINE
  5
66
330
1F
100
AcDbEntity
  8
0-0
  6
Continuous
 62
    92
370
    13
100
AcDbLine
 10
-750.4057965276784
 20
-372.8063338249933
 30
0.0
 11
-750.4057965276784
 21
-253.8063338249941
 31
0.0
  0
ARC
  5
67
330
1F
100
AcDbEntity
  8
0-0
  6
Continuous
 62
    92
370
    13
100
AcDbCircle
 10
-748.9057965276797
 20
-372.8063338249933
 30
0.0
 40
1.5
100
AcDbArc
 50
180.0
 51
270.0
  0
ARC
  5
68
330
1F
100
AcDbEntity
  8
0-0
  6
Continuous
 62
     7
370
     9
100
AcDbCircle
 10
-729.4057965276787
 20
-342.9063338249932
 30
0.0
 40
15.0
100
AcDbArc
 50
180.0
 51
0.0
  0
ARC
  5
69
330
1F
100
AcDbEntity
  8
0-0
  6
Continuous
 62
     7
370
     9
100
AcDbCircle
 10
-729.4057965276787
 20
-283.7063338249951
 30
0.0
 40
15.0
100
AcDbArc
 50
0.0
 51
180.0
  0
LINE
  5
6A
330
1F
100
AcDbEntity
  8
0-0
  6
Continuous
 62
     7
370
     9
100
AcDbLine
 10
-714.4057965276787
 20
-342.9063338249932
 30
0.0
 11
-714.4057965276787
 21
-283.7063338249951
 31
0.0
  0
LINE
  5
6B
330
1F
100
AcDbEntity
  8
0-0
  6
Continuous
 62
     7
370
     9
100
AcDbLine
 10
-744.4057965276787
 20
-283.7063338249951
 30
0.0
 11
-744.4057965276787
 21
-342.9063338249932
 31
0.0
  0
LINE
  5
6C
330
1F
100
AcDbEntity
  8
0-0
  6
JWW_DASHED1
 62
   120
370
     5
100
AcDbLine
 10
-780.4057965276784
 20
-1270.806333824994
 30
0.0
 11
-777.4057965276777
 21
-1270.806333824994
 31
0.0
  0
LINE
  5
6D
330
1F
100
AcDbEntity
  8
0-0
  6
Continuous
 62
    92
370
    13
100
AcDbLine
 10
836.5942034723209
 20
-1290.806333824994
 30
0.0
 11
-807.4057965276777
 21
-1290.806333824994
 31
0.0
  0
LINE
  5
6E
330
1F
100
AcDbEntity
  8
0-0
  6
Continuous
 62
    92
370
    13
100
AcDbLine
 10
806.5942034723209
 20
-1275.806333824994
 30
0.0
 11
-777.4057965276777
 21
-1275.806333824994
 31
0.0
  0
LINE
  5
6F
330
1F
100
AcDbEntity
  8
0-0
  6
Continuous
 62
    92
370
    13
100
AcDbLine
 10
806.5942034723209
 20
-1290.806333824994
 30
0.0
 11
806.5942034723209
 21
-1270.601554832157
 31
0.0
  0
LINE
  5
70
330
1F
100
AcDbEntity
  8
0-0
  6
Continuous
 62
    92
370
    13
100
AcDbLine
 10
806.5942034723209
 20
-1270.601554832157
 30
0.0
 11
806.5942034723209
 21
-1270.268569022498
 31
0.0
  0
ARC
  5
71
330
1F
100
AcDbEntity
  8
0-0
  6
Continuous
 62
    92
370
    13
100
AcDbCircle
 10
739.0942034723209
 20
-253.8063338249941
 30
0.0
 40
1.5
100
AcDbArc
 50
90.0
 51
180.0
  0
LINE
  5
72
330
1F
100
AcDbEntity
  8
0-0
  6
Continuous
 62
    92
370
    13
100
AcDbLine
 10
778.094203472323
 20
-252.3063338249938
 30
0.0
 11
739.0942034723209
 21
-252.3063338249938
 31
0.0
  0
ARC
  5
73
330
1F
100
AcDbEntity
  8
0-0
  6
Continuous
 62
    92
370
    13
100
AcDbCircle
 10
778.094203472323
 20
-253.8063338249941
 30
0.0
 40
1.5
100
AcDbArc
 50
0.0
 51
90.00000000000001
  0
LINE
  5
74
330
1F
100
AcDbEntity
  8
0-0
  6
Continuous
 62
    92
370
    13
100
AcDbLine
 10
779.5942034723216
 20
-372.8063338249933
 30
0.0
 11
779.5942034723216
 21
-253.8063338249941
 31
0.0
  0
ARC
  5
75
330
1F
100
AcDbEntity
  8
0-0
  6
Continuous
 62
    92
370
    13
100
AcDbCircle
 10
778.094203472323
 20
-372.8063338249933
 30
0.0
 40
1.5
100
AcDbArc
 50
270.0
 51
0.0
  0
LINE
  5
76
330
1F
100
AcDbEntity
  8
0-0
  6
Continuous
 62
    92
370
    13
100
AcDbLine
 10
739.0942034723209
 20
-374.3063338249945
 30
0.0
 11
778.094203472323
 21
-374.3063338249945
 31
0.0
  0
LINE
  5
77
330
1F
100
AcDbEntity
  8
0-0
  6
Continuous
 62
    92
370
    13
100
AcDbLine
 10
737.5942034723206
 20
-372.8063338249933
 30
0.0
 11
737.5942034723206
 21
-253.8063338249941
 31
0.0
  0
ARC
  5
78
330
1F
100
AcDbEntity
  8
0-0
  6
Continuous
 62
    92
370
    13
100
AcDbCircle
 10
739.0942034723209
 20
-372.8063338249933
 30
0.0
 40
1.5
100
AcDbArc
 50
180.0
 51
270.0
  0
ARC
  5
79
330
1F
100
AcDbEntity
  8
0-0
  6
Continuous
 62
     7
370
     9
100
AcDbCircle
 10
758.594203472322
 20
-342.9063338249932
 30
0.0
 40
15.0
100
AcDbArc
 50
180.0
 51
0.0
  0
ARC
  5
7A
330
1F
100
AcDbEntity
  8
0-0
  6
Continuous
 62
     7
370
     9
100
AcDbCircle
 10
758.594203472322
 20
-283.7063338249951
 30
0.0
 40
15.0
100
AcDbArc
 50
0.0
 51
180.0
  0
LINE
  5
7B
330
1F
100
AcDbEntity
  8
0-0
  6
Continuous
 62
     7
370
     9
100
AcDbLine
 10
773.594203472322
 20
-342.9063338249932
 30
0.0
 11
773.594203472322
 21
-283.7063338249951
 31
0.0
  0
LINE
  5
7C
330
1F
100
AcDbEntity
  8
0-0
  6
Continuous
 62
     7
370
     9
100
AcDbLine
 10
743.594203472322
 20
-283.7063338249951
 30
0.0
 11
743.594203472322
 21
-342.9063338249932
 31
0.0
  0
LINE
  5
7D
330
1F
100
AcDbEntity
  8
0-0
  6
JWW_DASHED1
 62
   120
370
     5
100
AcDbLine
 10
809.5942034723216
 20
-1270.806333824994
 30
0.0
 11
806.5942034723209
 21
-1270.806333824994
 31
0.0
  0
LINE
  5
7E
330
1F
100
AcDbEntity
  8
0-0
  6
Continuous
 62
    92
370
    13
100
AcDbLine
 10
-777.4057965276777
 20
-1270.806333824994
 30
0.0
 11
806.5942034723209
 21
-1270.806333824994
 31
0.0
  0
LINE
  5
7F
330
1F
100
AcDbEntity
  8
0-0
  6
Continuous
 62
     7
370
     9
100
AcDbLine
 10
-661.9057965276787
 20
-1120.806333824994
 30
0.0
 11
-676.9057965276787
 21
-1135.806333824994
 31
0.0
  0
LINE
  5
80
330
1F
100
AcDbEntity
  8
0-0
  6
Continuous
 62
     7
370
     9
100
AcDbLine
 10
-88.90579652767805
 20
-1120.806333824994
 30
0.0
 11
-73.90579652767805
 21
-1135.806333824994
 31
0.0
  0
LINE
  5
81
330
1F
100
AcDbEntity
  8
0-0
  6
Continuous
 62
     7
370
     9
100
AcDbLine
 10
-676.9057965276787
 20
-1135.806333824994
 30
0.0
 11
-73.90579652767805
 21
-1135.806333824994
 31
0.0
  0
LINE
  5
82
330
1F
100
AcDbEntity
  8
0-0
  6
Continuous
 62
     7
370
     9
100
AcDbLine
 10
-631.9057965276787
 20
-1090.806333824994
 30
0.0
 11
-646.9057965276787
 21
-1105.806333824994
 31
0.0
  0
LINE
  5
83
330
1F
100
AcDbEntity
  8
0-0
  6
Continuous
 62
     7
370
     9
100
AcDbLine
 10
-118.905796527678
 20
-1090.806333824994
 30
0.0
 11
-103.905796527678
 21
-1105.806333824994
 31
0.0
  0
LINE
  5
84
330
1F
100
AcDbEntity
  8
0-0
  6
Continuous
 62
     7
370
     9
100
AcDbLine
 10
-631.9057965276787
 20
-1090.806333824994
 30
0.0
 11
-118.905796527678
 21
-1090.806333824994
 31
0.0
  0
LINE
  5
85
330
1F
100
AcDbEntity
  8
0-0
  6
Continuous
 62
    92
370
    13
100
AcDbLine
 10
-661.9057965276787
 20
-1120.806333824994
 30
0.0
 11
-88.90579652767805
 21
-1120.806333824994
 31
0.0
  0
LINE
  5
86
330
1F
100
AcDbEntity
  8
0-0
  6
Continuous
 62
     7
370
     9
100
AcDbLine
 10
118.0942034723213
 20
-1120.806333824994
 30
0.0
 11
103.0942034723213
 21
-1135.806333824994
 31
0.0
  0
LINE
  5
87
330
1F
100
AcDbEntity
  8
0-0
  6
Continuous
 62
     7
370
     9
100
AcDbLine
 10
691.094203472322
 20
-1120.806333824994
 30
0.0
 11
706.094203472322
 21
-1135.806333824994
 31
0.0
  0
LINE
  5
88
330
1F
100
AcDbEntity
  8
0-0
  6
Continuous
 62
     7
370
     9
100
AcDbLine
 10
103.0942034723213
 20
-1135.806333824994
 30
0.0
 11
706.094203472322
 21
-1135.806333824994
 31
0.0
  0
LINE
  5
89
330
1F
100
AcDbEntity
  8
0-0
  6
Continuous
 62
     7
370
     9
100
AcDbLine
 10
148.0942034723213
 20
-1090.806333824994
 30
0.0
 11
133.0942034723213
 21
-1105.806333824994
 31
0.0
  0
LINE
  5
8A
330
1F
100
AcDbEntity
  8
0-0
  6
Continuous
 62
     7
370
     9
100
AcDbLine
 10
661.094203472322
 20
-1090.806333824994
 30
0.0
 11
676.094203472322
 21
-1105.806333824994
 31
0.0
  0
LINE
  5
8B
330
1F
100
AcDbEntity
  8
0-0
  6
Continuous
 62
     7
370
     9
100
AcDbLine
 10
148.0942034723213
 20
-1090.806333824994
 30
0.0
 11
661.094203472322
 21
-1090.806333824994
 31
0.0
  0
LINE
  5
8C
330
1F
100
AcDbEntity
  8
0-0
  6
Continuous
 62
    92
370
    13
100
AcDbLine
 10
118.0942034723213
 20
-1120.806333824994
 30
0.0
 11
691.094203472322
 21
-1120.806333824994
 31
0.0
  0
LINE
  5
8D
330
1F
100
AcDbEntity
  8
0-0
  6
Continuous
 62
    92
370
    13
100
AcDbLine
 10
-777.4057965276777
 20
926.1936661750087
 30
0.0
 11
806.5942034723209
 21
926.1936661750087
 31
0.0
  0
LINE
  5
8E
330
1F
100
AcDbEntity
  8
0-0
  6
Continuous
 62
    92
370
    13
100
AcDbLine
 10
-777.4057965276777
 20
-1290.806333824994
 30
0.0
 11
-777.4057965276777
 21
956.1936661750087
 31
0.0
  0
LINE
  5
8F
330
1F
100
AcDbEntity
  8
0-0
  6
Continuous
 62
    92
370
    13
100
AcDbLine
 10
-807.4057965276777
 20
-1290.806333824994
 30
0.0
 11
-807.4057965276777
 21
956.1936661750087
 31
0.0
  0
LINE
  5
90
330
1F
100
AcDbEntity
  8
0-0
  6
JWW_DASHED1
 62
   120
370
     5
100
AcDbLine
 10
-780.4057965276784
 20
912.1936661750078
 30
0.0
 11
-780.4057965276784
 21
-1270.806333824994
 31
0.0
  0
LINE
  5
91
330
1F
100
AcDbEntity
  8
0-0
  6
JWW_DASHED1
 62
   120
370
     5
100
AcDbLine
 10
-777.4057965276777
 20
912.1936661750078
 30
0.0
 11
-780.4057965276784
 21
912.1936661750078
 31
0.0
  0
LINE
  5
92
330
1F
100
AcDbEntity
  8
0-0
  6
Continuous
 62
    92
370
    13
100
AcDbLine
 10
836.5942034723209
 20
-1290.806333824994
 30
0.0
 11
836.5942034723209
 21
956.1936661750087
 31
0.0
  0
LINE
  5
93
330
1F
100
AcDbEntity
  8
0-0
  6
Continuous
 62
    92
370
    13
100
AcDbLine
 10
806.5942034723209
 20
-1270.268569022498
 30
0.0
 11
806.5942034723209
 21
956.1936661750087
 31
0.0
  0
LINE
  5
94
330
1F
100
AcDbEntity
  8
0-0
  6
Continuous
 62
    92
370
    13
100
AcDbLine
 10
-807.4057965276777
 20
956.1936661750087
 30
0.0
 11
836.5942034723209
 21
956.1936661750087
 31
0.0
  0
LINE
  5
95
330
1F
100
AcDbEntity
  8
0-0
  6
JWW_DASHED1
 62
   120
370
     5
100
AcDbLine
 10
809.5942034723216
 20
912.1936661750078
 30
0.0
 11
809.5942034723216
 21
-1270.806333824994
 31
0.0
  0
LINE
  5
96
330
1F
100
AcDbEntity
  8
0-0
  6
JWW_DASHED1
 62
   120
370
     5
100
AcDbLine
 10
806.5942034723209
 20
912.1936661750078
 30
0.0
 11
809.5942034723216
 21
912.1936661750078
 31
0.0
  0
LINE
  5
97
330
1F
100
AcDbEntity
  8
0-0
  6
Continuous
 62
    92
370
    13
100
AcDbLine
 10
-0.4057965276783904
 20
-1270.806333824994
 30
0.0
 11
-0.4057965276783904
 21
912.1936661750078
 31
0.0
  0
LINE
  5
98
330
1F
100
AcDbEntity
  8
0-0
  6
JWW_DASHED1
 62
   120
370
     5
100
AcDbLine
 10
29.59420347232331
 20
-1270.806333824994
 30
0.0
 11
29.59420347232331
 21
912.1936661750078
 31
0.0
  0
LINE
  5
99
330
1F
100
AcDbEntity
  8
0-0
  6
Continuous
 62
    92
370
    13
100
AcDbLine
 10
806.5942034723209
 20
912.1936661750078
 30
0.0
 11
-777.4057965276777
 21
912.1936661750078
 31
0.0
  0
LINE
  5
9A
330
1F
100
AcDbEntity
  8
0-0
  6
Continuous
 62
     7
370
     9
100
AcDbLine
 10
-676.9057965276787
 20
-1270.806333824994
 30
0.0
 11
-676.9057965276787
 21
912.1936661750087
 31
0.0
  0
LINE
  5
9B
330
1F
100
AcDbEntity
  8
0-0
  6
Continuous
 62
     7
370
     9
100
AcDbLine
 10
-73.90579652767805
 20
-1270.806333824994
 30
0.0
 11
-73.90579652767805
 21
912.1936661750087
 31
0.0
  0
LINE
  5
9C
330
1F
100
AcDbEntity
  8
0-0
  6
Continuous
 62
     7
370
     9
100
AcDbLine
 10
-661.9057965276804
 20
717.1933986307005
 30
0.0
 11
-676.9061924366245
 21
732.1937945396415
 31
0.0
  0
LINE
  5
9D
330
1F
100
AcDbEntity
  8
0-0
  6
Continuous
 62
     7
370
     9
100
AcDbLine
 10
-88.90579652767805
 20
717.1933986307005
 30
0.0
 11
-73.90579652767805
 21
732.1933986307005
 31
0.0
  0
ARC
  5
9E
330
1F
100
AcDbEntity
  8
0-0
  6
Continuous
 62
     7
370
     9
100
AcDbCircle
 10
-612.8931339562664
 20
867.1933986307005
 30
0.0
 40
135.0
100
AcDbArc
 50
270.0
 51
298.3577011236671
  0
ARC
  5
9F
330
1F
100
AcDbEntity
  8
0-0
  6
Continuous
 62
     7
370
     9
100
AcDbCircle
 10
-137.9184590990903
 20
867.1933986307005
 30
0.0
 40
135.0
100
AcDbArc
 50
241.6422988763328
 51
270.0
  0
ARC
  5
A0
330
1F
100
AcDbEntity
  8
0-0
  6
Continuous
 62
     7
370
     9
100
AcDbCircle
 10
-375.4057965276784
 20
427.193666175009
 30
0.0
 40
365.0
100
AcDbArc
 50
61.64229887633292
 51
118.3577011236671
  0
LINE
  5
A1
330
1F
100
AcDbEntity
  8
0-0
  6
Continuous
 62
     7
370
     9
100
AcDbLine
 10
-676.9058460156479
 20
732.1934481186645
 30
0.0
 11
-612.8931339562664
 21
732.1934481186645
 31
0.0
  0
LINE
  5
A2
330
1F
100
AcDbEntity
  8
0-0
  6
Continuous
 62
     7
370
     9
100
AcDbLine
 10
-73.90574703971232
 20
732.1934481186645
 30
0.0
 11
-137.9184590990903
 21
732.1934481186645
 31
0.0
  0
LINE
  5
A3
330
1F
100
AcDbEntity
  8
0-0
  6
Continuous
 62
    92
370
    13
100
AcDbLine
 10
-88.90579652767805
 20
717.1933986307005
 30
0.0
 11
-137.9184590990903
 21
717.1933986307005
 31
0.0
  0
ARC
  5
A4
330
1F
100
AcDbEntity
  8
0-0
  6
Continuous
 62
    92
370
    13
100
AcDbCircle
 10
-137.9184590990903
 20
867.1933986307005
 30
0.0
 40
150.0
100
AcDbArc
 50
241.6422988763328
 51
270.0
  0
ARC
  5
A5
330
1F
100
AcDbEntity
  8
0-0
  6
Continuous
 62
    92
370
    13
100
AcDbCircle
 10
-375.4057965276784
 20
427.193666175009
 30
0.0
 40
350.0
100
AcDbArc
 50
61.64229887633292
 51
118.3577011236671
  0
ARC
  5
A6
330
1F
100
AcDbEntity
  8
0-0
  6
Continuous
 62
    92
370
    13
100
AcDbCircle
 10
-612.8931339562664
 20
867.1933986307005
 30
0.0
 40
150.0
100
AcDbArc
 50
270.0
 51
298.3577011236671
  0
LINE
  5
A7
330
1F
100
AcDbEntity
  8
0-0
  6
Continuous
 62
    92
370
    13
100
AcDbLine
 10
-661.9057965276804
 20
717.1933986307005
 30
0.0
 11
-612.8931339562664
 21
717.1933986307005
 31
0.0
  0
LINE
  5
A8
330
1F
100
AcDbEntity
  8
0-0
  6
Continuous
 62
     7
370
     9
100
AcDbLine
 10
103.0942034723213
 20
-1270.806333824994
 30
0.0
 11
103.0942034723213
 21
912.1936661750087
 31
0.0
  0
LINE
  5
A9
330
1F
100
AcDbEntity
  8
0-0
  6
Continuous
 62
     7
370
     9
100
AcDbLine
 10
706.094203472322
 20
-1270.806333824994
 30
0.0
 11
706.094203472322
 21
912.1936661750087
 31
0.0
  0
LINE
  5
AA
330
1F
100
AcDbEntity
  8
0-0
  6
Continuous
 62
     7
370
     9
100
AcDbLine
 10
118.0942034723196
 20
717.1933986307005
 30
0.0
 11
103.0938075633755
 21
732.1937945396415
 31
0.0
  0
LINE
  5
AB
330
1F
100
AcDbEntity
  8
0-0
  6
Continuous
 62
     7
370
     9
100
AcDbLine
 10
691.094203472322
 20
717.1933986307005
 30
0.0
 11
706.094203472322
 21
732.1933986307005
 31
0.0
  0
ARC
  5
AC
330
1F
100
AcDbEntity
  8
0-0
  6
Continuous
 62
     7
370
     9
100
AcDbCircle
 10
167.1068660437336
 20
867.1933986307005
 30
0.0
 40
135.0
100
AcDbArc
 50
270.0
 51
298.3577011236671
  0
ARC
  5
AD
330
1F
100
AcDbEntity
  8
0-0
  6
Continuous
 62
     7
370
     9
100
AcDbCircle
 10
642.0815409009097
 20
867.1933986307005
 30
0.0
 40
135.0
100
AcDbArc
 50
241.6422988763328
 51
270.0
  0
ARC
  5
AE
330
1F
100
AcDbEntity
  8
0-0
  6
Continuous
 62
     7
370
     9
100
AcDbCircle
 10
404.5942034723216
 20
427.193666175009
 30
0.0
 40
365.0
100
AcDbArc
 50
61.64229887633292
 51
118.3577011236671
  0
LINE
  5
AF
330
1F
100
AcDbEntity
  8
0-0
  6
Continuous
 62
     7
370
     9
100
AcDbLine
 10
103.0941539843521
 20
732.1934481186645
 30
0.0
 11
167.1068660437336
 21
732.1934481186645
 31
0.0
  0
LINE
  5
B0
330
1F
100
AcDbEntity
  8
0-0
  6
Continuous
 62
     7
370
     9
100
AcDbLine
 10
706.0942529602877
 20
732.1934481186645
 30
0.0
 11
642.0815409009097
 21
732.1934481186645
 31
0.0
  0
LINE
  5
B1
330
1F
100
AcDbEntity
  8
0-0
  6
Continuous
 62
    92
370
    13
100
AcDbLine
 10
691.094203472322
 20
717.1933986307005
 30
0.0
 11
642.0815409009097
 21
717.1933986307005
 31
0.0
  0
ARC
  5
B2
330
1F
100
AcDbEntity
  8
0-0
  6
Continuous
 62
    92
370
    13
100
AcDbCircle
 10
642.0815409009097
 20
867.1933986307005
 30
0.0
 40
150.0
100
AcDbArc
 50
241.6422988763328
 51
270.0
  0
ARC
  5
B3
330
1F
100
AcDbEntity
  8
0-0
  6
Continuous
 62
    92
370
    13
100
AcDbCircle
 10
404.5942034723216
 20
427.193666175009
 30
0.0
 40
350.0
100
AcDbArc
 50
61.64229887633292
 51
118.3577011236671
  0
ARC
  5
B4
330
1F
100
AcDbEntity
  8
0-0
  6
Continuous
 62
    92
370
    13
100
AcDbCircle
 10
167.1068660437336
 20
867.1933986307005
 30
0.0
 40
150.0
100
AcDbArc
 50
270.0
 51
298.3577011236671
  0
LINE
  5
B5
330
1F
100
AcDbEntity
  8
0-0
  6
Continuous
 62
    92
370
    13
100
AcDbLine
 10
118.0942034723196
 20
717.1933986307005
 30
0.0
 11
167.1068660437336
 21
717.1933986307005
 31
0.0
  0
LINE
  5
B6
330
1F
100
AcDbEntity
  8
0-0
  6
Continuous
 62
     7
370
     9
100
AcDbLine
 10
-661.9057965276787
 20
-535.8063338249934
 30
0.0
 11
-676.9057965276787
 21
-550.8063338249934
 31
0.0
  0
LINE
  5
B7
330
1F
100
AcDbEntity
  8
0-0
  6
Continuous
 62
     7
370
     9
100
AcDbLine
 10
-676.9057965276787
 20
-625.8063338249934
 30
0.0
 11
-661.9057965276787
 21
-640.8063338249934
 31
0.0
  0
LINE
  5
B8
330
1F
100
AcDbEntity
  8
0-0
  6
Continuous
 62
     7
370
     9
100
AcDbLine
 10
-88.90579652767805
 20
-535.8063338249934
 30
0.0
 11
-73.90579652767805
 21
-550.8063338249934
 31
0.0
  0
LINE
  5
B9
330
1F
100
AcDbEntity
  8
0-0
  6
Continuous
 62
     7
370
     9
100
AcDbLine
 10
-73.90579652767805
 20
-625.8063338249934
 30
0.0
 11
-88.90579652767805
 21
-640.8063338249934
 31
0.0
  0
LINE
  5
BA
330
1F
100
AcDbEntity
  8
0-0
  6
Continuous
 62
     7
370
     9
100
AcDbLine
 10
-676.9057965276787
 20
-550.8063338249934
 30
0.0
 11
-73.90579652767805
 21
-550.8063338249934
 31
0.0
  0
LINE
  5
BB
330
1F
100
AcDbEntity
  8
0-0
  6
Continuous
 62
     7
370
     9
100
AcDbLine
 10
-676.9057965276787
 20
-625.8063338249934
 30
0.0
 11
-73.90579652767805
 21
-625.8063338249934
 31
0.0
  0
LINE
  5
BC
330
1F
100
AcDbEntity
  8
0-0
  6
Continuous
 62
     7
370
     9
100
AcDbLine
 10
-631.9057965276787
 20
-1090.806333824994
 30
0.0
 11
-631.9057965276787
 21
-670.8063338249934
 31
0.0
  0
LINE
  5
BD
330
1F
100
AcDbEntity
  8
0-0
  6
Continuous
 62
     7
370
     9
100
AcDbLine
 10
-646.9057965276787
 20
-655.8063338249934
 30
0.0
 11
-631.9057965276787
 21
-670.8063338249934
 31
0.0
  0
LINE
  5
BE
330
1F
100
AcDbEntity
  8
0-0
  6
Continuous
 62
     7
370
     9
100
AcDbLine
 10
-103.905796527678
 20
-655.8063338249934
 30
0.0
 11
-118.905796527678
 21
-670.8063338249934
 31
0.0
  0
LINE
  5
BF
330
1F
100
AcDbEntity
  8
0-0
  6
Continuous
 62
     7
370
     9
100
AcDbLine
 10
-631.9057965276787
 20
-670.8063338249934
 30
0.0
 11
-118.905796527678
 21
-670.8063338249934
 31
0.0
  0
LINE
  5
C0
330
1F
100
AcDbEntity
  8
0-0
  6
Continuous
 62
     7
370
     9
100
AcDbLine
 10
-118.905796527678
 20
-1090.806333824994
 30
0.0
 11
-118.905796527678
 21
-670.8063338249934
 31
0.0
  0
LINE
  5
C1
330
1F
100
AcDbEntity
  8
0-0
  6
Continuous
 62
    92
370
    13
100
AcDbLine
 10
-661.9057965276787
 20
-640.8063338249934
 30
0.0
 11
-88.90579652767805
 21
-640.8063338249934
 31
0.0
  0
LINE
  5
C2
330
1F
100
AcDbEntity
  8
0-0
  6
Continuous
 62
    92
370
    13
100
AcDbLine
 10
-661.9057965276787
 20
-1120.806333824994
 30
0.0
 11
-661.9057965276787
 21
-640.8063338249934
 31
0.0
  0
LINE
  5
C3
330
1F
100
AcDbEntity
  8
0-0
  6
Continuous
 62
    92
370
    13
100
AcDbLine
 10
-88.90579652767805
 20
-1120.806333824994
 30
0.0
 11
-88.90579652767805
 21
-640.8063338249934
 31
0.0
  0
LINE
  5
C4
330
1F
100
AcDbEntity
  8
0-0
  6
Continuous
 62
    92
370
    13
100
AcDbLine
 10
-661.9057965276787
 20
-535.8063338249934
 30
0.0
 11
-661.9057965276787
 21
717.1933986307005
 31
0.0
  0
LINE
  5
C5
330
1F
100
AcDbEntity
  8
0-0
  6
Continuous
 62
    92
370
    13
100
AcDbLine
 10
-661.9057965276787
 20
-535.8063338249934
 30
0.0
 11
-88.90579652767805
 21
-535.8063338249934
 31
0.0
  0
LINE
  5
C6
330
1F
100
AcDbEntity
  8
0-0
  6
Continuous
 62
    92
370
    13
100
AcDbLine
 10
-88.90579652767805
 20
-535.8063338249934
 30
0.0
 11
-88.90579652767805
 21
717.1933986307005
 31
0.0
  0
LINE
  5
C7
330
1F
100
AcDbEntity
  8
0-0
  6
Continuous
 62
     7
370
     9
100
AcDbLine
 10
118.0942034723213
 20
-535.8063338249934
 30
0.0
 11
103.0942034723213
 21
-550.8063338249934
 31
0.0
  0
LINE
  5
C8
330
1F
100
AcDbEntity
  8
0-0
  6
Continuous
 62
     7
370
     9
100
AcDbLine
 10
103.0942034723213
 20
-625.8063338249934
 30
0.0
 11
118.0942034723213
 21
-640.8063338249934
 31
0.0
  0
LINE
  5
C9
330
1F
100
AcDbEntity
  8
0-0
  6
Continuous
 62
     7
370
     9
100
AcDbLine
 10
691.094203472322
 20
-535.8063338249934
 30
0.0
 11
706.094203472322
 21
-550.8063338249934
 31
0.0
  0
LINE
  5
CA
330
1F
100
AcDbEntity
  8
0-0
  6
Continuous
 62
     7
370
     9
100
AcDbLine
 10
706.094203472322
 20
-625.8063338249934
 30
0.0
 11
691.094203472322
 21
-640.8063338249934
 31
0.0
  0
LINE
  5
CB
330
1F
100
AcDbEntity
  8
0-0
  6
Continuous
 62
     7
370
     9
100
AcDbLine
 10
103.0942034723213
 20
-550.8063338249934
 30
0.0
 11
706.094203472322
 21
-550.8063338249934
 31
0.0
  0
LINE
  5
CC
330
1F
100
AcDbEntity
  8
0-0
  6
Continuous
 62
     7
370
     9
100
AcDbLine
 10
103.0942034723213
 20
-625.8063338249934
 30
0.0
 11
706.094203472322
 21
-625.8063338249934
 31
0.0
  0
LINE
  5
CD
330
1F
100
AcDbEntity
  8
0-0
  6
Continuous
 62
     7
370
     9
100
AcDbLine
 10
148.0942034723213
 20
-1090.806333824994
 30
0.0
 11
148.0942034723213
 21
-670.8063338249934
 31
0.0
  0
LINE
  5
CE
330
1F
100
AcDbEntity
  8
0-0
  6
Continuous
 62
     7
370
     9
100
AcDbLine
 10
133.0942034723213
 20
-655.8063338249934
 30
0.0
 11
148.0942034723213
 21
-670.8063338249934
 31
0.0
  0
LINE
  5
CF
330
1F
100
AcDbEntity
  8
0-0
  6
Continuous
 62
     7
370
     9
100
AcDbLine
 10
676.094203472322
 20
-655.8063338249934
 30
0.0
 11
661.094203472322
 21
-670.8063338249934
 31
0.0
  0
LINE
  5
D0
330
1F
100
AcDbEntity
  8
0-0
  6
Continuous
 62
     7
370
     9
100
AcDbLine
 10
148.0942034723213
 20
-670.8063338249934
 30
0.0
 11
661.094203472322
 21
-670.8063338249934
 31
0.0
  0
LINE
  5
D1
330
1F
100
AcDbEntity
  8
0-0
  6
Continuous
 62
     7
370
     9
100
AcDbLine
 10
661.094203472322
 20
-1090.806333824994
 30
0.0
 11
661.094203472322
 21
-670.8063338249934
 31
0.0
  0
LINE
  5
D2
330
1F
100
AcDbEntity
  8
0-0
  6
Continuous
 62
    92
370
    13
100
AcDbLine
 10
118.0942034723213
 20
-640.8063338249934
 30
0.0
 11
691.094203472322
 21
-640.8063338249934
 31
0.0
  0
LINE
  5
D3
330
1F
100
AcDbEntity
  8
0-0
  6
Continuous
 62
    92
370
    13
100
AcDbLine
 10
118.0942034723213
 20
-1120.806333824994
 30
0.0
 11
118.0942034723213
 21
-640.8063338249934
 31
0.0
  0
LINE
  5
D4
330
1F
100
AcDbEntity
  8
0-0
  6
Continuous
 62
    92
370
    13
100
AcDbLine
 10
691.094203472322
 20
-1120.806333824994
 30
0.0
 11
691.094203472322
 21
-640.8063338249934
 31
0.0
  0
LINE
  5
D5
330
1F
100
AcDbEntity
  8
0-0
  6
Continuous
 62
    92
370
    13
100
AcDbLine
 10
118.0942034723213
 20
-535.8063338249934
 30
0.0
 11
118.0942034723213
 21
717.1933986307005
 31
0.0
  0
LINE
  5
D6
330
1F
100
AcDbEntity
  8
0-0
  6
Continuous
 62
    92
370
    13
100
AcDbLine
 10
118.0942034723213
 20
-535.8063338249934
 30
0.0
 11
691.094203472322
 21
-535.8063338249934
 31
0.0
  0
LINE
  5
D7
330
1F
100
AcDbEntity
  8
0-0
  6
Continuous
 62
    92
370
    13
100
AcDbLine
 10
691.094203472322
 20
-535.8063338249934
 30
0.0
 11
691.094203472322
 21
717.1933986307005
 31
0.0
  0
LINE
  5
D8
330
1F
100
AcDbEntity
  8
0-0
  6
JWW_DASHED1
 62
   120
370
     5
100
AcDbLine
 10
-94.90579650772929
 20
-535.8063338249934
 30
0.0
 11
-94.90579650772929
 21
717.1933986307005
 31
0.0
  0
LINE
  5
D9
330
1F
100
AcDbEntity
  8
0-0
  6
JWW_DASHED1
 62
   120
370
     5
100
AcDbLine
 10
-95.90579650762926
 20
-535.8063338249934
 30
0.0
 11
-95.90579650762926
 21
717.1933986307005
 31
0.0
  0
LINE
  5
DA
330
1F
100
AcDbEntity
  8
0-0
  6
JWW_DASHED1
 62
   120
370
     5
100
AcDbLine
 10
-108.9057965087293
 20
-535.8063338249934
 30
0.0
 11
-108.9057965087293
 21
717.1933986307005
 31
0.0
  0
LINE
  5
DB
330
1F
100
AcDbEntity
  8
0-0
  6
JWW_DASHED1
 62
   120
370
     5
100
AcDbLine
 10
-109.9057965086293
 20
-535.8063338249934
 30
0.0
 11
-109.9057965086293
 21
717.1933986307005
 31
0.0
  0
LINE
  5
DC
330
1F
100
AcDbEntity
  8
0-0
  6
JWW_DASHED1
 62
   120
370
     5
100
AcDbLine
 10
-122.9057965097293
 20
-535.8063338249934
 30
0.0
 11
-122.9057965097293
 21
717.1933986307005
 31
0.0
  0
LINE
  5
DD
330
1F
100
AcDbEntity
  8
0-0
  6
JWW_DASHED1
 62
   120
370
     5
100
AcDbLine
 10
-123.9057965096293
 20
-535.8063338249934
 30
0.0
 11
-123.9057965096293
 21
717.1933986307005
 31
0.0
  0
LINE
  5
DE
330
1F
100
AcDbEntity
  8
0-0
  6
JWW_DASHED1
 62
   120
370
     5
100
AcDbLine
 10
-136.9057965107293
 20
-535.8063338249934
 30
0.0
 11
-136.9057965107293
 21
717.1933986307005
 31
0.0
  0
LINE
  5
DF
330
1F
100
AcDbEntity
  8
0-0
  6
JWW_DASHED1
 62
   120
370
     5
100
AcDbLine
 10
-137.9057965106293
 20
-535.8063338249934
 30
0.0
 11
-137.9057965106293
 21
717.1933986307005
 31
0.0
  0
LINE
  5
E0
330
1F
100
AcDbEntity
  8
0-0
  6
JWW_DASHED1
 62
   120
370
     5
100
AcDbLine
 10
-150.9057965117293
 20
-535.8063338249934
 30
0.0
 11
-150.9057965117293
 21
717.7566927417894
 31
0.0
  0
LINE
  5
E1
330
1F
100
AcDbEntity
  8
0-0
  6
JWW_DASHED1
 62
   120
370
     5
100
AcDbLine
 10
-151.9057965116293
 20
-535.8063338249934
 30
0.0
 11
-151.9057965116293
 21
717.8469745285139
 31
0.0
  0
LINE
  5
E2
330
1F
100
AcDbEntity
  8
0-0
  6
JWW_DASHED1
 62
   120
370
     5
100
AcDbLine
 10
-164.9057965127293
 20
-535.8063338249934
 30
0.0
 11
-164.9057965127293
 21
719.6410905520889
 31
0.0
  0
LINE
  5
E3
330
1F
100
AcDbEntity
  8
0-0
  6
JWW_DASHED1
 62
   120
370
     5
100
AcDbLine
 10
-165.9057965126293
 20
-535.8063338249934
 30
0.0
 11
-165.9057965126293
 21
719.827497064237
 31
0.0
  0
LINE
  5
E4
330
1F
100
AcDbEntity
  8
0-0
  6
JWW_DASHED1
 62
   120
370
     5
100
AcDbLine
 10
-178.9057965137293
 20
-535.8063338249934
 30
0.0
 11
-178.9057965137293
 21
722.9018944745104
 31
0.0
  0
LINE
  5
E5
330
1F
100
AcDbEntity
  8
0-0
  6
JWW_DASHED1
 62
   120
370
     5
100
AcDbLine
 10
-179.9057965136293
 20
-535.8063338249934
 30
0.0
 11
-179.9057965136293
 21
723.1897059807153
 31
0.0
  0
LINE
  5
E6
330
1F
100
AcDbEntity
  8
0-0
  6
JWW_DASHED1
 62
   120
370
     5
100
AcDbLine
 10
-192.9057965147293
 20
-535.8063338249934
 30
0.0
 11
-192.9057965147293
 21
727.6355513990376
 31
0.0
  0
LINE
  5
E7
330
1F
100
AcDbEntity
  8
0-0
  6
JWW_DASHED1
 62
   120
370
     5
100
AcDbLine
 10
-193.9057965146293
 20
-535.8063338249934
 30
0.0
 11
-193.9057965146293
 21
728.0337132001688
 31
0.0
  0
LINE
  5
E8
330
1F
100
AcDbEntity
  8
0-0
  6
JWW_DASHED1
 62
   120
370
     5
100
AcDbLine
 10
-206.9057965157293
 20
-535.8063338249934
 30
0.0
 11
-206.9057965157293
 21
733.9990020662691
 31
0.0
  0
LINE
  5
E9
330
1F
100
AcDbEntity
  8
0-0
  6
JWW_DASHED1
 62
   120
370
     5
100
AcDbLine
 10
-207.9057965156293
 20
-535.8063338249934
 30
0.0
 11
-207.9057965156293
 21
734.5217264419836
 31
0.0
  0
LINE
  5
EA
330
1F
100
AcDbEntity
  8
0-0
  6
JWW_DASHED1
 62
   120
370
     5
100
AcDbLine
 10
-220.9057965167293
 20
-535.8063338249934
 30
0.0
 11
-220.9057965167293
 21
741.2474036095603
 31
0.0
  0
LINE
  5
EB
330
1F
100
AcDbEntity
  8
0-0
  6
JWW_DASHED1
 62
   120
370
     5
100
AcDbLine
 10
-221.9057965166293
 20
-535.8063338249934
 30
0.0
 11
-221.9057965166293
 21
741.7373833219619
 31
0.0
  0
LINE
  5
EC
330
1F
100
AcDbEntity
  8
0-0
  6
JWW_DASHED1
 62
   120
370
     5
100
AcDbLine
 10
-234.9057965177293
 20
-535.8063338249934
 30
0.0
 11
-234.9057965177293
 21
747.7552827126067
 31
0.0
  0
LINE
  5
ED
330
1F
100
AcDbEntity
  8
0-0
  6
JWW_DASHED1
 62
   120
370
     5
100
AcDbLine
 10
-235.9057965176293
 20
-535.8063338249934
 30
0.0
 11
-235.9057965176293
 21
748.191719124244
 31
0.0
  0
LINE
  5
EE
330
1F
100
AcDbEntity
  8
0-0
  6
JWW_DASHED1
 62
   120
370
     5
100
AcDbLine
 10
-248.9057965187293
 20
-535.8063338249934
 30
0.0
 11
-248.9057965187293
 21
753.5335963057526
 31
0.0
  0
LINE
  5
EF
330
1F
100
AcDbEntity
  8
0-0
  6
JWW_DASHED1
 62
   120
370
     5
100
AcDbLine
 10
-249.9057965186293
 20
-535.8063338249934
 30
0.0
 11
-249.9057965186293
 21
753.9194686420353
 31
0.0
  0
LINE
  5
F0
330
1F
100
AcDbEntity
  8
0-0
  6
JWW_DASHED1
 62
   120
370
     5
100
AcDbLine
 10
-262.9057965197293
 20
-535.8063338249934
 30
0.0
 11
-262.9057965197293
 21
758.6205057613563
 31
0.0
  0
LINE
  5
F1
330
1F
100
AcDbEntity
  8
0-0
  6
JWW_DASHED1
 62
   120
370
     5
100
AcDbLine
 10
-263.9057965196293
 20
-535.8063338249934
 30
0.0
 11
-263.9057965196293
 21
758.9582664538659
 31
0.0
  0
LINE
  5
F2
330
1F
100
AcDbEntity
  8
0-0
  6
JWW_DASHED1
 62
   120
370
     5
100
AcDbLine
 10
-276.9057965207293
 20
-535.8063338249934
 30
0.0
 11
-276.9057965207293
 21
763.0474289924507
 31
0.0
  0
LINE
  5
F3
330
1F
100
AcDbEntity
  8
0-0
  6
JWW_DASHED1
 62
   120
370
     5
100
AcDbLine
 10
-277.9057965206293
 20
-535.8063338249934
 30
0.0
 11
-277.9057965206293
 21
763.3390960095323
 31
0.0
  0
LINE
  5
F4
330
1F
100
AcDbEntity
  8
0-0
  6
JWW_DASHED1
 62
   120
370
     5
100
AcDbLine
 10
-290.9057965217294
 20
-535.8063338249934
 30
0.0
 11
-290.9057965217294
 21
766.8401735896816
 31
0.0
  0
LINE
  5
F5
330
1F
100
AcDbEntity
  8
0-0
  6
JWW_DASHED1
 62
   120
370
     5
100
AcDbLine
 10
-291.9057965216293
 20
-535.8063338249934
 30
0.0
 11
-291.9057965216293
 21
767.087399566791
 31
0.0
  0
LINE
  5
F6
330
1F
100
AcDbEntity
  8
0-0
  6
JWW_DASHED1
 62
   120
370
     5
100
AcDbLine
 10
-304.9057965227294
 20
-535.8063338249934
 30
0.0
 11
-304.9057965227294
 21
770.0197882825353
 31
0.0
  0
LINE
  5
F7
330
1F
100
AcDbEntity
  8
0-0
  6
JWW_DASHED1
 62
   120
370
     5
100
AcDbLine
 10
-305.9057965226293
 20
-535.8063338249934
 30
0.0
 11
-305.9057965226293
 21
770.2239126538018
 31
0.0
  0
LINE
  5
F8
330
1F
100
AcDbEntity
  8
0-0
  6
JWW_DASHED1
 62
   120
370
     5
100
AcDbLine
 10
-318.9057965237294
 20
-535.8063338249934
 30
0.0
 11
-318.9057965237294
 21
772.6032057067835
 31
0.0
  0
LINE
  5
F9
330
1F
100
AcDbEntity
  8
0-0
  6
JWW_DASHED1
 62
   120
370
     5
100
AcDbLine
 10
-319.9057965236293
 20
-535.8063338249934
 30
0.0
 11
-319.9057965236293
 21
772.7652940606652
 31
0.0
  0
LINE
  5
FA
330
1F
100
AcDbEntity
  8
0-0
  6
JWW_DASHED1
 62
   120
370
     5
100
AcDbLine
 10
-332.9057965247293
 20
-535.8063338249934
 30
0.0
 11
-332.9057965247293
 21
774.6037264780546
 31
0.0
  0
LINE
  5
FB
330
1F
100
AcDbEntity
  8
0-0
  6
JWW_DASHED1
 62
   120
370
     5
100
AcDbLine
 10
-333.9057965246293
 20
-535.8063338249934
 30
0.0
 11
-333.9057965246293
 21
774.7246000495772
 31
0.0
  0
LINE
  5
FC
330
1F
100
AcDbEntity
  8
0-0
  6
JWW_DASHED1
 62
   120
370
     5
100
AcDbLine
 10
-346.9057965257293
 20
-535.8063338249934
 30
0.0
 11
-346.9057965257293
 21
776.0313791589954
 31
0.0
  0
LINE
  5
FD
330
1F
100
AcDbEntity
  8
0-0
  6
JWW_DASHED1
 62
   120
370
     5
100
AcDbLine
 10
-347.9057965256293
 20
-535.8063338249934
 30
0.0
 11
-347.9057965256293
 21
776.1116364773272
 31
0.0
  0
LINE
  5
FE
330
1F
100
AcDbEntity
  8
0-0
  6
JWW_DASHED1
 62
   120
370
     5
100
AcDbLine
 10
-360.9057965267294
 20
-535.8063338249934
 30
0.0
 11
-360.9057965267294
 21
776.8931800436451
 31
0.0
  0
LINE
  5
FF
330
1F
100
AcDbEntity
  8
0-0
  6
JWW_DASHED1
 62
   120
370
     5
100
AcDbLine
 10
-361.9057965266293
 20
-535.8063338249934
 30
0.0
 11
-361.9057965266293
 21
776.9332121230957
 31
0.0
  0
LINE
  5
100
330
1F
100
AcDbEntity
  8
0-0
  6
JWW_DASHED1
 62
   120
370
     5
100
AcDbLine
 10
-374.9057965277294
 20
-535.8063338249934
 30
0.0
 11
-374.9057965277294
 21
777.1933090319737
 31
0.0
  0
LINE
  5
101
330
1F
100
AcDbEntity
  8
0-0
  6
JWW_DASHED1
 62
   120
370
     5
100
AcDbLine
 10
-375.9057965276293
 20
-535.8063338249934
 30
0.0
 11
-375.9057965276293
 21
777.1933090319737
 31
0.0
  0
LINE
  5
102
330
1F
100
AcDbEntity
  8
0-0
  6
JWW_DASHED1
 62
   120
370
     5
100
AcDbLine
 10
-388.9057965287294
 20
-535.8063338249934
 30
0.0
 11
-388.9057965287294
 21
776.9332121230957
 31
0.0
  0
LINE
  5
103
330
1F
100
AcDbEntity
  8
0-0
  6
JWW_DASHED1
 62
   120
370
     5
100
AcDbLine
 10
-389.9057965286294
 20
-535.8063338249934
 30
0.0
 11
-389.9057965286294
 21
776.8931800436451
 31
0.0
  0
LINE
  5
104
330
1F
100
AcDbEntity
  8
0-0
  6
JWW_DASHED1
 62
   120
370
     5
100
AcDbLine
 10
-402.9057965297294
 20
-535.8063338249934
 30
0.0
 11
-402.9057965297294
 21
776.1116364773272
 31
0.0
  0
LINE
  5
105
330
1F
100
AcDbEntity
  8
0-0
  6
JWW_DASHED1
 62
   120
370
     5
100
AcDbLine
 10
-403.9057965296294
 20
-535.8063338249934
 30
0.0
 11
-403.9057965296294
 21
776.0313791589954
 31
0.0
  0
LINE
  5
106
330
1F
100
AcDbEntity
  8
0-0
  6
JWW_DASHED1
 62
   120
370
     5
100
AcDbLine
 10
-416.9057965307294
 20
-535.8063338249934
 30
0.0
 11
-416.9057965307294
 21
774.7246000495772
 31
0.0
  0
LINE
  5
107
330
1F
100
AcDbEntity
  8
0-0
  6
JWW_DASHED1
 62
   120
370
     5
100
AcDbLine
 10
-417.9057965306293
 20
-535.8063338249934
 30
0.0
 11
-417.9057965306293
 21
774.6037264780546
 31
0.0
  0
LINE
  5
108
330
1F
100
AcDbEntity
  8
0-0
  6
JWW_DASHED1
 62
   120
370
     5
100
AcDbLine
 10
-430.9057965317294
 20
-535.8063338249934
 30
0.0
 11
-430.9057965317294
 21
772.7652940606652
 31
0.0
  0
LINE
  5
109
330
1F
100
AcDbEntity
  8
0-0
  6
JWW_DASHED1
 62
   120
370
     5
100
AcDbLine
 10
-431.9057965316293
 20
-535.8063338249934
 30
0.0
 11
-431.9057965316293
 21
772.6032057067835
 31
0.0
  0
LINE
  5
10A
330
1F
100
AcDbEntity
  8
0-0
  6
JWW_DASHED1
 62
   120
370
     5
100
AcDbLine
 10
-444.9057965327294
 20
-535.8063338249934
 30
0.0
 11
-444.9057965327294
 21
770.2239126538018
 31
0.0
  0
LINE
  5
10B
330
1F
100
AcDbEntity
  8
0-0
  6
JWW_DASHED1
 62
   120
370
     5
100
AcDbLine
 10
-445.9057965326293
 20
-535.8063338249934
 30
0.0
 11
-445.9057965326293
 21
770.0197882825353
 31
0.0
  0
LINE
  5
10C
330
1F
100
AcDbEntity
  8
0-0
  6
JWW_DASHED1
 62
   120
370
     5
100
AcDbLine
 10
-458.9057965337294
 20
-535.8063338249934
 30
0.0
 11
-458.9057965337294
 21
767.087399566791
 31
0.0
  0
LINE
  5
10D
330
1F
100
AcDbEntity
  8
0-0
  6
JWW_DASHED1
 62
   120
370
     5
100
AcDbLine
 10
-459.9057965336294
 20
-535.8063338249934
 30
0.0
 11
-459.9057965336294
 21
766.8401735896816
 31
0.0
  0
LINE
  5
10E
330
1F
100
AcDbEntity
  8
0-0
  6
JWW_DASHED1
 62
   120
370
     5
100
AcDbLine
 10
-472.9057965347294
 20
-535.8063338249934
 30
0.0
 11
-472.9057965347294
 21
763.3390960095323
 31
0.0
  0
LINE
  5
10F
330
1F
100
AcDbEntity
  8
0-0
  6
JWW_DASHED1
 62
   120
370
     5
100
AcDbLine
 10
-473.9057965346294
 20
-535.8063338249934
 30
0.0
 11
-473.9057965346294
 21
763.0474289924507
 31
0.0
  0
LINE
  5
110
330
1F
100
AcDbEntity
  8
0-0
  6
JWW_DASHED1
 62
   120
370
     5
100
AcDbLine
 10
-486.9057965357294
 20
-535.8063338249934
 30
0.0
 11
-486.9057965357294
 21
758.9582664538659
 31
0.0
  0
LINE
  5
111
330
1F
100
AcDbEntity
  8
0-0
  6
JWW_DASHED1
 62
   120
370
     5
100
AcDbLine
 10
-487.9057965356293
 20
-535.8063338249934
 30
0.0
 11
-487.9057965356293
 21
758.6205057613563
 31
0.0
  0
LINE
  5
112
330
1F
100
AcDbEntity
  8
0-0
  6
JWW_DASHED1
 62
   120
370
     5
100
AcDbLine
 10
-500.9057965367294
 20
-535.8063338249934
 30
0.0
 11
-500.9057965367294
 21
753.9194686420353
 31
0.0
  0
LINE
  5
113
330
1F
100
AcDbEntity
  8
0-0
  6
JWW_DASHED1
 62
   120
370
     5
100
AcDbLine
 10
-501.9057965366294
 20
-535.8063338249934
 30
0.0
 11
-501.9057965366294
 21
753.5335963057526
 31
0.0
  0
LINE
  5
114
330
1F
100
AcDbEntity
  8
0-0
  6
JWW_DASHED1
 62
   120
370
     5
100
AcDbLine
 10
-514.9057965377292
 20
-535.8063338249934
 30
0.0
 11
-514.9057965377292
 21
748.191719124244
 31
0.0
  0
LINE
  5
115
330
1F
100
AcDbEntity
  8
0-0
  6
JWW_DASHED1
 62
   120
370
     5
100
AcDbLine
 10
-515.9057965376294
 20
-535.8063338249934
 30
0.0
 11
-515.9057965376294
 21
747.7552827126067
 31
0.0
  0
LINE
  5
116
330
1F
100
AcDbEntity
  8
0-0
  6
JWW_DASHED1
 62
   120
370
     5
100
AcDbLine
 10
-528.9057965387294
 20
-535.8063338249934
 30
0.0
 11
-528.9057965387294
 21
741.7373833219619
 31
0.0
  0
LINE
  5
117
330
1F
100
AcDbEntity
  8
0-0
  6
JWW_DASHED1
 62
   120
370
     5
100
AcDbLine
 10
-529.9057965386294
 20
-535.8063338249934
 30
0.0
 11
-529.9057965386294
 21
741.2474036095603
 31
0.0
  0
LINE
  5
118
330
1F
100
AcDbEntity
  8
0-0
  6
JWW_DASHED1
 62
   120
370
     5
100
AcDbLine
 10
-542.9057965397292
 20
-535.8063338249934
 30
0.0
 11
-542.9057965397292
 21
734.5217264419836
 31
0.0
  0
LINE
  5
119
330
1F
100
AcDbEntity
  8
0-0
  6
JWW_DASHED1
 62
   120
370
     5
100
AcDbLine
 10
-543.9057965396294
 20
-535.8063338249934
 30
0.0
 11
-543.9057965396294
 21
733.9990020662691
 31
0.0
  0
LINE
  5
11A
330
1F
100
AcDbEntity
  8
0-0
  6
JWW_DASHED1
 62
   120
370
     5
100
AcDbLine
 10
-556.9057965407294
 20
-535.8063338249934
 30
0.0
 11
-556.9057965407294
 21
728.0337132001688
 31
0.0
  0
LINE
  5
11B
330
1F
100
AcDbEntity
  8
0-0
  6
JWW_DASHED1
 62
   120
370
     5
100
AcDbLine
 10
-557.9057965406294
 20
-535.8063338249934
 30
0.0
 11
-557.9057965406294
 21
727.6355513990376
 31
0.0
  0
LINE
  5
11C
330
1F
100
AcDbEntity
  8
0-0
  6
JWW_DASHED1
 62
   120
370
     5
100
AcDbLine
 10
-570.9057965417292
 20
-535.8063338249934
 30
0.0
 11
-570.9057965417292
 21
723.1897059807153
 31
0.0
  0
LINE
  5
11D
330
1F
100
AcDbEntity
  8
0-0
  6
JWW_DASHED1
 62
   120
370
     5
100
AcDbLine
 10
-571.9057965416293
 20
-535.8063338249934
 30
0.0
 11
-571.9057965416293
 21
722.9018944745104
 31
0.0
  0
LINE
  5
11E
330
1F
100
AcDbEntity
  8
0-0
  6
JWW_DASHED1
 62
   120
370
     5
100
AcDbLine
 10
-584.9057965427294
 20
-535.8063338249934
 30
0.0
 11
-584.9057965427294
 21
719.827497064237
 31
0.0
  0
LINE
  5
11F
330
1F
100
AcDbEntity
  8
0-0
  6
JWW_DASHED1
 62
   120
370
     5
100
AcDbLine
 10
-585.9057965426293
 20
-535.8063338249934
 30
0.0
 11
-585.9057965426293
 21
719.6410905520889
 31
0.0
  0
LINE
  5
120
330
1F
100
AcDbEntity
  8
0-0
  6
JWW_DASHED1
 62
   120
370
     5
100
AcDbLine
 10
-598.9057965437293
 20
-535.8063338249934
 30
0.0
 11
-598.9057965437293
 21
717.8469745285139
 31
0.0
  0
LINE
  5
121
330
1F
100
AcDbEntity
  8
0-0
  6
JWW_DASHED1
 62
   120
370
     5
100
AcDbLine
 10
-599.9057965436294
 20
-535.8063338249934
 30
0.0
 11
-599.9057965436294
 21
717.7566927417894
 31
0.0
  0
LINE
  5
122
330
1F
100
AcDbEntity
  8
0-0
  6
JWW_DASHED1
 62
   120
370
     5
100
AcDbLine
 10
-612.9057965447295
 20
-535.8063338249934
 30
0.0
 11
-612.9057965447295
 21
717.1933986307005
 31
0.0
  0
LINE
  5
123
330
1F
100
AcDbEntity
  8
0-0
  6
JWW_DASHED1
 62
   120
370
     5
100
AcDbLine
 10
-613.9057965446294
 20
-535.8063338249934
 30
0.0
 11
-613.9057965446294
 21
717.1933986307005
 31
0.0
  0
LINE
  5
124
330
1F
100
AcDbEntity
  8
0-0
  6
JWW_DASHED1
 62
   120
370
     5
100
AcDbLine
 10
-626.9057965457292
 20
-535.8063338249934
 30
0.0
 11
-626.9057965457292
 21
717.1933986307005
 31
0.0
  0
LINE
  5
125
330
1F
100
AcDbEntity
  8
0-0
  6
JWW_DASHED1
 62
   120
370
     5
100
AcDbLine
 10
-627.9057965456294
 20
-535.8063338249934
 30
0.0
 11
-627.9057965456294
 21
717.1933986307005
 31
0.0
  0
LINE
  5
126
330
1F
100
AcDbEntity
  8
0-0
  6
JWW_DASHED1
 62
   120
370
     5
100
AcDbLine
 10
-640.9057965467294
 20
-535.8063338249934
 30
0.0
 11
-640.9057965467294
 21
717.1933986307005
 31
0.0
  0
LINE
  5
127
330
1F
100
AcDbEntity
  8
0-0
  6
JWW_DASHED1
 62
   120
370
     5
100
AcDbLine
 10
-641.9057965466292
 20
-535.8063338249934
 30
0.0
 11
-641.9057965466292
 21
717.1933986307005
 31
0.0
  0
LINE
  5
128
330
1F
100
AcDbEntity
  8
0-0
  6
JWW_DASHED1
 62
   120
370
     5
100
AcDbLine
 10
-654.9057965477292
 20
-535.8063338249934
 30
0.0
 11
-654.9057965477292
 21
717.1933986307005
 31
0.0
  0
LINE
  5
129
330
1F
100
AcDbEntity
  8
0-0
  6
JWW_DASHED1
 62
   120
370
     5
100
AcDbLine
 10
-655.9057965476294
 20
-535.8063338249934
 30
0.0
 11
-655.9057965476294
 21
717.1933986307005
 31
0.0
  0
LINE
  5
12A
330
1F
100
AcDbEntity
  8
0-0
  6
JWW_DASHED1
 62
   120
370
     5
100
AcDbLine
 10
-661.9057965276787
 20
-525.8064676410968
 30
0.0
 11
-88.90579652767805
 21
-525.8064676410968
 31
0.0
  0
LINE
  5
12B
330
1F
100
AcDbEntity
  8
0-0
  6
JWW_DASHED1
 62
   120
370
     5
100
AcDbLine
 10
-661.9057965276787
 20
-524.8064676411966
 30
0.0
 11
-88.90579652767805
 21
-524.8064676411966
 31
0.0
  0
LINE
  5
12C
330
1F
100
AcDbEntity
  8
0-0
  6
JWW_DASHED1
 62
   120
370
     5
100
AcDbLine
 10
-661.9057965276787
 20
-511.8064676400965
 30
0.0
 11
-88.90579652767805
 21
-511.8064676400965
 31
0.0
  0
LINE
  5
12D
330
1F
100
AcDbEntity
  8
0-0
  6
JWW_DASHED1
 62
   120
370
     5
100
AcDbLine
 10
-661.9057965276787
 20
-510.8064676401963
 30
0.0
 11
-88.90579652767805
 21
-510.8064676401963
 31
0.0
  0
LINE
  5
12E
330
1F
100
AcDbEntity
  8
0-0
  6
JWW_DASHED1
 62
   120
370
     5
100
AcDbLine
 10
-661.9057965276787
 20
-497.8064676390963
 30
0.0
 11
-88.90579652767805
 21
-497.8064676390963
 31
0.0
  0
LINE
  5
12F
330
1F
100
AcDbEntity
  8
0-0
  6
JWW_DASHED1
 62
   120
370
     5
100
AcDbLine
 10
-661.9057965276787
 20
-496.8064676391965
 30
0.0
 11
-88.90579652767805
 21
-496.8064676391965
 31
0.0
  0
LINE
  5
130
330
1F
100
AcDbEntity
  8
0-0
  6
JWW_DASHED1
 62
   120
370
     5
100
AcDbLine
 10
-661.9057965276787
 20
-483.8064676380965
 30
0.0
 11
-88.90579652767805
 21
-483.8064676380965
 31
0.0
  0
LINE
  5
131
330
1F
100
AcDbEntity
  8
0-0
  6
JWW_DASHED1
 62
   120
370
     5
100
AcDbLine
 10
-661.9057965276787
 20
-482.8064676381968
 30
0.0
 11
-88.90579652767805
 21
-482.8064676381968
 31
0.0
  0
LINE
  5
132
330
1F
100
AcDbEntity
  8
0-0
  6
JWW_DASHED1
 62
   120
370
     5
100
AcDbLine
 10
-661.9057965276787
 20
-469.8064676370967
 30
0.0
 11
-88.90579652767805
 21
-469.8064676370967
 31
0.0
  0
LINE
  5
133
330
1F
100
AcDbEntity
  8
0-0
  6
JWW_DASHED1
 62
   120
370
     5
100
AcDbLine
 10
-661.9057965276787
 20
-468.8064676371965
 30
0.0
 11
-88.90579652767805
 21
-468.8064676371965
 31
0.0
  0
LINE
  5
134
330
1F
100
AcDbEntity
  8
0-0
  6
JWW_DASHED1
 62
   120
370
     5
100
AcDbLine
 10
-661.9057965276787
 20
-455.8064676360965
 30
0.0
 11
-88.90579652767805
 21
-455.8064676360965
 31
0.0
  0
LINE
  5
135
330
1F
100
AcDbEntity
  8
0-0
  6
JWW_DASHED1
 62
   120
370
     5
100
AcDbLine
 10
-661.9057965276787
 20
-454.8064676361963
 30
0.0
 11
-88.90579652767805
 21
-454.8064676361963
 31
0.0
  0
LINE
  5
136
330
1F
100
AcDbEntity
  8
0-0
  6
JWW_DASHED1
 62
   120
370
     5
100
AcDbLine
 10
-661.9057965276787
 20
-441.8064676350963
 30
0.0
 11
-88.90579652767805
 21
-441.8064676350963
 31
0.0
  0
LINE
  5
137
330
1F
100
AcDbEntity
  8
0-0
  6
JWW_DASHED1
 62
   120
370
     5
100
AcDbLine
 10
-661.9057965276787
 20
-440.8064676351966
 30
0.0
 11
-88.90579652767805
 21
-440.8064676351966
 31
0.0
  0
LINE
  5
138
330
1F
100
AcDbEntity
  8
0-0
  6
JWW_DASHED1
 62
   120
370
     5
100
AcDbLine
 10
-661.9057965276787
 20
-427.8064676340965
 30
0.0
 11
-88.90579652767805
 21
-427.8064676340965
 31
0.0
  0
LINE
  5
139
330
1F
100
AcDbEntity
  8
0-0
  6
JWW_DASHED1
 62
   120
370
     5
100
AcDbLine
 10
-661.9057965276787
 20
-426.8064676341967
 30
0.0
 11
-88.90579652767805
 21
-426.8064676341967
 31
0.0
  0
LINE
  5
13A
330
1F
100
AcDbEntity
  8
0-0
  6
JWW_DASHED1
 62
   120
370
     5
100
AcDbLine
 10
-661.9057965276787
 20
-413.8064676330967
 30
0.0
 11
-88.90579652767805
 21
-413.8064676330967
 31
0.0
  0
LINE
  5
13B
330
1F
100
AcDbEntity
  8
0-0
  6
JWW_DASHED1
 62
   120
370
     5
100
AcDbLine
 10
-661.9057965276787
 20
-412.8064676331965
 30
0.0
 11
-88.90579652767805
 21
-412.8064676331965
 31
0.0
  0
LINE
  5
13C
330
1F
100
AcDbEntity
  8
0-0
  6
JWW_DASHED1
 62
   120
370
     5
100
AcDbLine
 10
-661.9057965276787
 20
-399.8064676320965
 30
0.0
 11
-88.90579652767805
 21
-399.8064676320965
 31
0.0
  0
LINE
  5
13D
330
1F
100
AcDbEntity
  8
0-0
  6
JWW_DASHED1
 62
   120
370
     5
100
AcDbLine
 10
-661.9057965276787
 20
-398.8064676321963
 30
0.0
 11
-88.90579652767805
 21
-398.8064676321963
 31
0.0
  0
LINE
  5
13E
330
1F
100
AcDbEntity
  8
0-0
  6
JWW_DASHED1
 62
   120
370
     5
100
AcDbLine
 10
-661.9057965276787
 20
-385.8064676310963
 30
0.0
 11
-88.90579652767805
 21
-385.8064676310963
 31
0.0
  0
LINE
  5
13F
330
1F
100
AcDbEntity
  8
0-0
  6
JWW_DASHED1
 62
   120
370
     5
100
AcDbLine
 10
-661.9057965276787
 20
-384.8064676311965
 30
0.0
 11
-88.90579652767805
 21
-384.8064676311965
 31
0.0
  0
LINE
  5
140
330
1F
100
AcDbEntity
  8
0-0
  6
JWW_DASHED1
 62
   120
370
     5
100
AcDbLine
 10
-661.9057965276787
 20
-371.8064676300964
 30
0.0
 11
-88.90579652767805
 21
-371.8064676300964
 31
0.0
  0
LINE
  5
141
330
1F
100
AcDbEntity
  8
0-0
  6
JWW_DASHED1
 62
   120
370
     5
100
AcDbLine
 10
-661.9057965276787
 20
-370.8064676301967
 30
0.0
 11
-88.90579652767805
 21
-370.8064676301967
 31
0.0
  0
LINE
  5
142
330
1F
100
AcDbEntity
  8
0-0
  6
JWW_DASHED1
 62
   120
370
     5
100
AcDbLine
 10
-661.9057965276787
 20
-357.8064676290967
 30
0.0
 11
-88.90579652767805
 21
-357.8064676290967
 31
0.0
  0
LINE
  5
143
330
1F
100
AcDbEntity
  8
0-0
  6
JWW_DASHED1
 62
   120
370
     5
100
AcDbLine
 10
-661.9057965276787
 20
-356.8064676291965
 30
0.0
 11
-88.90579652767805
 21
-356.8064676291965
 31
0.0
  0
LINE
  5
144
330
1F
100
AcDbEntity
  8
0-0
  6
JWW_DASHED1
 62
   120
370
     5
100
AcDbLine
 10
-661.9057965276787
 20
-343.8064676280965
 30
0.0
 11
-88.90579652767805
 21
-343.8064676280965
 31
0.0
  0
LINE
  5
145
330
1F
100
AcDbEntity
  8
0-0
  6
JWW_DASHED1
 62
   120
370
     5
100
AcDbLine
 10
-661.9057965276787
 20
-342.8064676281963
 30
0.0
 11
-88.90579652767805
 21
-342.8064676281963
 31
0.0
  0
LINE
  5
146
330
1F
100
AcDbEntity
  8
0-0
  6
JWW_DASHED1
 62
   120
370
     5
100
AcDbLine
 10
-661.9057965276787
 20
-329.8064676270963
 30
0.0
 11
-88.90579652767805
 21
-329.8064676270963
 31
0.0
  0
LINE
  5
147
330
1F
100
AcDbEntity
  8
0-0
  6
JWW_DASHED1
 62
   120
370
     5
100
AcDbLine
 10
-661.9057965276787
 20
-328.8064676271965
 30
0.0
 11
-88.90579652767805
 21
-328.8064676271965
 31
0.0
  0
LINE
  5
148
330
1F
100
AcDbEntity
  8
0-0
  6
JWW_DASHED1
 62
   120
370
     5
100
AcDbLine
 10
-661.9057965276787
 20
-315.8064676260965
 30
0.0
 11
-88.90579652767805
 21
-315.8064676260965
 31
0.0
  0
LINE
  5
149
330
1F
100
AcDbEntity
  8
0-0
  6
JWW_DASHED1
 62
   120
370
     5
100
AcDbLine
 10
-661.9057965276787
 20
-314.8064676261967
 30
0.0
 11
-88.90579652767805
 21
-314.8064676261967
 31
0.0
  0
LINE
  5
14A
330
1F
100
AcDbEntity
  8
0-0
  6
JWW_DASHED1
 62
   120
370
     5
100
AcDbLine
 10
-661.9057965276787
 20
-301.8064676250967
 30
0.0
 11
-88.90579652767805
 21
-301.8064676250967
 31
0.0
  0
LINE
  5
14B
330
1F
100
AcDbEntity
  8
0-0
  6
JWW_DASHED1
 62
   120
370
     5
100
AcDbLine
 10
-661.9057965276787
 20
-300.8064676251965
 30
0.0
 11
-88.90579652767805
 21
-300.8064676251965
 31
0.0
  0
LINE
  5
14C
330
1F
100
AcDbEntity
  8
0-0
  6
JWW_DASHED1
 62
   120
370
     5
100
AcDbLine
 10
-661.9057965276787
 20
-287.8064676240965
 30
0.0
 11
-88.90579652767805
 21
-287.8064676240965
 31
0.0
  0
LINE
  5
14D
330
1F
100
AcDbEntity
  8
0-0
  6
JWW_DASHED1
 62
   120
370
     5
100
AcDbLine
 10
-661.9057965276787
 20
-286.8064676241963
 30
0.0
 11
-88.90579652767805
 21
-286.8064676241963
 31
0.0
  0
LINE
  5
14E
330
1F
100
AcDbEntity
  8
0-0
  6
JWW_DASHED1
 62
   120
370
     5
100
AcDbLine
 10
-661.9057965276787
 20
-273.8064676230962
 30
0.0
 11
-88.90579652767805
 21
-273.8064676230962
 31
0.0
  0
LINE
  5
14F
330
1F
100
AcDbEntity
  8
0-0
  6
JWW_DASHED1
 62
   120
370
     5
100
AcDbLine
 10
-661.9057965276787
 20
-272.8064676231965
 30
0.0
 11
-88.90579652767805
 21
-272.8064676231965
 31
0.0
  0
LINE
  5
150
330
1F
100
AcDbEntity
  8
0-0
  6
JWW_DASHED1
 62
   120
370
     5
100
AcDbLine
 10
-661.9057965276787
 20
-259.8064676220964
 30
0.0
 11
-88.90579652767805
 21
-259.8064676220964
 31
0.0
  0
LINE
  5
151
330
1F
100
AcDbEntity
  8
0-0
  6
JWW_DASHED1
 62
   120
370
     5
100
AcDbLine
 10
-661.9057965276787
 20
-258.8064676221967
 30
0.0
 11
-88.90579652767805
 21
-258.8064676221967
 31
0.0
  0
LINE
  5
152
330
1F
100
AcDbEntity
  8
0-0
  6
JWW_DASHED1
 62
   120
370
     5
100
AcDbLine
 10
-661.9057965276787
 20
-245.8064676210967
 30
0.0
 11
-88.90579652767805
 21
-245.8064676210967
 31
0.0
  0
LINE
  5
153
330
1F
100
AcDbEntity
  8
0-0
  6
JWW_DASHED1
 62
   120
370
     5
100
AcDbLine
 10
-661.9057965276787
 20
-244.8064676211965
 30
0.0
 11
-88.90579652767805
 21
-244.8064676211965
 31
0.0
  0
LINE
  5
154
330
1F
100
AcDbEntity
  8
0-0
  6
JWW_DASHED1
 62
   120
370
     5
100
AcDbLine
 10
-661.9057965276787
 20
-231.8064676200964
 30
0.0
 11
-88.90579652767805
 21
-231.8064676200964
 31
0.0
  0
LINE
  5
155
330
1F
100
AcDbEntity
  8
0-0
  6
JWW_DASHED1
 62
   120
370
     5
100
AcDbLine
 10
-661.9057965276787
 20
-230.8064676201963
 30
0.0
 11
-88.90579652767805
 21
-230.8064676201963
 31
0.0
  0
LINE
  5
156
330
1F
100
AcDbEntity
  8
0-0
  6
JWW_DASHED1
 62
   120
370
     5
100
AcDbLine
 10
-661.9057965276787
 20
-217.8064676190962
 30
0.0
 11
-88.90579652767805
 21
-217.8064676190962
 31
0.0
  0
LINE
  5
157
330
1F
100
AcDbEntity
  8
0-0
  6
JWW_DASHED1
 62
   120
370
     5
100
AcDbLine
 10
-661.9057965276787
 20
-216.8064676191965
 30
0.0
 11
-88.90579652767805
 21
-216.8064676191965
 31
0.0
  0
LINE
  5
158
330
1F
100
AcDbEntity
  8
0-0
  6
JWW_DASHED1
 62
   120
370
     5
100
AcDbLine
 10
-661.9057965276787
 20
-203.8064676180964
 30
0.0
 11
-88.90579652767805
 21
-203.8064676180964
 31
0.0
  0
LINE
  5
159
330
1F
100
AcDbEntity
  8
0-0
  6
JWW_DASHED1
 62
   120
370
     5
100
AcDbLine
 10
-661.9057965276787
 20
-202.8064676181967
 30
0.0
 11
-88.90579652767805
 21
-202.8064676181967
 31
0.0
  0
LINE
  5
15A
330
1F
100
AcDbEntity
  8
0-0
  6
JWW_DASHED1
 62
   120
370
     5
100
AcDbLine
 10
-661.9057965276787
 20
-189.8064676170966
 30
0.0
 11
-88.90579652767805
 21
-189.8064676170966
 31
0.0
  0
LINE
  5
15B
330
1F
100
AcDbEntity
  8
0-0
  6
JWW_DASHED1
 62
   120
370
     5
100
AcDbLine
 10
-661.9057965276787
 20
-188.8064676171965
 30
0.0
 11
-88.90579652767805
 21
-188.8064676171965
 31
0.0
  0
LINE
  5
15C
330
1F
100
AcDbEntity
  8
0-0
  6
JWW_DASHED1
 62
   120
370
     5
100
AcDbLine
 10
-661.9057965276787
 20
-175.8064676160964
 30
0.0
 11
-88.90579652767805
 21
-175.8064676160964
 31
0.0
  0
LINE
  5
15D
330
1F
100
AcDbEntity
  8
0-0
  6
JWW_DASHED1
 62
   120
370
     5
100
AcDbLine
 10
-661.9057965276787
 20
-174.8064676161962
 30
0.0
 11
-88.90579652767805
 21
-174.8064676161962
 31
0.0
  0
LINE
  5
15E
330
1F
100
AcDbEntity
  8
0-0
  6
JWW_DASHED1
 62
   120
370
     5
100
AcDbLine
 10
-661.9057965276787
 20
-161.8064676150962
 30
0.0
 11
-88.90579652767805
 21
-161.8064676150962
 31
0.0
  0
LINE
  5
15F
330
1F
100
AcDbEntity
  8
0-0
  6
JWW_DASHED1
 62
   120
370
     5
100
AcDbLine
 10
-661.9057965276787
 20
-160.8064676151965
 30
0.0
 11
-88.90579652767805
 21
-160.8064676151965
 31
0.0
  0
LINE
  5
160
330
1F
100
AcDbEntity
  8
0-0
  6
JWW_DASHED1
 62
   120
370
     5
100
AcDbLine
 10
-661.9057965276787
 20
-147.8064676140964
 30
0.0
 11
-88.90579652767805
 21
-147.8064676140964
 31
0.0
  0
LINE
  5
161
330
1F
100
AcDbEntity
  8
0-0
  6
JWW_DASHED1
 62
   120
370
     5
100
AcDbLine
 10
-661.9057965276787
 20
-146.8064676141962
 30
0.0
 11
-88.90579652767805
 21
-146.8064676141962
 31
0.0
  0
LINE
  5
162
330
1F
100
AcDbEntity
  8
0-0
  6
JWW_DASHED1
 62
   120
370
     5
100
AcDbLine
 10
-661.9057965276787
 20
-133.8064676130966
 30
0.0
 11
-88.90579652767805
 21
-133.8064676130966
 31
0.0
  0
LINE
  5
163
330
1F
100
AcDbEntity
  8
0-0
  6
JWW_DASHED1
 62
   120
370
     5
100
AcDbLine
 10
-661.9057965276787
 20
-132.8064676131964
 30
0.0
 11
-88.90579652767805
 21
-132.8064676131964
 31
0.0
  0
LINE
  5
164
330
1F
100
AcDbEntity
  8
0-0
  6
JWW_DASHED1
 62
   120
370
     5
100
AcDbLine
 10
-661.9057965276787
 20
-119.8064676120964
 30
0.0
 11
-88.90579652767805
 21
-119.8064676120964
 31
0.0
  0
LINE
  5
165
330
1F
100
AcDbEntity
  8
0-0
  6
JWW_DASHED1
 62
   120
370
     5
100
AcDbLine
 10
-661.9057965276787
 20
-118.8064676121962
 30
0.0
 11
-88.90579652767805
 21
-118.8064676121962
 31
0.0
  0
LINE
  5
166
330
1F
100
AcDbEntity
  8
0-0
  6
JWW_DASHED1
 62
   120
370
     5
100
AcDbLine
 10
-661.9057965276787
 20
-105.8064676110966
 30
0.0
 11
-88.90579652767805
 21
-105.8064676110966
 31
0.0
  0
LINE
  5
167
330
1F
100
AcDbEntity
  8
0-0
  6
JWW_DASHED1
 62
   120
370
     5
100
AcDbLine
 10
-661.9057965276787
 20
-104.8064676111964
 30
0.0
 11
-88.90579652767805
 21
-104.8064676111964
 31
0.0
  0
LINE
  5
168
330
1F
100
AcDbEntity
  8
0-0
  6
JWW_DASHED1
 62
   120
370
     5
100
AcDbLine
 10
-661.9057965276787
 20
-91.8064676100964
 30
0.0
 11
-88.90579652767805
 21
-91.8064676100964
 31
0.0
  0
LINE
  5
169
330
1F
100
AcDbEntity
  8
0-0
  6
JWW_DASHED1
 62
   120
370
     5
100
AcDbLine
 10
-661.9057965276787
 20
-90.80646761019622
 30
0.0
 11
-88.90579652767805
 21
-90.80646761019622
 31
0.0
  0
LINE
  5
16A
330
1F
100
AcDbEntity
  8
0-0
  6
JWW_DASHED1
 62
   120
370
     5
100
AcDbLine
 10
-661.9057965276787
 20
-77.80646760909661
 30
0.0
 11
-88.90579652767805
 21
-77.80646760909661
 31
0.0
  0
LINE
  5
16B
330
1F
100
AcDbEntity
  8
0-0
  6
JWW_DASHED1
 62
   120
370
     5
100
AcDbLine
 10
-661.9057965276787
 20
-76.80646760919643
 30
0.0
 11
-88.90579652767805
 21
-76.80646760919643
 31
0.0
  0
LINE
  5
16C
330
1F
100
AcDbEntity
  8
0-0
  6
JWW_DASHED1
 62
   120
370
     5
100
AcDbLine
 10
-661.9057965276787
 20
-63.8064676080964
 30
0.0
 11
-88.90579652767805
 21
-63.8064676080964
 31
0.0
  0
LINE
  5
16D
330
1F
100
AcDbEntity
  8
0-0
  6
JWW_DASHED1
 62
   120
370
     5
100
AcDbLine
 10
-661.9057965276787
 20
-62.80646760819621
 30
0.0
 11
-88.90579652767805
 21
-62.80646760819621
 31
0.0
  0
LINE
  5
16E
330
1F
100
AcDbEntity
  8
0-0
  6
JWW_DASHED1
 62
   120
370
     5
100
AcDbLine
 10
-661.9057965276787
 20
-49.80646760709661
 30
0.0
 11
-88.90579652767805
 21
-49.80646760709661
 31
0.0
  0
LINE
  5
16F
330
1F
100
AcDbEntity
  8
0-0
  6
JWW_DASHED1
 62
   120
370
     5
100
AcDbLine
 10
-661.9057965276787
 20
-48.80646760719642
 30
0.0
 11
-88.90579652767805
 21
-48.80646760719642
 31
0.0
  0
LINE
  5
170
330
1F
100
AcDbEntity
  8
0-0
  6
JWW_DASHED1
 62
   120
370
     5
100
AcDbLine
 10
-661.9057965276787
 20
-35.80646760609639
 30
0.0
 11
-88.90579652767805
 21
-35.80646760609639
 31
0.0
  0
LINE
  5
171
330
1F
100
AcDbEntity
  8
0-0
  6
JWW_DASHED1
 62
   120
370
     5
100
AcDbLine
 10
-661.9057965276787
 20
-34.80646760619621
 30
0.0
 11
-88.90579652767805
 21
-34.80646760619621
 31
0.0
  0
LINE
  5
172
330
1F
100
AcDbEntity
  8
0-0
  6
JWW_DASHED1
 62
   120
370
     5
100
AcDbLine
 10
-661.9057965276787
 20
-21.8064676050966
 30
0.0
 11
-88.90579652767805
 21
-21.8064676050966
 31
0.0
  0
LINE
  5
173
330
1F
100
AcDbEntity
  8
0-0
  6
JWW_DASHED1
 62
   120
370
     5
100
AcDbLine
 10
-661.9057965276787
 20
-20.80646760519642
 30
0.0
 11
-88.90579652767805
 21
-20.80646760519642
 31
0.0
  0
LINE
  5
174
330
1F
100
AcDbEntity
  8
0-0
  6
JWW_DASHED1
 62
   120
370
     5
100
AcDbLine
 10
-661.9057965276787
 20
-7.806467604096383
 30
0.0
 11
-88.90579652767805
 21
-7.806467604096383
 31
0.0
  0
LINE
  5
175
330
1F
100
AcDbEntity
  8
0-0
  6
JWW_DASHED1
 62
   120
370
     5
100
AcDbLine
 10
-661.9057965276787
 20
-6.8064676041962
 30
0.0
 11
-88.90579652767805
 21
-6.8064676041962
 31
0.0
  0
LINE
  5
176
330
1F
100
AcDbEntity
  8
0-0
  6
JWW_DASHED1
 62
   120
370
     5
100
AcDbLine
 10
-661.9057965276787
 20
6.193532396903407
 30
0.0
 11
-88.90579652767805
 21
6.193532396903407
 31
0.0
  0
LINE
  5
177
330
1F
100
AcDbEntity
  8
0-0
  6
JWW_DASHED1
 62
   120
370
     5
100
AcDbLine
 10
-661.9057965276787
 20
7.19353239680359
 30
0.0
 11
-88.90579652767805
 21
7.19353239680359
 31
0.0
  0
LINE
  5
178
330
1F
100
AcDbEntity
  8
0-0
  6
JWW_DASHED1
 62
   120
370
     5
100
AcDbLine
 10
-661.9057965276787
 20
20.19353239790362
 30
0.0
 11
-88.90579652767805
 21
20.19353239790362
 31
0.0
  0
LINE
  5
179
330
1F
100
AcDbEntity
  8
0-0
  6
JWW_DASHED1
 62
   120
370
     5
100
AcDbLine
 10
-661.9057965276787
 20
21.19353239780381
 30
0.0
 11
-88.90579652767805
 21
21.19353239780381
 31
0.0
  0
LINE
  5
17A
330
1F
100
AcDbEntity
  8
0-0
  6
JWW_DASHED1
 62
   120
370
     5
100
AcDbLine
 10
-661.9057965276787
 20
34.19353239890341
 30
0.0
 11
-88.90579652767805
 21
34.19353239890341
 31
0.0
  0
LINE
  5
17B
330
1F
100
AcDbEntity
  8
0-0
  6
JWW_DASHED1
 62
   120
370
     5
100
AcDbLine
 10
-661.9057965276787
 20
35.1935323988036
 30
0.0
 11
-88.90579652767805
 21
35.1935323988036
 31
0.0
  0
LINE
  5
17C
330
1F
100
AcDbEntity
  8
0-0
  6
JWW_DASHED1
 62
   120
370
     5
100
AcDbLine
 10
-661.9057965276787
 20
48.19353239990363
 30
0.0
 11
-88.90579652767805
 21
48.19353239990363
 31
0.0
  0
LINE
  5
17D
330
1F
100
AcDbEntity
  8
0-0
  6
JWW_DASHED1
 62
   120
370
     5
100
AcDbLine
 10
-661.9057965276787
 20
49.19353239980381
 30
0.0
 11
-88.90579652767805
 21
49.19353239980381
 31
0.0
  0
LINE
  5
17E
330
1F
100
AcDbEntity
  8
0-0
  6
JWW_DASHED1
 62
   120
370
     5
100
AcDbLine
 10
-661.9057965276787
 20
62.19353240090342
 30
0.0
 11
-88.90579652767805
 21
62.19353240090342
 31
0.0
  0
LINE
  5
17F
330
1F
100
AcDbEntity
  8
0-0
  6
JWW_DASHED1
 62
   120
370
     5
100
AcDbLine
 10
-661.9057965276787
 20
63.1935324008036
 30
0.0
 11
-88.90579652767805
 21
63.1935324008036
 31
0.0
  0
LINE
  5
180
330
1F
100
AcDbEntity
  8
0-0
  6
JWW_DASHED1
 62
   120
370
     5
100
AcDbLine
 10
-661.9057965276787
 20
76.19353240190364
 30
0.0
 11
-88.90579652767805
 21
76.19353240190364
 31
0.0
  0
LINE
  5
181
330
1F
100
AcDbEntity
  8
0-0
  6
JWW_DASHED1
 62
   120
370
     5
100
AcDbLine
 10
-661.9057965276787
 20
77.19353240180382
 30
0.0
 11
-88.90579652767805
 21
77.19353240180382
 31
0.0
  0
LINE
  5
182
330
1F
100
AcDbEntity
  8
0-0
  6
JWW_DASHED1
 62
   120
370
     5
100
AcDbLine
 10
-661.9057965276787
 20
90.19353240290343
 30
0.0
 11
-88.90579652767805
 21
90.19353240290343
 31
0.0
  0
LINE
  5
183
330
1F
100
AcDbEntity
  8
0-0
  6
JWW_DASHED1
 62
   120
370
     5
100
AcDbLine
 10
-661.9057965276787
 20
91.19353240280361
 30
0.0
 11
-88.90579652767805
 21
91.19353240280361
 31
0.0
  0
LINE
  5
184
330
1F
100
AcDbEntity
  8
0-0
  6
JWW_DASHED1
 62
   120
370
     5
100
AcDbLine
 10
-661.9057965276787
 20
104.1935324039036
 30
0.0
 11
-88.90579652767805
 21
104.1935324039036
 31
0.0
  0
LINE
  5
185
330
1F
100
AcDbEntity
  8
0-0
  6
JWW_DASHED1
 62
   120
370
     5
100
AcDbLine
 10
-661.9057965276787
 20
105.1935324038038
 30
0.0
 11
-88.90579652767805
 21
105.1935324038038
 31
0.0
  0
LINE
  5
186
330
1F
100
AcDbEntity
  8
0-0
  6
JWW_DASHED1
 62
   120
370
     5
100
AcDbLine
 10
-661.9057965276787
 20
118.1935324049034
 30
0.0
 11
-88.90579652767805
 21
118.1935324049034
 31
0.0
  0
LINE
  5
187
330
1F
100
AcDbEntity
  8
0-0
  6
JWW_DASHED1
 62
   120
370
     5
100
AcDbLine
 10
-661.9057965276787
 20
119.1935324048036
 30
0.0
 11
-88.90579652767805
 21
119.1935324048036
 31
0.0
  0
LINE
  5
188
330
1F
100
AcDbEntity
  8
0-0
  6
JWW_DASHED1
 62
   120
370
     5
100
AcDbLine
 10
-661.9057965276787
 20
132.1935324059037
 30
0.0
 11
-88.90579652767805
 21
132.1935324059037
 31
0.0
  0
LINE
  5
189
330
1F
100
AcDbEntity
  8
0-0
  6
JWW_DASHED1
 62
   120
370
     5
100
AcDbLine
 10
-661.9057965276787
 20
133.1935324058038
 30
0.0
 11
-88.90579652767805
 21
133.1935324058038
 31
0.0
  0
LINE
  5
18A
330
1F
100
AcDbEntity
  8
0-0
  6
JWW_DASHED1
 62
   120
370
     5
100
AcDbLine
 10
-661.9057965276787
 20
146.1935324069034
 30
0.0
 11
-88.90579652767805
 21
146.1935324069034
 31
0.0
  0
LINE
  5
18B
330
1F
100
AcDbEntity
  8
0-0
  6
JWW_DASHED1
 62
   120
370
     5
100
AcDbLine
 10
-661.9057965276787
 20
147.1935324068036
 30
0.0
 11
-88.90579652767805
 21
147.1935324068036
 31
0.0
  0
LINE
  5
18C
330
1F
100
AcDbEntity
  8
0-0
  6
JWW_DASHED1
 62
   120
370
     5
100
AcDbLine
 10
-661.9057965276787
 20
160.1935324079037
 30
0.0
 11
-88.90579652767805
 21
160.1935324079037
 31
0.0
  0
LINE
  5
18D
330
1F
100
AcDbEntity
  8
0-0
  6
JWW_DASHED1
 62
   120
370
     5
100
AcDbLine
 10
-661.9057965276787
 20
161.1935324078038
 30
0.0
 11
-88.90579652767805
 21
161.1935324078038
 31
0.0
  0
LINE
  5
18E
330
1F
100
AcDbEntity
  8
0-0
  6
JWW_DASHED1
 62
   120
370
     5
100
AcDbLine
 10
-661.9057965276787
 20
174.1935324089035
 30
0.0
 11
-88.90579652767805
 21
174.1935324089035
 31
0.0
  0
LINE
  5
18F
330
1F
100
AcDbEntity
  8
0-0
  6
JWW_DASHED1
 62
   120
370
     5
100
AcDbLine
 10
-661.9057965276787
 20
175.1935324088036
 30
0.0
 11
-88.90579652767805
 21
175.1935324088036
 31
0.0
  0
LINE
  5
190
330
1F
100
AcDbEntity
  8
0-0
  6
JWW_DASHED1
 62
   120
370
     5
100
AcDbLine
 10
-661.9057965276787
 20
188.1935324099037
 30
0.0
 11
-88.90579652767805
 21
188.1935324099037
 31
0.0
  0
LINE
  5
191
330
1F
100
AcDbEntity
  8
0-0
  6
JWW_DASHED1
 62
   120
370
     5
100
AcDbLine
 10
-661.9057965276787
 20
189.1935324098034
 30
0.0
 11
-88.90579652767805
 21
189.1935324098034
 31
0.0
  0
LINE
  5
192
330
1F
100
AcDbEntity
  8
0-0
  6
JWW_DASHED1
 62
   120
370
     5
100
AcDbLine
 10
-661.9057965276787
 20
202.1935324109035
 30
0.0
 11
-88.90579652767805
 21
202.1935324109035
 31
0.0
  0
LINE
  5
193
330
1F
100
AcDbEntity
  8
0-0
  6
JWW_DASHED1
 62
   120
370
     5
100
AcDbLine
 10
-661.9057965276787
 20
203.1935324108036
 30
0.0
 11
-88.90579652767805
 21
203.1935324108036
 31
0.0
  0
LINE
  5
194
330
1F
100
AcDbEntity
  8
0-0
  6
JWW_DASHED1
 62
   120
370
     5
100
AcDbLine
 10
-661.9057965276787
 20
216.1935324119037
 30
0.0
 11
-88.90579652767805
 21
216.1935324119037
 31
0.0
  0
LINE
  5
195
330
1F
100
AcDbEntity
  8
0-0
  6
JWW_DASHED1
 62
   120
370
     5
100
AcDbLine
 10
-661.9057965276787
 20
217.1935324118039
 30
0.0
 11
-88.90579652767805
 21
217.1935324118039
 31
0.0
  0
LINE
  5
196
330
1F
100
AcDbEntity
  8
0-0
  6
JWW_DASHED1
 62
   120
370
     5
100
AcDbLine
 10
-661.9057965276787
 20
230.1935324129035
 30
0.0
 11
-88.90579652767805
 21
230.1935324129035
 31
0.0
  0
LINE
  5
197
330
1F
100
AcDbEntity
  8
0-0
  6
JWW_DASHED1
 62
   120
370
     5
100
AcDbLine
 10
-661.9057965276787
 20
231.1935324128036
 30
0.0
 11
-88.90579652767805
 21
231.1935324128036
 31
0.0
  0
LINE
  5
198
330
1F
100
AcDbEntity
  8
0-0
  6
JWW_DASHED1
 62
   120
370
     5
100
AcDbLine
 10
-661.9057965276787
 20
244.1935324139037
 30
0.0
 11
-88.90579652767805
 21
244.1935324139037
 31
0.0
  0
LINE
  5
199
330
1F
100
AcDbEntity
  8
0-0
  6
JWW_DASHED1
 62
   120
370
     5
100
AcDbLine
 10
-661.9057965276787
 20
245.1935324138034
 30
0.0
 11
-88.90579652767805
 21
245.1935324138034
 31
0.0
  0
LINE
  5
19A
330
1F
100
AcDbEntity
  8
0-0
  6
JWW_DASHED1
 62
   120
370
     5
100
AcDbLine
 10
-661.9057965276787
 20
258.1935324149035
 30
0.0
 11
-88.90579652767805
 21
258.1935324149035
 31
0.0
  0
LINE
  5
19B
330
1F
100
AcDbEntity
  8
0-0
  6
JWW_DASHED1
 62
   120
370
     5
100
AcDbLine
 10
-661.9057965276787
 20
259.1935324148037
 30
0.0
 11
-88.90579652767805
 21
259.1935324148037
 31
0.0
  0
LINE
  5
19C
330
1F
100
AcDbEntity
  8
0-0
  6
JWW_DASHED1
 62
   120
370
     5
100
AcDbLine
 10
-661.9057965276787
 20
272.1935324159037
 30
0.0
 11
-88.90579652767805
 21
272.1935324159037
 31
0.0
  0
LINE
  5
19D
330
1F
100
AcDbEntity
  8
0-0
  6
JWW_DASHED1
 62
   120
370
     5
100
AcDbLine
 10
-661.9057965276787
 20
273.1935324158039
 30
0.0
 11
-88.90579652767805
 21
273.1935324158039
 31
0.0
  0
LINE
  5
19E
330
1F
100
AcDbEntity
  8
0-0
  6
JWW_DASHED1
 62
   120
370
     5
100
AcDbLine
 10
-661.9057965276787
 20
286.1935324169035
 30
0.0
 11
-88.90579652767805
 21
286.1935324169035
 31
0.0
  0
LINE
  5
19F
330
1F
100
AcDbEntity
  8
0-0
  6
JWW_DASHED1
 62
   120
370
     5
100
AcDbLine
 10
-661.9057965276787
 20
287.1935324168037
 30
0.0
 11
-88.90579652767805
 21
287.1935324168037
 31
0.0
  0
LINE
  5
1A0
330
1F
100
AcDbEntity
  8
0-0
  6
JWW_DASHED1
 62
   120
370
     5
100
AcDbLine
 10
-661.9057965276787
 20
300.1935324179037
 30
0.0
 11
-88.90579652767805
 21
300.1935324179037
 31
0.0
  0
LINE
  5
1A1
330
1F
100
AcDbEntity
  8
0-0
  6
JWW_DASHED1
 62
   120
370
     5
100
AcDbLine
 10
-661.9057965276787
 20
301.1935324178035
 30
0.0
 11
-88.90579652767805
 21
301.1935324178035
 31
0.0
  0
LINE
  5
1A2
330
1F
100
AcDbEntity
  8
0-0
  6
JWW_DASHED1
 62
   120
370
     5
100
AcDbLine
 10
-661.9057965276787
 20
314.1935324189035
 30
0.0
 11
-88.90579652767805
 21
314.1935324189035
 31
0.0
  0
LINE
  5
1A3
330
1F
100
AcDbEntity
  8
0-0
  6
JWW_DASHED1
 62
   120
370
     5
100
AcDbLine
 10
-661.9057965276787
 20
315.1935324188037
 30
0.0
 11
-88.90579652767805
 21
315.1935324188037
 31
0.0
  0
LINE
  5
1A4
330
1F
100
AcDbEntity
  8
0-0
  6
JWW_DASHED1
 62
   120
370
     5
100
AcDbLine
 10
-661.9057965276787
 20
328.1935324199037
 30
0.0
 11
-88.90579652767805
 21
328.1935324199037
 31
0.0
  0
LINE
  5
1A5
330
1F
100
AcDbEntity
  8
0-0
  6
JWW_DASHED1
 62
   120
370
     5
100
AcDbLine
 10
-661.9057965276787
 20
329.1935324198039
 30
0.0
 11
-88.90579652767805
 21
329.1935324198039
 31
0.0
  0
LINE
  5
1A6
330
1F
100
AcDbEntity
  8
0-0
  6
JWW_DASHED1
 62
   120
370
     5
100
AcDbLine
 10
-661.9057965276787
 20
342.1935324209035
 30
0.0
 11
-88.90579652767805
 21
342.1935324209035
 31
0.0
  0
LINE
  5
1A7
330
1F
100
AcDbEntity
  8
0-0
  6
JWW_DASHED1
 62
   120
370
     5
100
AcDbLine
 10
-661.9057965276787
 20
343.1935324208036
 30
0.0
 11
-88.90579652767805
 21
343.1935324208036
 31
0.0
  0
LINE
  5
1A8
330
1F
100
AcDbEntity
  8
0-0
  6
JWW_DASHED1
 62
   120
370
     5
100
AcDbLine
 10
-661.9057965276787
 20
356.1935324219037
 30
0.0
 11
-88.90579652767805
 21
356.1935324219037
 31
0.0
  0
LINE
  5
1A9
330
1F
100
AcDbEntity
  8
0-0
  6
JWW_DASHED1
 62
   120
370
     5
100
AcDbLine
 10
-661.9057965276787
 20
357.1935324218035
 30
0.0
 11
-88.90579652767805
 21
357.1935324218035
 31
0.0
  0
LINE
  5
1AA
330
1F
100
AcDbEntity
  8
0-0
  6
JWW_DASHED1
 62
   120
370
     5
100
AcDbLine
 10
-661.9057965276787
 20
370.1935324229035
 30
0.0
 11
-88.90579652767805
 21
370.1935324229035
 31
0.0
  0
LINE
  5
1AB
330
1F
100
AcDbEntity
  8
0-0
  6
JWW_DASHED1
 62
   120
370
     5
100
AcDbLine
 10
-661.9057965276787
 20
371.1935324228037
 30
0.0
 11
-88.90579652767805
 21
371.1935324228037
 31
0.0
  0
LINE
  5
1AC
330
1F
100
AcDbEntity
  8
0-0
  6
JWW_DASHED1
 62
   120
370
     5
100
AcDbLine
 10
-661.9057965276787
 20
384.1935324239037
 30
0.0
 11
-88.90579652767805
 21
384.1935324239037
 31
0.0
  0
LINE
  5
1AD
330
1F
100
AcDbEntity
  8
0-0
  6
JWW_DASHED1
 62
   120
370
     5
100
AcDbLine
 10
-661.9057965276787
 20
385.1935324238035
 30
0.0
 11
-88.90579652767805
 21
385.1935324238035
 31
0.0
  0
LINE
  5
1AE
330
1F
100
AcDbEntity
  8
0-0
  6
JWW_DASHED1
 62
   120
370
     5
100
AcDbLine
 10
-661.9057965276787
 20
398.1935324249035
 30
0.0
 11
-88.90579652767805
 21
398.1935324249035
 31
0.0
  0
LINE
  5
1AF
330
1F
100
AcDbEntity
  8
0-0
  6
JWW_DASHED1
 62
   120
370
     5
100
AcDbLine
 10
-661.9057965276787
 20
399.1935324248037
 30
0.0
 11
-88.90579652767805
 21
399.1935324248037
 31
0.0
  0
LINE
  5
1B0
330
1F
100
AcDbEntity
  8
0-0
  6
JWW_DASHED1
 62
   120
370
     5
100
AcDbLine
 10
-661.9057965276787
 20
412.1935324259038
 30
0.0
 11
-88.90579652767805
 21
412.1935324259038
 31
0.0
  0
LINE
  5
1B1
330
1F
100
AcDbEntity
  8
0-0
  6
JWW_DASHED1
 62
   120
370
     5
100
AcDbLine
 10
-661.9057965276787
 20
413.1935324258035
 30
0.0
 11
-88.90579652767805
 21
413.1935324258035
 31
0.0
  0
LINE
  5
1B2
330
1F
100
AcDbEntity
  8
0-0
  6
JWW_DASHED1
 62
   120
370
     5
100
AcDbLine
 10
-661.9057965276787
 20
426.1935324269035
 30
0.0
 11
-88.90579652767805
 21
426.1935324269035
 31
0.0
  0
LINE
  5
1B3
330
1F
100
AcDbEntity
  8
0-0
  6
JWW_DASHED1
 62
   120
370
     5
100
AcDbLine
 10
-661.9057965276787
 20
427.1935324268037
 30
0.0
 11
-88.90579652767805
 21
427.1935324268037
 31
0.0
  0
LINE
  5
1B4
330
1F
100
AcDbEntity
  8
0-0
  6
JWW_DASHED1
 62
   120
370
     5
100
AcDbLine
 10
-661.9057965276787
 20
440.1935324279037
 30
0.0
 11
-88.90579652767805
 21
440.1935324279037
 31
0.0
  0
LINE
  5
1B5
330
1F
100
AcDbEntity
  8
0-0
  6
JWW_DASHED1
 62
   120
370
     5
100
AcDbLine
 10
-661.9057965276787
 20
441.1935324278035
 30
0.0
 11
-88.90579652767805
 21
441.1935324278035
 31
0.0
  0
LINE
  5
1B6
330
1F
100
AcDbEntity
  8
0-0
  6
JWW_DASHED1
 62
   120
370
     5
100
AcDbLine
 10
-661.9057965276787
 20
454.1935324289035
 30
0.0
 11
-88.90579652767805
 21
454.1935324289035
 31
0.0
  0
LINE
  5
1B7
330
1F
100
AcDbEntity
  8
0-0
  6
JWW_DASHED1
 62
   120
370
     5
100
AcDbLine
 10
-661.9057965276787
 20
455.1935324288037
 30
0.0
 11
-88.90579652767805
 21
455.1935324288037
 31
0.0
  0
LINE
  5
1B8
330
1F
100
AcDbEntity
  8
0-0
  6
JWW_DASHED1
 62
   120
370
     5
100
AcDbLine
 10
-661.9057965276787
 20
468.1935324299037
 30
0.0
 11
-88.90579652767805
 21
468.1935324299037
 31
0.0
  0
LINE
  5
1B9
330
1F
100
AcDbEntity
  8
0-0
  6
JWW_DASHED1
 62
   120
370
     5
100
AcDbLine
 10
-661.9057965276787
 20
469.1935324298035
 30
0.0
 11
-88.90579652767805
 21
469.1935324298035
 31
0.0
  0
LINE
  5
1BA
330
1F
100
AcDbEntity
  8
0-0
  6
JWW_DASHED1
 62
   120
370
     5
100
AcDbLine
 10
-661.9057965276787
 20
482.1935324309035
 30
0.0
 11
-88.90579652767805
 21
482.1935324309035
 31
0.0
  0
LINE
  5
1BB
330
1F
100
AcDbEntity
  8
0-0
  6
JWW_DASHED1
 62
   120
370
     5
100
AcDbLine
 10
-661.9057965276787
 20
483.1935324308037
 30
0.0
 11
-88.90579652767805
 21
483.1935324308037
 31
0.0
  0
LINE
  5
1BC
330
1F
100
AcDbEntity
  8
0-0
  6
JWW_DASHED1
 62
   120
370
     5
100
AcDbLine
 10
-661.9057965276787
 20
496.1935324319037
 30
0.0
 11
-88.90579652767805
 21
496.1935324319037
 31
0.0
  0
LINE
  5
1BD
330
1F
100
AcDbEntity
  8
0-0
  6
JWW_DASHED1
 62
   120
370
     5
100
AcDbLine
 10
-661.9057965276787
 20
497.1935324318035
 30
0.0
 11
-88.90579652767805
 21
497.1935324318035
 31
0.0
  0
LINE
  5
1BE
330
1F
100
AcDbEntity
  8
0-0
  6
JWW_DASHED1
 62
   120
370
     5
100
AcDbLine
 10
-661.9057965276787
 20
510.1935324329036
 30
0.0
 11
-88.90579652767805
 21
510.1935324329036
 31
0.0
  0
LINE
  5
1BF
330
1F
100
AcDbEntity
  8
0-0
  6
JWW_DASHED1
 62
   120
370
     5
100
AcDbLine
 10
-661.9057965276787
 20
511.1935324328037
 30
0.0
 11
-88.90579652767805
 21
511.1935324328037
 31
0.0
  0
LINE
  5
1C0
330
1F
100
AcDbEntity
  8
0-0
  6
JWW_DASHED1
 62
   120
370
     5
100
AcDbLine
 10
-661.9057965276787
 20
524.1935324339038
 30
0.0
 11
-88.90579652767805
 21
524.1935324339038
 31
0.0
  0
LINE
  5
1C1
330
1F
100
AcDbEntity
  8
0-0
  6
JWW_DASHED1
 62
   120
370
     5
100
AcDbLine
 10
-661.9057965276787
 20
525.1935324338035
 30
0.0
 11
-88.90579652767805
 21
525.1935324338035
 31
0.0
  0
LINE
  5
1C2
330
1F
100
AcDbEntity
  8
0-0
  6
JWW_DASHED1
 62
   120
370
     5
100
AcDbLine
 10
-661.9057965276787
 20
538.1935324349035
 30
0.0
 11
-88.90579652767805
 21
538.1935324349035
 31
0.0
  0
LINE
  5
1C3
330
1F
100
AcDbEntity
  8
0-0
  6
JWW_DASHED1
 62
   120
370
     5
100
AcDbLine
 10
-661.9057965276787
 20
539.1935324348037
 30
0.0
 11
-88.90579652767805
 21
539.1935324348037
 31
0.0
  0
LINE
  5
1C4
330
1F
100
AcDbEntity
  8
0-0
  6
JWW_DASHED1
 62
   120
370
     5
100
AcDbLine
 10
-661.9057965276787
 20
552.1935324359038
 30
0.0
 11
-88.90579652767805
 21
552.1935324359038
 31
0.0
  0
LINE
  5
1C5
330
1F
100
AcDbEntity
  8
0-0
  6
JWW_DASHED1
 62
   120
370
     5
100
AcDbLine
 10
-661.9057965276787
 20
553.1935324358035
 30
0.0
 11
-88.90579652767805
 21
553.1935324358035
 31
0.0
  0
LINE
  5
1C6
330
1F
100
AcDbEntity
  8
0-0
  6
JWW_DASHED1
 62
   120
370
     5
100
AcDbLine
 10
-661.9057965276787
 20
566.1935324369035
 30
0.0
 11
-88.90579652767805
 21
566.1935324369035
 31
0.0
  0
LINE
  5
1C7
330
1F
100
AcDbEntity
  8
0-0
  6
JWW_DASHED1
 62
   120
370
     5
100
AcDbLine
 10
-661.9057965276787
 20
567.1935324368037
 30
0.0
 11
-88.90579652767805
 21
567.1935324368037
 31
0.0
  0
LINE
  5
1C8
330
1F
100
AcDbEntity
  8
0-0
  6
JWW_DASHED1
 62
   120
370
     5
100
AcDbLine
 10
-661.9057965276787
 20
580.1935324379037
 30
0.0
 11
-88.90579652767805
 21
580.1935324379037
 31
0.0
  0
LINE
  5
1C9
330
1F
100
AcDbEntity
  8
0-0
  6
JWW_DASHED1
 62
   120
370
     5
100
AcDbLine
 10
-661.9057965276787
 20
581.1935324378035
 30
0.0
 11
-88.90579652767805
 21
581.1935324378035
 31
0.0
  0
LINE
  5
1CA
330
1F
100
AcDbEntity
  8
0-0
  6
JWW_DASHED1
 62
   120
370
     5
100
AcDbLine
 10
-661.9057965276787
 20
594.1935324389035
 30
0.0
 11
-88.90579652767805
 21
594.1935324389035
 31
0.0
  0
LINE
  5
1CB
330
1F
100
AcDbEntity
  8
0-0
  6
JWW_DASHED1
 62
   120
370
     5
100
AcDbLine
 10
-661.9057965276787
 20
595.1935324388037
 30
0.0
 11
-88.90579652767805
 21
595.1935324388037
 31
0.0
  0
LINE
  5
1CC
330
1F
100
AcDbEntity
  8
0-0
  6
JWW_DASHED1
 62
   120
370
     5
100
AcDbLine
 10
-661.9057965276787
 20
608.1935324399037
 30
0.0
 11
-88.90579652767805
 21
608.1935324399037
 31
0.0
  0
LINE
  5
1CD
330
1F
100
AcDbEntity
  8
0-0
  6
JWW_DASHED1
 62
   120
370
     5
100
AcDbLine
 10
-661.9057965276787
 20
609.1935324398036
 30
0.0
 11
-88.90579652767805
 21
609.1935324398036
 31
0.0
  0
LINE
  5
1CE
330
1F
100
AcDbEntity
  8
0-0
  6
JWW_DASHED1
 62
   120
370
     5
100
AcDbLine
 10
-661.9057965276787
 20
622.1935324409036
 30
0.0
 11
-88.90579652767805
 21
622.1935324409036
 31
0.0
  0
LINE
  5
1CF
330
1F
100
AcDbEntity
  8
0-0
  6
JWW_DASHED1
 62
   120
370
     5
100
AcDbLine
 10
-661.9057965276787
 20
623.1935324408038
 30
0.0
 11
-88.90579652767805
 21
623.1935324408038
 31
0.0
  0
LINE
  5
1D0
330
1F
100
AcDbEntity
  8
0-0
  6
JWW_DASHED1
 62
   120
370
     5
100
AcDbLine
 10
-661.9057965276787
 20
636.1935324419038
 30
0.0
 11
-88.90579652767805
 21
636.1935324419038
 31
0.0
  0
LINE
  5
1D1
330
1F
100
AcDbEntity
  8
0-0
  6
JWW_DASHED1
 62
   120
370
     5
100
AcDbLine
 10
-661.9057965276787
 20
637.1935324418035
 30
0.0
 11
-88.90579652767805
 21
637.1935324418035
 31
0.0
  0
LINE
  5
1D2
330
1F
100
AcDbEntity
  8
0-0
  6
JWW_DASHED1
 62
   120
370
     5
100
AcDbLine
 10
-661.9057965276787
 20
650.1935324429036
 30
0.0
 11
-88.90579652767805
 21
650.1935324429036
 31
0.0
  0
LINE
  5
1D3
330
1F
100
AcDbEntity
  8
0-0
  6
JWW_DASHED1
 62
   120
370
     5
100
AcDbLine
 10
-661.9057965276787
 20
651.1935324428038
 30
0.0
 11
-88.90579652767805
 21
651.1935324428038
 31
0.0
  0
LINE
  5
1D4
330
1F
100
AcDbEntity
  8
0-0
  6
JWW_DASHED1
 62
   120
370
     5
100
AcDbLine
 10
-661.9057965276787
 20
664.1935324439038
 30
0.0
 11
-88.90579652767805
 21
664.1935324439038
 31
0.0
  0
LINE
  5
1D5
330
1F
100
AcDbEntity
  8
0-0
  6
JWW_DASHED1
 62
   120
370
     5
100
AcDbLine
 10
-661.9057965276787
 20
665.1935324438035
 30
0.0
 11
-88.90579652767805
 21
665.1935324438035
 31
0.0
  0
LINE
  5
1D6
330
1F
100
AcDbEntity
  8
0-0
  6
JWW_DASHED1
 62
   120
370
     5
100
AcDbLine
 10
-661.9057965276787
 20
678.1935324449036
 30
0.0
 11
-88.90579652767805
 21
678.1935324449036
 31
0.0
  0
LINE
  5
1D7
330
1F
100
AcDbEntity
  8
0-0
  6
JWW_DASHED1
 62
   120
370
     5
100
AcDbLine
 10
-661.9057965276787
 20
679.1935324448037
 30
0.0
 11
-88.90579652767805
 21
679.1935324448037
 31
0.0
  0
LINE
  5
1D8
330
1F
100
AcDbEntity
  8
0-0
  6
JWW_DASHED1
 62
   120
370
     5
100
AcDbLine
 10
-661.9057965276787
 20
692.1935324459038
 30
0.0
 11
-88.90579652767805
 21
692.1935324459038
 31
0.0
  0
LINE
  5
1D9
330
1F
100
AcDbEntity
  8
0-0
  6
JWW_DASHED1
 62
   120
370
     5
100
AcDbLine
 10
-661.9057965276787
 20
693.1935324458036
 30
0.0
 11
-88.90579652767805
 21
693.1935324458036
 31
0.0
  0
LINE
  5
1DA
330
1F
100
AcDbEntity
  8
0-0
  6
JWW_DASHED1
 62
   120
370
     5
100
AcDbLine
 10
-661.9057965276787
 20
706.1935324469036
 30
0.0
 11
-88.90579652767805
 21
706.1935324469036
 31
0.0
  0
LINE
  5
1DB
330
1F
100
AcDbEntity
  8
0-0
  6
JWW_DASHED1
 62
   120
370
     5
100
AcDbLine
 10
-661.9057965276787
 20
707.1935324468038
 30
0.0
 11
-88.90579652767805
 21
707.1935324468038
 31
0.0
  0
LINE
  5
1DC
330
1F
100
AcDbEntity
  8
0-0
  6
JWW_DASHED1
 62
   120
370
     5
100
AcDbLine
 10
-583.0428518430458
 20
720.1935324479039
 30
0.0
 11
-167.7687412123109
 21
720.1935324479039
 31
0.0
  0
LINE
  5
1DD
330
1F
100
AcDbEntity
  8
0-0
  6
JWW_DASHED1
 62
   120
370
     5
100
AcDbLine
 10
-578.4832651018664
 20
721.1935324478036
 30
0.0
 11
-172.3283279534903
 21
721.1935324478036
 31
0.0
  0
LINE
  5
1DE
330
1F
100
AcDbEntity
  8
0-0
  6
JWW_DASHED1
 62
   120
370
     5
100
AcDbLine
 10
-543.5315048258858
 20
734.1935324489036
 30
0.0
 11
-207.2800882294709
 21
734.1935324489036
 31
0.0
  0
LINE
  5
1DF
330
1F
100
AcDbEntity
  8
0-0
  6
JWW_DASHED1
 62
   120
370
     5
100
AcDbLine
 10
-541.6468335050681
 20
735.1935324488038
 30
0.0
 11
-209.1647595502886
 21
735.1935324488038
 31
0.0
  0
LINE
  5
1E0
330
1F
100
AcDbEntity
  8
0-0
  6
JWW_DASHED1
 62
   120
370
     5
100
AcDbLine
 10
-514.9016238899944
 20
748.1935324499038
 30
0.0
 11
-235.9099691653623
 21
748.1935324499038
 31
0.0
  0
LINE
  5
1E1
330
1F
100
AcDbEntity
  8
0-0
  6
JWW_DASHED1
 62
   120
370
     5
100
AcDbLine
 10
-512.5775360333805
 20
749.1935324498036
 30
0.0
 11
-238.2340570219762
 21
749.1935324498036
 31
0.0
  0
LINE
  5
1E2
330
1F
100
AcDbEntity
  8
0-0
  6
JWW_DASHED1
 62
   120
370
     5
100
AcDbLine
 10
-476.7719131304634
 20
762.1935324509036
 30
0.0
 11
-274.0396799248933
 21
762.1935324509036
 31
0.0
  0
LINE
  5
1E3
330
1F
100
AcDbEntity
  8
0-0
  6
JWW_DASHED1
 62
   120
370
     5
100
AcDbLine
 10
-473.40625500948
 20
763.1935324508038
 30
0.0
 11
-277.4053380458768
 21
763.1935324508038
 31
0.0
  0
LINE
  5
1E4
330
1F
100
AcDbEntity
  8
0-0
  6
JWW_DASHED1
 62
   120
370
     5
100
AcDbLine
 10
-401.8461697986945
 20
776.1935324519038
 30
0.0
 11
-348.9654232566622
 21
776.1935324519038
 31
0.0
  0
LINE
  5
1E5
330
1F
100
AcDbEntity
  8
0-0
  6
JWW_DASHED1
 62
   120
370
     5
100
AcDbLine
 10
-375.7117478732594
 20
777.1935324518035
 30
0.0
 11
-375.0998451820974
 21
777.1935324518035
 31
0.0
  0
LINE
  5
1E6
330
1F
100
AcDbEntity
  8
0-0
  6
JWW_DASHED1
 62
   120
370
     5
100
AcDbLine
 10
685.0942034922707
 20
-535.8063338249934
 30
0.0
 11
685.0942034922707
 21
717.1933986307005
 31
0.0
  0
LINE
  5
1E7
330
1F
100
AcDbEntity
  8
0-0
  6
JWW_DASHED1
 62
   120
370
     5
100
AcDbLine
 10
684.0942034923708
 20
-535.8063338249934
 30
0.0
 11
684.0942034923708
 21
717.1933986307005
 31
0.0
  0
LINE
  5
1E8
330
1F
100
AcDbEntity
  8
0-0
  6
JWW_DASHED1
 62
   120
370
     5
100
AcDbLine
 10
671.0942034912707
 20
-535.8063338249934
 30
0.0
 11
671.0942034912707
 21
717.1933986307005
 31
0.0
  0
LINE
  5
1E9
330
1F
100
AcDbEntity
  8
0-0
  6
JWW_DASHED1
 62
   120
370
     5
100
AcDbLine
 10
670.0942034913708
 20
-535.8063338249934
 30
0.0
 11
670.0942034913708
 21
717.1933986307005
 31
0.0
  0
LINE
  5
1EA
330
1F
100
AcDbEntity
  8
0-0
  6
JWW_DASHED1
 62
   120
370
     5
100
AcDbLine
 10
657.0942034902707
 20
-535.8063338249934
 30
0.0
 11
657.0942034902707
 21
717.1933986307005
 31
0.0
  0
LINE
  5
1EB
330
1F
100
AcDbEntity
  8
0-0
  6
JWW_DASHED1
 62
   120
370
     5
100
AcDbLine
 10
656.0942034903708
 20
-535.8063338249934
 30
0.0
 11
656.0942034903708
 21
717.1933986307005
 31
0.0
  0
LINE
  5
1EC
330
1F
100
AcDbEntity
  8
0-0
  6
JWW_DASHED1
 62
   120
370
     5
100
AcDbLine
 10
643.0942034892707
 20
-535.8063338249934
 30
0.0
 11
643.0942034892707
 21
717.1933986307005
 31
0.0
  0
LINE
  5
1ED
330
1F
100
AcDbEntity
  8
0-0
  6
JWW_DASHED1
 62
   120
370
     5
100
AcDbLine
 10
642.0942034893708
 20
-535.8063338249934
 30
0.0
 11
642.0942034893708
 21
717.1933986307005
 31
0.0
  0
LINE
  5
1EE
330
1F
100
AcDbEntity
  8
0-0
  6
JWW_DASHED1
 62
   120
370
     5
100
AcDbLine
 10
629.0942034882708
 20
-535.8063338249934
 30
0.0
 11
629.0942034882708
 21
717.7566927417894
 31
0.0
  0
LINE
  5
1EF
330
1F
100
AcDbEntity
  8
0-0
  6
JWW_DASHED1
 62
   120
370
     5
100
AcDbLine
 10
628.0942034883707
 20
-535.8063338249934
 30
0.0
 11
628.0942034883707
 21
717.8469745285139
 31
0.0
  0
LINE
  5
1F0
330
1F
100
AcDbEntity
  8
0-0
  6
JWW_DASHED1
 62
   120
370
     5
100
AcDbLine
 10
615.0942034872706
 20
-535.8063338249934
 30
0.0
 11
615.0942034872706
 21
719.6410905520889
 31
0.0
  0
LINE
  5
1F1
330
1F
100
AcDbEntity
  8
0-0
  6
JWW_DASHED1
 62
   120
370
     5
100
AcDbLine
 10
614.0942034873707
 20
-535.8063338249934
 30
0.0
 11
614.0942034873707
 21
719.827497064237
 31
0.0
  0
LINE
  5
1F2
330
1F
100
AcDbEntity
  8
0-0
  6
JWW_DASHED1
 62
   120
370
     5
100
AcDbLine
 10
601.0942034862707
 20
-535.8063338249934
 30
0.0
 11
601.0942034862707
 21
722.9018944745104
 31
0.0
  0
LINE
  5
1F3
330
1F
100
AcDbEntity
  8
0-0
  6
JWW_DASHED1
 62
   120
370
     5
100
AcDbLine
 10
600.0942034863707
 20
-535.8063338249934
 30
0.0
 11
600.0942034863707
 21
723.1897059807153
 31
0.0
  0
LINE
  5
1F4
330
1F
100
AcDbEntity
  8
0-0
  6
JWW_DASHED1
 62
   120
370
     5
100
AcDbLine
 10
587.0942034852707
 20
-535.8063338249934
 30
0.0
 11
587.0942034852707
 21
727.6355513990376
 31
0.0
  0
LINE
  5
1F5
330
1F
100
AcDbEntity
  8
0-0
  6
JWW_DASHED1
 62
   120
370
     5
100
AcDbLine
 10
586.0942034853707
 20
-535.8063338249934
 30
0.0
 11
586.0942034853707
 21
728.0337132001688
 31
0.0
  0
LINE
  5
1F6
330
1F
100
AcDbEntity
  8
0-0
  6
JWW_DASHED1
 62
   120
370
     5
100
AcDbLine
 10
573.0942034842707
 20
-535.8063338249934
 30
0.0
 11
573.0942034842707
 21
733.9990020662691
 31
0.0
  0
LINE
  5
1F7
330
1F
100
AcDbEntity
  8
0-0
  6
JWW_DASHED1
 62
   120
370
     5
100
AcDbLine
 10
572.0942034843707
 20
-535.8063338249934
 30
0.0
 11
572.0942034843707
 21
734.5217264419836
 31
0.0
  0
LINE
  5
1F8
330
1F
100
AcDbEntity
  8
0-0
  6
JWW_DASHED1
 62
   120
370
     5
100
AcDbLine
 10
559.0942034832707
 20
-535.8063338249934
 30
0.0
 11
559.0942034832707
 21
741.2474036095603
 31
0.0
  0
LINE
  5
1F9
330
1F
100
AcDbEntity
  8
0-0
  6
JWW_DASHED1
 62
   120
370
     5
100
AcDbLine
 10
558.0942034833707
 20
-535.8063338249934
 30
0.0
 11
558.0942034833707
 21
741.7373833219619
 31
0.0
  0
LINE
  5
1FA
330
1F
100
AcDbEntity
  8
0-0
  6
JWW_DASHED1
 62
   120
370
     5
100
AcDbLine
 10
545.0942034822707
 20
-535.8063338249934
 30
0.0
 11
545.0942034822707
 21
747.7552827126067
 31
0.0
  0
LINE
  5
1FB
330
1F
100
AcDbEntity
  8
0-0
  6
JWW_DASHED1
 62
   120
370
     5
100
AcDbLine
 10
544.0942034823707
 20
-535.8063338249934
 30
0.0
 11
544.0942034823707
 21
748.191719124244
 31
0.0
  0
LINE
  5
1FC
330
1F
100
AcDbEntity
  8
0-0
  6
JWW_DASHED1
 62
   120
370
     5
100
AcDbLine
 10
531.0942034812707
 20
-535.8063338249934
 30
0.0
 11
531.0942034812707
 21
753.5335963057526
 31
0.0
  0
LINE
  5
1FD
330
1F
100
AcDbEntity
  8
0-0
  6
JWW_DASHED1
 62
   120
370
     5
100
AcDbLine
 10
530.0942034813706
 20
-535.8063338249934
 30
0.0
 11
530.0942034813706
 21
753.9194686420353
 31
0.0
  0
LINE
  5
1FE
330
1F
100
AcDbEntity
  8
0-0
  6
JWW_DASHED1
 62
   120
370
     5
100
AcDbLine
 10
517.0942034802706
 20
-535.8063338249934
 30
0.0
 11
517.0942034802706
 21
758.6205057613563
 31
0.0
  0
LINE
  5
1FF
330
1F
100
AcDbEntity
  8
0-0
  6
JWW_DASHED1
 62
   120
370
     5
100
AcDbLine
 10
516.0942034803707
 20
-535.8063338249934
 30
0.0
 11
516.0942034803707
 21
758.9582664538659
 31
0.0
  0
LINE
  5
200
330
1F
100
AcDbEntity
  8
0-0
  6
JWW_DASHED1
 62
   120
370
     5
100
AcDbLine
 10
503.0942034792707
 20
-535.8063338249934
 30
0.0
 11
503.0942034792707
 21
763.0474289924507
 31
0.0
  0
LINE
  5
201
330
1F
100
AcDbEntity
  8
0-0
  6
JWW_DASHED1
 62
   120
370
     5
100
AcDbLine
 10
502.0942034793707
 20
-535.8063338249934
 30
0.0
 11
502.0942034793707
 21
763.3390960095323
 31
0.0
  0
LINE
  5
202
330
1F
100
AcDbEntity
  8
0-0
  6
JWW_DASHED1
 62
   120
370
     5
100
AcDbLine
 10
489.0942034782706
 20
-535.8063338249934
 30
0.0
 11
489.0942034782706
 21
766.8401735896816
 31
0.0
  0
LINE
  5
203
330
1F
100
AcDbEntity
  8
0-0
  6
JWW_DASHED1
 62
   120
370
     5
100
AcDbLine
 10
488.0942034783707
 20
-535.8063338249934
 30
0.0
 11
488.0942034783707
 21
767.087399566791
 31
0.0
  0
LINE
  5
204
330
1F
100
AcDbEntity
  8
0-0
  6
JWW_DASHED1
 62
   120
370
     5
100
AcDbLine
 10
475.0942034772706
 20
-535.8063338249934
 30
0.0
 11
475.0942034772706
 21
770.0197882825353
 31
0.0
  0
LINE
  5
205
330
1F
100
AcDbEntity
  8
0-0
  6
JWW_DASHED1
 62
   120
370
     5
100
AcDbLine
 10
474.0942034773707
 20
-535.8063338249934
 30
0.0
 11
474.0942034773707
 21
770.2239126538018
 31
0.0
  0
LINE
  5
206
330
1F
100
AcDbEntity
  8
0-0
  6
JWW_DASHED1
 62
   120
370
     5
100
AcDbLine
 10
461.0942034762706
 20
-535.8063338249934
 30
0.0
 11
461.0942034762706
 21
772.6032057067835
 31
0.0
  0
LINE
  5
207
330
1F
100
AcDbEntity
  8
0-0
  6
JWW_DASHED1
 62
   120
370
     5
100
AcDbLine
 10
460.0942034763707
 20
-535.8063338249934
 30
0.0
 11
460.0942034763707
 21
772.7652940606652
 31
0.0
  0
LINE
  5
208
330
1F
100
AcDbEntity
  8
0-0
  6
JWW_DASHED1
 62
   120
370
     5
100
AcDbLine
 10
447.0942034752707
 20
-535.8063338249934
 30
0.0
 11
447.0942034752707
 21
774.6037264780546
 31
0.0
  0
LINE
  5
209
330
1F
100
AcDbEntity
  8
0-0
  6
JWW_DASHED1
 62
   120
370
     5
100
AcDbLine
 10
446.0942034753707
 20
-535.8063338249934
 30
0.0
 11
446.0942034753707
 21
774.7246000495772
 31
0.0
  0
LINE
  5
20A
330
1F
100
AcDbEntity
  8
0-0
  6
JWW_DASHED1
 62
   120
370
     5
100
AcDbLine
 10
433.0942034742707
 20
-535.8063338249934
 30
0.0
 11
433.0942034742707
 21
776.0313791589954
 31
0.0
  0
LINE
  5
20B
330
1F
100
AcDbEntity
  8
0-0
  6
JWW_DASHED1
 62
   120
370
     5
100
AcDbLine
 10
432.0942034743707
 20
-535.8063338249934
 30
0.0
 11
432.0942034743707
 21
776.1116364773272
 31
0.0
  0
LINE
  5
20C
330
1F
100
AcDbEntity
  8
0-0
  6
JWW_DASHED1
 62
   120
370
     5
100
AcDbLine
 10
419.0942034732706
 20
-535.8063338249934
 30
0.0
 11
419.0942034732706
 21
776.8931800436451
 31
0.0
  0
LINE
  5
20D
330
1F
100
AcDbEntity
  8
0-0
  6
JWW_DASHED1
 62
   120
370
     5
100
AcDbLine
 10
418.0942034733707
 20
-535.8063338249934
 30
0.0
 11
418.0942034733707
 21
776.9332121230957
 31
0.0
  0
LINE
  5
20E
330
1F
100
AcDbEntity
  8
0-0
  6
JWW_DASHED1
 62
   120
370
     5
100
AcDbLine
 10
405.0942034722706
 20
-535.8063338249934
 30
0.0
 11
405.0942034722706
 21
777.1933090319737
 31
0.0
  0
LINE
  5
20F
330
1F
100
AcDbEntity
  8
0-0
  6
JWW_DASHED1
 62
   120
370
     5
100
AcDbLine
 10
404.0942034723707
 20
-535.8063338249934
 30
0.0
 11
404.0942034723707
 21
777.1933090319737
 31
0.0
  0
LINE
  5
210
330
1F
100
AcDbEntity
  8
0-0
  6
JWW_DASHED1
 62
   120
370
     5
100
AcDbLine
 10
391.0942034712706
 20
-535.8063338249934
 30
0.0
 11
391.0942034712706
 21
776.9332121230957
 31
0.0
  0
LINE
  5
211
330
1F
100
AcDbEntity
  8
0-0
  6
JWW_DASHED1
 62
   120
370
     5
100
AcDbLine
 10
390.0942034713706
 20
-535.8063338249934
 30
0.0
 11
390.0942034713706
 21
776.8931800436451
 31
0.0
  0
LINE
  5
212
330
1F
100
AcDbEntity
  8
0-0
  6
JWW_DASHED1
 62
   120
370
     5
100
AcDbLine
 10
377.0942034702706
 20
-535.8063338249934
 30
0.0
 11
377.0942034702706
 21
776.1116364773272
 31
0.0
  0
LINE
  5
213
330
1F
100
AcDbEntity
  8
0-0
  6
JWW_DASHED1
 62
   120
370
     5
100
AcDbLine
 10
376.0942034703706
 20
-535.8063338249934
 30
0.0
 11
376.0942034703706
 21
776.0313791589954
 31
0.0
  0
LINE
  5
214
330
1F
100
AcDbEntity
  8
0-0
  6
JWW_DASHED1
 62
   120
370
     5
100
AcDbLine
 10
363.0942034692706
 20
-535.8063338249934
 30
0.0
 11
363.0942034692706
 21
774.7246000495772
 31
0.0
  0
LINE
  5
215
330
1F
100
AcDbEntity
  8
0-0
  6
JWW_DASHED1
 62
   120
370
     5
100
AcDbLine
 10
362.0942034693707
 20
-535.8063338249934
 30
0.0
 11
362.0942034693707
 21
774.6037264780546
 31
0.0
  0
LINE
  5
216
330
1F
100
AcDbEntity
  8
0-0
  6
JWW_DASHED1
 62
   120
370
     5
100
AcDbLine
 10
349.0942034682706
 20
-535.8063338249934
 30
0.0
 11
349.0942034682706
 21
772.7652940606652
 31
0.0
  0
LINE
  5
217
330
1F
100
AcDbEntity
  8
0-0
  6
JWW_DASHED1
 62
   120
370
     5
100
AcDbLine
 10
348.0942034683707
 20
-535.8063338249934
 30
0.0
 11
348.0942034683707
 21
772.6032057067835
 31
0.0
  0
LINE
  5
218
330
1F
100
AcDbEntity
  8
0-0
  6
JWW_DASHED1
 62
   120
370
     5
100
AcDbLine
 10
335.0942034672706
 20
-535.8063338249934
 30
0.0
 11
335.0942034672706
 21
770.2239126538018
 31
0.0
  0
LINE
  5
219
330
1F
100
AcDbEntity
  8
0-0
  6
JWW_DASHED1
 62
   120
370
     5
100
AcDbLine
 10
334.0942034673707
 20
-535.8063338249934
 30
0.0
 11
334.0942034673707
 21
770.0197882825353
 31
0.0
  0
LINE
  5
21A
330
1F
100
AcDbEntity
  8
0-0
  6
JWW_DASHED1
 62
   120
370
     5
100
AcDbLine
 10
321.0942034662706
 20
-535.8063338249934
 30
0.0
 11
321.0942034662706
 21
767.087399566791
 31
0.0
  0
LINE
  5
21B
330
1F
100
AcDbEntity
  8
0-0
  6
JWW_DASHED1
 62
   120
370
     5
100
AcDbLine
 10
320.0942034663706
 20
-535.8063338249934
 30
0.0
 11
320.0942034663706
 21
766.8401735896816
 31
0.0
  0
LINE
  5
21C
330
1F
100
AcDbEntity
  8
0-0
  6
JWW_DASHED1
 62
   120
370
     5
100
AcDbLine
 10
307.0942034652706
 20
-535.8063338249934
 30
0.0
 11
307.0942034652706
 21
763.3390960095323
 31
0.0
  0
LINE
  5
21D
330
1F
100
AcDbEntity
  8
0-0
  6
JWW_DASHED1
 62
   120
370
     5
100
AcDbLine
 10
306.0942034653706
 20
-535.8063338249934
 30
0.0
 11
306.0942034653706
 21
763.0474289924507
 31
0.0
  0
LINE
  5
21E
330
1F
100
AcDbEntity
  8
0-0
  6
JWW_DASHED1
 62
   120
370
     5
100
AcDbLine
 10
293.0942034642706
 20
-535.8063338249934
 30
0.0
 11
293.0942034642706
 21
758.9582664538659
 31
0.0
  0
LINE
  5
21F
330
1F
100
AcDbEntity
  8
0-0
  6
JWW_DASHED1
 62
   120
370
     5
100
AcDbLine
 10
292.0942034643707
 20
-535.8063338249934
 30
0.0
 11
292.0942034643707
 21
758.6205057613563
 31
0.0
  0
LINE
  5
220
330
1F
100
AcDbEntity
  8
0-0
  6
JWW_DASHED1
 62
   120
370
     5
100
AcDbLine
 10
279.0942034632706
 20
-535.8063338249934
 30
0.0
 11
279.0942034632706
 21
753.9194686420353
 31
0.0
  0
LINE
  5
221
330
1F
100
AcDbEntity
  8
0-0
  6
JWW_DASHED1
 62
   120
370
     5
100
AcDbLine
 10
278.0942034633706
 20
-535.8063338249934
 30
0.0
 11
278.0942034633706
 21
753.5335963057526
 31
0.0
  0
LINE
  5
222
330
1F
100
AcDbEntity
  8
0-0
  6
JWW_DASHED1
 62
   120
370
     5
100
AcDbLine
 10
265.0942034622708
 20
-535.8063338249934
 30
0.0
 11
265.0942034622708
 21
748.191719124244
 31
0.0
  0
LINE
  5
223
330
1F
100
AcDbEntity
  8
0-0
  6
JWW_DASHED1
 62
   120
370
     5
100
AcDbLine
 10
264.0942034623706
 20
-535.8063338249934
 30
0.0
 11
264.0942034623706
 21
747.7552827126067
 31
0.0
  0
LINE
  5
224
330
1F
100
AcDbEntity
  8
0-0
  6
JWW_DASHED1
 62
   120
370
     5
100
AcDbLine
 10
251.0942034612706
 20
-535.8063338249934
 30
0.0
 11
251.0942034612706
 21
741.7373833219619
 31
0.0
  0
LINE
  5
225
330
1F
100
AcDbEntity
  8
0-0
  6
JWW_DASHED1
 62
   120
370
     5
100
AcDbLine
 10
250.0942034613706
 20
-535.8063338249934
 30
0.0
 11
250.0942034613706
 21
741.2474036095603
 31
0.0
  0
LINE
  5
226
330
1F
100
AcDbEntity
  8
0-0
  6
JWW_DASHED1
 62
   120
370
     5
100
AcDbLine
 10
237.0942034602708
 20
-535.8063338249934
 30
0.0
 11
237.0942034602708
 21
734.5217264419836
 31
0.0
  0
LINE
  5
227
330
1F
100
AcDbEntity
  8
0-0
  6
JWW_DASHED1
 62
   120
370
     5
100
AcDbLine
 10
236.0942034603706
 20
-535.8063338249934
 30
0.0
 11
236.0942034603706
 21
733.9990020662691
 31
0.0
  0
LINE
  5
228
330
1F
100
AcDbEntity
  8
0-0
  6
JWW_DASHED1
 62
   120
370
     5
100
AcDbLine
 10
223.0942034592706
 20
-535.8063338249934
 30
0.0
 11
223.0942034592706
 21
728.0337132001688
 31
0.0
  0
LINE
  5
229
330
1F
100
AcDbEntity
  8
0-0
  6
JWW_DASHED1
 62
   120
370
     5
100
AcDbLine
 10
222.0942034593706
 20
-535.8063338249934
 30
0.0
 11
222.0942034593706
 21
727.6355513990376
 31
0.0
  0
LINE
  5
22A
330
1F
100
AcDbEntity
  8
0-0
  6
JWW_DASHED1
 62
   120
370
     5
100
AcDbLine
 10
209.0942034582708
 20
-535.8063338249934
 30
0.0
 11
209.0942034582708
 21
723.1897059807153
 31
0.0
  0
LINE
  5
22B
330
1F
100
AcDbEntity
  8
0-0
  6
JWW_DASHED1
 62
   120
370
     5
100
AcDbLine
 10
208.0942034583706
 20
-535.8063338249934
 30
0.0
 11
208.0942034583706
 21
722.9018944745104
 31
0.0
  0
LINE
  5
22C
330
1F
100
AcDbEntity
  8
0-0
  6
JWW_DASHED1
 62
   120
370
     5
100
AcDbLine
 10
195.0942034572706
 20
-535.8063338249934
 30
0.0
 11
195.0942034572706
 21
719.827497064237
 31
0.0
  0
LINE
  5
22D
330
1F
100
AcDbEntity
  8
0-0
  6
JWW_DASHED1
 62
   120
370
     5
100
AcDbLine
 10
194.0942034573706
 20
-535.8063338249934
 30
0.0
 11
194.0942034573706
 21
719.6410905520889
 31
0.0
  0
LINE
  5
22E
330
1F
100
AcDbEntity
  8
0-0
  6
JWW_DASHED1
 62
   120
370
     5
100
AcDbLine
 10
181.0942034562708
 20
-535.8063338249934
 30
0.0
 11
181.0942034562708
 21
717.8469745285139
 31
0.0
  0
LINE
  5
22F
330
1F
100
AcDbEntity
  8
0-0
  6
JWW_DASHED1
 62
   120
370
     5
100
AcDbLine
 10
180.0942034563706
 20
-535.8063338249934
 30
0.0
 11
180.0942034563706
 21
717.7566927417894
 31
0.0
  0
LINE
  5
230
330
1F
100
AcDbEntity
  8
0-0
  6
JWW_DASHED1
 62
   120
370
     5
100
AcDbLine
 10
167.0942034552706
 20
-535.8063338249934
 30
0.0
 11
167.0942034552706
 21
717.1933986307005
 31
0.0
  0
LINE
  5
231
330
1F
100
AcDbEntity
  8
0-0
  6
JWW_DASHED1
 62
   120
370
     5
100
AcDbLine
 10
166.0942034553706
 20
-535.8063338249934
 30
0.0
 11
166.0942034553706
 21
717.1933986307005
 31
0.0
  0
LINE
  5
232
330
1F
100
AcDbEntity
  8
0-0
  6
JWW_DASHED1
 62
   120
370
     5
100
AcDbLine
 10
153.0942034542708
 20
-535.8063338249934
 30
0.0
 11
153.0942034542708
 21
717.1933986307005
 31
0.0
  0
LINE
  5
233
330
1F
100
AcDbEntity
  8
0-0
  6
JWW_DASHED1
 62
   120
370
     5
100
AcDbLine
 10
152.0942034543706
 20
-535.8063338249934
 30
0.0
 11
152.0942034543706
 21
717.1933986307005
 31
0.0
  0
LINE
  5
234
330
1F
100
AcDbEntity
  8
0-0
  6
JWW_DASHED1
 62
   120
370
     5
100
AcDbLine
 10
139.0942034532706
 20
-535.8063338249934
 30
0.0
 11
139.0942034532706
 21
717.1933986307005
 31
0.0
  0
LINE
  5
235
330
1F
100
AcDbEntity
  8
0-0
  6
JWW_DASHED1
 62
   120
370
     5
100
AcDbLine
 10
138.0942034533708
 20
-535.8063338249934
 30
0.0
 11
138.0942034533708
 21
717.1933986307005
 31
0.0
  0
LINE
  5
236
330
1F
100
AcDbEntity
  8
0-0
  6
JWW_DASHED1
 62
   120
370
     5
100
AcDbLine
 10
125.0942034522708
 20
-535.8063338249934
 30
0.0
 11
125.0942034522708
 21
717.1933986307005
 31
0.0
  0
LINE
  5
237
330
1F
100
AcDbEntity
  8
0-0
  6
JWW_DASHED1
 62
   120
370
     5
100
AcDbLine
 10
124.0942034523706
 20
-535.8063338249934
 30
0.0
 11
124.0942034523706
 21
717.1933986307005
 31
0.0
  0
LINE
  5
238
330
1F
100
AcDbEntity
  8
0-0
  6
JWW_DASHED1
 62
   120
370
     5
100
AcDbLine
 10
118.0942034723213
 20
-525.8064676410968
 30
0.0
 11
691.094203472322
 21
-525.8064676410968
 31
0.0
  0
LINE
  5
239
330
1F
100
AcDbEntity
  8
0-0
  6
JWW_DASHED1
 62
   120
370
     5
100
AcDbLine
 10
118.0942034723213
 20
-524.8064676411966
 30
0.0
 11
691.094203472322
 21
-524.8064676411966
 31
0.0
  0
LINE
  5
23A
330
1F
100
AcDbEntity
  8
0-0
  6
JWW_DASHED1
 62
   120
370
     5
100
AcDbLine
 10
118.0942034723213
 20
-511.8064676400965
 30
0.0
 11
691.094203472322
 21
-511.8064676400965
 31
0.0
  0
LINE
  5
23B
330
1F
100
AcDbEntity
  8
0-0
  6
JWW_DASHED1
 62
   120
370
     5
100
AcDbLine
 10
118.0942034723213
 20
-510.8064676401963
 30
0.0
 11
691.094203472322
 21
-510.8064676401963
 31
0.0
  0
LINE
  5
23C
330
1F
100
AcDbEntity
  8
0-0
  6
JWW_DASHED1
 62
   120
370
     5
100
AcDbLine
 10
118.0942034723213
 20
-497.8064676390963
 30
0.0
 11
691.094203472322
 21
-497.8064676390963
 31
0.0
  0
LINE
  5
23D
330
1F
100
AcDbEntity
  8
0-0
  6
JWW_DASHED1
 62
   120
370
     5
100
AcDbLine
 10
118.0942034723213
 20
-496.8064676391965
 30
0.0
 11
691.094203472322
 21
-496.8064676391965
 31
0.0
  0
LINE
  5
23E
330
1F
100
AcDbEntity
  8
0-0
  6
JWW_DASHED1
 62
   120
370
     5
100
AcDbLine
 10
118.0942034723213
 20
-483.8064676380965
 30
0.0
 11
691.094203472322
 21
-483.8064676380965
 31
0.0
  0
LINE
  5
23F
330
1F
100
AcDbEntity
  8
0-0
  6
JWW_DASHED1
 62
   120
370
     5
100
AcDbLine
 10
118.0942034723213
 20
-482.8064676381968
 30
0.0
 11
691.094203472322
 21
-482.8064676381968
 31
0.0
  0
LINE
  5
240
330
1F
100
AcDbEntity
  8
0-0
  6
JWW_DASHED1
 62
   120
370
     5
100
AcDbLine
 10
118.0942034723213
 20
-469.8064676370967
 30
0.0
 11
691.094203472322
 21
-469.8064676370967
 31
0.0
  0
LINE
  5
241
330
1F
100
AcDbEntity
  8
0-0
  6
JWW_DASHED1
 62
   120
370
     5
100
AcDbLine
 10
118.0942034723213
 20
-468.8064676371965
 30
0.0
 11
691.094203472322
 21
-468.8064676371965
 31
0.0
  0
LINE
  5
242
330
1F
100
AcDbEntity
  8
0-0
  6
JWW_DASHED1
 62
   120
370
     5
100
AcDbLine
 10
118.0942034723213
 20
-455.8064676360965
 30
0.0
 11
691.094203472322
 21
-455.8064676360965
 31
0.0
  0
LINE
  5
243
330
1F
100
AcDbEntity
  8
0-0
  6
JWW_DASHED1
 62
   120
370
     5
100
AcDbLine
 10
118.0942034723213
 20
-454.8064676361963
 30
0.0
 11
691.094203472322
 21
-454.8064676361963
 31
0.0
  0
LINE
  5
244
330
1F
100
AcDbEntity
  8
0-0
  6
JWW_DASHED1
 62
   120
370
     5
100
AcDbLine
 10
118.0942034723213
 20
-441.8064676350963
 30
0.0
 11
691.094203472322
 21
-441.8064676350963
 31
0.0
  0
LINE
  5
245
330
1F
100
AcDbEntity
  8
0-0
  6
JWW_DASHED1
 62
   120
370
     5
100
AcDbLine
 10
118.0942034723213
 20
-440.8064676351966
 30
0.0
 11
691.094203472322
 21
-440.8064676351966
 31
0.0
  0
LINE
  5
246
330
1F
100
AcDbEntity
  8
0-0
  6
JWW_DASHED1
 62
   120
370
     5
100
AcDbLine
 10
118.0942034723213
 20
-427.8064676340965
 30
0.0
 11
691.094203472322
 21
-427.8064676340965
 31
0.0
  0
LINE
  5
247
330
1F
100
AcDbEntity
  8
0-0
  6
JWW_DASHED1
 62
   120
370
     5
100
AcDbLine
 10
118.0942034723213
 20
-426.8064676341967
 30
0.0
 11
691.094203472322
 21
-426.8064676341967
 31
0.0
  0
LINE
  5
248
330
1F
100
AcDbEntity
  8
0-0
  6
JWW_DASHED1
 62
   120
370
     5
100
AcDbLine
 10
118.0942034723213
 20
-413.8064676330967
 30
0.0
 11
691.094203472322
 21
-413.8064676330967
 31
0.0
  0
LINE
  5
249
330
1F
100
AcDbEntity
  8
0-0
  6
JWW_DASHED1
 62
   120
370
     5
100
AcDbLine
 10
118.0942034723213
 20
-412.8064676331965
 30
0.0
 11
691.094203472322
 21
-412.8064676331965
 31
0.0
  0
LINE
  5
24A
330
1F
100
AcDbEntity
  8
0-0
  6
JWW_DASHED1
 62
   120
370
     5
100
AcDbLine
 10
118.0942034723213
 20
-399.8064676320965
 30
0.0
 11
691.094203472322
 21
-399.8064676320965
 31
0.0
  0
LINE
  5
24B
330
1F
100
AcDbEntity
  8
0-0
  6
JWW_DASHED1
 62
   120
370
     5
100
AcDbLine
 10
118.0942034723213
 20
-398.8064676321963
 30
0.0
 11
691.094203472322
 21
-398.8064676321963
 31
0.0
  0
LINE
  5
24C
330
1F
100
AcDbEntity
  8
0-0
  6
JWW_DASHED1
 62
   120
370
     5
100
AcDbLine
 10
118.0942034723213
 20
-385.8064676310963
 30
0.0
 11
691.094203472322
 21
-385.8064676310963
 31
0.0
  0
LINE
  5
24D
330
1F
100
AcDbEntity
  8
0-0
  6
JWW_DASHED1
 62
   120
370
     5
100
AcDbLine
 10
118.0942034723213
 20
-384.8064676311965
 30
0.0
 11
691.094203472322
 21
-384.8064676311965
 31
0.0
  0
LINE
  5
24E
330
1F
100
AcDbEntity
  8
0-0
  6
JWW_DASHED1
 62
   120
370
     5
100
AcDbLine
 10
118.0942034723213
 20
-371.8064676300964
 30
0.0
 11
691.094203472322
 21
-371.8064676300964
 31
0.0
  0
LINE
  5
24F
330
1F
100
AcDbEntity
  8
0-0
  6
JWW_DASHED1
 62
   120
370
     5
100
AcDbLine
 10
118.0942034723213
 20
-370.8064676301967
 30
0.0
 11
691.094203472322
 21
-370.8064676301967
 31
0.0
  0
LINE
  5
250
330
1F
100
AcDbEntity
  8
0-0
  6
JWW_DASHED1
 62
   120
370
     5
100
AcDbLine
 10
118.0942034723213
 20
-357.8064676290967
 30
0.0
 11
691.094203472322
 21
-357.8064676290967
 31
0.0
  0
LINE
  5
251
330
1F
100
AcDbEntity
  8
0-0
  6
JWW_DASHED1
 62
   120
370
     5
100
AcDbLine
 10
118.0942034723213
 20
-356.8064676291965
 30
0.0
 11
691.094203472322
 21
-356.8064676291965
 31
0.0
  0
LINE
  5
252
330
1F
100
AcDbEntity
  8
0-0
  6
JWW_DASHED1
 62
   120
370
     5
100
AcDbLine
 10
118.0942034723213
 20
-343.8064676280965
 30
0.0
 11
691.094203472322
 21
-343.8064676280965
 31
0.0
  0
LINE
  5
253
330
1F
100
AcDbEntity
  8
0-0
  6
JWW_DASHED1
 62
   120
370
     5
100
AcDbLine
 10
118.0942034723213
 20
-342.8064676281963
 30
0.0
 11
691.094203472322
 21
-342.8064676281963
 31
0.0
  0
LINE
  5
254
330
1F
100
AcDbEntity
  8
0-0
  6
JWW_DASHED1
 62
   120
370
     5
100
AcDbLine
 10
118.0942034723213
 20
-329.8064676270963
 30
0.0
 11
691.094203472322
 21
-329.8064676270963
 31
0.0
  0
LINE
  5
255
330
1F
100
AcDbEntity
  8
0-0
  6
JWW_DASHED1
 62
   120
370
     5
100
AcDbLine
 10
118.0942034723213
 20
-328.8064676271965
 30
0.0
 11
691.094203472322
 21
-328.8064676271965
 31
0.0
  0
LINE
  5
256
330
1F
100
AcDbEntity
  8
0-0
  6
JWW_DASHED1
 62
   120
370
     5
100
AcDbLine
 10
118.0942034723213
 20
-315.8064676260965
 30
0.0
 11
691.094203472322
 21
-315.8064676260965
 31
0.0
  0
LINE
  5
257
330
1F
100
AcDbEntity
  8
0-0
  6
JWW_DASHED1
 62
   120
370
     5
100
AcDbLine
 10
118.0942034723213
 20
-314.8064676261967
 30
0.0
 11
691.094203472322
 21
-314.8064676261967
 31
0.0
  0
LINE
  5
258
330
1F
100
AcDbEntity
  8
0-0
  6
JWW_DASHED1
 62
   120
370
     5
100
AcDbLine
 10
118.0942034723213
 20
-301.8064676250967
 30
0.0
 11
691.094203472322
 21
-301.8064676250967
 31
0.0
  0
LINE
  5
259
330
1F
100
AcDbEntity
  8
0-0
  6
JWW_DASHED1
 62
   120
370
     5
100
AcDbLine
 10
118.0942034723213
 20
-300.8064676251965
 30
0.0
 11
691.094203472322
 21
-300.8064676251965
 31
0.0
  0
LINE
  5
25A
330
1F
100
AcDbEntity
  8
0-0
  6
JWW_DASHED1
 62
   120
370
     5
100
AcDbLine
 10
118.0942034723213
 20
-287.8064676240965
 30
0.0
 11
691.094203472322
 21
-287.8064676240965
 31
0.0
  0
LINE
  5
25B
330
1F
100
AcDbEntity
  8
0-0
  6
JWW_DASHED1
 62
   120
370
     5
100
AcDbLine
 10
118.0942034723213
 20
-286.8064676241963
 30
0.0
 11
691.094203472322
 21
-286.8064676241963
 31
0.0
  0
LINE
  5
25C
330
1F
100
AcDbEntity
  8
0-0
  6
JWW_DASHED1
 62
   120
370
     5
100
AcDbLine
 10
118.0942034723213
 20
-273.8064676230962
 30
0.0
 11
691.094203472322
 21
-273.8064676230962
 31
0.0
  0
LINE
  5
25D
330
1F
100
AcDbEntity
  8
0-0
  6
JWW_DASHED1
 62
   120
370
     5
100
AcDbLine
 10
118.0942034723213
 20
-272.8064676231965
 30
0.0
 11
691.094203472322
 21
-272.8064676231965
 31
0.0
  0
LINE
  5
25E
330
1F
100
AcDbEntity
  8
0-0
  6
JWW_DASHED1
 62
   120
370
     5
100
AcDbLine
 10
118.0942034723213
 20
-259.8064676220964
 30
0.0
 11
691.094203472322
 21
-259.8064676220964
 31
0.0
  0
LINE
  5
25F
330
1F
100
AcDbEntity
  8
0-0
  6
JWW_DASHED1
 62
   120
370
     5
100
AcDbLine
 10
118.0942034723213
 20
-258.8064676221967
 30
0.0
 11
691.094203472322
 21
-258.8064676221967
 31
0.0
  0
LINE
  5
260
330
1F
100
AcDbEntity
  8
0-0
  6
JWW_DASHED1
 62
   120
370
     5
100
AcDbLine
 10
118.0942034723213
 20
-245.8064676210967
 30
0.0
 11
691.094203472322
 21
-245.8064676210967
 31
0.0
  0
LINE
  5
261
330
1F
100
AcDbEntity
  8
0-0
  6
JWW_DASHED1
 62
   120
370
     5
100
AcDbLine
 10
118.0942034723213
 20
-244.8064676211965
 30
0.0
 11
691.094203472322
 21
-244.8064676211965
 31
0.0
  0
LINE
  5
262
330
1F
100
AcDbEntity
  8
0-0
  6
JWW_DASHED1
 62
   120
370
     5
100
AcDbLine
 10
118.0942034723213
 20
-231.8064676200964
 30
0.0
 11
691.094203472322
 21
-231.8064676200964
 31
0.0
  0
LINE
  5
263
330
1F
100
AcDbEntity
  8
0-0
  6
JWW_DASHED1
 62
   120
370
     5
100
AcDbLine
 10
118.0942034723213
 20
-230.8064676201963
 30
0.0
 11
691.094203472322
 21
-230.8064676201963
 31
0.0
  0
LINE
  5
264
330
1F
100
AcDbEntity
  8
0-0
  6
JWW_DASHED1
 62
   120
370
     5
100
AcDbLine
 10
118.0942034723213
 20
-217.8064676190962
 30
0.0
 11
691.094203472322
 21
-217.8064676190962
 31
0.0
  0
LINE
  5
265
330
1F
100
AcDbEntity
  8
0-0
  6
JWW_DASHED1
 62
   120
370
     5
100
AcDbLine
 10
118.0942034723213
 20
-216.8064676191965
 30
0.0
 11
691.094203472322
 21
-216.8064676191965
 31
0.0
  0
LINE
  5
266
330
1F
100
AcDbEntity
  8
0-0
  6
JWW_DASHED1
 62
   120
370
     5
100
AcDbLine
 10
118.0942034723213
 20
-203.8064676180964
 30
0.0
 11
691.094203472322
 21
-203.8064676180964
 31
0.0
  0
LINE
  5
267
330
1F
100
AcDbEntity
  8
0-0
  6
JWW_DASHED1
 62
   120
370
     5
100
AcDbLine
 10
118.0942034723213
 20
-202.8064676181967
 30
0.0
 11
691.094203472322
 21
-202.8064676181967
 31
0.0
  0
LINE
  5
268
330
1F
100
AcDbEntity
  8
0-0
  6
JWW_DASHED1
 62
   120
370
     5
100
AcDbLine
 10
118.0942034723213
 20
-189.8064676170966
 30
0.0
 11
691.094203472322
 21
-189.8064676170966
 31
0.0
  0
LINE
  5
269
330
1F
100
AcDbEntity
  8
0-0
  6
JWW_DASHED1
 62
   120
370
     5
100
AcDbLine
 10
118.0942034723213
 20
-188.8064676171965
 30
0.0
 11
691.094203472322
 21
-188.8064676171965
 31
0.0
  0
LINE
  5
26A
330
1F
100
AcDbEntity
  8
0-0
  6
JWW_DASHED1
 62
   120
370
     5
100
AcDbLine
 10
118.0942034723213
 20
-175.8064676160964
 30
0.0
 11
691.094203472322
 21
-175.8064676160964
 31
0.0
  0
LINE
  5
26B
330
1F
100
AcDbEntity
  8
0-0
  6
JWW_DASHED1
 62
   120
370
     5
100
AcDbLine
 10
118.0942034723213
 20
-174.8064676161962
 30
0.0
 11
691.094203472322
 21
-174.8064676161962
 31
0.0
  0
LINE
  5
26C
330
1F
100
AcDbEntity
  8
0-0
  6
JWW_DASHED1
 62
   120
370
     5
100
AcDbLine
 10
118.0942034723213
 20
-161.8064676150962
 30
0.0
 11
691.094203472322
 21
-161.8064676150962
 31
0.0
  0
LINE
  5
26D
330
1F
100
AcDbEntity
  8
0-0
  6
JWW_DASHED1
 62
   120
370
     5
100
AcDbLine
 10
118.0942034723213
 20
-160.8064676151965
 30
0.0
 11
691.094203472322
 21
-160.8064676151965
 31
0.0
  0
LINE
  5
26E
330
1F
100
AcDbEntity
  8
0-0
  6
JWW_DASHED1
 62
   120
370
     5
100
AcDbLine
 10
118.0942034723213
 20
-147.8064676140964
 30
0.0
 11
691.094203472322
 21
-147.8064676140964
 31
0.0
  0
LINE
  5
26F
330
1F
100
AcDbEntity
  8
0-0
  6
JWW_DASHED1
 62
   120
370
     5
100
AcDbLine
 10
118.0942034723213
 20
-146.8064676141962
 30
0.0
 11
691.094203472322
 21
-146.8064676141962
 31
0.0
  0
LINE
  5
270
330
1F
100
AcDbEntity
  8
0-0
  6
JWW_DASHED1
 62
   120
370
     5
100
AcDbLine
 10
118.0942034723213
 20
-133.8064676130966
 30
0.0
 11
691.094203472322
 21
-133.8064676130966
 31
0.0
  0
LINE
  5
271
330
1F
100
AcDbEntity
  8
0-0
  6
JWW_DASHED1
 62
   120
370
     5
100
AcDbLine
 10
118.0942034723213
 20
-132.8064676131964
 30
0.0
 11
691.094203472322
 21
-132.8064676131964
 31
0.0
  0
LINE
  5
272
330
1F
100
AcDbEntity
  8
0-0
  6
JWW_DASHED1
 62
   120
370
     5
100
AcDbLine
 10
118.0942034723213
 20
-119.8064676120964
 30
0.0
 11
691.094203472322
 21
-119.8064676120964
 31
0.0
  0
LINE
  5
273
330
1F
100
AcDbEntity
  8
0-0
  6
JWW_DASHED1
 62
   120
370
     5
100
AcDbLine
 10
118.0942034723213
 20
-118.8064676121962
 30
0.0
 11
691.094203472322
 21
-118.8064676121962
 31
0.0
  0
LINE
  5
274
330
1F
100
AcDbEntity
  8
0-0
  6
JWW_DASHED1
 62
   120
370
     5
100
AcDbLine
 10
118.0942034723213
 20
-105.8064676110966
 30
0.0
 11
691.094203472322
 21
-105.8064676110966
 31
0.0
  0
LINE
  5
275
330
1F
100
AcDbEntity
  8
0-0
  6
JWW_DASHED1
 62
   120
370
     5
100
AcDbLine
 10
118.0942034723213
 20
-104.8064676111964
 30
0.0
 11
691.094203472322
 21
-104.8064676111964
 31
0.0
  0
LINE
  5
276
330
1F
100
AcDbEntity
  8
0-0
  6
JWW_DASHED1
 62
   120
370
     5
100
AcDbLine
 10
118.0942034723213
 20
-91.8064676100964
 30
0.0
 11
691.094203472322
 21
-91.8064676100964
 31
0.0
  0
LINE
  5
277
330
1F
100
AcDbEntity
  8
0-0
  6
JWW_DASHED1
 62
   120
370
     5
100
AcDbLine
 10
118.0942034723213
 20
-90.80646761019622
 30
0.0
 11
691.094203472322
 21
-90.80646761019622
 31
0.0
  0
LINE
  5
278
330
1F
100
AcDbEntity
  8
0-0
  6
JWW_DASHED1
 62
   120
370
     5
100
AcDbLine
 10
118.0942034723213
 20
-77.80646760909661
 30
0.0
 11
691.094203472322
 21
-77.80646760909661
 31
0.0
  0
LINE
  5
279
330
1F
100
AcDbEntity
  8
0-0
  6
JWW_DASHED1
 62
   120
370
     5
100
AcDbLine
 10
118.0942034723213
 20
-76.80646760919643
 30
0.0
 11
691.094203472322
 21
-76.80646760919643
 31
0.0
  0
LINE
  5
27A
330
1F
100
AcDbEntity
  8
0-0
  6
JWW_DASHED1
 62
   120
370
     5
100
AcDbLine
 10
118.0942034723213
 20
-63.8064676080964
 30
0.0
 11
691.094203472322
 21
-63.8064676080964
 31
0.0
  0
LINE
  5
27B
330
1F
100
AcDbEntity
  8
0-0
  6
JWW_DASHED1
 62
   120
370
     5
100
AcDbLine
 10
118.0942034723213
 20
-62.80646760819621
 30
0.0
 11
691.094203472322
 21
-62.80646760819621
 31
0.0
  0
LINE
  5
27C
330
1F
100
AcDbEntity
  8
0-0
  6
JWW_DASHED1
 62
   120
370
     5
100
AcDbLine
 10
118.0942034723213
 20
-49.80646760709661
 30
0.0
 11
691.094203472322
 21
-49.80646760709661
 31
0.0
  0
LINE
  5
27D
330
1F
100
AcDbEntity
  8
0-0
  6
JWW_DASHED1
 62
   120
370
     5
100
AcDbLine
 10
118.0942034723213
 20
-48.80646760719642
 30
0.0
 11
691.094203472322
 21
-48.80646760719642
 31
0.0
  0
LINE
  5
27E
330
1F
100
AcDbEntity
  8
0-0
  6
JWW_DASHED1
 62
   120
370
     5
100
AcDbLine
 10
118.0942034723213
 20
-35.80646760609639
 30
0.0
 11
691.094203472322
 21
-35.80646760609639
 31
0.0
  0
LINE
  5
27F
330
1F
100
AcDbEntity
  8
0-0
  6
JWW_DASHED1
 62
   120
370
     5
100
AcDbLine
 10
118.0942034723213
 20
-34.80646760619621
 30
0.0
 11
691.094203472322
 21
-34.80646760619621
 31
0.0
  0
LINE
  5
280
330
1F
100
AcDbEntity
  8
0-0
  6
JWW_DASHED1
 62
   120
370
     5
100
AcDbLine
 10
118.0942034723213
 20
-21.8064676050966
 30
0.0
 11
691.094203472322
 21
-21.8064676050966
 31
0.0
  0
LINE
  5
281
330
1F
100
AcDbEntity
  8
0-0
  6
JWW_DASHED1
 62
   120
370
     5
100
AcDbLine
 10
118.0942034723213
 20
-20.80646760519642
 30
0.0
 11
691.094203472322
 21
-20.80646760519642
 31
0.0
  0
LINE
  5
282
330
1F
100
AcDbEntity
  8
0-0
  6
JWW_DASHED1
 62
   120
370
     5
100
AcDbLine
 10
118.0942034723213
 20
-7.806467604096383
 30
0.0
 11
691.094203472322
 21
-7.806467604096383
 31
0.0
  0
LINE
  5
283
330
1F
100
AcDbEntity
  8
0-0
  6
JWW_DASHED1
 62
   120
370
     5
100
AcDbLine
 10
118.0942034723213
 20
-6.8064676041962
 30
0.0
 11
691.094203472322
 21
-6.8064676041962
 31
0.0
  0
LINE
  5
284
330
1F
100
AcDbEntity
  8
0-0
  6
JWW_DASHED1
 62
   120
370
     5
100
AcDbLine
 10
118.0942034723213
 20
6.193532396903407
 30
0.0
 11
691.094203472322
 21
6.193532396903407
 31
0.0
  0
LINE
  5
285
330
1F
100
AcDbEntity
  8
0-0
  6
JWW_DASHED1
 62
   120
370
     5
100
AcDbLine
 10
118.0942034723213
 20
7.19353239680359
 30
0.0
 11
691.094203472322
 21
7.19353239680359
 31
0.0
  0
LINE
  5
286
330
1F
100
AcDbEntity
  8
0-0
  6
JWW_DASHED1
 62
   120
370
     5
100
AcDbLine
 10
118.0942034723213
 20
20.19353239790362
 30
0.0
 11
691.094203472322
 21
20.19353239790362
 31
0.0
  0
LINE
  5
287
330
1F
100
AcDbEntity
  8
0-0
  6
JWW_DASHED1
 62
   120
370
     5
100
AcDbLine
 10
118.0942034723213
 20
21.19353239780381
 30
0.0
 11
691.094203472322
 21
21.19353239780381
 31
0.0
  0
LINE
  5
288
330
1F
100
AcDbEntity
  8
0-0
  6
JWW_DASHED1
 62
   120
370
     5
100
AcDbLine
 10
118.0942034723213
 20
34.19353239890341
 30
0.0
 11
691.094203472322
 21
34.19353239890341
 31
0.0
  0
LINE
  5
289
330
1F
100
AcDbEntity
  8
0-0
  6
JWW_DASHED1
 62
   120
370
     5
100
AcDbLine
 10
118.0942034723213
 20
35.1935323988036
 30
0.0
 11
691.094203472322
 21
35.1935323988036
 31
0.0
  0
LINE
  5
28A
330
1F
100
AcDbEntity
  8
0-0
  6
JWW_DASHED1
 62
   120
370
     5
100
AcDbLine
 10
118.0942034723213
 20
48.19353239990363
 30
0.0
 11
691.094203472322
 21
48.19353239990363
 31
0.0
  0
LINE
  5
28B
330
1F
100
AcDbEntity
  8
0-0
  6
JWW_DASHED1
 62
   120
370
     5
100
AcDbLine
 10
118.0942034723213
 20
49.19353239980381
 30
0.0
 11
691.094203472322
 21
49.19353239980381
 31
0.0
  0
LINE
  5
28C
330
1F
100
AcDbEntity
  8
0-0
  6
JWW_DASHED1
 62
   120
370
     5
100
AcDbLine
 10
118.0942034723213
 20
62.19353240090342
 30
0.0
 11
691.094203472322
 21
62.19353240090342
 31
0.0
  0
LINE
  5
28D
330
1F
100
AcDbEntity
  8
0-0
  6
JWW_DASHED1
 62
   120
370
     5
100
AcDbLine
 10
118.0942034723213
 20
63.1935324008036
 30
0.0
 11
691.094203472322
 21
63.1935324008036
 31
0.0
  0
LINE
  5
28E
330
1F
100
AcDbEntity
  8
0-0
  6
JWW_DASHED1
 62
   120
370
     5
100
AcDbLine
 10
118.0942034723213
 20
76.19353240190364
 30
0.0
 11
691.094203472322
 21
76.19353240190364
 31
0.0
  0
LINE
  5
28F
330
1F
100
AcDbEntity
  8
0-0
  6
JWW_DASHED1
 62
   120
370
     5
100
AcDbLine
 10
118.0942034723213
 20
77.19353240180382
 30
0.0
 11
691.094203472322
 21
77.19353240180382
 31
0.0
  0
LINE
  5
290
330
1F
100
AcDbEntity
  8
0-0
  6
JWW_DASHED1
 62
   120
370
     5
100
AcDbLine
 10
118.0942034723213
 20
90.19353240290343
 30
0.0
 11
691.094203472322
 21
90.19353240290343
 31
0.0
  0
LINE
  5
291
330
1F
100
AcDbEntity
  8
0-0
  6
JWW_DASHED1
 62
   120
370
     5
100
AcDbLine
 10
118.0942034723213
 20
91.19353240280361
 30
0.0
 11
691.094203472322
 21
91.19353240280361
 31
0.0
  0
LINE
  5
292
330
1F
100
AcDbEntity
  8
0-0
  6
JWW_DASHED1
 62
   120
370
     5
100
AcDbLine
 10
118.0942034723213
 20
104.1935324039036
 30
0.0
 11
691.094203472322
 21
104.1935324039036
 31
0.0
  0
LINE
  5
293
330
1F
100
AcDbEntity
  8
0-0
  6
JWW_DASHED1
 62
   120
370
     5
100
AcDbLine
 10
118.0942034723213
 20
105.1935324038038
 30
0.0
 11
691.094203472322
 21
105.1935324038038
 31
0.0
  0
LINE
  5
294
330
1F
100
AcDbEntity
  8
0-0
  6
JWW_DASHED1
 62
   120
370
     5
100
AcDbLine
 10
118.0942034723213
 20
118.1935324049034
 30
0.0
 11
691.094203472322
 21
118.1935324049034
 31
0.0
  0
LINE
  5
295
330
1F
100
AcDbEntity
  8
0-0
  6
JWW_DASHED1
 62
   120
370
     5
100
AcDbLine
 10
118.0942034723213
 20
119.1935324048036
 30
0.0
 11
691.094203472322
 21
119.1935324048036
 31
0.0
  0
LINE
  5
296
330
1F
100
AcDbEntity
  8
0-0
  6
JWW_DASHED1
 62
   120
370
     5
100
AcDbLine
 10
118.0942034723213
 20
132.1935324059037
 30
0.0
 11
691.094203472322
 21
132.1935324059037
 31
0.0
  0
LINE
  5
297
330
1F
100
AcDbEntity
  8
0-0
  6
JWW_DASHED1
 62
   120
370
     5
100
AcDbLine
 10
118.0942034723213
 20
133.1935324058038
 30
0.0
 11
691.094203472322
 21
133.1935324058038
 31
0.0
  0
LINE
  5
298
330
1F
100
AcDbEntity
  8
0-0
  6
JWW_DASHED1
 62
   120
370
     5
100
AcDbLine
 10
118.0942034723213
 20
146.1935324069034
 30
0.0
 11
691.094203472322
 21
146.1935324069034
 31
0.0
  0
LINE
  5
299
330
1F
100
AcDbEntity
  8
0-0
  6
JWW_DASHED1
 62
   120
370
     5
100
AcDbLine
 10
118.0942034723213
 20
147.1935324068036
 30
0.0
 11
691.094203472322
 21
147.1935324068036
 31
0.0
  0
LINE
  5
29A
330
1F
100
AcDbEntity
  8
0-0
  6
JWW_DASHED1
 62
   120
370
     5
100
AcDbLine
 10
118.0942034723213
 20
160.1935324079037
 30
0.0
 11
691.094203472322
 21
160.1935324079037
 31
0.0
  0
LINE
  5
29B
330
1F
100
AcDbEntity
  8
0-0
  6
JWW_DASHED1
 62
   120
370
     5
100
AcDbLine
 10
118.0942034723213
 20
161.1935324078038
 30
0.0
 11
691.094203472322
 21
161.1935324078038
 31
0.0
  0
LINE
  5
29C
330
1F
100
AcDbEntity
  8
0-0
  6
JWW_DASHED1
 62
   120
370
     5
100
AcDbLine
 10
118.0942034723213
 20
174.1935324089035
 30
0.0
 11
691.094203472322
 21
174.1935324089035
 31
0.0
  0
LINE
  5
29D
330
1F
100
AcDbEntity
  8
0-0
  6
JWW_DASHED1
 62
   120
370
     5
100
AcDbLine
 10
118.0942034723213
 20
175.1935324088036
 30
0.0
 11
691.094203472322
 21
175.1935324088036
 31
0.0
  0
LINE
  5
29E
330
1F
100
AcDbEntity
  8
0-0
  6
JWW_DASHED1
 62
   120
370
     5
100
AcDbLine
 10
118.0942034723213
 20
188.1935324099037
 30
0.0
 11
691.094203472322
 21
188.1935324099037
 31
0.0
  0
LINE
  5
29F
330
1F
100
AcDbEntity
  8
0-0
  6
JWW_DASHED1
 62
   120
370
     5
100
AcDbLine
 10
118.0942034723213
 20
189.1935324098034
 30
0.0
 11
691.094203472322
 21
189.1935324098034
 31
0.0
  0
LINE
  5
2A0
330
1F
100
AcDbEntity
  8
0-0
  6
JWW_DASHED1
 62
   120
370
     5
100
AcDbLine
 10
118.0942034723213
 20
202.1935324109035
 30
0.0
 11
691.094203472322
 21
202.1935324109035
 31
0.0
  0
LINE
  5
2A1
330
1F
100
AcDbEntity
  8
0-0
  6
JWW_DASHED1
 62
   120
370
     5
100
AcDbLine
 10
118.0942034723213
 20
203.1935324108036
 30
0.0
 11
691.094203472322
 21
203.1935324108036
 31
0.0
  0
LINE
  5
2A2
330
1F
100
AcDbEntity
  8
0-0
  6
JWW_DASHED1
 62
   120
370
     5
100
AcDbLine
 10
118.0942034723213
 20
216.1935324119037
 30
0.0
 11
691.094203472322
 21
216.1935324119037
 31
0.0
  0
LINE
  5
2A3
330
1F
100
AcDbEntity
  8
0-0
  6
JWW_DASHED1
 62
   120
370
     5
100
AcDbLine
 10
118.0942034723213
 20
217.1935324118039
 30
0.0
 11
691.094203472322
 21
217.1935324118039
 31
0.0
  0
LINE
  5
2A4
330
1F
100
AcDbEntity
  8
0-0
  6
JWW_DASHED1
 62
   120
370
     5
100
AcDbLine
 10
118.0942034723213
 20
230.1935324129035
 30
0.0
 11
691.094203472322
 21
230.1935324129035
 31
0.0
  0
LINE
  5
2A5
330
1F
100
AcDbEntity
  8
0-0
  6
JWW_DASHED1
 62
   120
370
     5
100
AcDbLine
 10
118.0942034723213
 20
231.1935324128036
 30
0.0
 11
691.094203472322
 21
231.1935324128036
 31
0.0
  0
LINE
  5
2A6
330
1F
100
AcDbEntity
  8
0-0
  6
JWW_DASHED1
 62
   120
370
     5
100
AcDbLine
 10
118.0942034723213
 20
244.1935324139037
 30
0.0
 11
691.094203472322
 21
244.1935324139037
 31
0.0
  0
LINE
  5
2A7
330
1F
100
AcDbEntity
  8
0-0
  6
JWW_DASHED1
 62
   120
370
     5
100
AcDbLine
 10
118.0942034723213
 20
245.1935324138034
 30
0.0
 11
691.094203472322
 21
245.1935324138034
 31
0.0
  0
LINE
  5
2A8
330
1F
100
AcDbEntity
  8
0-0
  6
JWW_DASHED1
 62
   120
370
     5
100
AcDbLine
 10
118.0942034723213
 20
258.1935324149035
 30
0.0
 11
691.094203472322
 21
258.1935324149035
 31
0.0
  0
LINE
  5
2A9
330
1F
100
AcDbEntity
  8
0-0
  6
JWW_DASHED1
 62
   120
370
     5
100
AcDbLine
 10
118.0942034723213
 20
259.1935324148037
 30
0.0
 11
691.094203472322
 21
259.1935324148037
 31
0.0
  0
LINE
  5
2AA
330
1F
100
AcDbEntity
  8
0-0
  6
JWW_DASHED1
 62
   120
370
     5
100
AcDbLine
 10
118.0942034723213
 20
272.1935324159037
 30
0.0
 11
691.094203472322
 21
272.1935324159037
 31
0.0
  0
LINE
  5
2AB
330
1F
100
AcDbEntity
  8
0-0
  6
JWW_DASHED1
 62
   120
370
     5
100
AcDbLine
 10
118.0942034723213
 20
273.1935324158039
 30
0.0
 11
691.094203472322
 21
273.1935324158039
 31
0.0
  0
LINE
  5
2AC
330
1F
100
AcDbEntity
  8
0-0
  6
JWW_DASHED1
 62
   120
370
     5
100
AcDbLine
 10
118.0942034723213
 20
286.1935324169035
 30
0.0
 11
691.094203472322
 21
286.1935324169035
 31
0.0
  0
LINE
  5
2AD
330
1F
100
AcDbEntity
  8
0-0
  6
JWW_DASHED1
 62
   120
370
     5
100
AcDbLine
 10
118.0942034723213
 20
287.1935324168037
 30
0.0
 11
691.094203472322
 21
287.1935324168037
 31
0.0
  0
LINE
  5
2AE
330
1F
100
AcDbEntity
  8
0-0
  6
JWW_DASHED1
 62
   120
370
     5
100
AcDbLine
 10
118.0942034723213
 20
300.1935324179037
 30
0.0
 11
691.094203472322
 21
300.1935324179037
 31
0.0
  0
LINE
  5
2AF
330
1F
100
AcDbEntity
  8
0-0
  6
JWW_DASHED1
 62
   120
370
     5
100
AcDbLine
 10
118.0942034723213
 20
301.1935324178035
 30
0.0
 11
691.094203472322
 21
301.1935324178035
 31
0.0
  0
LINE
  5
2B0
330
1F
100
AcDbEntity
  8
0-0
  6
JWW_DASHED1
 62
   120
370
     5
100
AcDbLine
 10
118.0942034723213
 20
314.1935324189035
 30
0.0
 11
691.094203472322
 21
314.1935324189035
 31
0.0
  0
LINE
  5
2B1
330
1F
100
AcDbEntity
  8
0-0
  6
JWW_DASHED1
 62
   120
370
     5
100
AcDbLine
 10
118.0942034723213
 20
315.1935324188037
 30
0.0
 11
691.094203472322
 21
315.1935324188037
 31
0.0
  0
LINE
  5
2B2
330
1F
100
AcDbEntity
  8
0-0
  6
JWW_DASHED1
 62
   120
370
     5
100
AcDbLine
 10
118.0942034723213
 20
328.1935324199037
 30
0.0
 11
691.094203472322
 21
328.1935324199037
 31
0.0
  0
LINE
  5
2B3
330
1F
100
AcDbEntity
  8
0-0
  6
JWW_DASHED1
 62
   120
370
     5
100
AcDbLine
 10
118.0942034723213
 20
329.1935324198039
 30
0.0
 11
691.094203472322
 21
329.1935324198039
 31
0.0
  0
LINE
  5
2B4
330
1F
100
AcDbEntity
  8
0-0
  6
JWW_DASHED1
 62
   120
370
     5
100
AcDbLine
 10
118.0942034723213
 20
342.1935324209035
 30
0.0
 11
691.094203472322
 21
342.1935324209035
 31
0.0
  0
LINE
  5
2B5
330
1F
100
AcDbEntity
  8
0-0
  6
JWW_DASHED1
 62
   120
370
     5
100
AcDbLine
 10
118.0942034723213
 20
343.1935324208036
 30
0.0
 11
691.094203472322
 21
343.1935324208036
 31
0.0
  0
LINE
  5
2B6
330
1F
100
AcDbEntity
  8
0-0
  6
JWW_DASHED1
 62
   120
370
     5
100
AcDbLine
 10
118.0942034723213
 20
356.1935324219037
 30
0.0
 11
691.094203472322
 21
356.1935324219037
 31
0.0
  0
LINE
  5
2B7
330
1F
100
AcDbEntity
  8
0-0
  6
JWW_DASHED1
 62
   120
370
     5
100
AcDbLine
 10
118.0942034723213
 20
357.1935324218035
 30
0.0
 11
691.094203472322
 21
357.1935324218035
 31
0.0
  0
LINE
  5
2B8
330
1F
100
AcDbEntity
  8
0-0
  6
JWW_DASHED1
 62
   120
370
     5
100
AcDbLine
 10
118.0942034723213
 20
370.1935324229035
 30
0.0
 11
691.094203472322
 21
370.1935324229035
 31
0.0
  0
LINE
  5
2B9
330
1F
100
AcDbEntity
  8
0-0
  6
JWW_DASHED1
 62
   120
370
     5
100
AcDbLine
 10
118.0942034723213
 20
371.1935324228037
 30
0.0
 11
691.094203472322
 21
371.1935324228037
 31
0.0
  0
LINE
  5
2BA
330
1F
100
AcDbEntity
  8
0-0
  6
JWW_DASHED1
 62
   120
370
     5
100
AcDbLine
 10
118.0942034723213
 20
384.1935324239037
 30
0.0
 11
691.094203472322
 21
384.1935324239037
 31
0.0
  0
LINE
  5
2BB
330
1F
100
AcDbEntity
  8
0-0
  6
JWW_DASHED1
 62
   120
370
     5
100
AcDbLine
 10
118.0942034723213
 20
385.1935324238035
 30
0.0
 11
691.094203472322
 21
385.1935324238035
 31
0.0
  0
LINE
  5
2BC
330
1F
100
AcDbEntity
  8
0-0
  6
JWW_DASHED1
 62
   120
370
     5
100
AcDbLine
 10
118.0942034723213
 20
398.1935324249035
 30
0.0
 11
691.094203472322
 21
398.1935324249035
 31
0.0
  0
LINE
  5
2BD
330
1F
100
AcDbEntity
  8
0-0
  6
JWW_DASHED1
 62
   120
370
     5
100
AcDbLine
 10
118.0942034723213
 20
399.1935324248037
 30
0.0
 11
691.094203472322
 21
399.1935324248037
 31
0.0
  0
LINE
  5
2BE
330
1F
100
AcDbEntity
  8
0-0
  6
JWW_DASHED1
 62
   120
370
     5
100
AcDbLine
 10
118.0942034723213
 20
412.1935324259038
 30
0.0
 11
691.094203472322
 21
412.1935324259038
 31
0.0
  0
LINE
  5
2BF
330
1F
100
AcDbEntity
  8
0-0
  6
JWW_DASHED1
 62
   120
370
     5
100
AcDbLine
 10
118.0942034723213
 20
413.1935324258035
 30
0.0
 11
691.094203472322
 21
413.1935324258035
 31
0.0
  0
LINE
  5
2C0
330
1F
100
AcDbEntity
  8
0-0
  6
JWW_DASHED1
 62
   120
370
     5
100
AcDbLine
 10
118.0942034723213
 20
426.1935324269035
 30
0.0
 11
691.094203472322
 21
426.1935324269035
 31
0.0
  0
LINE
  5
2C1
330
1F
100
AcDbEntity
  8
0-0
  6
JWW_DASHED1
 62
   120
370
     5
100
AcDbLine
 10
118.0942034723213
 20
427.1935324268037
 30
0.0
 11
691.094203472322
 21
427.1935324268037
 31
0.0
  0
LINE
  5
2C2
330
1F
100
AcDbEntity
  8
0-0
  6
JWW_DASHED1
 62
   120
370
     5
100
AcDbLine
 10
118.0942034723213
 20
440.1935324279037
 30
0.0
 11
691.094203472322
 21
440.1935324279037
 31
0.0
  0
LINE
  5
2C3
330
1F
100
AcDbEntity
  8
0-0
  6
JWW_DASHED1
 62
   120
370
     5
100
AcDbLine
 10
118.0942034723213
 20
441.1935324278035
 30
0.0
 11
691.094203472322
 21
441.1935324278035
 31
0.0
  0
LINE
  5
2C4
330
1F
100
AcDbEntity
  8
0-0
  6
JWW_DASHED1
 62
   120
370
     5
100
AcDbLine
 10
118.0942034723213
 20
454.1935324289035
 30
0.0
 11
691.094203472322
 21
454.1935324289035
 31
0.0
  0
LINE
  5
2C5
330
1F
100
AcDbEntity
  8
0-0
  6
JWW_DASHED1
 62
   120
370
     5
100
AcDbLine
 10
118.0942034723213
 20
455.1935324288037
 30
0.0
 11
691.094203472322
 21
455.1935324288037
 31
0.0
  0
LINE
  5
2C6
330
1F
100
AcDbEntity
  8
0-0
  6
JWW_DASHED1
 62
   120
370
     5
100
AcDbLine
 10
118.0942034723213
 20
468.1935324299037
 30
0.0
 11
691.094203472322
 21
468.1935324299037
 31
0.0
  0
LINE
  5
2C7
330
1F
100
AcDbEntity
  8
0-0
  6
JWW_DASHED1
 62
   120
370
     5
100
AcDbLine
 10
118.0942034723213
 20
469.1935324298035
 30
0.0
 11
691.094203472322
 21
469.1935324298035
 31
0.0
  0
LINE
  5
2C8
330
1F
100
AcDbEntity
  8
0-0
  6
JWW_DASHED1
 62
   120
370
     5
100
AcDbLine
 10
118.0942034723213
 20
482.1935324309035
 30
0.0
 11
691.094203472322
 21
482.1935324309035
 31
0.0
  0
LINE
  5
2C9
330
1F
100
AcDbEntity
  8
0-0
  6
JWW_DASHED1
 62
   120
370
     5
100
AcDbLine
 10
118.0942034723213
 20
483.1935324308037
 30
0.0
 11
691.094203472322
 21
483.1935324308037
 31
0.0
  0
LINE
  5
2CA
330
1F
100
AcDbEntity
  8
0-0
  6
JWW_DASHED1
 62
   120
370
     5
100
AcDbLine
 10
118.0942034723213
 20
496.1935324319037
 30
0.0
 11
691.094203472322
 21
496.1935324319037
 31
0.0
  0
LINE
  5
2CB
330
1F
100
AcDbEntity
  8
0-0
  6
JWW_DASHED1
 62
   120
370
     5
100
AcDbLine
 10
118.0942034723213
 20
497.1935324318035
 30
0.0
 11
691.094203472322
 21
497.1935324318035
 31
0.0
  0
LINE
  5
2CC
330
1F
100
AcDbEntity
  8
0-0
  6
JWW_DASHED1
 62
   120
370
     5
100
AcDbLine
 10
118.0942034723213
 20
510.1935324329036
 30
0.0
 11
691.094203472322
 21
510.1935324329036
 31
0.0
  0
LINE
  5
2CD
330
1F
100
AcDbEntity
  8
0-0
  6
JWW_DASHED1
 62
   120
370
     5
100
AcDbLine
 10
118.0942034723213
 20
511.1935324328037
 30
0.0
 11
691.094203472322
 21
511.1935324328037
 31
0.0
  0
LINE
  5
2CE
330
1F
100
AcDbEntity
  8
0-0
  6
JWW_DASHED1
 62
   120
370
     5
100
AcDbLine
 10
118.0942034723213
 20
524.1935324339038
 30
0.0
 11
691.094203472322
 21
524.1935324339038
 31
0.0
  0
LINE
  5
2CF
330
1F
100
AcDbEntity
  8
0-0
  6
JWW_DASHED1
 62
   120
370
     5
100
AcDbLine
 10
118.0942034723213
 20
525.1935324338035
 30
0.0
 11
691.094203472322
 21
525.1935324338035
 31
0.0
  0
LINE
  5
2D0
330
1F
100
AcDbEntity
  8
0-0
  6
JWW_DASHED1
 62
   120
370
     5
100
AcDbLine
 10
118.0942034723213
 20
538.1935324349035
 30
0.0
 11
691.094203472322
 21
538.1935324349035
 31
0.0
  0
LINE
  5
2D1
330
1F
100
AcDbEntity
  8
0-0
  6
JWW_DASHED1
 62
   120
370
     5
100
AcDbLine
 10
118.0942034723213
 20
539.1935324348037
 30
0.0
 11
691.094203472322
 21
539.1935324348037
 31
0.0
  0
LINE
  5
2D2
330
1F
100
AcDbEntity
  8
0-0
  6
JWW_DASHED1
 62
   120
370
     5
100
AcDbLine
 10
118.0942034723213
 20
552.1935324359038
 30
0.0
 11
691.094203472322
 21
552.1935324359038
 31
0.0
  0
LINE
  5
2D3
330
1F
100
AcDbEntity
  8
0-0
  6
JWW_DASHED1
 62
   120
370
     5
100
AcDbLine
 10
118.0942034723213
 20
553.1935324358035
 30
0.0
 11
691.094203472322
 21
553.1935324358035
 31
0.0
  0
LINE
  5
2D4
330
1F
100
AcDbEntity
  8
0-0
  6
JWW_DASHED1
 62
   120
370
     5
100
AcDbLine
 10
118.0942034723213
 20
566.1935324369035
 30
0.0
 11
691.094203472322
 21
566.1935324369035
 31
0.0
  0
LINE
  5
2D5
330
1F
100
AcDbEntity
  8
0-0
  6
JWW_DASHED1
 62
   120
370
     5
100
AcDbLine
 10
118.0942034723213
 20
567.1935324368037
 30
0.0
 11
691.094203472322
 21
567.1935324368037
 31
0.0
  0
LINE
  5
2D6
330
1F
100
AcDbEntity
  8
0-0
  6
JWW_DASHED1
 62
   120
370
     5
100
AcDbLine
 10
118.0942034723213
 20
580.1935324379037
 30
0.0
 11
691.094203472322
 21
580.1935324379037
 31
0.0
  0
LINE
  5
2D7
330
1F
100
AcDbEntity
  8
0-0
  6
JWW_DASHED1
 62
   120
370
     5
100
AcDbLine
 10
118.0942034723213
 20
581.1935324378035
 30
0.0
 11
691.094203472322
 21
581.1935324378035
 31
0.0
  0
LINE
  5
2D8
330
1F
100
AcDbEntity
  8
0-0
  6
JWW_DASHED1
 62
   120
370
     5
100
AcDbLine
 10
118.0942034723213
 20
594.1935324389035
 30
0.0
 11
691.094203472322
 21
594.1935324389035
 31
0.0
  0
LINE
  5
2D9
330
1F
100
AcDbEntity
  8
0-0
  6
JWW_DASHED1
 62
   120
370
     5
100
AcDbLine
 10
118.0942034723213
 20
595.1935324388037
 30
0.0
 11
691.094203472322
 21
595.1935324388037
 31
0.0
  0
LINE
  5
2DA
330
1F
100
AcDbEntity
  8
0-0
  6
JWW_DASHED1
 62
   120
370
     5
100
AcDbLine
 10
118.0942034723213
 20
608.1935324399037
 30
0.0
 11
691.094203472322
 21
608.1935324399037
 31
0.0
  0
LINE
  5
2DB
330
1F
100
AcDbEntity
  8
0-0
  6
JWW_DASHED1
 62
   120
370
     5
100
AcDbLine
 10
118.0942034723213
 20
609.1935324398036
 30
0.0
 11
691.094203472322
 21
609.1935324398036
 31
0.0
  0
LINE
  5
2DC
330
1F
100
AcDbEntity
  8
0-0
  6
JWW_DASHED1
 62
   120
370
     5
100
AcDbLine
 10
118.0942034723213
 20
622.1935324409036
 30
0.0
 11
691.094203472322
 21
622.1935324409036
 31
0.0
  0
LINE
  5
2DD
330
1F
100
AcDbEntity
  8
0-0
  6
JWW_DASHED1
 62
   120
370
     5
100
AcDbLine
 10
118.0942034723213
 20
623.1935324408038
 30
0.0
 11
691.094203472322
 21
623.1935324408038
 31
0.0
  0
LINE
  5
2DE
330
1F
100
AcDbEntity
  8
0-0
  6
JWW_DASHED1
 62
   120
370
     5
100
AcDbLine
 10
118.0942034723213
 20
636.1935324419038
 30
0.0
 11
691.094203472322
 21
636.1935324419038
 31
0.0
  0
LINE
  5
2DF
330
1F
100
AcDbEntity
  8
0-0
  6
JWW_DASHED1
 62
   120
370
     5
100
AcDbLine
 10
118.0942034723213
 20
637.1935324418035
 30
0.0
 11
691.094203472322
 21
637.1935324418035
 31
0.0
  0
LINE
  5
2E0
330
1F
100
AcDbEntity
  8
0-0
  6
JWW_DASHED1
 62
   120
370
     5
100
AcDbLine
 10
118.0942034723213
 20
650.1935324429036
 30
0.0
 11
691.094203472322
 21
650.1935324429036
 31
0.0
  0
LINE
  5
2E1
330
1F
100
AcDbEntity
  8
0-0
  6
JWW_DASHED1
 62
   120
370
     5
100
AcDbLine
 10
118.0942034723213
 20
651.1935324428038
 30
0.0
 11
691.094203472322
 21
651.1935324428038
 31
0.0
  0
LINE
  5
2E2
330
1F
100
AcDbEntity
  8
0-0
  6
JWW_DASHED1
 62
   120
370
     5
100
AcDbLine
 10
118.0942034723213
 20
664.1935324439038
 30
0.0
 11
691.094203472322
 21
664.1935324439038
 31
0.0
  0
LINE
  5
2E3
330
1F
100
AcDbEntity
  8
0-0
  6
JWW_DASHED1
 62
   120
370
     5
100
AcDbLine
 10
118.0942034723213
 20
665.1935324438035
 30
0.0
 11
691.094203472322
 21
665.1935324438035
 31
0.0
  0
LINE
  5
2E4
330
1F
100
AcDbEntity
  8
0-0
  6
JWW_DASHED1
 62
   120
370
     5
100
AcDbLine
 10
118.0942034723213
 20
678.1935324449036
 30
0.0
 11
691.094203472322
 21
678.1935324449036
 31
0.0
  0
LINE
  5
2E5
330
1F
100
AcDbEntity
  8
0-0
  6
JWW_DASHED1
 62
   120
370
     5
100
AcDbLine
 10
118.0942034723213
 20
679.1935324448037
 30
0.0
 11
691.094203472322
 21
679.1935324448037
 31
0.0
  0
LINE
  5
2E6
330
1F
100
AcDbEntity
  8
0-0
  6
JWW_DASHED1
 62
   120
370
     5
100
AcDbLine
 10
118.0942034723213
 20
692.1935324459038
 30
0.0
 11
691.094203472322
 21
692.1935324459038
 31
0.0
  0
LINE
  5
2E7
330
1F
100
AcDbEntity
  8
0-0
  6
JWW_DASHED1
 62
   120
370
     5
100
AcDbLine
 10
118.0942034723213
 20
693.1935324458036
 30
0.0
 11
691.094203472322
 21
693.1935324458036
 31
0.0
  0
LINE
  5
2E8
330
1F
100
AcDbEntity
  8
0-0
  6
JWW_DASHED1
 62
   120
370
     5
100
AcDbLine
 10
118.0942034723213
 20
706.1935324469036
 30
0.0
 11
691.094203472322
 21
706.1935324469036
 31
0.0
  0
LINE
  5
2E9
330
1F
100
AcDbEntity
  8
0-0
  6
JWW_DASHED1
 62
   120
370
     5
100
AcDbLine
 10
118.0942034723213
 20
707.1935324468038
 30
0.0
 11
691.094203472322
 21
707.1935324468038
 31
0.0
  0
LINE
  5
2EA
330
1F
100
AcDbEntity
  8
0-0
  6
JWW_DASHED1
 62
   120
370
     5
100
AcDbLine
 10
196.9571481569542
 20
720.1935324479039
 30
0.0
 11
612.2312587876891
 21
720.1935324479039
 31
0.0
  0
LINE
  5
2EB
330
1F
100
AcDbEntity
  8
0-0
  6
JWW_DASHED1
 62
   120
370
     5
100
AcDbLine
 10
201.5167348981336
 20
721.1935324478036
 30
0.0
 11
607.6716720465097
 21
721.1935324478036
 31
0.0
  0
LINE
  5
2EC
330
1F
100
AcDbEntity
  8
0-0
  6
JWW_DASHED1
 62
   120
370
     5
100
AcDbLine
 10
236.4684951741142
 20
734.1935324489036
 30
0.0
 11
572.719911770529
 21
734.1935324489036
 31
0.0
  0
LINE
  5
2ED
330
1F
100
AcDbEntity
  8
0-0
  6
JWW_DASHED1
 62
   120
370
     5
100
AcDbLine
 10
238.3531664949319
 20
735.1935324488038
 30
0.0
 11
570.8352404497114
 21
735.1935324488038
 31
0.0
  0
LINE
  5
2EE
330
1F
100
AcDbEntity
  8
0-0
  6
JWW_DASHED1
 62
   120
370
     5
100
AcDbLine
 10
265.0983761100056
 20
748.1935324499038
 30
0.0
 11
544.0900308346377
 21
748.1935324499038
 31
0.0
  0
LINE
  5
2EF
330
1F
100
AcDbEntity
  8
0-0
  6
JWW_DASHED1
 62
   120
370
     5
100
AcDbLine
 10
267.4224639666195
 20
749.1935324498036
 30
0.0
 11
541.7659429780238
 21
749.1935324498036
 31
0.0
  0
LINE
  5
2F0
330
1F
100
AcDbEntity
  8
0-0
  6
JWW_DASHED1
 62
   120
370
     5
100
AcDbLine
 10
303.2280868695366
 20
762.1935324509036
 30
0.0
 11
505.9603200751067
 21
762.1935324509036
 31
0.0
  0
LINE
  5
2F1
330
1F
100
AcDbEntity
  8
0-0
  6
JWW_DASHED1
 62
   120
370
     5
100
AcDbLine
 10
306.59374499052
 20
763.1935324508038
 30
0.0
 11
502.5946619541232
 21
763.1935324508038
 31
0.0
  0
LINE
  5
2F2
330
1F
100
AcDbEntity
  8
0-0
  6
JWW_DASHED1
 62
   120
370
     5
100
AcDbLine
 10
378.1538302013055
 20
776.1935324519038
 30
0.0
 11
431.0345767433378
 21
776.1935324519038
 31
0.0
  0
LINE
  5
2F3
330
1F
100
AcDbEntity
  8
0-0
  6
JWW_DASHED1
 62
   120
370
     5
100
AcDbLine
 10
404.2882521267406
 20
777.1935324518035
 30
0.0
 11
404.9001548179026
 21
777.1935324518035
 31
0.0
  0
ENDSEC
  0
SECTION
  2
OBJECTS
  0
DICTIONARY
  5
C
330
0
100
AcDbDictionary
281
     1
  3
ACAD_GROUP
350
D
  3
ACAD_LAYOUT
350
1A
  3
ACAD_MATERIAL
350
3B
  3
ACAD_MLEADERSTYLE
350
2F5
  3
ACAD_MLINESTYLE
350
17
  3
ACAD_PLOTSETTINGS
350
19
  3
ACAD_PLOTSTYLENAME
350
E
  3
ACAD_TABLESTYLE
350
2F4
  3
ACAD_VISUALSTYLE
350
2A
  0
DICTIONARY
  5
D
102
{ACAD_REACTORS
330
C
102
}
330
C
100
AcDbDictionary
281
     1
  0
DICTIONARY
  5
1A
102
{ACAD_REACTORS
330
C
102
}
330
C
100
AcDbDictionary
281
     1
  3
Layout1
350
1E
  3
Layout2
350
26
  3
Model
350
22
  0
DICTIONARY
  5
3B
102
{ACAD_REACTORS
330
C
102
}
330
C
100
AcDbDictionary
281
     1
  3
ByBlock
350
3D
  3
ByLayer
350
3C
  3
Global
350
3E
  0
DICTIONARY
  5
2F5
102
{ACAD_REACTORS
330
C
102
}
330
C
100
AcDbDictionary
281
     1
  0
DICTIONARY
  5
17
102
{ACAD_REACTORS
330
C
102
}
330
C
100
AcDbDictionary
281
     1
  3
Standard
350
18
  0
DICTIONARY
  5
19
102
{ACAD_REACTORS
330
C
102
}
330
C
100
AcDbDictionary
281
     1
  0
ACDBDICTIONARYWDFLT
  5
E
102
{ACAD_REACTORS
330
C
102
}
330
C
100
AcDbDictionary
281
     1
  3
Normal
350
F
100
AcDbDictionaryWithDefault
340
F
  0
DICTIONARY
  5
2F4
102
{ACAD_REACTORS
330
C
102
}
330
C
100
AcDbDictionary
281
     1
  0
DICTIONARY
  5
2A
102
{ACAD_REACTORS
330
C
102
}
330
C
100
AcDbDictionary
281
     1
  3
2dWireframe
350
2F
  3
3D Hidden
350
31
  3
3dWireframe
350
30
  3
Basic
350
32
  3
Brighten
350
36
  3
ColorChange
350
3A
  3
Conceptual
350
34
  3
Dim
350
35
  3
Facepattern
350
39
  3
Flat
350
2B
  3
FlatWithEdges
350
2C
  3
Gouraud
350
2D
  3
GouraudWithEdges
350
2E
  3
Linepattern
350
38
  3
Realistic
350
33
  3
Thicken
350
37
  0
LAYOUT
  5
1E
102
{ACAD_REACTORS
330
1A
102
}
330
1A
100
AcDbPlotSettings
  1

  2
none_device
  4

  6

 40
0.0
 41
0.0
 42
0.0
 43
0.0
 44
0.0
 45
0.0
 46
0.0
 47
0.0
 48
0.0
 49
0.0
140
0.0
141
0.0
142
1.0
143
1.0
 70
   688
 72
     0
 73
     0
 74
     5
  7

 75
    16
 76
     0
 77
     5
 78
   300
147
1.0
148
0.0
149
0.0
100
AcDbLayout
  1
Layout1
 70
     1
 71
     1
 10
0.0
 20
0.0
 11
420.0
 21
297.0
 12
0.0
 22
0.0
 32
0.0
 14
1.000000000000000E+20
 24
1.000000000000000E+20
 34
1.000000000000000E+20
 15
-1.000000000000000E+20
 25
-1.000000000000000E+20
 35
-1.000000000000000E+20
146
0.0
 13
0.0
 23
0.0
 33
0.0
 16
1.0
 26
0.0
 36
0.0
 17
0.0
 27
1.0
 37
0.0
 76
     0
330
1B
  0
LAYOUT
  5
26
102
{ACAD_REACTORS
330
1A
102
}
330
1A
100
AcDbPlotSettings
  1

  2
none_device
  4

  6

 40
0.0
 41
0.0
 42
0.0
 43
0.0
 44
0.0
 45
0.0
 46
0.0
 47
0.0
 48
0.0
 49
0.0
140
0.0
141
0.0
142
1.0
143
1.0
 70
   688
 72
     0
 73
     0
 74
     5
  7

 75
    16
 76
     0
 77
     5
 78
   300
147
1.0
148
0.0
149
0.0
100
AcDbLayout
  1
Layout2
 70
     1
 71
     2
 10
0.0
 20
0.0
 11
0.0
 21
0.0
 12
0.0
 22
0.0
 32
0.0
 14
0.0
 24
0.0
 34
0.0
 15
0.0
 25
0.0
 35
0.0
146
0.0
 13
0.0
 23
0.0
 33
0.0
 16
1.0
 26
0.0
 36
0.0
 17
0.0
 27
1.0
 37
0.0
 76
     0
330
23
  0
LAYOUT
  5
22
102
{ACAD_REACTORS
330
1A
102
}
330
1A
100
AcDbPlotSettings
  1

  2
none_device
  4

  6

 40
0.0
 41
0.0
 42
0.0
 43
0.0
 44
0.0
 45
0.0
 46
0.0
 47
0.0
 48
0.0
 49
0.0
140
0.0
141
0.0
142
1.0
143
1.0
 70
  1712
 72
     0
 73
     0
 74
     0
  7

 75
     0
 76
     0
 77
     5
 78
   300
147
1.0
148
0.0
149
0.0
100
AcDbLayout
  1
Model
 70
     1
 71
     0
 10
-4455.0
 20
-3150.0
 11
4455.0
 21
3150.0
 12
0.0
 22
0.0
 32
0.0
 14
-4455.0
 24
-3150.0
 34
0.0
 15
4455.0
 25
3150.0
 35
0.0
146
0.0
 13
0.0
 23
0.0
 33
0.0
 16
1.0
 26
0.0
 36
0.0
 17
0.0
 27
1.0
 37
0.0
 76
     0
330
1F
331
29
  0
MATERIAL
  5
3D
102
{ACAD_REACTORS
330
3B
102
}
330
3B
100
AcDbMaterial
  1
ByBlock
 72
     1
 94
      127
  0
MATERIAL
  5
3C
102
{ACAD_REACTORS
330
3B
102
}
330
3B
100
AcDbMaterial
  1
ByLayer
 72
     1
 94
      127
  0
MATERIAL
  5
3E
102
{ACAD_REACTORS
330
3B
102
}
330
3B
100
AcDbMaterial
  1
Global
 72
     1
 94
      127
  0
MLINESTYLE
  5
18
102
{ACAD_REACTORS
330
17
102
}
330
17
100
AcDbMlineStyle
  2
Standard
 70
     0
  3

 62
   256
 51
90.0
 52
90.0
 71
     2
 49
0.5
 62
   256
  6
BYLAYER
 49
-0.5
 62
   256
  6
BYLAYER
  0
ACDBPLACEHOLDER
  5
F
102
{ACAD_REACTORS
330
E
102
}
330
E
  0
VISUALSTYLE
  5
2F
102
{ACAD_REACTORS
330
2A
102
}
330
2A
100
AcDbVisualStyle
  2
2dWireframe
 70
     4
177
     2
291
     0
 71
     0
176
     1
 72
     2
176
     1
 73
     0
176
     1
 90
        0
176
     1
 40
-0.6
176
     1
 41
-30.0
176
     1
 62
     5
 63
     7
421
 16777215
176
     1
 74
     1
176
     1
 91
        4
176
     1
 64
     7
176
     1
 65
   257
176
     1
 75
     1
176
     1
175
     1
176
     1
 42
1.0
176
     1
 92
        0
176
     1
 66
   257
176
     1
 43
1.0
176
     1
 76
     1
176
     1
 77
     6
176
     1
 78
     2
176
     1
 67
     7
176
     1
 79
     5
176
     1
170
     0
176
     1
171
     0
176
     1
290
     0
176
     1
 93
        1
176
     1
 44
0.0
176
     1
173
     0
176
     1
  0
VISUALSTYLE
  5
31
102
{ACAD_REACTORS
330
2A
102
}
330
2A
100
AcDbVisualStyle
  2
3D Hidden
 70
     6
177
     2
291
     0
 71
     1
176
     1
 72
     2
176
     1
 73
     2
176
     1
 90
        0
176
     1
 40
-0.6
176
     1
 41
-30.0
176
     1
 62
     5
 63
     7
421
 16777215
176
     1
 74
     2
176
     1
 91
        2
176
     1
 64
     7
176
     1
 65
   257
176
     1
 75
     2
176
     1
175
     1
176
     1
 42
40.0
176
     1
 92
        0
176
     1
 66
   257
176
     1
 43
1.0
176
     1
 76
     1
176
     1
 77
     6
176
     1
 78
     2
176
     1
 67
     7
176
     1
 79
     3
176
     1
170
     0
176
     1
171
     0
176
     1
290
     0
176
     1
 93
        1
176
     1
 44
0.0
176
     1
173
     0
176
     1
  0
VISUALSTYLE
  5
30
102
{ACAD_REACTORS
330
2A
102
}
330
2A
100
AcDbVisualStyle
  2
3dWireframe
 70
     5
177
     2
291
     0
 71
     0
176
     1
 72
     2
176
     1
 73
     0
176
     1
 90
        0
176
     1
 40
-0.6
176
     1
 41
-30.0
176
     1
 62
     5
 63
     7
421
 16777215
176
     1
 74
     1
176
     1
 91
        4
176
     1
 64
     7
176
     1
 65
   257
176
     1
 75
     1
176
     1
175
     1
176
     1
 42
1.0
176
     1
 92
        0
176
     1
 66
   257
176
     1
 43
1.0
176
     1
 76
     1
176
     1
 77
     6
176
     1
 78
     2
176
     1
 67
     7
176
     1
 79
     5
176
     1
170
     0
176
     1
171
     0
176
     1
290
     0
176
     1
 93
        1
176
     1
 44
0.0
176
     1
173
     0
176
     1
  0
VISUALSTYLE
  5
32
102
{ACAD_REACTORS
330
2A
102
}
330
2A
100
AcDbVisualStyle
  2
Basic
 70
     7
177
     2
291
     1
 71
     1
176
     1
 72
     0
176
     1
 73
     1
176
     1
 90
        0
176
     1
 40
-0.6
176
     1
 41
-30.0
176
     1
 62
     5
 63
     7
421
 16777215
176
     1
 74
     0
176
     1
 91
        4
176
     1
 64
     7
176
     1
 65
   257
176
     1
 75
     1
176
     1
175
     1
176
     1
 42
1.0
176
     1
 92
        8
176
     1
 66
     7
176
     1
 43
1.0
176
     1
 76
     1
176
     1
 77
     6
176
     1
 78
     2
176
     1
 67
     7
176
     1
 79
     5
176
     1
170
     0
176
     1
171
     0
176
     1
290
     0
176
     1
 93
        1
176
     1
 44
0.0
176
     1
173
     0
176
     1
  0
VISUALSTYLE
  5
36
102
{ACAD_REACTORS
330
2A
102
}
330
2A
100
AcDbVisualStyle
  2
Brighten
 70
    12
177
     2
291
     1
 71
     2
176
     1
 72
     2
176
     1
 73
     0
176
     1
 90
        0
176
     1
 40
-0.6
176
     1
 41
-30.0
176
     1
 62
     5
 63
     7
421
 16777215
176
     1
 74
     1
176
     1
 91
        4
176
     1
 64
     7
176
     1
 65
   257
176
     1
 75
     1
176
     1
175
     1
176
     1
 42
1.0
176
     1
 92
        8
176
     1
 66
     7
176
     1
 43
1.0
176
     1
 76
     1
176
     1
 77
     6
176
     1
 78
     2
176
     1
 67
     7
176
     1
 79
     5
176
     1
170
     0
176
     1
171
     0
176
     1
290
     0
176
     1
 93
        1
176
     1
 44
50.0
176
     1
173
     0
176
     1
  0
VISUALSTYLE
  5
3A
102
{ACAD_REACTORS
330
2A
102
}
330
2A
100
AcDbVisualStyle
  2
ColorChange
 70
    16
177
     2
291
     1
 71
     2
176
     1
 72
     2
176
     1
 73
     3
176
     1
 90
        0
176
     1
 40
-0.6
176
     1
 41
-30.0
176
     1
 62
     5
 63
     8
421
  8421504
176
     1
 74
     1
176
     1
 91
        4
176
     1
 64
     7
176
     1
 65
   257
176
     1
 75
     1
176
     1
175
     1
176
     1
 42
1.0
176
     1
 92
        8
176
     1
 66
     8
424
  8421504
176
     1
 43
1.0
176
     1
 76
     1
176
     1
 77
     6
176
     1
 78
     2
176
     1
 67
     7
176
     1
 79
     5
176
     1
170
     0
176
     1
171
     0
176
     1
290
     0
176
     1
 93
        1
176
     1
 44
0.0
176
     1
173
     0
176
     1
  0
VISUALSTYLE
  5
34
102
{ACAD_REACTORS
330
2A
102
}
330
2A
100
AcDbVisualStyle
  2
Conceptual
 70
     9
177
     2
291
     0
 71
     3
176
     1
 72
     2
176
     1
 73
     0
176
     1
 90
        0
176
     1
 40
-0.6
176
     1
 41
-30.0
176
     1
 62
     5
 63
     7
421
 16777215
176
     1
 74
     2
176
     1
 91
        2
176
     1
 64
     7
176
     1
 65
   257
176
     1
 75
     1
176
     1
175
     1
176
     1
 42
40.0
176
     1
 92
        8
176
     1
 66
     7
176
     1
 43
1.0
176
     1
 76
     1
176
     1
 77
     6
176
     1
 78
     2
176
     1
 67
     7
176
     1
 79
     3
176
     1
170
     0
176
     1
171
     0
176
     1
290
     0
176
     1
 93
        1
176
     1
 44
0.0
176
     1
173
     0
176
     1
  0
VISUALSTYLE
  5
35
102
{ACAD_REACTORS
330
2A
102
}
330
2A
100
AcDbVisualStyle
  2
Dim
 70
    11
177
     2
291
     1
 71
     2
176
     1
 72
     2
176
     1
 73
     0
176
     1
 90
        0
176
     1
 40
-0.6
176
     1
 41
-30.0
176
     1
 62
     5
 63
     7
421
 16777215
176
     1
 74
     1
176
     1
 91
        4
176
     1
 64
     7
176
     1
 65
   257
176
     1
 75
     1
176
     1
175
     1
176
     1
 42
1.0
176
     1
 92
        8
176
     1
 66
     7
176
     1
 43
1.0
176
     1
 76
     1
176
     1
 77
     6
176
     1
 78
     2
176
     1
 67
     7
176
     1
 79
     5
176
     1
170
     0
176
     1
171
     0
176
     1
290
     0
176
     1
 93
        1
176
     1
 44
-50.0
176
     1
173
     0
176
     1
  0
VISUALSTYLE
  5
39
102
{ACAD_REACTORS
330
2A
102
}
330
2A
100
AcDbVisualStyle
  2
Facepattern
 70
    15
177
     2
291
     1
 71
     2
176
     1
 72
     2
176
     1
 73
     0
176
     1
 90
        0
176
     1
 40
-0.6
176
     1
 41
-30.0
176
     1
 62
     5
 63
     7
421
 16777215
176
     1
 74
     1
176
     1
 91
        4
176
     1
 64
     7
176
     1
 65
   257
176
     1
 75
     1
176
     1
175
     1
176
     1
 42
1.0
176
     1
 92
        8
176
     1
 66
     7
176
     1
 43
1.0
176
     1
 76
     1
176
     1
 77
     6
176
     1
 78
     2
176
     1
 67
     7
176
     1
 79
     5
176
     1
170
     0
176
     1
171
     0
176
     1
290
     0
176
     1
 93
        1
176
     1
 44
0.0
176
     1
173
     0
176
     1
  0
VISUALSTYLE
  5
2B
102
{ACAD_REACTORS
330
2A
102
}
330
2A
100
AcDbVisualStyle
  2
Flat
 70
     0
177
     2
291
     1
 71
     2
176
     1
 72
     1
176
     1
 73
     1
176
     1
 90
        2
176
     1
 40
-0.6
176
     1
 41
30.0
176
     1
 62
     5
 63
     7
421
 16777215
176
     1
 74
     0
176
     1
 91
        4
176
     1
 64
     7
176
     1
 65
   257
176
     1
 75
     1
176
     1
175
     1
176
     1
 42
1.0
176
     1
 92
        8
176
     1
 66
     7
176
     1
 43
1.0
176
     1
 76
     1
176
     1
 77
     6
176
     1
 78
     2
176
     1
 67
     7
176
     1
 79
     5
176
     1
170
     0
176
     1
171
     0
176
     1
290
     0
176
     1
 93
       13
176
     1
 44
0.0
176
     1
173
     0
176
     1
  0
VISUALSTYLE
  5
2C
102
{ACAD_REACTORS
330
2A
102
}
330
2A
100
AcDbVisualStyle
  2
FlatWithEdges
 70
     1
177
     2
291
     1
 71
     2
176
     1
 72
     1
176
     1
 73
     1
176
     1
 90
        2
176
     1
 40
-0.6
176
     1
 41
30.0
176
     1
 62
     5
 63
     7
421
 16777215
176
     1
 74
     1
176
     1
 91
        4
176
     1
 64
     7
176
     1
 65
   257
176
     1
 75
     1
176
     1
175
     1
176
     1
 42
1.0
176
     1
 92
        0
176
     1
 66
   257
176
     1
 43
1.0
176
     1
 76
     1
176
     1
 77
     6
176
     1
 78
     2
176
     1
 67
     7
176
     1
 79
     5
176
     1
170
     0
176
     1
171
     0
176
     1
290
     0
176
     1
 93
       13
176
     1
 44
0.0
176
     1
173
     0
176
     1
  0
VISUALSTYLE
  5
2D
102
{ACAD_REACTORS
330
2A
102
}
330
2A
100
AcDbVisualStyle
  2
Gouraud
 70
     2
177
     2
291
     1
 71
     2
176
     1
 72
     2
176
     1
 73
     1
176
     1
 90
        2
176
     1
 40
-0.6
176
     1
 41
30.0
176
     1
 62
     5
 63
     7
421
 16777215
176
     1
 74
     0
176
     1
 91
        4
176
     1
 64
     7
176
     1
 65
   257
176
     1
 75
     1
176
     1
175
     1
176
     1
 42
1.0
176
     1
 92
        0
176
     1
 66
     7
176
     1
 43
1.0
176
     1
 76
     1
176
     1
 77
     6
176
     1
 78
     2
176
     1
 67
     7
176
     1
 79
     5
176
     1
170
     0
176
     1
171
     0
176
     1
290
     0
176
     1
 93
       13
176
     1
 44
0.0
176
     1
173
     0
176
     1
  0
VISUALSTYLE
  5
2E
102
{ACAD_REACTORS
330
2A
102
}
330
2A
100
AcDbVisualStyle
  2
GouraudWithEdges
 70
     3
177
     2
291
     1
 71
     2
176
     1
 72
     2
176
     1
 73
     1
176
     1
 90
        2
176
     1
 40
-0.6
176
     1
 41
30.0
176
     1
 62
     5
 63
     7
421
 16777215
176
     1
 74
     1
176
     1
 91
        4
176
     1
 64
     7
176
     1
 65
   257
176
     1
 75
     1
176
     1
175
     1
176
     1
 42
1.0
176
     1
 92
        0
176
     1
 66
   257
176
     1
 43
1.0
176
     1
 76
     1
176
     1
 77
     6
176
     1
 78
     2
176
     1
 67
     7
176
     1
 79
     5
176
     1
170
     0
176
     1
171
     0
176
     1
290
     0
176
     1
 93
       13
176
     1
 44
0.0
176
     1
173
     0
176
     1
  0
VISUALSTYLE
  5
38
102
{ACAD_REACTORS
330
2A
102
}
330
2A
100
AcDbVisualStyle
  2
Linepattern
 70
    14
177
     2
291
     1
 71
     2
176
     1
 72
     2
176
     1
 73
     0
176
     1
 90
        0
176
     1
 40
-0.6
176
     1
 41
-30.0
176
     1
 62
     5
 63
     7
421
 16777215
176
     1
 74
     1
176
     1
 91
        4
176
     1
 64
     7
176
     1
 65
   257
176
     1
 75
     7
176
     1
175
     7
176
     1
 42
1.0
176
     1
 92
        8
176
     1
 66
     7
176
     1
 43
1.0
176
     1
 76
     1
176
     1
 77
     6
176
     1
 78
     2
176
     1
 67
     7
176
     1
 79
     5
176
     1
170
     0
176
     1
171
     0
176
     1
290
     0
176
     1
 93
        1
176
     1
 44
0.0
176
     1
173
     0
176
     1
  0
VISUALSTYLE
  5
33
102
{ACAD_REACTORS
330
2A
102
}
330
2A
100
AcDbVisualStyle
  2
Realistic
 70
     8
177
     2
291
     0
 71
     2
176
     1
 72
     2
176
     1
 73
     0
176
     1
 90
        0
176
     1
 40
-0.6
176
     1
 41
-30.0
176
     1
 62
     5
 63
     7
421
 16777215
176
     1
 74
     1
176
     1
 91
        0
176
     1
 64
     7
176
     1
 65
   257
176
     1
 75
     1
176
     1
175
     1
176
     1
 42
1.0
176
     1
 92
        8
176
     1
 66
     8
424
  7895160
176
     1
 43
1.0
176
     1
 76
     1
176
     1
 77
     6
176
     1
 78
     2
176
     1
 67
     7
176
     1
 79
     5
176
     1
170
     0
176
     1
171
     0
176
     1
290
     0
176
     1
 93
       13
176
     1
 44
0.0
176
     1
173
     0
176
     1
  0
VISUALSTYLE
  5
37
102
{ACAD_REACTORS
330
2A
102
}
330
2A
100
AcDbVisualStyle
  2
Thicken
 70
    13
177
     2
291
     1
 71
     2
176
     1
 72
     2
176
     1
 73
     0
176
     1
 90
        0
176
     1
 40
-0.6
176
     1
 41
-30.0
176
     1
 62
     5
 63
     7
421
 16777215
176
     1
 74
     1
176
     1
 91
        4
176
     1
 64
     7
176
     1
 65
   257
176
     1
 75
     1
176
     1
175
     1
176
     1
 42
1.0
176
     1
 92
       12
176
     1
 66
     7
176
     1
 43
1.0
176
     1
 76
     1
176
     1
 77
     6
176
     1
 78
     2
176
     1
 67
     7
176
     1
 79
     5
176
     1
170
     0
176
     1
171
     0
176
     1
290
     0
176
     1
 93
        1
176
     1
 44
0.0
176
     1
173
     0
176
     1
  0
ENDSEC
  0
EOF
