  0
SECTION
  2
HEADER
  9
$ACADVER
  1
AC1024
  9
$ACADMAINTVER
 70
     6
  9
$DWGCODEPAGE
  3
ANSI_932
  9
$INSBASE
 10
0.0
 20
0.0
 30
0.0
  9
$EXTMIN
 10
-4455.0
 20
-3150.0
 30
0.0
  9
$EXTMAX
 10
4455.0
 20
3150.0
 30
0.0
  9
$LIMMIN
 10
-4455.0
 20
-3150.0
  9
$LIMMAX
 10
4455.0
 20
3150.0
  9
$ORTHOMODE
 70
     0
  9
$REGENMODE
 70
     1
  9
$FILLMODE
 70
     1
  9
$QTEXTMODE
 70
     0
  9
$MIRRTEXT
 70
     1
  9
$LTSCALE
 40
30.0
  9
$ATTMODE
 70
     1
  9
$TEXTSIZE
 40
2.5
  9
$TRACEWID
 40
1.0
  9
$TEXTSTYLE
  7
Standard
  9
$CLAYER
  8
0
  9
$CELTYPE
  6
ByLayer
  9
$CECOLOR
 62
   256
  9
$CELTSCALE
 40
1.0
  9
$DISPSILH
 70
     0
  9
$DIMSCALE
 40
1.0
  9
$DIMASZ
 40
2.5
  9
$DIMEXO
 40
0.625
  9
$DIMDLI
 40
3.75
  9
$DIMRND
 40
0.0
  9
$DIMDLE
 40
0.0
  9
$DIMEXE
 40
1.25
  9
$DIMTP
 40
0.0
  9
$DIMTM
 40
0.0
  9
$DIMTXT
 40
2.5
  9
$DIMCEN
 40
2.5
  9
$DIMTSZ
 40
0.0
  9
$DIMTOL
 70
     0
  9
$DIMLIM
 70
     0
  9
$DIMTIH
 70
     0
  9
$DIMTOH
 70
     0
  9
$DIMSE1
 70
     0
  9
$DIMSE2
 70
     0
  9
$DIMTAD
 70
     1
  9
$DIMZIN
 70
     8
  9
$DIMBLK
  1

  9
$DIMASO
 70
     1
  9
$DIMSHO
 70
     1
  9
$DIMPOST
  1

  9
$DIMAPOST
  1

  9
$DIMALT
 70
     0
  9
$DIMALTD
 70
     3
  9
$DIMALTF
 40
0.03937007874016
  9
$DIMLFAC
 40
1.0
  9
$DIMTOFL
 70
     1
  9
$DIMTVP
 40
0.0
  9
$DIMTIX
 70
     0
  9
$DIMSOXD
 70
     0
  9
$DIMSAH
 70
     0
  9
$DIMBLK1
  1

  9
$DIMBLK2
  1

  9
$DIMSTYLE
  2
ISO-25
  9
$DIMCLRD
 70
     0
  9
$DIMCLRE
 70
     0
  9
$DIMCLRT
 70
     0
  9
$DIMTFAC
 40
1.0
  9
$DIMGAP
 40
0.625
  9
$DIMJUST
 70
     0
  9
$DIMSD1
 70
     0
  9
$DIMSD2
 70
     0
  9
$DIMTOLJ
 70
     0
  9
$DIMTZIN
 70
     8
  9
$DIMALTZ
 70
     0
  9
$DIMALTTZ
 70
     0
  9
$DIMUPT
 70
     0
  9
$DIMDEC
 70
     2
  9
$DIMTDEC
 70
     2
  9
$DIMALTU
 70
     2
  9
$DIMALTTD
 70
     3
  9
$DIMTXSTY
  7
Standard
  9
$DIMAUNIT
 70
     0
  9
$DIMADEC
 70
     0
  9
$DIMALTRND
 40
0.0
  9
$DIMAZIN
 70
     0
  9
$DIMDSEP
 70
    44
  9
$DIMATFIT
 70
     3
  9
$DIMFRAC
 70
     0
  9
$DIMLDRBLK
  1

  9
$DIMLUNIT
 70
     2
  9
$DIMLWD
 70
    -2
  9
$DIMLWE
 70
    -2
  9
$DIMTMOVE
 70
     0
  9
$DIMFXL
 40
1.0
  9
$DIMFXLON
 70
     0
  9
$DIMJOGANG
 40
0.7853981633974483
  9
$DIMTFILL
 70
     0
  9
$DIMTFILLCLR
 70
     0
  9
$DIMARCSYM
 70
     0
  9
$DIMLTYPE
  6

  9
$DIMLTEX1
  6

  9
$DIMLTEX2
  6

  9
$DIMTXTDIRECTION
 70
     0
  9
$LUNITS
 70
     2
  9
$LUPREC
 70
     4
  9
$SKETCHINC
 40
1.0
  9
$FILLETRAD
 40
10.0
  9
$AUNITS
 70
     0
  9
$AUPREC
 70
     0
  9
$MENU
  1
.
  9
$ELEVATION
 40
0.0
  9
$PELEVATION
 40
0.0
  9
$THICKNESS
 40
0.0
  9
$LIMCHECK
 70
     0
  9
$CHAMFERA
 40
10.0
  9
$CHAMFERB
 40
10.0
  9
$CHAMFERC
 40
20.0
  9
$CHAMFERD
 40
0.0
  9
$SKPOLY
 70
     0
  9
$TDCREATE
 40
2457913.545391146
  9
$TDUCREATE
 40
2457913.170391146
  9
$TDUPDATE
 40
2457913.545391157
  9
$TDUUPDATE
 40
2457913.170391157
  9
$TDINDWG
 40
0.0000000116
  9
$TDUSRTIMER
 40
0.0000000116
  9
$USRTIMER
 70
     1
  9
$ANGBASE
 50
0.0
  9
$ANGDIR
 70
     0
  9
$PDMODE
 70
     0
  9
$PDSIZE
 40
0.0
  9
$PLINEWID
 40
0.0
  9
$SPLFRAME
 70
     0
  9
$SPLINETYPE
 70
     6
  9
$SPLINESEGS
 70
     8
  9
$HANDSEED
  5
55A
  9
$SURFTAB1
 70
     6
  9
$SURFTAB2
 70
     6
  9
$SURFTYPE
 70
     6
  9
$SURFU
 70
     6
  9
$SURFV
 70
     6
  9
$UCSBASE
  2

  9
$UCSNAME
  2

  9
$UCSORG
 10
0.0
 20
0.0
 30
0.0
  9
$UCSXDIR
 10
1.0
 20
0.0
 30
0.0
  9
$UCSYDIR
 10
0.0
 20
1.0
 30
0.0
  9
$UCSORTHOREF
  2

  9
$UCSORTHOVIEW
 70
     0
  9
$UCSORGTOP
 10
0.0
 20
0.0
 30
0.0
  9
$UCSORGBOTTOM
 10
0.0
 20
0.0
 30
0.0
  9
$UCSORGLEFT
 10
0.0
 20
0.0
 30
0.0
  9
$UCSORGRIGHT
 10
0.0
 20
0.0
 30
0.0
  9
$UCSORGFRONT
 10
0.0
 20
0.0
 30
0.0
  9
$UCSORGBACK
 10
0.0
 20
0.0
 30
0.0
  9
$PUCSBASE
  2

  9
$PUCSNAME
  2

  9
$PUCSORG
 10
0.0
 20
0.0
 30
0.0
  9
$PUCSXDIR
 10
1.0
 20
0.0
 30
0.0
  9
$PUCSYDIR
 10
0.0
 20
1.0
 30
0.0
  9
$PUCSORTHOREF
  2

  9
$PUCSORTHOVIEW
 70
     0
  9
$PUCSORGTOP
 10
0.0
 20
0.0
 30
0.0
  9
$PUCSORGBOTTOM
 10
0.0
 20
0.0
 30
0.0
  9
$PUCSORGLEFT
 10
0.0
 20
0.0
 30
0.0
  9
$PUCSORGRIGHT
 10
0.0
 20
0.0
 30
0.0
  9
$PUCSORGFRONT
 10
0.0
 20
0.0
 30
0.0
  9
$PUCSORGBACK
 10
0.0
 20
0.0
 30
0.0
  9
$USERI1
 70
     0
  9
$USERI2
 70
     0
  9
$USERI3
 70
     0
  9
$USERI4
 70
     0
  9
$USERI5
 70
     0
  9
$USERR1
 40
0.0
  9
$USERR2
 40
0.0
  9
$USERR3
 40
0.0
  9
$USERR4
 40
0.0
  9
$USERR5
 40
0.0
  9
$WORLDVIEW
 70
     1
  9
$SHADEDGE
 70
     3
  9
$SHADEDIF
 70
    70
  9
$TILEMODE
 70
     1
  9
$MAXACTVP
 70
    64
  9
$PINSBASE
 10
0.0
 20
0.0
 30
0.0
  9
$PLIMCHECK
 70
     0
  9
$PEXTMIN
 10
1.000000000000000E+20
 20
1.000000000000000E+20
 30
1.000000000000000E+20
  9
$PEXTMAX
 10
-1.000000000000000E+20
 20
-1.000000000000000E+20
 30
-1.000000000000000E+20
  9
$PLIMMIN
 10
0.0
 20
0.0
  9
$PLIMMAX
 10
420.0
 20
297.0
  9
$UNITMODE
 70
     0
  9
$VISRETAIN
 70
     1
  9
$PLINEGEN
 70
     0
  9
$PSLTSCALE
 70
     1
  9
$TREEDEPTH
 70
  3020
  9
$CMLSTYLE
  2
Standard
  9
$CMLJUST
 70
     0
  9
$CMLSCALE
 40
20.0
  9
$PROXYGRAPHICS
 70
     1
  9
$MEASUREMENT
 70
     1
  9
$CELWEIGHT
370
    -1
  9
$ENDCAPS
280
     0
  9
$JOINSTYLE
280
     0
  9
$LWDISPLAY
290
     0
  9
$INSUNITS
 70
     4
  9
$HYPERLINKBASE
  1

  9
$STYLESHEET
  1

  9
$XEDIT
290
     1
  9
$CEPSNTYPE
380
     0
  9
$PSTYLEMODE
290
     1
  9
$FINGERPRINTGUID
  2
{3D03162D-1F17-4EBF-841A-73D953B6EB3A}
  9
$VERSIONGUID
  2
{FAEB1C32-E019-11D5-929B-00C0DF256EC4}
  9
$EXTNAMES
290
     1
  9
$PSVPSCALE
 40
0.0
  9
$OLESTARTUP
290
     0
  9
$SORTENTS
280
   127
  9
$INDEXCTL
280
     0
  9
$HIDETEXT
280
     1
  9
$XCLIPFRAME
280
     2
  9
$HALOGAP
280
     0
  9
$OBSCOLOR
 70
   257
  9
$OBSLTYPE
280
     0
  9
$INTERSECTIONDISPLAY
280
     0
  9
$INTERSECTIONCOLOR
 70
   257
  9
$DIMASSOC
280
     2
  9
$PROJECTNAME
  1

  9
$CAMERADISPLAY
290
     0
  9
$LENSLENGTH
 40
50.0
  9
$CAMERAHEIGHT
 40
0.0
  9
$STEPSPERSEC
 40
2.0
  9
$STEPSIZE
 40
6.0
  9
$3DDWFPREC
 40
2.0
  9
$PSOLWIDTH
 40
5.0
  9
$PSOLHEIGHT
 40
80.0
  9
$LOFTANG1
 40
1.570796326794897
  9
$LOFTANG2
 40
1.570796326794897
  9
$LOFTMAG1
 40
0.0
  9
$LOFTMAG2
 40
0.0
  9
$LOFTPARAM
 70
     7
  9
$LOFTNORMALS
280
     1
  9
$LATITUDE
 40
37.795
  9
$LONGITUDE
 40
-122.394
  9
$NORTHDIRECTION
 40
0.0
  9
$TIMEZONE
 70
 -8000
  9
$LIGHTGLYPHDISPLAY
280
     1
  9
$TILEMODELIGHTSYNCH
280
     1
  9
$SOLIDHIST
280
     1
  9
$SHOWHIST
280
     1
  9
$DWFFRAME
280
     2
  9
$DGNFRAME
280
     2
  9
$REALWORLDSCALE
290
     1
  9
$INTERFERECOLOR
 62
   256
  9
$CSHADOW
280
     0
  9
$SHADOWPLANELOCATION
 40
0.0
  0
ENDSEC
  0
SECTION
  2
CLASSES
  0
CLASS
  1
ACDBDICTIONARYWDFLT
  2
AcDbDictionaryWithDefault
  3
ObjectDBX Classes
 90
        0
 91
        4
280
     0
281
     0
  0
CLASS
  1
VISUALSTYLE
  2
AcDbVisualStyle
  3
ObjectDBX Classes
 90
     4095
 91
        4
280
     0
281
     0
  0
CLASS
  1
MATERIAL
  2
AcDbMaterial
  3
ObjectDBX Classes
 90
     1153
 91
        4
280
     0
281
     0
  0
ENDSEC
  0
SECTION
  2
TABLES
  0
TABLE
  2
VPORT
  5
8
330
0
100
AcDbSymbolTable
 70
     1
  0
VPORT
  5
29
330
8
100
AcDbSymbolTableRecord
100
AcDbViewportTableRecord
  2
*Active
 70
     0
 10
0.0
 20
0.0
 11
1.0
 21
1.0
 12
0.0
 22
0.0
 13
0.0
 23
0.0
 14
10.0
 24
10.0
 15
10.0
 25
10.0
 16
0.0
 26
0.0
 36
1.0
 17
0.0
 27
0.0
 37
0.0
 40
6930.000000000001
 41
1.414285714285714
 42
50.0
 43
0.0
 44
0.0
 50
0.0
 51
0.0
 71
     0
 72
 10000
 73
     1
 74
     3
 75
     0
 76
     0
 77
     0
 78
     0
281
     0
 65
     1
110
0.0
120
0.0
130
0.0
111
1.0
121
0.0
131
0.0
112
0.0
122
1.0
132
0.0
 79
     0
146
0.0
 60
     3
 61
     5
292
     1
282
     1
141
0.0
142
0.0
 63
   250
  0
ENDTAB
  0
TABLE
  2
LTYPE
  5
5
330
0
100
AcDbSymbolTable
 70
     2
  0
LTYPE
  5
14
330
5
100
AcDbSymbolTableRecord
100
AcDbLinetypeTableRecord
  2
ByBlock
 70
     0
  3

 72
    65
 73
     0
 40
0.0
  0
LTYPE
  5
15
330
5
100
AcDbSymbolTableRecord
100
AcDbLinetypeTableRecord
  2
ByLayer
 70
     0
  3

 72
    65
 73
     0
 40
0.0
  0
LTYPE
  5
16
330
5
100
AcDbSymbolTableRecord
100
AcDbLinetypeTableRecord
  2
Continuous
 70
     0
  3
Solid line
 72
    65
 73
     0
 40
0.0
  0
LTYPE
  5
3F
330
5
100
AcDbSymbolTableRecord
100
AcDbLinetypeTableRecord
  2
JWW_DASHED1
 70
     0
  3
-  --  --  --  --  --  --  --  -
 72
    65
 73
     2
 40
1.693333333333333
 49
0.8466666666666667
 74
     0
 49
-0.8466666666666667
 74
     0
  0
ENDTAB
  0
TABLE
  2
LAYER
  5
2
330
0
100
AcDbSymbolTable
 70
     3
  0
LAYER
  5
10
330
2
100
AcDbSymbolTableRecord
100
AcDbLayerTableRecord
  2
0
 70
     0
 62
     7
  6
Continuous
370
    -3
390
F
347
3E
  0
LAYER
  5
40
330
2
100
AcDbSymbolTableRecord
100
AcDbLayerTableRecord
  2
0-0
 70
     0
 62
     7
  6
Continuous
370
    -3
390
F
347
3E
  0
LAYER
  5
41
330
2
100
AcDbSymbolTableRecord
100
AcDbLayerTableRecord
  2
寸法
 70
     0
 62
     7
  6
Continuous
370
    -3
390
F
347
3E
  0
ENDTAB
  0
TABLE
  2
STYLE
  5
3
330
0
100
AcDbSymbolTable
 70
     1
  0
STYLE
  5
11
330
3
100
AcDbSymbolTableRecord
100
AcDbTextStyleTableRecord
  2
Standard
 70
     0
 40
0.0
 41
1.0
 50
0.0
 71
     0
 42
2.5
  3
txt
  4

  0
ENDTAB
  0
TABLE
  2
VIEW
  5
6
330
0
100
AcDbSymbolTable
 70
     0
  0
ENDTAB
  0
TABLE
  2
UCS
  5
7
330
0
100
AcDbSymbolTable
 70
     0
  0
ENDTAB
  0
TABLE
  2
APPID
  5
9
330
0
100
AcDbSymbolTable
 70
     1
  0
APPID
  5
12
330
9
100
AcDbSymbolTableRecord
100
AcDbRegAppTableRecord
  2
ACAD
 70
     0
  0
ENDTAB
  0
TABLE
  2
DIMSTYLE
  5
A
330
0
100
AcDbSymbolTable
 70
     1
100
AcDbDimStyleTable
  0
DIMSTYLE
105
27
330
A
100
AcDbSymbolTableRecord
100
AcDbDimStyleTableRecord
  2
ISO-25
 70
     0
 41
2.5
 42
0.625
 43
3.75
 44
1.25
 73
     0
 74
     0
 77
     1
 78
     8
140
2.5
141
2.5
143
0.03937007874016
147
0.625
171
     3
172
     1
178
     0
271
     2
272
     2
274
     3
278
    44
283
     0
284
     8
340
11
  0
ENDTAB
  0
TABLE
  2
BLOCK_RECORD
  5
1
330
0
100
AcDbSymbolTable
 70
     1
  0
BLOCK_RECORD
  5
1F
330
1
100
AcDbSymbolTableRecord
100
AcDbBlockTableRecord
  2
*Model_Space
340
22
 70
     0
280
     1
281
     0
  0
BLOCK_RECORD
  5
1B
330
1
100
AcDbSymbolTableRecord
100
AcDbBlockTableRecord
  2
*Paper_Space
340
1E
 70
     0
280
     1
281
     0
  0
BLOCK_RECORD
  5
23
330
1
100
AcDbSymbolTableRecord
100
AcDbBlockTableRecord
  2
*Paper_Space0
340
26
 70
     0
280
     1
281
     0
  0
ENDTAB
  0
ENDSEC
  0
SECTION
  2
BLOCKS
  0
BLOCK
  5
20
330
1F
100
AcDbEntity
  8
0
100
AcDbBlockBegin
  2
*Model_Space
 70
     0
 10
0.0
 20
0.0
 30
0.0
  3
*Model_Space
  1

  0
ENDBLK
  5
21
330
1F
100
AcDbEntity
  8
0
100
AcDbBlockEnd
  0
BLOCK
  5
1C
330
1B
100
AcDbEntity
 67
     1
  8
0
100
AcDbBlockBegin
  2
*Paper_Space
 70
     0
 10
0.0
 20
0.0
 30
0.0
  3
*Paper_Space
  1

  0
ENDBLK
  5
1D
330
1B
100
AcDbEntity
 67
     1
  8
0
100
AcDbBlockEnd
  0
BLOCK
  5
24
330
23
100
AcDbEntity
  8
0
100
AcDbBlockBegin
  2
*Paper_Space0
 70
     0
 10
0.0
 20
0.0
 30
0.0
  3
*Paper_Space0
  1

  0
ENDBLK
  5
25
330
23
100
AcDbEntity
  8
0
100
AcDbBlockEnd
  0
ENDSEC
  0
SECTION
  2
ENTITIES
  0
ARC
  5
42
330
1F
100
AcDbEntity
  8
0-0
  6
Continuous
 62
    92
370
    13
100
AcDbCircle
 10
-755.594621086659
 20
-58.17869979294343
 30
0.0
 40
1.5
100
AcDbArc
 50
90.0
 51
180.0
  0
LINE
  5
43
330
1F
100
AcDbEntity
  8
0-0
  6
Continuous
 62
    92
370
    13
100
AcDbLine
 10
-716.594621086657
 20
-56.67869979294395
 30
0.0
 11
-755.594621086659
 21
-56.67869979294395
 31
0.0
  0
ARC
  5
44
330
1F
100
AcDbEntity
  8
0-0
  6
Continuous
 62
    92
370
    13
100
AcDbCircle
 10
-716.594621086657
 20
-58.17869979294343
 30
0.0
 40
1.5
100
AcDbArc
 50
0.0
 51
90.00000000000001
  0
LINE
  5
45
330
1F
100
AcDbEntity
  8
0-0
  6
Continuous
 62
    92
370
    13
100
AcDbLine
 10
-715.0946210866583
 20
-177.1786997929435
 30
0.0
 11
-715.0946210866583
 21
-58.17869979294343
 31
0.0
  0
ARC
  5
46
330
1F
100
AcDbEntity
  8
0-0
  6
Continuous
 62
    92
370
    13
100
AcDbCircle
 10
-716.594621086657
 20
-177.1786997929435
 30
0.0
 40
1.5
100
AcDbArc
 50
270.0
 51
0.0
  0
LINE
  5
47
330
1F
100
AcDbEntity
  8
0-0
  6
Continuous
 62
    92
370
    13
100
AcDbLine
 10
-755.594621086659
 20
-178.6786997929434
 30
0.0
 11
-716.594621086657
 21
-178.6786997929434
 31
0.0
  0
LINE
  5
48
330
1F
100
AcDbEntity
  8
0-0
  6
Continuous
 62
    92
370
    13
100
AcDbLine
 10
-757.0946210866576
 20
-177.1786997929435
 30
0.0
 11
-757.0946210866576
 21
-58.17869979294343
 31
0.0
  0
ARC
  5
49
330
1F
100
AcDbEntity
  8
0-0
  6
Continuous
 62
    92
370
    13
100
AcDbCircle
 10
-755.594621086659
 20
-177.1786997929435
 30
0.0
 40
1.5
100
AcDbArc
 50
180.0
 51
270.0
  0
ARC
  5
4A
330
1F
100
AcDbEntity
  8
0-0
  6
Continuous
 62
     7
370
     9
100
AcDbCircle
 10
-736.094621086658
 20
-147.2786997929434
 30
0.0
 40
15.0
100
AcDbArc
 50
180.0
 51
0.0
  0
ARC
  5
4B
330
1F
100
AcDbEntity
  8
0-0
  6
Continuous
 62
     7
370
     9
100
AcDbCircle
 10
-736.094621086658
 20
-88.07869979294352
 30
0.0
 40
15.0
100
AcDbArc
 50
0.0
 51
180.0
  0
LINE
  5
4C
330
1F
100
AcDbEntity
  8
0-0
  6
Continuous
 62
     7
370
     9
100
AcDbLine
 10
-721.094621086658
 20
-147.2786997929434
 30
0.0
 11
-721.094621086658
 21
-88.07869979294352
 31
0.0
  0
LINE
  5
4D
330
1F
100
AcDbEntity
  8
0-0
  6
Continuous
 62
     7
370
     9
100
AcDbLine
 10
-751.094621086658
 20
-88.07869979294352
 30
0.0
 11
-751.094621086658
 21
-147.2786997929434
 31
0.0
  0
LINE
  5
4E
330
1F
100
AcDbEntity
  8
0-0
  6
JWW_DASHED1
 62
   120
370
     5
100
AcDbLine
 10
-787.0946210866575
 20
-1075.178699792943
 30
0.0
 11
-784.0946210866568
 21
-1075.178699792943
 31
0.0
  0
LINE
  5
4F
330
1F
100
AcDbEntity
  8
0-0
  6
Continuous
 62
    92
370
    13
100
AcDbLine
 10
829.9053789133417
 20
-1095.178699792943
 30
0.0
 11
-814.0946210866568
 21
-1095.178699792943
 31
0.0
  0
LINE
  5
50
330
1F
100
AcDbEntity
  8
0-0
  6
Continuous
 62
    92
370
    13
100
AcDbLine
 10
799.9053789133417
 20
-1080.178699792943
 30
0.0
 11
-784.0946210866568
 21
-1080.178699792943
 31
0.0
  0
LINE
  5
51
330
1F
100
AcDbEntity
  8
0-0
  6
Continuous
 62
    92
370
    13
100
AcDbLine
 10
799.9053789133417
 20
-1095.178699792943
 30
0.0
 11
799.9053789133417
 21
-1074.973920800106
 31
0.0
  0
LINE
  5
52
330
1F
100
AcDbEntity
  8
0-0
  6
Continuous
 62
    92
370
    13
100
AcDbLine
 10
799.9053789133417
 20
-1074.973920800106
 30
0.0
 11
799.9053789133417
 21
-1074.640934990448
 31
0.0
  0
ARC
  5
53
330
1F
100
AcDbEntity
  8
0-0
  6
Continuous
 62
    92
370
    13
100
AcDbCircle
 10
732.4053789133417
 20
-58.17869979294343
 30
0.0
 40
1.5
100
AcDbArc
 50
90.0
 51
180.0
  0
LINE
  5
54
330
1F
100
AcDbEntity
  8
0-0
  6
Continuous
 62
    92
370
    13
100
AcDbLine
 10
771.4053789133437
 20
-56.67869979294395
 30
0.0
 11
732.4053789133417
 21
-56.67869979294395
 31
0.0
  0
ARC
  5
55
330
1F
100
AcDbEntity
  8
0-0
  6
Continuous
 62
    92
370
    13
100
AcDbCircle
 10
771.4053789133437
 20
-58.17869979294343
 30
0.0
 40
1.5
100
AcDbArc
 50
0.0
 51
90.00000000000001
  0
LINE
  5
56
330
1F
100
AcDbEntity
  8
0-0
  6
Continuous
 62
    92
370
    13
100
AcDbLine
 10
772.9053789133424
 20
-177.1786997929435
 30
0.0
 11
772.9053789133424
 21
-58.17869979294343
 31
0.0
  0
ARC
  5
57
330
1F
100
AcDbEntity
  8
0-0
  6
Continuous
 62
    92
370
    13
100
AcDbCircle
 10
771.4053789133437
 20
-177.1786997929435
 30
0.0
 40
1.5
100
AcDbArc
 50
270.0
 51
0.0
  0
LINE
  5
58
330
1F
100
AcDbEntity
  8
0-0
  6
Continuous
 62
    92
370
    13
100
AcDbLine
 10
732.4053789133417
 20
-178.6786997929434
 30
0.0
 11
771.4053789133437
 21
-178.6786997929434
 31
0.0
  0
LINE
  5
59
330
1F
100
AcDbEntity
  8
0-0
  6
Continuous
 62
    92
370
    13
100
AcDbLine
 10
730.9053789133413
 20
-177.1786997929435
 30
0.0
 11
730.9053789133413
 21
-58.17869979294343
 31
0.0
  0
ARC
  5
5A
330
1F
100
AcDbEntity
  8
0-0
  6
Continuous
 62
    92
370
    13
100
AcDbCircle
 10
732.4053789133417
 20
-177.1786997929435
 30
0.0
 40
1.5
100
AcDbArc
 50
180.0
 51
270.0
  0
ARC
  5
5B
330
1F
100
AcDbEntity
  8
0-0
  6
Continuous
 62
     7
370
     9
100
AcDbCircle
 10
751.9053789133427
 20
-147.2786997929434
 30
0.0
 40
15.0
100
AcDbArc
 50
180.0
 51
0.0
  0
ARC
  5
5C
330
1F
100
AcDbEntity
  8
0-0
  6
Continuous
 62
     7
370
     9
100
AcDbCircle
 10
751.9053789133427
 20
-88.07869979294352
 30
0.0
 40
15.0
100
AcDbArc
 50
0.0
 51
180.0
  0
LINE
  5
5D
330
1F
100
AcDbEntity
  8
0-0
  6
Continuous
 62
     7
370
     9
100
AcDbLine
 10
766.9053789133427
 20
-147.2786997929434
 30
0.0
 11
766.9053789133427
 21
-88.07869979294352
 31
0.0
  0
LINE
  5
5E
330
1F
100
AcDbEntity
  8
0-0
  6
Continuous
 62
     7
370
     9
100
AcDbLine
 10
736.9053789133427
 20
-88.07869979294352
 30
0.0
 11
736.9053789133427
 21
-147.2786997929434
 31
0.0
  0
LINE
  5
5F
330
1F
100
AcDbEntity
  8
0-0
  6
JWW_DASHED1
 62
   120
370
     5
100
AcDbLine
 10
802.9053789133424
 20
-1075.178699792943
 30
0.0
 11
799.9053789133417
 21
-1075.178699792943
 31
0.0
  0
LINE
  5
60
330
1F
100
AcDbEntity
  8
0-0
  6
Continuous
 62
    92
370
    13
100
AcDbLine
 10
-784.0946210866568
 20
-1075.178699792943
 30
0.0
 11
799.9053789133417
 21
-1075.178699792943
 31
0.0
  0
LINE
  5
61
330
1F
100
AcDbEntity
  8
0-0
  6
Continuous
 62
    92
370
    13
100
AcDbLine
 10
-784.0946210866568
 20
1121.821300207057
 30
0.0
 11
799.9053789133417
 21
1121.821300207057
 31
0.0
  0
LINE
  5
62
330
1F
100
AcDbEntity
  8
0-0
  6
Continuous
 62
    92
370
    13
100
AcDbLine
 10
-784.0946210866568
 20
-1095.178699792943
 30
0.0
 11
-784.0946210866568
 21
1151.821300207057
 31
0.0
  0
LINE
  5
63
330
1F
100
AcDbEntity
  8
0-0
  6
Continuous
 62
    92
370
    13
100
AcDbLine
 10
-814.0946210866568
 20
-1095.178699792943
 30
0.0
 11
-814.0946210866568
 21
1151.821300207057
 31
0.0
  0
LINE
  5
64
330
1F
100
AcDbEntity
  8
0-0
  6
JWW_DASHED1
 62
   120
370
     5
100
AcDbLine
 10
-787.0946210866575
 20
1107.821300207056
 30
0.0
 11
-787.0946210866575
 21
-1075.178699792943
 31
0.0
  0
LINE
  5
65
330
1F
100
AcDbEntity
  8
0-0
  6
JWW_DASHED1
 62
   120
370
     5
100
AcDbLine
 10
-784.0946210866568
 20
1107.821300207056
 30
0.0
 11
-787.0946210866575
 21
1107.821300207056
 31
0.0
  0
LINE
  5
66
330
1F
100
AcDbEntity
  8
0-0
  6
Continuous
 62
    92
370
    13
100
AcDbLine
 10
829.9053789133417
 20
-1095.178699792943
 30
0.0
 11
829.9053789133417
 21
1151.821300207057
 31
0.0
  0
LINE
  5
67
330
1F
100
AcDbEntity
  8
0-0
  6
Continuous
 62
    92
370
    13
100
AcDbLine
 10
799.9053789133417
 20
-1074.640934990448
 30
0.0
 11
799.9053789133417
 21
1151.821300207057
 31
0.0
  0
LINE
  5
68
330
1F
100
AcDbEntity
  8
0-0
  6
Continuous
 62
    92
370
    13
100
AcDbLine
 10
-814.0946210866568
 20
1151.821300207057
 30
0.0
 11
829.9053789133417
 21
1151.821300207057
 31
0.0
  0
LINE
  5
69
330
1F
100
AcDbEntity
  8
0-0
  6
JWW_DASHED1
 62
   120
370
     5
100
AcDbLine
 10
802.9053789133424
 20
1107.821300207056
 30
0.0
 11
802.9053789133424
 21
-1075.178699792943
 31
0.0
  0
LINE
  5
6A
330
1F
100
AcDbEntity
  8
0-0
  6
JWW_DASHED1
 62
   120
370
     5
100
AcDbLine
 10
799.9053789133417
 20
1107.821300207056
 30
0.0
 11
802.9053789133424
 21
1107.821300207056
 31
0.0
  0
LINE
  5
6B
330
1F
100
AcDbEntity
  8
0-0
  6
Continuous
 62
    92
370
    13
100
AcDbLine
 10
-7.094621086657682
 20
-1075.178699792943
 30
0.0
 11
-7.094621086657682
 21
1107.821300207056
 31
0.0
  0
LINE
  5
6C
330
1F
100
AcDbEntity
  8
0-0
  6
JWW_DASHED1
 62
   120
370
     5
100
AcDbLine
 10
22.90537891334402
 20
-1075.178699792943
 30
0.0
 11
22.90537891334402
 21
1107.821300207056
 31
0.0
  0
LINE
  5
6D
330
1F
100
AcDbEntity
  8
0-0
  6
Continuous
 62
    92
370
    13
100
AcDbLine
 10
799.9053789133417
 20
1107.821300207056
 30
0.0
 11
-784.0946210866568
 21
1107.821300207056
 31
0.0
  0
LINE
  5
6E
330
1F
100
AcDbEntity
  8
0-0
  6
Continuous
 62
    92
370
    13
100
AcDbLine
 10
-87.09462108665655
 20
-925.1786997929432
 30
0.0
 11
-677.0946210866588
 21
-925.1786997929432
 31
0.0
  0
LINE
  5
6F
330
1F
100
AcDbEntity
  8
0-0
  6
Continuous
 62
    92
370
    13
100
AcDbLine
 10
692.9053789133435
 20
-925.1786997929432
 30
0.0
 11
102.9053789133429
 21
-925.1786997929432
 31
0.0
  0
LINE
  5
70
330
1F
100
AcDbEntity
  8
0-0
  6
Continuous
 62
    92
370
    13
100
AcDbLine
 10
692.9053789133435
 20
972.8213002070563
 30
0.0
 11
102.9053789133429
 21
972.8213002070563
 31
0.0
  0
LINE
  5
71
330
1F
100
AcDbEntity
  8
0-0
  6
Continuous
 62
    92
370
    13
100
AcDbLine
 10
-87.09462108665655
 20
972.8213002070563
 30
0.0
 11
-677.0946210866588
 21
972.8213002070563
 31
0.0
  0
LINE
  5
72
330
1F
100
AcDbEntity
  8
0-0
  6
Continuous
 62
    92
370
    13
100
AcDbLine
 10
-427.0946210866577
 20
972.8213002070563
 30
0.0
 11
-427.0946210866577
 21
-925.1786997929432
 31
0.0
  0
LINE
  5
73
330
1F
100
AcDbEntity
  8
0-0
  6
Continuous
 62
    92
370
    13
100
AcDbLine
 10
-337.0946210866577
 20
972.8213002070563
 30
0.0
 11
-337.0946210866577
 21
-925.1786997929432
 31
0.0
  0
LINE
  5
74
330
1F
100
AcDbEntity
  8
0-0
  6
Continuous
 62
    92
370
    13
100
AcDbLine
 10
352.9053789133423
 20
972.8213002070563
 30
0.0
 11
352.9053789133423
 21
-925.1786997929432
 31
0.0
  0
LINE
  5
75
330
1F
100
AcDbEntity
  8
0-0
  6
Continuous
 62
    92
370
    13
100
AcDbLine
 10
442.9053789133423
 20
972.8213002070563
 30
0.0
 11
442.9053789133423
 21
-925.1786997929432
 31
0.0
  0
LINE
  5
76
330
1F
100
AcDbEntity
  8
0-0
  6
Continuous
 62
    92
370
    13
100
AcDbLine
 10
692.9053789133435
 20
-1075.178699792943
 30
0.0
 11
692.9053789133435
 21
1107.821300207056
 31
0.0
  0
LINE
  5
77
330
1F
100
AcDbEntity
  8
0-0
  6
Continuous
 62
    92
370
    13
100
AcDbLine
 10
-677.0946210866588
 20
-1075.178699792943
 30
0.0
 11
-677.0946210866588
 21
1107.821300207056
 31
0.0
  0
LINE
  5
78
330
1F
100
AcDbEntity
  8
0-0
  6
Continuous
 62
    92
370
    13
100
AcDbLine
 10
-87.09462108665655
 20
-1075.178699792943
 30
0.0
 11
-87.09462108665655
 21
1107.821300207056
 31
0.0
  0
LINE
  5
79
330
1F
100
AcDbEntity
  8
0-0
  6
Continuous
 62
    92
370
    13
100
AcDbLine
 10
102.9053789133429
 20
-1075.178699792943
 30
0.0
 11
102.9053789133429
 21
1107.821300207056
 31
0.0
  0
LINE
  5
7A
330
1F
100
AcDbEntity
  8
0-0
  6
JWW_DASHED1
 62
   120
370
     5
100
AcDbLine
 10
-91.69436453680795
 20
-925.178699792938
 30
0.0
 11
-87.09462108666145
 21
-920.5789563427918
 31
0.0
  0
LINE
  5
7B
330
1F
100
AcDbEntity
  8
0-0
  6
JWW_DASHED1
 62
   120
370
     5
100
AcDbLine
 10
-98.7654323500896
 20
-925.1786997929346
 30
0.0
 11
-87.0946210866655
 21
-913.5078885295102
 31
0.0
  0
LINE
  5
7C
330
1F
100
AcDbEntity
  8
0-0
  6
JWW_DASHED1
 62
   120
370
     5
100
AcDbLine
 10
-105.8365001633715
 20
-925.1786997929308
 30
0.0
 11
-87.09462108666955
 21
-906.4368207162289
 31
0.0
  0
LINE
  5
7D
330
1F
100
AcDbEntity
  8
0-0
  6
JWW_DASHED1
 62
   120
370
     5
100
AcDbLine
 10
-112.9075679766676
 20
-925.1786997929414
 30
0.0
 11
-87.09462108665782
 21
-899.3657529029315
 31
0.0
  0
LINE
  5
7E
330
1F
100
AcDbEntity
  8
0-0
  6
JWW_DASHED1
 62
   120
370
     5
100
AcDbLine
 10
-119.97863578989
 20
-925.178699792933
 30
0.0
 11
-87.09462108666571
 21
-892.2946850897087
 31
0.0
  0
LINE
  5
7F
330
1F
100
AcDbEntity
  8
0-0
  6
JWW_DASHED1
 62
   120
370
     5
100
AcDbLine
 10
-127.0497036031893
 20
-925.1786997929466
 30
0.0
 11
-87.09462108665484
 21
-885.2236172764126
 31
0.0
  0
LINE
  5
80
330
1F
100
AcDbEntity
  8
0-0
  6
JWW_DASHED1
 62
   120
370
     5
100
AcDbLine
 10
-134.1207714164714
 20
-925.1786997929432
 30
0.0
 11
-87.09462108665889
 21
-878.1525494631305
 31
0.0
  0
LINE
  5
81
330
1F
100
AcDbEntity
  8
0-0
  6
JWW_DASHED1
 62
   120
370
     5
100
AcDbLine
 10
-141.191839229753
 20
-925.1786997929394
 30
0.0
 11
-87.09462108666273
 21
-871.0814816498493
 31
0.0
  0
LINE
  5
82
330
1F
100
AcDbEntity
  8
0-0
  6
JWW_DASHED1
 62
   120
370
     5
100
AcDbLine
 10
-148.2629070430351
 20
-925.178699792936
 30
0.0
 11
-87.09462108666656
 21
-864.0104138365676
 31
0.0
  0
LINE
  5
83
330
1F
100
AcDbEntity
  8
0-0
  6
JWW_DASHED1
 62
   120
370
     5
100
AcDbLine
 10
-155.3339748563163
 20
-925.1786997929316
 30
0.0
 11
-87.0946210866704
 21
-856.9393460232859
 31
0.0
  0
LINE
  5
84
330
1F
100
AcDbEntity
  8
0-0
  6
JWW_DASHED1
 62
   120
370
     5
100
AcDbLine
 10
-162.405042669609
 20
-925.1786997929389
 30
0.0
 11
-87.09462108665868
 21
-849.8682782099886
 31
0.0
  0
LINE
  5
85
330
1F
100
AcDbEntity
  8
0-0
  6
JWW_DASHED1
 62
   120
370
     5
100
AcDbLine
 10
-169.4761104828902
 20
-925.1786997929346
 30
0.0
 11
-87.09462108666251
 21
-842.7972103967073
 31
0.0
  0
LINE
  5
86
330
1F
100
AcDbEntity
  8
0-0
  6
JWW_DASHED1
 62
   120
370
     5
100
AcDbLine
 10
-176.5471782961715
 20
-925.1786997929308
 30
0.0
 11
-87.09462108666678
 21
-835.7261425834257
 31
0.0
  0
LINE
  5
87
330
1F
100
AcDbEntity
  8
0-0
  6
JWW_DASHED1
 62
   120
370
     5
100
AcDbLine
 10
-183.6182461094749
 20
-925.1786997929482
 30
0.0
 11
-87.09462108665548
 21
-828.6550747701291
 31
0.0
  0
LINE
  5
88
330
1F
100
AcDbEntity
  8
0-0
  6
JWW_DASHED1
 62
   120
370
     5
100
AcDbLine
 10
-190.6893139226977
 20
-925.1786997929406
 30
0.0
 11
-87.09462108666358
 21
-821.5840069569063
 31
0.0
  0
LINE
  5
89
330
1F
100
AcDbEntity
  8
0-0
  6
JWW_DASHED1
 62
   120
370
     5
100
AcDbLine
 10
-197.7603817359793
 20
-925.1786997929368
 30
0.0
 11
-87.0946210866672
 21
-814.5129391436242
 31
0.0
  0
LINE
  5
8A
330
1F
100
AcDbEntity
  8
0-0
  6
JWW_DASHED1
 62
   120
370
     5
100
AcDbLine
 10
-204.8314495492614
 20
-925.178699792933
 30
0.0
 11
-87.09462108667125
 21
-807.441871330343
 31
0.0
  0
LINE
  5
8B
330
1F
100
AcDbEntity
  8
0-0
  6
JWW_DASHED1
 62
   120
370
     5
100
AcDbLine
 10
-211.9025173625507
 20
-925.1786997929368
 30
0.0
 11
-87.0946210866591
 21
-800.3708035170456
 31
0.0
  0
LINE
  5
8C
330
1F
100
AcDbEntity
  8
0-0
  6
JWW_DASHED1
 62
   120
370
     5
100
AcDbLine
 10
-218.9735851758319
 20
-925.178699792933
 30
0.0
 11
-87.09462108666337
 21
-793.2997357037643
 31
0.0
  0
LINE
  5
8D
330
1F
100
AcDbEntity
  8
0-0
  6
JWW_DASHED1
 62
   120
370
     5
100
AcDbLine
 10
-226.0446529891383
 20
-925.1786997929535
 30
0.0
 11
-87.09462108665271
 21
-786.2286678904678
 31
0.0
  0
LINE
  5
8E
330
1F
100
AcDbEntity
  8
0-0
  6
JWW_DASHED1
 62
   120
370
     5
100
AcDbLine
 10
-233.11572080242
 20
-925.1786997929496
 30
0.0
 11
-87.09462108665676
 21
-779.1576000771865
 31
0.0
  0
LINE
  5
8F
330
1F
100
AcDbEntity
  8
0-0
  6
JWW_DASHED1
 62
   120
370
     5
100
AcDbLine
 10
-240.186788615702
 20
-925.1786997929462
 30
0.0
 11
-87.09462108665974
 21
-772.0865322639037
 31
0.0
  0
LINE
  5
90
330
1F
100
AcDbEntity
  8
0-0
  6
JWW_DASHED1
 62
   120
370
     5
100
AcDbLine
 10
-247.2578564289832
 20
-925.1786997929419
 30
0.0
 11
-87.09462108666379
 21
-765.0154644506224
 31
0.0
  0
LINE
  5
91
330
1F
100
AcDbEntity
  8
0-0
  6
JWW_DASHED1
 62
   120
370
     5
100
AcDbLine
 10
-254.328924242206
 20
-925.1786997929338
 30
0.0
 11
-87.0946210866721
 21
-757.9443966374001
 31
0.0
  0
LINE
  5
92
330
1F
100
AcDbEntity
  8
0-0
  6
JWW_DASHED1
 62
   120
370
     5
100
AcDbLine
 10
-261.3999920554924
 20
-925.178699792935
 30
0.0
 11
-87.09462108665996
 21
-750.8733288241026
 31
0.0
  0
LINE
  5
93
330
1F
100
AcDbEntity
  8
0-0
  6
JWW_DASHED1
 62
   120
370
     5
100
AcDbLine
 10
-268.471059868774
 20
-925.1786997929308
 30
0.0
 11
-87.09462108666422
 21
-743.8022610108214
 31
0.0
  0
LINE
  5
94
330
1F
100
AcDbEntity
  8
0-0
  6
JWW_DASHED1
 62
   120
370
     5
100
AcDbLine
 10
-275.5421276820829
 20
-925.1786997929543
 30
0.0
 11
-87.09462108665399
 21
-736.7311931975253
 31
0.0
  0
LINE
  5
95
330
1F
100
AcDbEntity
  8
0-0
  6
JWW_DASHED1
 62
   120
370
     5
100
AcDbLine
 10
-282.6131954953646
 20
-925.1786997929509
 30
0.0
 11
-87.09462108665804
 21
-729.6601253842441
 31
0.0
  0
LINE
  5
96
330
1F
100
AcDbEntity
  8
0-0
  6
JWW_DASHED1
 62
   120
370
     5
100
AcDbLine
 10
-289.6842633086462
 20
-925.178699792947
 30
0.0
 11
-87.0946210866606
 21
-722.5890575709607
 31
0.0
  0
LINE
  5
97
330
1F
100
AcDbEntity
  8
0-0
  6
JWW_DASHED1
 62
   120
370
     5
100
AcDbLine
 10
-296.7553311219283
 20
-925.1786997929432
 30
0.0
 11
-87.09462108666465
 21
-715.5179897576795
 31
0.0
  0
LINE
  5
98
330
1F
100
AcDbEntity
  8
0-0
  6
JWW_DASHED1
 62
   120
370
     5
100
AcDbLine
 10
-303.82639893521
 20
-925.1786997929394
 30
0.0
 11
-87.0946210866687
 21
-708.4469219443984
 31
0.0
  0
LINE
  5
99
330
1F
100
AcDbEntity
  8
0-0
  6
JWW_DASHED1
 62
   120
370
     5
100
AcDbLine
 10
-310.8974667484937
 20
-925.1786997929377
 30
0.0
 11
-87.09462108665676
 21
-701.3758541311008
 31
0.0
  0
LINE
  5
9A
330
1F
100
AcDbEntity
  8
0-0
  6
JWW_DASHED1
 62
   120
370
     5
100
AcDbLine
 10
-317.9685345617157
 20
-925.1786997929291
 30
0.0
 11
-87.09462108666507
 21
-694.3047863178786
 31
0.0
  0
LINE
  5
9B
330
1F
100
AcDbEntity
  8
0-0
  6
JWW_DASHED1
 62
   120
370
     5
100
AcDbLine
 10
-325.0396023750276
 20
-925.1786997929551
 30
0.0
 11
-87.09462108665548
 21
-687.2337185045828
 31
0.0
  0
LINE
  5
9C
330
1F
100
AcDbEntity
  8
0-0
  6
JWW_DASHED1
 62
   120
370
     5
100
AcDbLine
 10
-332.1106701883097
 20
-925.1786997929516
 30
0.0
 11
-87.09462108665932
 21
-680.1626506913016
 31
0.0
  0
LINE
  5
9D
330
1F
100
AcDbEntity
  8
0-0
  6
JWW_DASHED1
 62
   120
370
     5
100
AcDbLine
 10
-337.094621086653
 20
-923.0915828780096
 30
0.0
 11
-87.09462108666145
 21
-673.0915828780178
 31
0.0
  0
LINE
  5
9E
330
1F
100
AcDbEntity
  8
0-0
  6
JWW_DASHED1
 62
   120
370
     5
100
AcDbLine
 10
-337.0946210866572
 20
-916.0205150647283
 30
0.0
 11
-87.0946210866655
 21
-666.0205150647366
 31
0.0
  0
LINE
  5
9F
330
1F
100
AcDbEntity
  8
0-0
  6
JWW_DASHED1
 62
   120
370
     5
100
AcDbLine
 10
-337.0946210866611
 20
-908.9494472514467
 30
0.0
 11
-87.09462108666933
 21
-658.9494472514554
 31
0.0
  0
LINE
  5
A0
330
1F
100
AcDbEntity
  8
0-0
  6
JWW_DASHED1
 62
   120
370
     5
100
AcDbLine
 10
-337.0946210866649
 20
-901.878379438165
 30
0.0
 11
-87.09462108665761
 21
-651.8783794381579
 31
0.0
  0
LINE
  5
A1
330
1F
100
AcDbEntity
  8
0-0
  6
JWW_DASHED1
 62
   120
370
     5
100
AcDbLine
 10
-337.0946210866692
 20
-894.8073116248838
 30
0.0
 11
-87.09462108666145
 21
-644.8073116248763
 31
0.0
  0
LINE
  5
A2
330
1F
100
AcDbEntity
  8
0-0
  6
JWW_DASHED1
 62
   120
370
     5
100
AcDbLine
 10
-337.0946210866734
 20
-887.7362438116027
 30
0.0
 11
-87.0946210866655
 21
-637.7362438115947
 31
0.0
  0
LINE
  5
A3
330
1F
100
AcDbEntity
  8
0-0
  6
JWW_DASHED1
 62
   120
370
     5
100
AcDbLine
 10
-337.0946210866458
 20
-880.6651759982894
 30
0.0
 11
-87.09462108665633
 21
-630.6651759983002
 31
0.0
  0
LINE
  5
A4
330
1F
100
AcDbEntity
  8
0-0
  6
JWW_DASHED1
 62
   120
370
     5
100
AcDbLine
 10
-337.0946210866538
 20
-873.5941081850666
 30
0.0
 11
-87.09462108666209
 21
-623.5941081850749
 31
0.0
  0
LINE
  5
A5
330
1F
100
AcDbEntity
  8
0-0
  6
JWW_DASHED1
 62
   120
370
     5
100
AcDbLine
 10
-337.0946210866581
 20
-866.5230403717853
 30
0.0
 11
-87.09462108666635
 21
-616.5230403717936
 31
0.0
  0
LINE
  5
A6
330
1F
100
AcDbEntity
  8
0-0
  6
JWW_DASHED1
 62
   120
370
     5
100
AcDbLine
 10
-337.094621086662
 20
-859.4519725585037
 30
0.0
 11
-87.09462108666997
 21
-609.451972558512
 31
0.0
  0
LINE
  5
A7
330
1F
100
AcDbEntity
  8
0-0
  6
JWW_DASHED1
 62
   120
370
     5
100
AcDbLine
 10
-337.0946210866658
 20
-852.3809047452221
 30
0.0
 11
-87.09462108665846
 21
-602.380904745215
 31
0.0
  0
LINE
  5
A8
330
1F
100
AcDbEntity
  8
0-0
  6
JWW_DASHED1
 62
   120
370
     5
100
AcDbLine
 10
-337.0946210866696
 20
-845.3098369319405
 30
0.0
 11
-87.0946210866623
 21
-595.3098369319333
 31
0.0
  0
LINE
  5
A9
330
1F
100
AcDbEntity
  8
0-0
  6
JWW_DASHED1
 62
   120
370
     5
100
AcDbLine
 10
-337.0946210866743
 20
-838.2387691186597
 30
0.0
 11
-87.09462108666656
 21
-588.2387691186522
 31
0.0
  0
LINE
  5
AA
330
1F
100
AcDbEntity
  8
0-0
  6
JWW_DASHED1
 62
   120
370
     5
100
AcDbLine
 10
-431.1056195742467
 20
-925.178699792947
 30
0.0
 11
-427.0946210866538
 21
-921.1677013053537
 31
0.0
  0
LINE
  5
AB
330
1F
100
AcDbEntity
  8
0-0
  6
JWW_DASHED1
 62
   120
370
     5
100
AcDbLine
 10
-337.094621086647
 20
-831.1677013053469
 30
0.0
 11
-87.0946210866574
 21
-581.1677013053577
 31
0.0
  0
LINE
  5
AC
330
1F
100
AcDbEntity
  8
0-0
  6
JWW_DASHED1
 62
   120
370
     5
100
AcDbLine
 10
-438.1766873875279
 20
-925.1786997929428
 30
0.0
 11
-427.0946210866581
 21
-914.0966334920724
 31
0.0
  0
LINE
  5
AD
330
1F
100
AcDbEntity
  8
0-0
  6
JWW_DASHED1
 62
   120
370
     5
100
AcDbLine
 10
-337.0946210866513
 20
-824.0966334920656
 30
0.0
 11
-87.09462108666145
 21
-574.0966334920756
 31
0.0
  0
LINE
  5
AE
330
1F
100
AcDbEntity
  8
0-0
  6
JWW_DASHED1
 62
   120
370
     5
100
AcDbLine
 10
-445.2477552008096
 20
-925.1786997929385
 30
0.0
 11
-427.0946210866615
 21
-907.0255656787904
 31
0.0
  0
LINE
  5
AF
330
1F
100
AcDbEntity
  8
0-0
  6
JWW_DASHED1
 62
   120
370
     5
100
AcDbLine
 10
-337.0946210866543
 20
-817.0255656787836
 30
0.0
 11
-87.09462108666251
 21
-567.0255656787918
 31
0.0
  0
LINE
  5
B0
330
1F
100
AcDbEntity
  8
0-0
  6
JWW_DASHED1
 62
   120
370
     5
100
AcDbLine
 10
-452.318823014046
 20
-925.178699792944
 30
0.0
 11
-427.0946210866543
 21
-899.9544978655523
 31
0.0
  0
LINE
  5
B1
330
1F
100
AcDbEntity
  8
0-0
  6
JWW_DASHED1
 62
   120
370
     5
100
AcDbLine
 10
-337.0946210866624
 20
-809.9544978655604
 30
0.0
 11
-87.09462108667083
 21
-559.954497865569
 31
0.0
  0
LINE
  5
B2
330
1F
100
AcDbEntity
  8
0-0
  6
JWW_DASHED1
 62
   120
370
     5
100
AcDbLine
 10
-459.3898908273289
 20
-925.1786997929414
 30
0.0
 11
-427.0946210866581
 21
-892.883430052271
 31
0.0
  0
LINE
  5
B3
330
1F
100
AcDbEntity
  8
0-0
  6
JWW_DASHED1
 62
   120
370
     5
100
AcDbLine
 10
-337.0946210866666
 20
-802.8834300522792
 30
0.0
 11
-87.09462108665932
 21
-552.883430052272
 31
0.0
  0
LINE
  5
B4
330
1F
100
AcDbEntity
  8
0-0
  6
JWW_DASHED1
 62
   120
370
     5
100
AcDbLine
 10
-466.4609586406102
 20
-925.1786997929377
 30
0.0
 11
-427.0946210866624
 21
-885.8123622389894
 31
0.0
  0
LINE
  5
B5
330
1F
100
AcDbEntity
  8
0-0
  6
JWW_DASHED1
 62
   120
370
     5
100
AcDbLine
 10
-337.0946210866705
 20
-795.8123622389975
 30
0.0
 11
-87.09462108666358
 21
-545.8123622389908
 31
0.0
  0
LINE
  5
B6
330
1F
100
AcDbEntity
  8
0-0
  6
JWW_DASHED1
 62
   120
370
     5
100
AcDbLine
 10
-473.5320264539072
 20
-925.1786997929491
 30
0.0
 11
-427.0946210866509
 21
-878.7412944256924
 31
0.0
  0
LINE
  5
B7
330
1F
100
AcDbEntity
  8
0-0
  6
JWW_DASHED1
 62
   120
370
     5
100
AcDbLine
 10
-337.0946210866441
 20
-788.741294425686
 30
0.0
 11
-87.09462108665441
 21
-538.741294425696
 31
0.0
  0
LINE
  5
B8
330
1F
100
AcDbEntity
  8
0-0
  6
JWW_DASHED1
 62
   120
370
     5
100
AcDbLine
 10
-480.6030942671888
 20
-925.1786997929448
 30
0.0
 11
-427.0946210866551
 21
-871.6702266124112
 31
0.0
  0
LINE
  5
B9
330
1F
100
AcDbEntity
  8
0-0
  6
JWW_DASHED1
 62
   120
370
     5
100
AcDbLine
 10
-337.0946210866483
 20
-781.6702266124043
 30
0.0
 11
-87.09462108665868
 21
-531.6702266124148
 31
0.0
  0
LINE
  5
BA
330
1F
100
AcDbEntity
  8
0-0
  6
JWW_DASHED1
 62
   120
370
     5
100
AcDbLine
 10
-487.67416208047
 20
-925.1786997929406
 30
0.0
 11
-427.0946210866585
 21
-864.5991587991296
 31
0.0
  0
LINE
  5
BB
330
1F
100
AcDbEntity
  8
0-0
  6
JWW_DASHED1
 62
   120
370
     5
100
AcDbLine
 10
-337.0946210866513
 20
-774.5991587991218
 30
0.0
 11
-87.09462108665953
 21
-524.5991587991301
 31
0.0
  0
LINE
  5
BC
330
1F
100
AcDbEntity
  8
0-0
  6
JWW_DASHED1
 62
   120
370
     5
100
AcDbLine
 10
-494.7452298937512
 20
-925.1786997929364
 30
0.0
 11
-427.0946210866628
 21
-857.5280909858479
 31
0.0
  0
LINE
  5
BD
330
1F
100
AcDbEntity
  8
0-0
  6
JWW_DASHED1
 62
   120
370
     5
100
AcDbLine
 10
-337.0946210866551
 20
-767.5280909858402
 30
0.0
 11
-87.09462108666337
 21
-517.5280909858488
 31
0.0
  0
LINE
  5
BE
330
1F
100
AcDbEntity
  8
0-0
  6
JWW_DASHED1
 62
   120
370
     5
100
AcDbLine
 10
-501.8162977070324
 20
-925.1786997929321
 30
0.0
 11
-427.0946210866666
 21
-850.4570231725667
 31
0.0
  0
LINE
  5
BF
330
1F
100
AcDbEntity
  8
0-0
  6
JWW_DASHED1
 62
   120
370
     5
100
AcDbLine
 10
-337.0946210866589
 20
-760.457023172559
 30
0.0
 11
-87.09462108666763
 21
-510.4570231725672
 31
0.0
  0
LINE
  5
C0
330
1F
100
AcDbEntity
  8
0-0
  6
JWW_DASHED1
 62
   120
370
     5
100
AcDbLine
 10
-508.8873655203247
 20
-925.1786997929389
 30
0.0
 11
-427.0946210866551
 21
-843.3859553592692
 31
0.0
  0
LINE
  5
C1
330
1F
100
AcDbEntity
  8
0-0
  6
JWW_DASHED1
 62
   120
370
     5
100
AcDbLine
 10
-337.0946210866632
 20
-753.3859553592774
 30
0.0
 11
-87.09462108665569
 21
-503.3859553592703
 31
0.0
  0
LINE
  5
C2
330
1F
100
AcDbEntity
  8
0-0
  6
JWW_DASHED1
 62
   120
370
     5
100
AcDbLine
 10
-515.9584333335523
 20
-925.1786997929355
 30
0.0
 11
-427.0946210866632
 21
-836.3148875460465
 31
0.0
  0
LINE
  5
C3
330
1F
100
AcDbEntity
  8
0-0
  6
JWW_DASHED1
 62
   120
370
     5
100
AcDbLine
 10
-337.0946210866717
 20
-746.3148875460549
 30
0.0
 11
-87.09462108666443
 21
-496.3148875460479
 31
0.0
  0
LINE
  5
C4
330
1F
100
AcDbEntity
  8
0-0
  6
JWW_DASHED1
 62
   120
370
     5
100
AcDbLine
 10
-523.0295011468493
 20
-925.178699792947
 30
0.0
 11
-427.0946210866526
 21
-829.2438197327504
 31
0.0
  0
LINE
  5
C5
330
1F
100
AcDbEntity
  8
0-0
  6
JWW_DASHED1
 62
   120
370
     5
100
AcDbLine
 10
-337.0946210866458
 20
-739.2438197327435
 30
0.0
 11
-87.0946210866559
 21
-489.2438197327539
 31
0.0
  0
LINE
  5
C6
330
1F
100
AcDbEntity
  8
0-0
  6
JWW_DASHED1
 62
   120
370
     5
100
AcDbLine
 10
-530.1005689601304
 20
-925.1786997929428
 30
0.0
 11
-427.0946210866564
 21
-822.1727519194691
 31
0.0
  0
LINE
  5
C7
330
1F
100
AcDbEntity
  8
0-0
  6
JWW_DASHED1
 62
   120
370
     5
100
AcDbLine
 10
-337.0946210866496
 20
-732.1727519194619
 30
0.0
 11
-87.09462108665996
 21
-482.1727519194727
 31
0.0
  0
LINE
  5
C8
330
1F
100
AcDbEntity
  8
0-0
  6
JWW_DASHED1
 62
   120
370
     5
100
AcDbLine
 10
-537.1716367734117
 20
-925.1786997929385
 30
0.0
 11
-427.0946210866594
 21
-815.1016841061867
 31
0.0
  0
LINE
  5
C9
330
1F
100
AcDbEntity
  8
0-0
  6
JWW_DASHED1
 62
   120
370
     5
100
AcDbLine
 10
-337.0946210866517
 20
-725.1016841061785
 30
0.0
 11
-87.09462108665996
 21
-475.1016841061872
 31
0.0
  0
LINE
  5
CA
330
1F
100
AcDbEntity
  8
0-0
  6
JWW_DASHED1
 62
   120
370
     5
100
AcDbLine
 10
-544.2427045866929
 20
-925.1786997929343
 30
0.0
 11
-427.0946210866632
 21
-808.0306162929046
 31
0.0
  0
LINE
  5
CB
330
1F
100
AcDbEntity
  8
0-0
  6
JWW_DASHED1
 62
   120
370
     5
100
AcDbLine
 10
-337.094621086656
 20
-718.0306162928973
 30
0.0
 11
-87.09462108666422
 21
-468.030616292906
 31
0.0
  0
LINE
  5
CC
330
1F
100
AcDbEntity
  8
0-0
  6
JWW_DASHED1
 62
   120
370
     5
100
AcDbLine
 10
-551.3137723999822
 20
-925.1786997929385
 30
0.0
 11
-427.0946210866517
 21
-800.9595484796075
 31
0.0
  0
LINE
  5
CD
330
1F
100
AcDbEntity
  8
0-0
  6
JWW_DASHED1
 62
   120
370
     5
100
AcDbLine
 10
-337.09462108666
 20
-710.9595484796157
 30
0.0
 11
-87.09462108666848
 21
-460.9595484796243
 31
0.0
  0
LINE
  5
CE
330
1F
100
AcDbEntity
  8
0-0
  6
JWW_DASHED1
 62
   120
370
     5
100
AcDbLine
 10
-558.3848402132635
 20
-925.1786997929338
 30
0.0
 11
-427.094621086656
 21
-793.8884806663264
 31
0.0
  0
LINE
  5
CF
330
1F
100
AcDbEntity
  8
0-0
  6
JWW_DASHED1
 62
   120
370
     5
100
AcDbLine
 10
-337.0946210866639
 20
-703.8884806663344
 30
0.0
 11
-87.09462108665633
 21
-453.8884806663269
 31
0.0
  0
LINE
  5
D0
330
1F
100
AcDbEntity
  8
0-0
  6
JWW_DASHED1
 62
   120
370
     5
100
AcDbLine
 10
-565.4559080265524
 20
-925.1786997929377
 30
0.0
 11
-427.0946210866594
 21
-786.8174128530443
 31
0.0
  0
LINE
  5
D1
330
1F
100
AcDbEntity
  8
0-0
  6
JWW_DASHED1
 62
   120
370
     5
100
AcDbLine
 10
-337.0946210866677
 20
-696.8174128530528
 30
0.0
 11
-87.0946210866606
 21
-446.8174128530453
 31
0.0
  0
LINE
  5
D2
330
1F
100
AcDbEntity
  8
0-0
  6
JWW_DASHED1
 62
   120
370
     5
100
AcDbLine
 10
-572.5269758398344
 20
-925.1786997929338
 30
0.0
 11
-427.0946210866637
 21
-779.746345039763
 31
0.0
  0
LINE
  5
D3
330
1F
100
AcDbEntity
  8
0-0
  6
JWW_DASHED1
 62
   120
370
     5
100
AcDbLine
 10
-337.094621086672
 20
-689.7463450397715
 30
0.0
 11
-87.09462108666465
 21
-439.746345039764
 31
0.0
  0
LINE
  5
D4
330
1F
100
AcDbEntity
  8
0-0
  6
JWW_DASHED1
 62
   120
370
     5
100
AcDbLine
 10
-579.5980436531314
 20
-925.1786997929453
 30
0.0
 11
-427.094621086653
 21
-772.675277226467
 31
0.0
  0
LINE
  5
D5
330
1F
100
AcDbEntity
  8
0-0
  6
JWW_DASHED1
 62
   120
370
     5
100
AcDbLine
 10
-337.0946210866464
 20
-682.6752772264601
 30
0.0
 11
-87.09462108665676
 21
-432.6752772264709
 31
0.0
  0
LINE
  5
D6
330
1F
100
AcDbEntity
  8
0-0
  6
JWW_DASHED1
 62
   120
370
     5
100
AcDbLine
 10
-586.6691114663533
 20
-925.1786997929364
 30
0.0
 11
-427.0946210866603
 21
-765.6042094132437
 31
0.0
  0
LINE
  5
D7
330
1F
100
AcDbEntity
  8
0-0
  6
JWW_DASHED1
 62
   120
370
     5
100
AcDbLine
 10
-337.0946210866524
 20
-675.6042094132356
 30
0.0
 11
-87.09462108666081
 21
-425.6042094132442
 31
0.0
  0
LINE
  5
D8
330
1F
100
AcDbEntity
  8
0-0
  6
JWW_DASHED1
 62
   120
370
     5
100
AcDbLine
 10
-593.7401792796346
 20
-925.1786997929321
 30
0.0
 11
-427.0946210866641
 21
-758.5331415999616
 31
0.0
  0
LINE
  5
D9
330
1F
100
AcDbEntity
  8
0-0
  6
JWW_DASHED1
 62
   120
370
     5
100
AcDbLine
 10
-337.0946210866566
 20
-668.5331415999543
 30
0.0
 11
-87.09462108666507
 21
-418.533141599963
 31
0.0
  0
LINE
  5
DA
330
1F
100
AcDbEntity
  8
0-0
  6
JWW_DASHED1
 62
   120
370
     5
100
AcDbLine
 10
-600.8112470929209
 20
-925.178699792933
 30
0.0
 11
-427.0946210866521
 21
-751.4620737866642
 31
0.0
  0
LINE
  5
DB
330
1F
100
AcDbEntity
  8
0-0
  6
JWW_DASHED1
 62
   120
370
     5
100
AcDbLine
 10
-337.0946210866609
 20
-661.4620737866727
 30
0.0
 11
-87.09462108666933
 21
-411.4620737866813
 31
0.0
  0
LINE
  5
DC
330
1F
100
AcDbEntity
  8
0-0
  6
JWW_DASHED1
 62
   120
370
     5
100
AcDbLine
 10
-607.8823149062022
 20
-925.1786997929287
 30
0.0
 11
-427.0946210866568
 21
-744.3910059733834
 31
0.0
  0
LINE
  5
DD
330
1F
100
AcDbEntity
  8
0-0
  6
JWW_DASHED1
 62
   120
370
     5
100
AcDbLine
 10
-337.0946210866647
 20
-654.3910059733914
 30
0.0
 11
-87.09462108665718
 21
-404.3910059733839
 31
0.0
  0
LINE
  5
DE
330
1F
100
AcDbEntity
  8
0-0
  6
JWW_DASHED1
 62
   120
370
     5
100
AcDbLine
 10
-614.9533827194948
 20
-925.178699792936
 30
0.0
 11
-427.0946210866603
 21
-737.3199381601013
 31
0.0
  0
LINE
  5
DF
330
1F
100
AcDbEntity
  8
0-0
  6
JWW_DASHED1
 62
   120
370
     5
100
AcDbLine
 10
-337.094621086669
 20
-647.3199381601103
 30
0.0
 11
-87.09462108666123
 21
-397.3199381601023
 31
0.0
  0
LINE
  5
E0
330
1F
100
AcDbEntity
  8
0-0
  6
JWW_DASHED1
 62
   120
370
     5
100
AcDbLine
 10
-622.0244505327756
 20
-925.1786997929312
 30
0.0
 11
-427.0946210866645
 21
-730.2488703468201
 31
0.0
  0
LINE
  5
E1
330
1F
100
AcDbEntity
  8
0-0
  6
JWW_DASHED1
 62
   120
370
     5
100
AcDbLine
 10
-337.0946210866728
 20
-640.2488703468282
 30
0.0
 11
-87.0946210866655
 21
-390.2488703468211
 31
0.0
  0
LINE
  5
E2
330
1F
100
AcDbEntity
  8
0-0
  6
JWW_DASHED1
 62
   120
370
     5
100
AcDbLine
 10
-629.0955183460726
 20
-925.1786997929428
 30
0.0
 11
-427.0946210866543
 21
-723.1778025335244
 31
0.0
  0
LINE
  5
E3
330
1F
100
AcDbEntity
  8
0-0
  6
JWW_DASHED1
 62
   120
370
     5
100
AcDbLine
 10
-337.0946210866475
 20
-633.1778025335179
 30
0.0
 11
-87.09462108665825
 21
-383.1778025335288
 31
0.0
  0
LINE
  5
E4
330
1F
100
AcDbEntity
  8
0-0
  6
JWW_DASHED1
 62
   120
370
     5
100
AcDbLine
 10
-636.1665861593539
 20
-925.1786997929385
 30
0.0
 11
-427.0946210866585
 21
-716.1067347202431
 31
0.0
  0
LINE
  5
E5
330
1F
100
AcDbEntity
  8
0-0
  6
JWW_DASHED1
 62
   120
370
     5
100
AcDbLine
 10
-337.0946210866517
 20
-626.1067347202363
 30
0.0
 11
-87.09462108666209
 21
-376.1067347202467
 31
0.0
  0
LINE
  5
E6
330
1F
100
AcDbEntity
  8
0-0
  6
JWW_DASHED1
 62
   120
370
     5
100
AcDbLine
 10
-643.2376539726355
 20
-925.1786997929346
 30
0.0
 11
-427.0946210866607
 21
-709.0356669069603
 31
0.0
  0
LINE
  5
E7
330
1F
100
AcDbEntity
  8
0-0
  6
JWW_DASHED1
 62
   120
370
     5
100
AcDbLine
 10
-337.0946210866532
 20
-619.0356669069522
 30
0.0
 11
-87.09462108666187
 21
-369.0356669069612
 31
0.0
  0
LINE
  5
E8
330
1F
100
AcDbEntity
  8
0-0
  6
JWW_DASHED1
 62
   120
370
     5
100
AcDbLine
 10
-650.3087217858596
 20
-925.1786997929278
 30
0.0
 11
-427.094621086653
 21
-701.9645990937213
 31
0.0
  0
LINE
  5
E9
330
1F
100
AcDbEntity
  8
0-0
  6
JWW_DASHED1
 62
   120
370
     5
100
AcDbLine
 10
-337.0946210866617
 20
-611.9645990937297
 30
0.0
 11
-87.09462108666997
 21
-361.9645990937385
 31
0.0
  0
LINE
  5
EA
330
1F
100
AcDbEntity
  8
0-0
  6
JWW_DASHED1
 62
   120
370
     5
100
AcDbLine
 10
-657.3797895991548
 20
-925.178699792938
 30
0.0
 11
-427.0946210866577
 21
-694.8935312804405
 31
0.0
  0
LINE
  5
EB
330
1F
100
AcDbEntity
  8
0-0
  6
JWW_DASHED1
 62
   120
370
     5
100
AcDbLine
 10
-337.0946210866656
 20
-604.8935312804485
 30
0.0
 11
-87.09462108665804
 21
-354.893531280441
 31
0.0
  0
LINE
  5
EC
330
1F
100
AcDbEntity
  8
0-0
  6
JWW_DASHED1
 62
   120
370
     5
100
AcDbLine
 10
-664.4508574124361
 20
-925.1786997929333
 30
0.0
 11
-427.0946210866611
 21
-687.8224634671584
 31
0.0
  0
LINE
  5
ED
330
1F
100
AcDbEntity
  8
0-0
  6
JWW_DASHED1
 62
   120
370
     5
100
AcDbLine
 10
-337.0946210866698
 20
-597.8224634671674
 30
0.0
 11
-87.09462108666209
 21
-347.8224634671594
 31
0.0
  0
LINE
  5
EE
330
1F
100
AcDbEntity
  8
0-0
  6
JWW_DASHED1
 62
   120
370
     5
100
AcDbLine
 10
-671.5219252257331
 20
-925.1786997929448
 30
0.0
 11
-427.0946210866517
 21
-680.7513956538635
 31
0.0
  0
LINE
  5
EF
330
1F
100
AcDbEntity
  8
0-0
  6
JWW_DASHED1
 62
   120
370
     5
100
AcDbLine
 10
-337.0946210866447
 20
-590.7513956538567
 30
0.0
 11
-87.09462108665548
 21
-340.7513956538675
 31
0.0
  0
LINE
  5
F0
330
1F
100
AcDbEntity
  8
0-0
  6
JWW_DASHED1
 62
   120
370
     5
100
AcDbLine
 10
-677.0946210866609
 20
-923.6803278405873
 30
0.0
 11
-427.0946210866555
 21
-673.6803278405819
 31
0.0
  0
LINE
  5
F1
330
1F
100
AcDbEntity
  8
0-0
  6
JWW_DASHED1
 62
   120
370
     5
100
AcDbLine
 10
-337.0946210866489
 20
-583.680327840575
 30
0.0
 11
-87.0946210866591
 21
-333.6803278405858
 31
0.0
  0
LINE
  5
F2
330
1F
100
AcDbEntity
  8
0-0
  6
JWW_DASHED1
 62
   120
370
     5
100
AcDbLine
 10
-677.0946210866648
 20
-916.609260027306
 30
0.0
 11
-427.0946210866572
 21
-666.6092600272985
 31
0.0
  0
LINE
  5
F3
330
1F
100
AcDbEntity
  8
0-0
  6
JWW_DASHED1
 62
   120
370
     5
100
AcDbLine
 10
-337.09462108665
 20
-576.6092600272913
 30
0.0
 11
-87.09462108665846
 21
-326.6092600272995
 31
0.0
  0
LINE
  5
F4
330
1F
100
AcDbEntity
  8
0-0
  6
JWW_DASHED1
 62
   120
370
     5
100
AcDbLine
 10
-677.094621086669
 20
-909.5381922140244
 30
0.0
 11
-427.0946210866615
 21
-659.5381922140168
 31
0.0
  0
LINE
  5
F5
330
1F
100
AcDbEntity
  8
0-0
  6
JWW_DASHED1
 62
   120
370
     5
100
AcDbLine
 10
-337.0946210866538
 20
-569.5381922140092
 30
0.0
 11
-87.0946210866623
 21
-319.5381922140178
 31
0.0
  0
LINE
  5
F6
330
1F
100
AcDbEntity
  8
0-0
  6
JWW_DASHED1
 62
   120
370
     5
100
AcDbLine
 10
-677.0946210866729
 20
-902.4671244007432
 30
0.0
 11
-427.0946210866654
 21
-652.4671244007357
 31
0.0
  0
LINE
  5
F7
330
1F
100
AcDbEntity
  8
0-0
  6
JWW_DASHED1
 62
   120
370
     5
100
AcDbLine
 10
-337.0946210866579
 20
-562.4671244007279
 30
0.0
 11
-87.09462108666656
 21
-312.4671244007367
 31
0.0
  0
LINE
  5
F8
330
1F
100
AcDbEntity
  8
0-0
  6
JWW_DASHED1
 62
   120
370
     5
100
AcDbLine
 10
-677.0946210866772
 20
-895.3960565874615
 30
0.0
 11
-427.0946210866538
 21
-645.3960565874387
 31
0.0
  0
LINE
  5
F9
330
1F
100
AcDbEntity
  8
0-0
  6
JWW_DASHED1
 62
   120
370
     5
100
AcDbLine
 10
-337.094621086662
 20
-555.3960565874468
 30
0.0
 11
-87.0946210866704
 21
-305.396056587455
 31
0.0
  0
LINE
  5
FA
330
1F
100
AcDbEntity
  8
0-0
  6
JWW_DASHED1
 62
   120
370
     5
100
AcDbLine
 10
-677.0946210866653
 20
-888.3249887741641
 30
0.0
 11
-427.0946210866577
 21
-638.324988774157
 31
0.0
  0
LINE
  5
FB
330
1F
100
AcDbEntity
  8
0-0
  6
JWW_DASHED1
 62
   120
370
     5
100
AcDbLine
 10
-337.0946210866662
 20
-548.3249887741656
 30
0.0
 11
-87.09462108665868
 21
-298.3249887741576
 31
0.0
  0
LINE
  5
FC
330
1F
100
AcDbEntity
  8
0-0
  6
JWW_DASHED1
 62
   120
370
     5
100
AcDbLine
 10
-677.0946210866584
 20
-881.2539209609264
 30
0.0
 11
-427.094621086653
 21
-631.253920960921
 31
0.0
  0
LINE
  5
FD
330
1F
100
AcDbEntity
  8
0-0
  6
JWW_DASHED1
 62
   120
370
     5
100
AcDbLine
 10
-337.0946210866462
 20
-541.2539209609142
 30
0.0
 11
-87.09462108665633
 21
-291.2539209609246
 31
0.0
  0
LINE
  5
FE
330
1F
100
AcDbEntity
  8
0-0
  6
JWW_DASHED1
 62
   120
370
     5
100
AcDbLine
 10
-677.0946210866622
 20
-874.1828531476448
 30
0.0
 11
-427.0946210866571
 21
-624.1828531476398
 31
0.0
  0
LINE
  5
FF
330
1F
100
AcDbEntity
  8
0-0
  6
JWW_DASHED1
 62
   120
370
     5
100
AcDbLine
 10
-337.09462108665
 20
-534.182853147633
 30
0.0
 11
-87.0946210866606
 21
-284.1828531476433
 31
0.0
  0
LINE
  5
100
330
1F
100
AcDbEntity
  8
0-0
  6
JWW_DASHED1
 62
   120
370
     5
100
AcDbLine
 10
-677.0946210866656
 20
-867.111785334363
 30
0.0
 11
-427.0946210866583
 21
-617.1117853343551
 31
0.0
  0
LINE
  5
101
330
1F
100
AcDbEntity
  8
0-0
  6
JWW_DASHED1
 62
   120
370
     5
100
AcDbLine
 10
-337.0946210866509
 20
-527.1117853343483
 30
0.0
 11
-87.09462108665932
 21
-277.1117853343566
 31
0.0
  0
LINE
  5
102
330
1F
100
AcDbEntity
  8
0-0
  6
JWW_DASHED1
 62
   120
370
     5
100
AcDbLine
 10
-677.0946210866699
 20
-860.0407175210814
 30
0.0
 11
-427.0946210866624
 21
-610.0407175210739
 31
0.0
  0
LINE
  5
103
330
1F
100
AcDbEntity
  8
0-0
  6
JWW_DASHED1
 62
   120
370
     5
100
AcDbLine
 10
-337.0946210866547
 20
-520.0407175210662
 30
0.0
 11
-87.09462108666358
 21
-270.0407175210754
 31
0.0
  0
LINE
  5
104
330
1F
100
AcDbEntity
  8
0-0
  6
JWW_DASHED1
 62
   120
370
     5
100
AcDbLine
 10
-677.0946210866738
 20
-852.9696497078003
 30
0.0
 11
-427.0946210866504
 21
-602.9696497077765
 31
0.0
  0
LINE
  5
105
330
1F
100
AcDbEntity
  8
0-0
  6
JWW_DASHED1
 62
   120
370
     5
100
AcDbLine
 10
-337.0946210866589
 20
-512.969649707785
 30
0.0
 11
-87.09462108666742
 21
-262.9696497077937
 31
0.0
  0
LINE
  5
106
330
1F
100
AcDbEntity
  8
0-0
  6
JWW_DASHED1
 62
   120
370
     5
100
AcDbLine
 10
-677.094621086678
 20
-845.8985818945187
 30
0.0
 11
-427.0946210866545
 21
-595.8985818944952
 31
0.0
  0
LINE
  5
107
330
1F
100
AcDbEntity
  8
0-0
  6
JWW_DASHED1
 62
   120
370
     5
100
AcDbLine
 10
-337.0946210866628
 20
-505.8985818945038
 30
0.0
 11
-87.09462108665569
 21
-255.8985818944963
 31
0.0
  0
LINE
  5
108
330
1F
100
AcDbEntity
  8
0-0
  6
JWW_DASHED1
 62
   120
370
     5
100
AcDbLine
 10
-677.094621086666
 20
-838.8275140812211
 30
0.0
 11
-427.0946210866588
 21
-588.8275140812141
 31
0.0
  0
LINE
  5
109
330
1F
100
AcDbEntity
  8
0-0
  6
JWW_DASHED1
 62
   120
370
     5
100
AcDbLine
 10
-337.0946210866671
 20
-498.8275140812226
 30
0.0
 11
-87.09462108665953
 21
-248.8275140812146
 31
0.0
  0
LINE
  5
10A
330
1F
100
AcDbEntity
  8
0-0
  6
JWW_DASHED1
 62
   120
370
     5
100
AcDbLine
 10
-677.0946210866704
 20
-831.75644626794
 30
0.0
 11
-427.0946210866624
 21
-581.756446267932
 31
0.0
  0
LINE
  5
10B
330
1F
100
AcDbEntity
  8
0-0
  6
JWW_DASHED1
 62
   120
370
     5
100
AcDbLine
 10
-337.0946210866713
 20
-491.756446267941
 30
0.0
 11
-87.09462108666337
 21
-241.7564462679334
 31
0.0
  0
LINE
  5
10C
330
1F
100
AcDbEntity
  8
0-0
  6
JWW_DASHED1
 62
   120
370
     5
100
AcDbLine
 10
-677.0946210866592
 20
-824.6853784546433
 30
0.0
 11
-427.0946210866538
 21
-574.685378454638
 31
0.0
  0
LINE
  5
10D
330
1F
100
AcDbEntity
  8
0-0
  6
JWW_DASHED1
 62
   120
370
     5
100
AcDbLine
 10
-337.094621086647
 20
-484.6853784546312
 30
0.0
 11
-87.0946210866574
 21
-234.6853784546416
 31
0.0
  0
LINE
  5
10E
330
1F
100
AcDbEntity
  8
0-0
  6
JWW_DASHED1
 62
   120
370
     5
100
AcDbLine
 10
-677.0946210866665
 20
-817.6143106414202
 30
0.0
 11
-427.0946210866592
 21
-567.6143106414122
 31
0.0
  0
LINE
  5
10F
330
1F
100
AcDbEntity
  8
0-0
  6
JWW_DASHED1
 62
   120
370
     5
100
AcDbLine
 10
-337.0946210866517
 20
-477.6143106414054
 30
0.0
 11
-87.09462108666017
 21
-227.6143106414136
 31
0.0
  0
LINE
  5
110
330
1F
100
AcDbEntity
  8
0-0
  6
JWW_DASHED1
 62
   120
370
     5
100
AcDbLine
 10
-677.0946210866704
 20
-810.5432428281385
 30
0.0
 11
-427.0946210866632
 21
-560.543242828131
 31
0.0
  0
LINE
  5
111
330
1F
100
AcDbEntity
  8
0-0
  6
JWW_DASHED1
 62
   120
370
     5
100
AcDbLine
 10
-337.094621086656
 20
-470.5432428281238
 30
0.0
 11
-87.09462108666443
 21
-220.5432428281324
 31
0.0
  0
LINE
  5
112
330
1F
100
AcDbEntity
  8
0-0
  6
JWW_DASHED1
 62
   120
370
     5
100
AcDbLine
 10
-677.0946210866746
 20
-803.4721750148573
 30
0.0
 11
-427.0946210866513
 21
-553.4721750148335
 31
0.0
  0
LINE
  5
113
330
1F
100
AcDbEntity
  8
0-0
  6
JWW_DASHED1
 62
   120
370
     5
100
AcDbLine
 10
-337.0946210866598
 20
-463.4721750148421
 30
0.0
 11
-87.09462108666827
 21
-213.4721750148508
 31
0.0
  0
LINE
  5
114
330
1F
100
AcDbEntity
  8
0-0
  6
JWW_DASHED1
 62
   120
370
     5
100
AcDbLine
 10
-677.0946210866784
 20
-796.4011072015752
 30
0.0
 11
-427.0946210866554
 21
-546.4011072015523
 31
0.0
  0
LINE
  5
115
330
1F
100
AcDbEntity
  8
0-0
  6
JWW_DASHED1
 62
   120
370
     5
100
AcDbLine
 10
-337.0946210866637
 20
-456.4011072015609
 30
0.0
 11
-87.09462108665612
 21
-206.4011072015529
 31
0.0
  0
LINE
  5
116
330
1F
100
AcDbEntity
  8
0-0
  6
JWW_DASHED1
 62
   120
370
     5
100
AcDbLine
 10
-677.094621086667
 20
-789.3300393882782
 30
0.0
 11
-427.0946210866596
 21
-539.3300393882712
 31
0.0
  0
LINE
  5
117
330
1F
100
AcDbEntity
  8
0-0
  6
JWW_DASHED1
 62
   120
370
     5
100
AcDbLine
 10
-337.0946210866675
 20
-449.3300393882788
 30
0.0
 11
-87.09462108665996
 21
-199.3300393882717
 31
0.0
  0
LINE
  5
118
330
1F
100
AcDbEntity
  8
0-0
  6
JWW_DASHED1
 62
   120
370
     5
100
AcDbLine
 10
-677.0946210866712
 20
-782.2589715749971
 30
0.0
 11
-427.0946210866632
 21
-532.2589715749891
 31
0.0
  0
LINE
  5
119
330
1F
100
AcDbEntity
  8
0-0
  6
JWW_DASHED1
 62
   120
370
     5
100
AcDbLine
 10
-337.0946210866717
 20
-442.2589715749976
 30
0.0
 11
-87.09462108666422
 21
-192.2589715749905
 31
0.0
  0
LINE
  5
11A
330
1F
100
AcDbEntity
  8
0-0
  6
JWW_DASHED1
 62
   120
370
     5
100
AcDbLine
 10
-677.0946210866605
 20
-775.1879037617009
 30
0.0
 11
-427.0946210866549
 21
-525.1879037616955
 31
0.0
  0
LINE
  5
11B
330
1F
100
AcDbEntity
  8
0-0
  6
JWW_DASHED1
 62
   120
370
     5
100
AcDbLine
 10
-337.0946210866485
 20
-435.1879037616891
 30
0.0
 11
-87.09462108665868
 21
-185.187903761699
 31
0.0
  0
LINE
  5
11C
330
1F
100
AcDbEntity
  8
0-0
  6
JWW_DASHED1
 62
   120
370
     5
100
AcDbLine
 10
-677.0946210866643
 20
-768.1168359484193
 30
0.0
 11
-427.0946210866589
 21
-518.1168359484138
 31
0.0
  0
LINE
  5
11D
330
1F
100
AcDbEntity
  8
0-0
  6
JWW_DASHED1
 62
   120
370
     5
100
AcDbLine
 10
-337.0946210866521
 20
-428.116835948407
 30
0.0
 11
-87.09462108666294
 21
-178.1168359484178
 31
0.0
  0
LINE
  5
11E
330
1F
100
AcDbEntity
  8
0-0
  6
JWW_DASHED1
 62
   120
370
     5
100
AcDbLine
 10
-677.094621086667
 20
-761.0457681351363
 30
0.0
 11
-427.0946210866598
 21
-511.0457681351292
 31
0.0
  0
LINE
  5
11F
330
1F
100
AcDbEntity
  8
0-0
  6
JWW_DASHED1
 62
   120
370
     5
100
AcDbLine
 10
-337.0946210866521
 20
-421.0457681351215
 30
0.0
 11
-87.0946210866606
 21
-171.0457681351298
 31
0.0
  0
LINE
  5
120
330
1F
100
AcDbEntity
  8
0-0
  6
JWW_DASHED1
 62
   120
370
     5
100
AcDbLine
 10
-677.0946210866755
 20
-753.9747003219144
 30
0.0
 11
-427.0946210866524
 21
-503.9747003218911
 31
0.0
  0
LINE
  5
121
330
1F
100
AcDbEntity
  8
0-0
  6
JWW_DASHED1
 62
   120
370
     5
100
AcDbLine
 10
-337.0946210866603
 20
-413.9747003218991
 30
0.0
 11
-87.0946210866687
 21
-163.9747003219074
 31
0.0
  0
LINE
  5
122
330
1F
100
AcDbEntity
  8
0-0
  6
JWW_DASHED1
 62
   120
370
     5
100
AcDbLine
 10
-677.0946210866639
 20
-746.903632508617
 30
0.0
 11
-427.0946210866562
 21
-496.9036325086094
 31
0.0
  0
LINE
  5
123
330
1F
100
AcDbEntity
  8
0-0
  6
JWW_DASHED1
 62
   120
370
     5
100
AcDbLine
 10
-337.0946210866645
 20
-406.9036325086179
 30
0.0
 11
-87.09462108665697
 21
-156.90363250861
 31
0.0
  0
LINE
  5
124
330
1F
100
AcDbEntity
  8
0-0
  6
JWW_DASHED1
 62
   120
370
     5
100
AcDbLine
 10
-677.0946210866678
 20
-739.8325646953353
 30
0.0
 11
-427.0946210866605
 21
-489.8325646953282
 31
0.0
  0
LINE
  5
125
330
1F
100
AcDbEntity
  8
0-0
  6
JWW_DASHED1
 62
   120
370
     5
100
AcDbLine
 10
-337.0946210866683
 20
-399.8325646953359
 30
0.0
 11
-87.09462108666081
 21
-149.8325646953288
 31
0.0
  0
LINE
  5
126
330
1F
100
AcDbEntity
  8
0-0
  6
JWW_DASHED1
 62
   120
370
     5
100
AcDbLine
 10
-677.0946210866575
 20
-732.7614968820396
 30
0.0
 11
-427.0946210866521
 21
-482.7614968820342
 31
0.0
  0
LINE
  5
127
330
1F
100
AcDbEntity
  8
0-0
  6
JWW_DASHED1
 62
   120
370
     5
100
AcDbLine
 10
-337.0946210866451
 20
-392.7614968820274
 30
0.0
 11
-87.0946210866559
 21
-142.7614968820382
 31
0.0
  0
LINE
  5
128
330
1F
100
AcDbEntity
  8
0-0
  6
JWW_DASHED1
 62
   120
370
     5
100
AcDbLine
 10
-677.0946210866614
 20
-725.6904290687584
 30
0.0
 11
-427.0946210866562
 21
-475.690429068753
 31
0.0
  0
LINE
  5
129
330
1F
100
AcDbEntity
  8
0-0
  6
JWW_DASHED1
 62
   120
370
     5
100
AcDbLine
 10
-337.0946210866493
 20
-385.6904290687461
 30
0.0
 11
-87.09462108666017
 21
-135.6904290687569
 31
0.0
  0
LINE
  5
12A
330
1F
100
AcDbEntity
  8
0-0
  6
JWW_DASHED1
 62
   120
370
     5
100
AcDbLine
 10
-677.0946210866639
 20
-718.619361255475
 30
0.0
 11
-427.0946210866566
 21
-468.6193612554679
 31
0.0
  0
LINE
  5
12B
330
1F
100
AcDbEntity
  8
0-0
  6
JWW_DASHED1
 62
   120
370
     5
100
AcDbLine
 10
-337.0946210866487
 20
-378.6193612554598
 30
0.0
 11
-87.0946210866574
 21
-128.6193612554689
 31
0.0
  0
LINE
  5
12C
330
1F
100
AcDbEntity
  8
0-0
  6
JWW_DASHED1
 62
   120
370
     5
100
AcDbLine
 10
-677.0946210866678
 20
-711.5482934421934
 30
0.0
 11
-427.0946210866607
 21
-461.5482934421863
 31
0.0
  0
LINE
  5
12D
330
1F
100
AcDbEntity
  8
0-0
  6
JWW_DASHED1
 62
   120
370
     5
100
AcDbLine
 10
-337.0946210866532
 20
-371.548293442179
 30
0.0
 11
-87.09462108666123
 21
-121.5482934421868
 31
0.0
  0
LINE
  5
12E
330
1F
100
AcDbEntity
  8
0-0
  6
JWW_DASHED1
 62
   120
370
     5
100
AcDbLine
 10
-677.0946210866716
 20
-704.4772256289122
 30
0.0
 11
-427.0946210866645
 21
-454.4772256289046
 31
0.0
  0
LINE
  5
12F
330
1F
100
AcDbEntity
  8
0-0
  6
JWW_DASHED1
 62
   120
370
     5
100
AcDbLine
 10
-337.0946210866571
 20
-364.4772256288974
 30
0.0
 11
-87.0946210866655
 21
-114.4772256289056
 31
0.0
  0
LINE
  5
130
330
1F
100
AcDbEntity
  8
0-0
  6
JWW_DASHED1
 62
   120
370
     5
100
AcDbLine
 10
-677.0946210866758
 20
-697.4061578156305
 30
0.0
 11
-427.0946210866528
 21
-447.4061578156076
 31
0.0
  0
LINE
  5
131
330
1F
100
AcDbEntity
  8
0-0
  6
JWW_DASHED1
 62
   120
370
     5
100
AcDbLine
 10
-337.0946210866611
 20
-357.4061578156158
 30
0.0
 11
-87.09462108666933
 21
-107.4061578156244
 31
0.0
  0
LINE
  5
132
330
1F
100
AcDbEntity
  8
0-0
  6
JWW_DASHED1
 62
   120
370
     5
100
AcDbLine
 10
-677.0946210866643
 20
-690.3350900023336
 30
0.0
 11
-427.0946210866572
 21
-440.3350900023264
 31
0.0
  0
LINE
  5
133
330
1F
100
AcDbEntity
  8
0-0
  6
JWW_DASHED1
 62
   120
370
     5
100
AcDbLine
 10
-337.0946210866649
 20
-350.3350900023341
 30
0.0
 11
-87.09462108665761
 21
-100.335090002327
 31
0.0
  0
LINE
  5
134
330
1F
100
AcDbEntity
  8
0-0
  6
JWW_DASHED1
 62
   120
370
     5
100
AcDbLine
 10
-677.0946210866588
 20
-683.2640221890971
 30
0.0
 11
-427.0946210866534
 21
-433.2640221890916
 31
0.0
  0
LINE
  5
135
330
1F
100
AcDbEntity
  8
0-0
  6
JWW_DASHED1
 62
   120
370
     5
100
AcDbLine
 10
-337.0946210866466
 20
-343.2640221890853
 30
0.0
 11
-87.09462108665718
 21
-93.26402218909564
 31
0.0
  0
LINE
  5
136
330
1F
100
AcDbEntity
  8
0-0
  6
JWW_DASHED1
 62
   120
370
     5
100
AcDbLine
 10
-677.0946210866626
 20
-676.1929543758154
 30
0.0
 11
-427.0946210866572
 21
-426.19295437581
 31
0.0
  0
LINE
  5
137
330
1F
100
AcDbEntity
  8
0-0
  6
JWW_DASHED1
 62
   120
370
     5
100
AcDbLine
 10
-337.0946210866509
 20
-336.1929543758037
 30
0.0
 11
-87.09462108666102
 21
-86.192954375814
 31
0.0
  0
LINE
  5
138
330
1F
100
AcDbEntity
  8
0-0
  6
JWW_DASHED1
 62
   120
370
     5
100
AcDbLine
 10
-677.0946210866648
 20
-669.121886562532
 30
0.0
 11
-427.0946210866575
 21
-419.121886562525
 31
0.0
  0
LINE
  5
139
330
1F
100
AcDbEntity
  8
0-0
  6
JWW_DASHED1
 62
   120
370
     5
100
AcDbLine
 10
-337.0946210866496
 20
-329.1218865625169
 30
0.0
 11
-87.09462108665804
 21
-79.12188656252553
 31
0.0
  0
LINE
  5
13A
330
1F
100
AcDbEntity
  8
0-0
  6
JWW_DASHED1
 62
   120
370
     5
100
AcDbLine
 10
-677.0946210866687
 20
-662.0508187492504
 30
0.0
 11
-427.0946210866615
 21
-412.0508187492433
 31
0.0
  0
LINE
  5
13B
330
1F
100
AcDbEntity
  8
0-0
  6
JWW_DASHED1
 62
   120
370
     5
100
AcDbLine
 10
-337.0946210866538
 20
-322.0508187492356
 30
0.0
 11
-87.09462108666209
 21
-72.05081874924389
 31
0.0
  0
LINE
  5
13C
330
1F
100
AcDbEntity
  8
0-0
  6
JWW_DASHED1
 62
   120
370
     5
100
AcDbLine
 10
-677.0946210866724
 20
-654.9797509359688
 30
0.0
 11
-427.0946210866496
 21
-404.9797509359459
 31
0.0
  0
LINE
  5
13D
330
1F
100
AcDbEntity
  8
0-0
  6
JWW_DASHED1
 62
   120
370
     5
100
AcDbLine
 10
-337.0946210866579
 20
-314.9797509359544
 30
0.0
 11
-87.09462108666635
 21
-64.97975093596267
 31
0.0
  0
LINE
  5
13E
330
1F
100
AcDbEntity
  8
0-0
  6
JWW_DASHED1
 62
   120
370
     5
100
AcDbLine
 10
-677.0946210866767
 20
-647.9086831226875
 30
0.0
 11
-427.0946210866534
 21
-397.9086831226647
 31
0.0
  0
LINE
  5
13F
330
1F
100
AcDbEntity
  8
0-0
  6
JWW_DASHED1
 62
   120
370
     5
100
AcDbLine
 10
-337.0946210866617
 20
-307.9086831226728
 30
0.0
 11
-87.0946210866542
 21
-57.90868312266525
 31
0.0
  0
LINE
  5
140
330
1F
100
AcDbEntity
  8
0-0
  6
JWW_DASHED1
 62
   120
370
     5
100
AcDbLine
 10
-677.0946210866648
 20
-640.8376153093906
 30
0.0
 11
-427.0946210866581
 21
-390.8376153093835
 31
0.0
  0
LINE
  5
141
330
1F
100
AcDbEntity
  8
0-0
  6
JWW_DASHED1
 62
   120
370
     5
100
AcDbLine
 10
-337.0946210866658
 20
-300.8376153093911
 30
0.0
 11
-87.09462108665846
 21
-50.83761530938403
 31
0.0
  0
LINE
  5
142
330
1F
100
AcDbEntity
  8
0-0
  6
JWW_DASHED1
 62
   120
370
     5
100
AcDbLine
 10
-677.094621086669
 20
-633.766547496109
 30
0.0
 11
-427.0946210866615
 21
-383.7665474961014
 31
0.0
  0
LINE
  5
143
330
1F
100
AcDbEntity
  8
0-0
  6
JWW_DASHED1
 62
   120
370
     5
100
AcDbLine
 10
-337.0946210866698
 20
-293.7665474961099
 30
0.0
 11
-87.09462108666273
 21
-43.76654749610282
 31
0.0
  0
LINE
  5
144
330
1F
100
AcDbEntity
  8
0-0
  6
JWW_DASHED1
 62
   120
370
     5
100
AcDbLine
 10
-677.0946210866597
 20
-626.6954796828145
 30
0.0
 11
-427.0946210866543
 21
-376.6954796828091
 31
0.0
  0
LINE
  5
145
330
1F
100
AcDbEntity
  8
0-0
  6
JWW_DASHED1
 62
   120
370
     5
100
AcDbLine
 10
-337.0946210866476
 20
-286.6954796828023
 30
0.0
 11
-87.09462108665846
 21
-36.69547968281307
 31
0.0
  0
LINE
  5
146
330
1F
100
AcDbEntity
  8
0-0
  6
JWW_DASHED1
 62
   120
370
     5
100
AcDbLine
 10
-677.0946210866656
 20
-619.6244118695892
 30
0.0
 11
-427.0946210866583
 21
-369.624411869582
 31
0.0
  0
LINE
  5
147
330
1F
100
AcDbEntity
  8
0-0
  6
JWW_DASHED1
 62
   120
370
     5
100
AcDbLine
 10
-337.0946210866506
 20
-279.6244118695744
 30
0.0
 11
-87.09462108665889
 21
-29.62441186958259
 31
0.0
  0
LINE
  5
148
330
1F
100
AcDbEntity
  8
0-0
  6
JWW_DASHED1
 62
   120
370
     5
100
AcDbLine
 10
-677.0946210866695
 20
-612.5533440563074
 30
0.0
 11
-427.094621086662
 21
-362.5533440563004
 31
0.0
  0
LINE
  5
149
330
1F
100
AcDbEntity
  8
0-0
  6
JWW_DASHED1
 62
   120
370
     5
100
AcDbLine
 10
-337.0946210866545
 20
-272.5533440562927
 30
0.0
 11
-87.09462108666294
 21
-22.55334405630094
 31
0.0
  0
LINE
  5
14A
330
1F
100
AcDbEntity
  8
0-0
  6
JWW_DASHED1
 62
   120
370
     5
100
AcDbLine
 10
-677.0946210866738
 20
-605.4822762430263
 30
0.0
 11
-427.0946210866504
 21
-355.482276243003
 31
0.0
  0
LINE
  5
14B
330
1F
100
AcDbEntity
  8
0-0
  6
JWW_DASHED1
 62
   120
370
     5
100
AcDbLine
 10
-337.0946210866588
 20
-265.4822762430115
 30
0.0
 11
-87.0946210866672
 21
-15.48227624301973
 31
0.0
  0
LINE
  5
14C
330
1F
100
AcDbEntity
  8
0-0
  6
JWW_DASHED1
 62
   120
370
     5
100
AcDbLine
 10
-677.0946210866775
 20
-598.4112084297446
 30
0.0
 11
-427.0946210866543
 21
-348.4112084297217
 31
0.0
  0
LINE
  5
14D
330
1F
100
AcDbEntity
  8
0-0
  6
JWW_DASHED1
 62
   120
370
     5
100
AcDbLine
 10
-337.0946210866626
 20
-258.4112084297299
 30
0.0
 11
-87.09462108665505
 21
-8.411208429722308
 31
0.0
  0
LINE
  5
14E
330
1F
100
AcDbEntity
  8
0-0
  6
JWW_DASHED1
 62
   120
370
     5
100
AcDbLine
 10
-677.0946210866656
 20
-591.3401406164476
 30
0.0
 11
-427.0946210866583
 21
-341.3401406164397
 31
0.0
  0
LINE
  5
14F
330
1F
100
AcDbEntity
  8
0-0
  6
JWW_DASHED1
 62
   120
370
     5
100
AcDbLine
 10
-337.0946210866666
 20
-251.3401406164482
 30
0.0
 11
-87.09462108665932
 21
-1.34014061644109
 31
0.0
  0
LINE
  5
150
330
1F
100
AcDbEntity
  8
0-0
  6
JWW_DASHED1
 62
   120
370
     5
100
AcDbLine
 10
-677.0946210866699
 20
-584.269072803166
 30
0.0
 11
-427.0946210866624
 21
-334.2690728031585
 31
0.0
  0
LINE
  5
151
330
1F
100
AcDbEntity
  8
0-0
  6
JWW_DASHED1
 62
   120
370
     5
100
AcDbLine
 10
-337.0946210866707
 20
-244.269072803167
 30
0.0
 11
-87.09462108666358
 21
5.730927196840128
 31
0.0
  0
LINE
  5
152
330
1F
100
AcDbEntity
  8
0-0
  6
JWW_DASHED1
 62
   120
370
     5
100
AcDbLine
 10
-677.0946210866614
 20
-577.198004989872
 30
0.0
 11
-427.0946210866558
 21
-327.1980049898666
 31
0.0
  0
LINE
  5
153
330
1F
100
AcDbEntity
  8
0-0
  6
JWW_DASHED1
 62
   120
370
     5
100
AcDbLine
 10
-337.0946210866489
 20
-237.1980049898598
 30
0.0
 11
-87.09462108665932
 21
12.80199501012987
 31
0.0
  0
LINE
  5
154
330
1F
100
AcDbEntity
  8
0-0
  6
JWW_DASHED1
 62
   120
370
     5
100
AcDbLine
 10
-677.0946210866653
 20
-570.1269371765903
 30
0.0
 11
-427.0946210866596
 21
-320.1269371765849
 31
0.0
  0
LINE
  5
155
330
1F
100
AcDbEntity
  8
0-0
  6
JWW_DASHED1
 62
   120
370
     5
100
AcDbLine
 10
-337.0946210866532
 20
-230.1269371765785
 30
0.0
 11
-87.09462108666337
 21
19.87306282341109
 31
0.0
  0
LINE
  5
156
330
1F
100
AcDbEntity
  8
0-0
  6
JWW_DASHED1
 62
   120
370
     5
100
AcDbLine
 10
-677.094621086666
 20
-563.0558693633056
 30
0.0
 11
-427.0946210866588
 21
-313.0558693632986
 31
0.0
  0
LINE
  5
157
330
1F
100
AcDbEntity
  8
0-0
  6
JWW_DASHED1
 62
   120
370
     5
100
AcDbLine
 10
-337.094621086651
 20
-223.0558693632909
 30
0.0
 11
-87.09462108665974
 21
26.94413063670041
 31
0.0
  0
LINE
  5
158
330
1F
100
AcDbEntity
  8
0-0
  6
JWW_DASHED1
 62
   120
370
     5
100
AcDbLine
 10
-677.0946210866704
 20
-555.9848015500245
 30
0.0
 11
-427.0946210866626
 21
-305.984801550017
 31
0.0
  0
LINE
  5
159
330
1F
100
AcDbEntity
  8
0-0
  6
JWW_DASHED1
 62
   120
370
     5
100
AcDbLine
 10
-337.0946210866549
 20
-215.9848015500093
 30
0.0
 11
-87.09462108666358
 21
34.01519844998205
 31
0.0
  0
LINE
  5
15A
330
1F
100
AcDbEntity
  8
0-0
  6
JWW_DASHED1
 62
   120
370
     5
100
AcDbLine
 10
-677.0946210866784
 20
-548.9137337368016
 30
0.0
 11
-427.0946210866551
 21
-298.9137337367788
 31
0.0
  0
LINE
  5
15B
330
1F
100
AcDbEntity
  8
0-0
  6
JWW_DASHED1
 62
   120
370
     5
100
AcDbLine
 10
-337.0946210866634
 20
-208.9137337367869
 30
0.0
 11
-87.0946210866559
 21
41.08626626322064
 31
0.0
  0
LINE
  5
15C
330
1F
100
AcDbEntity
  8
0-0
  6
JWW_DASHED1
 62
   120
370
     5
100
AcDbLine
 10
-677.0946210866665
 20
-541.8426659235047
 30
0.0
 11
-427.0946210866592
 21
-291.8426659234967
 31
0.0
  0
LINE
  5
15D
330
1F
100
AcDbEntity
  8
0-0
  6
JWW_DASHED1
 62
   120
370
     5
100
AcDbLine
 10
-337.0946210866677
 20
-201.8426659235057
 30
0.0
 11
-87.09462108666017
 21
48.15733407650185
 31
0.0
  0
LINE
  5
15E
330
1F
100
AcDbEntity
  8
0-0
  6
JWW_DASHED1
 62
   120
370
     5
100
AcDbLine
 10
-677.094621086658
 20
-534.7715981102102
 30
0.0
 11
-427.094621086653
 21
-284.7715981102053
 31
0.0
  0
LINE
  5
15F
330
1F
100
AcDbEntity
  8
0-0
  6
JWW_DASHED1
 62
   120
370
     5
100
AcDbLine
 10
-337.0946210866462
 20
-194.7715981101985
 30
0.0
 11
-87.09462108665655
 21
55.22840188979075
 31
0.0
  0
LINE
  5
160
330
1F
100
AcDbEntity
  8
0-0
  6
JWW_DASHED1
 62
   120
370
     5
100
AcDbLine
 10
-677.0946210866622
 20
-527.7005302969291
 30
0.0
 11
-427.0946210866566
 21
-277.7005302969236
 31
0.0
  0
LINE
  5
161
330
1F
100
AcDbEntity
  8
0-0
  6
JWW_DASHED1
 62
   120
370
     5
100
AcDbLine
 10
-337.0946210866502
 20
-187.7005302969172
 30
0.0
 11
-87.0946210866606
 21
62.29946970307239
 31
0.0
  0
LINE
  5
162
330
1F
100
AcDbEntity
  8
0-0
  6
JWW_DASHED1
 62
   120
370
     5
100
AcDbLine
 10
-677.0946210866631
 20
-520.6294624836444
 30
0.0
 11
-427.0946210866554
 21
-270.6294624836369
 31
0.0
  0
LINE
  5
163
330
1F
100
AcDbEntity
  8
0-0
  6
JWW_DASHED1
 62
   120
370
     5
100
AcDbLine
 10
-337.0946210866481
 20
-180.6294624836292
 30
0.0
 11
-87.09462108665633
 21
69.37053751636213
 31
0.0
  0
LINE
  5
164
330
1F
100
AcDbEntity
  8
0-0
  6
JWW_DASHED1
 62
   120
370
     5
100
AcDbLine
 10
-677.094621086667
 20
-513.5583946703628
 30
0.0
 11
-427.0946210866596
 21
-263.5583946703557
 31
0.0
  0
LINE
  5
165
330
1F
100
AcDbEntity
  8
0-0
  6
JWW_DASHED1
 62
   120
370
     5
100
AcDbLine
 10
-337.094621086652
 20
-173.558394670348
 30
0.0
 11
-87.09462108666038
 21
76.44160532964378
 31
0.0
  0
LINE
  5
166
330
1F
100
AcDbEntity
  8
0-0
  6
JWW_DASHED1
 62
   120
370
     5
100
AcDbLine
 10
-677.0946210866712
 20
-506.4873268570815
 30
0.0
 11
-427.0946210866637
 21
-256.4873268570744
 31
0.0
  0
LINE
  5
167
330
1F
100
AcDbEntity
  8
0-0
  6
JWW_DASHED1
 62
   120
370
     5
100
AcDbLine
 10
-337.0946210866558
 20
-166.4873268570663
 30
0.0
 11
-87.09462108666422
 21
83.512673142925
 31
0.0
  0
LINE
  5
168
330
1F
100
AcDbEntity
  8
0-0
  6
JWW_DASHED1
 62
   120
370
     5
100
AcDbLine
 10
-677.094621086675
 20
-499.4162590438003
 30
0.0
 11
-427.0946210866517
 21
-249.4162590437766
 31
0.0
  0
LINE
  5
169
330
1F
100
AcDbEntity
  8
0-0
  6
JWW_DASHED1
 62
   120
370
     5
100
AcDbLine
 10
-337.09462108666
 20
-159.4162590437851
 30
0.0
 11
-87.09462108666848
 21
90.58374095620621
 31
0.0
  0
LINE
  5
16A
330
1F
100
AcDbEntity
  8
0-0
  6
JWW_DASHED1
 62
   120
370
     5
100
AcDbLine
 10
-677.0946210866631
 20
-492.3451912305025
 30
0.0
 11
-427.0946210866558
 21
-242.3451912304954
 31
0.0
  0
LINE
  5
16B
330
1F
100
AcDbEntity
  8
0-0
  6
JWW_DASHED1
 62
   120
370
     5
100
AcDbLine
 10
-337.0946210866639
 20
-152.3451912305035
 30
0.0
 11
-87.09462108665655
 21
97.65480876950363
 31
0.0
  0
LINE
  5
16C
330
1F
100
AcDbEntity
  8
0-0
  6
JWW_DASHED1
 62
   120
370
     5
100
AcDbLine
 10
-677.0946210866592
 20
-485.2741234172677
 30
0.0
 11
-427.0946210866538
 21
-235.2741234172623
 31
0.0
  0
LINE
  5
16D
330
1F
100
AcDbEntity
  8
0-0
  6
JWW_DASHED1
 62
   120
370
     5
100
AcDbLine
 10
-337.094621086647
 20
-145.2741234172555
 30
0.0
 11
-87.09462108665761
 21
104.7258765827337
 31
0.0
  0
LINE
  5
16E
330
1F
100
AcDbEntity
  8
0-0
  6
JWW_DASHED1
 62
   120
370
     5
100
AcDbLine
 10
-677.0946210866636
 20
-478.2030556039865
 30
0.0
 11
-427.0946210866581
 21
-228.2030556039811
 31
0.0
  0
LINE
  5
16F
330
1F
100
AcDbEntity
  8
0-0
  6
JWW_DASHED1
 62
   120
370
     5
100
AcDbLine
 10
-337.0946210866513
 20
-138.2030556039743
 30
0.0
 11
-87.09462108666145
 21
111.7969443960153
 31
0.0
  0
LINE
  5
170
330
1F
100
AcDbEntity
  8
0-0
  6
JWW_DASHED1
 62
   120
370
     5
100
AcDbLine
 10
-677.0946210866636
 20
-471.131987790701
 30
0.0
 11
-427.0946210866562
 21
-221.1319877906939
 31
0.0
  0
LINE
  5
171
330
1F
100
AcDbEntity
  8
0-0
  6
JWW_DASHED1
 62
   120
370
     5
100
AcDbLine
 10
-337.0946210866489
 20
-131.1319877906863
 30
0.0
 11
-87.09462108665718
 21
118.8680122093051
 31
0.0
  0
LINE
  5
172
330
1F
100
AcDbEntity
  8
0-0
  6
JWW_DASHED1
 62
   120
370
     5
100
AcDbLine
 10
-677.0946210866678
 20
-464.0609199774198
 30
0.0
 11
-427.0946210866605
 21
-214.0609199774127
 31
0.0
  0
LINE
  5
173
330
1F
100
AcDbEntity
  8
0-0
  6
JWW_DASHED1
 62
   120
370
     5
100
AcDbLine
 10
-337.0946210866528
 20
-124.060919977405
 30
0.0
 11
-87.09462108666123
 21
125.9390800225867
 31
0.0
  0
LINE
  5
174
330
1F
100
AcDbEntity
  8
0-0
  6
JWW_DASHED1
 62
   120
370
     5
100
AcDbLine
 10
-677.0946210866721
 20
-456.9898521641386
 30
0.0
 11
-427.0946210866645
 21
-206.9898521641315
 31
0.0
  0
LINE
  5
175
330
1F
100
AcDbEntity
  8
0-0
  6
JWW_DASHED1
 62
   120
370
     5
100
AcDbLine
 10
-337.0946210866566
 20
-116.9898521641234
 30
0.0
 11
-87.09462108666507
 21
133.0101478358679
 31
0.0
  0
LINE
  5
176
330
1F
100
AcDbEntity
  8
0-0
  6
JWW_DASHED1
 62
   120
370
     5
100
AcDbLine
 10
-677.0946210866758
 20
-449.918784350857
 30
0.0
 11
-427.0946210866526
 21
-199.9187843508336
 31
0.0
  0
LINE
  5
177
330
1F
100
AcDbEntity
  8
0-0
  6
JWW_DASHED1
 62
   120
370
     5
100
AcDbLine
 10
-337.0946210866609
 20
-109.9187843508417
 30
0.0
 11
-87.09462108665356
 21
140.0812156491654
 31
0.0
  0
LINE
  5
178
330
1F
100
AcDbEntity
  8
0-0
  6
JWW_DASHED1
 62
   120
370
     5
100
AcDbLine
 10
-677.0946210866639
 20
-442.8477165375596
 30
0.0
 11
-427.0946210866566
 21
-192.8477165375524
 31
0.0
  0
LINE
  5
179
330
1F
100
AcDbEntity
  8
0-0
  6
JWW_DASHED1
 62
   120
370
     5
100
AcDbLine
 10
-337.0946210866647
 20
-102.8477165375605
 30
0.0
 11
-87.09462108665782
 21
147.1522834624466
 31
0.0
  0
LINE
  5
17A
330
1F
100
AcDbEntity
  8
0-0
  6
JWW_DASHED1
 62
   120
370
     5
100
AcDbLine
 10
-677.0946210866678
 20
-435.7766487242779
 30
0.0
 11
-427.0946210866607
 21
-185.7766487242708
 31
0.0
  0
LINE
  5
17B
330
1F
100
AcDbEntity
  8
0-0
  6
JWW_DASHED1
 62
   120
370
     5
100
AcDbLine
 10
-337.094621086669
 20
-95.77664872427931
 30
0.0
 11
-87.09462108666123
 21
154.2233512757286
 31
0.0
  0
LINE
  5
17C
330
1F
100
AcDbEntity
  8
0-0
  6
JWW_DASHED1
 62
   120
370
     5
100
AcDbLine
 10
-677.0946210866601
 20
-428.7055809109852
 30
0.0
 11
-427.0946210866549
 21
-178.7055809109793
 31
0.0
  0
LINE
  5
17D
330
1F
100
AcDbEntity
  8
0-0
  6
JWW_DASHED1
 62
   120
370
     5
100
AcDbLine
 10
-337.0946210866483
 20
-88.70558091097337
 30
0.0
 11
-87.09462108665889
 21
161.2944190890163
 31
0.0
  0
LINE
  5
17E
330
1F
100
AcDbEntity
  8
0-0
  6
JWW_DASHED1
 62
   120
370
     5
100
AcDbLine
 10
-677.0946210866643
 20
-421.6345130977581
 30
0.0
 11
-427.0946210866571
 21
-171.634513097751
 31
0.0
  0
LINE
  5
17F
330
1F
100
AcDbEntity
  8
0-0
  6
JWW_DASHED1
 62
   120
370
     5
100
AcDbLine
 10
-337.0946210866496
 20
-81.63451309774331
 30
0.0
 11
-87.09462108665804
 21
168.365486902248
 31
0.0
  0
LINE
  5
180
330
1F
100
AcDbEntity
  8
0-0
  6
JWW_DASHED1
 62
   120
370
     5
100
AcDbLine
 10
-677.0946210866687
 20
-414.5634452844769
 30
0.0
 11
-427.0946210866613
 21
-164.5634452844698
 31
0.0
  0
LINE
  5
181
330
1F
100
AcDbEntity
  8
0-0
  6
JWW_DASHED1
 62
   120
370
     5
100
AcDbLine
 10
-337.0946210866537
 20
-74.56344528446209
 30
0.0
 11
-87.09462108666187
 21
175.4365547155297
 31
0.0
  0
LINE
  5
182
330
1F
100
AcDbEntity
  8
0-0
  6
JWW_DASHED1
 62
   120
370
     5
100
AcDbLine
 10
-677.0946210866729
 20
-407.4923774711957
 30
0.0
 11
-427.0946210866492
 21
-157.4923774711723
 31
0.0
  0
LINE
  5
183
330
1F
100
AcDbEntity
  8
0-0
  6
JWW_DASHED1
 62
   120
370
     5
100
AcDbLine
 10
-337.0946210866575
 20
-67.49237747118045
 30
0.0
 11
-87.09462108666592
 21
182.5076225288109
 31
0.0
  0
LINE
  5
184
330
1F
100
AcDbEntity
  8
0-0
  6
JWW_DASHED1
 62
   120
370
     5
100
AcDbLine
 10
-677.0946210866767
 20
-400.421309657914
 30
0.0
 11
-427.0946210866534
 21
-150.4213096578907
 31
0.0
  0
LINE
  5
185
330
1F
100
AcDbEntity
  8
0-0
  6
JWW_DASHED1
 62
   120
370
     5
100
AcDbLine
 10
-337.0946210866617
 20
-60.4213096578988
 30
0.0
 11
-87.09462108665441
 21
189.5786903421083
 31
0.0
  0
LINE
  5
186
330
1F
100
AcDbEntity
  8
0-0
  6
JWW_DASHED1
 62
   120
370
     5
100
AcDbLine
 10
-677.0946210866648
 20
-393.3502418446166
 30
0.0
 11
-427.0946210866575
 21
-143.3502418446095
 31
0.0
  0
LINE
  5
187
330
1F
100
AcDbEntity
  8
0-0
  6
JWW_DASHED1
 62
   120
370
     5
100
AcDbLine
 10
-337.0946210866658
 20
-53.35024184461759
 30
0.0
 11
-87.09462108665825
 21
196.6497581553895
 31
0.0
  0
LINE
  5
188
330
1F
100
AcDbEntity
  8
0-0
  6
JWW_DASHED1
 62
   120
370
     5
100
AcDbLine
 10
-677.0946210866687
 20
-386.2791740313349
 30
0.0
 11
-427.0946210866613
 21
-136.2791740313278
 31
0.0
  0
LINE
  5
189
330
1F
100
AcDbEntity
  8
0-0
  6
JWW_DASHED1
 62
   120
370
     5
100
AcDbLine
 10
-337.0946210866696
 20
-46.27917403133637
 30
0.0
 11
-87.0946210866623
 21
203.7208259686712
 31
0.0
  0
LINE
  5
18A
330
1F
100
AcDbEntity
  8
0-0
  6
JWW_DASHED1
 62
   120
370
     5
100
AcDbLine
 10
-677.0946210866614
 20
-379.2081062180422
 30
0.0
 11
-427.0946210866562
 21
-129.2081062180372
 31
0.0
  0
LINE
  5
18B
330
1F
100
AcDbEntity
  8
0-0
  6
JWW_DASHED1
 62
   120
370
     5
100
AcDbLine
 10
-337.0946210866496
 20
-39.20810621803042
 30
0.0
 11
-87.09462108665996
 21
210.7918937819588
 31
0.0
  0
LINE
  5
18C
330
1F
100
AcDbEntity
  8
0-0
  6
JWW_DASHED1
 62
   120
370
     5
100
AcDbLine
 10
-677.0946210866658
 20
-372.1370384047614
 30
0.0
 11
-427.0946210866605
 21
-122.137038404756
 31
0.0
  0
LINE
  5
18D
330
1F
100
AcDbEntity
  8
0-0
  6
JWW_DASHED1
 62
   120
370
     5
100
AcDbLine
 10
-337.0946210866537
 20
-32.13703840474921
 30
0.0
 11
-87.094621086664
 21
217.8629615952404
 31
0.0
  0
LINE
  5
18E
330
1F
100
AcDbEntity
  8
0-0
  6
JWW_DASHED1
 62
   120
370
     5
100
AcDbLine
 10
-677.0946210866653
 20
-365.0659705914751
 30
0.0
 11
-427.0946210866575
 21
-115.0659705914671
 31
0.0
  0
LINE
  5
18F
330
1F
100
AcDbEntity
  8
0-0
  6
JWW_DASHED1
 62
   120
370
     5
100
AcDbLine
 10
-337.09462108665
 20
-25.06597059146031
 30
0.0
 11
-87.09462108665846
 21
224.9340294085314
 31
0.0
  0
LINE
  5
190
330
1F
100
AcDbEntity
  8
0-0
  6
JWW_DASHED1
 62
   120
370
     5
100
AcDbLine
 10
-677.094621086669
 20
-357.9949027781939
 30
0.0
 11
-427.0946210866615
 21
-107.9949027781859
 31
0.0
  0
LINE
  5
191
330
1F
100
AcDbEntity
  8
0-0
  6
JWW_DASHED1
 62
   120
370
     5
100
AcDbLine
 10
-337.0946210866543
 20
-17.9949027781791
 30
0.0
 11
-87.09462108666251
 21
232.0050972218127
 31
0.0
  0
LINE
  5
192
330
1F
100
AcDbEntity
  8
0-0
  6
JWW_DASHED1
 62
   120
370
     5
100
AcDbLine
 10
-677.0946210866773
 20
-350.9238349649711
 30
0.0
 11
-427.0946210866543
 21
-100.9238349649478
 31
0.0
  0
LINE
  5
193
330
1F
100
AcDbEntity
  8
0-0
  6
JWW_DASHED1
 62
   120
370
     5
100
AcDbLine
 10
-337.0946210866624
 20
-10.92383496495586
 30
0.0
 11
-87.09462108665527
 21
239.0761650350512
 31
0.0
  0
LINE
  5
194
330
1F
100
AcDbEntity
  8
0-0
  6
JWW_DASHED1
 62
   120
370
     5
100
AcDbLine
 10
-677.0946210866656
 20
-343.8527671516737
 30
0.0
 11
-427.0946210866583
 21
-93.85276715166654
 31
0.0
  0
LINE
  5
195
330
1F
100
AcDbEntity
  8
0-0
  6
JWW_DASHED1
 62
   120
370
     5
100
AcDbLine
 10
-337.0946210866666
 20
-3.852767151674641
 30
0.0
 11
-87.0946210866591
 21
246.1472328483325
 31
0.0
  0
LINE
  5
196
330
1F
100
AcDbEntity
  8
0-0
  6
JWW_DASHED1
 62
   120
370
     5
100
AcDbLine
 10
-677.0946210866695
 20
-336.781699338392
 30
0.0
 11
-427.0946210866622
 21
-86.7816993383849
 31
0.0
  0
LINE
  5
197
330
1F
100
AcDbEntity
  8
0-0
  6
JWW_DASHED1
 62
   120
370
     5
100
AcDbLine
 10
-337.0946210866705
 20
3.218300661606577
 30
0.0
 11
-87.09462108666294
 21
253.2183006616145
 31
0.0
  0
LINE
  5
198
330
1F
100
AcDbEntity
  8
0-0
  6
JWW_DASHED1
 62
   120
370
     5
100
AcDbLine
 10
-677.0946210866629
 20
-329.7106315250997
 30
0.0
 11
-427.0946210866577
 21
-79.71063152509515
 31
0.0
  0
LINE
  5
199
330
1F
100
AcDbEntity
  8
0-0
  6
JWW_DASHED1
 62
   120
370
     5
100
AcDbLine
 10
-337.0946210866506
 20
10.2893684749121
 30
0.0
 11
-87.09462108666123
 21
260.2893684749017
 31
0.0
  0
LINE
  5
19A
330
1F
100
AcDbEntity
  8
0-0
  6
JWW_DASHED1
 62
   120
370
     5
100
AcDbLine
 10
-677.0946210866667
 20
-322.6395637118185
 30
0.0
 11
-427.0946210866615
 21
-72.63956371181308
 31
0.0
  0
LINE
  5
19B
330
1F
100
AcDbEntity
  8
0-0
  6
JWW_DASHED1
 62
   120
370
     5
100
AcDbLine
 10
-337.0946210866549
 20
17.36043628819374
 30
0.0
 11
-87.09462108666528
 21
267.3604362881829
 31
0.0
  0
LINE
  5
19C
330
1F
100
AcDbEntity
  8
0-0
  6
JWW_DASHED1
 62
   120
370
     5
100
AcDbLine
 10
-677.094621086666
 20
-315.5684958985321
 30
0.0
 11
-427.0946210866583
 21
-65.56849589852419
 31
0.0
  0
LINE
  5
19D
330
1F
100
AcDbEntity
  8
0-0
  6
JWW_DASHED1
 62
   120
370
     5
100
AcDbLine
 10
-337.0946210866509
 20
24.43150410148263
 30
0.0
 11
-87.09462108665932
 21
274.4315041014744
 31
0.0
  0
LINE
  5
19E
330
1F
100
AcDbEntity
  8
0-0
  6
JWW_DASHED1
 62
   120
370
     5
100
AcDbLine
 10
-677.0946210866697
 20
-308.4974280852505
 30
0.0
 11
-427.0946210866624
 21
-58.49742808524297
 31
0.0
  0
LINE
  5
19F
330
1F
100
AcDbEntity
  8
0-0
  6
JWW_DASHED1
 62
   120
370
     5
100
AcDbLine
 10
-337.0946210866551
 20
31.50257191476385
 30
0.0
 11
-87.09462108666337
 21
281.5025719147556
 31
0.0
  0
LINE
  5
1A0
330
1F
100
AcDbEntity
  8
0-0
  6
JWW_DASHED1
 62
   120
370
     5
100
AcDbLine
 10
-677.0946210866739
 20
-301.4263602719689
 30
0.0
 11
-427.0946210866509
 21
-51.42636027194641
 31
0.0
  0
LINE
  5
1A1
330
1F
100
AcDbEntity
  8
0-0
  6
JWW_DASHED1
 62
   120
370
     5
100
AcDbLine
 10
-337.0946210866589
 20
38.57363972804592
 30
0.0
 11
-87.09462108666742
 21
288.5736397280373
 31
0.0
  0
LINE
  5
1A2
330
1F
100
AcDbEntity
  8
0-0
  6
JWW_DASHED1
 62
   120
370
     5
100
AcDbLine
 10
-677.0946210866621
 20
-294.3552924586719
 30
0.0
 11
-427.0946210866545
 21
-44.35529245866434
 31
0.0
  0
LINE
  5
1A3
330
1F
100
AcDbEntity
  8
0-0
  6
JWW_DASHED1
 62
   120
370
     5
100
AcDbLine
 10
-337.0946210866628
 20
45.64470754132714
 30
0.0
 11
-87.09462108665548
 21
295.6447075413347
 31
0.0
  0
LINE
  5
1A4
330
1F
100
AcDbEntity
  8
0-0
  6
JWW_DASHED1
 62
   120
370
     5
100
AcDbLine
 10
-677.0946210866601
 20
-287.2842246454388
 30
0.0
 11
-427.0946210866547
 21
-37.28422464543343
 31
0.0
  0
LINE
  5
1A5
330
1F
100
AcDbEntity
  8
0-0
  6
JWW_DASHED1
 62
   120
370
     5
100
AcDbLine
 10
-337.0946210866479
 20
52.7157753545734
 30
0.0
 11
-87.09462108665846
 21
302.7157753545626
 31
0.0
  0
LINE
  5
1A6
330
1F
100
AcDbEntity
  8
0-0
  6
JWW_DASHED1
 62
   120
370
     5
100
AcDbLine
 10
-677.0946210866639
 20
-280.2131568321576
 30
0.0
 11
-427.0946210866585
 21
-30.21315683215221
 31
0.0
  0
LINE
  5
1A7
330
1F
100
AcDbEntity
  8
0-0
  6
JWW_DASHED1
 62
   120
370
     5
100
AcDbLine
 10
-337.0946210866517
 20
59.78684316785461
 30
0.0
 11
-87.0946210866623
 21
309.7868431678443
 31
0.0
  0
LINE
  5
1A8
330
1F
100
AcDbEntity
  8
0-0
  6
JWW_DASHED1
 62
   120
370
     5
100
AcDbLine
 10
-677.0946210866626
 20
-273.1420890188704
 30
0.0
 11
-427.0946210866551
 21
-23.14208901886332
 31
0.0
  0
LINE
  5
1A9
330
1F
100
AcDbEntity
  8
0-0
  6
JWW_DASHED1
 62
   120
370
     5
100
AcDbLine
 10
-337.0946210866475
 20
66.85791098114436
 30
0.0
 11
-87.09462108665612
 21
316.8579109811361
 31
0.0
  0
LINE
  5
1AA
330
1F
100
AcDbEntity
  8
0-0
  6
JWW_DASHED1
 62
   120
370
     5
100
AcDbLine
 10
-677.0946210866667
 20
-266.0710212055892
 30
0.0
 11
-427.0946210866589
 21
-16.07102120558125
 31
0.0
  0
LINE
  5
1AB
330
1F
100
AcDbEntity
  8
0-0
  6
JWW_DASHED1
 62
   120
370
     5
100
AcDbLine
 10
-337.0946210866517
 20
73.92897879442557
 30
0.0
 11
-87.09462108666017
 21
323.9289787944173
 31
0.0
  0
LINE
  5
1AC
330
1F
100
AcDbEntity
  8
0-0
  6
JWW_DASHED1
 62
   120
370
     5
100
AcDbLine
 10
-677.0946210866705
 20
-258.9999533923076
 30
0.0
 11
-427.0946210866632
 21
-8.999953392300029
 31
0.0
  0
LINE
  5
1AD
330
1F
100
AcDbEntity
  8
0-0
  6
JWW_DASHED1
 62
   120
370
     5
100
AcDbLine
 10
-337.094621086656
 20
81.00004660770722
 30
0.0
 11
-87.09462108666422
 21
331.0000466076986
 31
0.0
  0
LINE
  5
1AE
330
1F
100
AcDbEntity
  8
0-0
  6
JWW_DASHED1
 62
   120
370
     5
100
AcDbLine
 10
-677.0946210866748
 20
-251.9288855790259
 30
0.0
 11
-427.0946210866515
 21
-1.928885579003037
 31
0.0
  0
LINE
  5
1AF
330
1F
100
AcDbEntity
  8
0-0
  6
JWW_DASHED1
 62
   120
370
     5
100
AcDbLine
 10
-337.0946210866598
 20
88.07111442098886
 30
0.0
 11
-87.09462108665228
 21
338.071114420996
 31
0.0
  0
LINE
  5
1B0
330
1F
100
AcDbEntity
  8
0-0
  6
JWW_DASHED1
 62
   120
370
     5
100
AcDbLine
 10
-677.0946210866629
 20
-244.8578177657289
 30
0.0
 11
-427.0946210866554
 21
5.142182234278607
 31
0.0
  0
LINE
  5
1B1
330
1F
100
AcDbEntity
  8
0-0
  6
JWW_DASHED1
 62
   120
370
     5
100
AcDbLine
 10
-337.0946210866637
 20
95.14218223427008
 30
0.0
 11
-87.09462108665633
 21
345.1421822342776
 31
0.0
  0
LINE
  5
1B2
330
1F
100
AcDbEntity
  8
0-0
  6
JWW_DASHED1
 62
   120
370
     5
100
AcDbLine
 10
-677.0946210866667
 20
-237.7867499524473
 30
0.0
 11
-427.0946210866596
 21
12.21325004755982
 31
0.0
  0
LINE
  5
1B3
330
1F
100
AcDbEntity
  8
0-0
  6
JWW_DASHED1
 62
   120
370
     5
100
AcDbLine
 10
-337.0946210866679
 20
102.2132500475513
 30
0.0
 11
-87.09462108666038
 21
352.2132500475593
 31
0.0
  0
LINE
  5
1B4
330
1F
100
AcDbEntity
  8
0-0
  6
JWW_DASHED1
 62
   120
370
     5
100
AcDbLine
 10
-677.0946210866607
 20
-230.7156821391558
 30
0.0
 11
-427.094621086656
 21
19.28431786084914
 31
0.0
  0
LINE
  5
1B5
330
1F
100
AcDbEntity
  8
0-0
  6
JWW_DASHED1
 62
   120
370
     5
100
AcDbLine
 10
-337.0946210866487
 20
109.2843178608564
 30
0.0
 11
-87.09462108665932
 21
359.2843178608456
 31
0.0
  0
LINE
  5
1B6
330
1F
100
AcDbEntity
  8
0-0
  6
JWW_DASHED1
 62
   120
370
     5
100
AcDbLine
 10
-677.0946210866653
 20
-223.6446143258746
 30
0.0
 11
-427.0946210866598
 21
26.35538567413079
 31
0.0
  0
LINE
  5
1B7
330
1F
100
AcDbEntity
  8
0-0
  6
JWW_DASHED1
 62
   120
370
     5
100
AcDbLine
 10
-337.0946210866528
 20
116.3553856741376
 30
0.0
 11
-87.09462108666315
 21
366.3553856741268
 31
0.0
  0
LINE
  5
1B8
330
1F
100
AcDbEntity
  8
0-0
  6
JWW_DASHED1
 62
   120
370
     5
100
AcDbLine
 10
-677.0946210866675
 20
-216.5735465126463
 30
0.0
 11
-427.0946210866598
 21
33.4264534873617
 31
0.0
  0
LINE
  5
1B9
330
1F
100
AcDbEntity
  8
0-0
  6
JWW_DASHED1
 62
   120
370
     5
100
AcDbLine
 10
-337.0946210866526
 20
123.4264534873685
 30
0.0
 11
-87.09462108666102
 21
373.4264534873603
 31
0.0
  0
LINE
  5
1BA
330
1F
100
AcDbEntity
  8
0-0
  6
JWW_DASHED1
 62
   120
370
     5
100
AcDbLine
 10
-677.0946210866714
 20
-209.5024786993642
 30
0.0
 11
-427.0946210866485
 21
40.49752130065826
 31
0.0
  0
LINE
  5
1BB
330
1F
100
AcDbEntity
  8
0-0
  6
JWW_DASHED1
 62
   120
370
     5
100
AcDbLine
 10
-337.0946210866568
 20
130.4975213006502
 30
0.0
 11
-87.09462108666486
 21
380.4975213006419
 31
0.0
  0
LINE
  5
1BC
330
1F
100
AcDbEntity
  8
0-0
  6
JWW_DASHED1
 62
   120
370
     5
100
AcDbLine
 10
-677.0946210866755
 20
-202.431410886083
 30
0.0
 11
-427.0946210866526
 21
47.56858911393948
 31
0.0
  0
LINE
  5
1BD
330
1F
100
AcDbEntity
  8
0-0
  6
JWW_DASHED1
 62
   120
370
     5
100
AcDbLine
 10
-337.0946210866607
 20
137.5685891139318
 30
0.0
 11
-87.09462108665313
 21
387.5685891139389
 31
0.0
  0
LINE
  5
1BE
330
1F
100
AcDbEntity
  8
0-0
  6
JWW_DASHED1
 62
   120
370
     5
100
AcDbLine
 10
-677.0946210866636
 20
-195.3603430727856
 30
0.0
 11
-427.0946210866562
 21
54.63965692722155
 31
0.0
  0
LINE
  5
1BF
330
1F
100
AcDbEntity
  8
0-0
  6
JWW_DASHED1
 62
   120
370
     5
100
AcDbLine
 10
-337.0946210866645
 20
144.639656927213
 30
0.0
 11
-87.09462108665718
 21
394.6396569272206
 31
0.0
  0
LINE
  5
1C0
330
1F
100
AcDbEntity
  8
0-0
  6
JWW_DASHED1
 62
   120
370
     5
100
AcDbLine
 10
-677.0946210866675
 20
-188.2892752595043
 30
0.0
 11
-427.0946210866605
 21
61.71072474050277
 31
0.0
  0
LINE
  5
1C1
330
1F
100
AcDbEntity
  8
0-0
  6
JWW_DASHED1
 62
   120
370
     5
100
AcDbLine
 10
-337.0946210866688
 20
151.7107247404942
 30
0.0
 11
-87.09462108666123
 21
401.7107247405022
 31
0.0
  0
LINE
  5
1C2
330
1F
100
AcDbEntity
  8
0-0
  6
JWW_DASHED1
 62
   120
370
     5
100
AcDbLine
 10
-677.0946210866622
 20
-181.2182074462133
 30
0.0
 11
-427.0946210866568
 21
68.78179255379209
 31
0.0
  0
LINE
  5
1C3
330
1F
100
AcDbEntity
  8
0-0
  6
JWW_DASHED1
 62
   120
370
     5
100
AcDbLine
 10
-337.09462108665
 20
158.7817925537985
 30
0.0
 11
-87.0946210866606
 21
408.7817925537881
 31
0.0
  0
LINE
  5
1C4
330
1F
100
AcDbEntity
  8
0-0
  6
JWW_DASHED1
 62
   120
370
     5
100
AcDbLine
 10
-677.0946210866663
 20
-174.1471396329321
 30
0.0
 11
-427.0946210866609
 21
75.8528603670733
 31
0.0
  0
LINE
  5
1C5
330
1F
100
AcDbEntity
  8
0-0
  6
JWW_DASHED1
 62
   120
370
     5
100
AcDbLine
 10
-337.0946210866541
 20
165.8528603670801
 30
0.0
 11
-87.09462108666465
 21
415.8528603670698
 31
0.0
  0
LINE
  5
1C6
330
1F
100
AcDbEntity
  8
0-0
  6
JWW_DASHED1
 62
   120
370
     5
100
AcDbLine
 10
-677.0946210866639
 20
-167.0760718196445
 30
0.0
 11
-427.0946210866566
 21
82.92392818036305
 31
0.0
  0
LINE
  5
1C7
330
1F
100
AcDbEntity
  8
0-0
  6
JWW_DASHED1
 62
   120
370
     5
100
AcDbLine
 10
-337.0946210866489
 20
172.9239281803707
 30
0.0
 11
-87.0946210866574
 21
422.9239281803621
 31
0.0
  0
LINE
  5
1C8
330
1F
100
AcDbEntity
  8
0-0
  6
JWW_DASHED1
 62
   120
370
     5
100
AcDbLine
 10
-677.0946210866682
 20
-160.0050040063628
 30
0.0
 11
-427.0946210866607
 21
89.9949959936447
 31
0.0
  0
LINE
  5
1C9
330
1F
100
AcDbEntity
  8
0-0
  6
JWW_DASHED1
 62
   120
370
     5
100
AcDbLine
 10
-337.0946210866532
 20
179.9949959936519
 30
0.0
 11
-87.09462108666166
 21
429.9949959936433
 31
0.0
  0
LINE
  5
1CA
330
1F
100
AcDbEntity
  8
0-0
  6
JWW_DASHED1
 62
   120
370
     5
100
AcDbLine
 10
-677.0946210866763
 20
-152.93393619314
 30
0.0
 11
-427.0946210866532
 21
97.06606380688285
 31
0.0
  0
LINE
  5
1CB
330
1F
100
AcDbEntity
  8
0-0
  6
JWW_DASHED1
 62
   120
370
     5
100
AcDbLine
 10
-337.0946210866611
 20
187.0660638068748
 30
0.0
 11
-87.0946210866542
 21
437.0660638068819
 31
0.0
  0
LINE
  5
1CC
330
1F
100
AcDbEntity
  8
0-0
  6
JWW_DASHED1
 62
   120
370
     5
100
AcDbLine
 10
-677.0946210866646
 20
-145.862868379843
 30
0.0
 11
-427.0946210866571
 21
104.1371316201645
 31
0.0
  0
LINE
  5
1CD
330
1F
100
AcDbEntity
  8
0-0
  6
JWW_DASHED1
 62
   120
370
     5
100
AcDbLine
 10
-337.0946210866654
 20
194.137131620156
 30
0.0
 11
-87.09462108665804
 21
444.1371316201635
 31
0.0
  0
LINE
  5
1CE
330
1F
100
AcDbEntity
  8
0-0
  6
JWW_DASHED1
 62
   120
370
     5
100
AcDbLine
 10
-677.0946210866684
 20
-138.7918005665614
 30
0.0
 11
-427.0946210866613
 21
111.2081994334457
 31
0.0
  0
LINE
  5
1CF
330
1F
100
AcDbEntity
  8
0-0
  6
JWW_DASHED1
 62
   120
370
     5
100
AcDbLine
 10
-337.0946210866696
 20
201.2081994334372
 30
0.0
 11
-87.09462108666187
 21
451.2081994334451
 31
0.0
  0
LINE
  5
1D0
330
1F
100
AcDbEntity
  8
0-0
  6
JWW_DASHED1
 62
   120
370
     5
100
AcDbLine
 10
-677.0946210866637
 20
-131.7207327532708
 30
0.0
 11
-427.0946210866581
 21
118.2792672467346
 31
0.0
  0
LINE
  5
1D1
330
1F
100
AcDbEntity
  8
0-0
  6
JWW_DASHED1
 62
   120
370
     5
100
AcDbLine
 10
-337.0946210866515
 20
208.279267246741
 30
0.0
 11
-87.09462108666166
 21
458.2792672467306
 31
0.0
  0
LINE
  5
1D2
330
1F
100
AcDbEntity
  8
0-0
  6
JWW_DASHED1
 62
   120
370
     5
100
AcDbLine
 10
-677.0946210866675
 20
-124.6496649399896
 30
0.0
 11
-427.0946210866622
 21
125.3503350600158
 31
0.0
  0
LINE
  5
1D3
330
1F
100
AcDbEntity
  8
0-0
  6
JWW_DASHED1
 62
   120
370
     5
100
AcDbLine
 10
-337.0946210866555
 20
215.3503350600226
 30
0.0
 11
-87.09462108666592
 21
465.3503350600118
 31
0.0
  0
LINE
  5
1D4
330
1F
100
AcDbEntity
  8
0-0
  6
JWW_DASHED1
 62
   120
370
     5
100
AcDbLine
 10
-677.0946210866648
 20
-117.5785971267015
 30
0.0
 11
-427.0946210866575
 21
132.421402873306
 31
0.0
  0
LINE
  5
1D5
330
1F
100
AcDbEntity
  8
0-0
  6
JWW_DASHED1
 62
   120
370
     5
100
AcDbLine
 10
-337.0946210866502
 20
222.4214028733132
 30
0.0
 11
-87.09462108665825
 21
472.421402873305
 31
0.0
  0
LINE
  5
1D6
330
1F
100
AcDbEntity
  8
0-0
  6
JWW_DASHED1
 62
   120
370
     5
100
AcDbLine
 10
-677.094621086669
 20
-110.5075293134199
 30
0.0
 11
-427.0946210866613
 21
139.4924706865876
 31
0.0
  0
LINE
  5
1D7
330
1F
100
AcDbEntity
  8
0-0
  6
JWW_DASHED1
 62
   120
370
     5
100
AcDbLine
 10
-337.0946210866541
 20
229.4924706865949
 30
0.0
 11
-87.0946210866623
 21
479.4924706865867
 31
0.0
  0
LINE
  5
1D8
330
1F
100
AcDbEntity
  8
0-0
  6
JWW_DASHED1
 62
   120
370
     5
100
AcDbLine
 10
-677.0946210866729
 20
-103.4364615001383
 30
0.0
 11
-427.0946210866496
 21
146.5635384998851
 31
0.0
  0
LINE
  5
1D9
330
1F
100
AcDbEntity
  8
0-0
  6
JWW_DASHED1
 62
   120
370
     5
100
AcDbLine
 10
-337.0946210866579
 20
236.5635384998765
 30
0.0
 11
-87.09462108666635
 21
486.5635384998683
 31
0.0
  0
LINE
  5
1DA
330
1F
100
AcDbEntity
  8
0-0
  6
JWW_DASHED1
 62
   120
370
     5
100
AcDbLine
 10
-677.0946210866612
 20
-96.36539368684083
 30
0.0
 11
-427.0946210866538
 21
153.6346063131663
 31
0.0
  0
LINE
  5
1DB
330
1F
100
AcDbEntity
  8
0-0
  6
JWW_DASHED1
 62
   120
370
     5
100
AcDbLine
 10
-337.0946210866622
 20
243.6346063131577
 30
0.0
 11
-87.09462108665463
 21
493.6346063131652
 31
0.0
  0
LINE
  5
1DC
330
1F
100
AcDbEntity
  8
0-0
  6
JWW_DASHED1
 62
   120
370
     5
100
AcDbLine
 10
-677.0946210866653
 20
-89.29432587355961
 30
0.0
 11
-427.0946210866579
 21
160.7056741264475
 31
0.0
  0
LINE
  5
1DD
330
1F
100
AcDbEntity
  8
0-0
  6
JWW_DASHED1
 62
   120
370
     5
100
AcDbLine
 10
-337.0946210866658
 20
250.7056741264398
 30
0.0
 11
-87.09462108665868
 21
500.7056741264469
 31
0.0
  0
LINE
  5
1DE
330
1F
100
AcDbEntity
  8
0-0
  6
JWW_DASHED1
 62
   120
370
     5
100
AcDbLine
 10
-677.0946210866643
 20
-82.22325806032785
 30
0.0
 11
-427.0946210866589
 21
167.7767419396775
 31
0.0
  0
LINE
  5
1DF
330
1F
100
AcDbEntity
  8
0-0
  6
JWW_DASHED1
 62
   120
370
     5
100
AcDbLine
 10
-337.0946210866526
 20
257.7767419396835
 30
0.0
 11
-87.09462108666315
 21
507.7767419396731
 31
0.0
  0
LINE
  5
1E0
330
1F
100
AcDbEntity
  8
0-0
  6
JWW_DASHED1
 62
   120
370
     5
100
AcDbLine
 10
-677.0946210866618
 20
-75.15219024703981
 30
0.0
 11
-427.0946210866541
 21
174.8478097529677
 31
0.0
  0
LINE
  5
1E1
330
1F
100
AcDbEntity
  8
0-0
  6
JWW_DASHED1
 62
   120
370
     5
100
AcDbLine
 10
-337.0946210866468
 20
264.847809752975
 30
0.0
 11
-87.09462108665505
 21
514.8478097529667
 31
0.0
  0
LINE
  5
1E2
330
1F
100
AcDbEntity
  8
0-0
  6
JWW_DASHED1
 62
   120
370
     5
100
AcDbLine
 10
-677.0946210866656
 20
-68.0811224337586
 30
0.0
 11
-427.0946210866583
 21
181.9188775662489
 31
0.0
  0
LINE
  5
1E3
330
1F
100
AcDbEntity
  8
0-0
  6
JWW_DASHED1
 62
   120
370
     5
100
AcDbLine
 10
-337.0946210866506
 20
271.9188775662566
 30
0.0
 11
-87.0946210866591
 21
521.9188775662479
 31
0.0
  0
LINE
  5
1E4
330
1F
100
AcDbEntity
  8
0-0
  6
JWW_DASHED1
 62
   120
370
     5
100
AcDbLine
 10
-677.0946210866695
 20
-61.01005462047652
 30
0.0
 11
-427.0946210866626
 21
188.9899453795302
 31
0.0
  0
LINE
  5
1E5
330
1F
100
AcDbEntity
  8
0-0
  6
JWW_DASHED1
 62
   120
370
     5
100
AcDbLine
 10
-337.0946210866545
 20
278.9899453795383
 30
0.0
 11
-87.09462108666294
 21
528.98994537953
 31
0.0
  0
LINE
  5
1E6
330
1F
100
AcDbEntity
  8
0-0
  6
JWW_DASHED1
 62
   120
370
     5
100
AcDbLine
 10
-677.0946210866733
 20
-53.93898680719531
 30
0.0
 11
-427.0946210866504
 21
196.061013192828
 31
0.0
  0
LINE
  5
1E7
330
1F
100
AcDbEntity
  8
0-0
  6
JWW_DASHED1
 62
   120
370
     5
100
AcDbLine
 10
-337.0946210866588
 20
286.0610131928195
 30
0.0
 11
-87.0946210866672
 21
536.0610131928113
 31
0.0
  0
LINE
  5
1E8
330
1F
100
AcDbEntity
  8
0-0
  6
JWW_DASHED1
 62
   120
370
     5
100
AcDbLine
 10
-677.0946210866618
 20
-46.86791899389789
 30
0.0
 11
-427.0946210866547
 21
203.1320810061092
 31
0.0
  0
LINE
  5
1E9
330
1F
100
AcDbEntity
  8
0-0
  6
JWW_DASHED1
 62
   120
370
     5
100
AcDbLine
 10
-337.094621086663
 20
293.1320810061007
 30
0.0
 11
-87.09462108665548
 21
543.1320810061083
 31
0.0
  0
LINE
  5
1EA
330
1F
100
AcDbEntity
  8
0-0
  6
JWW_DASHED1
 62
   120
370
     5
100
AcDbLine
 10
-677.094621086666
 20
-39.79685118061667
 30
0.0
 11
-427.0946210866583
 21
210.2031488193913
 31
0.0
  0
LINE
  5
1EB
330
1F
100
AcDbEntity
  8
0-0
  6
JWW_DASHED1
 62
   120
370
     5
100
AcDbLine
 10
-337.0946210866666
 20
300.2031488193828
 30
0.0
 11
-87.09462108665932
 21
550.2031488193899
 31
0.0
  0
LINE
  5
1EC
330
1F
100
AcDbEntity
  8
0-0
  6
JWW_DASHED1
 62
   120
370
     5
100
AcDbLine
 10
-677.0946210866618
 20
-32.72578336732693
 30
0.0
 11
-427.0946210866564
 21
217.2742166326785
 31
0.0
  0
LINE
  5
1ED
330
1F
100
AcDbEntity
  8
0-0
  6
JWW_DASHED1
 62
   120
370
     5
100
AcDbLine
 10
-337.0946210866493
 20
307.2742166326853
 30
0.0
 11
-87.09462108665974
 21
557.2742166326746
 31
0.0
  0
LINE
  5
1EE
330
1F
100
AcDbEntity
  8
0-0
  6
JWW_DASHED1
 62
   120
370
     5
100
AcDbLine
 10
-677.0946210866656
 20
-25.65471555404571
 30
0.0
 11
-427.0946210866603
 21
224.3452844459597
 31
0.0
  0
LINE
  5
1EF
330
1F
100
AcDbEntity
  8
0-0
  6
JWW_DASHED1
 62
   120
370
     5
100
AcDbLine
 10
-337.0946210866532
 20
314.345284445967
 30
0.0
 11
-87.094621086664
 21
564.3452844459562
 31
0.0
  0
LINE
  5
1F0
330
1F
100
AcDbEntity
  8
0-0
  6
JWW_DASHED1
 62
   120
370
     5
100
AcDbLine
 10
-677.0946210866665
 20
-18.58364774081522
 30
0.0
 11
-427.0946210866592
 21
231.4163522591919
 31
0.0
  0
LINE
  5
1F1
330
1F
100
AcDbEntity
  8
0-0
  6
JWW_DASHED1
 62
   120
370
     5
100
AcDbLine
 10
-337.0946210866515
 20
321.4163522591996
 30
0.0
 11
-87.09462108665996
 21
571.416352259191
 31
0.0
  0
LINE
  5
1F2
330
1F
100
AcDbEntity
  8
0-0
  6
JWW_DASHED1
 62
   120
370
     5
100
AcDbLine
 10
-677.0946210866705
 20
-11.51257992753401
 30
0.0
 11
-427.0946210866475
 21
238.4874200724889
 31
0.0
  0
LINE
  5
1F3
330
1F
100
AcDbEntity
  8
0-0
  6
JWW_DASHED1
 62
   120
370
     5
100
AcDbLine
 10
-337.0946210866554
 20
328.4874200724812
 30
0.0
 11
-87.094621086664
 21
578.4874200724726
 31
0.0
  0
LINE
  5
1F4
330
1F
100
AcDbEntity
  8
0-0
  6
JWW_DASHED1
 62
   120
370
     5
100
AcDbLine
 10
-677.0946210866746
 20
-4.441512114252362
 30
0.0
 11
-427.0946210866513
 21
245.5584878857709
 31
0.0
  0
LINE
  5
1F5
330
1F
100
AcDbEntity
  8
0-0
  6
JWW_DASHED1
 62
   120
370
     5
100
AcDbLine
 10
-337.0946210866596
 20
335.5584878857624
 30
0.0
 11
-87.09462108665207
 21
585.55848788577
 31
0.0
  0
LINE
  5
1F6
330
1F
100
AcDbEntity
  8
0-0
  6
JWW_DASHED1
 62
   120
370
     5
100
AcDbLine
 10
-677.0946210866626
 20
2.629555699045056
 30
0.0
 11
-427.0946210866555
 21
252.6295556990522
 31
0.0
  0
LINE
  5
1F7
330
1F
100
AcDbEntity
  8
0-0
  6
JWW_DASHED1
 62
   120
370
     5
100
AcDbLine
 10
-337.0946210866634
 20
342.6295556990441
 30
0.0
 11
-87.09462108665612
 21
592.6295556990511
 31
0.0
  0
LINE
  5
1F8
330
1F
100
AcDbEntity
  8
0-0
  6
JWW_DASHED1
 62
   120
370
     5
100
AcDbLine
 10
-677.094621086667
 20
9.700623512326274
 30
0.0
 11
-427.0946210866589
 21
259.7006235123342
 31
0.0
  0
LINE
  5
1F9
330
1F
100
AcDbEntity
  8
0-0
  6
JWW_DASHED1
 62
   120
370
     5
100
AcDbLine
 10
-337.0946210866673
 20
349.7006235123257
 30
0.0
 11
-87.09462108666017
 21
599.7006235123329
 31
0.0
  0
LINE
  5
1FA
330
1F
100
AcDbEntity
  8
0-0
  6
JWW_DASHED1
 62
   120
370
     5
100
AcDbLine
 10
-677.0946210866626
 20
16.77169132561602
 30
0.0
 11
-427.0946210866575
 21
266.771691325621
 31
0.0
  0
LINE
  5
1FB
330
1F
100
AcDbEntity
  8
0-0
  6
JWW_DASHED1
 62
   120
370
     5
100
AcDbLine
 10
-337.0946210866509
 20
356.7716913256278
 30
0.0
 11
-87.09462108666123
 21
606.7716913256174
 31
0.0
  0
LINE
  5
1FC
330
1F
100
AcDbEntity
  8
0-0
  6
JWW_DASHED1
 62
   120
370
     5
100
AcDbLine
 10
-677.094621086667
 20
23.84275913889724
 30
0.0
 11
-427.0946210866613
 21
273.8427591389026
 31
0.0
  0
LINE
  5
1FD
330
1F
100
AcDbEntity
  8
0-0
  6
JWW_DASHED1
 62
   120
370
     5
100
AcDbLine
 10
-337.0946210866547
 20
363.8427591389095
 30
0.0
 11
-87.09462108666507
 21
613.8427591388986
 31
0.0
  0
LINE
  5
1FE
330
1F
100
AcDbEntity
  8
0-0
  6
JWW_DASHED1
 62
   120
370
     5
100
AcDbLine
 10
-677.0946210866629
 20
30.91382695218655
 30
0.0
 11
-427.0946210866555
 21
280.9138269521941
 31
0.0
  0
LINE
  5
1FF
330
1F
100
AcDbEntity
  8
0-0
  6
JWW_DASHED1
 62
   120
370
     5
100
AcDbLine
 10
-337.0946210866479
 20
370.9138269522018
 30
0.0
 11
-87.09462108665633
 21
620.9138269521931
 31
0.0
  0
LINE
  5
200
330
1F
100
AcDbEntity
  8
0-0
  6
JWW_DASHED1
 62
   120
370
     5
100
AcDbLine
 10
-677.0946210866667
 20
37.9848947654682
 30
0.0
 11
-427.0946210866596
 21
287.9848947654753
 31
0.0
  0
LINE
  5
201
330
1F
100
AcDbEntity
  8
0-0
  6
JWW_DASHED1
 62
   120
370
     5
100
AcDbLine
 10
-337.0946210866521
 20
377.984894765483
 30
0.0
 11
-87.09462108666038
 21
627.9848947654748
 31
0.0
  0
LINE
  5
202
330
1F
100
AcDbEntity
  8
0-0
  6
JWW_DASHED1
 62
   120
370
     5
100
AcDbLine
 10
-677.0946210866755
 20
45.05596257869058
 30
0.0
 11
-427.0946210866521
 21
295.0559625787139
 31
0.0
  0
LINE
  5
203
330
1F
100
AcDbEntity
  8
0-0
  6
JWW_DASHED1
 62
   120
370
     5
100
AcDbLine
 10
-337.0946210866605
 20
385.0559625787054
 30
0.0
 11
-87.09462108665292
 21
635.0559625787129
 31
0.0
  0
LINE
  5
204
330
1F
100
AcDbEntity
  8
0-0
  6
JWW_DASHED1
 62
   120
370
     5
100
AcDbLine
 10
-677.0946210866636
 20
52.127030391988
 30
0.0
 11
-427.094621086656
 21
302.1270303919951
 31
0.0
  0
LINE
  5
205
330
1F
100
AcDbEntity
  8
0-0
  6
JWW_DASHED1
 62
   120
370
     5
100
AcDbLine
 10
-337.0946210866647
 20
392.1270303919866
 30
0.0
 11
-87.09462108665697
 21
642.1270303919941
 31
0.0
  0
LINE
  5
206
330
1F
100
AcDbEntity
  8
0-0
  6
JWW_DASHED1
 62
   120
370
     5
100
AcDbLine
 10
-677.0946210866678
 20
59.19809820526922
 30
0.0
 11
-427.0946210866598
 21
309.1980982052772
 31
0.0
  0
LINE
  5
207
330
1F
100
AcDbEntity
  8
0-0
  6
JWW_DASHED1
 62
   120
370
     5
100
AcDbLine
 10
-337.0946210866686
 20
399.1980982052683
 30
0.0
 11
-87.09462108666102
 21
649.1980982052758
 31
0.0
  0
LINE
  5
208
330
1F
100
AcDbEntity
  8
0-0
  6
JWW_DASHED1
 62
   120
370
     5
100
AcDbLine
 10
-677.0946210866641
 20
66.26916601855811
 30
0.0
 11
-427.0946210866588
 21
316.2691660185635
 31
0.0
  0
LINE
  5
209
330
1F
100
AcDbEntity
  8
0-0
  6
JWW_DASHED1
 62
   120
370
     5
100
AcDbLine
 10
-337.094621086652
 20
406.2691660185703
 30
0.0
 11
-87.09462108666251
 21
656.2691660185595
 31
0.0
  0
LINE
  5
20A
330
1F
100
AcDbEntity
  8
0-0
  6
JWW_DASHED1
 62
   120
370
     5
100
AcDbLine
 10
-677.094621086668
 20
73.34023383183975
 30
0.0
 11
-427.0946210866628
 21
323.3402338318447
 31
0.0
  0
LINE
  5
20B
330
1F
100
AcDbEntity
  8
0-0
  6
JWW_DASHED1
 62
   120
370
     5
100
AcDbLine
 10
-337.0946210866562
 20
413.3402338318515
 30
0.0
 11
-87.09462108666635
 21
663.3402338318416
 31
0.0
  0
LINE
  5
20C
330
1F
100
AcDbEntity
  8
0-0
  6
JWW_DASHED1
 62
   120
370
     5
100
AcDbLine
 10
-677.0946210866636
 20
80.41130164512992
 30
0.0
 11
-427.0946210866564
 21
330.411301645137
 31
0.0
  0
LINE
  5
20D
330
1F
100
AcDbEntity
  8
0-0
  6
JWW_DASHED1
 62
   120
370
     5
100
AcDbLine
 10
-337.0946210866487
 20
420.4113016451447
 30
0.0
 11
-87.09462108665718
 21
670.4113016451361
 31
0.0
  0
LINE
  5
20E
330
1F
100
AcDbEntity
  8
0-0
  6
JWW_DASHED1
 62
   120
370
     5
100
AcDbLine
 10
-677.0946210866675
 20
87.48236945841114
 30
0.0
 11
-427.0946210866605
 21
337.4823694584182
 31
0.0
  0
LINE
  5
20F
330
1F
100
AcDbEntity
  8
0-0
  6
JWW_DASHED1
 62
   120
370
     5
100
AcDbLine
 10
-337.0946210866528
 20
427.4823694584259
 30
0.0
 11
-87.09462108666102
 21
677.4823694584177
 31
0.0
  0
LINE
  5
210
330
1F
100
AcDbEntity
  8
0-0
  6
JWW_DASHED1
 62
   120
370
     5
100
AcDbLine
 10
-677.0946210866719
 20
94.55343727169236
 30
0.0
 11
-427.0946210866485
 21
344.5534372717157
 31
0.0
  0
LINE
  5
211
330
1F
100
AcDbEntity
  8
0-0
  6
JWW_DASHED1
 62
   120
370
     5
100
AcDbLine
 10
-337.0946210866568
 20
434.5534372717071
 30
0.0
 11
-87.09462108666528
 21
684.5534372716988
 31
0.0
  0
LINE
  5
212
330
1F
100
AcDbEntity
  8
0-0
  6
JWW_DASHED1
 62
   120
370
     5
100
AcDbLine
 10
-677.094621086676
 20
101.6245050849736
 30
0.0
 11
-427.0946210866526
 21
351.6245050849969
 31
0.0
  0
LINE
  5
213
330
1F
100
AcDbEntity
  8
0-0
  6
JWW_DASHED1
 62
   120
370
     5
100
AcDbLine
 10
-337.0946210866611
 20
441.6245050849884
 30
0.0
 11
-87.09462108665356
 21
691.6245050849964
 31
0.0
  0
LINE
  5
214
330
1F
100
AcDbEntity
  8
0-0
  6
JWW_DASHED1
 62
   120
370
     5
100
AcDbLine
 10
-677.0946210866639
 20
108.695572898271
 30
0.0
 11
-427.0946210866566
 21
358.6955728982786
 31
0.0
  0
LINE
  5
215
330
1F
100
AcDbEntity
  8
0-0
  6
JWW_DASHED1
 62
   120
370
     5
100
AcDbLine
 10
-337.0946210866649
 20
448.6955728982704
 30
0.0
 11
-87.0946210866574
 21
698.6955728982775
 31
0.0
  0
LINE
  5
216
330
1F
100
AcDbEntity
  8
0-0
  6
JWW_DASHED1
 62
   120
370
     5
100
AcDbLine
 10
-677.094621086665
 20
115.7666407115011
 30
0.0
 11
-427.09462108666
 21
365.7666407115061
 31
0.0
  0
LINE
  5
217
330
1F
100
AcDbEntity
  8
0-0
  6
JWW_DASHED1
 62
   120
370
     5
100
AcDbLine
 10
-337.0946210866532
 20
455.7666407115129
 30
0.0
 11
-87.09462108666358
 21
705.7666407115025
 31
0.0
  0
LINE
  5
218
330
1F
100
AcDbEntity
  8
0-0
  6
JWW_DASHED1
 62
   120
370
     5
100
AcDbLine
 10
-677.0946210866607
 20
122.8377085247908
 30
0.0
 11
-427.0946210866534
 21
372.8377085247979
 31
0.0
  0
LINE
  5
219
330
1F
100
AcDbEntity
  8
0-0
  6
JWW_DASHED1
 62
   120
370
     5
100
AcDbLine
 10
-337.0946210866458
 20
462.8377085248056
 30
0.0
 11
-87.0946210866542
 21
712.8377085247973
 31
0.0
  0
LINE
  5
21A
330
1F
100
AcDbEntity
  8
0-0
  6
JWW_DASHED1
 62
   120
370
     5
100
AcDbLine
 10
-677.0946210866646
 20
129.9087763380724
 30
0.0
 11
-427.0946210866571
 21
379.90877633808
 31
0.0
  0
LINE
  5
21B
330
1F
100
AcDbEntity
  8
0-0
  6
JWW_DASHED1
 62
   120
370
     5
100
AcDbLine
 10
-337.0946210866496
 20
469.9087763380876
 30
0.0
 11
-87.09462108665804
 21
719.908776338079
 31
0.0
  0
LINE
  5
21C
330
1F
100
AcDbEntity
  8
0-0
  6
JWW_DASHED1
 62
   120
370
     5
100
AcDbLine
 10
-677.0946210866684
 20
136.9798441513541
 30
0.0
 11
-427.0946210866613
 21
386.9798441513612
 31
0.0
  0
LINE
  5
21D
330
1F
100
AcDbEntity
  8
0-0
  6
JWW_DASHED1
 62
   120
370
     5
100
AcDbLine
 10
-337.0946210866538
 20
476.9798441513689
 30
0.0
 11
-87.09462108666187
 21
726.9798441513606
 31
0.0
  0
LINE
  5
21E
330
1F
100
AcDbEntity
  8
0-0
  6
JWW_DASHED1
 62
   120
370
     5
100
AcDbLine
 10
-677.0946210866726
 20
144.0509119646353
 30
0.0
 11
-427.0946210866493
 21
394.0509119646586
 31
0.0
  0
LINE
  5
21F
330
1F
100
AcDbEntity
  8
0-0
  6
JWW_DASHED1
 62
   120
370
     5
100
AcDbLine
 10
-337.0946210866577
 20
484.0509119646501
 30
0.0
 11
-87.09462108666614
 21
734.0509119646418
 31
0.0
  0
LINE
  5
220
330
1F
100
AcDbEntity
  8
0-0
  6
JWW_DASHED1
 62
   120
370
     5
100
AcDbLine
 10
-677.0946210866609
 20
151.1219797779327
 30
0.0
 11
-427.0946210866532
 21
401.1219797779403
 31
0.0
  0
LINE
  5
221
330
1F
100
AcDbEntity
  8
0-0
  6
JWW_DASHED1
 62
   120
370
     5
100
AcDbLine
 10
-337.0946210866615
 20
491.1219797779318
 30
0.0
 11
-87.0946210866542
 21
741.1219797779393
 31
0.0
  0
LINE
  5
222
330
1F
100
AcDbEntity
  8
0-0
  6
JWW_DASHED1
 62
   120
370
     5
100
AcDbLine
 10
-677.0946210866648
 20
158.1930475912139
 30
0.0
 11
-427.0946210866575
 21
408.1930475912214
 31
0.0
  0
LINE
  5
223
330
1F
100
AcDbEntity
  8
0-0
  6
JWW_DASHED1
 62
   120
370
     5
100
AcDbLine
 10
-337.0946210866658
 20
498.1930475912134
 30
0.0
 11
-87.09462108665825
 21
748.1930475912204
 31
0.0
  0
LINE
  5
224
330
1F
100
AcDbEntity
  8
0-0
  6
JWW_DASHED1
 62
   120
370
     5
100
AcDbLine
 10
-677.0946210866622
 20
165.264115404502
 30
0.0
 11
-427.0946210866568
 21
415.2641154045074
 31
0.0
  0
LINE
  5
225
330
1F
100
AcDbEntity
  8
0-0
  6
JWW_DASHED1
 62
   120
370
     5
100
AcDbLine
 10
-337.09462108665
 20
505.2641154045142
 30
0.0
 11
-87.0946210866606
 21
755.2641154045039
 31
0.0
  0
LINE
  5
226
330
1F
100
AcDbEntity
  8
0-0
  6
JWW_DASHED1
 62
   120
370
     5
100
AcDbLine
 10
-677.0946210866663
 20
172.335183217784
 30
0.0
 11
-427.0946210866611
 21
422.3351832177886
 31
0.0
  0
LINE
  5
227
330
1F
100
AcDbEntity
  8
0-0
  6
JWW_DASHED1
 62
   120
370
     5
100
AcDbLine
 10
-337.0946210866541
 20
512.3351832177958
 30
0.0
 11
-87.09462108666443
 21
762.3351832177855
 31
0.0
  0
LINE
  5
228
330
1F
100
AcDbEntity
  8
0-0
  6
JWW_DASHED1
 62
   120
370
     5
100
AcDbLine
 10
-677.0946210866655
 20
179.4062510310154
 30
0.0
 11
-427.0946210866579
 21
429.4062510310229
 31
0.0
  0
LINE
  5
229
330
1F
100
AcDbEntity
  8
0-0
  6
JWW_DASHED1
 62
   120
370
     5
100
AcDbLine
 10
-337.0946210866504
 20
519.4062510310306
 30
0.0
 11
-87.09462108665889
 21
769.406251031022
 31
0.0
  0
LINE
  5
22A
330
1F
100
AcDbEntity
  8
0-0
  6
JWW_DASHED1
 62
   120
370
     5
100
AcDbLine
 10
-677.0946210866692
 20
186.477318844297
 30
0.0
 11
-427.0946210866464
 21
436.4773188443199
 31
0.0
  0
LINE
  5
22B
330
1F
100
AcDbEntity
  8
0-0
  6
JWW_DASHED1
 62
   120
370
     5
100
AcDbLine
 10
-337.0946210866545
 20
526.4773188443119
 30
0.0
 11
-87.09462108666294
 21
776.4773188443036
 31
0.0
  0
LINE
  5
22C
330
1F
100
AcDbEntity
  8
0-0
  6
JWW_DASHED1
 62
   120
370
     5
100
AcDbLine
 10
-677.0946210866736
 20
193.5483866575782
 30
0.0
 11
-427.0946210866502
 21
443.5483866576016
 31
0.0
  0
LINE
  5
22D
330
1F
100
AcDbEntity
  8
0-0
  6
JWW_DASHED1
 62
   120
370
     5
100
AcDbLine
 10
-337.0946210866585
 20
533.548386657593
 30
0.0
 11
-87.09462108665122
 21
783.5483866576005
 31
0.0
  0
LINE
  5
22E
330
1F
100
AcDbEntity
  8
0-0
  6
JWW_DASHED1
 62
   120
370
     5
100
AcDbLine
 10
-677.0946210866618
 20
200.6194544708757
 30
0.0
 11
-427.0946210866541
 21
450.6194544708832
 31
0.0
  0
LINE
  5
22F
330
1F
100
AcDbEntity
  8
0-0
  6
JWW_DASHED1
 62
   120
370
     5
100
AcDbLine
 10
-337.0946210866624
 20
540.6194544708751
 30
0.0
 11
-87.09462108665527
 21
790.6194544708821
 31
0.0
  0
LINE
  5
230
330
1F
100
AcDbEntity
  8
0-0
  6
JWW_DASHED1
 62
   120
370
     5
100
AcDbLine
 10
-677.0946210866656
 20
207.6905222841569
 30
0.0
 11
-427.0946210866583
 21
457.6905222841644
 31
0.0
  0
LINE
  5
231
330
1F
100
AcDbEntity
  8
0-0
  6
JWW_DASHED1
 62
   120
370
     5
100
AcDbLine
 10
-337.0946210866664
 20
547.6905222841563
 30
0.0
 11
-87.0946210866591
 21
797.6905222841634
 31
0.0
  0
LINE
  5
232
330
1F
100
AcDbEntity
  8
0-0
  6
JWW_DASHED1
 62
   120
370
     5
100
AcDbLine
 10
-677.0946210866636
 20
214.7615900974449
 30
0.0
 11
-427.0946210866583
 21
464.7615900974499
 31
0.0
  0
LINE
  5
233
330
1F
100
AcDbEntity
  8
0-0
  6
JWW_DASHED1
 62
   120
370
     5
100
AcDbLine
 10
-337.0946210866513
 20
554.7615900974567
 30
0.0
 11
-87.09462108666166
 21
804.7615900974463
 31
0.0
  0
LINE
  5
234
330
1F
100
AcDbEntity
  8
0-0
  6
JWW_DASHED1
 62
   120
370
     5
100
AcDbLine
 10
-677.0946210866673
 20
221.8326579107261
 30
0.0
 11
-427.0946210866622
 21
471.8326579107315
 31
0.0
  0
LINE
  5
235
330
1F
100
AcDbEntity
  8
0-0
  6
JWW_DASHED1
 62
   120
370
     5
100
AcDbLine
 10
-337.0946210866554
 20
561.8326579107384
 30
0.0
 11
-87.09462108666592
 21
811.8326579107276
 31
0.0
  0
LINE
  5
236
330
1F
100
AcDbEntity
  8
0-0
  6
JWW_DASHED1
 62
   120
370
     5
100
AcDbLine
 10
-677.0946210866618
 20
228.9037257240176
 30
0.0
 11
-427.0946210866547
 21
478.9037257240247
 31
0.0
  0
LINE
  5
237
330
1F
100
AcDbEntity
  8
0-0
  6
JWW_DASHED1
 62
   120
370
     5
100
AcDbLine
 10
-337.094621086647
 20
568.9037257240324
 30
0.0
 11
-87.09462108665527
 21
818.9037257240237
 31
0.0
  0
LINE
  5
238
330
1F
100
AcDbEntity
  8
0-0
  6
JWW_DASHED1
 62
   120
370
     5
100
AcDbLine
 10
-677.094621086666
 20
235.9747935372988
 30
0.0
 11
-427.0946210866588
 21
485.9747935373059
 31
0.0
  0
LINE
  5
239
330
1F
100
AcDbEntity
  8
0-0
  6
JWW_DASHED1
 62
   120
370
     5
100
AcDbLine
 10
-337.094621086651
 20
575.9747935373136
 30
0.0
 11
-87.09462108665953
 21
825.9747935373053
 31
0.0
  0
LINE
  5
23A
330
1F
100
AcDbEntity
  8
0-0
  6
JWW_DASHED1
 62
   120
370
     5
100
AcDbLine
 10
-677.0946210866699
 20
243.04586135058
 30
0.0
 11
-427.0946210866468
 21
493.0458613506033
 31
0.0
  0
LINE
  5
23B
330
1F
100
AcDbEntity
  8
0-0
  6
JWW_DASHED1
 62
   120
370
     5
100
AcDbLine
 10
-337.0946210866551
 20
583.0458613505948
 30
0.0
 11
-87.09462108666337
 21
833.0458613505866
 31
0.0
  0
LINE
  5
23C
330
1F
100
AcDbEntity
  8
0-0
  6
JWW_DASHED1
 62
   120
370
     5
100
AcDbLine
 10
-677.0946210866624
 20
250.1169291638186
 30
0.0
 11
-427.0946210866549
 21
500.1169291638262
 31
0.0
  0
LINE
  5
23D
330
1F
100
AcDbEntity
  8
0-0
  6
JWW_DASHED1
 62
   120
370
     5
100
AcDbLine
 10
-337.0946210866634
 20
590.1169291638176
 30
0.0
 11
-87.09462108665612
 21
840.1169291638251
 31
0.0
  0
LINE
  5
23E
330
1F
100
AcDbEntity
  8
0-0
  6
JWW_DASHED1
 62
   120
370
     5
100
AcDbLine
 10
-677.0946210866665
 20
257.1879969770998
 30
0.0
 11
-427.0946210866589
 21
507.1879969771078
 31
0.0
  0
LINE
  5
23F
330
1F
100
AcDbEntity
  8
0-0
  6
JWW_DASHED1
 62
   120
370
     5
100
AcDbLine
 10
-337.0946210866673
 20
597.1879969770993
 30
0.0
 11
-87.09462108666017
 21
847.1879969771064
 31
0.0
  0
LINE
  5
240
330
1F
100
AcDbEntity
  8
0-0
  6
JWW_DASHED1
 62
   120
370
     5
100
AcDbLine
 10
-677.0946210866646
 20
264.2590647903875
 30
0.0
 11
-427.0946210866594
 21
514.2590647903924
 31
0.0
  0
LINE
  5
241
330
1F
100
AcDbEntity
  8
0-0
  6
JWW_DASHED1
 62
   120
370
     5
100
AcDbLine
 10
-337.0946210866526
 20
604.2590647903992
 30
0.0
 11
-87.09462108666315
 21
854.2590647903888
 31
0.0
  0
LINE
  5
242
330
1F
100
AcDbEntity
  8
0-0
  6
JWW_DASHED1
 62
   120
370
     5
100
AcDbLine
 10
-677.0946210866689
 20
271.3301326036686
 30
0.0
 11
-427.0946210866632
 21
521.3301326036741
 31
0.0
  0
LINE
  5
243
330
1F
100
AcDbEntity
  8
0-0
  6
JWW_DASHED1
 62
   120
370
     5
100
AcDbLine
 10
-337.0946210866566
 20
611.3301326036809
 30
0.0
 11
-87.09462108666699
 21
861.3301326036706
 31
0.0
  0
LINE
  5
244
330
1F
100
AcDbEntity
  8
0-0
  6
JWW_DASHED1
 62
   120
370
     5
100
AcDbLine
 10
-677.0946210866626
 20
278.4012004169605
 30
0.0
 11
-427.0946210866555
 21
528.4012004169676
 31
0.0
  0
LINE
  5
245
330
1F
100
AcDbEntity
  8
0-0
  6
JWW_DASHED1
 62
   120
370
     5
100
AcDbLine
 10
-337.0946210866479
 20
618.4012004169754
 30
0.0
 11
-87.09462108665612
 21
868.4012004169666
 31
0.0
  0
LINE
  5
246
330
1F
100
AcDbEntity
  8
0-0
  6
JWW_DASHED1
 62
   120
370
     5
100
AcDbLine
 10
-677.094621086667
 20
285.4722682302418
 30
0.0
 11
-427.0946210866594
 21
535.4722682302488
 31
0.0
  0
LINE
  5
247
330
1F
100
AcDbEntity
  8
0-0
  6
JWW_DASHED1
 62
   120
370
     5
100
AcDbLine
 10
-337.094621086652
 20
625.4722682302565
 30
0.0
 11
-87.09462108666038
 21
875.4722682302483
 31
0.0
  0
LINE
  5
248
330
1F
100
AcDbEntity
  8
0-0
  6
JWW_DASHED1
 62
   120
370
     5
100
AcDbLine
 10
-677.0946210866707
 20
292.543336043523
 30
0.0
 11
-427.0946210866476
 21
542.5433360435463
 31
0.0
  0
LINE
  5
249
330
1F
100
AcDbEntity
  8
0-0
  6
JWW_DASHED1
 62
   120
370
     5
100
AcDbLine
 10
-337.094621086656
 20
632.5433360435377
 30
0.0
 11
-87.09462108666422
 21
882.5433360435295
 31
0.0
  0
LINE
  5
24A
330
1F
100
AcDbEntity
  8
0-0
  6
JWW_DASHED1
 62
   120
370
     5
100
AcDbLine
 10
-677.0946210866746
 20
299.614403856805
 30
0.0
 11
-427.0946210866515
 21
549.614403856828
 31
0.0
  0
LINE
  5
24B
330
1F
100
AcDbEntity
  8
0-0
  6
JWW_DASHED1
 62
   120
370
     5
100
AcDbLine
 10
-337.0946210866598
 20
639.6144038568198
 30
0.0
 11
-87.0946210866525
 21
889.6144038568269
 31
0.0
  0
LINE
  5
24C
330
1F
100
AcDbEntity
  8
0-0
  6
JWW_DASHED1
 62
   120
370
     5
100
AcDbLine
 10
-677.0946210866633
 20
306.6854716701016
 30
0.0
 11
-427.0946210866555
 21
556.6854716701096
 31
0.0
  0
LINE
  5
24D
330
1F
100
AcDbEntity
  8
0-0
  6
JWW_DASHED1
 62
   120
370
     5
100
AcDbLine
 10
-337.0946210866639
 20
646.685471670101
 30
0.0
 11
-87.09462108665655
 21
896.6854716701082
 31
0.0
  0
LINE
  5
24E
330
1F
100
AcDbEntity
  8
0-0
  6
JWW_DASHED1
 62
   120
370
     5
100
AcDbLine
 10
-677.094621086666
 20
313.75653948333
 30
0.0
 11
-427.0946210866607
 21
563.7565394833354
 31
0.0
  0
LINE
  5
24F
330
1F
100
AcDbEntity
  8
0-0
  6
JWW_DASHED1
 62
   120
370
     5
100
AcDbLine
 10
-337.0946210866538
 20
653.7565394833422
 30
0.0
 11
-87.09462108666443
 21
903.7565394833314
 31
0.0
  0
LINE
  5
250
330
1F
100
AcDbEntity
  8
0-0
  6
JWW_DASHED1
 62
   120
370
     5
100
AcDbLine
 10
-677.0946210866595
 20
320.8276072966223
 30
0.0
 11
-427.0946210866521
 21
570.8276072966294
 31
0.0
  0
LINE
  5
251
330
1F
100
AcDbEntity
  8
0-0
  6
JWW_DASHED1
 62
   120
370
     5
100
AcDbLine
 10
-337.0946210866447
 20
660.8276072966366
 30
0.0
 11
-87.09462108665292
 21
910.8276072966283
 31
0.0
  0
LINE
  5
252
330
1F
100
AcDbEntity
  8
0-0
  6
JWW_DASHED1
 62
   120
370
     5
100
AcDbLine
 10
-677.0946210866636
 20
327.8986751099035
 30
0.0
 11
-427.0946210866562
 21
577.8986751099105
 31
0.0
  0
LINE
  5
253
330
1F
100
AcDbEntity
  8
0-0
  6
JWW_DASHED1
 62
   120
370
     5
100
AcDbLine
 10
-337.0946210866487
 20
667.8986751099183
 30
0.0
 11
-87.09462108665697
 21
917.8986751099096
 31
0.0
  0
LINE
  5
254
330
1F
100
AcDbEntity
  8
0-0
  6
JWW_DASHED1
 62
   120
370
     5
100
AcDbLine
 10
-677.0946210866678
 20
334.9697429231847
 30
0.0
 11
-427.0946210866603
 21
584.9697429231918
 31
0.0
  0
LINE
  5
255
330
1F
100
AcDbEntity
  8
0-0
  6
JWW_DASHED1
 62
   120
370
     5
100
AcDbLine
 10
-337.0946210866526
 20
674.9697429231994
 30
0.0
 11
-87.09462108666102
 21
924.9697429231912
 31
0.0
  0
LINE
  5
256
330
1F
100
AcDbEntity
  8
0-0
  6
JWW_DASHED1
 62
   120
370
     5
100
AcDbLine
 10
-677.0946210866716
 20
342.0408107364659
 30
0.0
 11
-427.0946210866483
 21
592.0408107364892
 31
0.0
  0
LINE
  5
257
330
1F
100
AcDbEntity
  8
0-0
  6
JWW_DASHED1
 62
   120
370
     5
100
AcDbLine
 10
-337.0946210866566
 20
682.0408107364807
 30
0.0
 11
-87.09462108666507
 21
932.0408107364724
 31
0.0
  0
LINE
  5
258
330
1F
100
AcDbEntity
  8
0-0
  6
JWW_DASHED1
 62
   120
370
     5
100
AcDbLine
 10
-677.0946210866599
 20
349.1118785497633
 30
0.0
 11
-427.0946210866524
 21
599.1118785497708
 31
0.0
  0
LINE
  5
259
330
1F
100
AcDbEntity
  8
0-0
  6
JWW_DASHED1
 62
   120
370
     5
100
AcDbLine
 10
-337.0946210866607
 20
689.1118785497628
 30
0.0
 11
-87.09462108665335
 21
939.1118785497699
 31
0.0
  0
LINE
  5
25A
330
1F
100
AcDbEntity
  8
0-0
  6
JWW_DASHED1
 62
   120
370
     5
100
AcDbLine
 10
-677.0946210866637
 20
356.1829463630449
 30
0.0
 11
-427.0946210866564
 21
606.1829463630525
 31
0.0
  0
LINE
  5
25B
330
1F
100
AcDbEntity
  8
0-0
  6
JWW_DASHED1
 62
   120
370
     5
100
AcDbLine
 10
-337.0946210866647
 20
696.182946363044
 30
0.0
 11
-87.09462108665718
 21
946.1829463630515
 31
0.0
  0
LINE
  5
25C
330
1F
100
AcDbEntity
  8
0-0
  6
JWW_DASHED1
 62
   120
370
     5
100
AcDbLine
 10
-677.0946210866629
 20
363.2540141763313
 30
0.0
 11
-427.0946210866572
 21
613.2540141763371
 31
0.0
  0
LINE
  5
25D
330
1F
100
AcDbEntity
  8
0-0
  6
JWW_DASHED1
 62
   120
370
     5
100
AcDbLine
 10
-337.0946210866506
 20
703.2540141763432
 30
0.0
 11
-87.09462108666102
 21
953.2540141763332
 31
0.0
  0
LINE
  5
25E
330
1F
100
AcDbEntity
  8
0-0
  6
JWW_DASHED1
 62
   120
370
     5
100
AcDbLine
 10
-677.094621086667
 20
370.325081989613
 30
0.0
 11
-427.0946210866615
 21
620.3250819896184
 31
0.0
  0
LINE
  5
25F
330
1F
100
AcDbEntity
  8
0-0
  6
JWW_DASHED1
 62
   120
370
     5
100
AcDbLine
 10
-337.0946210866547
 20
710.3250819896252
 30
0.0
 11
-87.09462108666528
 21
960.3250819896143
 31
0.0
  0
LINE
  5
260
330
1F
100
AcDbEntity
  8
0-0
  6
JWW_DASHED1
 62
   120
370
     5
100
AcDbLine
 10
-677.0946210866643
 20
377.3961498028464
 30
0.0
 11
-427.0946210866571
 21
627.3961498028535
 31
0.0
  0
LINE
  5
261
330
1F
100
AcDbEntity
  8
0-0
  6
JWW_DASHED1
 62
   120
370
     5
100
AcDbLine
 10
-337.0946210866493
 20
717.3961498028611
 30
0.0
 11
-87.09462108665782
 21
967.3961498028525
 31
0.0
  0
LINE
  5
262
330
1F
100
AcDbEntity
  8
0-0
  6
JWW_DASHED1
 62
   120
370
     5
100
AcDbLine
 10
-677.0946210866682
 20
384.4672176161276
 30
0.0
 11
-427.0946210866611
 21
634.4672176161348
 31
0.0
  0
LINE
  5
263
330
1F
100
AcDbEntity
  8
0-0
  6
JWW_DASHED1
 62
   120
370
     5
100
AcDbLine
 10
-337.0946210866534
 20
724.4672176161424
 30
0.0
 11
-88.74053849573436
 21
972.8213002070615
 31
0.0
  0
LINE
  5
264
330
1F
100
AcDbEntity
  8
0-0
  6
JWW_DASHED1
 62
   120
370
     5
100
AcDbLine
 10
-677.0946210866723
 20
391.5382854294093
 30
0.0
 11
-427.0946210866492
 21
641.5382854294321
 31
0.0
  0
LINE
  5
265
330
1F
100
AcDbEntity
  8
0-0
  6
JWW_DASHED1
 62
   120
370
     5
100
AcDbLine
 10
-337.0946210866575
 20
731.538285429424
 30
0.0
 11
-95.81160630903135
 21
972.8213002070504
 31
0.0
  0
LINE
  5
266
330
1F
100
AcDbEntity
  8
0-0
  6
JWW_DASHED1
 62
   120
370
     5
100
AcDbLine
 10
-677.0946210866607
 20
398.6093532427063
 30
0.0
 11
-427.0946210866532
 21
648.6093532427138
 31
0.0
  0
LINE
  5
267
330
1F
100
AcDbEntity
  8
0-0
  6
JWW_DASHED1
 62
   120
370
     5
100
AcDbLine
 10
-337.0946210866615
 20
738.6093532427058
 30
0.0
 11
-102.8826741223126
 21
972.8213002070543
 31
0.0
  0
LINE
  5
268
330
1F
100
AcDbEntity
  8
0-0
  6
JWW_DASHED1
 62
   120
370
     5
100
AcDbLine
 10
-677.0946210866648
 20
405.6804210559875
 30
0.0
 11
-427.0946210866572
 21
655.6804210559955
 31
0.0
  0
LINE
  5
269
330
1F
100
AcDbEntity
  8
0-0
  6
JWW_DASHED1
 62
   120
370
     5
100
AcDbLine
 10
-337.0946210866656
 20
745.6804210559869
 30
0.0
 11
-109.953741935594
 21
972.8213002070585
 31
0.0
  0
LINE
  5
26A
330
1F
100
AcDbEntity
  8
0-0
  6
JWW_DASHED1
 62
   120
370
     5
100
AcDbLine
 10
-677.0946210866641
 20
412.7514888692738
 30
0.0
 11
-427.0946210866588
 21
662.7514888692792
 31
0.0
  0
LINE
  5
26B
330
1F
100
AcDbEntity
  8
0-0
  6
JWW_DASHED1
 62
   120
370
     5
100
AcDbLine
 10
-337.094621086652
 20
752.751488869286
 30
0.0
 11
-117.0248097488769
 21
972.8213002070606
 31
0.0
  0
LINE
  5
26C
330
1F
100
AcDbEntity
  8
0-0
  6
JWW_DASHED1
 62
   120
370
     5
100
AcDbLine
 10
-677.0946210866682
 20
419.822556682555
 30
0.0
 11
-427.0946210866626
 21
669.8225566825608
 31
0.0
  0
LINE
  5
26D
330
1F
100
AcDbEntity
  8
0-0
  6
JWW_DASHED1
 62
   120
370
     5
100
AcDbLine
 10
-337.094621086656
 20
759.8225566825672
 30
0.0
 11
-124.095877562159
 21
972.8213002070645
 31
0.0
  0
LINE
  5
26E
330
1F
100
AcDbEntity
  8
0-0
  6
JWW_DASHED1
 62
   120
370
     5
100
AcDbLine
 10
-677.0946210866612
 20
426.8936244958478
 30
0.0
 11
-427.0946210866534
 21
676.8936244958553
 31
0.0
  0
LINE
  5
26F
330
1F
100
AcDbEntity
  8
0-0
  6
JWW_DASHED1
 62
   120
370
     5
100
AcDbLine
 10
-337.0946210866459
 20
766.8936244958629
 30
0.0
 11
-131.1669453754564
 21
972.8213002070521
 31
0.0
  0
LINE
  5
270
330
1F
100
AcDbEntity
  8
0-0
  6
JWW_DASHED1
 62
   120
370
     5
100
AcDbLine
 10
-677.094621086665
 20
433.9646923091294
 30
0.0
 11
-427.0946210866575
 21
683.9646923091369
 31
0.0
  0
LINE
  5
271
330
1F
100
AcDbEntity
  8
0-0
  6
JWW_DASHED1
 62
   120
370
     5
100
AcDbLine
 10
-337.09462108665
 20
773.9646923091442
 30
0.0
 11
-138.2380131887381
 21
972.8213002070563
 31
0.0
  0
LINE
  5
272
330
1F
100
AcDbEntity
  8
0-0
  6
JWW_DASHED1
 62
   120
370
     5
100
AcDbLine
 10
-677.0946210866689
 20
441.035760122411
 30
0.0
 11
-427.0946210866458
 21
691.0357601224339
 31
0.0
  0
LINE
  5
273
330
1F
100
AcDbEntity
  8
0-0
  6
JWW_DASHED1
 62
   120
370
     5
100
AcDbLine
 10
-337.0946210866541
 20
781.0357601224258
 30
0.0
 11
-145.3090810020197
 21
972.8213002070602
 31
0.0
  0
LINE
  5
274
330
1F
100
AcDbEntity
  8
0-0
  6
JWW_DASHED1
 62
   120
370
     5
100
AcDbLine
 10
-677.0946210866616
 20
448.1068279356492
 30
0.0
 11
-427.0946210866541
 21
698.1068279356567
 31
0.0
  0
LINE
  5
275
330
1F
100
AcDbEntity
  8
0-0
  6
JWW_DASHED1
 62
   120
370
     5
100
AcDbLine
 10
-337.0946210866624
 20
788.1068279356487
 30
0.0
 11
-152.3801488152544
 21
972.8213002070563
 31
0.0
  0
LINE
  5
276
330
1F
100
AcDbEntity
  8
0-0
  6
JWW_DASHED1
 62
   120
370
     5
100
AcDbLine
 10
-677.0946210866656
 20
455.1778957489304
 30
0.0
 11
-427.0946210866581
 21
705.1778957489385
 31
0.0
  0
LINE
  5
277
330
1F
100
AcDbEntity
  8
0-0
  6
JWW_DASHED1
 62
   120
370
     5
100
AcDbLine
 10
-337.0946210866664
 20
795.1778957489298
 30
0.0
 11
-159.4512166285357
 21
972.8213002070606
 31
0.0
  0
LINE
  5
278
330
1F
100
AcDbEntity
  8
0-0
  6
JWW_DASHED1
 62
   120
370
     5
100
AcDbLine
 10
-677.094621086665
 20
462.2489635622168
 30
0.0
 11
-427.09462108666
 21
712.2489635622218
 31
0.0
  0
LINE
  5
279
330
1F
100
AcDbEntity
  8
0-0
  6
JWW_DASHED1
 62
   120
370
     5
100
AcDbLine
 10
-337.0946210866532
 20
802.2489635622286
 30
0.0
 11
-166.522284441822
 21
972.8213002070597
 31
0.0
  0
LINE
  5
27A
330
1F
100
AcDbEntity
  8
0-0
  6
JWW_DASHED1
 62
   120
370
     5
100
AcDbLine
 10
-677.0946210866692
 20
469.320031375498
 30
0.0
 11
-427.0946210866639
 21
719.3200313755034
 31
0.0
  0
LINE
  5
27B
330
1F
100
AcDbEntity
  8
0-0
  6
JWW_DASHED1
 62
   120
370
     5
100
AcDbLine
 10
-337.0946210866572
 20
809.3200313755102
 30
0.0
 11
-173.5933522551036
 21
972.8213002070636
 31
0.0
  0
LINE
  5
27C
330
1F
100
AcDbEntity
  8
0-0
  6
JWW_DASHED1
 62
   120
370
     5
100
AcDbLine
 10
-677.0946210866618
 20
476.3910991887911
 30
0.0
 11
-427.0946210866545
 21
726.3910991887983
 31
0.0
  0
LINE
  5
27D
330
1F
100
AcDbEntity
  8
0-0
  6
JWW_DASHED1
 62
   120
370
     5
100
AcDbLine
 10
-337.0946210866468
 20
816.3910991888059
 30
0.0
 11
-180.6644200684013
 21
972.8213002070513
 31
0.0
  0
LINE
  5
27E
330
1F
100
AcDbEntity
  8
0-0
  6
JWW_DASHED1
 62
   120
370
     5
100
AcDbLine
 10
-677.0946210866656
 20
483.4621670020724
 30
0.0
 11
-427.0946210866583
 21
733.4621670020799
 31
0.0
  0
LINE
  5
27F
330
1F
100
AcDbEntity
  8
0-0
  6
JWW_DASHED1
 62
   120
370
     5
100
AcDbLine
 10
-337.0946210866509
 20
823.4621670020872
 30
0.0
 11
-187.7354878816829
 21
972.8213002070551
 31
0.0
  0
LINE
  5
280
330
1F
100
AcDbEntity
  8
0-0
  6
JWW_DASHED1
 62
   120
370
     5
100
AcDbLine
 10
-677.0946210866697
 20
490.533234815354
 30
0.0
 11
-427.0946210866466
 21
740.5332348153769
 31
0.0
  0
LINE
  5
281
330
1F
100
AcDbEntity
  8
0-0
  6
JWW_DASHED1
 62
   120
370
     5
100
AcDbLine
 10
-337.0946210866549
 20
830.5332348153688
 30
0.0
 11
-194.8065556949648
 21
972.8213002070589
 31
0.0
  0
LINE
  5
282
330
1F
100
AcDbEntity
  8
0-0
  6
JWW_DASHED1
 62
   120
370
     5
100
AcDbLine
 10
-677.0946210866738
 20
497.6043026286357
 30
0.0
 11
-427.0946210866504
 21
747.604302628659
 31
0.0
  0
LINE
  5
283
330
1F
100
AcDbEntity
  8
0-0
  6
JWW_DASHED1
 62
   120
370
     5
100
AcDbLine
 10
-337.0946210866588
 20
837.6043026286504
 30
0.0
 11
-201.8776235082552
 21
972.8213002070538
 31
0.0
  0
LINE
  5
284
330
1F
100
AcDbEntity
  8
0-0
  6
JWW_DASHED1
 62
   120
370
     5
100
AcDbLine
 10
-677.0946210866618
 20
504.6753704419331
 30
0.0
 11
-427.0946210866547
 21
754.6753704419402
 31
0.0
  0
LINE
  5
285
330
1F
100
AcDbEntity
  8
0-0
  6
JWW_DASHED1
 62
   120
370
     5
100
AcDbLine
 10
-337.094621086663
 20
844.6753704419316
 30
0.0
 11
-208.9486913215362
 21
972.8213002070581
 31
0.0
  0
LINE
  5
286
330
1F
100
AcDbEntity
  8
0-0
  6
JWW_DASHED1
 62
   120
370
     5
100
AcDbLine
 10
-677.0946210866665
 20
511.7464382551589
 30
0.0
 11
-427.0946210866613
 21
761.7464382551643
 31
0.0
  0
LINE
  5
287
330
1F
100
AcDbEntity
  8
0-0
  6
JWW_DASHED1
 62
   120
370
     5
100
AcDbLine
 10
-337.0946210866543
 20
851.7464382551711
 30
0.0
 11
-216.0197591347668
 21
972.8213002070589
 31
0.0
  0
LINE
  5
288
330
1F
100
AcDbEntity
  8
0-0
  6
JWW_DASHED1
 62
   120
370
     5
100
AcDbLine
 10
-677.0946210866707
 20
518.81750606844
 30
0.0
 11
-427.0946210866654
 21
768.8175060684455
 31
0.0
  0
LINE
  5
289
330
1F
100
AcDbEntity
  8
0-0
  6
JWW_DASHED1
 62
   120
370
     5
100
AcDbLine
 10
-337.0946210866585
 20
858.8175060684523
 30
0.0
 11
-223.0908269480485
 21
972.8213002070623
 31
0.0
  0
LINE
  5
28A
330
1F
100
AcDbEntity
  8
0-0
  6
JWW_DASHED1
 62
   120
370
     5
100
AcDbLine
 10
-677.0946210866624
 20
525.8885738817341
 30
0.0
 11
-427.0946210866554
 21
775.8885738817412
 31
0.0
  0
LINE
  5
28B
330
1F
100
AcDbEntity
  8
0-0
  6
JWW_DASHED1
 62
   120
370
     5
100
AcDbLine
 10
-337.0946210866476
 20
865.8885738817489
 30
0.0
 11
-230.1618947613459
 21
972.8213002070504
 31
0.0
  0
LINE
  5
28C
330
1F
100
AcDbEntity
  8
0-0
  6
JWW_DASHED1
 62
   120
370
     5
100
AcDbLine
 10
-677.0946210866665
 20
532.9596416950153
 30
0.0
 11
-427.0946210866592
 21
782.9596416950228
 31
0.0
  0
LINE
  5
28D
330
1F
100
AcDbEntity
  8
0-0
  6
JWW_DASHED1
 62
   120
370
     5
100
AcDbLine
 10
-337.0946210866515
 20
872.9596416950305
 30
0.0
 11
-237.232962574628
 21
972.8213002070538
 31
0.0
  0
LINE
  5
28E
330
1F
100
AcDbEntity
  8
0-0
  6
JWW_DASHED1
 62
   120
370
     5
100
AcDbLine
 10
-677.0946210866705
 20
540.0307095082969
 30
0.0
 11
-427.0946210866475
 21
790.0307095083199
 31
0.0
  0
LINE
  5
28F
330
1F
100
AcDbEntity
  8
0-0
  6
JWW_DASHED1
 62
   120
370
     5
100
AcDbLine
 10
-337.0946210866558
 20
880.0307095083117
 30
0.0
 11
-244.3040303879094
 21
972.8213002070581
 31
0.0
  0
LINE
  5
290
330
1F
100
AcDbEntity
  8
0-0
  6
JWW_DASHED1
 62
   120
370
     5
100
AcDbLine
 10
-677.0946210866588
 20
547.101777321594
 30
0.0
 11
-427.0946210866515
 21
797.1017773216015
 31
0.0
  0
LINE
  5
291
330
1F
100
AcDbEntity
  8
0-0
  6
JWW_DASHED1
 62
   120
370
     5
100
AcDbLine
 10
-337.0946210866596
 20
887.1017773215933
 30
0.0
 11
-251.3750982011966
 21
972.8213002070563
 31
0.0
  0
LINE
  5
292
330
1F
100
AcDbEntity
  8
0-0
  6
JWW_DASHED1
 62
   120
370
     5
100
AcDbLine
 10
-677.0946210866626
 20
554.1728451348761
 30
0.0
 11
-427.0946210866555
 21
804.1728451348831
 31
0.0
  0
LINE
  5
293
330
1F
100
AcDbEntity
  8
0-0
  6
JWW_DASHED1
 62
   120
370
     5
100
AcDbLine
 10
-337.0946210866639
 20
894.1728451348746
 30
0.0
 11
-258.446166014478
 21
972.8213002070602
 31
0.0
  0
LINE
  5
294
330
1F
100
AcDbEntity
  8
0-0
  6
JWW_DASHED1
 62
   120
370
     5
100
AcDbLine
 10
-677.0946210866633
 20
561.2439129481606
 30
0.0
 11
-427.0946210866581
 21
811.2439129481661
 31
0.0
  0
LINE
  5
295
330
1F
100
AcDbEntity
  8
0-0
  6
JWW_DASHED1
 62
   120
370
     5
100
AcDbLine
 10
-337.0946210866513
 20
901.2439129481725
 30
0.0
 11
-265.5172338277706
 21
972.8213002070534
 31
0.0
  0
LINE
  5
296
330
1F
100
AcDbEntity
  8
0-0
  6
JWW_DASHED1
 62
   120
370
     5
100
AcDbLine
 10
-677.0946210866675
 20
568.3149807614418
 30
0.0
 11
-427.094621086662
 21
818.3149807614473
 31
0.0
  0
LINE
  5
297
330
1F
100
AcDbEntity
  8
0-0
  6
JWW_DASHED1
 62
   120
370
     5
100
AcDbLine
 10
-337.0946210866554
 20
908.3149807614541
 30
0.0
 11
-272.5883016410522
 21
972.8213002070572
 31
0.0
  0
LINE
  5
298
330
1F
100
AcDbEntity
  8
0-0
  6
JWW_DASHED1
 62
   120
370
     5
100
AcDbLine
 10
-677.0946210866637
 20
575.3860485746766
 30
0.0
 11
-427.094621086656
 21
825.3860485746841
 31
0.0
  0
LINE
  5
299
330
1F
100
AcDbEntity
  8
0-0
  6
JWW_DASHED1
 62
   120
370
     5
100
AcDbLine
 10
-337.0946210866485
 20
915.3860485746918
 30
0.0
 11
-279.659369454291
 21
972.8213002070495
 31
0.0
  0
LINE
  5
29A
330
1F
100
AcDbEntity
  8
0-0
  6
JWW_DASHED1
 62
   120
370
     5
100
AcDbLine
 10
-677.0946210866673
 20
582.4571163879582
 30
0.0
 11
-427.09462108666
 21
832.4571163879658
 31
0.0
  0
LINE
  5
29B
330
1F
100
AcDbEntity
  8
0-0
  6
JWW_DASHED1
 62
   120
370
     5
100
AcDbLine
 10
-337.0946210866526
 20
922.457116387973
 30
0.0
 11
-286.7304372675727
 21
972.8213002070529
 31
0.0
  0
LINE
  5
29C
330
1F
100
AcDbEntity
  8
0-0
  6
JWW_DASHED1
 62
   120
370
     5
100
AcDbLine
 10
-677.0946210866714
 20
589.5281842012399
 30
0.0
 11
-427.0946210866483
 21
839.5281842012628
 31
0.0
  0
LINE
  5
29D
330
1F
100
AcDbEntity
  8
0-0
  6
JWW_DASHED1
 62
   120
370
     5
100
AcDbLine
 10
-337.0946210866566
 20
929.5281842012547
 30
0.0
 11
-293.8015050808571
 21
972.8213002070538
 31
0.0
  0
LINE
  5
29E
330
1F
100
AcDbEntity
  8
0-0
  6
JWW_DASHED1
 62
   120
370
     5
100
AcDbLine
 10
-677.0946210866597
 20
596.5992520145369
 30
0.0
 11
-427.0946210866521
 21
846.5992520145448
 31
0.0
  0
LINE
  5
29F
330
1F
100
AcDbEntity
  8
0-0
  6
JWW_DASHED1
 62
   120
370
     5
100
AcDbLine
 10
-337.0946210866605
 20
936.5992520145363
 30
0.0
 11
-300.8725728941385
 21
972.8213002070581
 31
0.0
  0
LINE
  5
2A0
330
1F
100
AcDbEntity
  8
0-0
  6
JWW_DASHED1
 62
   120
370
     5
100
AcDbLine
 10
-677.0946210866636
 20
603.670319827819
 30
0.0
 11
-427.0946210866562
 21
853.670319827826
 31
0.0
  0
LINE
  5
2A1
330
1F
100
AcDbEntity
  8
0-0
  6
JWW_DASHED1
 62
   120
370
     5
100
AcDbLine
 10
-337.0946210866645
 20
943.6703198278176
 30
0.0
 11
-307.9436407074195
 21
972.8213002070623
 31
0.0
  0
LINE
  5
2A2
330
1F
100
AcDbEntity
  8
0-0
  6
JWW_DASHED1
 62
   120
370
     5
100
AcDbLine
 10
-677.0946210866648
 20
610.7413876411027
 30
0.0
 11
-427.0946210866592
 21
860.7413876411081
 31
0.0
  0
LINE
  5
2A3
330
1F
100
AcDbEntity
  8
0-0
  6
JWW_DASHED1
 62
   120
370
     5
100
AcDbLine
 10
-337.0946210866526
 20
950.7413876411149
 30
0.0
 11
-315.0147085207154
 21
972.8213002070521
 31
0.0
  0
LINE
  5
2A4
330
1F
100
AcDbEntity
  8
0-0
  6
JWW_DASHED1
 62
   120
370
     5
100
AcDbLine
 10
-677.0946210866687
 20
617.8124554543848
 30
0.0
 11
-427.0946210866634
 21
867.8124554543898
 31
0.0
  0
LINE
  5
2A5
330
1F
100
AcDbEntity
  8
0-0
  6
JWW_DASHED1
 62
   120
370
     5
100
AcDbLine
 10
-337.0946210866566
 20
957.8124554543962
 30
0.0
 11
-322.0857763339973
 21
972.821300207056
 31
0.0
  0
LINE
  5
2A6
330
1F
100
AcDbEntity
  8
0-0
  6
JWW_DASHED1
 62
   120
370
     5
100
AcDbLine
 10
-677.0946210866599
 20
624.8835232676788
 30
0.0
 11
-427.0946210866524
 21
874.8835232676863
 31
0.0
  0
LINE
  5
2A7
330
1F
100
AcDbEntity
  8
0-0
  6
JWW_DASHED1
 62
   120
370
     5
100
AcDbLine
 10
-337.0946210866449
 20
964.8835232676936
 30
0.0
 11
-329.1568441472947
 21
972.821300207044
 31
0.0
  0
LINE
  5
2A8
330
1F
100
AcDbEntity
  8
0-0
  6
JWW_DASHED1
 62
   120
370
     5
100
AcDbLine
 10
-677.0946210866639
 20
631.95459108096
 30
0.0
 11
-427.0946210866564
 21
881.9545910809679
 31
0.0
  0
LINE
  5
2A9
330
1F
100
AcDbEntity
  8
0-0
  6
JWW_DASHED1
 62
   120
370
     5
100
AcDbLine
 10
-337.0946210866492
 20
971.9545910809748
 30
0.0
 11
-336.2279119605763
 21
972.8213002070479
 31
0.0
  0
LINE
  5
2AA
330
1F
100
AcDbEntity
  8
0-0
  6
JWW_DASHED1
 62
   120
370
     5
100
AcDbLine
 10
-677.094621086668
 20
639.0256588942417
 30
0.0
 11
-427.0946210866447
 21
889.025658894265
 31
0.0
  0
LINE
  5
2AB
330
1F
100
AcDbEntity
  8
0-0
  6
JWW_DASHED1
 62
   120
370
     5
100
AcDbLine
 10
-677.0946210866605
 20
646.0967267074798
 30
0.0
 11
-427.094621086653
 21
896.0967267074874
 31
0.0
  0
LINE
  5
2AC
330
1F
100
AcDbEntity
  8
0-0
  6
JWW_DASHED1
 62
   120
370
     5
100
AcDbLine
 10
-677.0946210866643
 20
653.1677945207618
 30
0.0
 11
-427.0946210866571
 21
903.167794520769
 31
0.0
  0
LINE
  5
2AD
330
1F
100
AcDbEntity
  8
0-0
  6
JWW_DASHED1
 62
   120
370
     5
100
AcDbLine
 10
-677.0946210866658
 20
660.2388623340457
 30
0.0
 11
-427.0946210866605
 21
910.2388623340511
 31
0.0
  0
LINE
  5
2AE
330
1F
100
AcDbEntity
  8
0-0
  6
JWW_DASHED1
 62
   120
370
     5
100
AcDbLine
 10
-677.0946210866697
 20
667.3099301473273
 30
0.0
 11
-427.0946210866645
 21
917.3099301473324
 31
0.0
  0
LINE
  5
2AF
330
1F
100
AcDbEntity
  8
0-0
  6
JWW_DASHED1
 62
   120
370
     5
100
AcDbLine
 10
-677.0946210866607
 20
674.3809979606217
 30
0.0
 11
-427.0946210866532
 21
924.3809979606293
 31
0.0
  0
LINE
  5
2B0
330
1F
100
AcDbEntity
  8
0-0
  6
JWW_DASHED1
 62
   120
370
     5
100
AcDbLine
 10
-677.0946210866648
 20
681.452065773903
 30
0.0
 11
-427.0946210866572
 21
931.4520657739109
 31
0.0
  0
LINE
  5
2B1
330
1F
100
AcDbEntity
  8
0-0
  6
JWW_DASHED1
 62
   120
370
     5
100
AcDbLine
 10
-677.094621086669
 20
688.5231335871842
 30
0.0
 11
-427.0946210866455
 21
938.5231335872079
 31
0.0
  0
LINE
  5
2B2
330
1F
100
AcDbEntity
  8
0-0
  6
JWW_DASHED1
 62
   120
370
     5
100
AcDbLine
 10
-677.0946210866726
 20
695.5942014004663
 30
0.0
 11
-427.0946210866496
 21
945.5942014004895
 31
0.0
  0
LINE
  5
2B3
330
1F
100
AcDbEntity
  8
0-0
  6
JWW_DASHED1
 62
   120
370
     5
100
AcDbLine
 10
-677.0946210866612
 20
702.6652692137633
 30
0.0
 11
-427.0946210866534
 21
952.6652692137708
 31
0.0
  0
LINE
  5
2B4
330
1F
100
AcDbEntity
  8
0-0
  6
JWW_DASHED1
 62
   120
370
     5
100
AcDbLine
 10
-677.094621086667
 20
709.7363370269886
 30
0.0
 11
-427.094621086662
 21
959.7363370269932
 31
0.0
  0
LINE
  5
2B5
330
1F
100
AcDbEntity
  8
0-0
  6
JWW_DASHED1
 62
   120
370
     5
100
AcDbLine
 10
-677.0946210866712
 20
716.8074048402698
 30
0.0
 11
-427.0946210866658
 21
966.8074048402748
 31
0.0
  0
LINE
  5
2B6
330
1F
100
AcDbEntity
  8
0-0
  6
JWW_DASHED1
 62
   120
370
     5
100
AcDbLine
 10
-677.0946210866616
 20
723.8784726535647
 30
0.0
 11
-428.1517935331735
 21
972.8213002070529
 31
0.0
  0
LINE
  5
2B7
330
1F
100
AcDbEntity
  8
0-0
  6
JWW_DASHED1
 62
   120
370
     5
100
AcDbLine
 10
-677.0946210866656
 20
730.949540466846
 30
0.0
 11
-435.2228613464547
 21
972.8213002070572
 31
0.0
  0
LINE
  5
2B8
330
1F
100
AcDbEntity
  8
0-0
  6
JWW_DASHED1
 62
   120
370
     5
100
AcDbLine
 10
-677.0946210866697
 20
738.0206082801276
 30
0.0
 11
-442.2939291597507
 21
972.8213002070465
 31
0.0
  0
LINE
  5
2B9
330
1F
100
AcDbEntity
  8
0-0
  6
JWW_DASHED1
 62
   120
370
     5
100
AcDbLine
 10
-677.0946210866578
 20
745.091676093425
 30
0.0
 11
-449.364996973033
 21
972.8213002070495
 31
0.0
  0
LINE
  5
2BA
330
1F
100
AcDbEntity
  8
0-0
  6
JWW_DASHED1
 62
   120
370
     5
100
AcDbLine
 10
-677.0946210866616
 20
752.1627439067066
 30
0.0
 11
-456.4360647863144
 21
972.8213002070538
 31
0.0
  0
LINE
  5
2BB
330
1F
100
AcDbEntity
  8
0-0
  6
JWW_DASHED1
 62
   120
370
     5
100
AcDbLine
 10
-677.0946210866641
 20
759.2338117199895
 30
0.0
 11
-463.5071325995956
 21
972.8213002070581
 31
0.0
  0
LINE
  5
2BC
330
1F
100
AcDbEntity
  8
0-0
  6
JWW_DASHED1
 62
   120
370
     5
100
AcDbLine
 10
-677.0946210866682
 20
766.3048795332708
 30
0.0
 11
-470.5782004128769
 21
972.8213002070623
 31
0.0
  0
LINE
  5
2BD
330
1F
100
AcDbEntity
  8
0-0
  6
JWW_DASHED1
 62
   120
370
     5
100
AcDbLine
 10
-677.094621086658
 20
773.3759473465665
 30
0.0
 11
-477.6492682261738
 21
972.8213002070509
 31
0.0
  0
LINE
  5
2BE
330
1F
100
AcDbEntity
  8
0-0
  6
JWW_DASHED1
 62
   120
370
     5
100
AcDbLine
 10
-677.0946210866663
 20
780.4470151597889
 30
0.0
 11
-484.7203360393964
 21
972.8213002070589
 31
0.0
  0
LINE
  5
2BF
330
1F
100
AcDbEntity
  8
0-0
  6
JWW_DASHED1
 62
   120
370
     5
100
AcDbLine
 10
-677.0946210866704
 20
787.5180829730709
 30
0.0
 11
-491.7914038526894
 21
972.8213002070516
 31
0.0
  0
LINE
  5
2C0
330
1F
100
AcDbEntity
  8
0-0
  6
JWW_DASHED1
 62
   120
370
     5
100
AcDbLine
 10
-677.0946210866587
 20
794.5891507863679
 30
0.0
 11
-498.8624716659749
 21
972.8213002070516
 31
0.0
  0
LINE
  5
2C1
330
1F
100
AcDbEntity
  8
0-0
  6
JWW_DASHED1
 62
   120
370
     5
100
AcDbLine
 10
-677.0946210866626
 20
801.6602185996496
 30
0.0
 11
-505.9335394792561
 21
972.821300207056
 31
0.0
  0
LINE
  5
2C2
330
1F
100
AcDbEntity
  8
0-0
  6
JWW_DASHED1
 62
   120
370
     5
100
AcDbLine
 10
-677.0946210866653
 20
808.7312864129325
 30
0.0
 11
-513.0046072925372
 21
972.8213002070597
 31
0.0
  0
LINE
  5
2C3
330
1F
100
AcDbEntity
  8
0-0
  6
JWW_DASHED1
 62
   120
370
     5
100
AcDbLine
 10
-677.0946210866695
 20
815.8023542262138
 30
0.0
 11
-520.0756751058187
 21
972.821300207064
 31
0.0
  0
LINE
  5
2C4
330
1F
100
AcDbEntity
  8
0-0
  6
JWW_DASHED1
 62
   120
370
     5
100
AcDbLine
 10
-677.0946210866588
 20
822.8734220395095
 30
0.0
 11
-527.1467429191157
 21
972.8213002070529
 31
0.0
  0
LINE
  5
2C5
330
1F
100
AcDbEntity
  8
0-0
  6
JWW_DASHED1
 62
   120
370
     5
100
AcDbLine
 10
-677.0946210866626
 20
829.9444898527915
 30
0.0
 11
-534.217810732397
 21
972.8213002070572
 31
0.0
  0
LINE
  5
2C6
330
1F
100
AcDbEntity
  8
0-0
  6
JWW_DASHED1
 62
   120
370
     5
100
AcDbLine
 10
-677.094621086667
 20
837.0155576660727
 30
0.0
 11
-541.2888785456869
 21
972.8213002070526
 31
0.0
  0
LINE
  5
2C7
330
1F
100
AcDbEntity
  8
0-0
  6
JWW_DASHED1
 62
   120
370
     5
100
AcDbLine
 10
-677.0946210866595
 20
844.0866254793109
 30
0.0
 11
-548.3599463589165
 21
972.8213002070538
 31
0.0
  0
LINE
  5
2C8
330
1F
100
AcDbEntity
  8
0-0
  6
JWW_DASHED1
 62
   120
370
     5
100
AcDbLine
 10
-677.0946210866636
 20
851.1576932925925
 30
0.0
 11
-555.4310141721977
 21
972.8213002070581
 31
0.0
  0
LINE
  5
2C9
330
1F
100
AcDbEntity
  8
0-0
  6
JWW_DASHED1
 62
   120
370
     5
100
AcDbLine
 10
-677.0946210866663
 20
858.228761105875
 30
0.0
 11
-562.5020819854792
 21
972.8213002070623
 31
0.0
  0
LINE
  5
2CA
330
1F
100
AcDbEntity
  8
0-0
  6
JWW_DASHED1
 62
   120
370
     5
100
AcDbLine
 10
-677.0946210866705
 20
865.2998289191562
 30
0.0
 11
-569.5731497987604
 21
972.8213002070665
 31
0.0
  0
LINE
  5
2CB
330
1F
100
AcDbEntity
  8
0-0
  6
JWW_DASHED1
 62
   120
370
     5
100
AcDbLine
 10
-677.0946210866599
 20
872.3708967324524
 30
0.0
 11
-576.6442176120573
 21
972.8213002070547
 31
0.0
  0
LINE
  5
2CC
330
1F
100
AcDbEntity
  8
0-0
  6
JWW_DASHED1
 62
   120
370
     5
100
AcDbLine
 10
-677.0946210866637
 20
879.441964545734
 30
0.0
 11
-583.7152854253386
 21
972.8213002070589
 31
0.0
  0
LINE
  5
2CD
330
1F
100
AcDbEntity
  8
0-0
  6
JWW_DASHED1
 62
   120
370
     5
100
AcDbLine
 10
-677.0946210866678
 20
886.5130323590156
 30
0.0
 11
-590.7863532386256
 21
972.8213002070577
 31
0.0
  0
LINE
  5
2CE
330
1F
100
AcDbEntity
  8
0-0
  6
JWW_DASHED1
 62
   120
370
     5
100
AcDbLine
 10
-677.0946210866719
 20
893.5841001722969
 30
0.0
 11
-597.8574210519064
 21
972.8213002070623
 31
0.0
  0
LINE
  5
2CF
330
1F
100
AcDbEntity
  8
0-0
  6
JWW_DASHED1
 62
   120
370
     5
100
AcDbLine
 10
-677.0946210866599
 20
900.6551679855943
 30
0.0
 11
-604.9284888651985
 21
972.8213002070555
 31
0.0
  0
LINE
  5
2D0
330
1F
100
AcDbEntity
  8
0-0
  6
JWW_DASHED1
 62
   120
370
     5
100
AcDbLine
 10
-677.0946210866678
 20
907.7262357988175
 30
0.0
 11
-611.9995566784208
 21
972.821300207064
 31
0.0
  0
LINE
  5
2D1
330
1F
100
AcDbEntity
  8
0-0
  6
JWW_DASHED1
 62
   120
370
     5
100
AcDbLine
 10
-677.0946210866719
 20
914.7973036120987
 30
0.0
 11
-619.0706244917022
 21
972.8213002070684
 31
0.0
  0
LINE
  5
2D2
330
1F
100
AcDbEntity
  8
0-0
  6
JWW_DASHED1
 62
   120
370
     5
100
AcDbLine
 10
-677.0946210866605
 20
921.8683714253953
 30
0.0
 11
-626.1416923049991
 21
972.8213002070568
 31
0.0
  0
LINE
  5
2D3
330
1F
100
AcDbEntity
  8
0-0
  6
JWW_DASHED1
 62
   120
370
     5
100
AcDbLine
 10
-677.0946210866646
 20
928.939439238677
 30
0.0
 11
-633.2127601182807
 21
972.8213002070606
 31
0.0
  0
LINE
  5
2D4
330
1F
100
AcDbEntity
  8
0-0
  6
JWW_DASHED1
 62
   120
370
     5
100
AcDbLine
 10
-677.0946210866684
 20
936.0105070519586
 30
0.0
 11
-640.283827931564
 21
972.8213002070628
 31
0.0
  0
LINE
  5
2D5
330
1F
100
AcDbEntity
  8
0-0
  6
JWW_DASHED1
 62
   120
370
     5
100
AcDbLine
 10
-677.0946210866724
 20
943.0815748652399
 30
0.0
 11
-647.3548957448451
 21
972.8213002070675
 31
0.0
  0
LINE
  5
2D6
330
1F
100
AcDbEntity
  8
0-0
  6
JWW_DASHED1
 62
   120
370
     5
100
AcDbLine
 10
-677.0946210866607
 20
950.1526426785372
 30
0.0
 11
-654.4259635581401
 21
972.8213002070581
 31
0.0
  0
LINE
  5
2D7
330
1F
100
AcDbEntity
  8
0-0
  6
JWW_DASHED1
 62
   120
370
     5
100
AcDbLine
 10
-677.0946210866646
 20
957.2237104918189
 30
0.0
 11
-661.4970313714216
 21
972.8213002070619
 31
0.0
  0
LINE
  5
2D8
330
1F
100
AcDbEntity
  8
0-0
  6
JWW_DASHED1
 62
   120
370
     5
100
AcDbLine
 10
-677.0946210866689
 20
964.2947783051001
 30
0.0
 11
-668.5680991847028
 21
972.8213002070662
 31
0.0
  0
LINE
  5
2D9
330
1F
100
AcDbEntity
  8
0-0
  6
JWW_DASHED1
 62
   120
370
     5
100
AcDbLine
 10
-677.0946210866568
 20
971.3658461183975
 30
0.0
 11
-675.6391669979997
 21
972.8213002070547
 31
0.0
  0
LINE
  5
2DA
330
1F
100
AcDbEntity
  8
0-0
  6
JWW_DASHED1
 62
   120
370
     5
100
AcDbLine
 10
688.3056354631938
 20
-925.178699792938
 30
0.0
 11
692.9053789133402
 21
-920.5789563427918
 31
0.0
  0
LINE
  5
2DB
330
1F
100
AcDbEntity
  8
0-0
  6
JWW_DASHED1
 62
   120
370
     5
100
AcDbLine
 10
681.2345676499122
 20
-925.1786997929346
 30
0.0
 11
692.9053789133362
 21
-913.5078885295102
 31
0.0
  0
LINE
  5
2DC
330
1F
100
AcDbEntity
  8
0-0
  6
JWW_DASHED1
 62
   120
370
     5
100
AcDbLine
 10
674.1634998366303
 20
-925.1786997929308
 30
0.0
 11
692.9053789133321
 21
-906.4368207162289
 31
0.0
  0
LINE
  5
2DD
330
1F
100
AcDbEntity
  8
0-0
  6
JWW_DASHED1
 62
   120
370
     5
100
AcDbLine
 10
667.0924320233341
 20
-925.1786997929414
 30
0.0
 11
692.9053789133438
 21
-899.3657529029315
 31
0.0
  0
LINE
  5
2DE
330
1F
100
AcDbEntity
  8
0-0
  6
JWW_DASHED1
 62
   120
370
     5
100
AcDbLine
 10
660.0213642101118
 20
-925.178699792933
 30
0.0
 11
692.905378913336
 21
-892.2946850897087
 31
0.0
  0
LINE
  5
2DF
330
1F
100
AcDbEntity
  8
0-0
  6
JWW_DASHED1
 62
   120
370
     5
100
AcDbLine
 10
652.9502963968124
 20
-925.1786997929466
 30
0.0
 11
692.9053789133469
 21
-885.2236172764126
 31
0.0
  0
LINE
  5
2E0
330
1F
100
AcDbEntity
  8
0-0
  6
JWW_DASHED1
 62
   120
370
     5
100
AcDbLine
 10
645.8792285835303
 20
-925.1786997929432
 30
0.0
 11
692.9053789133428
 21
-878.1525494631305
 31
0.0
  0
LINE
  5
2E1
330
1F
100
AcDbEntity
  8
0-0
  6
JWW_DASHED1
 62
   120
370
     5
100
AcDbLine
 10
638.8081607702487
 20
-925.1786997929394
 30
0.0
 11
692.905378913339
 21
-871.0814816498493
 31
0.0
  0
LINE
  5
2E2
330
1F
100
AcDbEntity
  8
0-0
  6
JWW_DASHED1
 62
   120
370
     5
100
AcDbLine
 10
631.7370929569666
 20
-925.178699792936
 30
0.0
 11
692.9053789133352
 21
-864.0104138365676
 31
0.0
  0
LINE
  5
2E3
330
1F
100
AcDbEntity
  8
0-0
  6
JWW_DASHED1
 62
   120
370
     5
100
AcDbLine
 10
624.6660251436854
 20
-925.1786997929316
 30
0.0
 11
692.9053789133313
 21
-856.9393460232859
 31
0.0
  0
LINE
  5
2E4
330
1F
100
AcDbEntity
  8
0-0
  6
JWW_DASHED1
 62
   120
370
     5
100
AcDbLine
 10
617.5949573303926
 20
-925.1786997929389
 30
0.0
 11
692.905378913343
 21
-849.8682782099886
 31
0.0
  0
LINE
  5
2E5
330
1F
100
AcDbEntity
  8
0-0
  6
JWW_DASHED1
 62
   120
370
     5
100
AcDbLine
 10
610.5238895171115
 20
-925.1786997929346
 30
0.0
 11
692.9053789133392
 21
-842.7972103967073
 31
0.0
  0
LINE
  5
2E6
330
1F
100
AcDbEntity
  8
0-0
  6
JWW_DASHED1
 62
   120
370
     5
100
AcDbLine
 10
603.4528217038302
 20
-925.1786997929308
 30
0.0
 11
692.905378913335
 21
-835.7261425834257
 31
0.0
  0
LINE
  5
2E7
330
1F
100
AcDbEntity
  8
0-0
  6
JWW_DASHED1
 62
   120
370
     5
100
AcDbLine
 10
596.3817538905269
 20
-925.1786997929482
 30
0.0
 11
692.9053789133462
 21
-828.6550747701291
 31
0.0
  0
LINE
  5
2E8
330
1F
100
AcDbEntity
  8
0-0
  6
JWW_DASHED1
 62
   120
370
     5
100
AcDbLine
 10
589.310686077304
 20
-925.1786997929406
 30
0.0
 11
692.9053789133382
 21
-821.5840069569063
 31
0.0
  0
LINE
  5
2E9
330
1F
100
AcDbEntity
  8
0-0
  6
JWW_DASHED1
 62
   120
370
     5
100
AcDbLine
 10
582.2396182640224
 20
-925.1786997929368
 30
0.0
 11
692.9053789133345
 21
-814.5129391436242
 31
0.0
  0
LINE
  5
2EA
330
1F
100
AcDbEntity
  8
0-0
  6
JWW_DASHED1
 62
   120
370
     5
100
AcDbLine
 10
575.1685504507403
 20
-925.178699792933
 30
0.0
 11
692.9053789133304
 21
-807.441871330343
 31
0.0
  0
LINE
  5
2EB
330
1F
100
AcDbEntity
  8
0-0
  6
JWW_DASHED1
 62
   120
370
     5
100
AcDbLine
 10
568.097482637451
 20
-925.1786997929368
 30
0.0
 11
692.9053789133426
 21
-800.3708035170456
 31
0.0
  0
LINE
  5
2EC
330
1F
100
AcDbEntity
  8
0-0
  6
JWW_DASHED1
 62
   120
370
     5
100
AcDbLine
 10
561.0264148241698
 20
-925.178699792933
 30
0.0
 11
692.9053789133384
 21
-793.2997357037643
 31
0.0
  0
LINE
  5
2ED
330
1F
100
AcDbEntity
  8
0-0
  6
JWW_DASHED1
 62
   120
370
     5
100
AcDbLine
 10
553.9553470108634
 20
-925.1786997929535
 30
0.0
 11
692.905378913349
 21
-786.2286678904678
 31
0.0
  0
LINE
  5
2EE
330
1F
100
AcDbEntity
  8
0-0
  6
JWW_DASHED1
 62
   120
370
     5
100
AcDbLine
 10
546.8842791975818
 20
-925.1786997929496
 30
0.0
 11
692.905378913345
 21
-779.1576000771865
 31
0.0
  0
LINE
  5
2EF
330
1F
100
AcDbEntity
  8
0-0
  6
JWW_DASHED1
 62
   120
370
     5
100
AcDbLine
 10
539.8132113842997
 20
-925.1786997929462
 30
0.0
 11
692.905378913342
 21
-772.0865322639037
 31
0.0
  0
LINE
  5
2F0
330
1F
100
AcDbEntity
  8
0-0
  6
JWW_DASHED1
 62
   120
370
     5
100
AcDbLine
 10
532.7421435710185
 20
-925.1786997929419
 30
0.0
 11
692.9053789133379
 21
-765.0154644506224
 31
0.0
  0
LINE
  5
2F1
330
1F
100
AcDbEntity
  8
0-0
  6
JWW_DASHED1
 62
   120
370
     5
100
AcDbLine
 10
525.6710757577956
 20
-925.1786997929338
 30
0.0
 11
692.9053789133296
 21
-757.9443966374001
 31
0.0
  0
LINE
  5
2F2
330
1F
100
AcDbEntity
  8
0-0
  6
JWW_DASHED1
 62
   120
370
     5
100
AcDbLine
 10
518.6000079445093
 20
-925.178699792935
 30
0.0
 11
692.9053789133418
 21
-750.8733288241026
 31
0.0
  0
LINE
  5
2F3
330
1F
100
AcDbEntity
  8
0-0
  6
JWW_DASHED1
 62
   120
370
     5
100
AcDbLine
 10
511.5289401312277
 20
-925.1786997929308
 30
0.0
 11
692.9053789133375
 21
-743.8022610108214
 31
0.0
  0
LINE
  5
2F4
330
1F
100
AcDbEntity
  8
0-0
  6
JWW_DASHED1
 62
   120
370
     5
100
AcDbLine
 10
504.4578723179188
 20
-925.1786997929543
 30
0.0
 11
692.9053789133477
 21
-736.7311931975253
 31
0.0
  0
LINE
  5
2F5
330
1F
100
AcDbEntity
  8
0-0
  6
JWW_DASHED1
 62
   120
370
     5
100
AcDbLine
 10
497.3868045046371
 20
-925.1786997929509
 30
0.0
 11
692.9053789133436
 21
-729.6601253842441
 31
0.0
  0
LINE
  5
2F6
330
1F
100
AcDbEntity
  8
0-0
  6
JWW_DASHED1
 62
   120
370
     5
100
AcDbLine
 10
490.3157366913555
 20
-925.178699792947
 30
0.0
 11
692.9053789133411
 21
-722.5890575709607
 31
0.0
  0
LINE
  5
2F7
330
1F
100
AcDbEntity
  8
0-0
  6
JWW_DASHED1
 62
   120
370
     5
100
AcDbLine
 10
483.2446688780734
 20
-925.1786997929432
 30
0.0
 11
692.905378913337
 21
-715.5179897576795
 31
0.0
  0
LINE
  5
2F8
330
1F
100
AcDbEntity
  8
0-0
  6
JWW_DASHED1
 62
   120
370
     5
100
AcDbLine
 10
476.1736010647917
 20
-925.1786997929394
 30
0.0
 11
692.905378913333
 21
-708.4469219443984
 31
0.0
  0
LINE
  5
2F9
330
1F
100
AcDbEntity
  8
0-0
  6
JWW_DASHED1
 62
   120
370
     5
100
AcDbLine
 10
469.102533251508
 20
-925.1786997929377
 30
0.0
 11
692.905378913345
 21
-701.3758541311008
 31
0.0
  0
LINE
  5
2FA
330
1F
100
AcDbEntity
  8
0-0
  6
JWW_DASHED1
 62
   120
370
     5
100
AcDbLine
 10
462.031465438286
 20
-925.1786997929291
 30
0.0
 11
692.9053789133367
 21
-694.3047863178786
 31
0.0
  0
LINE
  5
2FB
330
1F
100
AcDbEntity
  8
0-0
  6
JWW_DASHED1
 62
   120
370
     5
100
AcDbLine
 10
454.9603976249741
 20
-925.1786997929551
 30
0.0
 11
692.9053789133462
 21
-687.2337185045828
 31
0.0
  0
LINE
  5
2FC
330
1F
100
AcDbEntity
  8
0-0
  6
JWW_DASHED1
 62
   120
370
     5
100
AcDbLine
 10
447.8893298116921
 20
-925.1786997929516
 30
0.0
 11
692.9053789133424
 21
-680.1626506913016
 31
0.0
  0
LINE
  5
2FD
330
1F
100
AcDbEntity
  8
0-0
  6
JWW_DASHED1
 62
   120
370
     5
100
AcDbLine
 10
442.9053789133487
 20
-923.0915828780096
 30
0.0
 11
692.9053789133402
 21
-673.0915828780178
 31
0.0
  0
LINE
  5
2FE
330
1F
100
AcDbEntity
  8
0-0
  6
JWW_DASHED1
 62
   120
370
     5
100
AcDbLine
 10
442.9053789133445
 20
-916.0205150647283
 30
0.0
 11
692.9053789133362
 21
-666.0205150647366
 31
0.0
  0
LINE
  5
2FF
330
1F
100
AcDbEntity
  8
0-0
  6
JWW_DASHED1
 62
   120
370
     5
100
AcDbLine
 10
442.9053789133406
 20
-908.9494472514467
 30
0.0
 11
692.9053789133324
 21
-658.9494472514554
 31
0.0
  0
LINE
  5
300
330
1F
100
AcDbEntity
  8
0-0
  6
JWW_DASHED1
 62
   120
370
     5
100
AcDbLine
 10
442.9053789133368
 20
-901.878379438165
 30
0.0
 11
692.9053789133441
 21
-651.8783794381579
 31
0.0
  0
LINE
  5
301
330
1F
100
AcDbEntity
  8
0-0
  6
JWW_DASHED1
 62
   120
370
     5
100
AcDbLine
 10
442.9053789133325
 20
-894.8073116248838
 30
0.0
 11
692.9053789133402
 21
-644.8073116248763
 31
0.0
  0
LINE
  5
302
330
1F
100
AcDbEntity
  8
0-0
  6
JWW_DASHED1
 62
   120
370
     5
100
AcDbLine
 10
442.9053789133283
 20
-887.7362438116027
 30
0.0
 11
692.9053789133362
 21
-637.7362438115947
 31
0.0
  0
LINE
  5
303
330
1F
100
AcDbEntity
  8
0-0
  6
JWW_DASHED1
 62
   120
370
     5
100
AcDbLine
 10
442.9053789133559
 20
-880.6651759982894
 30
0.0
 11
692.9053789133454
 21
-630.6651759983002
 31
0.0
  0
LINE
  5
304
330
1F
100
AcDbEntity
  8
0-0
  6
JWW_DASHED1
 62
   120
370
     5
100
AcDbLine
 10
442.9053789133479
 20
-873.5941081850666
 30
0.0
 11
692.9053789133396
 21
-623.5941081850749
 31
0.0
  0
LINE
  5
305
330
1F
100
AcDbEntity
  8
0-0
  6
JWW_DASHED1
 62
   120
370
     5
100
AcDbLine
 10
442.9053789133436
 20
-866.5230403717853
 30
0.0
 11
692.9053789133353
 21
-616.5230403717936
 31
0.0
  0
LINE
  5
306
330
1F
100
AcDbEntity
  8
0-0
  6
JWW_DASHED1
 62
   120
370
     5
100
AcDbLine
 10
442.9053789133397
 20
-859.4519725585037
 30
0.0
 11
692.9053789133318
 21
-609.451972558512
 31
0.0
  0
LINE
  5
307
330
1F
100
AcDbEntity
  8
0-0
  6
JWW_DASHED1
 62
   120
370
     5
100
AcDbLine
 10
442.9053789133359
 20
-852.3809047452221
 30
0.0
 11
692.9053789133433
 21
-602.380904745215
 31
0.0
  0
LINE
  5
308
330
1F
100
AcDbEntity
  8
0-0
  6
JWW_DASHED1
 62
   120
370
     5
100
AcDbLine
 10
442.9053789133321
 20
-845.3098369319405
 30
0.0
 11
692.9053789133394
 21
-595.3098369319333
 31
0.0
  0
LINE
  5
309
330
1F
100
AcDbEntity
  8
0-0
  6
JWW_DASHED1
 62
   120
370
     5
100
AcDbLine
 10
442.9053789133274
 20
-838.2387691186597
 30
0.0
 11
692.9053789133352
 21
-588.2387691186522
 31
0.0
  0
LINE
  5
30A
330
1F
100
AcDbEntity
  8
0-0
  6
JWW_DASHED1
 62
   120
370
     5
100
AcDbLine
 10
348.894380425755
 20
-925.178699792947
 30
0.0
 11
352.9053789133479
 21
-921.1677013053537
 31
0.0
  0
LINE
  5
30B
330
1F
100
AcDbEntity
  8
0-0
  6
JWW_DASHED1
 62
   120
370
     5
100
AcDbLine
 10
442.9053789133547
 20
-831.1677013053469
 30
0.0
 11
692.9053789133443
 21
-581.1677013053577
 31
0.0
  0
LINE
  5
30C
330
1F
100
AcDbEntity
  8
0-0
  6
JWW_DASHED1
 62
   120
370
     5
100
AcDbLine
 10
341.8233126124738
 20
-925.1786997929428
 30
0.0
 11
352.9053789133436
 21
-914.0966334920724
 31
0.0
  0
LINE
  5
30D
330
1F
100
AcDbEntity
  8
0-0
  6
JWW_DASHED1
 62
   120
370
     5
100
AcDbLine
 10
442.9053789133504
 20
-824.0966334920656
 30
0.0
 11
692.9053789133402
 21
-574.0966334920756
 31
0.0
  0
LINE
  5
30E
330
1F
100
AcDbEntity
  8
0-0
  6
JWW_DASHED1
 62
   120
370
     5
100
AcDbLine
 10
334.7522447991921
 20
-925.1786997929385
 30
0.0
 11
352.9053789133402
 21
-907.0255656787904
 31
0.0
  0
LINE
  5
30F
330
1F
100
AcDbEntity
  8
0-0
  6
JWW_DASHED1
 62
   120
370
     5
100
AcDbLine
 10
442.9053789133474
 20
-817.0255656787836
 30
0.0
 11
692.9053789133392
 21
-567.0255656787918
 31
0.0
  0
LINE
  5
310
330
1F
100
AcDbEntity
  8
0-0
  6
JWW_DASHED1
 62
   120
370
     5
100
AcDbLine
 10
327.6811769859557
 20
-925.178699792944
 30
0.0
 11
352.9053789133474
 21
-899.9544978655523
 31
0.0
  0
LINE
  5
311
330
1F
100
AcDbEntity
  8
0-0
  6
JWW_DASHED1
 62
   120
370
     5
100
AcDbLine
 10
442.9053789133393
 20
-809.9544978655604
 30
0.0
 11
692.9053789133309
 21
-559.954497865569
 31
0.0
  0
LINE
  5
312
330
1F
100
AcDbEntity
  8
0-0
  6
JWW_DASHED1
 62
   120
370
     5
100
AcDbLine
 10
320.6101091726728
 20
-925.1786997929414
 30
0.0
 11
352.9053789133436
 21
-892.883430052271
 31
0.0
  0
LINE
  5
313
330
1F
100
AcDbEntity
  8
0-0
  6
JWW_DASHED1
 62
   120
370
     5
100
AcDbLine
 10
442.9053789133351
 20
-802.8834300522792
 30
0.0
 11
692.9053789133424
 21
-552.883430052272
 31
0.0
  0
LINE
  5
314
330
1F
100
AcDbEntity
  8
0-0
  6
JWW_DASHED1
 62
   120
370
     5
100
AcDbLine
 10
313.5390413593915
 20
-925.1786997929377
 30
0.0
 11
352.9053789133393
 21
-885.8123622389894
 31
0.0
  0
LINE
  5
315
330
1F
100
AcDbEntity
  8
0-0
  6
JWW_DASHED1
 62
   120
370
     5
100
AcDbLine
 10
442.9053789133312
 20
-795.8123622389975
 30
0.0
 11
692.9053789133382
 21
-545.8123622389908
 31
0.0
  0
LINE
  5
316
330
1F
100
AcDbEntity
  8
0-0
  6
JWW_DASHED1
 62
   120
370
     5
100
AcDbLine
 10
306.4679735460945
 20
-925.1786997929491
 30
0.0
 11
352.9053789133508
 21
-878.7412944256924
 31
0.0
  0
LINE
  5
317
330
1F
100
AcDbEntity
  8
0-0
  6
JWW_DASHED1
 62
   120
370
     5
100
AcDbLine
 10
442.9053789133577
 20
-788.741294425686
 30
0.0
 11
692.9053789133472
 21
-538.741294425696
 31
0.0
  0
LINE
  5
318
330
1F
100
AcDbEntity
  8
0-0
  6
JWW_DASHED1
 62
   120
370
     5
100
AcDbLine
 10
299.3969057328129
 20
-925.1786997929448
 30
0.0
 11
352.9053789133466
 21
-871.6702266124112
 31
0.0
  0
LINE
  5
319
330
1F
100
AcDbEntity
  8
0-0
  6
JWW_DASHED1
 62
   120
370
     5
100
AcDbLine
 10
442.9053789133534
 20
-781.6702266124043
 30
0.0
 11
692.905378913343
 21
-531.6702266124148
 31
0.0
  0
LINE
  5
31A
330
1F
100
AcDbEntity
  8
0-0
  6
JWW_DASHED1
 62
   120
370
     5
100
AcDbLine
 10
292.3258379195317
 20
-925.1786997929406
 30
0.0
 11
352.9053789133432
 21
-864.5991587991296
 31
0.0
  0
LINE
  5
31B
330
1F
100
AcDbEntity
  8
0-0
  6
JWW_DASHED1
 62
   120
370
     5
100
AcDbLine
 10
442.9053789133504
 20
-774.5991587991218
 30
0.0
 11
692.9053789133421
 21
-524.5991587991301
 31
0.0
  0
LINE
  5
31C
330
1F
100
AcDbEntity
  8
0-0
  6
JWW_DASHED1
 62
   120
370
     5
100
AcDbLine
 10
285.2547701062505
 20
-925.1786997929364
 30
0.0
 11
352.9053789133389
 21
-857.5280909858479
 31
0.0
  0
LINE
  5
31D
330
1F
100
AcDbEntity
  8
0-0
  6
JWW_DASHED1
 62
   120
370
     5
100
AcDbLine
 10
442.9053789133466
 20
-767.5280909858402
 30
0.0
 11
692.9053789133384
 21
-517.5280909858488
 31
0.0
  0
LINE
  5
31E
330
1F
100
AcDbEntity
  8
0-0
  6
JWW_DASHED1
 62
   120
370
     5
100
AcDbLine
 10
278.1837022929693
 20
-925.1786997929321
 30
0.0
 11
352.9053789133351
 21
-850.4570231725667
 31
0.0
  0
LINE
  5
31F
330
1F
100
AcDbEntity
  8
0-0
  6
JWW_DASHED1
 62
   120
370
     5
100
AcDbLine
 10
442.9053789133428
 20
-760.457023172559
 30
0.0
 11
692.9053789133341
 21
-510.4570231725672
 31
0.0
  0
LINE
  5
320
330
1F
100
AcDbEntity
  8
0-0
  6
JWW_DASHED1
 62
   120
370
     5
100
AcDbLine
 10
271.112634479677
 20
-925.1786997929389
 30
0.0
 11
352.9053789133466
 21
-843.3859553592692
 31
0.0
  0
LINE
  5
321
330
1F
100
AcDbEntity
  8
0-0
  6
JWW_DASHED1
 62
   120
370
     5
100
AcDbLine
 10
442.9053789133385
 20
-753.3859553592774
 30
0.0
 11
692.905378913346
 21
-503.3859553592703
 31
0.0
  0
LINE
  5
322
330
1F
100
AcDbEntity
  8
0-0
  6
JWW_DASHED1
 62
   120
370
     5
100
AcDbLine
 10
264.0415666664495
 20
-925.1786997929355
 30
0.0
 11
352.9053789133385
 21
-836.3148875460465
 31
0.0
  0
LINE
  5
323
330
1F
100
AcDbEntity
  8
0-0
  6
JWW_DASHED1
 62
   120
370
     5
100
AcDbLine
 10
442.90537891333
 20
-746.3148875460549
 30
0.0
 11
692.9053789133372
 21
-496.3148875460479
 31
0.0
  0
LINE
  5
324
330
1F
100
AcDbEntity
  8
0-0
  6
JWW_DASHED1
 62
   120
370
     5
100
AcDbLine
 10
256.9704988531524
 20
-925.178699792947
 30
0.0
 11
352.9053789133491
 21
-829.2438197327504
 31
0.0
  0
LINE
  5
325
330
1F
100
AcDbEntity
  8
0-0
  6
JWW_DASHED1
 62
   120
370
     5
100
AcDbLine
 10
442.9053789133559
 20
-739.2438197327435
 30
0.0
 11
692.9053789133458
 21
-489.2438197327539
 31
0.0
  0
LINE
  5
326
330
1F
100
AcDbEntity
  8
0-0
  6
JWW_DASHED1
 62
   120
370
     5
100
AcDbLine
 10
249.8994310398712
 20
-925.1786997929428
 30
0.0
 11
352.9053789133453
 21
-822.1727519194691
 31
0.0
  0
LINE
  5
327
330
1F
100
AcDbEntity
  8
0-0
  6
JWW_DASHED1
 62
   120
370
     5
100
AcDbLine
 10
442.9053789133521
 20
-732.1727519194619
 30
0.0
 11
692.9053789133418
 21
-482.1727519194727
 31
0.0
  0
LINE
  5
328
330
1F
100
AcDbEntity
  8
0-0
  6
JWW_DASHED1
 62
   120
370
     5
100
AcDbLine
 10
242.82836322659
 20
-925.1786997929385
 30
0.0
 11
352.9053789133423
 21
-815.1016841061867
 31
0.0
  0
LINE
  5
329
330
1F
100
AcDbEntity
  8
0-0
  6
JWW_DASHED1
 62
   120
370
     5
100
AcDbLine
 10
442.90537891335
 20
-725.1016841061785
 30
0.0
 11
692.9053789133418
 21
-475.1016841061872
 31
0.0
  0
LINE
  5
32A
330
1F
100
AcDbEntity
  8
0-0
  6
JWW_DASHED1
 62
   120
370
     5
100
AcDbLine
 10
235.7572954133088
 20
-925.1786997929343
 30
0.0
 11
352.9053789133385
 21
-808.0306162929046
 31
0.0
  0
LINE
  5
32B
330
1F
100
AcDbEntity
  8
0-0
  6
JWW_DASHED1
 62
   120
370
     5
100
AcDbLine
 10
442.9053789133457
 20
-718.0306162928973
 30
0.0
 11
692.9053789133375
 21
-468.030616292906
 31
0.0
  0
LINE
  5
32C
330
1F
100
AcDbEntity
  8
0-0
  6
JWW_DASHED1
 62
   120
370
     5
100
AcDbLine
 10
228.6862276000195
 20
-925.1786997929385
 30
0.0
 11
352.90537891335
 21
-800.9595484796075
 31
0.0
  0
LINE
  5
32D
330
1F
100
AcDbEntity
  8
0-0
  6
JWW_DASHED1
 62
   120
370
     5
100
AcDbLine
 10
442.9053789133417
 20
-710.9595484796157
 30
0.0
 11
692.9053789133333
 21
-460.9595484796243
 31
0.0
  0
LINE
  5
32E
330
1F
100
AcDbEntity
  8
0-0
  6
JWW_DASHED1
 62
   120
370
     5
100
AcDbLine
 10
221.6151597867383
 20
-925.1786997929338
 30
0.0
 11
352.9053789133457
 21
-793.8884806663264
 31
0.0
  0
LINE
  5
32F
330
1F
100
AcDbEntity
  8
0-0
  6
JWW_DASHED1
 62
   120
370
     5
100
AcDbLine
 10
442.9053789133378
 20
-703.8884806663344
 30
0.0
 11
692.9053789133454
 21
-453.8884806663269
 31
0.0
  0
LINE
  5
330
330
1F
100
AcDbEntity
  8
0-0
  6
JWW_DASHED1
 62
   120
370
     5
100
AcDbLine
 10
214.5440919734494
 20
-925.1786997929377
 30
0.0
 11
352.9053789133423
 21
-786.8174128530443
 31
0.0
  0
LINE
  5
331
330
1F
100
AcDbEntity
  8
0-0
  6
JWW_DASHED1
 62
   120
370
     5
100
AcDbLine
 10
442.905378913334
 20
-696.8174128530528
 30
0.0
 11
692.9053789133411
 21
-446.8174128530453
 31
0.0
  0
LINE
  5
332
330
1F
100
AcDbEntity
  8
0-0
  6
JWW_DASHED1
 62
   120
370
     5
100
AcDbLine
 10
207.4730241601673
 20
-925.1786997929338
 30
0.0
 11
352.905378913338
 21
-779.746345039763
 31
0.0
  0
LINE
  5
333
330
1F
100
AcDbEntity
  8
0-0
  6
JWW_DASHED1
 62
   120
370
     5
100
AcDbLine
 10
442.9053789133297
 20
-689.7463450397715
 30
0.0
 11
692.905378913337
 21
-439.746345039764
 31
0.0
  0
LINE
  5
334
330
1F
100
AcDbEntity
  8
0-0
  6
JWW_DASHED1
 62
   120
370
     5
100
AcDbLine
 10
200.4019563468703
 20
-925.1786997929453
 30
0.0
 11
352.9053789133487
 21
-772.675277226467
 31
0.0
  0
LINE
  5
335
330
1F
100
AcDbEntity
  8
0-0
  6
JWW_DASHED1
 62
   120
370
     5
100
AcDbLine
 10
442.9053789133553
 20
-682.6752772264601
 30
0.0
 11
692.905378913345
 21
-432.6752772264709
 31
0.0
  0
LINE
  5
336
330
1F
100
AcDbEntity
  8
0-0
  6
JWW_DASHED1
 62
   120
370
     5
100
AcDbLine
 10
193.3308885336484
 20
-925.1786997929364
 30
0.0
 11
352.9053789133415
 21
-765.6042094132437
 31
0.0
  0
LINE
  5
337
330
1F
100
AcDbEntity
  8
0-0
  6
JWW_DASHED1
 62
   120
370
     5
100
AcDbLine
 10
442.9053789133494
 20
-675.6042094132356
 30
0.0
 11
692.9053789133409
 21
-425.6042094132442
 31
0.0
  0
LINE
  5
338
330
1F
100
AcDbEntity
  8
0-0
  6
JWW_DASHED1
 62
   120
370
     5
100
AcDbLine
 10
186.2598207203671
 20
-925.1786997929321
 30
0.0
 11
352.9053789133376
 21
-758.5331415999616
 31
0.0
  0
LINE
  5
339
330
1F
100
AcDbEntity
  8
0-0
  6
JWW_DASHED1
 62
   120
370
     5
100
AcDbLine
 10
442.9053789133451
 20
-668.5331415999543
 30
0.0
 11
692.9053789133367
 21
-418.533141599963
 31
0.0
  0
LINE
  5
33A
330
1F
100
AcDbEntity
  8
0-0
  6
JWW_DASHED1
 62
   120
370
     5
100
AcDbLine
 10
179.1887529070808
 20
-925.178699792933
 30
0.0
 11
352.9053789133496
 21
-751.4620737866642
 31
0.0
  0
LINE
  5
33B
330
1F
100
AcDbEntity
  8
0-0
  6
JWW_DASHED1
 62
   120
370
     5
100
AcDbLine
 10
442.9053789133408
 20
-661.4620737866727
 30
0.0
 11
692.9053789133324
 21
-411.4620737866813
 31
0.0
  0
LINE
  5
33C
330
1F
100
AcDbEntity
  8
0-0
  6
JWW_DASHED1
 62
   120
370
     5
100
AcDbLine
 10
172.1176850937996
 20
-925.1786997929287
 30
0.0
 11
352.9053789133449
 21
-744.3910059733834
 31
0.0
  0
LINE
  5
33D
330
1F
100
AcDbEntity
  8
0-0
  6
JWW_DASHED1
 62
   120
370
     5
100
AcDbLine
 10
442.905378913337
 20
-654.3910059733914
 30
0.0
 11
692.9053789133445
 21
-404.3910059733839
 31
0.0
  0
LINE
  5
33E
330
1F
100
AcDbEntity
  8
0-0
  6
JWW_DASHED1
 62
   120
370
     5
100
AcDbLine
 10
165.0466172805068
 20
-925.178699792936
 30
0.0
 11
352.9053789133415
 21
-737.3199381601013
 31
0.0
  0
LINE
  5
33F
330
1F
100
AcDbEntity
  8
0-0
  6
JWW_DASHED1
 62
   120
370
     5
100
AcDbLine
 10
442.9053789133327
 20
-647.3199381601103
 30
0.0
 11
692.9053789133404
 21
-397.3199381601023
 31
0.0
  0
LINE
  5
340
330
1F
100
AcDbEntity
  8
0-0
  6
JWW_DASHED1
 62
   120
370
     5
100
AcDbLine
 10
157.9755494672261
 20
-925.1786997929312
 30
0.0
 11
352.9053789133372
 21
-730.2488703468201
 31
0.0
  0
LINE
  5
341
330
1F
100
AcDbEntity
  8
0-0
  6
JWW_DASHED1
 62
   120
370
     5
100
AcDbLine
 10
442.9053789133289
 20
-640.2488703468282
 30
0.0
 11
692.9053789133362
 21
-390.2488703468211
 31
0.0
  0
LINE
  5
342
330
1F
100
AcDbEntity
  8
0-0
  6
JWW_DASHED1
 62
   120
370
     5
100
AcDbLine
 10
150.9044816539291
 20
-925.1786997929428
 30
0.0
 11
352.9053789133474
 21
-723.1778025335244
 31
0.0
  0
LINE
  5
343
330
1F
100
AcDbEntity
  8
0-0
  6
JWW_DASHED1
 62
   120
370
     5
100
AcDbLine
 10
442.9053789133542
 20
-633.1778025335179
 30
0.0
 11
692.9053789133435
 21
-383.1778025335288
 31
0.0
  0
LINE
  5
344
330
1F
100
AcDbEntity
  8
0-0
  6
JWW_DASHED1
 62
   120
370
     5
100
AcDbLine
 10
143.8334138406478
 20
-925.1786997929385
 30
0.0
 11
352.9053789133432
 21
-716.1067347202431
 31
0.0
  0
LINE
  5
345
330
1F
100
AcDbEntity
  8
0-0
  6
JWW_DASHED1
 62
   120
370
     5
100
AcDbLine
 10
442.90537891335
 20
-626.1067347202363
 30
0.0
 11
692.9053789133396
 21
-376.1067347202467
 31
0.0
  0
LINE
  5
346
330
1F
100
AcDbEntity
  8
0-0
  6
JWW_DASHED1
 62
   120
370
     5
100
AcDbLine
 10
136.7623460273662
 20
-925.1786997929346
 30
0.0
 11
352.9053789133411
 21
-709.0356669069603
 31
0.0
  0
LINE
  5
347
330
1F
100
AcDbEntity
  8
0-0
  6
JWW_DASHED1
 62
   120
370
     5
100
AcDbLine
 10
442.9053789133485
 20
-619.0356669069522
 30
0.0
 11
692.9053789133399
 21
-369.0356669069612
 31
0.0
  0
LINE
  5
348
330
1F
100
AcDbEntity
  8
0-0
  6
JWW_DASHED1
 62
   120
370
     5
100
AcDbLine
 10
129.6912782141421
 20
-925.1786997929278
 30
0.0
 11
352.9053789133487
 21
-701.9645990937213
 31
0.0
  0
LINE
  5
349
330
1F
100
AcDbEntity
  8
0-0
  6
JWW_DASHED1
 62
   120
370
     5
100
AcDbLine
 10
442.90537891334
 20
-611.9645990937297
 30
0.0
 11
692.9053789133318
 21
-361.9645990937385
 31
0.0
  0
LINE
  5
34A
330
1F
100
AcDbEntity
  8
0-0
  6
JWW_DASHED1
 62
   120
370
     5
100
AcDbLine
 10
122.6202104008468
 20
-925.178699792938
 30
0.0
 11
352.905378913344
 21
-694.8935312804405
 31
0.0
  0
LINE
  5
34B
330
1F
100
AcDbEntity
  8
0-0
  6
JWW_DASHED1
 62
   120
370
     5
100
AcDbLine
 10
442.9053789133361
 20
-604.8935312804485
 30
0.0
 11
692.9053789133436
 21
-354.893531280441
 31
0.0
  0
LINE
  5
34C
330
1F
100
AcDbEntity
  8
0-0
  6
JWW_DASHED1
 62
   120
370
     5
100
AcDbLine
 10
115.5491425875656
 20
-925.1786997929333
 30
0.0
 11
352.9053789133406
 21
-687.8224634671584
 31
0.0
  0
LINE
  5
34D
330
1F
100
AcDbEntity
  8
0-0
  6
JWW_DASHED1
 62
   120
370
     5
100
AcDbLine
 10
442.9053789133319
 20
-597.8224634671674
 30
0.0
 11
692.9053789133396
 21
-347.8224634671594
 31
0.0
  0
LINE
  5
34E
330
1F
100
AcDbEntity
  8
0-0
  6
JWW_DASHED1
 62
   120
370
     5
100
AcDbLine
 10
108.4780747742686
 20
-925.1786997929448
 30
0.0
 11
352.90537891335
 21
-680.7513956538635
 31
0.0
  0
LINE
  5
34F
330
1F
100
AcDbEntity
  8
0-0
  6
JWW_DASHED1
 62
   120
370
     5
100
AcDbLine
 10
442.905378913357
 20
-590.7513956538567
 30
0.0
 11
692.9053789133462
 21
-340.7513956538675
 31
0.0
  0
LINE
  5
350
330
1F
100
AcDbEntity
  8
0-0
  6
JWW_DASHED1
 62
   120
370
     5
100
AcDbLine
 10
102.9053789133408
 20
-923.6803278405873
 30
0.0
 11
352.9053789133462
 21
-673.6803278405819
 31
0.0
  0
LINE
  5
351
330
1F
100
AcDbEntity
  8
0-0
  6
JWW_DASHED1
 62
   120
370
     5
100
AcDbLine
 10
442.9053789133528
 20
-583.680327840575
 30
0.0
 11
692.9053789133426
 21
-333.6803278405858
 31
0.0
  0
LINE
  5
352
330
1F
100
AcDbEntity
  8
0-0
  6
JWW_DASHED1
 62
   120
370
     5
100
AcDbLine
 10
102.9053789133369
 20
-916.609260027306
 30
0.0
 11
352.9053789133445
 21
-666.6092600272985
 31
0.0
  0
LINE
  5
353
330
1F
100
AcDbEntity
  8
0-0
  6
JWW_DASHED1
 62
   120
370
     5
100
AcDbLine
 10
442.9053789133517
 20
-576.6092600272913
 30
0.0
 11
692.9053789133433
 21
-326.6092600272995
 31
0.0
  0
LINE
  5
354
330
1F
100
AcDbEntity
  8
0-0
  6
JWW_DASHED1
 62
   120
370
     5
100
AcDbLine
 10
102.9053789133327
 20
-909.5381922140244
 30
0.0
 11
352.9053789133402
 21
-659.5381922140168
 31
0.0
  0
LINE
  5
355
330
1F
100
AcDbEntity
  8
0-0
  6
JWW_DASHED1
 62
   120
370
     5
100
AcDbLine
 10
442.9053789133479
 20
-569.5381922140092
 30
0.0
 11
692.9053789133394
 21
-319.5381922140178
 31
0.0
  0
LINE
  5
356
330
1F
100
AcDbEntity
  8
0-0
  6
JWW_DASHED1
 62
   120
370
     5
100
AcDbLine
 10
102.9053789133288
 20
-902.4671244007432
 30
0.0
 11
352.9053789133363
 21
-652.4671244007357
 31
0.0
  0
LINE
  5
357
330
1F
100
AcDbEntity
  8
0-0
  6
JWW_DASHED1
 62
   120
370
     5
100
AcDbLine
 10
442.9053789133438
 20
-562.4671244007279
 30
0.0
 11
692.9053789133352
 21
-312.4671244007367
 31
0.0
  0
LINE
  5
358
330
1F
100
AcDbEntity
  8
0-0
  6
JWW_DASHED1
 62
   120
370
     5
100
AcDbLine
 10
102.9053789133246
 20
-895.3960565874615
 30
0.0
 11
352.9053789133479
 21
-645.3960565874387
 31
0.0
  0
LINE
  5
359
330
1F
100
AcDbEntity
  8
0-0
  6
JWW_DASHED1
 62
   120
370
     5
100
AcDbLine
 10
442.9053789133397
 20
-555.3960565874468
 30
0.0
 11
692.9053789133313
 21
-305.396056587455
 31
0.0
  0
LINE
  5
35A
330
1F
100
AcDbEntity
  8
0-0
  6
JWW_DASHED1
 62
   120
370
     5
100
AcDbLine
 10
102.9053789133365
 20
-888.3249887741641
 30
0.0
 11
352.905378913344
 21
-638.324988774157
 31
0.0
  0
LINE
  5
35B
330
1F
100
AcDbEntity
  8
0-0
  6
JWW_DASHED1
 62
   120
370
     5
100
AcDbLine
 10
442.9053789133355
 20
-548.3249887741656
 30
0.0
 11
692.905378913343
 21
-298.3249887741576
 31
0.0
  0
LINE
  5
35C
330
1F
100
AcDbEntity
  8
0-0
  6
JWW_DASHED1
 62
   120
370
     5
100
AcDbLine
 10
102.9053789133433
 20
-881.2539209609264
 30
0.0
 11
352.9053789133487
 21
-631.253920960921
 31
0.0
  0
LINE
  5
35D
330
1F
100
AcDbEntity
  8
0-0
  6
JWW_DASHED1
 62
   120
370
     5
100
AcDbLine
 10
442.9053789133555
 20
-541.2539209609142
 30
0.0
 11
692.9053789133454
 21
-291.2539209609246
 31
0.0
  0
LINE
  5
35E
330
1F
100
AcDbEntity
  8
0-0
  6
JWW_DASHED1
 62
   120
370
     5
100
AcDbLine
 10
102.9053789133395
 20
-874.1828531476448
 30
0.0
 11
352.9053789133446
 21
-624.1828531476398
 31
0.0
  0
LINE
  5
35F
330
1F
100
AcDbEntity
  8
0-0
  6
JWW_DASHED1
 62
   120
370
     5
100
AcDbLine
 10
442.9053789133517
 20
-534.182853147633
 30
0.0
 11
692.9053789133411
 21
-284.1828531476433
 31
0.0
  0
LINE
  5
360
330
1F
100
AcDbEntity
  8
0-0
  6
JWW_DASHED1
 62
   120
370
     5
100
AcDbLine
 10
102.9053789133361
 20
-867.111785334363
 30
0.0
 11
352.9053789133434
 21
-617.1117853343551
 31
0.0
  0
LINE
  5
361
330
1F
100
AcDbEntity
  8
0-0
  6
JWW_DASHED1
 62
   120
370
     5
100
AcDbLine
 10
442.9053789133508
 20
-527.1117853343483
 30
0.0
 11
692.9053789133424
 21
-277.1117853343566
 31
0.0
  0
LINE
  5
362
330
1F
100
AcDbEntity
  8
0-0
  6
JWW_DASHED1
 62
   120
370
     5
100
AcDbLine
 10
102.9053789133318
 20
-860.0407175210814
 30
0.0
 11
352.9053789133393
 21
-610.0407175210739
 31
0.0
  0
LINE
  5
363
330
1F
100
AcDbEntity
  8
0-0
  6
JWW_DASHED1
 62
   120
370
     5
100
AcDbLine
 10
442.905378913347
 20
-520.0407175210662
 30
0.0
 11
692.9053789133382
 21
-270.0407175210754
 31
0.0
  0
LINE
  5
364
330
1F
100
AcDbEntity
  8
0-0
  6
JWW_DASHED1
 62
   120
370
     5
100
AcDbLine
 10
102.905378913328
 20
-852.9696497078003
 30
0.0
 11
352.9053789133513
 21
-602.9696497077765
 31
0.0
  0
LINE
  5
365
330
1F
100
AcDbEntity
  8
0-0
  6
JWW_DASHED1
 62
   120
370
     5
100
AcDbLine
 10
442.9053789133428
 20
-512.969649707785
 30
0.0
 11
692.9053789133343
 21
-262.9696497077937
 31
0.0
  0
LINE
  5
366
330
1F
100
AcDbEntity
  8
0-0
  6
JWW_DASHED1
 62
   120
370
     5
100
AcDbLine
 10
102.9053789133237
 20
-845.8985818945187
 30
0.0
 11
352.9053789133472
 21
-595.8985818944952
 31
0.0
  0
LINE
  5
367
330
1F
100
AcDbEntity
  8
0-0
  6
JWW_DASHED1
 62
   120
370
     5
100
AcDbLine
 10
442.9053789133389
 20
-505.8985818945038
 30
0.0
 11
692.905378913346
 21
-255.8985818944963
 31
0.0
  0
LINE
  5
368
330
1F
100
AcDbEntity
  8
0-0
  6
JWW_DASHED1
 62
   120
370
     5
100
AcDbLine
 10
102.9053789133356
 20
-838.8275140812211
 30
0.0
 11
352.9053789133429
 21
-588.8275140812141
 31
0.0
  0
LINE
  5
369
330
1F
100
AcDbEntity
  8
0-0
  6
JWW_DASHED1
 62
   120
370
     5
100
AcDbLine
 10
442.9053789133346
 20
-498.8275140812226
 30
0.0
 11
692.9053789133421
 21
-248.8275140812146
 31
0.0
  0
LINE
  5
36A
330
1F
100
AcDbEntity
  8
0-0
  6
JWW_DASHED1
 62
   120
370
     5
100
AcDbLine
 10
102.9053789133314
 20
-831.75644626794
 30
0.0
 11
352.9053789133393
 21
-581.756446267932
 31
0.0
  0
LINE
  5
36B
330
1F
100
AcDbEntity
  8
0-0
  6
JWW_DASHED1
 62
   120
370
     5
100
AcDbLine
 10
442.9053789133304
 20
-491.756446267941
 30
0.0
 11
692.9053789133384
 21
-241.7564462679334
 31
0.0
  0
LINE
  5
36C
330
1F
100
AcDbEntity
  8
0-0
  6
JWW_DASHED1
 62
   120
370
     5
100
AcDbLine
 10
102.9053789133425
 20
-824.6853784546433
 30
0.0
 11
352.9053789133479
 21
-574.685378454638
 31
0.0
  0
LINE
  5
36D
330
1F
100
AcDbEntity
  8
0-0
  6
JWW_DASHED1
 62
   120
370
     5
100
AcDbLine
 10
442.9053789133547
 20
-484.6853784546312
 30
0.0
 11
692.9053789133443
 21
-234.6853784546416
 31
0.0
  0
LINE
  5
36E
330
1F
100
AcDbEntity
  8
0-0
  6
JWW_DASHED1
 62
   120
370
     5
100
AcDbLine
 10
102.9053789133352
 20
-817.6143106414202
 30
0.0
 11
352.9053789133425
 21
-567.6143106414122
 31
0.0
  0
LINE
  5
36F
330
1F
100
AcDbEntity
  8
0-0
  6
JWW_DASHED1
 62
   120
370
     5
100
AcDbLine
 10
442.90537891335
 20
-477.6143106414054
 30
0.0
 11
692.9053789133416
 21
-227.6143106414136
 31
0.0
  0
LINE
  5
370
330
1F
100
AcDbEntity
  8
0-0
  6
JWW_DASHED1
 62
   120
370
     5
100
AcDbLine
 10
102.9053789133314
 20
-810.5432428281385
 30
0.0
 11
352.9053789133385
 21
-560.543242828131
 31
0.0
  0
LINE
  5
371
330
1F
100
AcDbEntity
  8
0-0
  6
JWW_DASHED1
 62
   120
370
     5
100
AcDbLine
 10
442.9053789133457
 20
-470.5432428281238
 30
0.0
 11
692.9053789133372
 21
-220.5432428281324
 31
0.0
  0
LINE
  5
372
330
1F
100
AcDbEntity
  8
0-0
  6
JWW_DASHED1
 62
   120
370
     5
100
AcDbLine
 10
102.9053789133271
 20
-803.4721750148573
 30
0.0
 11
352.9053789133504
 21
-553.4721750148335
 31
0.0
  0
LINE
  5
373
330
1F
100
AcDbEntity
  8
0-0
  6
JWW_DASHED1
 62
   120
370
     5
100
AcDbLine
 10
442.9053789133419
 20
-463.4721750148421
 30
0.0
 11
692.9053789133334
 21
-213.4721750148508
 31
0.0
  0
LINE
  5
374
330
1F
100
AcDbEntity
  8
0-0
  6
JWW_DASHED1
 62
   120
370
     5
100
AcDbLine
 10
102.9053789133233
 20
-796.4011072015752
 30
0.0
 11
352.9053789133463
 21
-546.4011072015523
 31
0.0
  0
LINE
  5
375
330
1F
100
AcDbEntity
  8
0-0
  6
JWW_DASHED1
 62
   120
370
     5
100
AcDbLine
 10
442.905378913338
 20
-456.4011072015609
 30
0.0
 11
692.9053789133455
 21
-206.4011072015529
 31
0.0
  0
LINE
  5
376
330
1F
100
AcDbEntity
  8
0-0
  6
JWW_DASHED1
 62
   120
370
     5
100
AcDbLine
 10
102.9053789133348
 20
-789.3300393882782
 30
0.0
 11
352.9053789133421
 21
-539.3300393882712
 31
0.0
  0
LINE
  5
377
330
1F
100
AcDbEntity
  8
0-0
  6
JWW_DASHED1
 62
   120
370
     5
100
AcDbLine
 10
442.9053789133342
 20
-449.3300393882788
 30
0.0
 11
692.9053789133418
 21
-199.3300393882717
 31
0.0
  0
LINE
  5
378
330
1F
100
AcDbEntity
  8
0-0
  6
JWW_DASHED1
 62
   120
370
     5
100
AcDbLine
 10
102.9053789133305
 20
-782.2589715749971
 30
0.0
 11
352.9053789133385
 21
-532.2589715749891
 31
0.0
  0
LINE
  5
379
330
1F
100
AcDbEntity
  8
0-0
  6
JWW_DASHED1
 62
   120
370
     5
100
AcDbLine
 10
442.90537891333
 20
-442.2589715749976
 30
0.0
 11
692.9053789133375
 21
-192.2589715749905
 31
0.0
  0
LINE
  5
37A
330
1F
100
AcDbEntity
  8
0-0
  6
JWW_DASHED1
 62
   120
370
     5
100
AcDbLine
 10
102.9053789133412
 20
-775.1879037617009
 30
0.0
 11
352.9053789133468
 21
-525.1879037616955
 31
0.0
  0
LINE
  5
37B
330
1F
100
AcDbEntity
  8
0-0
  6
JWW_DASHED1
 62
   120
370
     5
100
AcDbLine
 10
442.9053789133532
 20
-435.1879037616891
 30
0.0
 11
692.905378913343
 21
-185.187903761699
 31
0.0
  0
LINE
  5
37C
330
1F
100
AcDbEntity
  8
0-0
  6
JWW_DASHED1
 62
   120
370
     5
100
AcDbLine
 10
102.9053789133373
 20
-768.1168359484193
 30
0.0
 11
352.9053789133428
 21
-518.1168359484138
 31
0.0
  0
LINE
  5
37D
330
1F
100
AcDbEntity
  8
0-0
  6
JWW_DASHED1
 62
   120
370
     5
100
AcDbLine
 10
442.9053789133496
 20
-428.116835948407
 30
0.0
 11
692.9053789133387
 21
-178.1168359484178
 31
0.0
  0
LINE
  5
37E
330
1F
100
AcDbEntity
  8
0-0
  6
JWW_DASHED1
 62
   120
370
     5
100
AcDbLine
 10
102.9053789133348
 20
-761.0457681351363
 30
0.0
 11
352.9053789133419
 21
-511.0457681351292
 31
0.0
  0
LINE
  5
37F
330
1F
100
AcDbEntity
  8
0-0
  6
JWW_DASHED1
 62
   120
370
     5
100
AcDbLine
 10
442.9053789133496
 20
-421.0457681351215
 30
0.0
 11
692.9053789133411
 21
-171.0457681351298
 31
0.0
  0
LINE
  5
380
330
1F
100
AcDbEntity
  8
0-0
  6
JWW_DASHED1
 62
   120
370
     5
100
AcDbLine
 10
102.9053789133263
 20
-753.9747003219144
 30
0.0
 11
352.9053789133494
 21
-503.9747003218911
 31
0.0
  0
LINE
  5
381
330
1F
100
AcDbEntity
  8
0-0
  6
JWW_DASHED1
 62
   120
370
     5
100
AcDbLine
 10
442.9053789133415
 20
-413.9747003218991
 30
0.0
 11
692.905378913333
 21
-163.9747003219074
 31
0.0
  0
LINE
  5
382
330
1F
100
AcDbEntity
  8
0-0
  6
JWW_DASHED1
 62
   120
370
     5
100
AcDbLine
 10
102.9053789133378
 20
-746.903632508617
 30
0.0
 11
352.9053789133455
 21
-496.9036325086094
 31
0.0
  0
LINE
  5
383
330
1F
100
AcDbEntity
  8
0-0
  6
JWW_DASHED1
 62
   120
370
     5
100
AcDbLine
 10
442.9053789133372
 20
-406.9036325086179
 30
0.0
 11
692.9053789133447
 21
-156.90363250861
 31
0.0
  0
LINE
  5
384
330
1F
100
AcDbEntity
  8
0-0
  6
JWW_DASHED1
 62
   120
370
     5
100
AcDbLine
 10
102.9053789133339
 20
-739.8325646953353
 30
0.0
 11
352.9053789133412
 21
-489.8325646953282
 31
0.0
  0
LINE
  5
385
330
1F
100
AcDbEntity
  8
0-0
  6
JWW_DASHED1
 62
   120
370
     5
100
AcDbLine
 10
442.9053789133334
 20
-399.8325646953359
 30
0.0
 11
692.9053789133409
 21
-149.8325646953288
 31
0.0
  0
LINE
  5
386
330
1F
100
AcDbEntity
  8
0-0
  6
JWW_DASHED1
 62
   120
370
     5
100
AcDbLine
 10
102.9053789133442
 20
-732.7614968820396
 30
0.0
 11
352.9053789133496
 21
-482.7614968820342
 31
0.0
  0
LINE
  5
387
330
1F
100
AcDbEntity
  8
0-0
  6
JWW_DASHED1
 62
   120
370
     5
100
AcDbLine
 10
442.9053789133566
 20
-392.7614968820274
 30
0.0
 11
692.9053789133458
 21
-142.7614968820382
 31
0.0
  0
LINE
  5
388
330
1F
100
AcDbEntity
  8
0-0
  6
JWW_DASHED1
 62
   120
370
     5
100
AcDbLine
 10
102.9053789133403
 20
-725.6904290687584
 30
0.0
 11
352.9053789133455
 21
-475.690429068753
 31
0.0
  0
LINE
  5
389
330
1F
100
AcDbEntity
  8
0-0
  6
JWW_DASHED1
 62
   120
370
     5
100
AcDbLine
 10
442.9053789133524
 20
-385.6904290687461
 30
0.0
 11
692.9053789133416
 21
-135.6904290687569
 31
0.0
  0
LINE
  5
38A
330
1F
100
AcDbEntity
  8
0-0
  6
JWW_DASHED1
 62
   120
370
     5
100
AcDbLine
 10
102.9053789133378
 20
-718.619361255475
 30
0.0
 11
352.9053789133451
 21
-468.6193612554679
 31
0.0
  0
LINE
  5
38B
330
1F
100
AcDbEntity
  8
0-0
  6
JWW_DASHED1
 62
   120
370
     5
100
AcDbLine
 10
442.905378913353
 20
-378.6193612554598
 30
0.0
 11
692.9053789133443
 21
-128.6193612554689
 31
0.0
  0
LINE
  5
38C
330
1F
100
AcDbEntity
  8
0-0
  6
JWW_DASHED1
 62
   120
370
     5
100
AcDbLine
 10
102.9053789133339
 20
-711.5482934421934
 30
0.0
 11
352.9053789133411
 21
-461.5482934421863
 31
0.0
  0
LINE
  5
38D
330
1F
100
AcDbEntity
  8
0-0
  6
JWW_DASHED1
 62
   120
370
     5
100
AcDbLine
 10
442.9053789133485
 20
-371.548293442179
 30
0.0
 11
692.9053789133404
 21
-121.5482934421868
 31
0.0
  0
LINE
  5
38E
330
1F
100
AcDbEntity
  8
0-0
  6
JWW_DASHED1
 62
   120
370
     5
100
AcDbLine
 10
102.9053789133301
 20
-704.4772256289122
 30
0.0
 11
352.9053789133372
 21
-454.4772256289046
 31
0.0
  0
LINE
  5
38F
330
1F
100
AcDbEntity
  8
0-0
  6
JWW_DASHED1
 62
   120
370
     5
100
AcDbLine
 10
442.9053789133446
 20
-364.4772256288974
 30
0.0
 11
692.9053789133362
 21
-114.4772256289056
 31
0.0
  0
LINE
  5
390
330
1F
100
AcDbEntity
  8
0-0
  6
JWW_DASHED1
 62
   120
370
     5
100
AcDbLine
 10
102.9053789133258
 20
-697.4061578156305
 30
0.0
 11
352.905378913349
 21
-447.4061578156076
 31
0.0
  0
LINE
  5
391
330
1F
100
AcDbEntity
  8
0-0
  6
JWW_DASHED1
 62
   120
370
     5
100
AcDbLine
 10
442.9053789133406
 20
-357.4061578156158
 30
0.0
 11
692.9053789133324
 21
-107.4061578156244
 31
0.0
  0
LINE
  5
392
330
1F
100
AcDbEntity
  8
0-0
  6
JWW_DASHED1
 62
   120
370
     5
100
AcDbLine
 10
102.9053789133373
 20
-690.3350900023336
 30
0.0
 11
352.9053789133445
 21
-440.3350900023264
 31
0.0
  0
LINE
  5
393
330
1F
100
AcDbEntity
  8
0-0
  6
JWW_DASHED1
 62
   120
370
     5
100
AcDbLine
 10
442.9053789133368
 20
-350.3350900023341
 30
0.0
 11
692.9053789133441
 21
-100.335090002327
 31
0.0
  0
LINE
  5
394
330
1F
100
AcDbEntity
  8
0-0
  6
JWW_DASHED1
 62
   120
370
     5
100
AcDbLine
 10
102.9053789133429
 20
-683.2640221890971
 30
0.0
 11
352.9053789133483
 21
-433.2640221890916
 31
0.0
  0
LINE
  5
395
330
1F
100
AcDbEntity
  8
0-0
  6
JWW_DASHED1
 62
   120
370
     5
100
AcDbLine
 10
442.9053789133551
 20
-343.2640221890853
 30
0.0
 11
692.9053789133445
 21
-93.26402218909564
 31
0.0
  0
LINE
  5
396
330
1F
100
AcDbEntity
  8
0-0
  6
JWW_DASHED1
 62
   120
370
     5
100
AcDbLine
 10
102.905378913339
 20
-676.1929543758154
 30
0.0
 11
352.9053789133445
 21
-426.19295437581
 31
0.0
  0
LINE
  5
397
330
1F
100
AcDbEntity
  8
0-0
  6
JWW_DASHED1
 62
   120
370
     5
100
AcDbLine
 10
442.9053789133508
 20
-336.1929543758037
 30
0.0
 11
692.9053789133407
 21
-86.192954375814
 31
0.0
  0
LINE
  5
398
330
1F
100
AcDbEntity
  8
0-0
  6
JWW_DASHED1
 62
   120
370
     5
100
AcDbLine
 10
102.9053789133369
 20
-669.121886562532
 30
0.0
 11
352.9053789133442
 21
-419.121886562525
 31
0.0
  0
LINE
  5
399
330
1F
100
AcDbEntity
  8
0-0
  6
JWW_DASHED1
 62
   120
370
     5
100
AcDbLine
 10
442.9053789133521
 20
-329.1218865625169
 30
0.0
 11
692.9053789133436
 21
-79.12188656252553
 31
0.0
  0
LINE
  5
39A
330
1F
100
AcDbEntity
  8
0-0
  6
JWW_DASHED1
 62
   120
370
     5
100
AcDbLine
 10
102.9053789133331
 20
-662.0508187492504
 30
0.0
 11
352.9053789133402
 21
-412.0508187492433
 31
0.0
  0
LINE
  5
39B
330
1F
100
AcDbEntity
  8
0-0
  6
JWW_DASHED1
 62
   120
370
     5
100
AcDbLine
 10
442.9053789133479
 20
-322.0508187492356
 30
0.0
 11
692.9053789133396
 21
-72.05081874924389
 31
0.0
  0
LINE
  5
39C
330
1F
100
AcDbEntity
  8
0-0
  6
JWW_DASHED1
 62
   120
370
     5
100
AcDbLine
 10
102.9053789133292
 20
-654.9797509359688
 30
0.0
 11
352.9053789133521
 21
-404.9797509359459
 31
0.0
  0
LINE
  5
39D
330
1F
100
AcDbEntity
  8
0-0
  6
JWW_DASHED1
 62
   120
370
     5
100
AcDbLine
 10
442.9053789133438
 20
-314.9797509359544
 30
0.0
 11
692.9053789133353
 21
-64.97975093596267
 31
0.0
  0
LINE
  5
39E
330
1F
100
AcDbEntity
  8
0-0
  6
JWW_DASHED1
 62
   120
370
     5
100
AcDbLine
 10
102.905378913325
 20
-647.9086831226875
 30
0.0
 11
352.9053789133483
 21
-397.9086831226647
 31
0.0
  0
LINE
  5
39F
330
1F
100
AcDbEntity
  8
0-0
  6
JWW_DASHED1
 62
   120
370
     5
100
AcDbLine
 10
442.90537891334
 20
-307.9086831226728
 30
0.0
 11
692.9053789133475
 21
-57.90868312266525
 31
0.0
  0
LINE
  5
3A0
330
1F
100
AcDbEntity
  8
0-0
  6
JWW_DASHED1
 62
   120
370
     5
100
AcDbLine
 10
102.9053789133369
 20
-640.8376153093906
 30
0.0
 11
352.9053789133436
 21
-390.8376153093835
 31
0.0
  0
LINE
  5
3A1
330
1F
100
AcDbEntity
  8
0-0
  6
JWW_DASHED1
 62
   120
370
     5
100
AcDbLine
 10
442.9053789133359
 20
-300.8376153093911
 30
0.0
 11
692.9053789133433
 21
-50.83761530938403
 31
0.0
  0
LINE
  5
3A2
330
1F
100
AcDbEntity
  8
0-0
  6
JWW_DASHED1
 62
   120
370
     5
100
AcDbLine
 10
102.9053789133327
 20
-633.766547496109
 30
0.0
 11
352.9053789133402
 21
-383.7665474961014
 31
0.0
  0
LINE
  5
3A3
330
1F
100
AcDbEntity
  8
0-0
  6
JWW_DASHED1
 62
   120
370
     5
100
AcDbLine
 10
442.9053789133319
 20
-293.7665474961099
 30
0.0
 11
692.905378913339
 21
-43.76654749610282
 31
0.0
  0
LINE
  5
3A4
330
1F
100
AcDbEntity
  8
0-0
  6
JWW_DASHED1
 62
   120
370
     5
100
AcDbLine
 10
102.905378913342
 20
-626.6954796828145
 30
0.0
 11
352.9053789133474
 21
-376.6954796828091
 31
0.0
  0
LINE
  5
3A5
330
1F
100
AcDbEntity
  8
0-0
  6
JWW_DASHED1
 62
   120
370
     5
100
AcDbLine
 10
442.9053789133541
 20
-286.6954796828023
 30
0.0
 11
692.9053789133433
 21
-36.69547968281307
 31
0.0
  0
LINE
  5
3A6
330
1F
100
AcDbEntity
  8
0-0
  6
JWW_DASHED1
 62
   120
370
     5
100
AcDbLine
 10
102.9053789133361
 20
-619.6244118695892
 30
0.0
 11
352.9053789133434
 21
-369.624411869582
 31
0.0
  0
LINE
  5
3A7
330
1F
100
AcDbEntity
  8
0-0
  6
JWW_DASHED1
 62
   120
370
     5
100
AcDbLine
 10
442.9053789133511
 20
-279.6244118695744
 30
0.0
 11
692.9053789133428
 21
-29.62441186958259
 31
0.0
  0
LINE
  5
3A8
330
1F
100
AcDbEntity
  8
0-0
  6
JWW_DASHED1
 62
   120
370
     5
100
AcDbLine
 10
102.9053789133322
 20
-612.5533440563074
 30
0.0
 11
352.9053789133397
 21
-362.5533440563004
 31
0.0
  0
LINE
  5
3A9
330
1F
100
AcDbEntity
  8
0-0
  6
JWW_DASHED1
 62
   120
370
     5
100
AcDbLine
 10
442.9053789133472
 20
-272.5533440562927
 30
0.0
 11
692.9053789133387
 21
-22.55334405630094
 31
0.0
  0
LINE
  5
3AA
330
1F
100
AcDbEntity
  8
0-0
  6
JWW_DASHED1
 62
   120
370
     5
100
AcDbLine
 10
102.905378913328
 20
-605.4822762430263
 30
0.0
 11
352.9053789133513
 21
-355.482276243003
 31
0.0
  0
LINE
  5
3AB
330
1F
100
AcDbEntity
  8
0-0
  6
JWW_DASHED1
 62
   120
370
     5
100
AcDbLine
 10
442.9053789133429
 20
-265.4822762430115
 30
0.0
 11
692.9053789133345
 21
-15.48227624301973
 31
0.0
  0
LINE
  5
3AC
330
1F
100
AcDbEntity
  8
0-0
  6
JWW_DASHED1
 62
   120
370
     5
100
AcDbLine
 10
102.9053789133241
 20
-598.4112084297446
 30
0.0
 11
352.9053789133474
 21
-348.4112084297217
 31
0.0
  0
LINE
  5
3AD
330
1F
100
AcDbEntity
  8
0-0
  6
JWW_DASHED1
 62
   120
370
     5
100
AcDbLine
 10
442.9053789133391
 20
-258.4112084297299
 30
0.0
 11
692.9053789133467
 21
-8.411208429722308
 31
0.0
  0
LINE
  5
3AE
330
1F
100
AcDbEntity
  8
0-0
  6
JWW_DASHED1
 62
   120
370
     5
100
AcDbLine
 10
102.9053789133361
 20
-591.3401406164476
 30
0.0
 11
352.9053789133434
 21
-341.3401406164397
 31
0.0
  0
LINE
  5
3AF
330
1F
100
AcDbEntity
  8
0-0
  6
JWW_DASHED1
 62
   120
370
     5
100
AcDbLine
 10
442.9053789133351
 20
-251.3401406164482
 30
0.0
 11
692.9053789133424
 21
-1.34014061644109
 31
0.0
  0
LINE
  5
3B0
330
1F
100
AcDbEntity
  8
0-0
  6
JWW_DASHED1
 62
   120
370
     5
100
AcDbLine
 10
102.9053789133318
 20
-584.269072803166
 30
0.0
 11
352.9053789133393
 21
-334.2690728031585
 31
0.0
  0
LINE
  5
3B1
330
1F
100
AcDbEntity
  8
0-0
  6
JWW_DASHED1
 62
   120
370
     5
100
AcDbLine
 10
442.905378913331
 20
-244.269072803167
 30
0.0
 11
692.9053789133382
 21
5.730927196840128
 31
0.0
  0
LINE
  5
3B2
330
1F
100
AcDbEntity
  8
0-0
  6
JWW_DASHED1
 62
   120
370
     5
100
AcDbLine
 10
102.9053789133403
 20
-577.198004989872
 30
0.0
 11
352.9053789133459
 21
-327.1980049898666
 31
0.0
  0
LINE
  5
3B3
330
1F
100
AcDbEntity
  8
0-0
  6
JWW_DASHED1
 62
   120
370
     5
100
AcDbLine
 10
442.9053789133528
 20
-237.1980049898598
 30
0.0
 11
692.9053789133424
 21
12.80199501012987
 31
0.0
  0
LINE
  5
3B4
330
1F
100
AcDbEntity
  8
0-0
  6
JWW_DASHED1
 62
   120
370
     5
100
AcDbLine
 10
102.9053789133365
 20
-570.1269371765903
 30
0.0
 11
352.9053789133421
 21
-320.1269371765849
 31
0.0
  0
LINE
  5
3B5
330
1F
100
AcDbEntity
  8
0-0
  6
JWW_DASHED1
 62
   120
370
     5
100
AcDbLine
 10
442.9053789133485
 20
-230.1269371765785
 30
0.0
 11
692.9053789133384
 21
19.87306282341109
 31
0.0
  0
LINE
  5
3B6
330
1F
100
AcDbEntity
  8
0-0
  6
JWW_DASHED1
 62
   120
370
     5
100
AcDbLine
 10
102.9053789133356
 20
-563.0558693633056
 30
0.0
 11
352.9053789133429
 21
-313.0558693632986
 31
0.0
  0
LINE
  5
3B7
330
1F
100
AcDbEntity
  8
0-0
  6
JWW_DASHED1
 62
   120
370
     5
100
AcDbLine
 10
442.9053789133507
 20
-223.0558693632909
 30
0.0
 11
692.905378913342
 21
26.94413063670041
 31
0.0
  0
LINE
  5
3B8
330
1F
100
AcDbEntity
  8
0-0
  6
JWW_DASHED1
 62
   120
370
     5
100
AcDbLine
 10
102.9053789133314
 20
-555.9848015500245
 30
0.0
 11
352.9053789133391
 21
-305.984801550017
 31
0.0
  0
LINE
  5
3B9
330
1F
100
AcDbEntity
  8
0-0
  6
JWW_DASHED1
 62
   120
370
     5
100
AcDbLine
 10
442.9053789133468
 20
-215.9848015500093
 30
0.0
 11
692.9053789133382
 21
34.01519844998205
 31
0.0
  0
LINE
  5
3BA
330
1F
100
AcDbEntity
  8
0-0
  6
JWW_DASHED1
 62
   120
370
     5
100
AcDbLine
 10
102.9053789133233
 20
-548.9137337368016
 30
0.0
 11
352.9053789133466
 21
-298.9137337367788
 31
0.0
  0
LINE
  5
3BB
330
1F
100
AcDbEntity
  8
0-0
  6
JWW_DASHED1
 62
   120
370
     5
100
AcDbLine
 10
442.9053789133383
 20
-208.9137337367869
 30
0.0
 11
692.9053789133458
 21
41.08626626322064
 31
0.0
  0
LINE
  5
3BC
330
1F
100
AcDbEntity
  8
0-0
  6
JWW_DASHED1
 62
   120
370
     5
100
AcDbLine
 10
102.9053789133352
 20
-541.8426659235047
 30
0.0
 11
352.9053789133425
 21
-291.8426659234967
 31
0.0
  0
LINE
  5
3BD
330
1F
100
AcDbEntity
  8
0-0
  6
JWW_DASHED1
 62
   120
370
     5
100
AcDbLine
 10
442.905378913334
 20
-201.8426659235057
 30
0.0
 11
692.9053789133416
 21
48.15733407650185
 31
0.0
  0
LINE
  5
3BE
330
1F
100
AcDbEntity
  8
0-0
  6
JWW_DASHED1
 62
   120
370
     5
100
AcDbLine
 10
102.9053789133437
 20
-534.7715981102102
 30
0.0
 11
352.9053789133487
 21
-284.7715981102053
 31
0.0
  0
LINE
  5
3BF
330
1F
100
AcDbEntity
  8
0-0
  6
JWW_DASHED1
 62
   120
370
     5
100
AcDbLine
 10
442.9053789133555
 20
-194.7715981101985
 30
0.0
 11
692.9053789133452
 21
55.22840188979075
 31
0.0
  0
LINE
  5
3C0
330
1F
100
AcDbEntity
  8
0-0
  6
JWW_DASHED1
 62
   120
370
     5
100
AcDbLine
 10
102.9053789133395
 20
-527.7005302969291
 30
0.0
 11
352.9053789133451
 21
-277.7005302969236
 31
0.0
  0
LINE
  5
3C1
330
1F
100
AcDbEntity
  8
0-0
  6
JWW_DASHED1
 62
   120
370
     5
100
AcDbLine
 10
442.9053789133515
 20
-187.7005302969172
 30
0.0
 11
692.9053789133411
 21
62.29946970307239
 31
0.0
  0
LINE
  5
3C2
330
1F
100
AcDbEntity
  8
0-0
  6
JWW_DASHED1
 62
   120
370
     5
100
AcDbLine
 10
102.9053789133386
 20
-520.6294624836444
 30
0.0
 11
352.9053789133463
 21
-270.6294624836369
 31
0.0
  0
LINE
  5
3C3
330
1F
100
AcDbEntity
  8
0-0
  6
JWW_DASHED1
 62
   120
370
     5
100
AcDbLine
 10
442.9053789133536
 20
-180.6294624836292
 30
0.0
 11
692.9053789133454
 21
69.37053751636213
 31
0.0
  0
LINE
  5
3C4
330
1F
100
AcDbEntity
  8
0-0
  6
JWW_DASHED1
 62
   120
370
     5
100
AcDbLine
 10
102.9053789133348
 20
-513.5583946703628
 30
0.0
 11
352.9053789133421
 21
-263.5583946703557
 31
0.0
  0
LINE
  5
3C5
330
1F
100
AcDbEntity
  8
0-0
  6
JWW_DASHED1
 62
   120
370
     5
100
AcDbLine
 10
442.9053789133498
 20
-173.558394670348
 30
0.0
 11
692.9053789133413
 21
76.44160532964378
 31
0.0
  0
LINE
  5
3C6
330
1F
100
AcDbEntity
  8
0-0
  6
JWW_DASHED1
 62
   120
370
     5
100
AcDbLine
 10
102.9053789133305
 20
-506.4873268570815
 30
0.0
 11
352.905378913338
 21
-256.4873268570744
 31
0.0
  0
LINE
  5
3C7
330
1F
100
AcDbEntity
  8
0-0
  6
JWW_DASHED1
 62
   120
370
     5
100
AcDbLine
 10
442.9053789133459
 20
-166.4873268570663
 30
0.0
 11
692.9053789133375
 21
83.512673142925
 31
0.0
  0
LINE
  5
3C8
330
1F
100
AcDbEntity
  8
0-0
  6
JWW_DASHED1
 62
   120
370
     5
100
AcDbLine
 10
102.9053789133267
 20
-499.4162590438003
 30
0.0
 11
352.90537891335
 21
-249.4162590437766
 31
0.0
  0
LINE
  5
3C9
330
1F
100
AcDbEntity
  8
0-0
  6
JWW_DASHED1
 62
   120
370
     5
100
AcDbLine
 10
442.9053789133417
 20
-159.4162590437851
 30
0.0
 11
692.9053789133333
 21
90.58374095620621
 31
0.0
  0
LINE
  5
3CA
330
1F
100
AcDbEntity
  8
0-0
  6
JWW_DASHED1
 62
   120
370
     5
100
AcDbLine
 10
102.9053789133386
 20
-492.3451912305025
 30
0.0
 11
352.9053789133459
 21
-242.3451912304954
 31
0.0
  0
LINE
  5
3CB
330
1F
100
AcDbEntity
  8
0-0
  6
JWW_DASHED1
 62
   120
370
     5
100
AcDbLine
 10
442.9053789133378
 20
-152.3451912305035
 30
0.0
 11
692.9053789133452
 21
97.65480876950363
 31
0.0
  0
LINE
  5
3CC
330
1F
100
AcDbEntity
  8
0-0
  6
JWW_DASHED1
 62
   120
370
     5
100
AcDbLine
 10
102.9053789133425
 20
-485.2741234172677
 30
0.0
 11
352.9053789133479
 21
-235.2741234172623
 31
0.0
  0
LINE
  5
3CD
330
1F
100
AcDbEntity
  8
0-0
  6
JWW_DASHED1
 62
   120
370
     5
100
AcDbLine
 10
442.9053789133547
 20
-145.2741234172555
 30
0.0
 11
692.9053789133441
 21
104.7258765827337
 31
0.0
  0
LINE
  5
3CE
330
1F
100
AcDbEntity
  8
0-0
  6
JWW_DASHED1
 62
   120
370
     5
100
AcDbLine
 10
102.9053789133382
 20
-478.2030556039865
 30
0.0
 11
352.9053789133436
 21
-228.2030556039811
 31
0.0
  0
LINE
  5
3CF
330
1F
100
AcDbEntity
  8
0-0
  6
JWW_DASHED1
 62
   120
370
     5
100
AcDbLine
 10
442.9053789133504
 20
-138.2030556039743
 30
0.0
 11
692.9053789133402
 21
111.7969443960153
 31
0.0
  0
LINE
  5
3D0
330
1F
100
AcDbEntity
  8
0-0
  6
JWW_DASHED1
 62
   120
370
     5
100
AcDbLine
 10
102.9053789133382
 20
-471.131987790701
 30
0.0
 11
352.9053789133455
 21
-221.1319877906939
 31
0.0
  0
LINE
  5
3D1
330
1F
100
AcDbEntity
  8
0-0
  6
JWW_DASHED1
 62
   120
370
     5
100
AcDbLine
 10
442.9053789133528
 20
-131.1319877906863
 30
0.0
 11
692.9053789133445
 21
118.8680122093051
 31
0.0
  0
LINE
  5
3D2
330
1F
100
AcDbEntity
  8
0-0
  6
JWW_DASHED1
 62
   120
370
     5
100
AcDbLine
 10
102.9053789133339
 20
-464.0609199774198
 30
0.0
 11
352.9053789133412
 21
-214.0609199774127
 31
0.0
  0
LINE
  5
3D3
330
1F
100
AcDbEntity
  8
0-0
  6
JWW_DASHED1
 62
   120
370
     5
100
AcDbLine
 10
442.905378913349
 20
-124.060919977405
 30
0.0
 11
692.9053789133404
 21
125.9390800225867
 31
0.0
  0
LINE
  5
3D4
330
1F
100
AcDbEntity
  8
0-0
  6
JWW_DASHED1
 62
   120
370
     5
100
AcDbLine
 10
102.9053789133297
 20
-456.9898521641386
 30
0.0
 11
352.9053789133372
 21
-206.9898521641315
 31
0.0
  0
LINE
  5
3D5
330
1F
100
AcDbEntity
  8
0-0
  6
JWW_DASHED1
 62
   120
370
     5
100
AcDbLine
 10
442.9053789133451
 20
-116.9898521641234
 30
0.0
 11
692.9053789133367
 21
133.0101478358679
 31
0.0
  0
LINE
  5
3D6
330
1F
100
AcDbEntity
  8
0-0
  6
JWW_DASHED1
 62
   120
370
     5
100
AcDbLine
 10
102.9053789133258
 20
-449.918784350857
 30
0.0
 11
352.9053789133491
 21
-199.9187843508336
 31
0.0
  0
LINE
  5
3D7
330
1F
100
AcDbEntity
  8
0-0
  6
JWW_DASHED1
 62
   120
370
     5
100
AcDbLine
 10
442.9053789133408
 20
-109.9187843508417
 30
0.0
 11
692.9053789133482
 21
140.0812156491654
 31
0.0
  0
LINE
  5
3D8
330
1F
100
AcDbEntity
  8
0-0
  6
JWW_DASHED1
 62
   120
370
     5
100
AcDbLine
 10
102.9053789133378
 20
-442.8477165375596
 30
0.0
 11
352.9053789133451
 21
-192.8477165375524
 31
0.0
  0
LINE
  5
3D9
330
1F
100
AcDbEntity
  8
0-0
  6
JWW_DASHED1
 62
   120
370
     5
100
AcDbLine
 10
442.905378913337
 20
-102.8477165375605
 30
0.0
 11
692.9053789133438
 21
147.1522834624466
 31
0.0
  0
LINE
  5
3DA
330
1F
100
AcDbEntity
  8
0-0
  6
JWW_DASHED1
 62
   120
370
     5
100
AcDbLine
 10
102.9053789133339
 20
-435.7766487242779
 30
0.0
 11
352.9053789133411
 21
-185.7766487242708
 31
0.0
  0
LINE
  5
3DB
330
1F
100
AcDbEntity
  8
0-0
  6
JWW_DASHED1
 62
   120
370
     5
100
AcDbLine
 10
442.9053789133327
 20
-95.77664872427931
 30
0.0
 11
692.9053789133404
 21
154.2233512757286
 31
0.0
  0
LINE
  5
3DC
330
1F
100
AcDbEntity
  8
0-0
  6
JWW_DASHED1
 62
   120
370
     5
100
AcDbLine
 10
102.9053789133416
 20
-428.7055809109852
 30
0.0
 11
352.9053789133468
 21
-178.7055809109793
 31
0.0
  0
LINE
  5
3DD
330
1F
100
AcDbEntity
  8
0-0
  6
JWW_DASHED1
 62
   120
370
     5
100
AcDbLine
 10
442.9053789133534
 20
-88.70558091097337
 30
0.0
 11
692.9053789133428
 21
161.2944190890163
 31
0.0
  0
LINE
  5
3DE
330
1F
100
AcDbEntity
  8
0-0
  6
JWW_DASHED1
 62
   120
370
     5
100
AcDbLine
 10
102.9053789133373
 20
-421.6345130977581
 30
0.0
 11
352.9053789133446
 21
-171.634513097751
 31
0.0
  0
LINE
  5
3DF
330
1F
100
AcDbEntity
  8
0-0
  6
JWW_DASHED1
 62
   120
370
     5
100
AcDbLine
 10
442.9053789133521
 20
-81.63451309774331
 30
0.0
 11
692.9053789133436
 21
168.365486902248
 31
0.0
  0
LINE
  5
3E0
330
1F
100
AcDbEntity
  8
0-0
  6
JWW_DASHED1
 62
   120
370
     5
100
AcDbLine
 10
102.9053789133331
 20
-414.5634452844769
 30
0.0
 11
352.9053789133404
 21
-164.5634452844698
 31
0.0
  0
LINE
  5
3E1
330
1F
100
AcDbEntity
  8
0-0
  6
JWW_DASHED1
 62
   120
370
     5
100
AcDbLine
 10
442.905378913348
 20
-74.56344528446209
 30
0.0
 11
692.9053789133399
 21
175.4365547155297
 31
0.0
  0
LINE
  5
3E2
330
1F
100
AcDbEntity
  8
0-0
  6
JWW_DASHED1
 62
   120
370
     5
100
AcDbLine
 10
102.9053789133288
 20
-407.4923774711957
 30
0.0
 11
352.9053789133525
 21
-157.4923774711723
 31
0.0
  0
LINE
  5
3E3
330
1F
100
AcDbEntity
  8
0-0
  6
JWW_DASHED1
 62
   120
370
     5
100
AcDbLine
 10
442.9053789133442
 20
-67.49237747118045
 30
0.0
 11
692.9053789133358
 21
182.5076225288109
 31
0.0
  0
LINE
  5
3E4
330
1F
100
AcDbEntity
  8
0-0
  6
JWW_DASHED1
 62
   120
370
     5
100
AcDbLine
 10
102.905378913325
 20
-400.421309657914
 30
0.0
 11
352.9053789133483
 21
-150.4213096578907
 31
0.0
  0
LINE
  5
3E5
330
1F
100
AcDbEntity
  8
0-0
  6
JWW_DASHED1
 62
   120
370
     5
100
AcDbLine
 10
442.90537891334
 20
-60.4213096578988
 30
0.0
 11
692.9053789133472
 21
189.5786903421083
 31
0.0
  0
LINE
  5
3E6
330
1F
100
AcDbEntity
  8
0-0
  6
JWW_DASHED1
 62
   120
370
     5
100
AcDbLine
 10
102.9053789133369
 20
-393.3502418446166
 30
0.0
 11
352.9053789133442
 21
-143.3502418446095
 31
0.0
  0
LINE
  5
3E7
330
1F
100
AcDbEntity
  8
0-0
  6
JWW_DASHED1
 62
   120
370
     5
100
AcDbLine
 10
442.9053789133359
 20
-53.35024184461759
 30
0.0
 11
692.9053789133435
 21
196.6497581553895
 31
0.0
  0
LINE
  5
3E8
330
1F
100
AcDbEntity
  8
0-0
  6
JWW_DASHED1
 62
   120
370
     5
100
AcDbLine
 10
102.9053789133331
 20
-386.2791740313349
 30
0.0
 11
352.9053789133404
 21
-136.2791740313278
 31
0.0
  0
LINE
  5
3E9
330
1F
100
AcDbEntity
  8
0-0
  6
JWW_DASHED1
 62
   120
370
     5
100
AcDbLine
 10
442.9053789133321
 20
-46.27917403133637
 30
0.0
 11
692.9053789133394
 21
203.7208259686712
 31
0.0
  0
LINE
  5
3EA
330
1F
100
AcDbEntity
  8
0-0
  6
JWW_DASHED1
 62
   120
370
     5
100
AcDbLine
 10
102.9053789133403
 20
-379.2081062180422
 30
0.0
 11
352.9053789133455
 21
-129.2081062180372
 31
0.0
  0
LINE
  5
3EB
330
1F
100
AcDbEntity
  8
0-0
  6
JWW_DASHED1
 62
   120
370
     5
100
AcDbLine
 10
442.9053789133521
 20
-39.20810621803042
 30
0.0
 11
692.9053789133418
 21
210.7918937819588
 31
0.0
  0
LINE
  5
3EC
330
1F
100
AcDbEntity
  8
0-0
  6
JWW_DASHED1
 62
   120
370
     5
100
AcDbLine
 10
102.9053789133359
 20
-372.1370384047614
 30
0.0
 11
352.9053789133412
 21
-122.137038404756
 31
0.0
  0
LINE
  5
3ED
330
1F
100
AcDbEntity
  8
0-0
  6
JWW_DASHED1
 62
   120
370
     5
100
AcDbLine
 10
442.905378913348
 20
-32.13703840474921
 30
0.0
 11
692.9053789133377
 21
217.8629615952404
 31
0.0
  0
LINE
  5
3EE
330
1F
100
AcDbEntity
  8
0-0
  6
JWW_DASHED1
 62
   120
370
     5
100
AcDbLine
 10
102.9053789133365
 20
-365.0659705914751
 30
0.0
 11
352.9053789133442
 21
-115.0659705914671
 31
0.0
  0
LINE
  5
3EF
330
1F
100
AcDbEntity
  8
0-0
  6
JWW_DASHED1
 62
   120
370
     5
100
AcDbLine
 10
442.9053789133517
 20
-25.06597059146031
 30
0.0
 11
692.9053789133433
 21
224.9340294085314
 31
0.0
  0
LINE
  5
3F0
330
1F
100
AcDbEntity
  8
0-0
  6
JWW_DASHED1
 62
   120
370
     5
100
AcDbLine
 10
102.9053789133327
 20
-357.9949027781939
 30
0.0
 11
352.9053789133402
 21
-107.9949027781859
 31
0.0
  0
LINE
  5
3F1
330
1F
100
AcDbEntity
  8
0-0
  6
JWW_DASHED1
 62
   120
370
     5
100
AcDbLine
 10
442.9053789133474
 20
-17.9949027781791
 30
0.0
 11
692.9053789133392
 21
232.0050972218127
 31
0.0
  0
LINE
  5
3F2
330
1F
100
AcDbEntity
  8
0-0
  6
JWW_DASHED1
 62
   120
370
     5
100
AcDbLine
 10
102.9053789133243
 20
-350.9238349649711
 30
0.0
 11
352.9053789133474
 21
-100.9238349649478
 31
0.0
  0
LINE
  5
3F3
330
1F
100
AcDbEntity
  8
0-0
  6
JWW_DASHED1
 62
   120
370
     5
100
AcDbLine
 10
442.9053789133393
 20
-10.92383496495586
 30
0.0
 11
692.9053789133465
 21
239.0761650350512
 31
0.0
  0
LINE
  5
3F4
330
1F
100
AcDbEntity
  8
0-0
  6
JWW_DASHED1
 62
   120
370
     5
100
AcDbLine
 10
102.9053789133361
 20
-343.8527671516737
 30
0.0
 11
352.9053789133434
 21
-93.85276715166654
 31
0.0
  0
LINE
  5
3F5
330
1F
100
AcDbEntity
  8
0-0
  6
JWW_DASHED1
 62
   120
370
     5
100
AcDbLine
 10
442.9053789133351
 20
-3.852767151674641
 30
0.0
 11
692.9053789133426
 21
246.1472328483325
 31
0.0
  0
LINE
  5
3F6
330
1F
100
AcDbEntity
  8
0-0
  6
JWW_DASHED1
 62
   120
370
     5
100
AcDbLine
 10
102.9053789133322
 20
-336.781699338392
 30
0.0
 11
352.9053789133395
 21
-86.7816993383849
 31
0.0
  0
LINE
  5
3F7
330
1F
100
AcDbEntity
  8
0-0
  6
JWW_DASHED1
 62
   120
370
     5
100
AcDbLine
 10
442.9053789133312
 20
3.218300661606577
 30
0.0
 11
692.9053789133387
 21
253.2183006616145
 31
0.0
  0
LINE
  5
3F8
330
1F
100
AcDbEntity
  8
0-0
  6
JWW_DASHED1
 62
   120
370
     5
100
AcDbLine
 10
102.9053789133388
 20
-329.7106315250997
 30
0.0
 11
352.905378913344
 21
-79.71063152509515
 31
0.0
  0
LINE
  5
3F9
330
1F
100
AcDbEntity
  8
0-0
  6
JWW_DASHED1
 62
   120
370
     5
100
AcDbLine
 10
442.9053789133511
 20
10.2893684749121
 30
0.0
 11
692.9053789133404
 21
260.2893684749017
 31
0.0
  0
LINE
  5
3FA
330
1F
100
AcDbEntity
  8
0-0
  6
JWW_DASHED1
 62
   120
370
     5
100
AcDbLine
 10
102.905378913335
 20
-322.6395637118185
 30
0.0
 11
352.9053789133402
 21
-72.63956371181308
 31
0.0
  0
LINE
  5
3FB
330
1F
100
AcDbEntity
  8
0-0
  6
JWW_DASHED1
 62
   120
370
     5
100
AcDbLine
 10
442.9053789133468
 20
17.36043628819374
 30
0.0
 11
692.9053789133364
 21
267.3604362881829
 31
0.0
  0
LINE
  5
3FC
330
1F
100
AcDbEntity
  8
0-0
  6
JWW_DASHED1
 62
   120
370
     5
100
AcDbLine
 10
102.9053789133356
 20
-315.5684958985321
 30
0.0
 11
352.9053789133434
 21
-65.56849589852419
 31
0.0
  0
LINE
  5
3FD
330
1F
100
AcDbEntity
  8
0-0
  6
JWW_DASHED1
 62
   120
370
     5
100
AcDbLine
 10
442.9053789133508
 20
24.43150410148263
 30
0.0
 11
692.9053789133424
 21
274.4315041014744
 31
0.0
  0
LINE
  5
3FE
330
1F
100
AcDbEntity
  8
0-0
  6
JWW_DASHED1
 62
   120
370
     5
100
AcDbLine
 10
102.905378913332
 20
-308.4974280852505
 30
0.0
 11
352.9053789133393
 21
-58.49742808524297
 31
0.0
  0
LINE
  5
3FF
330
1F
100
AcDbEntity
  8
0-0
  6
JWW_DASHED1
 62
   120
370
     5
100
AcDbLine
 10
442.9053789133466
 20
31.50257191476385
 30
0.0
 11
692.9053789133384
 21
281.5025719147556
 31
0.0
  0
LINE
  5
400
330
1F
100
AcDbEntity
  8
0-0
  6
JWW_DASHED1
 62
   120
370
     5
100
AcDbLine
 10
102.9053789133278
 20
-301.4263602719689
 30
0.0
 11
352.9053789133508
 21
-51.42636027194641
 31
0.0
  0
LINE
  5
401
330
1F
100
AcDbEntity
  8
0-0
  6
JWW_DASHED1
 62
   120
370
     5
100
AcDbLine
 10
442.9053789133428
 20
38.57363972804592
 30
0.0
 11
692.9053789133343
 21
288.5736397280373
 31
0.0
  0
LINE
  5
402
330
1F
100
AcDbEntity
  8
0-0
  6
JWW_DASHED1
 62
   120
370
     5
100
AcDbLine
 10
102.9053789133397
 20
-294.3552924586719
 30
0.0
 11
352.9053789133472
 21
-44.35529245866434
 31
0.0
  0
LINE
  5
403
330
1F
100
AcDbEntity
  8
0-0
  6
JWW_DASHED1
 62
   120
370
     5
100
AcDbLine
 10
442.9053789133389
 20
45.64470754132714
 30
0.0
 11
692.9053789133462
 21
295.6447075413347
 31
0.0
  0
LINE
  5
404
330
1F
100
AcDbEntity
  8
0-0
  6
JWW_DASHED1
 62
   120
370
     5
100
AcDbLine
 10
102.9053789133416
 20
-287.2842246454388
 30
0.0
 11
352.905378913347
 21
-37.28422464543343
 31
0.0
  0
LINE
  5
405
330
1F
100
AcDbEntity
  8
0-0
  6
JWW_DASHED1
 62
   120
370
     5
100
AcDbLine
 10
442.9053789133538
 20
52.7157753545734
 30
0.0
 11
692.9053789133433
 21
302.7157753545626
 31
0.0
  0
LINE
  5
406
330
1F
100
AcDbEntity
  8
0-0
  6
JWW_DASHED1
 62
   120
370
     5
100
AcDbLine
 10
102.9053789133378
 20
-280.2131568321576
 30
0.0
 11
352.9053789133432
 21
-30.21315683215221
 31
0.0
  0
LINE
  5
407
330
1F
100
AcDbEntity
  8
0-0
  6
JWW_DASHED1
 62
   120
370
     5
100
AcDbLine
 10
442.90537891335
 20
59.78684316785461
 30
0.0
 11
692.9053789133394
 21
309.7868431678443
 31
0.0
  0
LINE
  5
408
330
1F
100
AcDbEntity
  8
0-0
  6
JWW_DASHED1
 62
   120
370
     5
100
AcDbLine
 10
102.905378913339
 20
-273.1420890188704
 30
0.0
 11
352.9053789133466
 21
-23.14208901886332
 31
0.0
  0
LINE
  5
409
330
1F
100
AcDbEntity
  8
0-0
  6
JWW_DASHED1
 62
   120
370
     5
100
AcDbLine
 10
442.9053789133542
 20
66.85791098114436
 30
0.0
 11
692.9053789133455
 21
316.8579109811361
 31
0.0
  0
LINE
  5
40A
330
1F
100
AcDbEntity
  8
0-0
  6
JWW_DASHED1
 62
   120
370
     5
100
AcDbLine
 10
102.905378913335
 20
-266.0710212055892
 30
0.0
 11
352.9053789133428
 21
-16.07102120558125
 31
0.0
  0
LINE
  5
40B
330
1F
100
AcDbEntity
  8
0-0
  6
JWW_DASHED1
 62
   120
370
     5
100
AcDbLine
 10
442.90537891335
 20
73.92897879442557
 30
0.0
 11
692.9053789133416
 21
323.9289787944173
 31
0.0
  0
LINE
  5
40C
330
1F
100
AcDbEntity
  8
0-0
  6
JWW_DASHED1
 62
   120
370
     5
100
AcDbLine
 10
102.9053789133312
 20
-258.9999533923076
 30
0.0
 11
352.9053789133385
 21
-8.999953392300029
 31
0.0
  0
LINE
  5
40D
330
1F
100
AcDbEntity
  8
0-0
  6
JWW_DASHED1
 62
   120
370
     5
100
AcDbLine
 10
442.9053789133457
 20
81.00004660770722
 30
0.0
 11
692.9053789133375
 21
331.0000466076986
 31
0.0
  0
LINE
  5
40E
330
1F
100
AcDbEntity
  8
0-0
  6
JWW_DASHED1
 62
   120
370
     5
100
AcDbLine
 10
102.9053789133269
 20
-251.9288855790259
 30
0.0
 11
352.9053789133502
 21
-1.928885579003037
 31
0.0
  0
LINE
  5
40F
330
1F
100
AcDbEntity
  8
0-0
  6
JWW_DASHED1
 62
   120
370
     5
100
AcDbLine
 10
442.9053789133419
 20
88.07111442098886
 30
0.0
 11
692.9053789133494
 21
338.071114420996
 31
0.0
  0
LINE
  5
410
330
1F
100
AcDbEntity
  8
0-0
  6
JWW_DASHED1
 62
   120
370
     5
100
AcDbLine
 10
102.9053789133388
 20
-244.8578177657289
 30
0.0
 11
352.9053789133463
 21
5.142182234278607
 31
0.0
  0
LINE
  5
411
330
1F
100
AcDbEntity
  8
0-0
  6
JWW_DASHED1
 62
   120
370
     5
100
AcDbLine
 10
442.905378913338
 20
95.14218223427008
 30
0.0
 11
692.9053789133454
 21
345.1421822342776
 31
0.0
  0
LINE
  5
412
330
1F
100
AcDbEntity
  8
0-0
  6
JWW_DASHED1
 62
   120
370
     5
100
AcDbLine
 10
102.905378913335
 20
-237.7867499524473
 30
0.0
 11
352.9053789133421
 21
12.21325004755982
 31
0.0
  0
LINE
  5
413
330
1F
100
AcDbEntity
  8
0-0
  6
JWW_DASHED1
 62
   120
370
     5
100
AcDbLine
 10
442.9053789133338
 20
102.2132500475513
 30
0.0
 11
692.9053789133413
 21
352.2132500475593
 31
0.0
  0
LINE
  5
414
330
1F
100
AcDbEntity
  8
0-0
  6
JWW_DASHED1
 62
   120
370
     5
100
AcDbLine
 10
102.905378913341
 20
-230.7156821391558
 30
0.0
 11
352.9053789133457
 21
19.28431786084914
 31
0.0
  0
LINE
  5
415
330
1F
100
AcDbEntity
  8
0-0
  6
JWW_DASHED1
 62
   120
370
     5
100
AcDbLine
 10
442.905378913353
 20
109.2843178608564
 30
0.0
 11
692.9053789133424
 21
359.2843178608456
 31
0.0
  0
LINE
  5
416
330
1F
100
AcDbEntity
  8
0-0
  6
JWW_DASHED1
 62
   120
370
     5
100
AcDbLine
 10
102.9053789133365
 20
-223.6446143258746
 30
0.0
 11
352.9053789133419
 21
26.35538567413079
 31
0.0
  0
LINE
  5
417
330
1F
100
AcDbEntity
  8
0-0
  6
JWW_DASHED1
 62
   120
370
     5
100
AcDbLine
 10
442.905378913349
 20
116.3553856741376
 30
0.0
 11
692.9053789133386
 21
366.3553856741268
 31
0.0
  0
LINE
  5
418
330
1F
100
AcDbEntity
  8
0-0
  6
JWW_DASHED1
 62
   120
370
     5
100
AcDbLine
 10
102.9053789133341
 20
-216.5735465126463
 30
0.0
 11
352.9053789133419
 21
33.4264534873617
 31
0.0
  0
LINE
  5
419
330
1F
100
AcDbEntity
  8
0-0
  6
JWW_DASHED1
 62
   120
370
     5
100
AcDbLine
 10
442.9053789133491
 20
123.4264534873685
 30
0.0
 11
692.9053789133407
 21
373.4264534873603
 31
0.0
  0
LINE
  5
41A
330
1F
100
AcDbEntity
  8
0-0
  6
JWW_DASHED1
 62
   120
370
     5
100
AcDbLine
 10
102.9053789133303
 20
-209.5024786993642
 30
0.0
 11
352.9053789133532
 21
40.49752130065826
 31
0.0
  0
LINE
  5
41B
330
1F
100
AcDbEntity
  8
0-0
  6
JWW_DASHED1
 62
   120
370
     5
100
AcDbLine
 10
442.9053789133449
 20
130.4975213006502
 30
0.0
 11
692.9053789133368
 21
380.4975213006419
 31
0.0
  0
LINE
  5
41C
330
1F
100
AcDbEntity
  8
0-0
  6
JWW_DASHED1
 62
   120
370
     5
100
AcDbLine
 10
102.9053789133263
 20
-202.431410886083
 30
0.0
 11
352.9053789133491
 21
47.56858911393948
 31
0.0
  0
LINE
  5
41D
330
1F
100
AcDbEntity
  8
0-0
  6
JWW_DASHED1
 62
   120
370
     5
100
AcDbLine
 10
442.9053789133411
 20
137.5685891139318
 30
0.0
 11
692.9053789133486
 21
387.5685891139389
 31
0.0
  0
LINE
  5
41E
330
1F
100
AcDbEntity
  8
0-0
  6
JWW_DASHED1
 62
   120
370
     5
100
AcDbLine
 10
102.9053789133382
 20
-195.3603430727856
 30
0.0
 11
352.9053789133455
 21
54.63965692722155
 31
0.0
  0
LINE
  5
41F
330
1F
100
AcDbEntity
  8
0-0
  6
JWW_DASHED1
 62
   120
370
     5
100
AcDbLine
 10
442.9053789133372
 20
144.639656927213
 30
0.0
 11
692.9053789133445
 21
394.6396569272206
 31
0.0
  0
LINE
  5
420
330
1F
100
AcDbEntity
  8
0-0
  6
JWW_DASHED1
 62
   120
370
     5
100
AcDbLine
 10
102.9053789133341
 20
-188.2892752595043
 30
0.0
 11
352.9053789133412
 21
61.71072474050277
 31
0.0
  0
LINE
  5
421
330
1F
100
AcDbEntity
  8
0-0
  6
JWW_DASHED1
 62
   120
370
     5
100
AcDbLine
 10
442.9053789133329
 20
151.7107247404942
 30
0.0
 11
692.9053789133404
 21
401.7107247405022
 31
0.0
  0
LINE
  5
422
330
1F
100
AcDbEntity
  8
0-0
  6
JWW_DASHED1
 62
   120
370
     5
100
AcDbLine
 10
102.9053789133395
 20
-181.2182074462133
 30
0.0
 11
352.9053789133449
 21
68.78179255379209
 31
0.0
  0
LINE
  5
423
330
1F
100
AcDbEntity
  8
0-0
  6
JWW_DASHED1
 62
   120
370
     5
100
AcDbLine
 10
442.9053789133517
 20
158.7817925537985
 30
0.0
 11
692.9053789133411
 21
408.7817925537881
 31
0.0
  0
LINE
  5
424
330
1F
100
AcDbEntity
  8
0-0
  6
JWW_DASHED1
 62
   120
370
     5
100
AcDbLine
 10
102.9053789133354
 20
-174.1471396329321
 30
0.0
 11
352.9053789133408
 21
75.8528603670733
 31
0.0
  0
LINE
  5
425
330
1F
100
AcDbEntity
  8
0-0
  6
JWW_DASHED1
 62
   120
370
     5
100
AcDbLine
 10
442.9053789133476
 20
165.8528603670801
 30
0.0
 11
692.905378913337
 21
415.8528603670698
 31
0.0
  0
LINE
  5
426
330
1F
100
AcDbEntity
  8
0-0
  6
JWW_DASHED1
 62
   120
370
     5
100
AcDbLine
 10
102.9053789133378
 20
-167.0760718196445
 30
0.0
 11
352.9053789133451
 21
82.92392818036305
 31
0.0
  0
LINE
  5
427
330
1F
100
AcDbEntity
  8
0-0
  6
JWW_DASHED1
 62
   120
370
     5
100
AcDbLine
 10
442.9053789133528
 20
172.9239281803707
 30
0.0
 11
692.9053789133443
 21
422.9239281803621
 31
0.0
  0
LINE
  5
428
330
1F
100
AcDbEntity
  8
0-0
  6
JWW_DASHED1
 62
   120
370
     5
100
AcDbLine
 10
102.9053789133335
 20
-160.0050040063628
 30
0.0
 11
352.9053789133411
 21
89.9949959936447
 31
0.0
  0
LINE
  5
429
330
1F
100
AcDbEntity
  8
0-0
  6
JWW_DASHED1
 62
   120
370
     5
100
AcDbLine
 10
442.9053789133485
 20
179.9949959936519
 30
0.0
 11
692.9053789133401
 21
429.9949959936433
 31
0.0
  0
LINE
  5
42A
330
1F
100
AcDbEntity
  8
0-0
  6
JWW_DASHED1
 62
   120
370
     5
100
AcDbLine
 10
102.9053789133254
 20
-152.93393619314
 30
0.0
 11
352.9053789133485
 21
97.06606380688285
 31
0.0
  0
LINE
  5
42B
330
1F
100
AcDbEntity
  8
0-0
  6
JWW_DASHED1
 62
   120
370
     5
100
AcDbLine
 10
442.9053789133406
 20
187.0660638068748
 30
0.0
 11
692.9053789133475
 21
437.0660638068819
 31
0.0
  0
LINE
  5
42C
330
1F
100
AcDbEntity
  8
0-0
  6
JWW_DASHED1
 62
   120
370
     5
100
AcDbLine
 10
102.9053789133371
 20
-145.862868379843
 30
0.0
 11
352.9053789133446
 21
104.1371316201645
 31
0.0
  0
LINE
  5
42D
330
1F
100
AcDbEntity
  8
0-0
  6
JWW_DASHED1
 62
   120
370
     5
100
AcDbLine
 10
442.9053789133363
 20
194.137131620156
 30
0.0
 11
692.9053789133436
 21
444.1371316201635
 31
0.0
  0
LINE
  5
42E
330
1F
100
AcDbEntity
  8
0-0
  6
JWW_DASHED1
 62
   120
370
     5
100
AcDbLine
 10
102.9053789133333
 20
-138.7918005665614
 30
0.0
 11
352.9053789133404
 21
111.2081994334457
 31
0.0
  0
LINE
  5
42F
330
1F
100
AcDbEntity
  8
0-0
  6
JWW_DASHED1
 62
   120
370
     5
100
AcDbLine
 10
442.9053789133321
 20
201.2081994334372
 30
0.0
 11
692.9053789133399
 21
451.2081994334451
 31
0.0
  0
LINE
  5
430
330
1F
100
AcDbEntity
  8
0-0
  6
JWW_DASHED1
 62
   120
370
     5
100
AcDbLine
 10
102.905378913338
 20
-131.7207327532708
 30
0.0
 11
352.9053789133436
 21
118.2792672467346
 31
0.0
  0
LINE
  5
431
330
1F
100
AcDbEntity
  8
0-0
  6
JWW_DASHED1
 62
   120
370
     5
100
AcDbLine
 10
442.9053789133502
 20
208.279267246741
 30
0.0
 11
692.9053789133401
 21
458.2792672467306
 31
0.0
  0
LINE
  5
432
330
1F
100
AcDbEntity
  8
0-0
  6
JWW_DASHED1
 62
   120
370
     5
100
AcDbLine
 10
102.9053789133341
 20
-124.6496649399896
 30
0.0
 11
352.9053789133395
 21
125.3503350600158
 31
0.0
  0
LINE
  5
433
330
1F
100
AcDbEntity
  8
0-0
  6
JWW_DASHED1
 62
   120
370
     5
100
AcDbLine
 10
442.9053789133462
 20
215.3503350600226
 30
0.0
 11
692.9053789133358
 21
465.3503350600118
 31
0.0
  0
LINE
  5
434
330
1F
100
AcDbEntity
  8
0-0
  6
JWW_DASHED1
 62
   120
370
     5
100
AcDbLine
 10
102.9053789133369
 20
-117.5785971267015
 30
0.0
 11
352.9053789133442
 21
132.421402873306
 31
0.0
  0
LINE
  5
435
330
1F
100
AcDbEntity
  8
0-0
  6
JWW_DASHED1
 62
   120
370
     5
100
AcDbLine
 10
442.9053789133515
 20
222.4214028733132
 30
0.0
 11
692.9053789133435
 21
472.421402873305
 31
0.0
  0
LINE
  5
436
330
1F
100
AcDbEntity
  8
0-0
  6
JWW_DASHED1
 62
   120
370
     5
100
AcDbLine
 10
102.9053789133327
 20
-110.5075293134199
 30
0.0
 11
352.9053789133404
 21
139.4924706865876
 31
0.0
  0
LINE
  5
437
330
1F
100
AcDbEntity
  8
0-0
  6
JWW_DASHED1
 62
   120
370
     5
100
AcDbLine
 10
442.9053789133476
 20
229.4924706865949
 30
0.0
 11
692.9053789133394
 21
479.4924706865867
 31
0.0
  0
LINE
  5
438
330
1F
100
AcDbEntity
  8
0-0
  6
JWW_DASHED1
 62
   120
370
     5
100
AcDbLine
 10
102.9053789133288
 20
-103.4364615001383
 30
0.0
 11
352.9053789133521
 21
146.5635384998851
 31
0.0
  0
LINE
  5
439
330
1F
100
AcDbEntity
  8
0-0
  6
JWW_DASHED1
 62
   120
370
     5
100
AcDbLine
 10
442.9053789133438
 20
236.5635384998765
 30
0.0
 11
692.9053789133353
 21
486.5635384998683
 31
0.0
  0
LINE
  5
43A
330
1F
100
AcDbEntity
  8
0-0
  6
JWW_DASHED1
 62
   120
370
     5
100
AcDbLine
 10
102.9053789133405
 20
-96.36539368684083
 30
0.0
 11
352.9053789133479
 21
153.6346063131663
 31
0.0
  0
LINE
  5
43B
330
1F
100
AcDbEntity
  8
0-0
  6
JWW_DASHED1
 62
   120
370
     5
100
AcDbLine
 10
442.9053789133395
 20
243.6346063131577
 30
0.0
 11
692.905378913347
 21
493.6346063131652
 31
0.0
  0
LINE
  5
43C
330
1F
100
AcDbEntity
  8
0-0
  6
JWW_DASHED1
 62
   120
370
     5
100
AcDbLine
 10
102.9053789133365
 20
-89.29432587355961
 30
0.0
 11
352.9053789133438
 21
160.7056741264475
 31
0.0
  0
LINE
  5
43D
330
1F
100
AcDbEntity
  8
0-0
  6
JWW_DASHED1
 62
   120
370
     5
100
AcDbLine
 10
442.9053789133359
 20
250.7056741264398
 30
0.0
 11
692.905378913343
 21
500.7056741264469
 31
0.0
  0
LINE
  5
43E
330
1F
100
AcDbEntity
  8
0-0
  6
JWW_DASHED1
 62
   120
370
     5
100
AcDbLine
 10
102.9053789133373
 20
-82.22325806032785
 30
0.0
 11
352.9053789133428
 21
167.7767419396775
 31
0.0
  0
LINE
  5
43F
330
1F
100
AcDbEntity
  8
0-0
  6
JWW_DASHED1
 62
   120
370
     5
100
AcDbLine
 10
442.9053789133491
 20
257.7767419396835
 30
0.0
 11
692.9053789133386
 21
507.7767419396731
 31
0.0
  0
LINE
  5
440
330
1F
100
AcDbEntity
  8
0-0
  6
JWW_DASHED1
 62
   120
370
     5
100
AcDbLine
 10
102.9053789133399
 20
-75.15219024703981
 30
0.0
 11
352.9053789133476
 21
174.8478097529677
 31
0.0
  0
LINE
  5
441
330
1F
100
AcDbEntity
  8
0-0
  6
JWW_DASHED1
 62
   120
370
     5
100
AcDbLine
 10
442.9053789133549
 20
264.847809752975
 30
0.0
 11
692.9053789133467
 21
514.8478097529667
 31
0.0
  0
LINE
  5
442
330
1F
100
AcDbEntity
  8
0-0
  6
JWW_DASHED1
 62
   120
370
     5
100
AcDbLine
 10
102.9053789133361
 20
-68.0811224337586
 30
0.0
 11
352.9053789133434
 21
181.9188775662489
 31
0.0
  0
LINE
  5
443
330
1F
100
AcDbEntity
  8
0-0
  6
JWW_DASHED1
 62
   120
370
     5
100
AcDbLine
 10
442.9053789133511
 20
271.9188775662566
 30
0.0
 11
692.9053789133426
 21
521.9188775662479
 31
0.0
  0
LINE
  5
444
330
1F
100
AcDbEntity
  8
0-0
  6
JWW_DASHED1
 62
   120
370
     5
100
AcDbLine
 10
102.9053789133322
 20
-61.01005462047652
 30
0.0
 11
352.9053789133391
 21
188.9899453795302
 31
0.0
  0
LINE
  5
445
330
1F
100
AcDbEntity
  8
0-0
  6
JWW_DASHED1
 62
   120
370
     5
100
AcDbLine
 10
442.9053789133472
 20
278.9899453795383
 30
0.0
 11
692.9053789133387
 21
528.98994537953
 31
0.0
  0
LINE
  5
446
330
1F
100
AcDbEntity
  8
0-0
  6
JWW_DASHED1
 62
   120
370
     5
100
AcDbLine
 10
102.9053789133284
 20
-53.93898680719531
 30
0.0
 11
352.9053789133513
 21
196.061013192828
 31
0.0
  0
LINE
  5
447
330
1F
100
AcDbEntity
  8
0-0
  6
JWW_DASHED1
 62
   120
370
     5
100
AcDbLine
 10
442.9053789133429
 20
286.0610131928195
 30
0.0
 11
692.9053789133345
 21
536.0610131928113
 31
0.0
  0
LINE
  5
448
330
1F
100
AcDbEntity
  8
0-0
  6
JWW_DASHED1
 62
   120
370
     5
100
AcDbLine
 10
102.9053789133399
 20
-46.86791899389789
 30
0.0
 11
352.905378913347
 21
203.1320810061092
 31
0.0
  0
LINE
  5
449
330
1F
100
AcDbEntity
  8
0-0
  6
JWW_DASHED1
 62
   120
370
     5
100
AcDbLine
 10
442.9053789133387
 20
293.1320810061007
 30
0.0
 11
692.9053789133462
 21
543.1320810061083
 31
0.0
  0
LINE
  5
44A
330
1F
100
AcDbEntity
  8
0-0
  6
JWW_DASHED1
 62
   120
370
     5
100
AcDbLine
 10
102.9053789133356
 20
-39.79685118061667
 30
0.0
 11
352.9053789133434
 21
210.2031488193913
 31
0.0
  0
LINE
  5
44B
330
1F
100
AcDbEntity
  8
0-0
  6
JWW_DASHED1
 62
   120
370
     5
100
AcDbLine
 10
442.9053789133351
 20
300.2031488193828
 30
0.0
 11
692.9053789133424
 21
550.2031488193899
 31
0.0
  0
LINE
  5
44C
330
1F
100
AcDbEntity
  8
0-0
  6
JWW_DASHED1
 62
   120
370
     5
100
AcDbLine
 10
102.9053789133399
 20
-32.72578336732693
 30
0.0
 11
352.9053789133453
 21
217.2742166326785
 31
0.0
  0
LINE
  5
44D
330
1F
100
AcDbEntity
  8
0-0
  6
JWW_DASHED1
 62
   120
370
     5
100
AcDbLine
 10
442.9053789133524
 20
307.2742166326853
 30
0.0
 11
692.905378913342
 21
557.2742166326746
 31
0.0
  0
LINE
  5
44E
330
1F
100
AcDbEntity
  8
0-0
  6
JWW_DASHED1
 62
   120
370
     5
100
AcDbLine
 10
102.9053789133361
 20
-25.65471555404571
 30
0.0
 11
352.9053789133415
 21
224.3452844459597
 31
0.0
  0
LINE
  5
44F
330
1F
100
AcDbEntity
  8
0-0
  6
JWW_DASHED1
 62
   120
370
     5
100
AcDbLine
 10
442.9053789133485
 20
314.345284445967
 30
0.0
 11
692.9053789133377
 21
564.3452844459562
 31
0.0
  0
LINE
  5
450
330
1F
100
AcDbEntity
  8
0-0
  6
JWW_DASHED1
 62
   120
370
     5
100
AcDbLine
 10
102.9053789133352
 20
-18.58364774081522
 30
0.0
 11
352.9053789133425
 21
231.4163522591919
 31
0.0
  0
LINE
  5
451
330
1F
100
AcDbEntity
  8
0-0
  6
JWW_DASHED1
 62
   120
370
     5
100
AcDbLine
 10
442.9053789133502
 20
321.4163522591996
 30
0.0
 11
692.9053789133418
 21
571.416352259191
 31
0.0
  0
LINE
  5
452
330
1F
100
AcDbEntity
  8
0-0
  6
JWW_DASHED1
 62
   120
370
     5
100
AcDbLine
 10
102.9053789133312
 20
-11.51257992753401
 30
0.0
 11
352.9053789133542
 21
238.4874200724889
 31
0.0
  0
LINE
  5
453
330
1F
100
AcDbEntity
  8
0-0
  6
JWW_DASHED1
 62
   120
370
     5
100
AcDbLine
 10
442.9053789133463
 20
328.4874200724812
 30
0.0
 11
692.9053789133377
 21
578.4874200724726
 31
0.0
  0
LINE
  5
454
330
1F
100
AcDbEntity
  8
0-0
  6
JWW_DASHED1
 62
   120
370
     5
100
AcDbLine
 10
102.9053789133271
 20
-4.441512114252362
 30
0.0
 11
352.9053789133504
 21
245.5584878857709
 31
0.0
  0
LINE
  5
455
330
1F
100
AcDbEntity
  8
0-0
  6
JWW_DASHED1
 62
   120
370
     5
100
AcDbLine
 10
442.9053789133421
 20
335.5584878857624
 30
0.0
 11
692.9053789133496
 21
585.55848788577
 31
0.0
  0
LINE
  5
456
330
1F
100
AcDbEntity
  8
0-0
  6
JWW_DASHED1
 62
   120
370
     5
100
AcDbLine
 10
102.905378913339
 20
2.629555699045056
 30
0.0
 11
352.9053789133462
 21
252.6295556990522
 31
0.0
  0
LINE
  5
457
330
1F
100
AcDbEntity
  8
0-0
  6
JWW_DASHED1
 62
   120
370
     5
100
AcDbLine
 10
442.9053789133383
 20
342.6295556990441
 30
0.0
 11
692.9053789133455
 21
592.6295556990511
 31
0.0
  0
LINE
  5
458
330
1F
100
AcDbEntity
  8
0-0
  6
JWW_DASHED1
 62
   120
370
     5
100
AcDbLine
 10
102.9053789133348
 20
9.700623512326274
 30
0.0
 11
352.9053789133428
 21
259.7006235123342
 31
0.0
  0
LINE
  5
459
330
1F
100
AcDbEntity
  8
0-0
  6
JWW_DASHED1
 62
   120
370
     5
100
AcDbLine
 10
442.9053789133344
 20
349.7006235123257
 30
0.0
 11
692.9053789133416
 21
599.7006235123329
 31
0.0
  0
LINE
  5
45A
330
1F
100
AcDbEntity
  8
0-0
  6
JWW_DASHED1
 62
   120
370
     5
100
AcDbLine
 10
102.905378913339
 20
16.77169132561602
 30
0.0
 11
352.9053789133442
 21
266.771691325621
 31
0.0
  0
LINE
  5
45B
330
1F
100
AcDbEntity
  8
0-0
  6
JWW_DASHED1
 62
   120
370
     5
100
AcDbLine
 10
442.9053789133508
 20
356.7716913256278
 30
0.0
 11
692.9053789133404
 21
606.7716913256174
 31
0.0
  0
LINE
  5
45C
330
1F
100
AcDbEntity
  8
0-0
  6
JWW_DASHED1
 62
   120
370
     5
100
AcDbLine
 10
102.9053789133348
 20
23.84275913889724
 30
0.0
 11
352.9053789133404
 21
273.8427591389026
 31
0.0
  0
LINE
  5
45D
330
1F
100
AcDbEntity
  8
0-0
  6
JWW_DASHED1
 62
   120
370
     5
100
AcDbLine
 10
442.905378913347
 20
363.8427591389095
 30
0.0
 11
692.9053789133367
 21
613.8427591388986
 31
0.0
  0
LINE
  5
45E
330
1F
100
AcDbEntity
  8
0-0
  6
JWW_DASHED1
 62
   120
370
     5
100
AcDbLine
 10
102.9053789133388
 20
30.91382695218655
 30
0.0
 11
352.9053789133462
 21
280.9138269521941
 31
0.0
  0
LINE
  5
45F
330
1F
100
AcDbEntity
  8
0-0
  6
JWW_DASHED1
 62
   120
370
     5
100
AcDbLine
 10
442.9053789133538
 20
370.9138269522018
 30
0.0
 11
692.9053789133454
 21
620.9138269521931
 31
0.0
  0
LINE
  5
460
330
1F
100
AcDbEntity
  8
0-0
  6
JWW_DASHED1
 62
   120
370
     5
100
AcDbLine
 10
102.905378913335
 20
37.9848947654682
 30
0.0
 11
352.9053789133421
 21
287.9848947654753
 31
0.0
  0
LINE
  5
461
330
1F
100
AcDbEntity
  8
0-0
  6
JWW_DASHED1
 62
   120
370
     5
100
AcDbLine
 10
442.9053789133496
 20
377.984894765483
 30
0.0
 11
692.9053789133413
 21
627.9848947654748
 31
0.0
  0
LINE
  5
462
330
1F
100
AcDbEntity
  8
0-0
  6
JWW_DASHED1
 62
   120
370
     5
100
AcDbLine
 10
102.9053789133263
 20
45.05596257869058
 30
0.0
 11
352.9053789133496
 21
295.0559625787139
 31
0.0
  0
LINE
  5
463
330
1F
100
AcDbEntity
  8
0-0
  6
JWW_DASHED1
 62
   120
370
     5
100
AcDbLine
 10
442.9053789133412
 20
385.0559625787054
 30
0.0
 11
692.9053789133488
 21
635.0559625787129
 31
0.0
  0
LINE
  5
464
330
1F
100
AcDbEntity
  8
0-0
  6
JWW_DASHED1
 62
   120
370
     5
100
AcDbLine
 10
102.9053789133382
 20
52.127030391988
 30
0.0
 11
352.9053789133457
 21
302.1270303919951
 31
0.0
  0
LINE
  5
465
330
1F
100
AcDbEntity
  8
0-0
  6
JWW_DASHED1
 62
   120
370
     5
100
AcDbLine
 10
442.905378913337
 20
392.1270303919866
 30
0.0
 11
692.9053789133447
 21
642.1270303919941
 31
0.0
  0
LINE
  5
466
330
1F
100
AcDbEntity
  8
0-0
  6
JWW_DASHED1
 62
   120
370
     5
100
AcDbLine
 10
102.9053789133339
 20
59.19809820526922
 30
0.0
 11
352.9053789133419
 21
309.1980982052772
 31
0.0
  0
LINE
  5
467
330
1F
100
AcDbEntity
  8
0-0
  6
JWW_DASHED1
 62
   120
370
     5
100
AcDbLine
 10
442.9053789133332
 20
399.1980982052683
 30
0.0
 11
692.9053789133407
 21
649.1980982052758
 31
0.0
  0
LINE
  5
468
330
1F
100
AcDbEntity
  8
0-0
  6
JWW_DASHED1
 62
   120
370
     5
100
AcDbLine
 10
102.9053789133376
 20
66.26916601855811
 30
0.0
 11
352.9053789133429
 21
316.2691660185635
 31
0.0
  0
LINE
  5
469
330
1F
100
AcDbEntity
  8
0-0
  6
JWW_DASHED1
 62
   120
370
     5
100
AcDbLine
 10
442.9053789133498
 20
406.2691660185703
 30
0.0
 11
692.9053789133392
 21
656.2691660185595
 31
0.0
  0
LINE
  5
46A
330
1F
100
AcDbEntity
  8
0-0
  6
JWW_DASHED1
 62
   120
370
     5
100
AcDbLine
 10
102.9053789133337
 20
73.34023383183975
 30
0.0
 11
352.9053789133389
 21
323.3402338318447
 31
0.0
  0
LINE
  5
46B
330
1F
100
AcDbEntity
  8
0-0
  6
JWW_DASHED1
 62
   120
370
     5
100
AcDbLine
 10
442.9053789133455
 20
413.3402338318515
 30
0.0
 11
692.9053789133353
 21
663.3402338318416
 31
0.0
  0
LINE
  5
46C
330
1F
100
AcDbEntity
  8
0-0
  6
JWW_DASHED1
 62
   120
370
     5
100
AcDbLine
 10
102.9053789133382
 20
80.41130164512992
 30
0.0
 11
352.9053789133453
 21
330.411301645137
 31
0.0
  0
LINE
  5
46D
330
1F
100
AcDbEntity
  8
0-0
  6
JWW_DASHED1
 62
   120
370
     5
100
AcDbLine
 10
442.905378913353
 20
420.4113016451447
 30
0.0
 11
692.9053789133445
 21
670.4113016451361
 31
0.0
  0
LINE
  5
46E
330
1F
100
AcDbEntity
  8
0-0
  6
JWW_DASHED1
 62
   120
370
     5
100
AcDbLine
 10
102.9053789133341
 20
87.48236945841114
 30
0.0
 11
352.9053789133412
 21
337.4823694584182
 31
0.0
  0
LINE
  5
46F
330
1F
100
AcDbEntity
  8
0-0
  6
JWW_DASHED1
 62
   120
370
     5
100
AcDbLine
 10
442.905378913349
 20
427.4823694584259
 30
0.0
 11
692.9053789133407
 21
677.4823694584177
 31
0.0
  0
LINE
  5
470
330
1F
100
AcDbEntity
  8
0-0
  6
JWW_DASHED1
 62
   120
370
     5
100
AcDbLine
 10
102.9053789133299
 20
94.55343727169236
 30
0.0
 11
352.9053789133532
 21
344.5534372717157
 31
0.0
  0
LINE
  5
471
330
1F
100
AcDbEntity
  8
0-0
  6
JWW_DASHED1
 62
   120
370
     5
100
AcDbLine
 10
442.9053789133449
 20
434.5534372717071
 30
0.0
 11
692.9053789133364
 21
684.5534372716988
 31
0.0
  0
LINE
  5
472
330
1F
100
AcDbEntity
  8
0-0
  6
JWW_DASHED1
 62
   120
370
     5
100
AcDbLine
 10
102.9053789133256
 20
101.6245050849736
 30
0.0
 11
352.9053789133491
 21
351.6245050849969
 31
0.0
  0
LINE
  5
473
330
1F
100
AcDbEntity
  8
0-0
  6
JWW_DASHED1
 62
   120
370
     5
100
AcDbLine
 10
442.9053789133406
 20
441.6245050849884
 30
0.0
 11
692.9053789133482
 21
691.6245050849964
 31
0.0
  0
LINE
  5
474
330
1F
100
AcDbEntity
  8
0-0
  6
JWW_DASHED1
 62
   120
370
     5
100
AcDbLine
 10
102.9053789133378
 20
108.695572898271
 30
0.0
 11
352.9053789133451
 21
358.6955728982786
 31
0.0
  0
LINE
  5
475
330
1F
100
AcDbEntity
  8
0-0
  6
JWW_DASHED1
 62
   120
370
     5
100
AcDbLine
 10
442.9053789133368
 20
448.6955728982704
 30
0.0
 11
692.9053789133443
 21
698.6955728982775
 31
0.0
  0
LINE
  5
476
330
1F
100
AcDbEntity
  8
0-0
  6
JWW_DASHED1
 62
   120
370
     5
100
AcDbLine
 10
102.9053789133367
 20
115.7666407115011
 30
0.0
 11
352.9053789133417
 21
365.7666407115061
 31
0.0
  0
LINE
  5
477
330
1F
100
AcDbEntity
  8
0-0
  6
JWW_DASHED1
 62
   120
370
     5
100
AcDbLine
 10
442.9053789133485
 20
455.7666407115129
 30
0.0
 11
692.9053789133382
 21
705.7666407115025
 31
0.0
  0
LINE
  5
478
330
1F
100
AcDbEntity
  8
0-0
  6
JWW_DASHED1
 62
   120
370
     5
100
AcDbLine
 10
102.905378913341
 20
122.8377085247908
 30
0.0
 11
352.9053789133483
 21
372.8377085247979
 31
0.0
  0
LINE
  5
479
330
1F
100
AcDbEntity
  8
0-0
  6
JWW_DASHED1
 62
   120
370
     5
100
AcDbLine
 10
442.9053789133559
 20
462.8377085248056
 30
0.0
 11
692.9053789133475
 21
712.8377085247973
 31
0.0
  0
LINE
  5
47A
330
1F
100
AcDbEntity
  8
0-0
  6
JWW_DASHED1
 62
   120
370
     5
100
AcDbLine
 10
102.9053789133371
 20
129.9087763380724
 30
0.0
 11
352.9053789133446
 21
379.90877633808
 31
0.0
  0
LINE
  5
47B
330
1F
100
AcDbEntity
  8
0-0
  6
JWW_DASHED1
 62
   120
370
     5
100
AcDbLine
 10
442.9053789133521
 20
469.9087763380876
 30
0.0
 11
692.9053789133436
 21
719.908776338079
 31
0.0
  0
LINE
  5
47C
330
1F
100
AcDbEntity
  8
0-0
  6
JWW_DASHED1
 62
   120
370
     5
100
AcDbLine
 10
102.9053789133333
 20
136.9798441513541
 30
0.0
 11
352.9053789133404
 21
386.9798441513612
 31
0.0
  0
LINE
  5
47D
330
1F
100
AcDbEntity
  8
0-0
  6
JWW_DASHED1
 62
   120
370
     5
100
AcDbLine
 10
442.9053789133479
 20
476.9798441513689
 30
0.0
 11
692.9053789133399
 21
726.9798441513606
 31
0.0
  0
LINE
  5
47E
330
1F
100
AcDbEntity
  8
0-0
  6
JWW_DASHED1
 62
   120
370
     5
100
AcDbLine
 10
102.905378913329
 20
144.0509119646353
 30
0.0
 11
352.9053789133524
 21
394.0509119646586
 31
0.0
  0
LINE
  5
47F
330
1F
100
AcDbEntity
  8
0-0
  6
JWW_DASHED1
 62
   120
370
     5
100
AcDbLine
 10
442.905378913344
 20
484.0509119646501
 30
0.0
 11
692.9053789133355
 21
734.0509119646418
 31
0.0
  0
LINE
  5
480
330
1F
100
AcDbEntity
  8
0-0
  6
JWW_DASHED1
 62
   120
370
     5
100
AcDbLine
 10
102.9053789133408
 20
151.1219797779327
 30
0.0
 11
352.9053789133485
 21
401.1219797779403
 31
0.0
  0
LINE
  5
481
330
1F
100
AcDbEntity
  8
0-0
  6
JWW_DASHED1
 62
   120
370
     5
100
AcDbLine
 10
442.9053789133402
 20
491.1219797779318
 30
0.0
 11
692.9053789133475
 21
741.1219797779393
 31
0.0
  0
LINE
  5
482
330
1F
100
AcDbEntity
  8
0-0
  6
JWW_DASHED1
 62
   120
370
     5
100
AcDbLine
 10
102.9053789133369
 20
158.1930475912139
 30
0.0
 11
352.9053789133442
 21
408.1930475912214
 31
0.0
  0
LINE
  5
483
330
1F
100
AcDbEntity
  8
0-0
  6
JWW_DASHED1
 62
   120
370
     5
100
AcDbLine
 10
442.9053789133359
 20
498.1930475912134
 30
0.0
 11
692.9053789133435
 21
748.1930475912204
 31
0.0
  0
LINE
  5
484
330
1F
100
AcDbEntity
  8
0-0
  6
JWW_DASHED1
 62
   120
370
     5
100
AcDbLine
 10
102.9053789133395
 20
165.264115404502
 30
0.0
 11
352.9053789133449
 21
415.2641154045074
 31
0.0
  0
LINE
  5
485
330
1F
100
AcDbEntity
  8
0-0
  6
JWW_DASHED1
 62
   120
370
     5
100
AcDbLine
 10
442.9053789133517
 20
505.2641154045142
 30
0.0
 11
692.9053789133411
 21
755.2641154045039
 31
0.0
  0
LINE
  5
486
330
1F
100
AcDbEntity
  8
0-0
  6
JWW_DASHED1
 62
   120
370
     5
100
AcDbLine
 10
102.9053789133354
 20
172.335183217784
 30
0.0
 11
352.9053789133406
 21
422.3351832177886
 31
0.0
  0
LINE
  5
487
330
1F
100
AcDbEntity
  8
0-0
  6
JWW_DASHED1
 62
   120
370
     5
100
AcDbLine
 10
442.9053789133476
 20
512.3351832177958
 30
0.0
 11
692.9053789133372
 21
762.3351832177855
 31
0.0
  0
LINE
  5
488
330
1F
100
AcDbEntity
  8
0-0
  6
JWW_DASHED1
 62
   120
370
     5
100
AcDbLine
 10
102.9053789133363
 20
179.4062510310154
 30
0.0
 11
352.9053789133438
 21
429.4062510310229
 31
0.0
  0
LINE
  5
489
330
1F
100
AcDbEntity
  8
0-0
  6
JWW_DASHED1
 62
   120
370
     5
100
AcDbLine
 10
442.9053789133513
 20
519.4062510310306
 30
0.0
 11
692.9053789133428
 21
769.406251031022
 31
0.0
  0
LINE
  5
48A
330
1F
100
AcDbEntity
  8
0-0
  6
JWW_DASHED1
 62
   120
370
     5
100
AcDbLine
 10
102.9053789133324
 20
186.477318844297
 30
0.0
 11
352.9053789133553
 21
436.4773188443199
 31
0.0
  0
LINE
  5
48B
330
1F
100
AcDbEntity
  8
0-0
  6
JWW_DASHED1
 62
   120
370
     5
100
AcDbLine
 10
442.9053789133472
 20
526.4773188443119
 30
0.0
 11
692.9053789133387
 21
776.4773188443036
 31
0.0
  0
LINE
  5
48C
330
1F
100
AcDbEntity
  8
0-0
  6
JWW_DASHED1
 62
   120
370
     5
100
AcDbLine
 10
102.9053789133282
 20
193.5483866575782
 30
0.0
 11
352.9053789133515
 21
443.5483866576016
 31
0.0
  0
LINE
  5
48D
330
1F
100
AcDbEntity
  8
0-0
  6
JWW_DASHED1
 62
   120
370
     5
100
AcDbLine
 10
442.9053789133432
 20
533.548386657593
 30
0.0
 11
692.9053789133504
 21
783.5483866576005
 31
0.0
  0
LINE
  5
48E
330
1F
100
AcDbEntity
  8
0-0
  6
JWW_DASHED1
 62
   120
370
     5
100
AcDbLine
 10
102.9053789133399
 20
200.6194544708757
 30
0.0
 11
352.9053789133476
 21
450.6194544708832
 31
0.0
  0
LINE
  5
48F
330
1F
100
AcDbEntity
  8
0-0
  6
JWW_DASHED1
 62
   120
370
     5
100
AcDbLine
 10
442.9053789133393
 20
540.6194544708751
 30
0.0
 11
692.9053789133465
 21
790.6194544708821
 31
0.0
  0
LINE
  5
490
330
1F
100
AcDbEntity
  8
0-0
  6
JWW_DASHED1
 62
   120
370
     5
100
AcDbLine
 10
102.9053789133361
 20
207.6905222841569
 30
0.0
 11
352.9053789133434
 21
457.6905222841644
 31
0.0
  0
LINE
  5
491
330
1F
100
AcDbEntity
  8
0-0
  6
JWW_DASHED1
 62
   120
370
     5
100
AcDbLine
 10
442.9053789133353
 20
547.6905222841563
 30
0.0
 11
692.9053789133426
 21
797.6905222841634
 31
0.0
  0
LINE
  5
492
330
1F
100
AcDbEntity
  8
0-0
  6
JWW_DASHED1
 62
   120
370
     5
100
AcDbLine
 10
102.9053789133382
 20
214.7615900974449
 30
0.0
 11
352.9053789133434
 21
464.7615900974499
 31
0.0
  0
LINE
  5
493
330
1F
100
AcDbEntity
  8
0-0
  6
JWW_DASHED1
 62
   120
370
     5
100
AcDbLine
 10
442.9053789133504
 20
554.7615900974567
 30
0.0
 11
692.9053789133401
 21
804.7615900974463
 31
0.0
  0
LINE
  5
494
330
1F
100
AcDbEntity
  8
0-0
  6
JWW_DASHED1
 62
   120
370
     5
100
AcDbLine
 10
102.9053789133344
 20
221.8326579107261
 30
0.0
 11
352.9053789133395
 21
471.8326579107315
 31
0.0
  0
LINE
  5
495
330
1F
100
AcDbEntity
  8
0-0
  6
JWW_DASHED1
 62
   120
370
     5
100
AcDbLine
 10
442.9053789133463
 20
561.8326579107384
 30
0.0
 11
692.9053789133358
 21
811.8326579107276
 31
0.0
  0
LINE
  5
496
330
1F
100
AcDbEntity
  8
0-0
  6
JWW_DASHED1
 62
   120
370
     5
100
AcDbLine
 10
102.9053789133399
 20
228.9037257240176
 30
0.0
 11
352.905378913347
 21
478.9037257240247
 31
0.0
  0
LINE
  5
497
330
1F
100
AcDbEntity
  8
0-0
  6
JWW_DASHED1
 62
   120
370
     5
100
AcDbLine
 10
442.9053789133547
 20
568.9037257240324
 30
0.0
 11
692.9053789133465
 21
818.9037257240237
 31
0.0
  0
LINE
  5
498
330
1F
100
AcDbEntity
  8
0-0
  6
JWW_DASHED1
 62
   120
370
     5
100
AcDbLine
 10
102.9053789133356
 20
235.9747935372988
 30
0.0
 11
352.9053789133429
 21
485.9747935373059
 31
0.0
  0
LINE
  5
499
330
1F
100
AcDbEntity
  8
0-0
  6
JWW_DASHED1
 62
   120
370
     5
100
AcDbLine
 10
442.9053789133507
 20
575.9747935373136
 30
0.0
 11
692.9053789133421
 21
825.9747935373053
 31
0.0
  0
LINE
  5
49A
330
1F
100
AcDbEntity
  8
0-0
  6
JWW_DASHED1
 62
   120
370
     5
100
AcDbLine
 10
102.9053789133318
 20
243.04586135058
 30
0.0
 11
352.9053789133549
 21
493.0458613506033
 31
0.0
  0
LINE
  5
49B
330
1F
100
AcDbEntity
  8
0-0
  6
JWW_DASHED1
 62
   120
370
     5
100
AcDbLine
 10
442.9053789133466
 20
583.0458613505948
 30
0.0
 11
692.9053789133384
 21
833.0458613505866
 31
0.0
  0
LINE
  5
49C
330
1F
100
AcDbEntity
  8
0-0
  6
JWW_DASHED1
 62
   120
370
     5
100
AcDbLine
 10
102.9053789133393
 20
250.1169291638186
 30
0.0
 11
352.9053789133468
 21
500.1169291638262
 31
0.0
  0
LINE
  5
49D
330
1F
100
AcDbEntity
  8
0-0
  6
JWW_DASHED1
 62
   120
370
     5
100
AcDbLine
 10
442.9053789133383
 20
590.1169291638176
 30
0.0
 11
692.9053789133455
 21
840.1169291638251
 31
0.0
  0
LINE
  5
49E
330
1F
100
AcDbEntity
  8
0-0
  6
JWW_DASHED1
 62
   120
370
     5
100
AcDbLine
 10
102.9053789133352
 20
257.1879969770998
 30
0.0
 11
352.9053789133428
 21
507.1879969771078
 31
0.0
  0
LINE
  5
49F
330
1F
100
AcDbEntity
  8
0-0
  6
JWW_DASHED1
 62
   120
370
     5
100
AcDbLine
 10
442.9053789133344
 20
597.1879969770993
 30
0.0
 11
692.9053789133416
 21
847.1879969771064
 31
0.0
  0
LINE
  5
4A0
330
1F
100
AcDbEntity
  8
0-0
  6
JWW_DASHED1
 62
   120
370
     5
100
AcDbLine
 10
102.9053789133371
 20
264.2590647903875
 30
0.0
 11
352.9053789133423
 21
514.2590647903924
 31
0.0
  0
LINE
  5
4A1
330
1F
100
AcDbEntity
  8
0-0
  6
JWW_DASHED1
 62
   120
370
     5
100
AcDbLine
 10
442.9053789133491
 20
604.2590647903992
 30
0.0
 11
692.9053789133386
 21
854.2590647903888
 31
0.0
  0
LINE
  5
4A2
330
1F
100
AcDbEntity
  8
0-0
  6
JWW_DASHED1
 62
   120
370
     5
100
AcDbLine
 10
102.9053789133329
 20
271.3301326036686
 30
0.0
 11
352.9053789133385
 21
521.3301326036741
 31
0.0
  0
LINE
  5
4A3
330
1F
100
AcDbEntity
  8
0-0
  6
JWW_DASHED1
 62
   120
370
     5
100
AcDbLine
 10
442.9053789133451
 20
611.3301326036809
 30
0.0
 11
692.9053789133347
 21
861.3301326036706
 31
0.0
  0
LINE
  5
4A4
330
1F
100
AcDbEntity
  8
0-0
  6
JWW_DASHED1
 62
   120
370
     5
100
AcDbLine
 10
102.905378913339
 20
278.4012004169605
 30
0.0
 11
352.9053789133462
 21
528.4012004169676
 31
0.0
  0
LINE
  5
4A5
330
1F
100
AcDbEntity
  8
0-0
  6
JWW_DASHED1
 62
   120
370
     5
100
AcDbLine
 10
442.9053789133538
 20
618.4012004169754
 30
0.0
 11
692.9053789133455
 21
868.4012004169666
 31
0.0
  0
LINE
  5
4A6
330
1F
100
AcDbEntity
  8
0-0
  6
JWW_DASHED1
 62
   120
370
     5
100
AcDbLine
 10
102.9053789133348
 20
285.4722682302418
 30
0.0
 11
352.9053789133423
 21
535.4722682302488
 31
0.0
  0
LINE
  5
4A7
330
1F
100
AcDbEntity
  8
0-0
  6
JWW_DASHED1
 62
   120
370
     5
100
AcDbLine
 10
442.9053789133498
 20
625.4722682302565
 30
0.0
 11
692.9053789133413
 21
875.4722682302483
 31
0.0
  0
LINE
  5
4A8
330
1F
100
AcDbEntity
  8
0-0
  6
JWW_DASHED1
 62
   120
370
     5
100
AcDbLine
 10
102.9053789133309
 20
292.543336043523
 30
0.0
 11
352.9053789133541
 21
542.5433360435463
 31
0.0
  0
LINE
  5
4A9
330
1F
100
AcDbEntity
  8
0-0
  6
JWW_DASHED1
 62
   120
370
     5
100
AcDbLine
 10
442.9053789133457
 20
632.5433360435377
 30
0.0
 11
692.9053789133375
 21
882.5433360435295
 31
0.0
  0
LINE
  5
4AA
330
1F
100
AcDbEntity
  8
0-0
  6
JWW_DASHED1
 62
   120
370
     5
100
AcDbLine
 10
102.9053789133271
 20
299.614403856805
 30
0.0
 11
352.9053789133502
 21
549.614403856828
 31
0.0
  0
LINE
  5
4AB
330
1F
100
AcDbEntity
  8
0-0
  6
JWW_DASHED1
 62
   120
370
     5
100
AcDbLine
 10
442.9053789133419
 20
639.6144038568198
 30
0.0
 11
692.9053789133492
 21
889.6144038568269
 31
0.0
  0
LINE
  5
4AC
330
1F
100
AcDbEntity
  8
0-0
  6
JWW_DASHED1
 62
   120
370
     5
100
AcDbLine
 10
102.9053789133384
 20
306.6854716701016
 30
0.0
 11
352.9053789133462
 21
556.6854716701096
 31
0.0
  0
LINE
  5
4AD
330
1F
100
AcDbEntity
  8
0-0
  6
JWW_DASHED1
 62
   120
370
     5
100
AcDbLine
 10
442.9053789133378
 20
646.685471670101
 30
0.0
 11
692.9053789133452
 21
896.6854716701082
 31
0.0
  0
LINE
  5
4AE
330
1F
100
AcDbEntity
  8
0-0
  6
JWW_DASHED1
 62
   120
370
     5
100
AcDbLine
 10
102.9053789133356
 20
313.75653948333
 30
0.0
 11
352.9053789133411
 21
563.7565394833354
 31
0.0
  0
LINE
  5
4AF
330
1F
100
AcDbEntity
  8
0-0
  6
JWW_DASHED1
 62
   120
370
     5
100
AcDbLine
 10
442.9053789133479
 20
653.7565394833422
 30
0.0
 11
692.9053789133372
 21
903.7565394833314
 31
0.0
  0
LINE
  5
4B0
330
1F
100
AcDbEntity
  8
0-0
  6
JWW_DASHED1
 62
   120
370
     5
100
AcDbLine
 10
102.9053789133422
 20
320.8276072966223
 30
0.0
 11
352.9053789133496
 21
570.8276072966294
 31
0.0
  0
LINE
  5
4B1
330
1F
100
AcDbEntity
  8
0-0
  6
JWW_DASHED1
 62
   120
370
     5
100
AcDbLine
 10
442.905378913357
 20
660.8276072966366
 30
0.0
 11
692.9053789133488
 21
910.8276072966283
 31
0.0
  0
LINE
  5
4B2
330
1F
100
AcDbEntity
  8
0-0
  6
JWW_DASHED1
 62
   120
370
     5
100
AcDbLine
 10
102.9053789133382
 20
327.8986751099035
 30
0.0
 11
352.9053789133455
 21
577.8986751099105
 31
0.0
  0
LINE
  5
4B3
330
1F
100
AcDbEntity
  8
0-0
  6
JWW_DASHED1
 62
   120
370
     5
100
AcDbLine
 10
442.905378913353
 20
667.8986751099183
 30
0.0
 11
692.9053789133447
 21
917.8986751099096
 31
0.0
  0
LINE
  5
4B4
330
1F
100
AcDbEntity
  8
0-0
  6
JWW_DASHED1
 62
   120
370
     5
100
AcDbLine
 10
102.9053789133339
 20
334.9697429231847
 30
0.0
 11
352.9053789133415
 21
584.9697429231918
 31
0.0
  0
LINE
  5
4B5
330
1F
100
AcDbEntity
  8
0-0
  6
JWW_DASHED1
 62
   120
370
     5
100
AcDbLine
 10
442.9053789133491
 20
674.9697429231994
 30
0.0
 11
692.9053789133407
 21
924.9697429231912
 31
0.0
  0
LINE
  5
4B6
330
1F
100
AcDbEntity
  8
0-0
  6
JWW_DASHED1
 62
   120
370
     5
100
AcDbLine
 10
102.9053789133301
 20
342.0408107364659
 30
0.0
 11
352.9053789133534
 21
592.0408107364892
 31
0.0
  0
LINE
  5
4B7
330
1F
100
AcDbEntity
  8
0-0
  6
JWW_DASHED1
 62
   120
370
     5
100
AcDbLine
 10
442.9053789133451
 20
682.0408107364807
 30
0.0
 11
692.9053789133367
 21
932.0408107364724
 31
0.0
  0
LINE
  5
4B8
330
1F
100
AcDbEntity
  8
0-0
  6
JWW_DASHED1
 62
   120
370
     5
100
AcDbLine
 10
102.9053789133418
 20
349.1118785497633
 30
0.0
 11
352.9053789133494
 21
599.1118785497708
 31
0.0
  0
LINE
  5
4B9
330
1F
100
AcDbEntity
  8
0-0
  6
JWW_DASHED1
 62
   120
370
     5
100
AcDbLine
 10
442.9053789133411
 20
689.1118785497628
 30
0.0
 11
692.9053789133484
 21
939.1118785497699
 31
0.0
  0
LINE
  5
4BA
330
1F
100
AcDbEntity
  8
0-0
  6
JWW_DASHED1
 62
   120
370
     5
100
AcDbLine
 10
102.905378913338
 20
356.1829463630449
 30
0.0
 11
352.9053789133453
 21
606.1829463630525
 31
0.0
  0
LINE
  5
4BB
330
1F
100
AcDbEntity
  8
0-0
  6
JWW_DASHED1
 62
   120
370
     5
100
AcDbLine
 10
442.905378913337
 20
696.182946363044
 30
0.0
 11
692.9053789133445
 21
946.1829463630515
 31
0.0
  0
LINE
  5
4BC
330
1F
100
AcDbEntity
  8
0-0
  6
JWW_DASHED1
 62
   120
370
     5
100
AcDbLine
 10
102.9053789133388
 20
363.2540141763313
 30
0.0
 11
352.9053789133445
 21
613.2540141763371
 31
0.0
  0
LINE
  5
4BD
330
1F
100
AcDbEntity
  8
0-0
  6
JWW_DASHED1
 62
   120
370
     5
100
AcDbLine
 10
442.9053789133511
 20
703.2540141763432
 30
0.0
 11
692.9053789133407
 21
953.2540141763332
 31
0.0
  0
LINE
  5
4BE
330
1F
100
AcDbEntity
  8
0-0
  6
JWW_DASHED1
 62
   120
370
     5
100
AcDbLine
 10
102.9053789133348
 20
370.325081989613
 30
0.0
 11
352.9053789133402
 21
620.3250819896184
 31
0.0
  0
LINE
  5
4BF
330
1F
100
AcDbEntity
  8
0-0
  6
JWW_DASHED1
 62
   120
370
     5
100
AcDbLine
 10
442.905378913347
 20
710.3250819896252
 30
0.0
 11
692.9053789133364
 21
960.3250819896143
 31
0.0
  0
LINE
  5
4C0
330
1F
100
AcDbEntity
  8
0-0
  6
JWW_DASHED1
 62
   120
370
     5
100
AcDbLine
 10
102.9053789133373
 20
377.3961498028464
 30
0.0
 11
352.9053789133446
 21
627.3961498028535
 31
0.0
  0
LINE
  5
4C1
330
1F
100
AcDbEntity
  8
0-0
  6
JWW_DASHED1
 62
   120
370
     5
100
AcDbLine
 10
442.9053789133524
 20
717.3961498028611
 30
0.0
 11
692.9053789133438
 21
967.3961498028525
 31
0.0
  0
LINE
  5
4C2
330
1F
100
AcDbEntity
  8
0-0
  6
JWW_DASHED1
 62
   120
370
     5
100
AcDbLine
 10
102.9053789133335
 20
384.4672176161276
 30
0.0
 11
352.9053789133406
 21
634.4672176161348
 31
0.0
  0
LINE
  5
4C3
330
1F
100
AcDbEntity
  8
0-0
  6
JWW_DASHED1
 62
   120
370
     5
100
AcDbLine
 10
442.9053789133483
 20
724.4672176161424
 30
0.0
 11
691.2594615042674
 21
972.8213002070615
 31
0.0
  0
LINE
  5
4C4
330
1F
100
AcDbEntity
  8
0-0
  6
JWW_DASHED1
 62
   120
370
     5
100
AcDbLine
 10
102.9053789133295
 20
391.5382854294093
 30
0.0
 11
352.9053789133525
 21
641.5382854294321
 31
0.0
  0
LINE
  5
4C5
330
1F
100
AcDbEntity
  8
0-0
  6
JWW_DASHED1
 62
   120
370
     5
100
AcDbLine
 10
442.9053789133442
 20
731.538285429424
 30
0.0
 11
684.1883936909703
 21
972.8213002070504
 31
0.0
  0
LINE
  5
4C6
330
1F
100
AcDbEntity
  8
0-0
  6
JWW_DASHED1
 62
   120
370
     5
100
AcDbLine
 10
102.905378913341
 20
398.6093532427063
 30
0.0
 11
352.9053789133485
 21
648.6093532427138
 31
0.0
  0
LINE
  5
4C7
330
1F
100
AcDbEntity
  8
0-0
  6
JWW_DASHED1
 62
   120
370
     5
100
AcDbLine
 10
442.9053789133402
 20
738.6093532427058
 30
0.0
 11
677.1173258776892
 21
972.8213002070543
 31
0.0
  0
LINE
  5
4C8
330
1F
100
AcDbEntity
  8
0-0
  6
JWW_DASHED1
 62
   120
370
     5
100
AcDbLine
 10
102.9053789133369
 20
405.6804210559875
 30
0.0
 11
352.9053789133445
 21
655.6804210559955
 31
0.0
  0
LINE
  5
4C9
330
1F
100
AcDbEntity
  8
0-0
  6
JWW_DASHED1
 62
   120
370
     5
100
AcDbLine
 10
442.9053789133361
 20
745.6804210559869
 30
0.0
 11
670.0462580644078
 21
972.8213002070585
 31
0.0
  0
LINE
  5
4CA
330
1F
100
AcDbEntity
  8
0-0
  6
JWW_DASHED1
 62
   120
370
     5
100
AcDbLine
 10
102.9053789133376
 20
412.7514888692738
 30
0.0
 11
352.9053789133429
 21
662.7514888692792
 31
0.0
  0
LINE
  5
4CB
330
1F
100
AcDbEntity
  8
0-0
  6
JWW_DASHED1
 62
   120
370
     5
100
AcDbLine
 10
442.9053789133498
 20
752.751488869286
 30
0.0
 11
662.9751902511248
 21
972.8213002070606
 31
0.0
  0
LINE
  5
4CC
330
1F
100
AcDbEntity
  8
0-0
  6
JWW_DASHED1
 62
   120
370
     5
100
AcDbLine
 10
102.9053789133335
 20
419.822556682555
 30
0.0
 11
352.9053789133391
 21
669.8225566825608
 31
0.0
  0
LINE
  5
4CD
330
1F
100
AcDbEntity
  8
0-0
  6
JWW_DASHED1
 62
   120
370
     5
100
AcDbLine
 10
442.9053789133457
 20
759.8225566825672
 30
0.0
 11
655.9041224378427
 21
972.8213002070645
 31
0.0
  0
LINE
  5
4CE
330
1F
100
AcDbEntity
  8
0-0
  6
JWW_DASHED1
 62
   120
370
     5
100
AcDbLine
 10
102.9053789133405
 20
426.8936244958478
 30
0.0
 11
352.9053789133483
 21
676.8936244958553
 31
0.0
  0
LINE
  5
4CF
330
1F
100
AcDbEntity
  8
0-0
  6
JWW_DASHED1
 62
   120
370
     5
100
AcDbLine
 10
442.9053789133558
 20
766.8936244958629
 30
0.0
 11
648.8330546245453
 21
972.8213002070521
 31
0.0
  0
LINE
  5
4D0
330
1F
100
AcDbEntity
  8
0-0
  6
JWW_DASHED1
 62
   120
370
     5
100
AcDbLine
 10
102.9053789133367
 20
433.9646923091294
 30
0.0
 11
352.9053789133442
 21
683.9646923091369
 31
0.0
  0
LINE
  5
4D1
330
1F
100
AcDbEntity
  8
0-0
  6
JWW_DASHED1
 62
   120
370
     5
100
AcDbLine
 10
442.9053789133517
 20
773.9646923091442
 30
0.0
 11
641.7619868112637
 21
972.8213002070563
 31
0.0
  0
LINE
  5
4D2
330
1F
100
AcDbEntity
  8
0-0
  6
JWW_DASHED1
 62
   120
370
     5
100
AcDbLine
 10
102.9053789133329
 20
441.035760122411
 30
0.0
 11
352.9053789133559
 21
691.0357601224339
 31
0.0
  0
LINE
  5
4D3
330
1F
100
AcDbEntity
  8
0-0
  6
JWW_DASHED1
 62
   120
370
     5
100
AcDbLine
 10
442.9053789133476
 20
781.0357601224258
 30
0.0
 11
634.690918997982
 21
972.8213002070602
 31
0.0
  0
LINE
  5
4D4
330
1F
100
AcDbEntity
  8
0-0
  6
JWW_DASHED1
 62
   120
370
     5
100
AcDbLine
 10
102.9053789133401
 20
448.1068279356492
 30
0.0
 11
352.9053789133476
 21
698.1068279356567
 31
0.0
  0
LINE
  5
4D5
330
1F
100
AcDbEntity
  8
0-0
  6
JWW_DASHED1
 62
   120
370
     5
100
AcDbLine
 10
442.9053789133393
 20
788.1068279356487
 30
0.0
 11
627.6198511847473
 21
972.8213002070563
 31
0.0
  0
LINE
  5
4D6
330
1F
100
AcDbEntity
  8
0-0
  6
JWW_DASHED1
 62
   120
370
     5
100
AcDbLine
 10
102.9053789133361
 20
455.1778957489304
 30
0.0
 11
352.9053789133436
 21
705.1778957489385
 31
0.0
  0
LINE
  5
4D7
330
1F
100
AcDbEntity
  8
0-0
  6
JWW_DASHED1
 62
   120
370
     5
100
AcDbLine
 10
442.9053789133353
 20
795.1778957489298
 30
0.0
 11
620.548783371466
 21
972.8213002070606
 31
0.0
  0
LINE
  5
4D8
330
1F
100
AcDbEntity
  8
0-0
  6
JWW_DASHED1
 62
   120
370
     5
100
AcDbLine
 10
102.9053789133367
 20
462.2489635622168
 30
0.0
 11
352.9053789133417
 21
712.2489635622218
 31
0.0
  0
LINE
  5
4D9
330
1F
100
AcDbEntity
  8
0-0
  6
JWW_DASHED1
 62
   120
370
     5
100
AcDbLine
 10
442.9053789133485
 20
802.2489635622286
 30
0.0
 11
613.4777155581797
 21
972.8213002070597
 31
0.0
  0
LINE
  5
4DA
330
1F
100
AcDbEntity
  8
0-0
  6
JWW_DASHED1
 62
   120
370
     5
100
AcDbLine
 10
102.9053789133324
 20
469.320031375498
 30
0.0
 11
352.9053789133378
 21
719.3200313755034
 31
0.0
  0
LINE
  5
4DB
330
1F
100
AcDbEntity
  8
0-0
  6
JWW_DASHED1
 62
   120
370
     5
100
AcDbLine
 10
442.9053789133445
 20
809.3200313755102
 30
0.0
 11
606.406647744898
 21
972.8213002070636
 31
0.0
  0
LINE
  5
4DC
330
1F
100
AcDbEntity
  8
0-0
  6
JWW_DASHED1
 62
   120
370
     5
100
AcDbLine
 10
102.9053789133399
 20
476.3910991887911
 30
0.0
 11
352.9053789133472
 21
726.3910991887983
 31
0.0
  0
LINE
  5
4DD
330
1F
100
AcDbEntity
  8
0-0
  6
JWW_DASHED1
 62
   120
370
     5
100
AcDbLine
 10
442.9053789133549
 20
816.3910991888059
 30
0.0
 11
599.3355799316005
 21
972.8213002070513
 31
0.0
  0
LINE
  5
4DE
330
1F
100
AcDbEntity
  8
0-0
  6
JWW_DASHED1
 62
   120
370
     5
100
AcDbLine
 10
102.9053789133361
 20
483.4621670020724
 30
0.0
 11
352.9053789133434
 21
733.4621670020799
 31
0.0
  0
LINE
  5
4DF
330
1F
100
AcDbEntity
  8
0-0
  6
JWW_DASHED1
 62
   120
370
     5
100
AcDbLine
 10
442.9053789133508
 20
823.4621670020872
 30
0.0
 11
592.2645121183187
 21
972.8213002070551
 31
0.0
  0
LINE
  5
4E0
330
1F
100
AcDbEntity
  8
0-0
  6
JWW_DASHED1
 62
   120
370
     5
100
AcDbLine
 10
102.905378913332
 20
490.533234815354
 30
0.0
 11
352.9053789133551
 21
740.5332348153769
 31
0.0
  0
LINE
  5
4E1
330
1F
100
AcDbEntity
  8
0-0
  6
JWW_DASHED1
 62
   120
370
     5
100
AcDbLine
 10
442.9053789133468
 20
830.5332348153688
 30
0.0
 11
585.1934443050369
 21
972.8213002070589
 31
0.0
  0
LINE
  5
4E2
330
1F
100
AcDbEntity
  8
0-0
  6
JWW_DASHED1
 62
   120
370
     5
100
AcDbLine
 10
102.905378913328
 20
497.6043026286357
 30
0.0
 11
352.9053789133513
 21
747.604302628659
 31
0.0
  0
LINE
  5
4E3
330
1F
100
AcDbEntity
  8
0-0
  6
JWW_DASHED1
 62
   120
370
     5
100
AcDbLine
 10
442.9053789133429
 20
837.6043026286504
 30
0.0
 11
578.1223764917465
 21
972.8213002070538
 31
0.0
  0
LINE
  5
4E4
330
1F
100
AcDbEntity
  8
0-0
  6
JWW_DASHED1
 62
   120
370
     5
100
AcDbLine
 10
102.9053789133399
 20
504.6753704419331
 30
0.0
 11
352.905378913347
 21
754.6753704419402
 31
0.0
  0
LINE
  5
4E5
330
1F
100
AcDbEntity
  8
0-0
  6
JWW_DASHED1
 62
   120
370
     5
100
AcDbLine
 10
442.9053789133387
 20
844.6753704419316
 30
0.0
 11
571.0513086784656
 21
972.8213002070581
 31
0.0
  0
LINE
  5
4E6
330
1F
100
AcDbEntity
  8
0-0
  6
JWW_DASHED1
 62
   120
370
     5
100
AcDbLine
 10
102.9053789133352
 20
511.7464382551589
 30
0.0
 11
352.9053789133404
 21
761.7464382551643
 31
0.0
  0
LINE
  5
4E7
330
1F
100
AcDbEntity
  8
0-0
  6
JWW_DASHED1
 62
   120
370
     5
100
AcDbLine
 10
442.9053789133474
 20
851.7464382551711
 30
0.0
 11
563.9802408652348
 21
972.8213002070589
 31
0.0
  0
LINE
  5
4E8
330
1F
100
AcDbEntity
  8
0-0
  6
JWW_DASHED1
 62
   120
370
     5
100
AcDbLine
 10
102.9053789133309
 20
518.81750606844
 30
0.0
 11
352.9053789133363
 21
768.8175060684455
 31
0.0
  0
LINE
  5
4E9
330
1F
100
AcDbEntity
  8
0-0
  6
JWW_DASHED1
 62
   120
370
     5
100
AcDbLine
 10
442.9053789133432
 20
858.8175060684523
 30
0.0
 11
556.9091730519532
 21
972.8213002070623
 31
0.0
  0
LINE
  5
4EA
330
1F
100
AcDbEntity
  8
0-0
  6
JWW_DASHED1
 62
   120
370
     5
100
AcDbLine
 10
102.9053789133393
 20
525.8885738817341
 30
0.0
 11
352.9053789133463
 21
775.8885738817412
 31
0.0
  0
LINE
  5
4EB
330
1F
100
AcDbEntity
  8
0-0
  6
JWW_DASHED1
 62
   120
370
     5
100
AcDbLine
 10
442.9053789133541
 20
865.8885738817489
 30
0.0
 11
549.8381052386558
 21
972.8213002070504
 31
0.0
  0
LINE
  5
4EC
330
1F
100
AcDbEntity
  8
0-0
  6
JWW_DASHED1
 62
   120
370
     5
100
AcDbLine
 10
102.9053789133352
 20
532.9596416950153
 30
0.0
 11
352.9053789133425
 21
782.9596416950228
 31
0.0
  0
LINE
  5
4ED
330
1F
100
AcDbEntity
  8
0-0
  6
JWW_DASHED1
 62
   120
370
     5
100
AcDbLine
 10
442.9053789133502
 20
872.9596416950305
 30
0.0
 11
542.7670374253737
 21
972.8213002070538
 31
0.0
  0
LINE
  5
4EE
330
1F
100
AcDbEntity
  8
0-0
  6
JWW_DASHED1
 62
   120
370
     5
100
AcDbLine
 10
102.9053789133312
 20
540.0307095082969
 30
0.0
 11
352.9053789133542
 21
790.0307095083199
 31
0.0
  0
LINE
  5
4EF
330
1F
100
AcDbEntity
  8
0-0
  6
JWW_DASHED1
 62
   120
370
     5
100
AcDbLine
 10
442.9053789133459
 20
880.0307095083117
 30
0.0
 11
535.6959696120923
 21
972.8213002070581
 31
0.0
  0
LINE
  5
4F0
330
1F
100
AcDbEntity
  8
0-0
  6
JWW_DASHED1
 62
   120
370
     5
100
AcDbLine
 10
102.9053789133429
 20
547.101777321594
 30
0.0
 11
352.9053789133502
 21
797.1017773216015
 31
0.0
  0
LINE
  5
4F1
330
1F
100
AcDbEntity
  8
0-0
  6
JWW_DASHED1
 62
   120
370
     5
100
AcDbLine
 10
442.9053789133421
 20
887.1017773215933
 30
0.0
 11
528.6249017988051
 21
972.8213002070563
 31
0.0
  0
LINE
  5
4F2
330
1F
100
AcDbEntity
  8
0-0
  6
JWW_DASHED1
 62
   120
370
     5
100
AcDbLine
 10
102.905378913339
 20
554.1728451348761
 30
0.0
 11
352.9053789133462
 21
804.1728451348831
 31
0.0
  0
LINE
  5
4F3
330
1F
100
AcDbEntity
  8
0-0
  6
JWW_DASHED1
 62
   120
370
     5
100
AcDbLine
 10
442.9053789133378
 20
894.1728451348746
 30
0.0
 11
521.5538339855236
 21
972.8213002070602
 31
0.0
  0
LINE
  5
4F4
330
1F
100
AcDbEntity
  8
0-0
  6
JWW_DASHED1
 62
   120
370
     5
100
AcDbLine
 10
102.9053789133384
 20
561.2439129481606
 30
0.0
 11
352.9053789133436
 21
811.2439129481661
 31
0.0
  0
LINE
  5
4F5
330
1F
100
AcDbEntity
  8
0-0
  6
JWW_DASHED1
 62
   120
370
     5
100
AcDbLine
 10
442.9053789133504
 20
901.2439129481725
 30
0.0
 11
514.4827661722311
 21
972.8213002070534
 31
0.0
  0
LINE
  5
4F6
330
1F
100
AcDbEntity
  8
0-0
  6
JWW_DASHED1
 62
   120
370
     5
100
AcDbLine
 10
102.9053789133341
 20
568.3149807614418
 30
0.0
 11
352.9053789133397
 21
818.3149807614473
 31
0.0
  0
LINE
  5
4F7
330
1F
100
AcDbEntity
  8
0-0
  6
JWW_DASHED1
 62
   120
370
     5
100
AcDbLine
 10
442.9053789133463
 20
908.3149807614541
 30
0.0
 11
507.4116983589495
 21
972.8213002070572
 31
0.0
  0
LINE
  5
4F8
330
1F
100
AcDbEntity
  8
0-0
  6
JWW_DASHED1
 62
   120
370
     5
100
AcDbLine
 10
102.905378913338
 20
575.3860485746766
 30
0.0
 11
352.9053789133457
 21
825.3860485746841
 31
0.0
  0
LINE
  5
4F9
330
1F
100
AcDbEntity
  8
0-0
  6
JWW_DASHED1
 62
   120
370
     5
100
AcDbLine
 10
442.9053789133532
 20
915.3860485746918
 30
0.0
 11
500.3406305457107
 21
972.8213002070495
 31
0.0
  0
LINE
  5
4FA
330
1F
100
AcDbEntity
  8
0-0
  6
JWW_DASHED1
 62
   120
370
     5
100
AcDbLine
 10
102.9053789133344
 20
582.4571163879582
 30
0.0
 11
352.9053789133417
 21
832.4571163879658
 31
0.0
  0
LINE
  5
4FB
330
1F
100
AcDbEntity
  8
0-0
  6
JWW_DASHED1
 62
   120
370
     5
100
AcDbLine
 10
442.9053789133491
 20
922.457116387973
 30
0.0
 11
493.2695627324291
 21
972.8213002070529
 31
0.0
  0
LINE
  5
4FC
330
1F
100
AcDbEntity
  8
0-0
  6
JWW_DASHED1
 62
   120
370
     5
100
AcDbLine
 10
102.9053789133303
 20
589.5281842012399
 30
0.0
 11
352.9053789133534
 21
839.5281842012628
 31
0.0
  0
LINE
  5
4FD
330
1F
100
AcDbEntity
  8
0-0
  6
JWW_DASHED1
 62
   120
370
     5
100
AcDbLine
 10
442.9053789133451
 20
929.5281842012547
 30
0.0
 11
486.1984949191447
 21
972.8213002070538
 31
0.0
  0
LINE
  5
4FE
330
1F
100
AcDbEntity
  8
0-0
  6
JWW_DASHED1
 62
   120
370
     5
100
AcDbLine
 10
102.905378913342
 20
596.5992520145369
 30
0.0
 11
352.9053789133496
 21
846.5992520145448
 31
0.0
  0
LINE
  5
4FF
330
1F
100
AcDbEntity
  8
0-0
  6
JWW_DASHED1
 62
   120
370
     5
100
AcDbLine
 10
442.9053789133412
 20
936.5992520145363
 30
0.0
 11
479.1274271058632
 21
972.8213002070581
 31
0.0
  0
LINE
  5
500
330
1F
100
AcDbEntity
  8
0-0
  6
JWW_DASHED1
 62
   120
370
     5
100
AcDbLine
 10
102.9053789133382
 20
603.670319827819
 30
0.0
 11
352.9053789133455
 21
853.670319827826
 31
0.0
  0
LINE
  5
501
330
1F
100
AcDbEntity
  8
0-0
  6
JWW_DASHED1
 62
   120
370
     5
100
AcDbLine
 10
442.9053789133372
 20
943.6703198278176
 30
0.0
 11
472.0563592925822
 21
972.8213002070623
 31
0.0
  0
LINE
  5
502
330
1F
100
AcDbEntity
  8
0-0
  6
JWW_DASHED1
 62
   120
370
     5
100
AcDbLine
 10
102.9053789133369
 20
610.7413876411027
 30
0.0
 11
352.9053789133425
 21
860.7413876411081
 31
0.0
  0
LINE
  5
503
330
1F
100
AcDbEntity
  8
0-0
  6
JWW_DASHED1
 62
   120
370
     5
100
AcDbLine
 10
442.9053789133491
 20
950.7413876411149
 30
0.0
 11
464.9852914792863
 21
972.8213002070521
 31
0.0
  0
LINE
  5
504
330
1F
100
AcDbEntity
  8
0-0
  6
JWW_DASHED1
 62
   120
370
     5
100
AcDbLine
 10
102.9053789133331
 20
617.8124554543848
 30
0.0
 11
352.9053789133383
 21
867.8124554543898
 31
0.0
  0
LINE
  5
505
330
1F
100
AcDbEntity
  8
0-0
  6
JWW_DASHED1
 62
   120
370
     5
100
AcDbLine
 10
442.9053789133451
 20
957.8124554543962
 30
0.0
 11
457.9142236660044
 21
972.821300207056
 31
0.0
  0
LINE
  5
506
330
1F
100
AcDbEntity
  8
0-0
  6
JWW_DASHED1
 62
   120
370
     5
100
AcDbLine
 10
102.9053789133418
 20
624.8835232676788
 30
0.0
 11
352.9053789133494
 21
874.8835232676863
 31
0.0
  0
LINE
  5
507
330
1F
100
AcDbEntity
  8
0-0
  6
JWW_DASHED1
 62
   120
370
     5
100
AcDbLine
 10
442.9053789133568
 20
964.8835232676936
 30
0.0
 11
450.843155852707
 21
972.821300207044
 31
0.0
  0
LINE
  5
508
330
1F
100
AcDbEntity
  8
0-0
  6
JWW_DASHED1
 62
   120
370
     5
100
AcDbLine
 10
102.9053789133378
 20
631.95459108096
 30
0.0
 11
352.9053789133453
 21
881.9545910809679
 31
0.0
  0
LINE
  5
509
330
1F
100
AcDbEntity
  8
0-0
  6
JWW_DASHED1
 62
   120
370
     5
100
AcDbLine
 10
442.9053789133525
 20
971.9545910809748
 30
0.0
 11
443.7720880394254
 21
972.8213002070479
 31
0.0
  0
LINE
  5
50A
330
1F
100
AcDbEntity
  8
0-0
  6
JWW_DASHED1
 62
   120
370
     5
100
AcDbLine
 10
102.9053789133337
 20
639.0256588942417
 30
0.0
 11
352.905378913357
 21
889.025658894265
 31
0.0
  0
LINE
  5
50B
330
1F
100
AcDbEntity
  8
0-0
  6
JWW_DASHED1
 62
   120
370
     5
100
AcDbLine
 10
102.9053789133412
 20
646.0967267074798
 30
0.0
 11
352.9053789133487
 21
896.0967267074874
 31
0.0
  0
LINE
  5
50C
330
1F
100
AcDbEntity
  8
0-0
  6
JWW_DASHED1
 62
   120
370
     5
100
AcDbLine
 10
102.9053789133373
 20
653.1677945207618
 30
0.0
 11
352.9053789133446
 21
903.167794520769
 31
0.0
  0
LINE
  5
50D
330
1F
100
AcDbEntity
  8
0-0
  6
JWW_DASHED1
 62
   120
370
     5
100
AcDbLine
 10
102.9053789133359
 20
660.2388623340457
 30
0.0
 11
352.9053789133412
 21
910.2388623340511
 31
0.0
  0
LINE
  5
50E
330
1F
100
AcDbEntity
  8
0-0
  6
JWW_DASHED1
 62
   120
370
     5
100
AcDbLine
 10
102.905378913332
 20
667.3099301473273
 30
0.0
 11
352.9053789133372
 21
917.3099301473324
 31
0.0
  0
LINE
  5
50F
330
1F
100
AcDbEntity
  8
0-0
  6
JWW_DASHED1
 62
   120
370
     5
100
AcDbLine
 10
102.905378913341
 20
674.3809979606217
 30
0.0
 11
352.9053789133485
 21
924.3809979606293
 31
0.0
  0
LINE
  5
510
330
1F
100
AcDbEntity
  8
0-0
  6
JWW_DASHED1
 62
   120
370
     5
100
AcDbLine
 10
102.9053789133369
 20
681.452065773903
 30
0.0
 11
352.9053789133445
 21
931.4520657739109
 31
0.0
  0
LINE
  5
511
330
1F
100
AcDbEntity
  8
0-0
  6
JWW_DASHED1
 62
   120
370
     5
100
AcDbLine
 10
102.9053789133327
 20
688.5231335871842
 30
0.0
 11
352.9053789133562
 21
938.5231335872079
 31
0.0
  0
LINE
  5
512
330
1F
100
AcDbEntity
  8
0-0
  6
JWW_DASHED1
 62
   120
370
     5
100
AcDbLine
 10
102.905378913329
 20
695.5942014004663
 30
0.0
 11
352.9053789133521
 21
945.5942014004895
 31
0.0
  0
LINE
  5
513
330
1F
100
AcDbEntity
  8
0-0
  6
JWW_DASHED1
 62
   120
370
     5
100
AcDbLine
 10
102.9053789133405
 20
702.6652692137633
 30
0.0
 11
352.9053789133483
 21
952.6652692137708
 31
0.0
  0
LINE
  5
514
330
1F
100
AcDbEntity
  8
0-0
  6
JWW_DASHED1
 62
   120
370
     5
100
AcDbLine
 10
102.9053789133348
 20
709.7363370269886
 30
0.0
 11
352.9053789133397
 21
959.7363370269932
 31
0.0
  0
LINE
  5
515
330
1F
100
AcDbEntity
  8
0-0
  6
JWW_DASHED1
 62
   120
370
     5
100
AcDbLine
 10
102.9053789133305
 20
716.8074048402698
 30
0.0
 11
352.9053789133359
 21
966.8074048402748
 31
0.0
  0
LINE
  5
516
330
1F
100
AcDbEntity
  8
0-0
  6
JWW_DASHED1
 62
   120
370
     5
100
AcDbLine
 10
102.9053789133401
 20
723.8784726535647
 30
0.0
 11
351.8482064668282
 21
972.8213002070529
 31
0.0
  0
LINE
  5
517
330
1F
100
AcDbEntity
  8
0-0
  6
JWW_DASHED1
 62
   120
370
     5
100
AcDbLine
 10
102.9053789133361
 20
730.949540466846
 30
0.0
 11
344.777138653547
 21
972.8213002070572
 31
0.0
  0
LINE
  5
518
330
1F
100
AcDbEntity
  8
0-0
  6
JWW_DASHED1
 62
   120
370
     5
100
AcDbLine
 10
102.905378913332
 20
738.0206082801276
 30
0.0
 11
337.706070840251
 21
972.8213002070465
 31
0.0
  0
LINE
  5
519
330
1F
100
AcDbEntity
  8
0-0
  6
JWW_DASHED1
 62
   120
370
     5
100
AcDbLine
 10
102.905378913344
 20
745.091676093425
 30
0.0
 11
330.6350030269687
 21
972.8213002070495
 31
0.0
  0
LINE
  5
51A
330
1F
100
AcDbEntity
  8
0-0
  6
JWW_DASHED1
 62
   120
370
     5
100
AcDbLine
 10
102.9053789133401
 20
752.1627439067066
 30
0.0
 11
323.5639352136873
 21
972.8213002070538
 31
0.0
  0
LINE
  5
51B
330
1F
100
AcDbEntity
  8
0-0
  6
JWW_DASHED1
 62
   120
370
     5
100
AcDbLine
 10
102.9053789133376
 20
759.2338117199895
 30
0.0
 11
316.4928674004061
 21
972.8213002070581
 31
0.0
  0
LINE
  5
51C
330
1F
100
AcDbEntity
  8
0-0
  6
JWW_DASHED1
 62
   120
370
     5
100
AcDbLine
 10
102.9053789133335
 20
766.3048795332708
 30
0.0
 11
309.4217995871248
 21
972.8213002070623
 31
0.0
  0
LINE
  5
51D
330
1F
100
AcDbEntity
  8
0-0
  6
JWW_DASHED1
 62
   120
370
     5
100
AcDbLine
 10
102.9053789133437
 20
773.3759473465665
 30
0.0
 11
302.3507317738279
 21
972.8213002070509
 31
0.0
  0
LINE
  5
51E
330
1F
100
AcDbEntity
  8
0-0
  6
JWW_DASHED1
 62
   120
370
     5
100
AcDbLine
 10
102.9053789133354
 20
780.4470151597889
 30
0.0
 11
295.2796639606053
 21
972.8213002070589
 31
0.0
  0
LINE
  5
51F
330
1F
100
AcDbEntity
  8
0-0
  6
JWW_DASHED1
 62
   120
370
     5
100
AcDbLine
 10
102.9053789133314
 20
787.5180829730709
 30
0.0
 11
288.2085961473123
 21
972.8213002070516
 31
0.0
  0
LINE
  5
520
330
1F
100
AcDbEntity
  8
0-0
  6
JWW_DASHED1
 62
   120
370
     5
100
AcDbLine
 10
102.9053789133431
 20
794.5891507863679
 30
0.0
 11
281.1375283340269
 21
972.8213002070516
 31
0.0
  0
LINE
  5
521
330
1F
100
AcDbEntity
  8
0-0
  6
JWW_DASHED1
 62
   120
370
     5
100
AcDbLine
 10
102.905378913339
 20
801.6602185996496
 30
0.0
 11
274.0664605207456
 21
972.821300207056
 31
0.0
  0
LINE
  5
522
330
1F
100
AcDbEntity
  8
0-0
  6
JWW_DASHED1
 62
   120
370
     5
100
AcDbLine
 10
102.9053789133365
 20
808.7312864129325
 30
0.0
 11
266.9953927074644
 21
972.8213002070597
 31
0.0
  0
LINE
  5
523
330
1F
100
AcDbEntity
  8
0-0
  6
JWW_DASHED1
 62
   120
370
     5
100
AcDbLine
 10
102.9053789133322
 20
815.8023542262138
 30
0.0
 11
259.924324894183
 21
972.821300207064
 31
0.0
  0
LINE
  5
524
330
1F
100
AcDbEntity
  8
0-0
  6
JWW_DASHED1
 62
   120
370
     5
100
AcDbLine
 10
102.9053789133429
 20
822.8734220395095
 30
0.0
 11
252.853257080886
 21
972.8213002070529
 31
0.0
  0
LINE
  5
525
330
1F
100
AcDbEntity
  8
0-0
  6
JWW_DASHED1
 62
   120
370
     5
100
AcDbLine
 10
102.905378913339
 20
829.9444898527915
 30
0.0
 11
245.7821892676048
 21
972.8213002070572
 31
0.0
  0
LINE
  5
526
330
1F
100
AcDbEntity
  8
0-0
  6
JWW_DASHED1
 62
   120
370
     5
100
AcDbLine
 10
102.9053789133348
 20
837.0155576660727
 30
0.0
 11
238.7111214543148
 21
972.8213002070526
 31
0.0
  0
LINE
  5
527
330
1F
100
AcDbEntity
  8
0-0
  6
JWW_DASHED1
 62
   120
370
     5
100
AcDbLine
 10
102.9053789133422
 20
844.0866254793109
 30
0.0
 11
231.6400536410852
 21
972.8213002070538
 31
0.0
  0
LINE
  5
528
330
1F
100
AcDbEntity
  8
0-0
  6
JWW_DASHED1
 62
   120
370
     5
100
AcDbLine
 10
102.9053789133382
 20
851.1576932925925
 30
0.0
 11
224.568985827804
 21
972.8213002070581
 31
0.0
  0
LINE
  5
529
330
1F
100
AcDbEntity
  8
0-0
  6
JWW_DASHED1
 62
   120
370
     5
100
AcDbLine
 10
102.9053789133354
 20
858.228761105875
 30
0.0
 11
217.4979180145226
 21
972.8213002070623
 31
0.0
  0
LINE
  5
52A
330
1F
100
AcDbEntity
  8
0-0
  6
JWW_DASHED1
 62
   120
370
     5
100
AcDbLine
 10
102.9053789133312
 20
865.2998289191562
 30
0.0
 11
210.4268502012413
 21
972.8213002070665
 31
0.0
  0
LINE
  5
52B
330
1F
100
AcDbEntity
  8
0-0
  6
JWW_DASHED1
 62
   120
370
     5
100
AcDbLine
 10
102.9053789133418
 20
872.3708967324524
 30
0.0
 11
203.3557823879443
 21
972.8213002070547
 31
0.0
  0
LINE
  5
52C
330
1F
100
AcDbEntity
  8
0-0
  6
JWW_DASHED1
 62
   120
370
     5
100
AcDbLine
 10
102.905378913338
 20
879.441964545734
 30
0.0
 11
196.2847145746631
 21
972.8213002070589
 31
0.0
  0
LINE
  5
52D
330
1F
100
AcDbEntity
  8
0-0
  6
JWW_DASHED1
 62
   120
370
     5
100
AcDbLine
 10
102.9053789133339
 20
886.5130323590156
 30
0.0
 11
189.2136467613761
 21
972.8213002070577
 31
0.0
  0
LINE
  5
52E
330
1F
100
AcDbEntity
  8
0-0
  6
JWW_DASHED1
 62
   120
370
     5
100
AcDbLine
 10
102.9053789133299
 20
893.5841001722969
 30
0.0
 11
182.1425789480953
 21
972.8213002070623
 31
0.0
  0
LINE
  5
52F
330
1F
100
AcDbEntity
  8
0-0
  6
JWW_DASHED1
 62
   120
370
     5
100
AcDbLine
 10
102.9053789133418
 20
900.6551679855943
 30
0.0
 11
175.0715111348032
 21
972.8213002070555
 31
0.0
  0
LINE
  5
530
330
1F
100
AcDbEntity
  8
0-0
  6
JWW_DASHED1
 62
   120
370
     5
100
AcDbLine
 10
102.9053789133339
 20
907.7262357988175
 30
0.0
 11
168.0004433215809
 21
972.821300207064
 31
0.0
  0
LINE
  5
531
330
1F
100
AcDbEntity
  8
0-0
  6
JWW_DASHED1
 62
   120
370
     5
100
AcDbLine
 10
102.9053789133299
 20
914.7973036120987
 30
0.0
 11
160.9293755082994
 21
972.8213002070684
 31
0.0
  0
LINE
  5
532
330
1F
100
AcDbEntity
  8
0-0
  6
JWW_DASHED1
 62
   120
370
     5
100
AcDbLine
 10
102.9053789133412
 20
921.8683714253953
 30
0.0
 11
153.8583076950027
 21
972.8213002070568
 31
0.0
  0
LINE
  5
533
330
1F
100
AcDbEntity
  8
0-0
  6
JWW_DASHED1
 62
   120
370
     5
100
AcDbLine
 10
102.9053789133371
 20
928.939439238677
 30
0.0
 11
146.787239881721
 21
972.8213002070606
 31
0.0
  0
LINE
  5
534
330
1F
100
AcDbEntity
  8
0-0
  6
JWW_DASHED1
 62
   120
370
     5
100
AcDbLine
 10
102.9053789133333
 20
936.0105070519586
 30
0.0
 11
139.7161720684377
 21
972.8213002070628
 31
0.0
  0
LINE
  5
535
330
1F
100
AcDbEntity
  8
0-0
  6
JWW_DASHED1
 62
   120
370
     5
100
AcDbLine
 10
102.9053789133292
 20
943.0815748652399
 30
0.0
 11
132.6451042551567
 21
972.8213002070675
 31
0.0
  0
LINE
  5
536
330
1F
100
AcDbEntity
  8
0-0
  6
JWW_DASHED1
 62
   120
370
     5
100
AcDbLine
 10
102.905378913341
 20
950.1526426785372
 30
0.0
 11
125.5740364418616
 21
972.8213002070581
 31
0.0
  0
LINE
  5
537
330
1F
100
AcDbEntity
  8
0-0
  6
JWW_DASHED1
 62
   120
370
     5
100
AcDbLine
 10
102.9053789133371
 20
957.2237104918189
 30
0.0
 11
118.5029686285802
 21
972.8213002070619
 31
0.0
  0
LINE
  5
538
330
1F
100
AcDbEntity
  8
0-0
  6
JWW_DASHED1
 62
   120
370
     5
100
AcDbLine
 10
102.9053789133329
 20
964.2947783051001
 30
0.0
 11
111.4319008152989
 21
972.8213002070662
 31
0.0
  0
LINE
  5
539
330
1F
100
AcDbEntity
  8
0-0
  6
JWW_DASHED1
 62
   120
370
     5
100
AcDbLine
 10
102.9053789133448
 20
971.3658461183975
 30
0.0
 11
104.360833002002
 21
972.8213002070547
 31
0.0
  0
LINE
  5
53A
330
1F
100
AcDbEntity
  8
寸法
  6
Continuous
 62
   120
370
     5
100
AcDbLine
 10
-1314.094621086658
 20
-1095.178699792943
 30
0.0
 11
-864.0946210866574
 21
-1095.178699792943
 31
0.0
  0
LINE
  5
53B
330
1F
100
AcDbEntity
  8
寸法
  6
Continuous
 62
   120
370
     5
100
AcDbLine
 10
-1114.094621086657
 20
-1075.178699792943
 30
0.0
 11
-864.0946210866574
 21
-1075.178699792943
 31
0.0
  0
LWPOLYLINE
  5
53C
330
1F
100
AcDbEntity
  8
寸法
  6
Continuous
 62
     7
370
     9
100
AcDbPolyline
 90
        4
 70
     1
 43
3.0
 10
-1312.594621086658
 20
-1095.178699792943
 42
0.4142135623731
 10
-1314.094621086658
 20
-1093.678699792943
 42
0.4142135623731
 10
-1315.594621086658
 20
-1095.178699792943
 42
0.4142135623731
 10
-1314.094621086658
 20
-1096.678699792943
 42
0.4142135623731
  0
LWPOLYLINE
  5
53D
330
1F
100
AcDbEntity
  8
寸法
  6
Continuous
 62
     7
370
     9
100
AcDbPolyline
 90
        4
 70
     1
 43
3.0
 10
-1112.594621086657
 20
-1075.178699792943
 42
0.4142135623731
 10
-1114.094621086657
 20
-1073.678699792943
 42
0.4142135623731
 10
-1115.594621086657
 20
-1075.178699792943
 42
0.4142135623731
 10
-1114.094621086657
 20
-1076.678699792943
 42
0.4142135623731
  0
LINE
  5
53E
330
1F
100
AcDbEntity
  8
寸法
  6
Continuous
 62
   120
370
     5
100
AcDbLine
 10
-784.0946210866568
 20
-1545.178699792943
 30
0.0
 11
-784.0946210866568
 21
-1145.178699792943
 31
0.0
  0
LINE
  5
53F
330
1F
100
AcDbEntity
  8
寸法
  6
Continuous
 62
   120
370
     5
100
AcDbLine
 10
-814.0946210866568
 20
-1745.178699792943
 30
0.0
 11
-814.0946210866568
 21
-1145.178699792943
 31
0.0
  0
LINE
  5
540
330
1F
100
AcDbEntity
  8
寸法
  6
Continuous
 62
   120
370
     5
100
AcDbLine
 10
802.9053789133424
 20
-1345.178699792943
 30
0.0
 11
802.9053789133424
 21
-1145.178699792943
 31
0.0
  0
LINE
  5
541
330
1F
100
AcDbEntity
  8
寸法
  6
Continuous
 62
   120
370
     5
100
AcDbLine
 10
-784.0946210866568
 20
-1545.178699792943
 30
0.0
 11
799.9053789133417
 21
-1545.178699792943
 31
0.0
  0
LINE
  5
542
330
1F
100
AcDbEntity
  8
寸法
  6
Continuous
 62
   120
370
     5
100
AcDbLine
 10
799.9053789133417
 20
-1545.178699792943
 30
0.0
 11
799.9053789133417
 21
-1145.178699792943
 31
0.0
  0
LINE
  5
543
330
1F
100
AcDbEntity
  8
寸法
  6
Continuous
 62
   120
370
     5
100
AcDbLine
 10
-814.0946210866568
 20
-1745.178699792943
 30
0.0
 11
829.9053789133417
 21
-1745.178699792943
 31
0.0
  0
LINE
  5
544
330
1F
100
AcDbEntity
  8
寸法
  6
Continuous
 62
   120
370
     5
100
AcDbLine
 10
829.9053789133417
 20
-1745.178699792943
 30
0.0
 11
829.9053789133417
 21
-1145.178699792943
 31
0.0
  0
LINE
  5
545
330
1F
100
AcDbEntity
  8
寸法
  6
Continuous
 62
   120
370
     5
100
AcDbLine
 10
-7.094621086657682
 20
-1345.178699792943
 30
0.0
 11
-7.094621086657682
 21
-1145.178699792943
 31
0.0
  0
LINE
  5
546
330
1F
100
AcDbEntity
  8
寸法
  6
Continuous
 62
   120
370
     5
100
AcDbLine
 10
-7.094621086657682
 20
-1345.178699792943
 30
0.0
 11
802.9053789133424
 21
-1345.178699792943
 31
0.0
  0
LWPOLYLINE
  5
547
330
1F
100
AcDbEntity
  8
寸法
  6
Continuous
 62
     7
370
     9
100
AcDbPolyline
 90
        4
 70
     1
 43
3.0
 10
-782.5946210866568
 20
-1545.178699792943
 42
0.4142135623731
 10
-784.0946210866568
 20
-1543.678699792943
 42
0.4142135623731
 10
-785.594621086657
 20
-1545.178699792943
 42
0.4142135623731
 10
-784.0946210866568
 20
-1546.678699792943
 42
0.4142135623731
  0
LWPOLYLINE
  5
548
330
1F
100
AcDbEntity
  8
寸法
  6
Continuous
 62
     7
370
     9
100
AcDbPolyline
 90
        4
 70
     1
 43
3.0
 10
-812.5946210866568
 20
-1745.178699792943
 42
0.4142135623731
 10
-814.0946210866568
 20
-1743.678699792943
 42
0.4142135623731
 10
-815.594621086657
 20
-1745.178699792943
 42
0.4142135623731
 10
-814.0946210866568
 20
-1746.678699792943
 42
0.4142135623731
  0
LWPOLYLINE
  5
549
330
1F
100
AcDbEntity
  8
寸法
  6
Continuous
 62
     7
370
     9
100
AcDbPolyline
 90
        4
 70
     1
 43
3.0
 10
804.4053789133424
 20
-1345.178699792943
 42
0.4142135623731
 10
802.9053789133424
 20
-1343.678699792943
 42
0.4142135623731
 10
801.4053789133422
 20
-1345.178699792943
 42
0.4142135623731
 10
802.9053789133424
 20
-1346.678699792943
 42
0.4142135623731
  0
LWPOLYLINE
  5
54A
330
1F
100
AcDbEntity
  8
寸法
  6
Continuous
 62
     7
370
     9
100
AcDbPolyline
 90
        4
 70
     1
 43
3.0
 10
801.4053789133417
 20
-1545.178699792943
 42
0.4142135623731
 10
799.9053789133417
 20
-1543.678699792943
 42
0.4142135623731
 10
798.4053789133416
 20
-1545.178699792943
 42
0.4142135623731
 10
799.9053789133417
 20
-1546.678699792943
 42
0.4142135623731
  0
LWPOLYLINE
  5
54B
330
1F
100
AcDbEntity
  8
寸法
  6
Continuous
 62
     7
370
     9
100
AcDbPolyline
 90
        4
 70
     1
 43
3.0
 10
831.4053789133417
 20
-1745.178699792943
 42
0.4142135623731
 10
829.9053789133417
 20
-1743.678699792943
 42
0.4142135623731
 10
828.4053789133416
 20
-1745.178699792943
 42
0.4142135623731
 10
829.9053789133417
 20
-1746.678699792943
 42
0.4142135623731
  0
LWPOLYLINE
  5
54C
330
1F
100
AcDbEntity
  8
寸法
  6
Continuous
 62
     7
370
     9
100
AcDbPolyline
 90
        4
 70
     1
 43
3.0
 10
-5.594621086657682
 20
-1345.178699792943
 42
0.4142135623731
 10
-7.094621086657682
 20
-1343.678699792943
 42
0.4142135623731
 10
-8.594621086657682
 20
-1345.178699792943
 42
0.4142135623731
 10
-7.094621086657682
 20
-1346.678699792943
 42
0.4142135623731
  0
LINE
  5
54D
330
1F
100
AcDbEntity
  8
寸法
  6
Continuous
 62
   120
370
     5
100
AcDbLine
 10
-1314.094621086658
 20
1151.821300207057
 30
0.0
 11
-1314.094621086658
 21
-1095.178699792943
 31
0.0
  0
LINE
  5
54E
330
1F
100
AcDbEntity
  8
寸法
  6
Continuous
 62
   120
370
     5
100
AcDbLine
 10
-1314.094621086658
 20
1151.821300207057
 30
0.0
 11
-864.0946210866574
 21
1151.821300207057
 31
0.0
  0
LWPOLYLINE
  5
54F
330
1F
100
AcDbEntity
  8
寸法
  6
Continuous
 62
     7
370
     9
100
AcDbPolyline
 90
        4
 70
     1
 43
3.0
 10
-1312.594621086658
 20
1151.821300207057
 42
0.4142135623731
 10
-1314.094621086658
 20
1153.321300207057
 42
0.4142135623731
 10
-1315.594621086658
 20
1151.821300207057
 42
0.4142135623731
 10
-1314.094621086658
 20
1150.321300207057
 42
0.4142135623731
  0
LINE
  5
550
330
1F
100
AcDbEntity
  8
寸法
  6
Continuous
 62
   120
370
     5
100
AcDbLine
 10
-1114.094621086657
 20
1107.821300207056
 30
0.0
 11
-864.0946210866574
 21
1107.821300207056
 31
0.0
  0
LINE
  5
551
330
1F
100
AcDbEntity
  8
寸法
  6
Continuous
 62
   120
370
     5
100
AcDbLine
 10
-1114.094621086657
 20
1107.821300207056
 30
0.0
 11
-1114.094621086657
 21
-1075.178699792943
 31
0.0
  0
LWPOLYLINE
  5
552
330
1F
100
AcDbEntity
  8
寸法
  6
Continuous
 62
     7
370
     9
100
AcDbPolyline
 90
        4
 70
     1
 43
3.0
 10
-1112.594621086657
 20
1107.821300207056
 42
0.4142135623731
 10
-1114.094621086657
 20
1109.321300207056
 42
0.4142135623731
 10
-1115.594621086657
 20
1107.821300207056
 42
0.4142135623731
 10
-1114.094621086657
 20
1106.321300207057
 42
0.4142135623731
  0
MTEXT
  5
553
330
1F
100
AcDbEntity
  8
寸法
  6
Continuous
 62
     7
370
    70
100
AcDbMText
 10
-1329.094621086658
 20
-195.8536997929436
 30
0.0
 40
57.14999999999999
 41
412.5
 46
0.0
 71
     7
 72
     1
  1
{\fＭＳ ゴシック|b0|i0|c128|p49;枠外＝2,247}
 11
6.123031769111886E-17
 21
1.0
 31
0.0
 73
     1
 44
1.0
  0
MTEXT
  5
554
330
1F
100
AcDbEntity
  8
寸法
  6
Continuous
 62
     7
370
    70
100
AcDbMText
 10
-1129.094621086657
 20
-201.8536997929432
 30
0.0
 40
57.14999999999999
 41
412.5
 46
0.0
 71
     7
 72
     1
  1
{\fＭＳ ゴシック|b0|i0|c128|p49;ＤＨ＝2,183}
 11
6.123031769111886E-17
 21
1.0
 31
0.0
 73
     1
 44
1.0
  0
MTEXT
  5
555
330
1F
100
AcDbEntity
  8
寸法
  6
Continuous
 62
     7
370
   211
100
AcDbMText
 10
229.1553789133424
 20
-1339.103699792943
 30
0.0
 40
57.14999999999998
 41
337.4999999999999
 46
0.0
 71
     7
 72
     1
  1
{\fＭＳ ゴシック|b0|i0|c128|p49;ＤＷ＝810}
 73
     1
 44
1.0
  0
MTEXT
  5
556
330
1F
100
AcDbEntity
  8
寸法
  6
Continuous
 62
     7
370
   211
100
AcDbMText
 10
-198.3446210866577
 20
-1539.103699792943
 30
0.0
 40
57.14999999999999
 41
412.5
 46
0.0
 71
     7
 72
     1
  1
{\fＭＳ ゴシック|b0|i0|c128|p49;枠内＝1,584}
 73
     1
 44
1.0
  0
MTEXT
  5
557
330
1F
100
AcDbEntity
  8
寸法
  6
Continuous
 62
     7
370
   211
100
AcDbMText
 10
-198.3446210866577
 20
-1739.103699792943
 30
0.0
 40
57.14999999999999
 41
412.5
 46
0.0
 71
     7
 72
     1
  1
{\fＭＳ ゴシック|b0|i0|c128|p49;枠外＝1,644}
 73
     1
 44
1.0
  0
ENDSEC
  0
SECTION
  2
OBJECTS
  0
DICTIONARY
  5
C
330
0
100
AcDbDictionary
281
     1
  3
ACAD_GROUP
350
D
  3
ACAD_LAYOUT
350
1A
  3
ACAD_MATERIAL
350
3B
  3
ACAD_MLEADERSTYLE
350
559
  3
ACAD_MLINESTYLE
350
17
  3
ACAD_PLOTSETTINGS
350
19
  3
ACAD_PLOTSTYLENAME
350
E
  3
ACAD_TABLESTYLE
350
558
  3
ACAD_VISUALSTYLE
350
2A
  0
DICTIONARY
  5
D
102
{ACAD_REACTORS
330
C
102
}
330
C
100
AcDbDictionary
281
     1
  0
DICTIONARY
  5
1A
102
{ACAD_REACTORS
330
C
102
}
330
C
100
AcDbDictionary
281
     1
  3
Layout1
350
1E
  3
Layout2
350
26
  3
Model
350
22
  0
DICTIONARY
  5
3B
102
{ACAD_REACTORS
330
C
102
}
330
C
100
AcDbDictionary
281
     1
  3
ByBlock
350
3D
  3
ByLayer
350
3C
  3
Global
350
3E
  0
DICTIONARY
  5
559
102
{ACAD_REACTORS
330
C
102
}
330
C
100
AcDbDictionary
281
     1
  0
DICTIONARY
  5
17
102
{ACAD_REACTORS
330
C
102
}
330
C
100
AcDbDictionary
281
     1
  3
Standard
350
18
  0
DICTIONARY
  5
19
102
{ACAD_REACTORS
330
C
102
}
330
C
100
AcDbDictionary
281
     1
  0
ACDBDICTIONARYWDFLT
  5
E
102
{ACAD_REACTORS
330
C
102
}
330
C
100
AcDbDictionary
281
     1
  3
Normal
350
F
100
AcDbDictionaryWithDefault
340
F
  0
DICTIONARY
  5
558
102
{ACAD_REACTORS
330
C
102
}
330
C
100
AcDbDictionary
281
     1
  0
DICTIONARY
  5
2A
102
{ACAD_REACTORS
330
C
102
}
330
C
100
AcDbDictionary
281
     1
  3
2dWireframe
350
2F
  3
3D Hidden
350
31
  3
3dWireframe
350
30
  3
Basic
350
32
  3
Brighten
350
36
  3
ColorChange
350
3A
  3
Conceptual
350
34
  3
Dim
350
35
  3
Facepattern
350
39
  3
Flat
350
2B
  3
FlatWithEdges
350
2C
  3
Gouraud
350
2D
  3
GouraudWithEdges
350
2E
  3
Linepattern
350
38
  3
Realistic
350
33
  3
Thicken
350
37
  0
LAYOUT
  5
1E
102
{ACAD_REACTORS
330
1A
102
}
330
1A
100
AcDbPlotSettings
  1

  2
none_device
  4

  6

 40
0.0
 41
0.0
 42
0.0
 43
0.0
 44
0.0
 45
0.0
 46
0.0
 47
0.0
 48
0.0
 49
0.0
140
0.0
141
0.0
142
1.0
143
1.0
 70
   688
 72
     0
 73
     0
 74
     5
  7

 75
    16
 76
     0
 77
     5
 78
   300
147
1.0
148
0.0
149
0.0
100
AcDbLayout
  1
Layout1
 70
     1
 71
     1
 10
0.0
 20
0.0
 11
420.0
 21
297.0
 12
0.0
 22
0.0
 32
0.0
 14
1.000000000000000E+20
 24
1.000000000000000E+20
 34
1.000000000000000E+20
 15
-1.000000000000000E+20
 25
-1.000000000000000E+20
 35
-1.000000000000000E+20
146
0.0
 13
0.0
 23
0.0
 33
0.0
 16
1.0
 26
0.0
 36
0.0
 17
0.0
 27
1.0
 37
0.0
 76
     0
330
1B
  0
LAYOUT
  5
26
102
{ACAD_REACTORS
330
1A
102
}
330
1A
100
AcDbPlotSettings
  1

  2
none_device
  4

  6

 40
0.0
 41
0.0
 42
0.0
 43
0.0
 44
0.0
 45
0.0
 46
0.0
 47
0.0
 48
0.0
 49
0.0
140
0.0
141
0.0
142
1.0
143
1.0
 70
   688
 72
     0
 73
     0
 74
     5
  7

 75
    16
 76
     0
 77
     5
 78
   300
147
1.0
148
0.0
149
0.0
100
AcDbLayout
  1
Layout2
 70
     1
 71
     2
 10
0.0
 20
0.0
 11
0.0
 21
0.0
 12
0.0
 22
0.0
 32
0.0
 14
0.0
 24
0.0
 34
0.0
 15
0.0
 25
0.0
 35
0.0
146
0.0
 13
0.0
 23
0.0
 33
0.0
 16
1.0
 26
0.0
 36
0.0
 17
0.0
 27
1.0
 37
0.0
 76
     0
330
23
  0
LAYOUT
  5
22
102
{ACAD_REACTORS
330
1A
102
}
330
1A
100
AcDbPlotSettings
  1

  2
none_device
  4

  6

 40
0.0
 41
0.0
 42
0.0
 43
0.0
 44
0.0
 45
0.0
 46
0.0
 47
0.0
 48
0.0
 49
0.0
140
0.0
141
0.0
142
1.0
143
1.0
 70
  1712
 72
     0
 73
     0
 74
     0
  7

 75
     0
 76
     0
 77
     5
 78
   300
147
1.0
148
0.0
149
0.0
100
AcDbLayout
  1
Model
 70
     1
 71
     0
 10
-4455.0
 20
-3150.0
 11
4455.0
 21
3150.0
 12
0.0
 22
0.0
 32
0.0
 14
-4455.0
 24
-3150.0
 34
0.0
 15
4455.0
 25
3150.0
 35
0.0
146
0.0
 13
0.0
 23
0.0
 33
0.0
 16
1.0
 26
0.0
 36
0.0
 17
0.0
 27
1.0
 37
0.0
 76
     0
330
1F
331
29
  0
MATERIAL
  5
3D
102
{ACAD_REACTORS
330
3B
102
}
330
3B
100
AcDbMaterial
  1
ByBlock
 72
     1
 94
      127
  0
MATERIAL
  5
3C
102
{ACAD_REACTORS
330
3B
102
}
330
3B
100
AcDbMaterial
  1
ByLayer
 72
     1
 94
      127
  0
MATERIAL
  5
3E
102
{ACAD_REACTORS
330
3B
102
}
330
3B
100
AcDbMaterial
  1
Global
 72
     1
 94
      127
  0
MLINESTYLE
  5
18
102
{ACAD_REACTORS
330
17
102
}
330
17
100
AcDbMlineStyle
  2
Standard
 70
     0
  3

 62
   256
 51
90.0
 52
90.0
 71
     2
 49
0.5
 62
   256
  6
BYLAYER
 49
-0.5
 62
   256
  6
BYLAYER
  0
ACDBPLACEHOLDER
  5
F
102
{ACAD_REACTORS
330
E
102
}
330
E
  0
VISUALSTYLE
  5
2F
102
{ACAD_REACTORS
330
2A
102
}
330
2A
100
AcDbVisualStyle
  2
2dWireframe
 70
     4
177
     2
291
     0
 71
     0
176
     1
 72
     2
176
     1
 73
     0
176
     1
 90
        0
176
     1
 40
-0.6
176
     1
 41
-30.0
176
     1
 62
     5
 63
     7
421
 16777215
176
     1
 74
     1
176
     1
 91
        4
176
     1
 64
     7
176
     1
 65
   257
176
     1
 75
     1
176
     1
175
     1
176
     1
 42
1.0
176
     1
 92
        0
176
     1
 66
   257
176
     1
 43
1.0
176
     1
 76
     1
176
     1
 77
     6
176
     1
 78
     2
176
     1
 67
     7
176
     1
 79
     5
176
     1
170
     0
176
     1
171
     0
176
     1
290
     0
176
     1
 93
        1
176
     1
 44
0.0
176
     1
173
     0
176
     1
  0
VISUALSTYLE
  5
31
102
{ACAD_REACTORS
330
2A
102
}
330
2A
100
AcDbVisualStyle
  2
3D Hidden
 70
     6
177
     2
291
     0
 71
     1
176
     1
 72
     2
176
     1
 73
     2
176
     1
 90
        0
176
     1
 40
-0.6
176
     1
 41
-30.0
176
     1
 62
     5
 63
     7
421
 16777215
176
     1
 74
     2
176
     1
 91
        2
176
     1
 64
     7
176
     1
 65
   257
176
     1
 75
     2
176
     1
175
     1
176
     1
 42
40.0
176
     1
 92
        0
176
     1
 66
   257
176
     1
 43
1.0
176
     1
 76
     1
176
     1
 77
     6
176
     1
 78
     2
176
     1
 67
     7
176
     1
 79
     3
176
     1
170
     0
176
     1
171
     0
176
     1
290
     0
176
     1
 93
        1
176
     1
 44
0.0
176
     1
173
     0
176
     1
  0
VISUALSTYLE
  5
30
102
{ACAD_REACTORS
330
2A
102
}
330
2A
100
AcDbVisualStyle
  2
3dWireframe
 70
     5
177
     2
291
     0
 71
     0
176
     1
 72
     2
176
     1
 73
     0
176
     1
 90
        0
176
     1
 40
-0.6
176
     1
 41
-30.0
176
     1
 62
     5
 63
     7
421
 16777215
176
     1
 74
     1
176
     1
 91
        4
176
     1
 64
     7
176
     1
 65
   257
176
     1
 75
     1
176
     1
175
     1
176
     1
 42
1.0
176
     1
 92
        0
176
     1
 66
   257
176
     1
 43
1.0
176
     1
 76
     1
176
     1
 77
     6
176
     1
 78
     2
176
     1
 67
     7
176
     1
 79
     5
176
     1
170
     0
176
     1
171
     0
176
     1
290
     0
176
     1
 93
        1
176
     1
 44
0.0
176
     1
173
     0
176
     1
  0
VISUALSTYLE
  5
32
102
{ACAD_REACTORS
330
2A
102
}
330
2A
100
AcDbVisualStyle
  2
Basic
 70
     7
177
     2
291
     1
 71
     1
176
     1
 72
     0
176
     1
 73
     1
176
     1
 90
        0
176
     1
 40
-0.6
176
     1
 41
-30.0
176
     1
 62
     5
 63
     7
421
 16777215
176
     1
 74
     0
176
     1
 91
        4
176
     1
 64
     7
176
     1
 65
   257
176
     1
 75
     1
176
     1
175
     1
176
     1
 42
1.0
176
     1
 92
        8
176
     1
 66
     7
176
     1
 43
1.0
176
     1
 76
     1
176
     1
 77
     6
176
     1
 78
     2
176
     1
 67
     7
176
     1
 79
     5
176
     1
170
     0
176
     1
171
     0
176
     1
290
     0
176
     1
 93
        1
176
     1
 44
0.0
176
     1
173
     0
176
     1
  0
VISUALSTYLE
  5
36
102
{ACAD_REACTORS
330
2A
102
}
330
2A
100
AcDbVisualStyle
  2
Brighten
 70
    12
177
     2
291
     1
 71
     2
176
     1
 72
     2
176
     1
 73
     0
176
     1
 90
        0
176
     1
 40
-0.6
176
     1
 41
-30.0
176
     1
 62
     5
 63
     7
421
 16777215
176
     1
 74
     1
176
     1
 91
        4
176
     1
 64
     7
176
     1
 65
   257
176
     1
 75
     1
176
     1
175
     1
176
     1
 42
1.0
176
     1
 92
        8
176
     1
 66
     7
176
     1
 43
1.0
176
     1
 76
     1
176
     1
 77
     6
176
     1
 78
     2
176
     1
 67
     7
176
     1
 79
     5
176
     1
170
     0
176
     1
171
     0
176
     1
290
     0
176
     1
 93
        1
176
     1
 44
50.0
176
     1
173
     0
176
     1
  0
VISUALSTYLE
  5
3A
102
{ACAD_REACTORS
330
2A
102
}
330
2A
100
AcDbVisualStyle
  2
ColorChange
 70
    16
177
     2
291
     1
 71
     2
176
     1
 72
     2
176
     1
 73
     3
176
     1
 90
        0
176
     1
 40
-0.6
176
     1
 41
-30.0
176
     1
 62
     5
 63
     8
421
  8421504
176
     1
 74
     1
176
     1
 91
        4
176
     1
 64
     7
176
     1
 65
   257
176
     1
 75
     1
176
     1
175
     1
176
     1
 42
1.0
176
     1
 92
        8
176
     1
 66
     8
424
  8421504
176
     1
 43
1.0
176
     1
 76
     1
176
     1
 77
     6
176
     1
 78
     2
176
     1
 67
     7
176
     1
 79
     5
176
     1
170
     0
176
     1
171
     0
176
     1
290
     0
176
     1
 93
        1
176
     1
 44
0.0
176
     1
173
     0
176
     1
  0
VISUALSTYLE
  5
34
102
{ACAD_REACTORS
330
2A
102
}
330
2A
100
AcDbVisualStyle
  2
Conceptual
 70
     9
177
     2
291
     0
 71
     3
176
     1
 72
     2
176
     1
 73
     0
176
     1
 90
        0
176
     1
 40
-0.6
176
     1
 41
-30.0
176
     1
 62
     5
 63
     7
421
 16777215
176
     1
 74
     2
176
     1
 91
        2
176
     1
 64
     7
176
     1
 65
   257
176
     1
 75
     1
176
     1
175
     1
176
     1
 42
40.0
176
     1
 92
        8
176
     1
 66
     7
176
     1
 43
1.0
176
     1
 76
     1
176
     1
 77
     6
176
     1
 78
     2
176
     1
 67
     7
176
     1
 79
     3
176
     1
170
     0
176
     1
171
     0
176
     1
290
     0
176
     1
 93
        1
176
     1
 44
0.0
176
     1
173
     0
176
     1
  0
VISUALSTYLE
  5
35
102
{ACAD_REACTORS
330
2A
102
}
330
2A
100
AcDbVisualStyle
  2
Dim
 70
    11
177
     2
291
     1
 71
     2
176
     1
 72
     2
176
     1
 73
     0
176
     1
 90
        0
176
     1
 40
-0.6
176
     1
 41
-30.0
176
     1
 62
     5
 63
     7
421
 16777215
176
     1
 74
     1
176
     1
 91
        4
176
     1
 64
     7
176
     1
 65
   257
176
     1
 75
     1
176
     1
175
     1
176
     1
 42
1.0
176
     1
 92
        8
176
     1
 66
     7
176
     1
 43
1.0
176
     1
 76
     1
176
     1
 77
     6
176
     1
 78
     2
176
     1
 67
     7
176
     1
 79
     5
176
     1
170
     0
176
     1
171
     0
176
     1
290
     0
176
     1
 93
        1
176
     1
 44
-50.0
176
     1
173
     0
176
     1
  0
VISUALSTYLE
  5
39
102
{ACAD_REACTORS
330
2A
102
}
330
2A
100
AcDbVisualStyle
  2
Facepattern
 70
    15
177
     2
291
     1
 71
     2
176
     1
 72
     2
176
     1
 73
     0
176
     1
 90
        0
176
     1
 40
-0.6
176
     1
 41
-30.0
176
     1
 62
     5
 63
     7
421
 16777215
176
     1
 74
     1
176
     1
 91
        4
176
     1
 64
     7
176
     1
 65
   257
176
     1
 75
     1
176
     1
175
     1
176
     1
 42
1.0
176
     1
 92
        8
176
     1
 66
     7
176
     1
 43
1.0
176
     1
 76
     1
176
     1
 77
     6
176
     1
 78
     2
176
     1
 67
     7
176
     1
 79
     5
176
     1
170
     0
176
     1
171
     0
176
     1
290
     0
176
     1
 93
        1
176
     1
 44
0.0
176
     1
173
     0
176
     1
  0
VISUALSTYLE
  5
2B
102
{ACAD_REACTORS
330
2A
102
}
330
2A
100
AcDbVisualStyle
  2
Flat
 70
     0
177
     2
291
     1
 71
     2
176
     1
 72
     1
176
     1
 73
     1
176
     1
 90
        2
176
     1
 40
-0.6
176
     1
 41
30.0
176
     1
 62
     5
 63
     7
421
 16777215
176
     1
 74
     0
176
     1
 91
        4
176
     1
 64
     7
176
     1
 65
   257
176
     1
 75
     1
176
     1
175
     1
176
     1
 42
1.0
176
     1
 92
        8
176
     1
 66
     7
176
     1
 43
1.0
176
     1
 76
     1
176
     1
 77
     6
176
     1
 78
     2
176
     1
 67
     7
176
     1
 79
     5
176
     1
170
     0
176
     1
171
     0
176
     1
290
     0
176
     1
 93
       13
176
     1
 44
0.0
176
     1
173
     0
176
     1
  0
VISUALSTYLE
  5
2C
102
{ACAD_REACTORS
330
2A
102
}
330
2A
100
AcDbVisualStyle
  2
FlatWithEdges
 70
     1
177
     2
291
     1
 71
     2
176
     1
 72
     1
176
     1
 73
     1
176
     1
 90
        2
176
     1
 40
-0.6
176
     1
 41
30.0
176
     1
 62
     5
 63
     7
421
 16777215
176
     1
 74
     1
176
     1
 91
        4
176
     1
 64
     7
176
     1
 65
   257
176
     1
 75
     1
176
     1
175
     1
176
     1
 42
1.0
176
     1
 92
        0
176
     1
 66
   257
176
     1
 43
1.0
176
     1
 76
     1
176
     1
 77
     6
176
     1
 78
     2
176
     1
 67
     7
176
     1
 79
     5
176
     1
170
     0
176
     1
171
     0
176
     1
290
     0
176
     1
 93
       13
176
     1
 44
0.0
176
     1
173
     0
176
     1
  0
VISUALSTYLE
  5
2D
102
{ACAD_REACTORS
330
2A
102
}
330
2A
100
AcDbVisualStyle
  2
Gouraud
 70
     2
177
     2
291
     1
 71
     2
176
     1
 72
     2
176
     1
 73
     1
176
     1
 90
        2
176
     1
 40
-0.6
176
     1
 41
30.0
176
     1
 62
     5
 63
     7
421
 16777215
176
     1
 74
     0
176
     1
 91
        4
176
     1
 64
     7
176
     1
 65
   257
176
     1
 75
     1
176
     1
175
     1
176
     1
 42
1.0
176
     1
 92
        0
176
     1
 66
     7
176
     1
 43
1.0
176
     1
 76
     1
176
     1
 77
     6
176
     1
 78
     2
176
     1
 67
     7
176
     1
 79
     5
176
     1
170
     0
176
     1
171
     0
176
     1
290
     0
176
     1
 93
       13
176
     1
 44
0.0
176
     1
173
     0
176
     1
  0
VISUALSTYLE
  5
2E
102
{ACAD_REACTORS
330
2A
102
}
330
2A
100
AcDbVisualStyle
  2
GouraudWithEdges
 70
     3
177
     2
291
     1
 71
     2
176
     1
 72
     2
176
     1
 73
     1
176
     1
 90
        2
176
     1
 40
-0.6
176
     1
 41
30.0
176
     1
 62
     5
 63
     7
421
 16777215
176
     1
 74
     1
176
     1
 91
        4
176
     1
 64
     7
176
     1
 65
   257
176
     1
 75
     1
176
     1
175
     1
176
     1
 42
1.0
176
     1
 92
        0
176
     1
 66
   257
176
     1
 43
1.0
176
     1
 76
     1
176
     1
 77
     6
176
     1
 78
     2
176
     1
 67
     7
176
     1
 79
     5
176
     1
170
     0
176
     1
171
     0
176
     1
290
     0
176
     1
 93
       13
176
     1
 44
0.0
176
     1
173
     0
176
     1
  0
VISUALSTYLE
  5
38
102
{ACAD_REACTORS
330
2A
102
}
330
2A
100
AcDbVisualStyle
  2
Linepattern
 70
    14
177
     2
291
     1
 71
     2
176
     1
 72
     2
176
     1
 73
     0
176
     1
 90
        0
176
     1
 40
-0.6
176
     1
 41
-30.0
176
     1
 62
     5
 63
     7
421
 16777215
176
     1
 74
     1
176
     1
 91
        4
176
     1
 64
     7
176
     1
 65
   257
176
     1
 75
     7
176
     1
175
     7
176
     1
 42
1.0
176
     1
 92
        8
176
     1
 66
     7
176
     1
 43
1.0
176
     1
 76
     1
176
     1
 77
     6
176
     1
 78
     2
176
     1
 67
     7
176
     1
 79
     5
176
     1
170
     0
176
     1
171
     0
176
     1
290
     0
176
     1
 93
        1
176
     1
 44
0.0
176
     1
173
     0
176
     1
  0
VISUALSTYLE
  5
33
102
{ACAD_REACTORS
330
2A
102
}
330
2A
100
AcDbVisualStyle
  2
Realistic
 70
     8
177
     2
291
     0
 71
     2
176
     1
 72
     2
176
     1
 73
     0
176
     1
 90
        0
176
     1
 40
-0.6
176
     1
 41
-30.0
176
     1
 62
     5
 63
     7
421
 16777215
176
     1
 74
     1
176
     1
 91
        0
176
     1
 64
     7
176
     1
 65
   257
176
     1
 75
     1
176
     1
175
     1
176
     1
 42
1.0
176
     1
 92
        8
176
     1
 66
     8
424
  7895160
176
     1
 43
1.0
176
     1
 76
     1
176
     1
 77
     6
176
     1
 78
     2
176
     1
 67
     7
176
     1
 79
     5
176
     1
170
     0
176
     1
171
     0
176
     1
290
     0
176
     1
 93
       13
176
     1
 44
0.0
176
     1
173
     0
176
     1
  0
VISUALSTYLE
  5
37
102
{ACAD_REACTORS
330
2A
102
}
330
2A
100
AcDbVisualStyle
  2
Thicken
 70
    13
177
     2
291
     1
 71
     2
176
     1
 72
     2
176
     1
 73
     0
176
     1
 90
        0
176
     1
 40
-0.6
176
     1
 41
-30.0
176
     1
 62
     5
 63
     7
421
 16777215
176
     1
 74
     1
176
     1
 91
        4
176
     1
 64
     7
176
     1
 65
   257
176
     1
 75
     1
176
     1
175
     1
176
     1
 42
1.0
176
     1
 92
       12
176
     1
 66
     7
176
     1
 43
1.0
176
     1
 76
     1
176
     1
 77
     6
176
     1
 78
     2
176
     1
 67
     7
176
     1
 79
     5
176
     1
170
     0
176
     1
171
     0
176
     1
290
     0
176
     1
 93
        1
176
     1
 44
0.0
176
     1
173
     0
176
     1
  0
ENDSEC
  0
EOF
