  0
SECTION
  2
HEADER
  9
$ACADVER
  1
AC1024
  9
$ACADMAINTVER
 70
     6
  9
$DWGCODEPAGE
  3
ANSI_932
  9
$INSBASE
 10
0.0
 20
0.0
 30
0.0
  9
$EXTMIN
 10
-4455.0
 20
-3150.0
 30
0.0
  9
$EXTMAX
 10
4455.0
 20
3150.0
 30
0.0
  9
$LIMMIN
 10
-4455.0
 20
-3150.0
  9
$LIMMAX
 10
4455.0
 20
3150.0
  9
$ORTHOMODE
 70
     0
  9
$REGENMODE
 70
     1
  9
$FILLMODE
 70
     1
  9
$QTEXTMODE
 70
     0
  9
$MIRRTEXT
 70
     1
  9
$LTSCALE
 40
30.0
  9
$ATTMODE
 70
     1
  9
$TEXTSIZE
 40
2.5
  9
$TRACEWID
 40
1.0
  9
$TEXTSTYLE
  7
Standard
  9
$CLAYER
  8
0
  9
$CELTYPE
  6
ByLayer
  9
$CECOLOR
 62
   256
  9
$CELTSCALE
 40
1.0
  9
$DISPSILH
 70
     0
  9
$DIMSCALE
 40
1.0
  9
$DIMASZ
 40
2.5
  9
$DIMEXO
 40
0.625
  9
$DIMDLI
 40
3.75
  9
$DIMRND
 40
0.0
  9
$DIMDLE
 40
0.0
  9
$DIMEXE
 40
1.25
  9
$DIMTP
 40
0.0
  9
$DIMTM
 40
0.0
  9
$DIMTXT
 40
2.5
  9
$DIMCEN
 40
2.5
  9
$DIMTSZ
 40
0.0
  9
$DIMTOL
 70
     0
  9
$DIMLIM
 70
     0
  9
$DIMTIH
 70
     0
  9
$DIMTOH
 70
     0
  9
$DIMSE1
 70
     0
  9
$DIMSE2
 70
     0
  9
$DIMTAD
 70
     1
  9
$DIMZIN
 70
     8
  9
$DIMBLK
  1

  9
$DIMASO
 70
     1
  9
$DIMSHO
 70
     1
  9
$DIMPOST
  1

  9
$DIMAPOST
  1

  9
$DIMALT
 70
     0
  9
$DIMALTD
 70
     3
  9
$DIMALTF
 40
0.03937007874016
  9
$DIMLFAC
 40
1.0
  9
$DIMTOFL
 70
     1
  9
$DIMTVP
 40
0.0
  9
$DIMTIX
 70
     0
  9
$DIMSOXD
 70
     0
  9
$DIMSAH
 70
     0
  9
$DIMBLK1
  1

  9
$DIMBLK2
  1

  9
$DIMSTYLE
  2
ISO-25
  9
$DIMCLRD
 70
     0
  9
$DIMCLRE
 70
     0
  9
$DIMCLRT
 70
     0
  9
$DIMTFAC
 40
1.0
  9
$DIMGAP
 40
0.625
  9
$DIMJUST
 70
     0
  9
$DIMSD1
 70
     0
  9
$DIMSD2
 70
     0
  9
$DIMTOLJ
 70
     0
  9
$DIMTZIN
 70
     8
  9
$DIMALTZ
 70
     0
  9
$DIMALTTZ
 70
     0
  9
$DIMUPT
 70
     0
  9
$DIMDEC
 70
     2
  9
$DIMTDEC
 70
     2
  9
$DIMALTU
 70
     2
  9
$DIMALTTD
 70
     3
  9
$DIMTXSTY
  7
Standard
  9
$DIMAUNIT
 70
     0
  9
$DIMADEC
 70
     0
  9
$DIMALTRND
 40
0.0
  9
$DIMAZIN
 70
     0
  9
$DIMDSEP
 70
    44
  9
$DIMATFIT
 70
     3
  9
$DIMFRAC
 70
     0
  9
$DIMLDRBLK
  1

  9
$DIMLUNIT
 70
     2
  9
$DIMLWD
 70
    -2
  9
$DIMLWE
 70
    -2
  9
$DIMTMOVE
 70
     0
  9
$DIMFXL
 40
1.0
  9
$DIMFXLON
 70
     0
  9
$DIMJOGANG
 40
0.7853981633974483
  9
$DIMTFILL
 70
     0
  9
$DIMTFILLCLR
 70
     0
  9
$DIMARCSYM
 70
     0
  9
$DIMLTYPE
  6

  9
$DIMLTEX1
  6

  9
$DIMLTEX2
  6

  9
$DIMTXTDIRECTION
 70
     0
  9
$LUNITS
 70
     2
  9
$LUPREC
 70
     4
  9
$SKETCHINC
 40
1.0
  9
$FILLETRAD
 40
10.0
  9
$AUNITS
 70
     0
  9
$AUPREC
 70
     0
  9
$MENU
  1
.
  9
$ELEVATION
 40
0.0
  9
$PELEVATION
 40
0.0
  9
$THICKNESS
 40
0.0
  9
$LIMCHECK
 70
     0
  9
$CHAMFERA
 40
0.0
  9
$CHAMFERB
 40
0.0
  9
$CHAMFERC
 40
0.0
  9
$CHAMFERD
 40
0.0
  9
$SKPOLY
 70
     0
  9
$TDCREATE
 40
2458466.688979467
  9
$TDUCREATE
 40
2458466.313979467
  9
$TDUPDATE
 40
2458466.68898
  9
$TDUUPDATE
 40
2458466.31398
  9
$TDINDWG
 40
0.0000000116
  9
$TDUSRTIMER
 40
0.0000000116
  9
$USRTIMER
 70
     1
  9
$ANGBASE
 50
0.0
  9
$ANGDIR
 70
     0
  9
$PDMODE
 70
     0
  9
$PDSIZE
 40
0.0
  9
$PLINEWID
 40
0.0
  9
$SPLFRAME
 70
     0
  9
$SPLINETYPE
 70
     6
  9
$SPLINESEGS
 70
     8
  9
$HANDSEED
  5
22E
  9
$SURFTAB1
 70
     6
  9
$SURFTAB2
 70
     6
  9
$SURFTYPE
 70
     6
  9
$SURFU
 70
     6
  9
$SURFV
 70
     6
  9
$UCSBASE
  2

  9
$UCSNAME
  2

  9
$UCSORG
 10
0.0
 20
0.0
 30
0.0
  9
$UCSXDIR
 10
1.0
 20
0.0
 30
0.0
  9
$UCSYDIR
 10
0.0
 20
1.0
 30
0.0
  9
$UCSORTHOREF
  2

  9
$UCSORTHOVIEW
 70
     0
  9
$UCSORGTOP
 10
0.0
 20
0.0
 30
0.0
  9
$UCSORGBOTTOM
 10
0.0
 20
0.0
 30
0.0
  9
$UCSORGLEFT
 10
0.0
 20
0.0
 30
0.0
  9
$UCSORGRIGHT
 10
0.0
 20
0.0
 30
0.0
  9
$UCSORGFRONT
 10
0.0
 20
0.0
 30
0.0
  9
$UCSORGBACK
 10
0.0
 20
0.0
 30
0.0
  9
$PUCSBASE
  2

  9
$PUCSNAME
  2

  9
$PUCSORG
 10
0.0
 20
0.0
 30
0.0
  9
$PUCSXDIR
 10
1.0
 20
0.0
 30
0.0
  9
$PUCSYDIR
 10
0.0
 20
1.0
 30
0.0
  9
$PUCSORTHOREF
  2

  9
$PUCSORTHOVIEW
 70
     0
  9
$PUCSORGTOP
 10
0.0
 20
0.0
 30
0.0
  9
$PUCSORGBOTTOM
 10
0.0
 20
0.0
 30
0.0
  9
$PUCSORGLEFT
 10
0.0
 20
0.0
 30
0.0
  9
$PUCSORGRIGHT
 10
0.0
 20
0.0
 30
0.0
  9
$PUCSORGFRONT
 10
0.0
 20
0.0
 30
0.0
  9
$PUCSORGBACK
 10
0.0
 20
0.0
 30
0.0
  9
$USERI1
 70
     0
  9
$USERI2
 70
     0
  9
$USERI3
 70
     0
  9
$USERI4
 70
     0
  9
$USERI5
 70
     0
  9
$USERR1
 40
0.0
  9
$USERR2
 40
0.0
  9
$USERR3
 40
0.0
  9
$USERR4
 40
0.0
  9
$USERR5
 40
0.0
  9
$WORLDVIEW
 70
     1
  9
$SHADEDGE
 70
     3
  9
$SHADEDIF
 70
    70
  9
$TILEMODE
 70
     1
  9
$MAXACTVP
 70
    64
  9
$PINSBASE
 10
0.0
 20
0.0
 30
0.0
  9
$PLIMCHECK
 70
     0
  9
$PEXTMIN
 10
1.000000000000000E+20
 20
1.000000000000000E+20
 30
1.000000000000000E+20
  9
$PEXTMAX
 10
-1.000000000000000E+20
 20
-1.000000000000000E+20
 30
-1.000000000000000E+20
  9
$PLIMMIN
 10
0.0
 20
0.0
  9
$PLIMMAX
 10
420.0
 20
297.0
  9
$UNITMODE
 70
     0
  9
$VISRETAIN
 70
     1
  9
$PLINEGEN
 70
     0
  9
$PSLTSCALE
 70
     1
  9
$TREEDEPTH
 70
  3020
  9
$CMLSTYLE
  2
Standard
  9
$CMLJUST
 70
     0
  9
$CMLSCALE
 40
20.0
  9
$PROXYGRAPHICS
 70
     1
  9
$MEASUREMENT
 70
     1
  9
$CELWEIGHT
370
    -1
  9
$ENDCAPS
280
     0
  9
$JOINSTYLE
280
     0
  9
$LWDISPLAY
290
     0
  9
$INSUNITS
 70
     4
  9
$HYPERLINKBASE
  1

  9
$STYLESHEET
  1

  9
$XEDIT
290
     1
  9
$CEPSNTYPE
380
     0
  9
$PSTYLEMODE
290
     1
  9
$FINGERPRINTGUID
  2
{04487008-8F83-40E0-B6BE-B30A23B4C8E8}
  9
$VERSIONGUID
  2
{FAEB1C32-E019-11D5-929B-00C0DF256EC4}
  9
$EXTNAMES
290
     1
  9
$PSVPSCALE
 40
0.0
  9
$OLESTARTUP
290
     0
  9
$SORTENTS
280
   127
  9
$INDEXCTL
280
     0
  9
$HIDETEXT
280
     1
  9
$XCLIPFRAME
280
     2
  9
$HALOGAP
280
     0
  9
$OBSCOLOR
 70
   257
  9
$OBSLTYPE
280
     0
  9
$INTERSECTIONDISPLAY
280
     0
  9
$INTERSECTIONCOLOR
 70
   257
  9
$DIMASSOC
280
     2
  9
$PROJECTNAME
  1

  9
$CAMERADISPLAY
290
     0
  9
$LENSLENGTH
 40
50.0
  9
$CAMERAHEIGHT
 40
0.0
  9
$STEPSPERSEC
 40
2.0
  9
$STEPSIZE
 40
6.0
  9
$3DDWFPREC
 40
2.0
  9
$PSOLWIDTH
 40
5.0
  9
$PSOLHEIGHT
 40
80.0
  9
$LOFTANG1
 40
1.570796326794897
  9
$LOFTANG2
 40
1.570796326794897
  9
$LOFTMAG1
 40
0.0
  9
$LOFTMAG2
 40
0.0
  9
$LOFTPARAM
 70
     7
  9
$LOFTNORMALS
280
     1
  9
$LATITUDE
 40
37.795
  9
$LONGITUDE
 40
-122.394
  9
$NORTHDIRECTION
 40
0.0
  9
$TIMEZONE
 70
 -8000
  9
$LIGHTGLYPHDISPLAY
280
     1
  9
$TILEMODELIGHTSYNCH
280
     1
  9
$CMATERIAL
347
44
  9
$SOLIDHIST
280
     0
  9
$SHOWHIST
280
     1
  9
$DWFFRAME
280
     2
  9
$DGNFRAME
280
     2
  9
$REALWORLDSCALE
290
     1
  9
$INTERFERECOLOR
 62
   256
  9
$CSHADOW
280
     0
  9
$SHADOWPLANELOCATION
 40
0.0
  0
ENDSEC
  0
SECTION
  2
CLASSES
  0
CLASS
  1
ACDBDICTIONARYWDFLT
  2
AcDbDictionaryWithDefault
  3
ObjectDBX Classes
 90
        0
 91
        4
280
     0
281
     0
  0
CLASS
  1
VISUALSTYLE
  2
AcDbVisualStyle
  3
ObjectDBX Classes
 90
     4095
 91
        4
280
     0
281
     0
  0
CLASS
  1
MATERIAL
  2
AcDbMaterial
  3
ObjectDBX Classes
 90
     1153
 91
        4
280
     0
281
     0
  0
CLASS
  1
SCALE
  2
AcDbScale
  3
ObjectDBX Classes
 90
     1153
 91
        4
280
     0
281
     0
  0
CLASS
  1
TABLESTYLE
  2
AcDbTableStyle
  3
ObjectDBX Classes
 90
     4095
 91
        4
280
     0
281
     0
  0
CLASS
  1
MLEADERSTYLE
  2
AcDbMLeaderStyle
  3
ACDB_MLEADERSTYLE_CLASS
 90
     4095
 91
        4
280
     0
281
     0
  0
CLASS
  1
SUN
  2
AcDbSun
  3
SCENEOE
 90
     1153
 91
        4
280
     0
281
     0
  0
CLASS
  1
DICTIONARYVAR
  2
AcDbDictionaryVar
  3
ObjectDBX Classes
 90
        0
 91
        4
280
     0
281
     0
  0
CLASS
  1
CELLSTYLEMAP
  2
AcDbCellStyleMap
  3
ObjectDBX Classes
 90
     1152
 91
        4
280
     0
281
     0
  0
ENDSEC
  0
SECTION
  2
TABLES
  0
TABLE
  2
VPORT
  5
8
330
0
100
AcDbSymbolTable
 70
     1
  0
VPORT
  5
29
330
8
100
AcDbSymbolTableRecord
100
AcDbViewportTableRecord
  2
*Active
 70
     0
 10
0.0
 20
0.0
 11
1.0
 21
1.0
 12
0.0
 22
0.0
 13
0.0
 23
0.0
 14
10.0
 24
10.0
 15
10.0
 25
10.0
 16
0.0
 26
0.0
 36
1.0
 17
0.0
 27
0.0
 37
0.0
 40
6930.000000000001
 41
1.414285714285714
 42
50.0
 43
0.0
 44
0.0
 50
0.0
 51
0.0
 71
     0
 72
 10000
 73
     1
 74
     3
 75
     0
 76
     0
 77
     0
 78
     0
281
     0
 65
     1
110
0.0
120
0.0
130
0.0
111
1.0
121
0.0
131
0.0
112
0.0
122
1.0
132
0.0
 79
     0
146
0.0
348
2F
 60
     3
 61
     5
292
     1
282
     1
141
0.0
142
0.0
 63
   250
361
6D
  0
ENDTAB
  0
TABLE
  2
LTYPE
  5
5
330
0
100
AcDbSymbolTable
 70
     4
  0
LTYPE
  5
14
330
5
100
AcDbSymbolTableRecord
100
AcDbLinetypeTableRecord
  2
ByBlock
 70
     0
  3

 72
    65
 73
     0
 40
0.0
  0
LTYPE
  5
15
330
5
100
AcDbSymbolTableRecord
100
AcDbLinetypeTableRecord
  2
ByLayer
 70
     0
  3

 72
    65
 73
     0
 40
0.0
  0
LTYPE
  5
16
330
5
100
AcDbSymbolTableRecord
100
AcDbLinetypeTableRecord
  2
Continuous
 70
     0
  3
Solid line
 72
    65
 73
     0
 40
0.0
  0
LTYPE
  5
6F
330
5
100
AcDbSymbolTableRecord
100
AcDbLinetypeTableRecord
  2
JWW_CENTER1
 70
     0
  3
-----  --  ----------  --  -----
 72
    65
 73
     4
 40
6.773333333333333
 49
4.233333333333333
 74
     0
 49
-0.8466666666666667
 74
     0
 49
0.8466666666666667
 74
     0
 49
-0.8466666666666667
 74
     0
  0
LTYPE
  5
70
330
5
100
AcDbSymbolTableRecord
100
AcDbLinetypeTableRecord
  2
JWW_CENTER2
 70
     0
  3
-------------  --  -------------
 72
    65
 73
     4
 40
13.54666666666667
 49
11.00666666666667
 74
     0
 49
-0.8466666666666667
 74
     0
 49
0.8466666666666667
 74
     0
 49
-0.8466666666666667
 74
     0
  0
LTYPE
  5
71
330
5
100
AcDbSymbolTableRecord
100
AcDbLinetypeTableRecord
  2
JWW_DASHED1
 70
     0
  3
-  --  --  --  --  --  --  --  -
 72
    65
 73
     2
 40
1.693333333333333
 49
0.8466666666666667
 74
     0
 49
-0.8466666666666667
 74
     0
  0
ENDTAB
  0
TABLE
  2
LAYER
  5
2
330
0
100
AcDbSymbolTable
 70
    11
  0
LAYER
  5
10
330
2
100
AcDbSymbolTableRecord
100
AcDbLayerTableRecord
  2
0
 70
     0
 62
     7
  6
Continuous
370
    -3
390
F
347
46
  0
LAYER
  5
72
330
2
100
AcDbSymbolTableRecord
100
AcDbLayerTableRecord
  2
寸法
 70
     0
 62
     7
  6
Continuous
370
    -3
390
F
347
46
  0
LAYER
  5
73
330
2
100
AcDbSymbolTableRecord
100
AcDbLayerTableRecord
  2
0-5
 70
     0
 62
     7
  6
Continuous
370
    -3
390
F
347
46
  0
LAYER
  5
74
330
2
100
AcDbSymbolTableRecord
100
AcDbLayerTableRecord
  2
0-6
 70
     0
 62
     7
  6
Continuous
370
    -3
390
F
347
46
  0
LAYER
  5
75
330
2
100
AcDbSymbolTableRecord
100
AcDbLayerTableRecord
  2
0-9
 70
     0
 62
     7
  6
Continuous
370
    -3
390
F
347
46
  0
LAYER
  5
76
330
2
100
AcDbSymbolTableRecord
100
AcDbLayerTableRecord
  2
0-7
 70
     0
 62
     7
  6
Continuous
370
    -3
390
F
347
46
  0
LAYER
  5
77
330
2
100
AcDbSymbolTableRecord
100
AcDbLayerTableRecord
  2
文字
 70
     0
 62
     7
  6
Continuous
370
    -3
390
F
347
46
  0
LAYER
  5
78
330
2
100
AcDbSymbolTableRecord
100
AcDbLayerTableRecord
  2
0-4
 70
     0
 62
     7
  6
Continuous
370
    -3
390
F
347
46
  0
LAYER
  5
79
330
2
100
AcDbSymbolTableRecord
100
AcDbLayerTableRecord
  2
0-A
 70
     0
 62
     7
  6
Continuous
370
    -3
390
F
347
46
  0
LAYER
  5
7A
330
2
100
AcDbSymbolTableRecord
100
AcDbLayerTableRecord
  2
0-3
 70
     0
 62
     7
  6
Continuous
370
    -3
390
F
347
46
  0
LAYER
  5
7B
330
2
100
AcDbSymbolTableRecord
100
AcDbLayerTableRecord
  2
0-C
 70
     0
 62
     7
  6
Continuous
370
    -3
390
F
347
46
  0
ENDTAB
  0
TABLE
  2
STYLE
  5
3
330
0
100
AcDbSymbolTable
 70
     2
  0
STYLE
  5
11
330
3
100
AcDbSymbolTableRecord
100
AcDbTextStyleTableRecord
  2
Standard
 70
     0
 40
0.0
 41
1.0
 50
0.0
 71
     0
 42
2.5
  3
txt
  4

  0
STYLE
  5
6E
330
3
100
AcDbSymbolTableRecord
100
AcDbTextStyleTableRecord
  2
ＭＳ ゴシック
 70
     0
 40
1.0
 41
1.0
 50
0.0
 71
     0
 42
2.5
  3

  4

1001
ACAD
1000
MS Gothic
1071
    32817
  0
ENDTAB
  0
TABLE
  2
VIEW
  5
6
330
0
100
AcDbSymbolTable
 70
     0
  0
ENDTAB
  0
TABLE
  2
UCS
  5
7
330
0
100
AcDbSymbolTable
 70
     0
  0
ENDTAB
  0
TABLE
  2
APPID
  5
9
330
0
100
AcDbSymbolTable
 70
     1
  0
APPID
  5
12
330
9
100
AcDbSymbolTableRecord
100
AcDbRegAppTableRecord
  2
ACAD
 70
     0
  0
ENDTAB
  0
TABLE
  2
DIMSTYLE
  5
A
330
0
100
AcDbSymbolTable
 70
     1
100
AcDbDimStyleTable
  0
DIMSTYLE
105
27
330
A
100
AcDbSymbolTableRecord
100
AcDbDimStyleTableRecord
  2
ISO-25
 70
     0
 41
2.5
 42
0.625
 43
3.75
 44
1.25
 73
     0
 74
     0
 77
     1
 78
     8
140
2.5
141
2.5
143
0.03937007874016
147
0.625
171
     3
172
     1
178
     0
271
     2
272
     2
274
     3
278
    44
283
     0
284
     8
340
11
  0
ENDTAB
  0
TABLE
  2
BLOCK_RECORD
  5
1
330
0
100
AcDbSymbolTable
 70
     1
  0
BLOCK_RECORD
  5
1F
330
1
100
AcDbSymbolTableRecord
100
AcDbBlockTableRecord
  2
*Model_Space
340
22
 70
     0
280
     1
281
     0
  0
BLOCK_RECORD
  5
1B
330
1
100
AcDbSymbolTableRecord
100
AcDbBlockTableRecord
  2
*Paper_Space
340
1E
 70
     0
280
     1
281
     0
  0
BLOCK_RECORD
  5
23
330
1
100
AcDbSymbolTableRecord
100
AcDbBlockTableRecord
  2
*Paper_Space0
340
26
 70
     0
280
     1
281
     0
  0
ENDTAB
  0
ENDSEC
  0
SECTION
  2
BLOCKS
  0
BLOCK
  5
20
330
1F
100
AcDbEntity
  8
0
100
AcDbBlockBegin
  2
*Model_Space
 70
     0
 10
0.0
 20
0.0
 30
0.0
  3
*Model_Space
  1

  0
ENDBLK
  5
21
330
1F
100
AcDbEntity
  8
0
100
AcDbBlockEnd
  0
BLOCK
  5
1C
330
1B
100
AcDbEntity
 67
     1
  8
0
100
AcDbBlockBegin
  2
*Paper_Space
 70
     0
 10
0.0
 20
0.0
 30
0.0
  3
*Paper_Space
  1

  0
ENDBLK
  5
1D
330
1B
100
AcDbEntity
 67
     1
  8
0
100
AcDbBlockEnd
  0
BLOCK
  5
24
330
23
100
AcDbEntity
  8
0
100
AcDbBlockBegin
  2
*Paper_Space0
 70
     0
 10
0.0
 20
0.0
 30
0.0
  3
*Paper_Space0
  1

  0
ENDBLK
  5
25
330
23
100
AcDbEntity
  8
0
100
AcDbBlockEnd
  0
ENDSEC
  0
SECTION
  2
ENTITIES
  0
LWPOLYLINE
  5
7C
330
1F
100
AcDbEntity
  8
寸法
  6
Continuous
 62
     7
370
     9
100
AcDbPolyline
 90
        4
 70
     1
 43
6.0
 10
-408.5863711895366
 20
-735.9137791203323
 42
0.4142135623731
 10
-411.5863711895366
 20
-732.9137791203322
 42
0.4142135623731
 10
-414.5863711895366
 20
-735.9137791203323
 42
0.4142135623731
 10
-411.5863711895366
 20
-738.9137791203323
 42
0.4142135623731
  0
LINE
  5
7D
330
1F
100
AcDbEntity
  8
寸法
  6
Continuous
 62
   120
370
     5
100
AcDbLine
 10
-411.5863711895366
 20
-735.9137791203323
 30
0.0
 11
-161.5863711895389
 21
-735.9137791203323
 31
0.0
  0
LWPOLYLINE
  5
7E
330
1F
100
AcDbEntity
  8
寸法
  6
Continuous
 62
     7
370
     9
100
AcDbPolyline
 90
        4
 70
     1
 43
6.0
 10
545.413628810462
 20
-1410.913779120331
 42
0.4142135623731
 10
542.413628810462
 20
-1407.913779120331
 42
0.4142135623731
 10
539.413628810462
 20
-1410.913779120331
 42
0.4142135623731
 10
542.413628810462
 20
-1413.913779120331
 42
0.4142135623731
  0
LWPOLYLINE
  5
7F
330
1F
100
AcDbEntity
  8
寸法
  6
Continuous
 62
     7
370
     9
100
AcDbPolyline
 90
        4
 70
     1
 43
6.0
 10
521.4136288104634
 20
-1210.913779120332
 42
0.4142135623731
 10
518.4136288104634
 20
-1207.913779120332
 42
0.4142135623731
 10
515.4136288104634
 20
-1210.913779120332
 42
0.4142135623731
 10
518.4136288104634
 20
-1213.913779120332
 42
0.4142135623731
  0
LWPOLYLINE
  5
80
330
1F
100
AcDbEntity
  8
寸法
  6
Continuous
 62
     7
370
     9
100
AcDbPolyline
 90
        4
 70
     1
 43
6.0
 10
519.4136288104618
 20
-1010.913779120332
 42
0.4142135623731
 10
516.4136288104618
 20
-1007.913779120332
 42
0.4142135623731
 10
513.4136288104618
 20
-1010.913779120332
 42
0.4142135623731
 10
516.4136288104618
 20
-1013.913779120332
 42
0.4142135623731
  0
LWPOLYLINE
  5
81
330
1F
100
AcDbEntity
  8
寸法
  6
Continuous
 62
     7
370
     9
100
AcDbPolyline
 90
        4
 70
     1
 43
6.0
 10
-108.5863711895366
 20
-1410.913779120331
 42
0.4142135623731
 10
-111.5863711895366
 20
-1407.913779120331
 42
0.4142135623731
 10
-114.5863711895366
 20
-1410.913779120331
 42
0.4142135623731
 10
-111.5863711895366
 20
-1413.913779120331
 42
0.4142135623731
  0
LWPOLYLINE
  5
82
330
1F
100
AcDbEntity
  8
寸法
  6
Continuous
 62
     7
370
     9
100
AcDbPolyline
 90
        4
 70
     1
 43
6.0
 10
-84.586371189538
 20
-1210.913779120332
 42
0.4142135623731
 10
-87.586371189538
 20
-1207.913779120332
 42
0.4142135623731
 10
-90.586371189538
 20
-1210.913779120332
 42
0.4142135623731
 10
-87.586371189538
 20
-1213.913779120332
 42
0.4142135623731
  0
LWPOLYLINE
  5
83
330
1F
100
AcDbEntity
  8
寸法
  6
Continuous
 62
     7
370
     9
100
AcDbPolyline
 90
        4
 70
     1
 43
6.0
 10
-79.58637118953914
 20
-1010.913779120332
 42
0.4142135623731
 10
-82.58637118953914
 20
-1007.913779120332
 42
0.4142135623731
 10
-85.58637118953914
 20
-1010.913779120332
 42
0.4142135623731
 10
-82.58637118953914
 20
-1013.913779120332
 42
0.4142135623731
  0
LINE
  5
84
330
1F
100
AcDbEntity
  8
寸法
  6
Continuous
 62
   120
370
     5
100
AcDbLine
 10
542.413628810462
 20
-1410.913779120331
 30
0.0
 11
542.413628810462
 21
-810.9137791203323
 31
0.0
  0
LINE
  5
85
330
1F
100
AcDbEntity
  8
寸法
  6
Continuous
 62
   120
370
     5
100
AcDbLine
 10
-111.5863711895366
 20
-1410.913779120331
 30
0.0
 11
542.413628810462
 21
-1410.913779120331
 31
0.0
  0
LINE
  5
86
330
1F
100
AcDbEntity
  8
寸法
  6
Continuous
 62
   120
370
     5
100
AcDbLine
 10
518.4136288104634
 20
-1210.913779120332
 30
0.0
 11
518.4136288104634
 21
-810.9137791203323
 31
0.0
  0
LINE
  5
87
330
1F
100
AcDbEntity
  8
寸法
  6
Continuous
 62
   120
370
     5
100
AcDbLine
 10
-87.586371189538
 20
-1210.913779120332
 30
0.0
 11
518.4136288104634
 21
-1210.913779120332
 31
0.0
  0
LINE
  5
88
330
1F
100
AcDbEntity
  8
寸法
  6
Continuous
 62
   120
370
     5
100
AcDbLine
 10
516.4136288104618
 20
-1010.913779120332
 30
0.0
 11
516.4136288104618
 21
-810.9137791203323
 31
0.0
  0
LINE
  5
89
330
1F
100
AcDbEntity
  8
寸法
  6
Continuous
 62
   120
370
     5
100
AcDbLine
 10
-82.58637118953914
 20
-1010.913779120332
 30
0.0
 11
516.4136288104618
 21
-1010.913779120332
 31
0.0
  0
LINE
  5
8A
330
1F
100
AcDbEntity
  8
寸法
  6
Continuous
 62
   120
370
     5
100
AcDbLine
 10
-111.5863711895366
 20
-1410.913779120331
 30
0.0
 11
-111.5863711895366
 21
-810.9137791203323
 31
0.0
  0
LINE
  5
8B
330
1F
100
AcDbEntity
  8
寸法
  6
Continuous
 62
   120
370
     5
100
AcDbLine
 10
-87.586371189538
 20
-1210.913779120332
 30
0.0
 11
-87.586371189538
 21
-810.9137791203323
 31
0.0
  0
LINE
  5
8C
330
1F
100
AcDbEntity
  8
寸法
  6
Continuous
 62
   120
370
     5
100
AcDbLine
 10
-82.58637118953914
 20
-1010.913779120332
 30
0.0
 11
-82.58637118953914
 21
-810.9137791203323
 31
0.0
  0
TEXT
  5
8D
330
1F
100
AcDbEntity
  8
寸法
  6
Continuous
 62
     7
370
    70
100
AcDbText
 10
48.16362881046132
 20
-985.3387791203319
 30
0.0
 40
57.15000000000001
  1
ＤＷ＝599
 41
0.9999999999999998
  7
ＭＳ ゴシック
100
AcDbText
  0
TEXT
  5
8E
330
1F
100
AcDbEntity
  8
寸法
  6
Continuous
 62
     7
370
    70
100
AcDbText
 10
-28.33637118953732
 20
-1185.338779120332
 30
0.0
 40
57.15000000000001
  1
枠内寸法＝606
 41
0.9999999999999999
  7
ＭＳ ゴシック
100
AcDbText
  0
TEXT
  5
8F
330
1F
100
AcDbEntity
  8
寸法
  6
Continuous
 62
     7
370
    70
100
AcDbText
 10
-28.33637118953732
 20
-1385.338779120331
 30
0.0
 40
57.15000000000001
  1
枠外寸法＝654
 41
0.9999999999999999
  7
ＭＳ ゴシック
100
AcDbText
  0
LWPOLYLINE
  5
90
330
1F
100
AcDbEntity
  8
寸法
  6
Continuous
 62
     7
370
     9
100
AcDbPolyline
 90
        4
 70
     1
 43
6.0
 10
-408.5863711895366
 20
1459.086220879671
 42
0.4142135623731
 10
-411.5863711895366
 20
1462.086220879671
 42
0.4142135623731
 10
-414.5863711895366
 20
1459.086220879671
 42
0.4142135623731
 10
-411.5863711895366
 20
1456.086220879671
 42
0.4142135623731
  0
LINE
  5
91
330
1F
100
AcDbEntity
  8
寸法
  6
Continuous
 62
   120
370
     5
100
AcDbLine
 10
-411.5863711895366
 20
1459.086220879671
 30
0.0
 11
-161.5863711895389
 21
1459.086220879671
 31
0.0
  0
LINE
  5
92
330
1F
100
AcDbEntity
  8
寸法
  6
Continuous
 62
   120
370
     5
100
AcDbLine
 10
-411.5863711895366
 20
1459.086220879671
 30
0.0
 11
-411.5863711895366
 21
-735.9137791203323
 31
0.0
  0
TEXT
  5
93
330
1F
100
AcDbEntity
  8
寸法
  6
Continuous
 62
     7
370
    70
100
AcDbText
 10
-437.1613711895366
 20
155.3362208796672
 30
0.0
 40
57.15000000000001
  1
ＤＨ＝2,195
 50
90.0
 41
0.9999999999999999
  7
ＭＳ ゴシック
100
AcDbText
  0
LINE
  5
94
330
1F
100
AcDbEntity
  8
0-5
  6
Continuous
 62
    92
370
    13
100
AcDbLine
 10
-9.086371189537772
 20
228.5862208796679
 30
0.0
 11
-9.086371189537772
 21
307.0862208796684
 31
0.0
  0
LINE
  5
95
330
1F
100
AcDbEntity
  8
0-5
  6
Continuous
 62
    92
370
    13
100
AcDbLine
 10
-9.086371189537772
 20
174.086220879668
 30
0.0
 11
-9.086371189537772
 21
214.5862208796679
 31
0.0
  0
LINE
  5
96
330
1F
100
AcDbEntity
  8
0-5
  6
Continuous
 62
   120
370
     5
100
AcDbLine
 10
-9.586371189537317
 20
228.5862208796679
 30
0.0
 11
-9.586371189537317
 21
307.0862208796684
 31
0.0
  0
LINE
  5
97
330
1F
100
AcDbEntity
  8
0-5
  6
Continuous
 62
   120
370
     5
100
AcDbLine
 10
-9.586371189537317
 20
174.086220879668
 30
0.0
 11
-9.586371189537317
 21
214.5862208796679
 31
0.0
  0
ARC
  5
98
330
1F
100
AcDbEntity
  8
0-5
  6
Continuous
 62
   120
370
     5
100
AcDbCircle
 10
-10.58637118953641
 20
307.0862208796684
 30
0.0
 40
1.0
100
AcDbArc
 50
0.0
 51
90.0
  0
LINE
  5
99
330
1F
100
AcDbEntity
  8
0-5
  6
Continuous
 62
   120
370
     5
100
AcDbLine
 10
-10.58637118953641
 20
308.0862208796681
 30
0.0
 11
-52.58637118953914
 21
308.0862208796681
 31
0.0
  0
ARC
  5
9A
330
1F
100
AcDbEntity
  8
0-5
  6
Continuous
 62
   120
370
     5
100
AcDbCircle
 10
-52.58637118953914
 20
307.0862208796684
 30
0.0
 40
1.0
100
AcDbArc
 50
89.99999999999999
 51
180.0
  0
LINE
  5
9B
330
1F
100
AcDbEntity
  8
0-5
  6
Continuous
 62
   120
370
     5
100
AcDbLine
 10
-53.58637118953823
 20
174.086220879668
 30
0.0
 11
-53.58637118953823
 21
307.0862208796684
 31
0.0
  0
ARC
  5
9C
330
1F
100
AcDbEntity
  8
0-5
  6
Continuous
 62
   120
370
     5
100
AcDbCircle
 10
-52.58637118953914
 20
174.086220879668
 30
0.0
 40
1.0
100
AcDbArc
 50
180.0
 51
270.0
  0
LINE
  5
9D
330
1F
100
AcDbEntity
  8
0-5
  6
Continuous
 62
   120
370
     5
100
AcDbLine
 10
-10.58637118953641
 20
173.0862208796681
 30
0.0
 11
-52.58637118953914
 21
173.0862208796681
 31
0.0
  0
ARC
  5
9E
330
1F
100
AcDbEntity
  8
0-5
  6
Continuous
 62
   120
370
     5
100
AcDbCircle
 10
-10.58637118953641
 20
174.086220879668
 30
0.0
 40
1.0
100
AcDbArc
 50
270.0
 51
0.0
  0
ARC
  5
9F
330
1F
100
AcDbEntity
  8
0-5
  6
Continuous
 62
    92
370
    13
100
AcDbCircle
 10
-10.58637118953641
 20
174.086220879668
 30
0.0
 40
1.5
100
AcDbArc
 50
270.0
 51
0.0
  0
LINE
  5
A0
330
1F
100
AcDbEntity
  8
0-5
  6
Continuous
 62
    92
370
    13
100
AcDbLine
 10
-10.58637118953641
 20
172.5862208796675
 30
0.0
 11
-52.58637118953914
 21
172.5862208796675
 31
0.0
  0
ARC
  5
A1
330
1F
100
AcDbEntity
  8
0-5
  6
Continuous
 62
    92
370
    13
100
AcDbCircle
 10
-52.58637118953914
 20
174.086220879668
 30
0.0
 40
1.5
100
AcDbArc
 50
180.0
 51
270.0
  0
LINE
  5
A2
330
1F
100
AcDbEntity
  8
0-5
  6
Continuous
 62
    92
370
    13
100
AcDbLine
 10
-54.08637118953777
 20
174.086220879668
 30
0.0
 11
-54.08637118953777
 21
307.0862208796684
 31
0.0
  0
ARC
  5
A3
330
1F
100
AcDbEntity
  8
0-5
  6
Continuous
 62
    92
370
    13
100
AcDbCircle
 10
-10.58637118953641
 20
307.0862208796684
 30
0.0
 40
1.5
100
AcDbArc
 50
0.0
 51
90.0
  0
LINE
  5
A4
330
1F
100
AcDbEntity
  8
0-5
  6
Continuous
 62
    92
370
    13
100
AcDbLine
 10
-10.58637118953641
 20
308.5862208796676
 30
0.0
 11
-52.58637118953914
 21
308.5862208796676
 31
0.0
  0
ARC
  5
A5
330
1F
100
AcDbEntity
  8
0-5
  6
Continuous
 62
    92
370
    13
100
AcDbCircle
 10
-52.58637118953914
 20
307.0862208796684
 30
0.0
 40
1.5
100
AcDbArc
 50
89.99999999999999
 51
180.0
  0
ELLIPSE
  5
A6
330
1F
100
AcDbEntity
  8
0-5
  6
Continuous
 62
    92
370
    13
100
AcDbEllipse
 10
-36.58637118954005
 20
221.5862208796675
 30
0.0
 11
-8.0
 21
9.797174393178826E-16
 31
0.0
210
0.0
220
0.0
230
1.0
 40
0.875
 41
4.71238898038469
 42
7.853981633974483
  0
LINE
  5
A7
330
1F
100
AcDbEntity
  8
0-5
  6
Continuous
 62
    92
370
    13
100
AcDbLine
 10
-36.4052584422808
 20
228.5862208796679
 30
0.0
 11
-36.58637118954005
 21
228.5862208796679
 31
0.0
  0
LINE
  5
A8
330
1F
100
AcDbEntity
  8
0-5
  6
Continuous
 62
    92
370
    13
100
AcDbLine
 10
85.41362881045984
 20
228.5862208796679
 30
0.0
 11
-36.4052584422808
 21
228.5862208796679
 31
0.0
  0
ELLIPSE
  5
A9
330
1F
100
AcDbEntity
  8
0-5
  6
Continuous
 62
    92
370
    13
100
AcDbEllipse
 10
-31.58637118953777
 20
221.5862208796675
 30
0.0
 11
-13.0
 21
1.592040838891559E-15
 31
0.0
210
0.0
220
0.0
230
1.0
 40
0.8653839999999999
 41
0.0
 42
6.283185307179586
  0
LINE
  5
AA
330
1F
100
AcDbEntity
  8
0-5
  6
Continuous
 62
    92
370
    13
100
AcDbLine
 10
85.41362881045984
 20
214.5862208796679
 30
0.0
 11
-36.58637118954005
 21
214.5862208796679
 31
0.0
  0
ARC
  5
AB
330
1F
100
AcDbEntity
  8
0-5
  6
Continuous
 62
    92
370
    13
100
AcDbCircle
 10
85.41362881045984
 20
215.5862208796678
 30
0.0
 40
1.0
100
AcDbArc
 50
270.0
 51
0.0
  0
LINE
  5
AC
330
1F
100
AcDbEntity
  8
0-5
  6
Continuous
 62
    92
370
    13
100
AcDbLine
 10
86.41362881046405
 20
215.5862208796678
 30
0.0
 11
86.41362881046405
 21
227.586220879668
 31
0.0
  0
ARC
  5
AD
330
1F
100
AcDbEntity
  8
0-5
  6
Continuous
 62
    92
370
    13
100
AcDbCircle
 10
85.41362881045984
 20
227.586220879668
 30
0.0
 40
1.0
100
AcDbArc
 50
0.0
 51
90.0
  0
LINE
  5
AE
330
1F
100
AcDbEntity
  8
0-6
  6
Continuous
 62
    92
370
    13
100
AcDbLine
 10
-11.58637118953891
 20
174.086220879668
 30
0.0
 11
-11.58637118953891
 21
222.5862208796683
 31
0.0
  0
LINE
  5
AF
330
1F
100
AcDbEntity
  8
0-6
  6
Continuous
 62
    92
370
    13
100
AcDbLine
 10
-11.5863711895355
 20
232.5862208796675
 30
0.0
 11
-11.5863711895355
 21
306.0862208796674
 31
0.0
  0
LINE
  5
B0
330
1F
100
AcDbEntity
  8
0-6
  6
Continuous
 62
   120
370
     5
100
AcDbLine
 10
-12.08637118954016
 20
232.5862208796675
 30
0.0
 11
-12.08637118954016
 21
306.0862208796674
 31
0.0
  0
LINE
  5
B1
330
1F
100
AcDbEntity
  8
0-6
  6
Continuous
 62
   120
370
     5
100
AcDbLine
 10
-12.08637118954016
 20
174.086220879668
 30
0.0
 11
-12.08637118954016
 21
222.5862208796683
 31
0.0
  0
ARC
  5
B2
330
1F
100
AcDbEntity
  8
0-6
  6
Continuous
 62
    92
370
    13
100
AcDbCircle
 10
77.18857114202535
 20
224.5862208796684
 30
0.0
 40
2.0
100
AcDbArc
 50
270.0
 51
0.0
  0
LINE
  5
B3
330
1F
100
AcDbEntity
  8
0-6
  6
Continuous
 62
    92
370
    13
100
AcDbLine
 10
79.18857114202353
 20
230.5862208796678
 30
0.0
 11
79.18857114202353
 21
224.5862208796684
 31
0.0
  0
ARC
  5
B4
330
1F
100
AcDbEntity
  8
0-6
  6
Continuous
 62
    92
370
    13
100
AcDbCircle
 10
77.18857114202535
 20
230.5862208796678
 30
0.0
 40
2.0
100
AcDbArc
 50
0.0
 51
90.0
  0
ARC
  5
B5
330
1F
100
AcDbEntity
  8
0-6
  6
Continuous
 62
    92
370
    13
100
AcDbCircle
 10
-41.08637118953595
 20
224.0862208796678
 30
0.0
 40
1.5
100
AcDbArc
 50
180.0
 51
270.0
  0
LINE
  5
B6
330
1F
100
AcDbEntity
  8
0-6
  6
Continuous
 62
    92
370
    13
100
AcDbLine
 10
-42.5863711895397
 20
212.0862208796676
 30
0.0
 11
-42.5863711895397
 21
231.0862208796682
 31
0.0
  0
ARC
  5
B7
330
1F
100
AcDbEntity
  8
0-6
  6
Continuous
 62
    92
370
    13
100
AcDbCircle
 10
-41.08637118953595
 20
231.0862208796682
 30
0.0
 40
1.5
100
AcDbArc
 50
90.0
 51
180.0
  0
LINE
  5
B8
330
1F
100
AcDbEntity
  8
0-6
  6
Continuous
 62
    92
370
    13
100
AcDbLine
 10
-41.36131352109885
 20
232.5862208796675
 30
0.0
 11
77.18857114202535
 21
232.5862208796675
 31
0.0
  0
LINE
  5
B9
330
1F
100
AcDbEntity
  8
0-6
  6
Continuous
 62
    92
370
    13
100
AcDbLine
 10
-41.08637118953595
 20
222.5862208796683
 30
0.0
 11
77.18857114202535
 21
222.5862208796683
 31
0.0
  0
ARC
  5
BA
330
1F
100
AcDbEntity
  8
0-6
  6
Continuous
 62
    92
370
    13
100
AcDbCircle
 10
-22.08637118953959
 20
231.0862208796682
 30
0.0
 40
1.5
100
AcDbArc
 50
0.0
 51
90.0
  0
LINE
  5
BB
330
1F
100
AcDbEntity
  8
0-6
  6
Continuous
 62
    92
370
    13
100
AcDbLine
 10
-20.58637118953754
 20
231.0862208796682
 30
0.0
 11
-20.58637118953754
 21
212.0862208796676
 31
0.0
  0
ARC
  5
BC
330
1F
100
AcDbEntity
  8
0-6
  6
Continuous
 62
    92
370
    13
100
AcDbCircle
 10
-22.08637118953959
 20
212.0862208796676
 30
0.0
 40
1.5
100
AcDbArc
 50
270.0
 51
0.0
  0
LINE
  5
BD
330
1F
100
AcDbEntity
  8
0-6
  6
Continuous
 62
    92
370
    13
100
AcDbLine
 10
-22.08637118953959
 20
210.5862208796681
 30
0.0
 11
-41.08637118953595
 21
210.5862208796681
 31
0.0
  0
ARC
  5
BE
330
1F
100
AcDbEntity
  8
0-6
  6
Continuous
 62
    92
370
    13
100
AcDbCircle
 10
-41.08637118953595
 20
212.0862208796676
 30
0.0
 40
1.5
100
AcDbArc
 50
180.0
 51
270.0
  0
LINE
  5
BF
330
1F
100
AcDbEntity
  8
0-6
  6
Continuous
 62
    92
370
    13
100
AcDbLine
 10
-13.08637118953754
 20
172.5862208796675
 30
0.0
 11
-50.0863711895397
 21
172.5862208796675
 31
0.0
  0
LINE
  5
C0
330
1F
100
AcDbEntity
  8
0-6
  6
Continuous
 62
   120
370
     5
100
AcDbLine
 10
-13.08637118953754
 20
173.0862208796681
 30
0.0
 11
-50.0863711895397
 21
173.0862208796681
 31
0.0
  0
LINE
  5
C1
330
1F
100
AcDbEntity
  8
0-6
  6
Continuous
 62
   120
370
     5
100
AcDbLine
 10
-13.08637118953754
 20
307.0862208796673
 30
0.0
 11
-50.0863711895397
 21
307.0862208796673
 31
0.0
  0
LINE
  5
C2
330
1F
100
AcDbEntity
  8
0-6
  6
Continuous
 62
    92
370
    13
100
AcDbLine
 10
-13.08637118953754
 20
307.5862208796675
 30
0.0
 11
-50.0863711895397
 21
307.5862208796675
 31
0.0
  0
LINE
  5
C3
330
1F
100
AcDbEntity
  8
0-6
  6
Continuous
 62
    92
370
    13
100
AcDbLine
 10
-51.58637118954005
 20
174.086220879668
 30
0.0
 11
-51.58637118954005
 21
306.0862208796674
 31
0.0
  0
LINE
  5
C4
330
1F
100
AcDbEntity
  8
0-6
  6
Continuous
 62
   120
370
     5
100
AcDbLine
 10
-51.08637118953709
 20
174.086220879668
 30
0.0
 11
-51.08637118953709
 21
306.0862208796674
 31
0.0
  0
ARC
  5
C5
330
1F
100
AcDbEntity
  8
0-6
  6
Continuous
 62
   120
370
     5
100
AcDbCircle
 10
-50.0863711895397
 20
174.086220879668
 30
0.0
 40
1.0
100
AcDbArc
 50
180.0
 51
270.0
  0
ARC
  5
C6
330
1F
100
AcDbEntity
  8
0-6
  6
Continuous
 62
    92
370
    13
100
AcDbCircle
 10
-50.0863711895397
 20
174.086220879668
 30
0.0
 40
1.5
100
AcDbArc
 50
180.0
 51
270.0
  0
ARC
  5
C7
330
1F
100
AcDbEntity
  8
0-6
  6
Continuous
 62
   120
370
     5
100
AcDbCircle
 10
-50.0863711895397
 20
306.0862208796674
 30
0.0
 40
1.0
100
AcDbArc
 50
90.0
 51
180.0
  0
ARC
  5
C8
330
1F
100
AcDbEntity
  8
0-6
  6
Continuous
 62
    92
370
    13
100
AcDbCircle
 10
-50.0863711895397
 20
306.0862208796674
 30
0.0
 40
1.5
100
AcDbArc
 50
90.0
 51
180.0
  0
ARC
  5
C9
330
1F
100
AcDbEntity
  8
0-6
  6
Continuous
 62
   120
370
     5
100
AcDbCircle
 10
-13.08637118953754
 20
174.086220879668
 30
0.0
 40
1.0
100
AcDbArc
 50
270.0
 51
0.0
  0
ARC
  5
CA
330
1F
100
AcDbEntity
  8
0-6
  6
Continuous
 62
    92
370
    13
100
AcDbCircle
 10
-13.08637118953754
 20
174.086220879668
 30
0.0
 40
1.5
100
AcDbArc
 50
270.0
 51
0.0
  0
ARC
  5
CB
330
1F
100
AcDbEntity
  8
0-6
  6
Continuous
 62
   120
370
     5
100
AcDbCircle
 10
-13.08637118953754
 20
306.0862208796674
 30
0.0
 40
1.0
100
AcDbArc
 50
0.0000000000000127
 51
90.00000000000001
  0
ARC
  5
CC
330
1F
100
AcDbEntity
  8
0-6
  6
Continuous
 62
    92
370
    13
100
AcDbCircle
 10
-13.08637118953754
 20
306.0862208796674
 30
0.0
 40
1.5
100
AcDbArc
 50
0.0000000000000127
 51
90.00000000000001
  0
LINE
  5
CD
330
1F
100
AcDbEntity
  8
0-9
  6
Continuous
 62
    92
370
    13
100
AcDbLine
 10
-6.586371189536635
 20
235.2839519898178
 30
0.0
 11
-6.586371189536635
 21
320.1237720366415
 31
0.0
  0
LINE
  5
CE
330
1F
100
AcDbEntity
  8
0-9
  6
Continuous
 62
    92
370
    13
100
AcDbLine
 10
-6.586371189536635
 20
161.0486697226919
 30
0.0
 11
-6.586371189536635
 21
224.283951989818
 31
0.0
  0
ARC
  5
CF
330
1F
100
AcDbEntity
  8
0-9
  6
Continuous
 62
    92
370
    13
100
AcDbCircle
 10
43.42279291532748
 20
267.4436036479007
 30
0.0
 40
47.39915294408059
100
AcDbArc
 50
284.653671413303
 51
311.1123037942264
  0
ARC
  5
D0
330
1F
100
AcDbEntity
  8
0-9
  6
Continuous
 62
    92
370
    13
100
AcDbCircle
 10
31.85071511086505
 20
360.3821735750107
 30
0.0
 40
129.9272971302139
100
AcDbArc
 50
259.6077466241951
 51
287.7167192015428
  0
ARC
  5
D1
330
1F
100
AcDbEntity
  8
0-9
  6
Continuous
 62
    92
370
    13
100
AcDbCircle
 10
42.45774645752192
 20
388.2773973502642
 30
0.0
 40
167.1939089820405
100
AcDbArc
 50
258.2512400518059
 51
274.4443143875819
  0
ARC
  5
D2
330
1F
100
AcDbEntity
  8
0-9
  6
Continuous
 62
    92
370
    13
100
AcDbCircle
 10
-31.58637118953777
 20
221.5862208796675
 30
0.0
 40
11.0
100
AcDbArc
 50
117.0356917894102
 51
303.0557311508545
  0
ARC
  5
D3
330
1F
100
AcDbEntity
  8
0-9
  6
Continuous
 62
    92
370
    13
100
AcDbCircle
 10
-19.62184798940427
 20
119.753153758418
 30
0.0
 40
116.263876571291
100
AcDbArc
 50
76.0463664269501
 51
83.56247564786665
  0
ARC
  5
D4
330
1F
100
AcDbEntity
  8
0-9
  6
Continuous
 62
    92
370
    13
100
AcDbCircle
 10
-14.34168526424799
 20
177.6024564798
 30
0.0
 40
58.2005139210094
100
AcDbArc
 50
82.34246702051858
 51
112.4705013355114
  0
ARC
  5
D5
330
1F
100
AcDbEntity
  8
0-9
  6
Continuous
 62
    92
370
    13
100
AcDbCircle
 10
1.605134730384066
 20
190.1193194234647
 30
0.0
 40
35.13293166859351
100
AcDbArc
 50
78.82581417813134
 51
140.7108944904505
  0
LINE
  5
D6
330
1F
100
AcDbEntity
  8
0-9
  6
Continuous
 62
    92
370
    13
100
AcDbLine
 10
-56.5863711895355
 20
320.1237720366415
 30
0.0
 11
-56.5863711895355
 21
161.0486697226919
 31
0.0
  0
ARC
  5
D7
330
1F
100
AcDbEntity
  8
0-9
  6
Continuous
 62
    92
370
    13
100
AcDbCircle
 10
-8.086371189538681
 20
161.0486697226919
 30
0.0
 40
1.5
100
AcDbArc
 50
289.1417866371045
 51
0.0
  0
ARC
  5
D8
330
1F
100
AcDbEntity
  8
0-9
  6
Continuous
 62
    92
370
    13
100
AcDbCircle
 10
-31.58637118953777
 20
228.7528875463388
 30
0.0
 40
73.1666666666713
100
AcDbArc
 50
250.8582133628957
 51
289.1417866371046
  0
ARC
  5
D9
330
1F
100
AcDbEntity
  8
0-9
  6
Continuous
 62
    92
370
    13
100
AcDbCircle
 10
-55.08637118953686
 20
161.0486697226919
 30
0.0
 40
1.5
100
AcDbArc
 50
180.0
 51
250.8582133628802
  0
ARC
  5
DA
330
1F
100
AcDbEntity
  8
0-9
  6
Continuous
 62
    92
370
    13
100
AcDbCircle
 10
-8.086371189538681
 20
320.1237720366415
 30
0.0
 40
1.5
100
AcDbArc
 50
0.0
 51
70.85821336289555
  0
ARC
  5
DB
330
1F
100
AcDbEntity
  8
0-9
  6
Continuous
 62
    92
370
    13
100
AcDbCircle
 10
-31.58637118953777
 20
252.4195542129953
 30
0.0
 40
73.1666666666713
100
AcDbArc
 50
70.85821336289538
 51
109.1417866371043
  0
ARC
  5
DC
330
1F
100
AcDbEntity
  8
0-9
  6
Continuous
 62
    92
370
    13
100
AcDbCircle
 10
-55.08637118953686
 20
320.1237720366415
 30
0.0
 40
1.5
100
AcDbArc
 50
109.1417866371198
 51
180.0
  0
ARC
  5
DD
330
1F
100
AcDbEntity
  8
0-9
  6
Continuous
 62
    92
370
    13
100
AcDbCircle
 10
72.41362881046314
 20
233.7973664976678
 30
0.0
 40
3.0
100
AcDbArc
 50
316.4927948149128
 51
111.6246339271477
  0
LINE
  5
DE
330
1F
100
AcDbEntity
  8
0-7
  6
Continuous
 62
    92
370
    13
100
AcDbLine
 10
-45.58637118953868
 20
212.0862208796672
 30
0.0
 11
78.4136288104645
 21
212.0862208796672
 31
0.0
  0
LINE
  5
DF
330
1F
100
AcDbEntity
  8
0-7
  6
Continuous
 62
    92
370
    13
100
AcDbLine
 10
-45.58637118953868
 20
231.0862208796674
 30
0.0
 11
78.4136288104645
 21
231.0862208796674
 31
0.0
  0
LINE
  5
E0
330
1F
100
AcDbEntity
  8
0-7
  6
Continuous
 62
    92
370
    13
100
AcDbLine
 10
78.4136288104645
 20
231.0862208796674
 30
0.0
 11
78.4136288104645
 21
212.0862208796672
 31
0.0
  0
LINE
  5
E1
330
1F
100
AcDbEntity
  8
0-7
  6
Continuous
 62
    92
370
    13
100
AcDbLine
 10
-9.086371189537772
 20
231.0862208796674
 30
0.0
 11
-9.086371189537772
 21
308.586220879667
 31
0.0
  0
LINE
  5
E2
330
1F
100
AcDbEntity
  8
0-7
  6
Continuous
 62
    92
370
    13
100
AcDbLine
 10
-9.086371189537772
 20
173.586220879667
 30
0.0
 11
-9.086371189537772
 21
212.0862208796672
 31
0.0
  0
LINE
  5
E3
330
1F
100
AcDbEntity
  8
0-7
  6
Continuous
 62
    92
370
    13
100
AcDbLine
 10
-45.58637118953868
 20
231.0862208796674
 30
0.0
 11
-45.58637118953868
 21
212.0862208796672
 31
0.0
  0
LINE
  5
E4
330
1F
100
AcDbEntity
  8
0-7
  6
Continuous
 62
    92
370
    13
100
AcDbLine
 10
-9.086371189537772
 20
308.586220879667
 30
0.0
 11
-54.08637118953777
 21
308.586220879667
 31
0.0
  0
LINE
  5
E5
330
1F
100
AcDbEntity
  8
0-7
  6
Continuous
 62
    92
370
    13
100
AcDbLine
 10
-54.08637118953777
 20
173.586220879667
 30
0.0
 11
-9.086371189537772
 21
173.586220879667
 31
0.0
  0
LINE
  5
E6
330
1F
100
AcDbEntity
  8
0-7
  6
Continuous
 62
    92
370
    13
100
AcDbLine
 10
-54.08637118953777
 20
308.586220879667
 30
0.0
 11
-54.08637118953777
 21
173.586220879667
 31
0.0
  0
LINE
  5
E7
330
1F
100
AcDbEntity
  8
0-9
  6
Continuous
 62
   120
370
     5
100
AcDbLine
 10
-11.5863711895355
 20
235.737713123418
 30
0.0
 11
-11.5863711895355
 21
316.4679300272583
 31
0.0
  0
LINE
  5
E8
330
1F
100
AcDbEntity
  8
0-9
  6
Continuous
 62
   120
370
     5
100
AcDbLine
 10
-11.5863711895355
 20
164.7045117320754
 30
0.0
 11
-11.5863711895355
 21
222.7113674828788
 31
0.0
  0
LINE
  5
E9
330
1F
100
AcDbEntity
  8
0-9
  6
Continuous
 62
   120
370
     5
100
AcDbLine
 10
-7.682752392120733
 20
160.7535564116179
 30
0.0
 11
-11.06827720245803
 21
163.2289451767075
 31
0.0
  0
LINE
  5
EA
330
1F
100
AcDbEntity
  8
0-9
  6
Continuous
 62
   120
370
     5
100
AcDbLine
 10
-55.48998998695481
 20
160.7535564116179
 30
0.0
 11
-52.1044651766141
 21
163.2289451767075
 31
0.0
  0
LINE
  5
EB
330
1F
100
AcDbEntity
  8
0-9
  6
Continuous
 62
   120
370
     5
100
AcDbLine
 10
-7.682752392120733
 20
320.4188853477157
 30
0.0
 11
-11.06827720245803
 21
317.9434965826262
 31
0.0
  0
LINE
  5
EC
330
1F
100
AcDbEntity
  8
0-9
  6
Continuous
 62
   120
370
     5
100
AcDbLine
 10
-55.48998998695481
 20
320.4188853477157
 30
0.0
 11
-52.1044651766141
 21
317.9434965826262
 31
0.0
  0
LINE
  5
ED
330
1F
100
AcDbEntity
  8
0-9
  6
Continuous
 62
   120
370
     5
100
AcDbLine
 10
-51.58637118954005
 20
316.4679300272579
 30
0.0
 11
-51.58637118954005
 21
164.7045117320758
 31
0.0
  0
ARC
  5
EE
330
1F
100
AcDbEntity
  8
0-9
  6
Continuous
 62
   120
370
     5
100
AcDbCircle
 10
-13.08637118953754
 20
164.7045117320754
 30
0.0
 40
1.5
100
AcDbArc
 50
286.1110534030778
 51
0.0
  0
ARC
  5
EF
330
1F
100
AcDbEntity
  8
0-9
  6
Continuous
 62
   120
370
     5
100
AcDbCircle
 10
-31.58637118953777
 20
228.7528875463388
 30
0.0
 40
68.16666666667132
100
AcDbArc
 50
253.8889465969228
 51
286.1110534030765
  0
ARC
  5
F0
330
1F
100
AcDbEntity
  8
0-9
  6
Continuous
 62
   120
370
     5
100
AcDbCircle
 10
-50.0863711895397
 20
164.7045117320758
 30
0.0
 40
1.5
100
AcDbArc
 50
180.0
 51
253.8889465969065
  0
ARC
  5
F1
330
1F
100
AcDbEntity
  8
0-9
  6
Continuous
 62
   120
370
     5
100
AcDbCircle
 10
-13.08637118953754
 20
316.4679300272583
 30
0.0
 40
1.5
100
AcDbArc
 50
0.0
 51
73.88894659692215
  0
ARC
  5
F2
330
1F
100
AcDbEntity
  8
0-9
  6
Continuous
 62
   120
370
     5
100
AcDbCircle
 10
-31.58637118953777
 20
252.4195542129953
 30
0.0
 40
68.16666666667132
100
AcDbArc
 50
73.88894659692356
 51
106.1110534030772
  0
ARC
  5
F3
330
1F
100
AcDbEntity
  8
0-9
  6
Continuous
 62
   120
370
     5
100
AcDbCircle
 10
-50.0863711895397
 20
316.4679300272579
 30
0.0
 40
1.5
100
AcDbArc
 50
106.1110534030935
 51
180.0
  0
LINE
  5
F4
330
1F
100
AcDbEntity
  8
0-7
  6
Continuous
 62
   120
370
     5
100
AcDbLine
 10
-41.5863711895355
 20
232.0862208796673
 30
0.0
 11
-41.5863711895355
 21
231.0862208796674
 31
0.0
  0
LINE
  5
F5
330
1F
100
AcDbEntity
  8
0-7
  6
Continuous
 62
   120
370
     5
100
AcDbLine
 10
-21.58637118953664
 20
232.0862208796673
 30
0.0
 11
-21.58637118953664
 21
231.0862208796674
 31
0.0
  0
LINE
  5
F6
330
1F
100
AcDbEntity
  8
0-7
  6
Continuous
 62
   120
370
     5
100
AcDbLine
 10
-21.58637118953664
 20
212.0862208796672
 30
0.0
 11
-21.58637118953664
 21
211.086220879667
 31
0.0
  0
LINE
  5
F7
330
1F
100
AcDbEntity
  8
0-7
  6
Continuous
 62
   120
370
     5
100
AcDbLine
 10
-41.5863711895355
 20
212.0862208796672
 30
0.0
 11
-41.5863711895355
 21
211.086220879667
 31
0.0
  0
LINE
  5
F8
330
1F
100
AcDbEntity
  8
0-7
  6
Continuous
 62
   120
370
     5
100
AcDbLine
 10
-41.5863711895355
 20
211.086220879667
 30
0.0
 11
-21.58637118953664
 21
211.086220879667
 31
0.0
  0
LINE
  5
F9
330
1F
100
AcDbEntity
  8
0-7
  6
Continuous
 62
   120
370
     5
100
AcDbLine
 10
-41.5863711895355
 20
232.0862208796673
 30
0.0
 11
-21.58637118953664
 21
232.0862208796673
 31
0.0
  0
LINE
  5
FA
330
1F
100
AcDbEntity
  8
寸法
  6
JWW_CENTER1
 62
   120
370
     5
100
AcDbLine
 10
-31.58637118953777
 20
345.5862208796664
 30
0.0
 11
-31.58637118953777
 21
135.5862208796675
 31
0.0
  0
LINE
  5
FB
330
1F
100
AcDbEntity
  8
寸法
  6
JWW_CENTER1
 62
   120
370
     5
100
AcDbLine
 10
-76.58637118953777
 20
221.5862208796675
 30
0.0
 11
113.41362881046
 21
221.5862208796675
 31
0.0
  0
LINE
  5
FC
330
1F
100
AcDbEntity
  8
文字
  6
Continuous
 62
    92
370
    13
100
AcDbLine
 10
-82.58637118953914
 20
-735.9137791203331
 30
0.0
 11
516.4136288104618
 21
-735.9137791203331
 31
0.0
  0
LINE
  5
FD
330
1F
100
AcDbEntity
  8
0-4
  6
Continuous
 62
    92
370
    13
100
AcDbLine
 10
-87.5863711895397
 20
-745.9137791203325
 30
0.0
 11
518.4136288104634
 21
-745.9137791203325
 31
0.0
  0
LINE
  5
FE
330
1F
100
AcDbEntity
  8
0-4
  6
Continuous
 62
    92
370
    13
100
AcDbLine
 10
-111.5863711895366
 20
-760.9137791203325
 30
0.0
 11
542.4136288104603
 21
-760.9137791203325
 31
0.0
  0
LINE
  5
FF
330
1F
100
AcDbEntity
  8
文字
  6
Continuous
 62
    92
370
    13
100
AcDbLine
 10
-82.58637118953914
 20
1459.086220879668
 30
0.0
 11
516.4136288104618
 21
1459.086220879668
 31
0.0
  0
LINE
  5
100
330
1F
100
AcDbEntity
  8
文字
  6
Continuous
 62
    92
370
    13
100
AcDbLine
 10
516.4136288104618
 20
-735.9137791203331
 30
0.0
 11
516.4136288104618
 21
1459.086220879668
 31
0.0
  0
LINE
  5
101
330
1F
100
AcDbEntity
  8
文字
  6
Continuous
 62
    92
370
    13
100
AcDbLine
 10
-82.58637118953914
 20
-735.9137791203331
 30
0.0
 11
-82.58637118953914
 21
1459.086220879668
 31
0.0
  0
LINE
  5
102
330
1F
100
AcDbEntity
  8
0-4
  6
Continuous
 62
    92
370
    13
100
AcDbLine
 10
-111.5863711895366
 20
1486.086220879666
 30
0.0
 11
542.4136288104603
 21
1486.086220879666
 31
0.0
  0
LINE
  5
103
330
1F
100
AcDbEntity
  8
0-4
  6
Continuous
 62
    92
370
    13
100
AcDbLine
 10
-87.5863711895397
 20
1462.086220879667
 30
0.0
 11
518.4136288104634
 21
1462.086220879667
 31
0.0
  0
LINE
  5
104
330
1F
100
AcDbEntity
  8
0-4
  6
Continuous
 62
    92
370
    13
100
AcDbLine
 10
518.4136288104634
 20
-760.9137791203325
 30
0.0
 11
518.4136288104634
 21
1462.086220879667
 31
0.0
  0
LINE
  5
105
330
1F
100
AcDbEntity
  8
0-4
  6
Continuous
 62
    92
370
    13
100
AcDbLine
 10
542.4136288104603
 20
-760.9137791203325
 30
0.0
 11
542.4136288104603
 21
1486.086220879666
 31
0.0
  0
LINE
  5
106
330
1F
100
AcDbEntity
  8
0-4
  6
Continuous
 62
    92
370
    13
100
AcDbLine
 10
-111.5863711895366
 20
-760.9137791203325
 30
0.0
 11
-111.5863711895366
 21
1486.086220879666
 31
0.0
  0
LINE
  5
107
330
1F
100
AcDbEntity
  8
0-4
  6
Continuous
 62
    92
370
    13
100
AcDbLine
 10
-87.5863711895397
 20
-760.9137791203325
 30
0.0
 11
-87.5863711895397
 21
1462.086220879667
 31
0.0
  0
LINE
  5
108
330
1F
100
AcDbEntity
  8
0-A
  6
JWW_CENTER2
 62
     7
370
     9
100
AcDbLine
 10
516.4136288104618
 20
361.5862208796672
 30
0.0
 11
-82.58637118953914
 21
-735.9137791203331
 31
0.0
  0
LINE
  5
109
330
1F
100
AcDbEntity
  8
0-A
  6
JWW_CENTER2
 62
     7
370
     9
100
AcDbLine
 10
-82.58637118953914
 20
1459.086220879668
 30
0.0
 11
516.4136288104618
 21
361.5862208796672
 31
0.0
  0
LINE
  5
10A
330
1F
100
AcDbEntity
  8
0-3
  6
Continuous
 62
     7
370
     9
100
AcDbLine
 10
27.41362881046314
 20
-727.9137791203335
 30
0.0
 11
107.413628810462
 21
-727.9137791203335
 31
0.0
  0
LINE
  5
10B
330
1F
100
AcDbEntity
  8
0-3
  6
Continuous
 62
    92
370
    13
100
AcDbLine
 10
107.413628810462
 20
-735.9137791203331
 30
0.0
 11
107.413628810462
 21
1459.086220879668
 31
0.0
  0
LINE
  5
10C
330
1F
100
AcDbEntity
  8
0-3
  6
Continuous
 62
     7
370
     9
100
AcDbLine
 10
27.41362881046314
 20
1451.086220879668
 30
0.0
 11
107.413628810462
 21
1451.086220879668
 31
0.0
  0
LINE
  5
10D
330
1F
100
AcDbEntity
  8
0-3
  6
Continuous
 62
    92
370
    13
100
AcDbLine
 10
27.41362881046314
 20
-735.9137791203331
 30
0.0
 11
27.41362881046314
 21
1459.086220879668
 31
0.0
  0
LINE
  5
10E
330
1F
100
AcDbEntity
  8
0-C
  6
JWW_DASHED1
 62
   120
370
     5
100
AcDbLine
 10
105.9557702680837
 20
-727.9137791203386
 30
0.0
 11
107.4136288104663
 21
-726.4559205779557
 31
0.0
  0
LINE
  5
10F
330
1F
100
AcDbEntity
  8
0-C
  6
JWW_DASHED1
 62
   120
370
     5
100
AcDbLine
 10
96.05627533293472
 20
-727.913779120325
 30
0.0
 11
107.4136288104543
 21
-716.5564256428058
 31
0.0
  0
LINE
  5
110
330
1F
100
AcDbEntity
  8
0-C
  6
JWW_DASHED1
 62
   120
370
     5
100
AcDbLine
 10
86.15678039771495
 20
-727.9137791203284
 30
0.0
 11
107.413628810462
 21
-706.6569307075818
 31
0.0
  0
LINE
  5
111
330
1F
100
AcDbEntity
  8
0-C
  6
JWW_DASHED1
 62
   120
370
     5
100
AcDbLine
 10
76.25728546248752
 20
-727.9137791203403
 30
0.0
 11
107.4136288104688
 21
-696.7574357723586
 31
0.0
  0
LINE
  5
112
330
1F
100
AcDbEntity
  8
0-C
  6
JWW_DASHED1
 62
   120
370
     5
100
AcDbLine
 10
66.35779052733767
 20
-727.9137791203284
 30
0.0
 11
107.4136288104569
 21
-686.8579408372088
 31
0.0
  0
LINE
  5
113
330
1F
100
AcDbEntity
  8
0-C
  6
JWW_DASHED1
 62
   120
370
     5
100
AcDbLine
 10
56.45829559212387
 20
-727.913779120325
 30
0.0
 11
107.4136288104646
 21
-676.9584459019848
 31
0.0
  0
LINE
  5
114
330
1F
100
AcDbEntity
  8
0-C
  6
JWW_DASHED1
 62
   120
370
     5
100
AcDbLine
 10
46.55880065690496
 20
-727.9137791203271
 30
0.0
 11
107.4136288104552
 21
-667.0589509667769
 31
0.0
  0
LINE
  5
115
330
1F
100
AcDbEntity
  8
0-C
  6
JWW_DASHED1
 62
   120
370
     5
100
AcDbLine
 10
36.65930572174062
 20
-727.9137791203301
 30
0.0
 11
107.4136288104586
 21
-657.1594560316122
 31
0.0
  0
LINE
  5
116
330
1F
100
AcDbEntity
  8
0-C
  6
JWW_DASHED1
 62
   120
370
     5
100
AcDbLine
 10
27.4136288104512
 20
-727.2599610964032
 30
0.0
 11
107.4136288104671
 21
-647.2599610963878
 31
0.0
  0
LINE
  5
117
330
1F
100
AcDbEntity
  8
0-C
  6
JWW_DASHED1
 62
   120
370
     5
100
AcDbLine
 10
27.41362881044353
 20
-717.360466161195
 30
0.0
 11
107.4136288104586
 21
-637.3604661611798
 31
0.0
  0
LINE
  5
118
330
1F
100
AcDbEntity
  8
0-C
  6
JWW_DASHED1
 62
   120
370
     5
100
AcDbLine
 10
27.41362881046228
 20
-707.4609712260144
 30
0.0
 11
107.4136288104611
 21
-627.4609712260151
 31
0.0
  0
LINE
  5
119
330
1F
100
AcDbEntity
  8
0-C
  6
JWW_DASHED1
 62
   120
370
     5
100
AcDbLine
 10
27.41362881045461
 20
-697.5614762908061
 30
0.0
 11
107.4136288104535
 21
-617.5614762908069
 31
0.0
  0
LINE
  5
11A
330
1F
100
AcDbEntity
  8
0-C
  6
JWW_DASHED1
 62
   120
370
     5
100
AcDbLine
 10
27.41362881045802
 20
-687.6619813556406
 30
0.0
 11
107.4136288104569
 21
-607.6619813556417
 31
0.0
  0
LINE
  5
11B
330
1F
100
AcDbEntity
  8
0-C
  6
JWW_DASHED1
 62
   120
370
     5
100
AcDbLine
 10
27.41362881046484
 20
-677.7624864204174
 30
0.0
 11
107.413628810462
 21
-597.7624864204193
 31
0.0
  0
LINE
  5
11C
330
1F
100
AcDbEntity
  8
0-C
  6
JWW_DASHED1
 62
   120
370
     5
100
AcDbLine
 10
27.41362881045632
 20
-667.8629914852091
 30
0.0
 11
107.4136288104552
 21
-587.8629914852098
 31
0.0
  0
LINE
  5
11D
330
1F
100
AcDbEntity
  8
0-C
  6
JWW_DASHED1
 62
   120
370
     5
100
AcDbLine
 10
27.41362881044438
 20
-657.9634965500593
 30
0.0
 11
107.4136288104594
 21
-577.9634965500446
 31
0.0
  0
LINE
  5
11E
330
1F
100
AcDbEntity
  8
0-C
  6
JWW_DASHED1
 62
   120
370
     5
100
AcDbLine
 10
27.4136288104674
 20
-648.0640016148203
 30
0.0
 11
107.4136288104654
 21
-568.0640016148222
 31
0.0
  0
LINE
  5
11F
330
1F
100
AcDbEntity
  8
0-C
  6
JWW_DASHED1
 62
   120
370
     5
100
AcDbLine
 10
27.41362881045887
 20
-638.1645066796125
 30
0.0
 11
107.4136288104577
 21
-558.1645066796136
 31
0.0
  0
LINE
  5
120
330
1F
100
AcDbEntity
  8
0-C
  6
JWW_DASHED1
 62
   120
370
     5
100
AcDbLine
 10
27.41362881044779
 20
-628.2650117444622
 30
0.0
 11
107.4136288104611
 21
-548.265011744448
 31
0.0
  0
LINE
  5
121
330
1F
100
AcDbEntity
  8
0-C
  6
JWW_DASHED1
 62
   120
370
     5
100
AcDbLine
 10
27.41362881046825
 20
-618.3655168092246
 30
0.0
 11
107.413628810468
 21
-538.3655168092253
 31
0.0
  0
LINE
  5
122
330
1F
100
AcDbEntity
  8
0-C
  6
JWW_DASHED1
 62
   120
370
     5
100
AcDbLine
 10
27.41362881046143
 20
-608.4660218740155
 30
0.0
 11
107.4136288104603
 21
-528.4660218740166
 31
0.0
  0
LINE
  5
123
330
1F
100
AcDbEntity
  8
0-C
  6
JWW_DASHED1
 62
   120
370
     5
100
AcDbLine
 10
27.41362881044864
 20
-598.5665269388664
 30
0.0
 11
107.4136288104637
 21
-518.566526938851
 31
0.0
  0
LINE
  5
124
330
1F
100
AcDbEntity
  8
0-C
  6
JWW_DASHED1
 62
   120
370
     5
100
AcDbLine
 10
27.41362881047166
 20
-588.6670320036275
 30
0.0
 11
107.4136288104697
 21
-508.6670320036291
 31
0.0
  0
LINE
  5
125
330
1F
100
AcDbEntity
  8
0-C
  6
JWW_DASHED1
 62
   120
370
     5
100
AcDbLine
 10
27.41362881046314
 20
-578.7675370684188
 30
0.0
 11
107.413628810462
 21
-498.7675370684204
 31
0.0
  0
LINE
  5
126
330
1F
100
AcDbEntity
  8
0-C
  6
JWW_DASHED1
 62
   120
370
     5
100
AcDbLine
 10
27.4136288104512
 20
-568.8680421332695
 30
0.0
 11
107.4136288104671
 21
-488.8680421332539
 31
0.0
  0
LINE
  5
127
330
1F
100
AcDbEntity
  8
0-C
  6
JWW_DASHED1
 62
   120
370
     5
100
AcDbLine
 10
27.41362881044267
 20
-558.9685471980612
 30
0.0
 11
107.4136288104586
 21
-478.9685471980457
 31
0.0
  0
LINE
  5
128
330
1F
100
AcDbEntity
  8
0-C
  6
JWW_DASHED1
 62
   120
370
     5
100
AcDbLine
 10
27.41362881046484
 20
-549.0690522628227
 30
0.0
 11
107.4136288104637
 21
-469.0690522628242
 31
0.0
  0
LINE
  5
129
330
1F
100
AcDbEntity
  8
0-C
  6
JWW_DASHED1
 62
   120
370
     5
100
AcDbLine
 10
27.41362881045376
 20
-539.1695573276724
 30
0.0
 11
107.4136288104526
 21
-459.169557327673
 31
0.0
  0
LINE
  5
12A
330
1F
100
AcDbEntity
  8
0-C
  6
JWW_DASHED1
 62
   120
370
     5
100
AcDbLine
 10
27.41362881044608
 20
-529.2700623924641
 30
0.0
 11
107.4136288104603
 21
-449.2700623924491
 31
0.0
  0
LINE
  5
12B
330
1F
100
AcDbEntity
  8
0-C
  6
JWW_DASHED1
 62
   120
370
     5
100
AcDbLine
 10
27.41362881046825
 20
-519.3705674572255
 30
0.0
 11
107.4136288104654
 21
-439.3705674572276
 31
0.0
  0
LINE
  5
12C
330
1F
100
AcDbEntity
  8
0-C
  6
JWW_DASHED1
 62
   120
370
     5
100
AcDbLine
 10
27.41362881045632
 20
-509.4710725220753
 30
0.0
 11
107.4136288104552
 21
-429.471072522076
 31
0.0
  0
LINE
  5
12D
330
1F
100
AcDbEntity
  8
0-C
  6
JWW_DASHED1
 62
   120
370
     5
100
AcDbLine
 10
27.41362881044779
 20
-499.5715775868671
 30
0.0
 11
107.4136288104637
 21
-419.5715775868516
 31
0.0
  0
LINE
  5
12E
330
1F
100
AcDbEntity
  8
0-C
  6
JWW_DASHED1
 62
   120
370
     5
100
AcDbLine
 10
27.41362881046996
 20
-489.672082651629
 30
0.0
 11
107.4136288104688
 21
-409.6720826516305
 31
0.0
  0
LINE
  5
12F
330
1F
100
AcDbEntity
  8
0-C
  6
JWW_DASHED1
 62
   120
370
     5
100
AcDbLine
 10
27.41362881045887
 20
-479.7725877164783
 30
0.0
 11
107.4136288104577
 21
-399.7725877164789
 31
0.0
  0
LINE
  5
130
330
1F
100
AcDbEntity
  8
0-C
  6
JWW_DASHED1
 62
   120
370
     5
100
AcDbLine
 10
27.41362881045035
 20
-469.8730927812705
 30
0.0
 11
107.4136288104654
 21
-389.8730927812558
 31
0.0
  0
LINE
  5
131
330
1F
100
AcDbEntity
  8
0-C
  6
JWW_DASHED1
 62
   120
370
     5
100
AcDbLine
 10
27.41362881045802
 20
-459.973597846046
 30
0.0
 11
107.4136288104577
 21
-379.9735978460467
 31
0.0
  0
LINE
  5
132
330
1F
100
AcDbEntity
  8
0-C
  6
JWW_DASHED1
 62
   120
370
     5
100
AcDbLine
 10
27.41362881046143
 20
-450.0741029108812
 30
0.0
 11
107.4136288104603
 21
-370.0741029108819
 31
0.0
  0
LINE
  5
133
330
1F
100
AcDbEntity
  8
0-C
  6
JWW_DASHED1
 62
   120
370
     5
100
AcDbLine
 10
27.41362881045291
 20
-440.1746079756734
 30
0.0
 11
107.4136288104671
 21
-360.1746079756588
 31
0.0
  0
LINE
  5
134
330
1F
100
AcDbEntity
  8
0-C
  6
JWW_DASHED1
 62
   120
370
     5
100
AcDbLine
 10
27.41362881044438
 20
-430.2751130404652
 30
0.0
 11
107.4136288104594
 21
-350.2751130404505
 31
0.0
  0
LINE
  5
135
330
1F
100
AcDbEntity
  8
0-C
  6
JWW_DASHED1
 62
   120
370
     5
100
AcDbLine
 10
27.41362881046399
 20
-420.3756181052842
 30
0.0
 11
107.4136288104637
 21
-340.3756181052848
 31
0.0
  0
LINE
  5
136
330
1F
100
AcDbEntity
  8
0-C
  6
JWW_DASHED1
 62
   120
370
     5
100
AcDbLine
 10
27.41362881045546
 20
-410.4761231700764
 30
0.0
 11
107.4136288104543
 21
-330.476123170077
 31
0.0
  0
LINE
  5
137
330
1F
100
AcDbEntity
  8
0-C
  6
JWW_DASHED1
 62
   120
370
     5
100
AcDbLine
 10
27.41362881044779
 20
-400.5766282348681
 30
0.0
 11
107.413628810462
 21
-320.5766282348534
 31
0.0
  0
LINE
  5
138
330
1F
100
AcDbEntity
  8
0-C
  6
JWW_DASHED1
 62
   120
370
     5
100
AcDbLine
 10
27.41362881046484
 20
-390.6771332996892
 30
0.0
 11
107.413628810462
 21
-310.6771332996917
 31
0.0
  0
LINE
  5
139
330
1F
100
AcDbEntity
  8
0-C
  6
JWW_DASHED1
 62
   120
370
     5
100
AcDbLine
 10
27.41362881045802
 20
-380.7776383644793
 30
0.0
 11
107.4136288104569
 21
-300.77763836448
 31
0.0
  0
LINE
  5
13A
330
1F
100
AcDbEntity
  8
0-C
  6
JWW_DASHED1
 62
   120
370
     5
100
AcDbLine
 10
27.41362881044523
 20
-370.8781434293304
 30
0.0
 11
107.4136288104603
 21
-290.8781434293152
 31
0.0
  0
LINE
  5
13B
330
1F
100
AcDbEntity
  8
0-C
  6
JWW_DASHED1
 62
   120
370
     5
100
AcDbLine
 10
27.41362881046655
 20
-360.978648494093
 30
0.0
 11
107.4136288104646
 21
-280.9786484940947
 31
0.0
  0
LINE
  5
13C
330
1F
100
AcDbEntity
  8
0-C
  6
JWW_DASHED1
 62
   120
370
     5
100
AcDbLine
 10
27.41362881046058
 20
-351.0791535588823
 30
0.0
 11
107.4136288104594
 21
-271.0791535588829
 31
0.0
  0
LINE
  5
13D
330
1F
100
AcDbEntity
  8
0-C
  6
JWW_DASHED1
 62
   120
370
     5
100
AcDbLine
 10
27.41362881044779
 20
-341.1796586237332
 30
0.0
 11
107.413628810462
 21
-261.1796586237182
 31
0.0
  0
LINE
  5
13E
330
1F
100
AcDbEntity
  8
0-C
  6
JWW_DASHED1
 62
   120
370
     5
100
AcDbLine
 10
27.41362881046825
 20
-331.2801636884964
 30
0.0
 11
107.4136288104671
 21
-251.2801636884976
 31
0.0
  0
LINE
  5
13F
330
1F
100
AcDbEntity
  8
0-C
  6
JWW_DASHED1
 62
   120
370
     5
100
AcDbLine
 10
27.41362881046314
 20
-321.3806687532852
 30
0.0
 11
107.413628810462
 21
-241.3806687532859
 31
0.0
  0
LINE
  5
140
330
1F
100
AcDbEntity
  8
0-C
  6
JWW_DASHED1
 62
   120
370
     5
100
AcDbLine
 10
27.41362881045035
 20
-311.4811738181363
 30
0.0
 11
107.4136288104654
 21
-231.4811738181211
 31
0.0
  0
LINE
  5
141
330
1F
100
AcDbEntity
  8
0-C
  6
JWW_DASHED1
 62
   120
370
     5
100
AcDbLine
 10
27.41362881045802
 20
-301.5816788829122
 30
0.0
 11
107.4136288104569
 21
-221.5816788829137
 31
0.0
  0
LINE
  5
142
330
1F
100
AcDbEntity
  8
0-C
  6
JWW_DASHED1
 62
   120
370
     5
100
AcDbLine
 10
27.41362881046228
 20
-291.6821839476916
 30
0.0
 11
107.4136288104611
 21
-211.6821839476927
 31
0.0
  0
LINE
  5
143
330
1F
100
AcDbEntity
  8
0-C
  6
JWW_DASHED1
 62
   120
370
     5
100
AcDbLine
 10
27.41362881045291
 20
-281.7826890125392
 30
0.0
 11
107.4136288104671
 21
-201.7826890125241
 31
0.0
  0
LINE
  5
144
330
1F
100
AcDbEntity
  8
0-C
  6
JWW_DASHED1
 62
   120
370
     5
100
AcDbLine
 10
27.41362881044438
 20
-271.8831940773313
 30
0.0
 11
107.4136288104586
 21
-191.8831940773167
 31
0.0
  0
LINE
  5
145
330
1F
100
AcDbEntity
  8
0-C
  6
JWW_DASHED1
 62
   120
370
     5
100
AcDbLine
 10
27.41362881046484
 20
-261.9836991420945
 30
0.0
 11
107.4136288104637
 21
-181.9836991420961
 31
0.0
  0
LINE
  5
146
330
1F
100
AcDbEntity
  8
0-C
  6
JWW_DASHED1
 62
   120
370
     5
100
AcDbLine
 10
27.41362881045546
 20
-252.0842042069421
 30
0.0
 11
107.4136288104552
 21
-172.0842042069428
 31
0.0
  0
LINE
  5
147
330
1F
100
AcDbEntity
  8
0-C
  6
JWW_DASHED1
 62
   120
370
     5
100
AcDbLine
 10
27.41362881044694
 20
-242.1847092717343
 30
0.0
 11
107.413628810462
 21
-162.1847092717196
 31
0.0
  0
LINE
  5
148
330
1F
100
AcDbEntity
  8
0-C
  6
JWW_DASHED1
 62
   120
370
     5
100
AcDbLine
 10
27.41362881046655
 20
-232.2852143364983
 30
0.0
 11
107.4136288104654
 21
-152.2852143364999
 31
0.0
  0
LINE
  5
149
330
1F
100
AcDbEntity
  8
0-C
  6
JWW_DASHED1
 62
   120
370
     5
100
AcDbLine
 10
27.41362881045802
 20
-222.3857194013447
 30
0.0
 11
107.4136288104569
 21
-142.3857194013459
 31
0.0
  0
LINE
  5
14A
330
1F
100
AcDbEntity
  8
0-C
  6
JWW_DASHED1
 62
   120
370
     5
100
AcDbLine
 10
27.4136288104495
 20
-212.4862244661372
 30
0.0
 11
107.4136288104637
 21
-132.4862244661227
 31
0.0
  0
LINE
  5
14B
330
1F
100
AcDbEntity
  8
0-C
  6
JWW_DASHED1
 62
   120
370
     5
100
AcDbLine
 10
27.41362881046911
 20
-202.5867295309013
 30
0.0
 11
107.4136288104671
 21
-122.5867295309029
 31
0.0
  0
LINE
  5
14C
330
1F
100
AcDbEntity
  8
0-C
  6
JWW_DASHED1
 62
   120
370
     5
100
AcDbLine
 10
27.41362881046058
 20
-192.6872345957476
 30
0.0
 11
107.4136288104586
 21
-112.6872345957491
 31
0.0
  0
LINE
  5
14D
330
1F
100
AcDbEntity
  8
0-C
  6
JWW_DASHED1
 62
   120
370
     5
100
AcDbLine
 10
27.41362881045205
 20
-182.7877396605402
 30
0.0
 11
107.4136288104671
 21
-102.7877396605255
 31
0.0
  0
LINE
  5
14E
330
1F
100
AcDbEntity
  8
0-C
  6
JWW_DASHED1
 62
   120
370
     5
100
AcDbLine
 10
27.41362881045973
 20
-172.8882447253166
 30
0.0
 11
107.4136288104586
 21
-92.88824472531687
 31
0.0
  0
LINE
  5
14F
330
1F
100
AcDbEntity
  8
0-C
  6
JWW_DASHED1
 62
   120
370
     5
100
AcDbLine
 10
27.41362881046314
 20
-162.9887497901514
 30
0.0
 11
107.413628810462
 21
-82.98874979015167
 31
0.0
  0
LINE
  5
150
330
1F
100
AcDbEntity
  8
0-C
  6
JWW_DASHED1
 62
   120
370
     5
100
AcDbLine
 10
27.41362881045461
 20
-153.0892548549431
 30
0.0
 11
107.4136288104688
 21
-73.0892548549285
 31
0.0
  0
LINE
  5
151
330
1F
100
AcDbEntity
  8
0-C
  6
JWW_DASHED1
 62
   120
370
     5
100
AcDbLine
 10
27.41362881044608
 20
-143.1897599197353
 30
0.0
 11
107.4136288104603
 21
-63.18975991972078
 31
0.0
  0
LINE
  5
152
330
1F
100
AcDbEntity
  8
0-C
  6
JWW_DASHED1
 62
   120
370
     5
100
AcDbLine
 10
27.41362881046484
 20
-133.2902649845545
 30
0.0
 11
107.4136288104637
 21
-53.29026498455505
 31
0.0
  0
LINE
  5
153
330
1F
100
AcDbEntity
  8
0-C
  6
JWW_DASHED1
 62
   120
370
     5
100
AcDbLine
 10
27.41362881045717
 20
-123.3907700493461
 30
0.0
 11
107.4136288104569
 21
-43.3907700493468
 31
0.0
  0
LINE
  5
154
330
1F
100
AcDbEntity
  8
0-C
  6
JWW_DASHED1
 62
   120
370
     5
100
AcDbLine
 10
27.41362881044864
 20
-113.4912751141383
 30
0.0
 11
107.4136288104637
 21
-33.49127511412362
 31
0.0
  0
LINE
  5
155
330
1F
100
AcDbEntity
  8
0-C
  6
JWW_DASHED1
 62
   120
370
     5
100
AcDbLine
 10
27.41362881046314
 20
-103.591780178962
 30
0.0
 11
107.413628810462
 21
-23.59178017896355
 31
0.0
  0
LINE
  5
156
330
1F
100
AcDbEntity
  8
0-C
  6
JWW_DASHED1
 62
   120
370
     5
100
AcDbLine
 10
27.41362881045973
 20
-93.69228524374904
 30
0.0
 11
107.4136288104586
 21
-13.69228524374975
 31
0.0
  0
LINE
  5
157
330
1F
100
AcDbEntity
  8
0-C
  6
JWW_DASHED1
 62
   120
370
     5
100
AcDbLine
 10
27.41362881044694
 20
-83.79279030859962
 30
0.0
 11
107.413628810462
 21
-3.792790308584983
 31
0.0
  0
LINE
  5
158
330
1F
100
AcDbEntity
  8
0-C
  6
JWW_DASHED1
 62
   120
370
     5
100
AcDbLine
 10
27.4136288104657
 20
-73.89329537336494
 30
0.0
 11
107.4136288104637
 21
6.106704626633395
 31
0.0
  0
LINE
  5
159
330
1F
100
AcDbEntity
  8
0-C
  6
JWW_DASHED1
 62
   120
370
     5
100
AcDbLine
 10
27.41362881046228
 20
-63.99380043815199
 30
0.0
 11
107.4136288104603
 21
16.00619956184634
 31
0.0
  0
LINE
  5
15A
330
1F
100
AcDbEntity
  8
0-C
  6
JWW_DASHED1
 62
   120
370
     5
100
AcDbLine
 10
27.4136288104495
 20
-54.09430550300257
 30
0.0
 11
107.4136288104646
 21
25.90569449701206
 31
0.0
  0
LINE
  5
15B
330
1F
100
AcDbEntity
  8
0-C
  6
JWW_DASHED1
 62
   120
370
     5
100
AcDbLine
 10
27.4136288104674
 20
-44.19481056776831
 30
0.0
 11
107.4136288104671
 21
35.80518943223055
 31
0.0
  0
LINE
  5
15C
330
1F
100
AcDbEntity
  8
0-C
  6
JWW_DASHED1
 62
   120
370
     5
100
AcDbLine
 10
27.41362881046484
 20
-34.29531563255537
 30
0.0
 11
107.4136288104637
 21
45.70468436744349
 31
0.0
  0
LINE
  5
15D
330
1F
100
AcDbEntity
  8
0-C
  6
JWW_DASHED1
 62
   120
370
     5
100
AcDbLine
 10
27.4136288104512
 20
-24.39582069740649
 30
0.0
 11
107.4136288104663
 21
55.60417930260826
 31
0.0
  0
LINE
  5
15E
330
1F
100
AcDbEntity
  8
0-C
  6
JWW_DASHED1
 62
   120
370
     5
100
AcDbLine
 10
27.41362881045973
 20
-14.49632576218235
 30
0.0
 11
107.4136288104586
 21
65.50367423781694
 31
0.0
  0
LINE
  5
15F
330
1F
100
AcDbEntity
  8
0-C
  6
JWW_DASHED1
 62
   120
370
     5
100
AcDbLine
 10
27.41362881046143
 20
-4.596830826963867
 30
0.0
 11
107.4136288104603
 21
75.40316917303531
 31
0.0
  0
LINE
  5
160
330
1F
100
AcDbEntity
  8
0-C
  6
JWW_DASHED1
 62
   120
370
     5
100
AcDbLine
 10
27.41362881045461
 20
5.302664108190669
 30
0.0
 11
107.4136288104697
 21
85.30266410820616
 31
0.0
  0
LINE
  5
161
330
1F
100
AcDbEntity
  8
0-C
  6
JWW_DASHED1
 62
   120
370
     5
100
AcDbLine
 10
27.41362881044608
 20
15.20215904339892
 30
0.0
 11
107.4136288104603
 21
95.20215904341399
 31
0.0
  0
LINE
  5
162
330
1F
100
AcDbEntity
  8
0-C
  6
JWW_DASHED1
 62
   120
370
     5
100
AcDbLine
 10
27.41362881046399
 20
25.10165397863318
 30
0.0
 11
107.413628810462
 21
105.1016539786312
 31
0.0
  0
LINE
  5
163
330
1F
100
AcDbEntity
  8
0-C
  6
JWW_DASHED1
 62
   120
370
     5
100
AcDbLine
 10
27.41362881045632
 20
35.00114891378729
 30
0.0
 11
107.413628810456
 21
115.001148913787
 31
0.0
  0
LINE
  5
164
330
1F
100
AcDbEntity
  8
0-C
  6
JWW_DASHED1
 62
   120
370
     5
100
AcDbLine
 10
27.41362881044864
 20
44.90064384899597
 30
0.0
 11
107.4136288104637
 21
124.900643849011
 31
0.0
  0
LINE
  5
165
330
1F
100
AcDbEntity
  8
0-C
  6
JWW_DASHED1
 62
   120
370
     5
100
AcDbLine
 10
27.41362881046484
 20
54.80013878422938
 30
0.0
 11
107.4136288104646
 21
134.8001387842282
 31
0.0
  0
LINE
  5
166
330
1F
100
AcDbEntity
  8
0-C
  6
JWW_DASHED1
 62
   120
370
     5
100
AcDbLine
 10
27.41362881045973
 20
64.69963371938476
 30
0.0
 11
107.4136288104577
 21
144.6996337193832
 31
0.0
  0
LINE
  5
167
330
1F
100
AcDbEntity
  8
0-C
  6
JWW_DASHED1
 62
   120
370
     5
100
AcDbLine
 10
27.4136288104512
 20
74.59912865459259
 30
0.0
 11
107.4136288104654
 21
154.5991286546081
 31
0.0
  0
LINE
  5
168
330
1F
100
AcDbEntity
  8
0-C
  6
JWW_DASHED1
 62
   120
370
     5
100
AcDbLine
 10
27.41362881046825
 20
84.49862358982642
 30
0.0
 11
107.4136288104671
 21
164.4986235898253
 31
0.0
  0
LINE
  5
169
330
1F
100
AcDbEntity
  8
0-C
  6
JWW_DASHED1
 62
   120
370
     5
100
AcDbLine
 10
27.41362881046143
 20
94.39811852498138
 30
0.0
 11
107.4136288104603
 21
174.3981185249802
 31
0.0
  0
LINE
  5
16A
330
1F
100
AcDbEntity
  8
0-C
  6
JWW_DASHED1
 62
   120
370
     5
100
AcDbLine
 10
27.41362881045376
 20
104.2976134601905
 30
0.0
 11
107.413628810468
 21
184.2976134602043
 31
0.0
  0
LINE
  5
16B
330
1F
100
AcDbEntity
  8
0-C
  6
JWW_DASHED1
 62
   120
370
     5
100
AcDbLine
 10
27.41362881044523
 20
114.1971083953979
 30
0.0
 11
107.4136288104603
 21
194.1971083954125
 31
0.0
  0
LINE
  5
16C
330
1F
100
AcDbEntity
  8
0-C
  6
JWW_DASHED1
 62
   120
370
     5
100
AcDbLine
 10
27.41362881046399
 20
124.0966033305784
 30
0.0
 11
107.4136288104629
 21
204.0966033305773
 31
0.0
  0
LINE
  5
16D
330
1F
100
AcDbEntity
  8
0-C
  6
JWW_DASHED1
 62
   120
370
     5
100
AcDbLine
 10
27.41362881045546
 20
133.9960982657863
 30
0.0
 11
107.4136288104552
 21
213.996098265786
 31
0.0
  0
LINE
  5
16E
330
1F
100
AcDbEntity
  8
0-C
  6
JWW_DASHED1
 62
   120
370
     5
100
AcDbLine
 10
27.41362881044779
 20
143.8955932009949
 30
0.0
 11
107.413628810462
 21
223.8955932010096
 31
0.0
  0
LINE
  5
16F
330
1F
100
AcDbEntity
  8
0-C
  6
JWW_DASHED1
 62
   120
370
     5
100
AcDbLine
 10
27.41362881046058
 20
153.7950881361695
 30
0.0
 11
107.4136288104586
 21
233.7950881361671
 31
0.0
  0
LINE
  5
170
330
1F
100
AcDbEntity
  8
0-C
  6
JWW_DASHED1
 62
   120
370
     5
100
AcDbLine
 10
27.41362881045802
 20
163.6945830713833
 30
0.0
 11
107.4136288104569
 21
243.694583071383
 31
0.0
  0
LINE
  5
171
330
1F
100
AcDbEntity
  8
0-C
  6
JWW_DASHED1
 62
   120
370
     5
100
AcDbLine
 10
27.41362881044779
 20
173.5940780065621
 30
0.0
 11
107.413628810462
 21
253.5940780065768
 31
0.0
  0
LINE
  5
172
330
1F
100
AcDbEntity
  8
0-C
  6
JWW_DASHED1
 62
   120
370
     5
100
AcDbLine
 10
27.41362881046228
 20
183.4935729417657
 30
0.0
 11
107.4136288104603
 21
263.4935729417641
 31
0.0
  0
LINE
  5
173
330
1F
100
AcDbEntity
  8
0-C
  6
JWW_DASHED1
 62
   120
370
     5
100
AcDbLine
 10
27.41362881046143
 20
193.3930678769808
 30
0.0
 11
107.4136288104594
 21
273.3930678769792
 31
0.0
  0
LINE
  5
174
330
1F
100
AcDbEntity
  8
0-C
  6
JWW_DASHED1
 62
   120
370
     5
100
AcDbLine
 10
27.41362881044779
 20
203.2925628121293
 30
0.0
 11
107.4136288104637
 21
283.2925628121453
 31
0.0
  0
LINE
  5
175
330
1F
100
AcDbEntity
  8
0-C
  6
JWW_DASHED1
 62
   120
370
     5
100
AcDbLine
 10
27.41362881046484
 20
213.1920577473623
 30
0.0
 11
107.4136288104637
 21
293.192057747361
 31
0.0
  0
LINE
  5
176
330
1F
100
AcDbEntity
  8
0-C
  6
JWW_DASHED1
 62
   120
370
     5
100
AcDbLine
 10
27.41362881046314
 20
223.0915526825774
 30
0.0
 11
107.413628810462
 21
303.0915526825763
 31
0.0
  0
LINE
  5
177
330
1F
100
AcDbEntity
  8
0-C
  6
JWW_DASHED1
 62
   120
370
     5
100
AcDbLine
 10
27.41362881045035
 20
232.9910476177264
 30
0.0
 11
107.4136288104654
 21
312.9910476177411
 31
0.0
  0
LINE
  5
178
330
1F
100
AcDbEntity
  8
0-C
  6
JWW_DASHED1
 62
   120
370
     5
100
AcDbLine
 10
27.41362881046655
 20
242.8905425529594
 30
0.0
 11
107.4136288104654
 21
322.8905425529578
 31
0.0
  0
LINE
  5
179
330
1F
100
AcDbEntity
  8
0-C
  6
JWW_DASHED1
 62
   120
370
     5
100
AcDbLine
 10
27.4136288104657
 20
252.7900374881744
 30
0.0
 11
107.4136288104646
 21
332.7900374881733
 31
0.0
  0
LINE
  5
17A
330
1F
100
AcDbEntity
  8
0-C
  6
JWW_DASHED1
 62
   120
370
     5
100
AcDbLine
 10
27.41362881045291
 20
262.6895324233234
 30
0.0
 11
107.4136288104671
 21
342.6895324233381
 31
0.0
  0
LINE
  5
17B
330
1F
100
AcDbEntity
  8
0-C
  6
JWW_DASHED1
 62
   120
370
     5
100
AcDbLine
 10
27.41362881046143
 20
272.5890273585477
 30
0.0
 11
107.4136288104594
 21
352.5890273585463
 31
0.0
  0
LINE
  5
17C
330
1F
100
AcDbEntity
  8
0-C
  6
JWW_DASHED1
 62
   120
370
     5
100
AcDbLine
 10
27.41362881046143
 20
282.488522293764
 30
0.0
 11
107.4136288104594
 21
362.4885222937627
 31
0.0
  0
LINE
  5
17D
330
1F
100
AcDbEntity
  8
0-C
  6
JWW_DASHED1
 62
   120
370
     5
100
AcDbLine
 10
27.41362881045546
 20
292.3880172289205
 30
0.0
 11
107.4136288104705
 21
372.3880172289349
 31
0.0
  0
LINE
  5
17E
330
1F
100
AcDbEntity
  8
0-C
  6
JWW_DASHED1
 62
   120
370
     5
100
AcDbLine
 10
27.41362881044694
 20
302.2875121641283
 30
0.0
 11
107.413628810462
 21
382.2875121641434
 31
0.0
  0
LINE
  5
17F
330
1F
100
AcDbEntity
  8
0-C
  6
JWW_DASHED1
 62
   120
370
     5
100
AcDbLine
 10
27.41362881046314
 20
312.1870070993613
 30
0.0
 11
107.4136288104611
 21
392.1870070993593
 31
0.0
  0
LINE
  5
180
330
1F
100
AcDbEntity
  8
0-C
  6
JWW_DASHED1
 62
   120
370
     5
100
AcDbLine
 10
27.41362881045802
 20
322.0865020345175
 30
0.0
 11
107.4136288104569
 21
402.0865020345164
 31
0.0
  0
LINE
  5
181
330
1F
100
AcDbEntity
  8
0-C
  6
JWW_DASHED1
 62
   120
370
     5
100
AcDbLine
 10
27.4136288104495
 20
331.9859969697254
 30
0.0
 11
107.4136288104646
 21
411.9859969697404
 31
0.0
  0
LINE
  5
182
330
1F
100
AcDbEntity
  8
0-C
  6
JWW_DASHED1
 62
   120
370
     5
100
AcDbLine
 10
27.41362881046484
 20
341.8854919049571
 30
0.0
 11
107.4136288104637
 21
421.8854919049563
 31
0.0
  0
LINE
  5
183
330
1F
100
AcDbEntity
  8
0-C
  6
JWW_DASHED1
 62
   120
370
     5
100
AcDbLine
 10
27.41362881046058
 20
351.7849868401146
 30
0.0
 11
107.4136288104594
 21
431.7849868401139
 31
0.0
  0
LINE
  5
184
330
1F
100
AcDbEntity
  8
0-C
  6
JWW_DASHED1
 62
   120
370
     5
100
AcDbLine
 10
27.41362881045205
 20
361.6844817753224
 30
0.0
 11
107.4136288104671
 21
441.6844817753371
 31
0.0
  0
LINE
  5
185
330
1F
100
AcDbEntity
  8
0-C
  6
JWW_DASHED1
 62
   120
370
     5
100
AcDbLine
 10
27.41362881045973
 20
371.5839767105464
 30
0.0
 11
107.4136288104586
 21
451.5839767105462
 31
0.0
  0
LINE
  5
186
330
1F
100
AcDbEntity
  8
0-C
  6
JWW_DASHED1
 62
   120
370
     5
100
AcDbLine
 10
27.41362881046314
 20
381.4834716457116
 30
0.0
 11
107.413628810462
 21
461.4834716457109
 31
0.0
  0
LINE
  5
187
330
1F
100
AcDbEntity
  8
0-C
  6
JWW_DASHED1
 62
   120
370
     5
100
AcDbLine
 10
27.41362881045461
 20
391.3829665809195
 30
0.0
 11
107.4136288104688
 21
471.3829665809341
 31
0.0
  0
LINE
  5
188
330
1F
100
AcDbEntity
  8
0-C
  6
JWW_DASHED1
 62
   120
370
     5
100
AcDbLine
 10
27.41362881046655
 20
401.2824615160928
 30
0.0
 11
107.4136288104637
 21
481.2824615160903
 31
0.0
  0
LINE
  5
189
330
1F
100
AcDbEntity
  8
0-C
  6
JWW_DASHED1
 62
   120
370
     5
100
AcDbLine
 10
27.4136288104657
 20
411.1819564513087
 30
0.0
 11
107.4136288104646
 21
491.181956451308
 31
0.0
  0
LINE
  5
18A
330
1F
100
AcDbEntity
  8
0-C
  6
JWW_DASHED1
 62
   120
370
     5
100
AcDbLine
 10
27.41362881045717
 20
421.0814513865165
 30
0.0
 11
107.413628810456
 21
501.0814513865154
 31
0.0
  0
LINE
  5
18B
330
1F
100
AcDbEntity
  8
0-C
  6
JWW_DASHED1
 62
   120
370
     5
100
AcDbLine
 10
27.41362881045973
 20
430.9809463216812
 30
0.0
 11
107.4136288104586
 21
510.9809463216801
 31
0.0
  0
LINE
  5
18C
330
1F
100
AcDbEntity
  8
0-C
  6
JWW_DASHED1
 62
   120
370
     5
100
AcDbLine
 10
27.41362881045973
 20
440.8804412568972
 30
0.0
 11
107.4136288104577
 21
520.8804412568952
 31
0.0
  0
LINE
  5
18D
330
1F
100
AcDbEntity
  8
0-C
  6
JWW_DASHED1
 62
   120
370
     5
100
AcDbLine
 10
27.41362881045973
 20
450.7799361921136
 30
0.0
 11
107.4136288104586
 21
530.7799361921125
 31
0.0
  0
LINE
  5
18E
330
1F
100
AcDbEntity
  8
0-C
  6
JWW_DASHED1
 62
   120
370
     5
100
AcDbLine
 10
27.41362881044694
 20
460.6794311272625
 30
0.0
 11
107.413628810462
 21
540.6794311272772
 31
0.0
  0
LINE
  5
18F
330
1F
100
AcDbEntity
  8
0-C
  6
JWW_DASHED1
 62
   120
370
     5
100
AcDbLine
 10
27.41362881046143
 20
470.5789260624934
 30
0.0
 11
107.4136288104603
 21
550.5789260624922
 31
0.0
  0
LINE
  5
190
330
1F
100
AcDbEntity
  8
0-C
  6
JWW_DASHED1
 62
   120
370
     5
100
AcDbLine
 10
27.41362881046228
 20
480.4784209977106
 30
0.0
 11
107.4136288104611
 21
560.4784209977095
 31
0.0
  0
LINE
  5
191
330
1F
100
AcDbEntity
  8
0-C
  6
JWW_DASHED1
 62
   120
370
     5
100
AcDbLine
 10
27.4136288104495
 20
490.3779159328596
 30
0.0
 11
107.4136288104637
 21
570.3779159328742
 31
0.0
  0
LINE
  5
192
330
1F
100
AcDbEntity
  8
0-C
  6
JWW_DASHED1
 62
   120
370
     5
100
AcDbLine
 10
27.41362881046399
 20
500.2774108680904
 30
0.0
 11
107.413628810462
 21
580.2774108680889
 31
0.0
  0
LINE
  5
193
330
1F
100
AcDbEntity
  8
0-C
  6
JWW_DASHED1
 62
   120
370
     5
100
AcDbLine
 10
27.41362881046484
 20
510.1769058033076
 30
0.0
 11
107.4136288104637
 21
590.1769058033065
 31
0.0
  0
LINE
  5
194
330
1F
100
AcDbEntity
  8
0-C
  6
JWW_DASHED1
 62
   120
370
     5
100
AcDbLine
 10
27.41362881045205
 20
520.0764007384566
 30
0.0
 11
107.4136288104671
 21
600.0764007384713
 31
0.0
  0
LINE
  5
195
330
1F
100
AcDbEntity
  8
0-C
  6
JWW_DASHED1
 62
   120
370
     5
100
AcDbLine
 10
27.41362881046655
 20
529.9758956736875
 30
0.0
 11
107.4136288104654
 21
609.975895673686
 31
0.0
  0
LINE
  5
196
330
1F
100
AcDbEntity
  8
0-C
  6
JWW_DASHED1
 62
   120
370
     5
100
AcDbLine
 10
27.41362881046655
 20
539.8753906089042
 30
0.0
 11
107.4136288104663
 21
619.8753906089036
 31
0.0
  0
LINE
  5
197
330
1F
100
AcDbEntity
  8
0-C
  6
JWW_DASHED1
 62
   120
370
     5
100
AcDbLine
 10
27.41362881045461
 20
549.7748855440536
 30
0.0
 11
107.4136288104688
 21
629.7748855440683
 31
0.0
  0
LINE
  5
198
330
1F
100
AcDbEntity
  8
0-C
  6
JWW_DASHED1
 62
   120
370
     5
100
AcDbLine
 10
27.41362881046228
 20
559.6743804792777
 30
0.0
 11
107.4136288104603
 21
639.6743804792761
 31
0.0
  0
LINE
  5
199
330
1F
100
AcDbEntity
  8
0-C
  6
JWW_DASHED1
 62
   120
370
     5
100
AcDbLine
 10
27.41362881045973
 20
569.5738754144919
 30
0.0
 11
107.4136288104586
 21
649.57387541449
 31
0.0
  0
LINE
  5
19A
330
1F
100
AcDbEntity
  8
0-C
  6
JWW_DASHED1
 62
   120
370
     5
100
AcDbLine
 10
27.41362881045717
 20
579.4733703496507
 30
0.0
 11
107.4136288104569
 21
659.4733703496498
 31
0.0
  0
LINE
  5
19B
330
1F
100
AcDbEntity
  8
0-C
  6
JWW_DASHED1
 62
   120
370
     5
100
AcDbLine
 10
27.41362881044864
 20
589.3728652848586
 30
0.0
 11
107.4136288104637
 21
669.372865284873
 31
0.0
  0
LINE
  5
19C
330
1F
100
AcDbEntity
  8
0-C
  6
JWW_DASHED1
 62
   120
370
     5
100
AcDbLine
 10
27.4136288104674
 20
599.2723602200391
 30
0.0
 11
107.4136288104663
 21
679.272360220038
 31
0.0
  0
LINE
  5
19D
330
1F
100
AcDbEntity
  8
0-C
  6
JWW_DASHED1
 62
   120
370
     5
100
AcDbLine
 10
27.41362881045973
 20
609.1718551552478
 30
0.0
 11
107.4136288104586
 21
689.171855155247
 31
0.0
  0
LINE
  5
19E
330
1F
100
AcDbEntity
  8
0-C
  6
JWW_DASHED1
 62
   120
370
     5
100
AcDbLine
 10
27.4136288104512
 20
619.0713500904556
 30
0.0
 11
107.4136288104654
 21
699.0713500904702
 31
0.0
  0
LINE
  5
19F
330
1F
100
AcDbEntity
  8
0-C
  6
JWW_DASHED1
 62
   120
370
     5
100
AcDbLine
 10
27.41362881045973
 20
628.9708450256263
 30
0.0
 11
107.4136288104586
 21
708.9708450256248
 31
0.0
  0
LINE
  5
1A0
330
1F
100
AcDbEntity
  8
0-C
  6
JWW_DASHED1
 62
   120
370
     5
100
AcDbLine
 10
27.41362881046228
 20
638.8703399608448
 30
0.0
 11
107.4136288104603
 21
718.8703399608432
 31
0.0
  0
LINE
  5
1A1
330
1F
100
AcDbEntity
  8
0-C
  6
JWW_DASHED1
 62
   120
370
     5
100
AcDbLine
 10
27.41362881045376
 20
648.7698348960527
 30
0.0
 11
107.4136288104688
 21
728.7698348960673
 31
0.0
  0
LINE
  5
1A2
330
1F
100
AcDbEntity
  8
0-C
  6
JWW_DASHED1
 62
   120
370
     5
100
AcDbLine
 10
27.41362881046314
 20
658.6693298312234
 30
0.0
 11
107.4136288104611
 21
738.6693298312218
 31
0.0
  0
LINE
  5
1A3
330
1F
100
AcDbEntity
  8
0-C
  6
JWW_DASHED1
 62
   120
370
     5
100
AcDbLine
 10
27.41362881046314
 20
668.568824766441
 30
0.0
 11
107.4136288104637
 21
748.5688247664401
 31
0.0
  0
LINE
  5
1A4
330
1F
100
AcDbEntity
  8
0-C
  6
JWW_DASHED1
 62
   120
370
     5
100
AcDbLine
 10
27.41362881045632
 20
678.4683197016498
 30
0.0
 11
107.4136288104705
 21
758.4683197016643
 31
0.0
  0
LINE
  5
1A5
330
1F
100
AcDbEntity
  8
0-C
  6
JWW_DASHED1
 62
   120
370
     5
100
AcDbLine
 10
27.41362881046484
 20
688.36781463682
 30
0.0
 11
107.4136288104637
 21
768.3678146368183
 31
0.0
  0
LINE
  5
1A6
330
1F
100
AcDbEntity
  8
0-C
  6
JWW_DASHED1
 62
   120
370
     5
100
AcDbLine
 10
27.41362881046655
 20
698.2673095720385
 30
0.0
 11
107.4136288104654
 21
778.267309572037
 31
0.0
  0
LINE
  5
1A7
330
1F
100
AcDbEntity
  8
0-C
  6
JWW_DASHED1
 62
   120
370
     5
100
AcDbLine
 10
27.41362881045802
 20
708.1668045072463
 30
0.0
 11
107.4136288104586
 21
788.1668045072461
 31
0.0
  0
LINE
  5
1A8
330
1F
100
AcDbEntity
  8
0-C
  6
JWW_DASHED1
 62
   120
370
     5
100
AcDbLine
 10
27.41362881046143
 20
718.0662994424115
 30
0.0
 11
107.4136288104603
 21
798.0662994424108
 31
0.0
  0
LINE
  5
1A9
330
1F
100
AcDbEntity
  8
0-C
  6
JWW_DASHED1
 62
   120
370
     5
100
AcDbLine
 10
27.41362881045887
 20
727.9657943776249
 30
0.0
 11
107.4136288104569
 21
807.9657943776233
 31
0.0
  0
LINE
  5
1AA
330
1F
100
AcDbEntity
  8
0-C
  6
JWW_DASHED1
 62
   120
370
     5
100
AcDbLine
 10
27.41362881046143
 20
737.8652893128432
 30
0.0
 11
107.4136288104603
 21
817.8652893128431
 31
0.0
  0
LINE
  5
1AB
330
1F
100
AcDbEntity
  8
0-C
  6
JWW_DASHED1
 62
   120
370
     5
100
AcDbLine
 10
27.41362881044864
 20
747.7647842479928
 30
0.0
 11
107.4136288104637
 21
827.7647842480075
 31
0.0
  0
LINE
  5
1AC
330
1F
100
AcDbEntity
  8
0-C
  6
JWW_DASHED1
 62
   120
370
     5
100
AcDbLine
 10
27.41362881046058
 20
757.6642791832211
 30
0.0
 11
107.4136288104586
 21
837.6642791832195
 31
0.0
  0
LINE
  5
1AD
330
1F
100
AcDbEntity
  8
0-C
  6
JWW_DASHED1
 62
   120
370
     5
100
AcDbLine
 10
27.41362881046314
 20
767.5637741184404
 30
0.0
 11
107.413628810462
 21
847.5637741184393
 31
0.0
  0
LINE
  5
1AE
330
1F
100
AcDbEntity
  8
0-C
  6
JWW_DASHED1
 62
   120
370
     5
100
AcDbLine
 10
27.4136288104512
 20
777.4632690535894
 30
0.0
 11
107.4136288104663
 21
857.4632690536049
 31
0.0
  0
LINE
  5
1AF
330
1F
100
AcDbEntity
  8
0-C
  6
JWW_DASHED1
 62
   120
370
     5
100
AcDbLine
 10
27.41362881046314
 20
787.3627639888182
 30
0.0
 11
107.4136288104611
 21
867.3627639888161
 31
0.0
  0
LINE
  5
1B0
330
1F
100
AcDbEntity
  8
0-C
  6
JWW_DASHED1
 62
   120
370
     5
100
AcDbLine
 10
27.41362881046143
 20
797.2622589239778
 30
0.0
 11
107.4136288104603
 21
877.2622589239767
 31
0.0
  0
LINE
  5
1B1
330
1F
100
AcDbEntity
  8
0-C
  6
JWW_DASHED1
 62
   120
370
     5
100
AcDbLine
 10
27.41362881045291
 20
807.1617538591864
 30
0.0
 11
107.413628810468
 21
887.1617538592011
 31
0.0
  0
LINE
  5
1B2
330
1F
100
AcDbEntity
  8
0-C
  6
JWW_DASHED1
 62
   120
370
     5
100
AcDbLine
 10
27.4136288104657
 20
817.0612487944152
 30
0.0
 11
107.4136288104637
 21
897.0612487944128
 31
0.0
  0
LINE
  5
1B3
330
1F
100
AcDbEntity
  8
0-C
  6
JWW_DASHED1
 62
   120
370
     5
100
AcDbLine
 10
27.41362881046399
 20
826.9607437295753
 30
0.0
 11
107.4136288104629
 21
906.9607437295741
 31
0.0
  0
LINE
  5
1B4
330
1F
100
AcDbEntity
  8
0-C
  6
JWW_DASHED1
 62
   120
370
     5
100
AcDbLine
 10
27.41362881045546
 20
836.8602386647831
 30
0.0
 11
107.4136288104705
 21
916.8602386647975
 31
0.0
  0
LINE
  5
1B5
330
1F
100
AcDbEntity
  8
0-C
  6
JWW_DASHED1
 62
   120
370
     5
100
AcDbLine
 10
27.41362881044779
 20
846.7597335999914
 30
0.0
 11
107.413628810462
 21
926.7597336000064
 31
0.0
  0
LINE
  5
1B6
330
1F
100
AcDbEntity
  8
0-C
  6
JWW_DASHED1
 62
   120
370
     5
100
AcDbLine
 10
27.41362881046655
 20
856.6592285351724
 30
0.0
 11
107.4136288104654
 21
936.6592285351712
 31
0.0
  0
LINE
  5
1B7
330
1F
100
AcDbEntity
  8
0-C
  6
JWW_DASHED1
 62
   120
370
     5
100
AcDbLine
 10
27.41362881045802
 20
866.5587234703797
 30
0.0
 11
107.4136288104569
 21
946.5587234703786
 31
0.0
  0
LINE
  5
1B8
330
1F
100
AcDbEntity
  8
0-C
  6
JWW_DASHED1
 62
   120
370
     5
100
AcDbLine
 10
27.4136288104495
 20
876.4582184055884
 30
0.0
 11
107.4136288104654
 21
956.4582184056035
 31
0.0
  0
LINE
  5
1B9
330
1F
100
AcDbEntity
  8
0-C
  6
JWW_DASHED1
 62
   120
370
     5
100
AcDbLine
 10
27.41362881045717
 20
886.3577133407574
 30
0.0
 11
107.4136288104552
 21
966.3577133407558
 31
0.0
  0
LINE
  5
1BA
330
1F
100
AcDbEntity
  8
0-C
  6
JWW_DASHED1
 62
   120
370
     5
100
AcDbLine
 10
27.41362881046058
 20
896.2572082759772
 30
0.0
 11
107.4136288104594
 21
976.257208275976
 31
0.0
  0
LINE
  5
1BB
330
1F
100
AcDbEntity
  8
0-C
  6
JWW_DASHED1
 62
   120
370
     5
100
AcDbLine
 10
27.41362881045291
 20
906.1567032111855
 30
0.0
 11
107.4136288104671
 21
986.1567032111997
 31
0.0
  0
LINE
  5
1BC
330
1F
100
AcDbEntity
  8
0-C
  6
JWW_DASHED1
 62
   120
370
     5
100
AcDbLine
 10
27.41362881045973
 20
916.0561981463545
 30
0.0
 11
107.4136288104586
 21
996.0561981463529
 31
0.0
  0
LINE
  5
1BD
330
1F
100
AcDbEntity
  8
0-C
  6
JWW_DASHED1
 62
   120
370
     5
100
AcDbLine
 10
27.41362881046314
 20
925.9556930815743
 30
0.0
 11
107.413628810462
 21
1005.955693081573
 31
0.0
  0
LINE
  5
1BE
330
1F
100
AcDbEntity
  8
0-C
  6
JWW_DASHED1
 62
   120
370
     5
100
AcDbLine
 10
27.41362881045461
 20
935.8551880167824
 30
0.0
 11
107.4136288104697
 21
1015.855188016797
 31
0.0
  0
LINE
  5
1BF
330
1F
100
AcDbEntity
  8
0-C
  6
JWW_DASHED1
 62
   120
370
     5
100
AcDbLine
 10
27.41362881046143
 20
945.7546829519503
 30
0.0
 11
107.4136288104603
 21
1025.754682951949
 31
0.0
  0
LINE
  5
1C0
330
1F
100
AcDbEntity
  8
0-C
  6
JWW_DASHED1
 62
   120
370
     5
100
AcDbLine
 10
27.4136288104657
 20
955.6541778871713
 30
0.0
 11
107.4136288104646
 21
1035.65417788717
 31
0.0
  0
LINE
  5
1C1
330
1F
100
AcDbEntity
  8
0-C
  6
JWW_DASHED1
 62
   120
370
     5
100
AcDbLine
 10
27.41362881045632
 20
965.5536728223791
 30
0.0
 11
107.4136288104722
 21
1045.553672822394
 31
0.0
  0
LINE
  5
1C2
330
1F
100
AcDbEntity
  8
0-C
  6
JWW_DASHED1
 62
   120
370
     5
100
AcDbLine
 10
27.41362881046399
 20
975.4531677575477
 30
0.0
 11
107.413628810462
 21
1055.453167757546
 31
0.0
  0
LINE
  5
1C3
330
1F
100
AcDbEntity
  8
0-C
  6
JWW_DASHED1
 62
   120
370
     5
100
AcDbLine
 10
27.41362881046825
 20
985.3526626927679
 30
0.0
 11
107.4136288104671
 21
1065.352662692767
 31
0.0
  0
LINE
  5
1C4
330
1F
100
AcDbEntity
  8
0-C
  6
JWW_DASHED1
 62
   120
370
     5
100
AcDbLine
 10
27.41362881045546
 20
995.2521576279173
 30
0.0
 11
107.4136288104705
 21
1075.252157627932
 31
0.0
  0
LINE
  5
1C5
330
1F
100
AcDbEntity
  8
0-C
  6
JWW_DASHED1
 62
   120
370
     5
100
AcDbLine
 10
27.41362881046228
 20
1005.151652563141
 30
0.0
 11
107.413628810462
 21
1085.15165256314
 31
0.0
  0
LINE
  5
1C6
330
1F
100
AcDbEntity
  8
0-C
  6
JWW_DASHED1
 62
   120
370
     5
100
AcDbLine
 10
27.41362881045802
 20
1015.051147498352
 30
0.0
 11
107.4136288104569
 21
1095.051147498351
 31
0.0
  0
LINE
  5
1C7
330
1F
100
AcDbEntity
  8
0-C
  6
JWW_DASHED1
 62
   120
370
     5
100
AcDbLine
 10
27.41362881045802
 20
1024.950642433514
 30
0.0
 11
107.4136288104722
 21
1104.950642433529
 31
0.0
  0
LINE
  5
1C8
330
1F
100
AcDbEntity
  8
0-C
  6
JWW_DASHED1
 62
   120
370
     5
100
AcDbLine
 10
27.4136288104495
 20
1034.850137368722
 30
0.0
 11
107.4136288104646
 21
1114.850137368737
 31
0.0
  0
LINE
  5
1C9
330
1F
100
AcDbEntity
  8
0-C
  6
JWW_DASHED1
 62
   120
370
     5
100
AcDbLine
 10
27.41362881045973
 20
1044.749632303949
 30
0.0
 11
107.4136288104586
 21
1124.749632303948
 31
0.0
  0
LINE
  5
1CA
330
1F
100
AcDbEntity
  8
0-C
  6
JWW_DASHED1
 62
   120
370
     5
100
AcDbLine
 10
27.41362881046058
 20
1054.649127239111
 30
0.0
 11
107.4136288104594
 21
1134.64912723911
 31
0.0
  0
LINE
  5
1CB
330
1F
100
AcDbEntity
  8
0-C
  6
JWW_DASHED1
 62
   120
370
     5
100
AcDbLine
 10
27.41362881045205
 20
1064.548622174319
 30
0.0
 11
107.4136288104671
 21
1144.548622174334
 31
0.0
  0
LINE
  5
1CC
330
1F
100
AcDbEntity
  8
0-C
  6
JWW_DASHED1
 62
   120
370
     5
100
AcDbLine
 10
27.41362881046228
 20
1074.448117109546
 30
0.0
 11
107.4136288104603
 21
1154.448117109544
 31
0.0
  0
LINE
  5
1CD
330
1F
100
AcDbEntity
  8
0-C
  6
JWW_DASHED1
 62
   120
370
     5
100
AcDbLine
 10
27.41362881046314
 20
1084.347612044709
 30
0.0
 11
107.413628810462
 21
1164.347612044707
 31
0.0
  0
LINE
  5
1CE
330
1F
100
AcDbEntity
  8
0-C
  6
JWW_DASHED1
 62
   120
370
     5
100
AcDbLine
 10
27.41362881045461
 20
1094.247106979916
 30
0.0
 11
107.4136288104697
 21
1174.247106979931
 31
0.0
  0
LINE
  5
1CF
330
1F
100
AcDbEntity
  8
0-C
  6
JWW_DASHED1
 62
   120
370
     5
100
AcDbLine
 10
27.41362881046228
 20
1104.14660191514
 30
0.0
 11
107.4136288104611
 21
1184.146601915139
 31
0.0
  0
LINE
  5
1D0
330
1F
100
AcDbEntity
  8
0-C
  6
JWW_DASHED1
 62
   120
370
     5
100
AcDbLine
 10
27.41362881046484
 20
1114.046096850305
 30
0.0
 11
107.4136288104637
 21
1194.046096850304
 31
0.0
  0
LINE
  5
1D1
330
1F
100
AcDbEntity
  8
0-C
  6
JWW_DASHED1
 62
   120
370
     5
100
AcDbLine
 10
27.41362881045717
 20
1123.945591785513
 30
0.0
 11
107.4136288104722
 21
1203.945591785528
 31
0.0
  0
LINE
  5
1D2
330
1F
100
AcDbEntity
  8
0-C
  6
JWW_DASHED1
 62
   120
370
     5
100
AcDbLine
 10
27.41362881044864
 20
1133.845086720721
 30
0.0
 11
107.4136288104637
 21
1213.845086720736
 31
0.0
  0
LINE
  5
1D3
330
1F
100
AcDbEntity
  8
0-C
  6
JWW_DASHED1
 62
   120
370
     5
100
AcDbLine
 10
27.41362881046825
 20
1143.744581655902
 30
0.0
 11
107.4136288104671
 21
1223.744581655901
 31
0.0
  0
LINE
  5
1D4
330
1F
100
AcDbEntity
  8
0-C
  6
JWW_DASHED1
 62
   120
370
     5
100
AcDbLine
 10
27.41362881045973
 20
1153.64407659111
 30
0.0
 11
107.4136288104586
 21
1233.644076591109
 31
0.0
  0
LINE
  5
1D5
330
1F
100
AcDbEntity
  8
0-C
  6
JWW_DASHED1
 62
   120
370
     5
100
AcDbLine
 10
27.4136288104512
 20
1163.543571526318
 30
0.0
 11
107.4136288104663
 21
1243.543571526333
 31
0.0
  0
LINE
  5
1D6
330
1F
100
AcDbEntity
  8
0-C
  6
JWW_DASHED1
 62
   120
370
     5
100
AcDbLine
 10
27.41362881045632
 20
1173.443066461485
 30
0.0
 11
107.4136288104552
 21
1253.443066461484
 31
0.0
  0
LINE
  5
1D7
330
1F
100
AcDbEntity
  8
0-C
  6
JWW_DASHED1
 62
   120
370
     5
100
AcDbLine
 10
27.41362881046228
 20
1183.342561396707
 30
0.0
 11
107.4136288104611
 21
1263.342561396706
 31
0.0
  0
LINE
  5
1D8
330
1F
100
AcDbEntity
  8
0-C
  6
JWW_DASHED1
 62
   120
370
     5
100
AcDbLine
 10
27.4136288104495
 20
1193.242056331856
 30
0.0
 11
107.4136288104637
 21
1273.242056331871
 31
0.0
  0
LINE
  5
1D9
330
1F
100
AcDbEntity
  8
0-C
  6
JWW_DASHED1
 62
   120
370
     5
100
AcDbLine
 10
27.41362881045887
 20
1203.141551267082
 30
0.0
 11
107.4136288104569
 21
1283.141551267081
 31
0.0
  0
LINE
  5
1DA
330
1F
100
AcDbEntity
  8
0-C
  6
JWW_DASHED1
 62
   120
370
     5
100
AcDbLine
 10
27.41362881046484
 20
1213.041046202304
 30
0.0
 11
107.4136288104637
 21
1293.041046202303
 31
0.0
  0
LINE
  5
1DB
330
1F
100
AcDbEntity
  8
0-C
  6
JWW_DASHED1
 62
   120
370
     5
100
AcDbLine
 10
27.4136288104512
 20
1222.940541137453
 30
0.0
 11
107.4136288104671
 21
1302.940541137468
 31
0.0
  0
LINE
  5
1DC
330
1F
100
AcDbEntity
  8
0-C
  6
JWW_DASHED1
 62
   120
370
     5
100
AcDbLine
 10
27.41362881046143
 20
1232.840036072679
 30
0.0
 11
107.4136288104594
 21
1312.840036072677
 31
0.0
  0
LINE
  5
1DD
330
1F
100
AcDbEntity
  8
0-C
  6
JWW_DASHED1
 62
   120
370
     5
100
AcDbLine
 10
27.41362881046655
 20
1242.739531007901
 30
0.0
 11
107.4136288104654
 21
1322.7395310079
 31
0.0
  0
LINE
  5
1DE
330
1F
100
AcDbEntity
  8
0-C
  6
JWW_DASHED1
 62
   120
370
     5
100
AcDbLine
 10
27.41362881045461
 20
1252.63902594305
 30
0.0
 11
107.4136288104688
 21
1332.639025943065
 31
0.0
  0
LINE
  5
1DF
330
1F
100
AcDbEntity
  8
0-C
  6
JWW_DASHED1
 62
   120
370
     5
100
AcDbLine
 10
27.41362881046314
 20
1262.538520878275
 30
0.0
 11
107.413628810462
 21
1342.538520878274
 31
0.0
  0
LINE
  5
1E0
330
1F
100
AcDbEntity
  8
0-C
  6
JWW_DASHED1
 62
   120
370
     5
100
AcDbLine
 10
27.41362881046996
 20
1272.438015813498
 30
0.0
 11
107.4136288104688
 21
1352.438015813497
 31
0.0
  0
LINE
  5
1E1
330
1F
100
AcDbEntity
  8
0-C
  6
JWW_DASHED1
 62
   120
370
     5
100
AcDbLine
 10
27.41362881045632
 20
1282.337510748647
 30
0.0
 11
107.4136288104722
 21
1362.337510748662
 31
0.0
  0
LINE
  5
1E2
330
1F
100
AcDbEntity
  8
0-C
  6
JWW_DASHED1
 62
   120
370
     5
100
AcDbLine
 10
27.41362881046484
 20
1292.237005683871
 30
0.0
 11
107.4136288104637
 21
1372.23700568387
 31
0.0
  0
LINE
  5
1E3
330
1F
100
AcDbEntity
  8
0-C
  6
JWW_DASHED1
 62
   120
370
     5
100
AcDbLine
 10
27.41362881045802
 20
1302.136500619081
 30
0.0
 11
107.4136288104552
 21
1382.136500619077
 31
0.0
  0
LINE
  5
1E4
330
1F
100
AcDbEntity
  8
0-C
  6
JWW_DASHED1
 62
   120
370
     5
100
AcDbLine
 10
27.41362881045973
 20
1312.035995554244
 30
0.0
 11
107.4136288104586
 21
1392.035995554243
 31
0.0
  0
LINE
  5
1E5
330
1F
100
AcDbEntity
  8
0-C
  6
JWW_DASHED1
 62
   120
370
     5
100
AcDbLine
 10
27.4136288104512
 20
1321.935490489452
 30
0.0
 11
107.4136288104654
 21
1401.935490489467
 31
0.0
  0
LINE
  5
1E6
330
1F
100
AcDbEntity
  8
0-C
  6
JWW_DASHED1
 62
   120
370
     5
100
AcDbLine
 10
27.41362881045973
 20
1331.834985424676
 30
0.0
 11
107.4136288104577
 21
1411.834985424675
 31
0.0
  0
LINE
  5
1E7
330
1F
100
AcDbEntity
  8
0-C
  6
JWW_DASHED1
 62
   120
370
     5
100
AcDbLine
 10
27.41362881046143
 20
1341.734480359841
 30
0.0
 11
107.4136288104603
 21
1421.73448035984
 31
0.0
  0
LINE
  5
1E8
330
1F
100
AcDbEntity
  8
0-C
  6
JWW_DASHED1
 62
   120
370
     5
100
AcDbLine
 10
27.41362881045376
 20
1351.633975295049
 30
0.0
 11
107.4136288104688
 21
1431.633975295064
 31
0.0
  0
LINE
  5
1E9
330
1F
100
AcDbEntity
  8
0-C
  6
JWW_DASHED1
 62
   120
370
     5
100
AcDbLine
 10
27.41362881046143
 20
1361.533470230274
 30
0.0
 11
107.4136288104603
 21
1441.533470230272
 31
0.0
  0
LINE
  5
1EA
330
1F
100
AcDbEntity
  8
0-C
  6
JWW_DASHED1
 62
   120
370
     5
100
AcDbLine
 10
27.41362881046399
 20
1371.432965165438
 30
0.0
 11
107.0668845246928
 21
1451.086220879667
 31
0.0
  0
LINE
  5
1EB
330
1F
100
AcDbEntity
  8
0-C
  6
JWW_DASHED1
 62
   120
370
     5
100
AcDbLine
 10
27.41362881045632
 20
1381.332460100646
 30
0.0
 11
97.16738958947133
 21
1451.086220879661
 31
0.0
  0
LINE
  5
1EC
330
1F
100
AcDbEntity
  8
0-C
  6
JWW_DASHED1
 62
   120
370
     5
100
AcDbLine
 10
27.41362881045973
 20
1391.231955035811
 30
0.0
 11
87.26789465431978
 21
1451.086220879672
 31
0.0
  0
LINE
  5
1ED
330
1F
100
AcDbEntity
  8
0-C
  6
JWW_DASHED1
 62
   120
370
     5
100
AcDbLine
 10
27.41362881046655
 20
1401.131449971034
 30
0.0
 11
77.3683997190966
 21
1451.086220879665
 31
0.0
  0
LINE
  5
1EE
330
1F
100
AcDbEntity
  8
0-C
  6
JWW_DASHED1
 62
   120
370
     5
100
AcDbLine
 10
27.41362881045802
 20
1411.030944906243
 30
0.0
 11
67.46890478388025
 21
1451.086220879665
 31
0.0
  0
LINE
  5
1EF
330
1F
100
AcDbEntity
  8
0-C
  6
JWW_DASHED1
 62
   120
370
     5
100
AcDbLine
 10
27.41362881046143
 20
1420.930439841408
 30
0.0
 11
57.56940984872358
 21
1451.08622087967
 31
0.0
  0
LINE
  5
1F0
330
1F
100
AcDbEntity
  8
0-C
  6
JWW_DASHED1
 62
   120
370
     5
100
AcDbLine
 10
27.41362881046911
 20
1430.829934776632
 30
0.0
 11
47.66991491349955
 21
1451.086220879663
 31
0.0
  0
LINE
  5
1F1
330
1F
100
AcDbEntity
  8
0-C
  6
JWW_DASHED1
 62
   120
370
     5
100
AcDbLine
 10
27.41362881046143
 20
1440.72942971184
 30
0.0
 11
37.77041997829087
 21
1451.08622087967
 31
0.0
  0
LINE
  5
1F2
330
1F
100
AcDbEntity
  8
0-C
  6
JWW_DASHED1
 62
   120
370
     5
100
AcDbLine
 10
27.41362881046399
 20
1450.628924647005
 30
0.0
 11
27.87092504312568
 21
1451.086220879667
 31
0.0
  0
ENDSEC
  0
SECTION
  2
OBJECTS
  0
DICTIONARY
  5
C
330
0
100
AcDbDictionary
281
     1
  3
ACAD_DETAILVIEWSTYLE
350
22A
  3
ACAD_GROUP
350
D
  3
ACAD_LAYOUT
350
1A
  3
ACAD_MATERIAL
350
43
  3
ACAD_MLEADERSTYLE
350
6B
  3
ACAD_MLINESTYLE
350
17
  3
ACAD_PLOTSETTINGS
350
19
  3
ACAD_PLOTSTYLENAME
350
E
  3
ACAD_SCALELIST
350
47
  3
ACAD_SECTIONVIEWSTYLE
350
22B
  3
ACAD_TABLESTYLE
350
69
  3
ACAD_VISUALSTYLE
350
2A
  3
ACDB_RECOMPOSE_DATA
350
227
  3
AcDbVariableDictionary
350
1F3
  0
SUN
  5
6D
330
29
100
AcDbSun
 90
        1
290
     0
 63
     7
421
 16777215
 40
1.0
291
     1
 91
  2455826
 92
 54000000
292
     0
 70
     2
 71
   256
280
     1
  0
DICTIONARY
  5
22A
102
{ACAD_REACTORS
330
C
102
}
330
C
100
AcDbDictionary
281
     1
  0
DICTIONARY
  5
D
102
{ACAD_REACTORS
330
C
102
}
330
C
100
AcDbDictionary
281
     1
  0
DICTIONARY
  5
1A
102
{ACAD_REACTORS
330
C
102
}
330
C
100
AcDbDictionary
281
     1
  3
Layout1
350
1E
  3
Layout2
350
26
  3
Model
350
22
  0
DICTIONARY
  5
43
102
{ACAD_REACTORS
330
C
102
}
330
C
100
AcDbDictionary
281
     1
  3
ByBlock
350
45
  3
ByLayer
350
44
  3
Global
350
46
  0
DICTIONARY
  5
6B
102
{ACAD_REACTORS
330
C
102
}
330
C
100
AcDbDictionary
281
     1
  3
Standard
350
6C
  0
DICTIONARY
  5
17
102
{ACAD_REACTORS
330
C
102
}
330
C
100
AcDbDictionary
281
     1
  3
Standard
350
18
  0
DICTIONARY
  5
19
102
{ACAD_REACTORS
330
C
102
}
330
C
100
AcDbDictionary
281
     1
  0
ACDBDICTIONARYWDFLT
  5
E
102
{ACAD_REACTORS
330
C
102
}
330
C
100
AcDbDictionary
281
     1
  3
Normal
350
F
100
AcDbDictionaryWithDefault
340
F
  0
DICTIONARY
  5
47
102
{ACAD_REACTORS
330
C
102
}
330
C
100
AcDbDictionary
281
     1
  3
A0
350
48
  3
A1
350
49
  3
A2
350
4A
  3
A3
350
4B
  3
A4
350
4C
  3
A5
350
4D
  3
A6
350
4E
  3
A7
350
4F
  3
A8
350
50
  3
A9
350
51
  3
B0
350
52
  3
B1
350
53
  3
B2
350
54
  3
B3
350
55
  3
B4
350
56
  3
B5
350
57
  3
B6
350
58
  3
B7
350
59
  3
B8
350
5A
  3
B9
350
5B
  3
C0
350
5C
  3
C1
350
5D
  3
C2
350
5E
  3
C3
350
5F
  3
C4
350
60
  3
C5
350
61
  3
C6
350
62
  3
C7
350
63
  3
C8
350
64
  3
C9
350
65
  3
D0
350
66
  3
D1
350
67
  3
D2
350
68
  0
DICTIONARY
  5
22B
102
{ACAD_REACTORS
330
C
102
}
330
C
100
AcDbDictionary
281
     1
  0
DICTIONARY
  5
69
102
{ACAD_REACTORS
330
C
102
}
330
C
100
AcDbDictionary
281
     1
  3
Standard
350
6A
  0
DICTIONARY
  5
2A
102
{ACAD_REACTORS
330
C
102
}
330
C
100
AcDbDictionary
281
     1
  3
2dWireframe
350
2F
  3
Basic
350
32
  3
Brighten
350
36
  3
ColorChange
350
3A
  3
Conceptual
350
34
  3
Dim
350
35
  3
EdgeColorOff
350
3D
  3
Facepattern
350
39
  3
Flat
350
2B
  3
FlatWithEdges
350
2C
  3
Gouraud
350
2D
  3
GouraudWithEdges
350
2E
  3
Hidden
350
31
  3
JitterOff
350
3B
  3
Linepattern
350
38
  3
OverhangOff
350
3C
  3
Realistic
350
33
  3
Shaded
350
42
  3
Shaded with edges
350
41
  3
Shades of Gray
350
3E
  3
Sketchy
350
3F
  3
Thicken
350
37
  3
Wireframe
350
30
  3
X-Ray
350
40
  0
XRECORD
  5
227
102
{ACAD_REACTORS
330
C
102
}
330
C
100
AcDbXrecord
280
     1
 90
        1
330
6A
  0
DICTIONARY
  5
1F3
102
{ACAD_REACTORS
330
C
102
}
330
C
100
AcDbDictionary
281
     1
  3
CANNOSCALE
350
1F4
  3
CENTEREXE
350
22C
  3
CENTERLTYPEFILE
350
22D
  3
CMLEADERSTYLE
350
229
  3
CTABLESTYLE
350
228
  0
LAYOUT
  5
1E
102
{ACAD_REACTORS
330
1A
102
}
330
1A
100
AcDbPlotSettings
  1

  2
none_device
  4

  6

 40
0.0
 41
0.0
 42
0.0
 43
0.0
 44
0.0
 45
0.0
 46
0.0
 47
0.0
 48
0.0
 49
0.0
140
0.0
141
0.0
142
1.0
143
1.0
 70
   688
 72
     1
 73
     0
 74
     5
  7

 75
    16
 76
     0
 77
     5
 78
   300
147
1.0
148
0.0
149
0.0
100
AcDbLayout
  1
Layout1
 70
     1
 71
     1
 10
0.0
 20
0.0
 11
420.0
 21
297.0
 12
0.0
 22
0.0
 32
0.0
 14
1.000000000000000E+20
 24
1.000000000000000E+20
 34
1.000000000000000E+20
 15
-1.000000000000000E+20
 25
-1.000000000000000E+20
 35
-1.000000000000000E+20
146
0.0
 13
0.0
 23
0.0
 33
0.0
 16
1.0
 26
0.0
 36
0.0
 17
0.0
 27
1.0
 37
0.0
 76
     0
330
1B
  0
LAYOUT
  5
26
102
{ACAD_REACTORS
330
1A
102
}
330
1A
100
AcDbPlotSettings
  1

  2
none_device
  4

  6

 40
0.0
 41
0.0
 42
0.0
 43
0.0
 44
0.0
 45
0.0
 46
0.0
 47
0.0
 48
0.0
 49
0.0
140
0.0
141
0.0
142
1.0
143
1.0
 70
   688
 72
     1
 73
     0
 74
     5
  7

 75
    16
 76
     0
 77
     5
 78
   300
147
1.0
148
0.0
149
0.0
100
AcDbLayout
  1
Layout2
 70
     1
 71
     2
 10
0.0
 20
0.0
 11
0.0
 21
0.0
 12
0.0
 22
0.0
 32
0.0
 14
0.0
 24
0.0
 34
0.0
 15
0.0
 25
0.0
 35
0.0
146
0.0
 13
0.0
 23
0.0
 33
0.0
 16
1.0
 26
0.0
 36
0.0
 17
0.0
 27
1.0
 37
0.0
 76
     0
330
23
  0
LAYOUT
  5
22
102
{ACAD_REACTORS
330
1A
102
}
330
1A
100
AcDbPlotSettings
  1

  2
none_device
  4
Letter_(8.50_x_11.00_Inches)
  6

 40
6.35
 41
6.35
 42
6.35000508
 43
6.35000508
 44
215.9
 45
279.4
 46
0.0
 47
0.0
 48
0.0
 49
0.0
140
0.0
141
0.0
142
1.0
143
1.0
 70
  1712
 72
     1
 73
     0
 74
     0
  7

 75
     0
 76
     0
 77
     5
 78
   300
147
1.0
148
0.0
149
0.0
100
AcDbLayout
  1
Model
 70
     1
 71
     0
 10
-4455.0
 20
-3150.0
 11
4455.0
 21
3150.0
 12
0.0
 22
0.0
 32
0.0
 14
-4455.0
 24
-3150.0
 34
0.0
 15
4455.0
 25
3150.0
 35
0.0
146
0.0
 13
0.0
 23
0.0
 33
0.0
 16
1.0
 26
0.0
 36
0.0
 17
0.0
 27
1.0
 37
0.0
 76
     0
330
1F
331
29
  0
MATERIAL
  5
45
102
{ACAD_REACTORS
330
43
102
}
330
43
100
AcDbMaterial
  1
ByBlock
 72
     1
 94
      127
  0
MATERIAL
  5
44
102
{ACAD_REACTORS
330
43
102
}
330
43
100
AcDbMaterial
  1
ByLayer
 72
     1
 94
      127
  0
MATERIAL
  5
46
102
{ACAD_REACTORS
330
43
102
}
330
43
100
AcDbMaterial
  1
Global
 72
     1
 94
      127
  0
MLEADERSTYLE
  5
6C
102
{ACAD_REACTORS
330
6B
102
}
330
6B
100
AcDbMLeaderStyle
179
     2
170
     2
171
     1
172
     0
 90
        2
 40
0.0
 41
0.0
173
     1
 91
-1056964608
340
14
 92
       -2
290
     1
 42
2.0
291
     1
 43
8.0
  3
Standard
341
0
 44
4.0
300

342
11
174
     1
178
     6
175
     1
176
     0
 93
-1056964608
 45
4.0
292
     0
297
     0
 46
4.0
343
0
 94
-1056964608
 47
1.0
 49
1.0
140
1.0
293
     1
141
0.0
294
     1
177
     0
142
1.0
295
     0
296
     0
143
3.75
271
     0
272
     9
273
     9
  0
MLINESTYLE
  5
18
102
{ACAD_REACTORS
330
17
102
}
330
17
100
AcDbMlineStyle
  2
Standard
 70
     0
  3

 62
   256
 51
90.0
 52
90.0
 71
     2
 49
0.5
 62
   256
  6
BYLAYER
 49
-0.5
 62
   256
  6
BYLAYER
  0
ACDBPLACEHOLDER
  5
F
102
{ACAD_REACTORS
330
E
102
}
330
E
  0
SCALE
  5
48
102
{ACAD_REACTORS
330
47
102
}
330
47
100
AcDbScale
 70
     0
300
1:1
140
1.0
141
1.0
290
     1
  0
SCALE
  5
49
102
{ACAD_REACTORS
330
47
102
}
330
47
100
AcDbScale
 70
     0
300
1:2
140
1.0
141
2.0
290
     0
  0
SCALE
  5
4A
102
{ACAD_REACTORS
330
47
102
}
330
47
100
AcDbScale
 70
     0
300
1:4
140
1.0
141
4.0
290
     0
  0
SCALE
  5
4B
102
{ACAD_REACTORS
330
47
102
}
330
47
100
AcDbScale
 70
     0
300
1:5
140
1.0
141
5.0
290
     0
  0
SCALE
  5
4C
102
{ACAD_REACTORS
330
47
102
}
330
47
100
AcDbScale
 70
     0
300
1:8
140
1.0
141
8.0
290
     0
  0
SCALE
  5
4D
102
{ACAD_REACTORS
330
47
102
}
330
47
100
AcDbScale
 70
     0
300
1:10
140
1.0
141
10.0
290
     0
  0
SCALE
  5
4E
102
{ACAD_REACTORS
330
47
102
}
330
47
100
AcDbScale
 70
     0
300
1:16
140
1.0
141
16.0
290
     0
  0
SCALE
  5
4F
102
{ACAD_REACTORS
330
47
102
}
330
47
100
AcDbScale
 70
     0
300
1:20
140
1.0
141
20.0
290
     0
  0
SCALE
  5
50
102
{ACAD_REACTORS
330
47
102
}
330
47
100
AcDbScale
 70
     0
300
1:30
140
1.0
141
30.0
290
     0
  0
SCALE
  5
51
102
{ACAD_REACTORS
330
47
102
}
330
47
100
AcDbScale
 70
     0
300
1:40
140
1.0
141
40.0
290
     0
  0
SCALE
  5
52
102
{ACAD_REACTORS
330
47
102
}
330
47
100
AcDbScale
 70
     0
300
1:50
140
1.0
141
50.0
290
     0
  0
SCALE
  5
53
102
{ACAD_REACTORS
330
47
102
}
330
47
100
AcDbScale
 70
     0
300
1:100
140
1.0
141
100.0
290
     0
  0
SCALE
  5
54
102
{ACAD_REACTORS
330
47
102
}
330
47
100
AcDbScale
 70
     0
300
2:1
140
2.0
141
1.0
290
     0
  0
SCALE
  5
55
102
{ACAD_REACTORS
330
47
102
}
330
47
100
AcDbScale
 70
     0
300
4:1
140
4.0
141
1.0
290
     0
  0
SCALE
  5
56
102
{ACAD_REACTORS
330
47
102
}
330
47
100
AcDbScale
 70
     0
300
8:1
140
8.0
141
1.0
290
     0
  0
SCALE
  5
57
102
{ACAD_REACTORS
330
47
102
}
330
47
100
AcDbScale
 70
     0
300
10:1
140
10.0
141
1.0
290
     0
  0
SCALE
  5
58
102
{ACAD_REACTORS
330
47
102
}
330
47
100
AcDbScale
 70
     0
300
100:1
140
100.0
141
1.0
290
     0
  0
SCALE
  5
59
102
{ACAD_REACTORS
330
47
102
}
330
47
100
AcDbScale
 70
     0
300
1/128" = 1'-0"
140
0.0078125
141
12.0
290
     0
  0
SCALE
  5
5A
102
{ACAD_REACTORS
330
47
102
}
330
47
100
AcDbScale
 70
     0
300
1/64" = 1'-0"
140
0.015625
141
12.0
290
     0
  0
SCALE
  5
5B
102
{ACAD_REACTORS
330
47
102
}
330
47
100
AcDbScale
 70
     0
300
1/32" = 1'-0"
140
0.03125
141
12.0
290
     0
  0
SCALE
  5
5C
102
{ACAD_REACTORS
330
47
102
}
330
47
100
AcDbScale
 70
     0
300
1/16" = 1'-0"
140
0.0625
141
12.0
290
     0
  0
SCALE
  5
5D
102
{ACAD_REACTORS
330
47
102
}
330
47
100
AcDbScale
 70
     0
300
3/32" = 1'-0"
140
0.09375
141
12.0
290
     0
  0
SCALE
  5
5E
102
{ACAD_REACTORS
330
47
102
}
330
47
100
AcDbScale
 70
     0
300
1/8" = 1'-0"
140
0.125
141
12.0
290
     0
  0
SCALE
  5
5F
102
{ACAD_REACTORS
330
47
102
}
330
47
100
AcDbScale
 70
     0
300
3/16" = 1'-0"
140
0.1875
141
12.0
290
     0
  0
SCALE
  5
60
102
{ACAD_REACTORS
330
47
102
}
330
47
100
AcDbScale
 70
     0
300
1/4" = 1'-0"
140
0.25
141
12.0
290
     0
  0
SCALE
  5
61
102
{ACAD_REACTORS
330
47
102
}
330
47
100
AcDbScale
 70
     0
300
3/8" = 1'-0"
140
0.375
141
12.0
290
     0
  0
SCALE
  5
62
102
{ACAD_REACTORS
330
47
102
}
330
47
100
AcDbScale
 70
     0
300
1/2" = 1'-0"
140
0.5
141
12.0
290
     0
  0
SCALE
  5
63
102
{ACAD_REACTORS
330
47
102
}
330
47
100
AcDbScale
 70
     0
300
3/4" = 1'-0"
140
0.75
141
12.0
290
     0
  0
SCALE
  5
64
102
{ACAD_REACTORS
330
47
102
}
330
47
100
AcDbScale
 70
     0
300
1" = 1'-0"
140
1.0
141
12.0
290
     0
  0
SCALE
  5
65
102
{ACAD_REACTORS
330
47
102
}
330
47
100
AcDbScale
 70
     0
300
1-1/2" = 1'-0"
140
1.5
141
12.0
290
     0
  0
SCALE
  5
66
102
{ACAD_REACTORS
330
47
102
}
330
47
100
AcDbScale
 70
     0
300
3" = 1'-0"
140
3.0
141
12.0
290
     0
  0
SCALE
  5
67
102
{ACAD_REACTORS
330
47
102
}
330
47
100
AcDbScale
 70
     0
300
6" = 1'-0"
140
6.0
141
12.0
290
     0
  0
SCALE
  5
68
102
{ACAD_REACTORS
330
47
102
}
330
47
100
AcDbScale
 70
     0
300
1'-0" = 1'-0"
140
12.0
141
12.0
290
     0
  0
TABLESTYLE
  5
6A
102
{ACAD_REACTORS
330
69
102
}
102
{ACAD_XDICTIONARY
360
225
102
}
330
69
100
AcDbTableStyle
  3
Standard
 70
     0
 71
     0
 40
0.06
 41
0.06
280
     0
281
     0
  7
Standard
140
4.5
170
     2
 62
     0
 63
   257
283
     0
 90
        4
 91
        0
  1

274
    -2
284
     1
 64
     0
275
    -2
285
     1
 65
     0
276
    -2
286
     1
 66
     0
277
    -2
287
     1
 67
     0
278
    -2
288
     1
 68
     0
279
    -2
289
     1
 69
     0
  7
Standard
140
6.0
170
     5
 62
     0
 63
   257
283
     0
 90
        4
 91
        0
  1

274
    -2
284
     1
 64
     0
275
    -2
285
     1
 65
     0
276
    -2
286
     1
 66
     0
277
    -2
287
     1
 67
     0
278
    -2
288
     1
 68
     0
279
    -2
289
     1
 69
     0
  7
Standard
140
4.5
170
     5
 62
     0
 63
   257
283
     0
 90
        4
 91
        0
  1

274
    -2
284
     1
 64
     0
275
    -2
285
     1
 65
     0
276
    -2
286
     1
 66
     0
277
    -2
287
     1
 67
     0
278
    -2
288
     1
 68
     0
279
    -2
289
     1
 69
     0
  0
VISUALSTYLE
  5
2F
102
{ACAD_REACTORS
330
2A
102
}
102
{ACAD_XDICTIONARY
360
1FD
102
}
330
2A
100
AcDbVisualStyle
  2
2dWireframe
 70
     4
177
     2
291
     0
 71
     0
176
     1
 72
     2
176
     1
 73
     0
176
     1
 90
        0
176
     1
 40
0.6
176
     1
 41
30.0
176
     1
 62
     5
 63
     7
421
 16777215
176
     1
 74
     1
176
     1
 91
        4
176
     1
 64
     7
176
     1
 65
   257
176
     1
 75
     1
176
     1
175
     1
176
     1
 42
1.0
176
     1
 92
        0
176
     1
 66
   257
176
     1
 43
1.0
176
     1
 76
     1
176
     1
 77
     6
176
     1
 78
     2
176
     1
 67
     7
176
     1
 79
     5
176
     1
170
     0
176
     1
171
     0
176
     1
290
     0
176
     1
 93
        1
176
     1
 44
0.0
176
     1
173
     0
176
     1
  0
VISUALSTYLE
  5
32
102
{ACAD_REACTORS
330
2A
102
}
102
{ACAD_XDICTIONARY
360
203
102
}
330
2A
100
AcDbVisualStyle
  2
Basic
 70
     7
177
     2
291
     1
 71
     1
176
     1
 72
     0
176
     1
 73
     1
176
     1
 90
        0
176
     1
 40
0.6
176
     1
 41
30.0
176
     1
 62
     5
 63
     7
421
 16777215
176
     1
 74
     0
176
     1
 91
        4
176
     1
 64
     7
176
     1
 65
   257
176
     1
 75
     1
176
     1
175
     1
176
     1
 42
1.0
176
     1
 92
        8
176
     1
 66
     7
176
     1
 43
1.0
176
     1
 76
     1
176
     1
 77
     6
176
     1
 78
     2
176
     1
 67
     7
176
     1
 79
     5
176
     1
170
     0
176
     1
171
     0
176
     1
290
     0
176
     1
 93
        1
176
     1
 44
0.0
176
     1
173
     0
176
     1
  0
VISUALSTYLE
  5
36
102
{ACAD_REACTORS
330
2A
102
}
102
{ACAD_XDICTIONARY
360
20B
102
}
330
2A
100
AcDbVisualStyle
  2
Brighten
 70
    12
177
     2
291
     1
 71
     2
176
     1
 72
     2
176
     1
 73
     0
176
     1
 90
        0
176
     1
 40
0.6
176
     1
 41
30.0
176
     1
 62
     5
 63
     7
421
 16777215
176
     1
 74
     1
176
     1
 91
        4
176
     1
 64
     7
176
     1
 65
   257
176
     1
 75
     1
176
     1
175
     1
176
     1
 42
1.0
176
     1
 92
        8
176
     1
 66
     7
176
     1
 43
1.0
176
     1
 76
     1
176
     1
 77
     6
176
     1
 78
     2
176
     1
 67
     7
176
     1
 79
     5
176
     1
170
     0
176
     1
171
     0
176
     1
290
     0
176
     1
 93
        1
176
     1
 44
50.0
176
     1
173
     0
176
     1
  0
VISUALSTYLE
  5
3A
102
{ACAD_REACTORS
330
2A
102
}
102
{ACAD_XDICTIONARY
360
213
102
}
330
2A
100
AcDbVisualStyle
  2
ColorChange
 70
    16
177
     2
291
     1
 71
     2
176
     1
 72
     2
176
     1
 73
     3
176
     1
 90
        0
176
     1
 40
0.6
176
     1
 41
30.0
176
     1
 62
     5
 63
     8
421
  8421504
176
     1
 74
     1
176
     1
 91
        4
176
     1
 64
     7
176
     1
 65
   257
176
     1
 75
     1
176
     1
175
     1
176
     1
 42
1.0
176
     1
 92
        8
176
     1
 66
     8
424
  8421504
176
     1
 43
1.0
176
     1
 76
     1
176
     1
 77
     6
176
     1
 78
     2
176
     1
 67
     7
176
     1
 79
     5
176
     1
170
     0
176
     1
171
     0
176
     1
290
     0
176
     1
 93
        1
176
     1
 44
0.0
176
     1
173
     0
176
     1
  0
VISUALSTYLE
  5
34
102
{ACAD_REACTORS
330
2A
102
}
102
{ACAD_XDICTIONARY
360
207
102
}
330
2A
100
AcDbVisualStyle
  2
Conceptual
 70
     9
177
     2
291
     0
 71
     3
176
     1
 72
     2
176
     1
 73
     0
176
     1
 90
        0
176
     1
 40
0.6
176
     1
 41
30.0
176
     1
 62
     5
 63
     7
421
 16777215
176
     1
 74
     2
176
     1
 91
        2
176
     1
 64
     7
176
     1
 65
   257
176
     1
 75
     1
176
     1
175
     1
176
     1
 42
179.0
176
     1
 92
        8
176
     1
 66
     7
176
     1
 43
1.0
176
     1
 76
     1
176
     1
 77
     6
176
     1
 78
     2
176
     1
 67
     7
176
     1
 79
     3
176
     1
170
     0
176
     1
171
     0
176
     1
290
     0
176
     1
 93
        1
176
     1
 44
0.0
176
     1
173
     0
176
     1
  0
VISUALSTYLE
  5
35
102
{ACAD_REACTORS
330
2A
102
}
102
{ACAD_XDICTIONARY
360
209
102
}
330
2A
100
AcDbVisualStyle
  2
Dim
 70
    11
177
     2
291
     1
 71
     2
176
     1
 72
     2
176
     1
 73
     0
176
     1
 90
        0
176
     1
 40
0.6
176
     1
 41
30.0
176
     1
 62
     5
 63
     7
421
 16777215
176
     1
 74
     1
176
     1
 91
        4
176
     1
 64
     7
176
     1
 65
   257
176
     1
 75
     1
176
     1
175
     1
176
     1
 42
1.0
176
     1
 92
        8
176
     1
 66
     7
176
     1
 43
1.0
176
     1
 76
     1
176
     1
 77
     6
176
     1
 78
     2
176
     1
 67
     7
176
     1
 79
     5
176
     1
170
     0
176
     1
171
     0
176
     1
290
     0
176
     1
 93
        1
176
     1
 44
-50.0
176
     1
173
     0
176
     1
  0
VISUALSTYLE
  5
3D
102
{ACAD_REACTORS
330
2A
102
}
102
{ACAD_XDICTIONARY
360
219
102
}
330
2A
100
AcDbVisualStyle
  2
EdgeColorOff
 70
    22
177
     2
291
     1
 71
     2
176
     0
 72
     2
176
     0
 73
     0
176
     0
 90
        0
176
     0
 40
0.6
176
     0
 41
30.0
176
     0
 62
     5
 63
     7
421
 16777215
176
     0
 74
     1
176
     0
 91
        4
176
     0
 64
     7
176
     0
 65
   257
176
     0
 75
     1
176
     0
175
     1
176
     0
 42
1.0
176
     0
 92
        8
176
     2
 66
     7
176
     0
 43
1.0
176
     0
 76
     1
176
     0
 77
     6
176
     0
 78
     2
176
     0
 67
     7
176
     0
 79
     5
176
     0
170
     0
176
     0
171
     0
176
     0
290
     0
176
     0
 93
        1
176
     0
 44
0.0
176
     0
173
     0
176
     0
  0
VISUALSTYLE
  5
39
102
{ACAD_REACTORS
330
2A
102
}
102
{ACAD_XDICTIONARY
360
211
102
}
330
2A
100
AcDbVisualStyle
  2
Facepattern
 70
    15
177
     2
291
     1
 71
     2
176
     1
 72
     2
176
     1
 73
     0
176
     1
 90
        0
176
     1
 40
0.6
176
     1
 41
30.0
176
     1
 62
     5
 63
     7
421
 16777215
176
     1
 74
     1
176
     1
 91
        4
176
     1
 64
     7
176
     1
 65
   257
176
     1
 75
     1
176
     1
175
     1
176
     1
 42
1.0
176
     1
 92
        8
176
     1
 66
     7
176
     1
 43
1.0
176
     1
 76
     1
176
     1
 77
     6
176
     1
 78
     2
176
     1
 67
     7
176
     1
 79
     5
176
     1
170
     0
176
     1
171
     0
176
     1
290
     0
176
     1
 93
        1
176
     1
 44
0.0
176
     1
173
     0
176
     1
  0
VISUALSTYLE
  5
2B
102
{ACAD_REACTORS
330
2A
102
}
102
{ACAD_XDICTIONARY
360
1F5
102
}
330
2A
100
AcDbVisualStyle
  2
Flat
 70
     0
177
     2
291
     1
 71
     2
176
     1
 72
     1
176
     1
 73
     1
176
     1
 90
        2
176
     1
 40
0.6
176
     1
 41
30.0
176
     1
 62
     5
 63
     7
421
 16777215
176
     1
 74
     0
176
     1
 91
        0
176
     1
 64
     7
176
     1
 65
   257
176
     1
 75
     1
176
     1
175
     1
176
     1
 42
1.0
176
     1
 92
        8
176
     1
 66
     7
176
     1
 43
1.0
176
     1
 76
     1
176
     1
 77
     6
176
     1
 78
     2
176
     1
 67
     7
176
     1
 79
     5
176
     1
170
     0
176
     1
171
     0
176
     1
290
     0
176
     1
 93
       13
176
     1
 44
0.0
176
     1
173
     0
176
     1
  0
VISUALSTYLE
  5
2C
102
{ACAD_REACTORS
330
2A
102
}
102
{ACAD_XDICTIONARY
360
1F7
102
}
330
2A
100
AcDbVisualStyle
  2
FlatWithEdges
 70
     1
177
     2
291
     1
 71
     2
176
     1
 72
     1
176
     1
 73
     1
176
     1
 90
        2
176
     1
 40
0.6
176
     1
 41
30.0
176
     1
 62
     5
 63
     7
421
 16777215
176
     1
 74
     1
176
     1
 91
        0
176
     1
 64
     7
176
     1
 65
   257
176
     1
 75
     1
176
     1
175
     1
176
     1
 42
1.0
176
     1
 92
        0
176
     1
 66
   257
176
     1
 43
1.0
176
     1
 76
     1
176
     1
 77
     6
176
     1
 78
     2
176
     1
 67
     7
176
     1
 79
     5
176
     1
170
     0
176
     1
171
     0
176
     1
290
     0
176
     1
 93
       13
176
     1
 44
0.0
176
     1
173
     0
176
     1
  0
VISUALSTYLE
  5
2D
102
{ACAD_REACTORS
330
2A
102
}
102
{ACAD_XDICTIONARY
360
1F9
102
}
330
2A
100
AcDbVisualStyle
  2
Gouraud
 70
     2
177
     2
291
     1
 71
     2
176
     1
 72
     2
176
     1
 73
     1
176
     1
 90
        2
176
     1
 40
0.6
176
     1
 41
30.0
176
     1
 62
     5
 63
     7
421
 16777215
176
     1
 74
     0
176
     1
 91
        0
176
     1
 64
     7
176
     1
 65
   257
176
     1
 75
     1
176
     1
175
     1
176
     1
 42
1.0
176
     1
 92
        0
176
     1
 66
     7
176
     1
 43
1.0
176
     1
 76
     1
176
     1
 77
     6
176
     1
 78
     2
176
     1
 67
     7
176
     1
 79
     5
176
     1
170
     0
176
     1
171
     0
176
     1
290
     0
176
     1
 93
       13
176
     1
 44
0.0
176
     1
173
     0
176
     1
  0
VISUALSTYLE
  5
2E
102
{ACAD_REACTORS
330
2A
102
}
102
{ACAD_XDICTIONARY
360
1FB
102
}
330
2A
100
AcDbVisualStyle
  2
GouraudWithEdges
 70
     3
177
     2
291
     1
 71
     2
176
     1
 72
     2
176
     1
 73
     1
176
     1
 90
        2
176
     1
 40
0.6
176
     1
 41
30.0
176
     1
 62
     5
 63
     7
421
 16777215
176
     1
 74
     1
176
     1
 91
        0
176
     1
 64
     7
176
     1
 65
   257
176
     1
 75
     1
176
     1
175
     1
176
     1
 42
1.0
176
     1
 92
        0
176
     1
 66
   257
176
     1
 43
1.0
176
     1
 76
     1
176
     1
 77
     6
176
     1
 78
     2
176
     1
 67
     7
176
     1
 79
     5
176
     1
170
     0
176
     1
171
     0
176
     1
290
     0
176
     1
 93
       13
176
     1
 44
0.0
176
     1
173
     0
176
     1
  0
VISUALSTYLE
  5
31
102
{ACAD_REACTORS
330
2A
102
}
102
{ACAD_XDICTIONARY
360
201
102
}
330
2A
100
AcDbVisualStyle
  2
Hidden
 70
     6
177
     2
291
     0
 71
     1
176
     1
 72
     2
176
     1
 73
     2
176
     1
 90
        0
176
     1
 40
0.6
176
     1
 41
30.0
176
     1
 62
     5
 63
     7
421
 16777215
176
     1
 74
     2
176
     1
 91
        2
176
     1
 64
     7
176
     1
 65
   257
176
     1
 75
     2
176
     1
175
     1
176
     1
 42
40.0
176
     1
 92
        0
176
     1
 66
   257
176
     1
 43
1.0
176
     1
 76
     1
176
     1
 77
     6
176
     1
 78
     2
176
     1
 67
     7
176
     1
 79
     3
176
     1
170
     0
176
     1
171
     0
176
     1
290
     0
176
     1
 93
        1
176
     1
 44
0.0
176
     1
173
     0
176
     1
  0
VISUALSTYLE
  5
3B
102
{ACAD_REACTORS
330
2A
102
}
102
{ACAD_XDICTIONARY
360
215
102
}
330
2A
100
AcDbVisualStyle
  2
JitterOff
 70
    20
177
     2
291
     1
 71
     2
176
     0
 72
     2
176
     0
 73
     0
176
     0
 90
        0
176
     0
 40
0.6
176
     0
 41
30.0
176
     0
 62
     5
 63
     7
421
 16777215
176
     0
 74
     1
176
     0
 91
        4
176
     0
 64
     7
176
     0
 65
   257
176
     0
 75
     1
176
     0
175
     1
176
     0
 42
1.0
176
     0
 92
       10
176
     2
 66
     7
176
     0
 43
1.0
176
     0
 76
     1
176
     0
 77
     6
176
     0
 78
     2
176
     0
 67
     7
176
     0
 79
     5
176
     0
170
     0
176
     0
171
     0
176
     0
290
     0
176
     0
 93
        1
176
     0
 44
0.0
176
     0
173
     0
176
     0
  0
VISUALSTYLE
  5
38
102
{ACAD_REACTORS
330
2A
102
}
102
{ACAD_XDICTIONARY
360
20F
102
}
330
2A
100
AcDbVisualStyle
  2
Linepattern
 70
    14
177
     2
291
     1
 71
     2
176
     1
 72
     2
176
     1
 73
     0
176
     1
 90
        0
176
     1
 40
0.6
176
     1
 41
30.0
176
     1
 62
     5
 63
     7
421
 16777215
176
     1
 74
     1
176
     1
 91
        4
176
     1
 64
     7
176
     1
 65
   257
176
     1
 75
     7
176
     1
175
     7
176
     1
 42
1.0
176
     1
 92
        8
176
     1
 66
     7
176
     1
 43
1.0
176
     1
 76
     1
176
     1
 77
     6
176
     1
 78
     2
176
     1
 67
     7
176
     1
 79
     5
176
     1
170
     0
176
     1
171
     0
176
     1
290
     0
176
     1
 93
        1
176
     1
 44
0.0
176
     1
173
     0
176
     1
  0
VISUALSTYLE
  5
3C
102
{ACAD_REACTORS
330
2A
102
}
102
{ACAD_XDICTIONARY
360
217
102
}
330
2A
100
AcDbVisualStyle
  2
OverhangOff
 70
    21
177
     2
291
     1
 71
     2
176
     0
 72
     2
176
     0
 73
     0
176
     0
 90
        0
176
     0
 40
0.6
176
     0
 41
30.0
176
     0
 62
     5
 63
     7
421
 16777215
176
     0
 74
     1
176
     0
 91
        4
176
     0
 64
     7
176
     0
 65
   257
176
     0
 75
     1
176
     0
175
     1
176
     0
 42
1.0
176
     0
 92
        9
176
     2
 66
     7
176
     0
 43
1.0
176
     0
 76
     1
176
     0
 77
     6
176
     0
 78
     2
176
     0
 67
     7
176
     0
 79
     5
176
     0
170
     0
176
     0
171
     0
176
     0
290
     0
176
     0
 93
        1
176
     0
 44
0.0
176
     0
173
     0
176
     0
  0
VISUALSTYLE
  5
33
102
{ACAD_REACTORS
330
2A
102
}
102
{ACAD_XDICTIONARY
360
205
102
}
330
2A
100
AcDbVisualStyle
  2
Realistic
 70
     8
177
     2
291
     0
 71
     2
176
     1
 72
     3
176
     1
 73
     0
176
     1
 90
        2
176
     1
 40
0.6
176
     1
 41
30.0
176
     1
 62
     5
 63
     7
421
 16777215
176
     1
 74
     0
176
     1
 91
        0
176
     1
 64
     7
176
     1
 65
   257
176
     1
 75
     1
176
     1
175
     1
176
     1
 42
1.0
176
     1
 92
        8
176
     1
 66
   257
176
     1
 43
1.0
176
     1
 76
     1
176
     1
 77
     6
176
     1
 78
     2
176
     1
 67
     7
176
     1
 79
     3
176
     1
170
     0
176
     1
171
     0
176
     1
290
     0
176
     1
 93
       13
176
     1
 44
0.0
176
     1
173
     0
176
     1
  0
VISUALSTYLE
  5
42
102
{ACAD_REACTORS
330
2A
102
}
102
{ACAD_XDICTIONARY
360
223
102
}
330
2A
100
AcDbVisualStyle
  2
Shaded
 70
    27
177
     2
291
     0
 71
     2
176
     1
 72
     2
176
     1
 73
     1
176
     1
 90
        2
176
     1
 40
0.6
176
     1
 41
30.0
176
     1
 62
     5
 63
     7
421
 16777215
176
     1
 74
     0
176
     1
 91
        4
176
     1
 64
     7
176
     1
 65
   257
176
     1
 75
     1
176
     1
175
     1
176
     1
 42
1.0
176
     1
 92
        8
176
     1
 66
   257
176
     1
 43
1.0
176
     1
 76
     1
176
     1
 77
     6
176
     1
 78
     2
176
     1
 67
     8
425
  7895160
176
     1
 79
     3
176
     1
170
     0
176
     1
171
     0
176
     1
290
     0
176
     1
 93
        5
176
     1
 44
0.0
176
     1
173
     0
176
     1
  0
VISUALSTYLE
  5
41
102
{ACAD_REACTORS
330
2A
102
}
102
{ACAD_XDICTIONARY
360
221
102
}
330
2A
100
AcDbVisualStyle
  2
Shaded with edges
 70
    26
177
     2
291
     0
 71
     2
176
     1
 72
     2
176
     1
 73
     1
176
     1
 90
        2
176
     1
 40
0.6
176
     1
 41
30.0
176
     1
 62
     5
 63
     7
421
 16777215
176
     1
 74
     1
176
     1
 91
       10
176
     1
 64
     7
176
     1
 65
   257
176
     1
 75
     2
176
     1
175
     1
176
     1
 42
1.0
176
     1
 92
        8
176
     1
 66
   257
176
     1
 43
1.0
176
     1
 76
     1
176
     1
 77
     6
176
     1
 78
     2
176
     1
 67
     7
176
     1
 79
     3
176
     1
170
     0
176
     1
171
     0
176
     1
290
     0
176
     1
 93
        5
176
     1
 44
0.0
176
     1
173
     0
176
     1
  0
VISUALSTYLE
  5
3E
102
{ACAD_REACTORS
330
2A
102
}
102
{ACAD_XDICTIONARY
360
21B
102
}
330
2A
100
AcDbVisualStyle
  2
Shades of Gray
 70
    23
177
     2
291
     0
 71
     2
176
     1
 72
     2
176
     1
 73
     3
176
     1
 90
        0
176
     1
 40
0.6
176
     1
 41
30.0
176
     1
 62
     5
 63
     7
421
 16777215
176
     1
 74
     2
176
     1
 91
        2
176
     1
 64
     7
176
     1
 65
     7
176
     1
 75
     1
176
     1
175
     1
176
     1
 42
40.0
176
     1
 92
        8
176
     1
 66
     7
176
     1
 43
1.0
176
     1
 76
     1
176
     1
 77
     6
176
     1
 78
     2
176
     1
 67
     7
176
     1
 79
     3
176
     1
170
     0
176
     1
171
     0
176
     1
290
     0
176
     1
 93
        1
176
     1
 44
0.0
176
     1
173
     0
176
     1
  0
VISUALSTYLE
  5
3F
102
{ACAD_REACTORS
330
2A
102
}
102
{ACAD_XDICTIONARY
360
21D
102
}
330
2A
100
AcDbVisualStyle
  2
Sketchy
 70
    24
177
     2
291
     0
 71
     1
176
     1
 72
     2
176
     1
 73
     2
176
     1
 90
        0
176
     1
 40
0.6
176
     1
 41
30.0
176
     1
 62
     5
 63
     7
421
 16777215
176
     1
 74
     2
176
     1
 91
        2
176
     1
 64
     7
176
     1
 65
     7
176
     1
 75
     1
176
     1
175
     1
176
     1
 42
40.0
176
     1
 92
       11
176
     1
 66
     7
176
     1
 43
1.0
176
     1
 76
     1
176
     1
 77
     6
176
     1
 78
     2
176
     1
 67
     7
176
     1
 79
     6
176
     1
170
     0
176
     1
171
     0
176
     1
290
     0
176
     1
 93
        1
176
     1
 44
0.0
176
     1
173
     0
176
     1
  0
VISUALSTYLE
  5
37
102
{ACAD_REACTORS
330
2A
102
}
102
{ACAD_XDICTIONARY
360
20D
102
}
330
2A
100
AcDbVisualStyle
  2
Thicken
 70
    13
177
     2
291
     1
 71
     2
176
     1
 72
     2
176
     1
 73
     0
176
     1
 90
        0
176
     1
 40
0.6
176
     1
 41
30.0
176
     1
 62
     5
 63
     7
421
 16777215
176
     1
 74
     1
176
     1
 91
        4
176
     1
 64
     7
176
     1
 65
   257
176
     1
 75
     1
176
     1
175
     1
176
     1
 42
1.0
176
     1
 92
       12
176
     1
 66
     7
176
     1
 43
1.0
176
     1
 76
     1
176
     1
 77
     6
176
     1
 78
     2
176
     1
 67
     7
176
     1
 79
     5
176
     1
170
     0
176
     1
171
     0
176
     1
290
     0
176
     1
 93
        1
176
     1
 44
0.0
176
     1
173
     0
176
     1
  0
VISUALSTYLE
  5
30
102
{ACAD_REACTORS
330
2A
102
}
102
{ACAD_XDICTIONARY
360
1FF
102
}
330
2A
100
AcDbVisualStyle
  2
Wireframe
 70
     5
177
     2
291
     0
 71
     0
176
     1
 72
     2
176
     1
 73
     0
176
     1
 90
        0
176
     1
 40
0.6
176
     1
 41
30.0
176
     1
 62
     5
 63
     7
421
 16777215
176
     1
 74
     1
176
     1
 91
        4
176
     1
 64
     7
176
     1
 65
   257
176
     1
 75
     1
176
     1
175
     1
176
     1
 42
1.0
176
     1
 92
        0
176
     1
 66
   257
176
     1
 43
1.0
176
     1
 76
     1
176
     1
 77
     6
176
     1
 78
     2
176
     1
 67
     7
176
     1
 79
     3
176
     1
170
     0
176
     1
171
     0
176
     1
290
     0
176
     1
 93
        1
176
     1
 44
0.0
176
     1
173
     0
176
     1
  0
VISUALSTYLE
  5
40
102
{ACAD_REACTORS
330
2A
102
}
102
{ACAD_XDICTIONARY
360
21F
102
}
330
2A
100
AcDbVisualStyle
  2
X-Ray
 70
    25
177
     2
291
     0
 71
     2
176
     1
 72
     2
176
     1
 73
     1
176
     1
 90
        1
176
     1
 40
0.5
176
     1
 41
30.0
176
     1
 62
     5
 63
     7
421
 16777215
176
     1
 74
     1
176
     1
 91
        0
176
     1
 64
     7
176
     1
 65
   257
176
     1
 75
     1
176
     1
175
     1
176
     1
 42
1.0
176
     1
 92
        8
176
     1
 66
     7
176
     1
 43
1.0
176
     1
 76
     1
176
     1
 77
     6
176
     1
 78
     2
176
     1
 67
     7
176
     1
 79
     3
176
     1
170
     0
176
     1
171
     0
176
     1
290
     0
176
     1
 93
       13
176
     1
 44
0.0
176
     1
173
     0
176
     1
  0
DICTIONARYVAR
  5
1F4
102
{ACAD_REACTORS
330
1F3
102
}
330
1F3
100
DictionaryVariables
280
     0
  1
1:1
  0
DICTIONARYVAR
  5
22C
102
{ACAD_REACTORS
330
1F3
102
}
330
1F3
100
DictionaryVariables
280
     0
  1
3.500000
  0
DICTIONARYVAR
  5
22D
102
{ACAD_REACTORS
330
1F3
102
}
330
1F3
100
DictionaryVariables
280
     0
  1
acadiso.lin
  0
DICTIONARYVAR
  5
229
102
{ACAD_REACTORS
330
1F3
102
}
330
1F3
100
DictionaryVariables
280
     0
  1
Standard
  0
DICTIONARYVAR
  5
228
102
{ACAD_REACTORS
330
1F3
102
}
330
1F3
100
DictionaryVariables
280
     0
  1
Standard
  0
DICTIONARY
  5
225
330
6A
100
AcDbDictionary
280
     1
281
     1
  3
ACAD_ROUNDTRIP_2008_TABLESTYLE_CELLSTYLEMAP
360
226
  0
DICTIONARY
  5
1FD
330
2F
100
AcDbDictionary
280
     1
281
     1
  3
ACAD_XREC_ROUNDTRIP
360
1FE
  0
DICTIONARY
  5
203
330
32
100
AcDbDictionary
280
     1
281
     1
  3
ACAD_XREC_ROUNDTRIP
360
204
  0
DICTIONARY
  5
20B
330
36
100
AcDbDictionary
280
     1
281
     1
  3
ACAD_XREC_ROUNDTRIP
360
20C
  0
DICTIONARY
  5
213
330
3A
100
AcDbDictionary
280
     1
281
     1
  3
ACAD_XREC_ROUNDTRIP
360
214
  0
DICTIONARY
  5
207
330
34
100
AcDbDictionary
280
     1
281
     1
  3
ACAD_XREC_ROUNDTRIP
360
208
  0
DICTIONARY
  5
209
330
35
100
AcDbDictionary
280
     1
281
     1
  3
ACAD_XREC_ROUNDTRIP
360
20A
  0
DICTIONARY
  5
219
330
3D
100
AcDbDictionary
280
     1
281
     1
  3
ACAD_XREC_ROUNDTRIP
360
21A
  0
DICTIONARY
  5
211
330
39
100
AcDbDictionary
280
     1
281
     1
  3
ACAD_XREC_ROUNDTRIP
360
212
  0
DICTIONARY
  5
1F5
330
2B
100
AcDbDictionary
280
     1
281
     1
  3
ACAD_XREC_ROUNDTRIP
360
1F6
  0
DICTIONARY
  5
1F7
330
2C
100
AcDbDictionary
280
     1
281
     1
  3
ACAD_XREC_ROUNDTRIP
360
1F8
  0
DICTIONARY
  5
1F9
330
2D
100
AcDbDictionary
280
     1
281
     1
  3
ACAD_XREC_ROUNDTRIP
360
1FA
  0
DICTIONARY
  5
1FB
330
2E
100
AcDbDictionary
280
     1
281
     1
  3
ACAD_XREC_ROUNDTRIP
360
1FC
  0
DICTIONARY
  5
201
330
31
100
AcDbDictionary
280
     1
281
     1
  3
ACAD_XREC_ROUNDTRIP
360
202
  0
DICTIONARY
  5
215
330
3B
100
AcDbDictionary
280
     1
281
     1
  3
ACAD_XREC_ROUNDTRIP
360
216
  0
DICTIONARY
  5
20F
330
38
100
AcDbDictionary
280
     1
281
     1
  3
ACAD_XREC_ROUNDTRIP
360
210
  0
DICTIONARY
  5
217
330
3C
100
AcDbDictionary
280
     1
281
     1
  3
ACAD_XREC_ROUNDTRIP
360
218
  0
DICTIONARY
  5
205
330
33
100
AcDbDictionary
280
     1
281
     1
  3
ACAD_XREC_ROUNDTRIP
360
206
  0
DICTIONARY
  5
223
330
42
100
AcDbDictionary
280
     1
281
     1
  3
ACAD_XREC_ROUNDTRIP
360
224
  0
DICTIONARY
  5
221
330
41
100
AcDbDictionary
280
     1
281
     1
  3
ACAD_XREC_ROUNDTRIP
360
222
  0
DICTIONARY
  5
21B
330
3E
100
AcDbDictionary
280
     1
281
     1
  3
ACAD_XREC_ROUNDTRIP
360
21C
  0
DICTIONARY
  5
21D
330
3F
100
AcDbDictionary
280
     1
281
     1
  3
ACAD_XREC_ROUNDTRIP
360
21E
  0
DICTIONARY
  5
20D
330
37
100
AcDbDictionary
280
     1
281
     1
  3
ACAD_XREC_ROUNDTRIP
360
20E
  0
DICTIONARY
  5
1FF
330
30
100
AcDbDictionary
280
     1
281
     1
  3
ACAD_XREC_ROUNDTRIP
360
200
  0
DICTIONARY
  5
21F
330
40
100
AcDbDictionary
280
     1
281
     1
  3
ACAD_XREC_ROUNDTRIP
360
220
  0
CELLSTYLEMAP
  5
226
102
{ACAD_REACTORS
330
225
102
}
330
225
100
AcDbCellStyleMap
 90
        3
300
CELLSTYLE
  1
TABLEFORMAT_BEGIN
 90
        5
170
     1
 91
        0
 92
    32768
 62
   257
 93
        1
300
CONTENTFORMAT
  1
CONTENTFORMAT_BEGIN
 90
        0
 91
        0
 92
        4
 93
        0
300

 40
0.0
140
1.0
 94
        5
 62
     0
340
11
144
6.0
309
CONTENTFORMAT_END
171
     1
301
MARGIN
  1
CELLMARGIN_BEGIN
 40
1.5
 40
1.5
 40
1.5
 40
1.5
 40
1.5
 40
1.5
309
CELLMARGIN_END
 94
        6
 95
        1
302
GRIDFORMAT
  1
GRIDFORMAT_BEGIN
 90
        0
 91
        1
 62
     0
 92
       -2
340
14
 93
        0
 40
0.045
309
GRIDFORMAT_END
 95
        2
302
GRIDFORMAT
  1
GRIDFORMAT_BEGIN
 90
        0
 91
        1
 62
     0
 92
       -2
340
14
 93
        0
 40
0.045
309
GRIDFORMAT_END
 95
        4
302
GRIDFORMAT
  1
GRIDFORMAT_BEGIN
 90
        0
 91
        1
 62
     0
 92
       -2
340
14
 93
        0
 40
0.045
309
GRIDFORMAT_END
 95
        8
302
GRIDFORMAT
  1
GRIDFORMAT_BEGIN
 90
        0
 91
        1
 62
     0
 92
       -2
340
14
 93
        0
 40
0.045
309
GRIDFORMAT_END
 95
       16
302
GRIDFORMAT
  1
GRIDFORMAT_BEGIN
 90
        0
 91
        1
 62
     0
 92
       -2
340
14
 93
        0
 40
0.045
309
GRIDFORMAT_END
 95
       32
302
GRIDFORMAT
  1
GRIDFORMAT_BEGIN
 90
        0
 91
        1
 62
     0
 92
       -2
340
14
 93
        0
 40
0.045
309
GRIDFORMAT_END
309
TABLEFORMAT_END
  1
CELLSTYLE_BEGIN
 90
        1
 91
        1
300
_TITLE
309
CELLSTYLE_END
300
CELLSTYLE
  1
TABLEFORMAT_BEGIN
 90
        5
170
     1
 91
        0
 92
        0
 62
   257
 93
        1
300
CONTENTFORMAT
  1
CONTENTFORMAT_BEGIN
 90
        0
 91
        0
 92
        4
 93
        0
300

 40
0.0
140
1.0
 94
        5
 62
     0
340
11
144
4.5
309
CONTENTFORMAT_END
171
     1
301
MARGIN
  1
CELLMARGIN_BEGIN
 40
1.5
 40
1.5
 40
1.5
 40
1.5
 40
1.5
 40
1.5
309
CELLMARGIN_END
 94
        6
 95
        1
302
GRIDFORMAT
  1
GRIDFORMAT_BEGIN
 90
        0
 91
        1
 62
     0
 92
       -2
340
14
 93
        0
 40
0.045
309
GRIDFORMAT_END
 95
        2
302
GRIDFORMAT
  1
GRIDFORMAT_BEGIN
 90
        0
 91
        1
 62
     0
 92
       -2
340
14
 93
        0
 40
0.045
309
GRIDFORMAT_END
 95
        4
302
GRIDFORMAT
  1
GRIDFORMAT_BEGIN
 90
        0
 91
        1
 62
     0
 92
       -2
340
14
 93
        0
 40
0.045
309
GRIDFORMAT_END
 95
        8
302
GRIDFORMAT
  1
GRIDFORMAT_BEGIN
 90
        0
 91
        1
 62
     0
 92
       -2
340
14
 93
        0
 40
0.045
309
GRIDFORMAT_END
 95
       16
302
GRIDFORMAT
  1
GRIDFORMAT_BEGIN
 90
        0
 91
        1
 62
     0
 92
       -2
340
14
 93
        0
 40
0.045
309
GRIDFORMAT_END
 95
       32
302
GRIDFORMAT
  1
GRIDFORMAT_BEGIN
 90
        0
 91
        1
 62
     0
 92
       -2
340
14
 93
        0
 40
0.045
309
GRIDFORMAT_END
309
TABLEFORMAT_END
  1
CELLSTYLE_BEGIN
 90
        2
 91
        1
300
_HEADER
309
CELLSTYLE_END
300
CELLSTYLE
  1
TABLEFORMAT_BEGIN
 90
        5
170
     1
 91
        0
 92
        0
 62
   257
 93
        1
300
CONTENTFORMAT
  1
CONTENTFORMAT_BEGIN
 90
        0
 91
        0
 92
        4
 93
        0
300

 40
0.0
140
1.0
 94
        2
 62
     0
340
11
144
4.5
309
CONTENTFORMAT_END
171
     1
301
MARGIN
  1
CELLMARGIN_BEGIN
 40
1.5
 40
1.5
 40
1.5
 40
1.5
 40
1.5
 40
1.5
309
CELLMARGIN_END
 94
        6
 95
        1
302
GRIDFORMAT
  1
GRIDFORMAT_BEGIN
 90
        0
 91
        1
 62
     0
 92
       -2
340
14
 93
        0
 40
0.045
309
GRIDFORMAT_END
 95
        2
302
GRIDFORMAT
  1
GRIDFORMAT_BEGIN
 90
        0
 91
        1
 62
     0
 92
       -2
340
14
 93
        0
 40
0.045
309
GRIDFORMAT_END
 95
        4
302
GRIDFORMAT
  1
GRIDFORMAT_BEGIN
 90
        0
 91
        1
 62
     0
 92
       -2
340
14
 93
        0
 40
0.045
309
GRIDFORMAT_END
 95
        8
302
GRIDFORMAT
  1
GRIDFORMAT_BEGIN
 90
        0
 91
        1
 62
     0
 92
       -2
340
14
 93
        0
 40
0.045
309
GRIDFORMAT_END
 95
       16
302
GRIDFORMAT
  1
GRIDFORMAT_BEGIN
 90
        0
 91
        1
 62
     0
 92
       -2
340
14
 93
        0
 40
0.045
309
GRIDFORMAT_END
 95
       32
302
GRIDFORMAT
  1
GRIDFORMAT_BEGIN
 90
        0
 91
        1
 62
     0
 92
       -2
340
14
 93
        0
 40
0.045
309
GRIDFORMAT_END
309
TABLEFORMAT_END
  1
CELLSTYLE_BEGIN
 90
        3
 91
        2
300
_DATA
309
CELLSTYLE_END
  0
XRECORD
  5
1FE
102
{ACAD_REACTORS
330
1FD
102
}
330
1FD
100
AcDbXrecord
280
     1
102
RTVSPost2010Prop28
280
     1
102
RTVSPost2010PropOp28
 70
     1
102
RTVSPost2010Prop29
280
     1
102
RTVSPost2010PropOp29
 70
     1
102
RTVSPost2010Prop30
280
     0
102
RTVSPost2010PropOp30
 70
     1
102
RTVSPost2010Prop31
280
     0
102
RTVSPost2010PropOp31
 70
     1
102
RTVSPost2010Prop32
280
     0
102
RTVSPost2010PropOp32
 70
     1
102
RTVSPost2010Prop33
280
     0
102
RTVSPost2010PropOp33
 70
     1
102
RTVSPost2010Prop34
280
     0
102
RTVSPost2010PropOp34
 70
     1
102
RTVSPost2010Prop35
280
     0
102
RTVSPost2010PropOp35
 70
     1
102
RTVSPost2010Prop36
280
     0
102
RTVSPost2010PropOp36
 70
     1
102
RTVSPost2010Prop37
 90
       50
102
RTVSPost2010PropOp37
 70
     1
102
RTVSPost2010Prop38
140
0.0
102
RTVSPost2010PropOp38
 70
     1
102
RTVSPost2010Prop39
140
1.0
102
RTVSPost2010PropOp39
 70
     1
102
RTVSPost2010Prop40
 90
        0
102
RTVSPost2010PropOp40
 70
     1
102
RTVSPost2010Prop41ColorIndex
 90
       18
102
RTVSPost2010Prop41ColorRGB
 90
        0
102
RTVSPost2010PropOp41
 70
     1
102
RTVSPost2010Prop42
 90
       50
102
RTVSPost2010PropOp42
 70
     1
102
RTVSPost2010Prop43
 90
        3
102
RTVSPost2010PropOp43
 70
     1
102
RTVSPost2010Prop44ColorIndex
 90
        5
102
RTVSPost2010Prop44ColorRGB
 90
      255
102
RTVSPost2010PropOp44
 70
     1
102
RTVSPost2010Prop45
280
     0
102
RTVSPost2010PropOp45
 70
     1
102
RTVSPost2010Prop46
 90
       50
102
RTVSPost2010PropOp46
 70
     1
102
RTVSPost2010Prop47
 90
       50
102
RTVSPost2010PropOp47
 70
     1
102
RTVSPost2010Prop48
 90
       50
102
RTVSPost2010PropOp48
 70
     1
102
RTVSPost2010Prop49
280
     0
102
RTVSPost2010PropOp49
 70
     1
102
RTVSPost2010Prop50
 90
       50
102
RTVSPost2010PropOp50
 70
     1
102
RTVSPost2010Prop51ColorIndex
 90
      256
102
RTVSPost2010Prop51ColorRGB
 90
-16777216
102
RTVSPost2010PropOp51
 70
     0
102
RTVSPost2010Prop52
140
1.0
102
RTVSPost2010PropOp52
 70
     0
102
RTVSPost2010Prop53
 90
        2
102
RTVSPost2010PropOp53
 70
     1
102
RTVSPost2010Prop54
  1
strokes_ogs.tif
102
RTVSPost2010PropOp54
 70
     1
102
RTVSPost2010Prop55
280
     0
102
RTVSPost2010PropOp55
 70
     1
102
RTVSPost2010Prop56
140
1.0
102
RTVSPost2010PropOp56
 70
     1
102
RTVSPost2010Prop57
140
1.0
102
RTVSPost2010PropOp57
 70
     1
  0
XRECORD
  5
204
102
{ACAD_REACTORS
330
203
102
}
330
203
100
AcDbXrecord
280
     1
102
RTVSPost2010Prop28
280
     0
102
RTVSPost2010PropOp28
 70
     1
102
RTVSPost2010Prop29
280
     1
102
RTVSPost2010PropOp29
 70
     1
102
RTVSPost2010Prop30
280
     1
102
RTVSPost2010PropOp30
 70
     1
102
RTVSPost2010Prop31
280
     0
102
RTVSPost2010PropOp31
 70
     1
102
RTVSPost2010Prop32
280
     0
102
RTVSPost2010PropOp32
 70
     1
102
RTVSPost2010Prop33
280
     0
102
RTVSPost2010PropOp33
 70
     1
102
RTVSPost2010Prop34
280
     0
102
RTVSPost2010PropOp34
 70
     1
102
RTVSPost2010Prop35
280
     0
102
RTVSPost2010PropOp35
 70
     1
102
RTVSPost2010Prop36
280
     0
102
RTVSPost2010PropOp36
 70
     1
102
RTVSPost2010Prop37
 90
       50
102
RTVSPost2010PropOp37
 70
     1
102
RTVSPost2010Prop38
140
0.0
102
RTVSPost2010PropOp38
 70
     1
102
RTVSPost2010Prop39
140
1.0
102
RTVSPost2010PropOp39
 70
     1
102
RTVSPost2010Prop40
 90
        0
102
RTVSPost2010PropOp40
 70
     1
102
RTVSPost2010Prop41ColorIndex
 90
       18
102
RTVSPost2010Prop41ColorRGB
 90
        0
102
RTVSPost2010PropOp41
 70
     1
102
RTVSPost2010Prop42
 90
       50
102
RTVSPost2010PropOp42
 70
     1
102
RTVSPost2010Prop43
 90
        3
102
RTVSPost2010PropOp43
 70
     1
102
RTVSPost2010Prop44ColorIndex
 90
        5
102
RTVSPost2010Prop44ColorRGB
 90
      255
102
RTVSPost2010PropOp44
 70
     1
102
RTVSPost2010Prop45
280
     0
102
RTVSPost2010PropOp45
 70
     1
102
RTVSPost2010Prop46
 90
       50
102
RTVSPost2010PropOp46
 70
     1
102
RTVSPost2010Prop47
 90
       50
102
RTVSPost2010PropOp47
 70
     1
102
RTVSPost2010Prop48
 90
       50
102
RTVSPost2010PropOp48
 70
     1
102
RTVSPost2010Prop49
280
     0
102
RTVSPost2010PropOp49
 70
     1
102
RTVSPost2010Prop50
 90
       50
102
RTVSPost2010PropOp50
 70
     1
102
RTVSPost2010Prop51ColorIndex
 90
      256
102
RTVSPost2010Prop51ColorRGB
 90
-16777216
102
RTVSPost2010PropOp51
 70
     0
102
RTVSPost2010Prop52
140
1.0
102
RTVSPost2010PropOp52
 70
     0
102
RTVSPost2010Prop53
 90
        2
102
RTVSPost2010PropOp53
 70
     1
102
RTVSPost2010Prop54
  1
strokes_ogs.tif
102
RTVSPost2010PropOp54
 70
     1
102
RTVSPost2010Prop55
280
     0
102
RTVSPost2010PropOp55
 70
     1
102
RTVSPost2010Prop56
140
1.0
102
RTVSPost2010PropOp56
 70
     1
102
RTVSPost2010Prop57
140
1.0
102
RTVSPost2010PropOp57
 70
     1
  0
XRECORD
  5
20C
102
{ACAD_REACTORS
330
20B
102
}
330
20B
100
AcDbXrecord
280
     1
102
RTVSPost2010Prop28
280
     0
102
RTVSPost2010PropOp28
 70
     1
102
RTVSPost2010Prop29
280
     1
102
RTVSPost2010PropOp29
 70
     1
102
RTVSPost2010Prop30
280
     1
102
RTVSPost2010PropOp30
 70
     1
102
RTVSPost2010Prop31
280
     0
102
RTVSPost2010PropOp31
 70
     1
102
RTVSPost2010Prop32
280
     0
102
RTVSPost2010PropOp32
 70
     1
102
RTVSPost2010Prop33
280
     0
102
RTVSPost2010PropOp33
 70
     1
102
RTVSPost2010Prop34
280
     0
102
RTVSPost2010PropOp34
 70
     1
102
RTVSPost2010Prop35
280
     0
102
RTVSPost2010PropOp35
 70
     1
102
RTVSPost2010Prop36
280
     0
102
RTVSPost2010PropOp36
 70
     1
102
RTVSPost2010Prop37
 90
       50
102
RTVSPost2010PropOp37
 70
     1
102
RTVSPost2010Prop38
140
0.0
102
RTVSPost2010PropOp38
 70
     1
102
RTVSPost2010Prop39
140
1.0
102
RTVSPost2010PropOp39
 70
     1
102
RTVSPost2010Prop40
 90
        0
102
RTVSPost2010PropOp40
 70
     1
102
RTVSPost2010Prop41ColorIndex
 90
       18
102
RTVSPost2010Prop41ColorRGB
 90
        0
102
RTVSPost2010PropOp41
 70
     1
102
RTVSPost2010Prop42
 90
       50
102
RTVSPost2010PropOp42
 70
     1
102
RTVSPost2010Prop43
 90
        3
102
RTVSPost2010PropOp43
 70
     1
102
RTVSPost2010Prop44ColorIndex
 90
        5
102
RTVSPost2010Prop44ColorRGB
 90
      255
102
RTVSPost2010PropOp44
 70
     1
102
RTVSPost2010Prop45
280
     0
102
RTVSPost2010PropOp45
 70
     1
102
RTVSPost2010Prop46
 90
       50
102
RTVSPost2010PropOp46
 70
     1
102
RTVSPost2010Prop47
 90
       50
102
RTVSPost2010PropOp47
 70
     1
102
RTVSPost2010Prop48
 90
       50
102
RTVSPost2010PropOp48
 70
     1
102
RTVSPost2010Prop49
280
     0
102
RTVSPost2010PropOp49
 70
     1
102
RTVSPost2010Prop50
 90
       50
102
RTVSPost2010PropOp50
 70
     1
102
RTVSPost2010Prop51ColorIndex
 90
      256
102
RTVSPost2010Prop51ColorRGB
 90
-16777216
102
RTVSPost2010PropOp51
 70
     0
102
RTVSPost2010Prop52
140
1.0
102
RTVSPost2010PropOp52
 70
     0
102
RTVSPost2010Prop53
 90
        2
102
RTVSPost2010PropOp53
 70
     1
102
RTVSPost2010Prop54
  1
strokes_ogs.tif
102
RTVSPost2010PropOp54
 70
     1
102
RTVSPost2010Prop55
280
     0
102
RTVSPost2010PropOp55
 70
     1
102
RTVSPost2010Prop56
140
1.0
102
RTVSPost2010PropOp56
 70
     1
102
RTVSPost2010Prop57
140
1.0
102
RTVSPost2010PropOp57
 70
     1
  0
XRECORD
  5
214
102
{ACAD_REACTORS
330
213
102
}
330
213
100
AcDbXrecord
280
     1
102
RTVSPost2010Prop28
280
     0
102
RTVSPost2010PropOp28
 70
     1
102
RTVSPost2010Prop29
280
     1
102
RTVSPost2010PropOp29
 70
     1
102
RTVSPost2010Prop30
280
     1
102
RTVSPost2010PropOp30
 70
     1
102
RTVSPost2010Prop31
280
     0
102
RTVSPost2010PropOp31
 70
     1
102
RTVSPost2010Prop32
280
     0
102
RTVSPost2010PropOp32
 70
     1
102
RTVSPost2010Prop33
280
     0
102
RTVSPost2010PropOp33
 70
     1
102
RTVSPost2010Prop34
280
     0
102
RTVSPost2010PropOp34
 70
     1
102
RTVSPost2010Prop35
280
     0
102
RTVSPost2010PropOp35
 70
     1
102
RTVSPost2010Prop36
280
     0
102
RTVSPost2010PropOp36
 70
     1
102
RTVSPost2010Prop37
 90
       50
102
RTVSPost2010PropOp37
 70
     1
102
RTVSPost2010Prop38
140
0.0
102
RTVSPost2010PropOp38
 70
     1
102
RTVSPost2010Prop39
140
1.0
102
RTVSPost2010PropOp39
 70
     1
102
RTVSPost2010Prop40
 90
        0
102
RTVSPost2010PropOp40
 70
     1
102
RTVSPost2010Prop41ColorIndex
 90
       18
102
RTVSPost2010Prop41ColorRGB
 90
        0
102
RTVSPost2010PropOp41
 70
     1
102
RTVSPost2010Prop42
 90
       50
102
RTVSPost2010PropOp42
 70
     1
102
RTVSPost2010Prop43
 90
        3
102
RTVSPost2010PropOp43
 70
     1
102
RTVSPost2010Prop44ColorIndex
 90
        5
102
RTVSPost2010Prop44ColorRGB
 90
      255
102
RTVSPost2010PropOp44
 70
     1
102
RTVSPost2010Prop45
280
     0
102
RTVSPost2010PropOp45
 70
     1
102
RTVSPost2010Prop46
 90
       50
102
RTVSPost2010PropOp46
 70
     1
102
RTVSPost2010Prop47
 90
       50
102
RTVSPost2010PropOp47
 70
     1
102
RTVSPost2010Prop48
 90
       50
102
RTVSPost2010PropOp48
 70
     1
102
RTVSPost2010Prop49
280
     0
102
RTVSPost2010PropOp49
 70
     1
102
RTVSPost2010Prop50
 90
       50
102
RTVSPost2010PropOp50
 70
     1
102
RTVSPost2010Prop51ColorIndex
 90
      256
102
RTVSPost2010Prop51ColorRGB
 90
-16777216
102
RTVSPost2010PropOp51
 70
     0
102
RTVSPost2010Prop52
140
1.0
102
RTVSPost2010PropOp52
 70
     0
102
RTVSPost2010Prop53
 90
        2
102
RTVSPost2010PropOp53
 70
     1
102
RTVSPost2010Prop54
  1
strokes_ogs.tif
102
RTVSPost2010PropOp54
 70
     1
102
RTVSPost2010Prop55
280
     0
102
RTVSPost2010PropOp55
 70
     1
102
RTVSPost2010Prop56
140
1.0
102
RTVSPost2010PropOp56
 70
     1
102
RTVSPost2010Prop57
140
1.0
102
RTVSPost2010PropOp57
 70
     1
  0
XRECORD
  5
208
102
{ACAD_REACTORS
330
207
102
}
330
207
100
AcDbXrecord
280
     1
102
RTVSPost2010Prop28
280
     0
102
RTVSPost2010PropOp28
 70
     1
102
RTVSPost2010Prop29
280
     1
102
RTVSPost2010PropOp29
 70
     1
102
RTVSPost2010Prop30
280
     1
102
RTVSPost2010PropOp30
 70
     1
102
RTVSPost2010Prop31
280
     0
102
RTVSPost2010PropOp31
 70
     1
102
RTVSPost2010Prop32
280
     0
102
RTVSPost2010PropOp32
 70
     1
102
RTVSPost2010Prop33
280
     0
102
RTVSPost2010PropOp33
 70
     1
102
RTVSPost2010Prop34
280
     0
102
RTVSPost2010PropOp34
 70
     1
102
RTVSPost2010Prop35
280
     0
102
RTVSPost2010PropOp35
 70
     1
102
RTVSPost2010Prop36
280
     0
102
RTVSPost2010PropOp36
 70
     1
102
RTVSPost2010Prop37
 90
       50
102
RTVSPost2010PropOp37
 70
     1
102
RTVSPost2010Prop38
140
0.0
102
RTVSPost2010PropOp38
 70
     1
102
RTVSPost2010Prop39
140
1.0
102
RTVSPost2010PropOp39
 70
     1
102
RTVSPost2010Prop40
 90
        0
102
RTVSPost2010PropOp40
 70
     1
102
RTVSPost2010Prop41ColorIndex
 90
       18
102
RTVSPost2010Prop41ColorRGB
 90
        0
102
RTVSPost2010PropOp41
 70
     1
102
RTVSPost2010Prop42
 90
       50
102
RTVSPost2010PropOp42
 70
     1
102
RTVSPost2010Prop43
 90
        3
102
RTVSPost2010PropOp43
 70
     1
102
RTVSPost2010Prop44ColorIndex
 90
        5
102
RTVSPost2010Prop44ColorRGB
 90
      255
102
RTVSPost2010PropOp44
 70
     1
102
RTVSPost2010Prop45
280
     0
102
RTVSPost2010PropOp45
 70
     1
102
RTVSPost2010Prop46
 90
       50
102
RTVSPost2010PropOp46
 70
     1
102
RTVSPost2010Prop47
 90
       50
102
RTVSPost2010PropOp47
 70
     1
102
RTVSPost2010Prop48
 90
       50
102
RTVSPost2010PropOp48
 70
     1
102
RTVSPost2010Prop49
280
     0
102
RTVSPost2010PropOp49
 70
     1
102
RTVSPost2010Prop50
 90
       50
102
RTVSPost2010PropOp50
 70
     1
102
RTVSPost2010Prop51ColorIndex
 90
      256
102
RTVSPost2010Prop51ColorRGB
 90
-16777216
102
RTVSPost2010PropOp51
 70
     0
102
RTVSPost2010Prop52
140
1.0
102
RTVSPost2010PropOp52
 70
     0
102
RTVSPost2010Prop53
 90
        2
102
RTVSPost2010PropOp53
 70
     1
102
RTVSPost2010Prop54
  1
strokes_ogs.tif
102
RTVSPost2010PropOp54
 70
     1
102
RTVSPost2010Prop55
280
     0
102
RTVSPost2010PropOp55
 70
     1
102
RTVSPost2010Prop56
140
1.0
102
RTVSPost2010PropOp56
 70
     1
102
RTVSPost2010Prop57
140
1.0
102
RTVSPost2010PropOp57
 70
     1
  0
XRECORD
  5
20A
102
{ACAD_REACTORS
330
209
102
}
330
209
100
AcDbXrecord
280
     1
102
RTVSPost2010Prop28
280
     0
102
RTVSPost2010PropOp28
 70
     1
102
RTVSPost2010Prop29
280
     1
102
RTVSPost2010PropOp29
 70
     1
102
RTVSPost2010Prop30
280
     1
102
RTVSPost2010PropOp30
 70
     1
102
RTVSPost2010Prop31
280
     0
102
RTVSPost2010PropOp31
 70
     1
102
RTVSPost2010Prop32
280
     0
102
RTVSPost2010PropOp32
 70
     1
102
RTVSPost2010Prop33
280
     0
102
RTVSPost2010PropOp33
 70
     1
102
RTVSPost2010Prop34
280
     0
102
RTVSPost2010PropOp34
 70
     1
102
RTVSPost2010Prop35
280
     0
102
RTVSPost2010PropOp35
 70
     1
102
RTVSPost2010Prop36
280
     0
102
RTVSPost2010PropOp36
 70
     1
102
RTVSPost2010Prop37
 90
       50
102
RTVSPost2010PropOp37
 70
     1
102
RTVSPost2010Prop38
140
0.0
102
RTVSPost2010PropOp38
 70
     1
102
RTVSPost2010Prop39
140
1.0
102
RTVSPost2010PropOp39
 70
     1
102
RTVSPost2010Prop40
 90
        0
102
RTVSPost2010PropOp40
 70
     1
102
RTVSPost2010Prop41ColorIndex
 90
       18
102
RTVSPost2010Prop41ColorRGB
 90
        0
102
RTVSPost2010PropOp41
 70
     1
102
RTVSPost2010Prop42
 90
       50
102
RTVSPost2010PropOp42
 70
     1
102
RTVSPost2010Prop43
 90
        3
102
RTVSPost2010PropOp43
 70
     1
102
RTVSPost2010Prop44ColorIndex
 90
        5
102
RTVSPost2010Prop44ColorRGB
 90
      255
102
RTVSPost2010PropOp44
 70
     1
102
RTVSPost2010Prop45
280
     0
102
RTVSPost2010PropOp45
 70
     1
102
RTVSPost2010Prop46
 90
       50
102
RTVSPost2010PropOp46
 70
     1
102
RTVSPost2010Prop47
 90
       50
102
RTVSPost2010PropOp47
 70
     1
102
RTVSPost2010Prop48
 90
       50
102
RTVSPost2010PropOp48
 70
     1
102
RTVSPost2010Prop49
280
     0
102
RTVSPost2010PropOp49
 70
     1
102
RTVSPost2010Prop50
 90
       50
102
RTVSPost2010PropOp50
 70
     1
102
RTVSPost2010Prop51ColorIndex
 90
      256
102
RTVSPost2010Prop51ColorRGB
 90
-16777216
102
RTVSPost2010PropOp51
 70
     0
102
RTVSPost2010Prop52
140
1.0
102
RTVSPost2010PropOp52
 70
     0
102
RTVSPost2010Prop53
 90
        2
102
RTVSPost2010PropOp53
 70
     1
102
RTVSPost2010Prop54
  1
strokes_ogs.tif
102
RTVSPost2010PropOp54
 70
     1
102
RTVSPost2010Prop55
280
     0
102
RTVSPost2010PropOp55
 70
     1
102
RTVSPost2010Prop56
140
1.0
102
RTVSPost2010PropOp56
 70
     1
102
RTVSPost2010Prop57
140
1.0
102
RTVSPost2010PropOp57
 70
     1
  0
XRECORD
  5
21A
102
{ACAD_REACTORS
330
219
102
}
330
219
100
AcDbXrecord
280
     1
102
RTVSPost2010Prop28
280
     0
102
RTVSPost2010PropOp28
 70
     0
102
RTVSPost2010Prop29
280
     1
102
RTVSPost2010PropOp29
 70
     0
102
RTVSPost2010Prop30
280
     1
102
RTVSPost2010PropOp30
 70
     0
102
RTVSPost2010Prop31
280
     0
102
RTVSPost2010PropOp31
 70
     0
102
RTVSPost2010Prop32
280
     0
102
RTVSPost2010PropOp32
 70
     0
102
RTVSPost2010Prop33
280
     0
102
RTVSPost2010PropOp33
 70
     0
102
RTVSPost2010Prop34
280
     0
102
RTVSPost2010PropOp34
 70
     0
102
RTVSPost2010Prop35
280
     0
102
RTVSPost2010PropOp35
 70
     0
102
RTVSPost2010Prop36
280
     0
102
RTVSPost2010PropOp36
 70
     0
102
RTVSPost2010Prop37
 90
       50
102
RTVSPost2010PropOp37
 70
     0
102
RTVSPost2010Prop38
140
0.0
102
RTVSPost2010PropOp38
 70
     0
102
RTVSPost2010Prop39
140
1.0
102
RTVSPost2010PropOp39
 70
     0
102
RTVSPost2010Prop40
 90
        0
102
RTVSPost2010PropOp40
 70
     0
102
RTVSPost2010Prop41ColorIndex
 90
       18
102
RTVSPost2010Prop41ColorRGB
 90
        0
102
RTVSPost2010PropOp41
 70
     0
102
RTVSPost2010Prop42
 90
       50
102
RTVSPost2010PropOp42
 70
     0
102
RTVSPost2010Prop43
 90
        3
102
RTVSPost2010PropOp43
 70
     0
102
RTVSPost2010Prop44ColorIndex
 90
        5
102
RTVSPost2010Prop44ColorRGB
 90
      255
102
RTVSPost2010PropOp44
 70
     0
102
RTVSPost2010Prop45
280
     0
102
RTVSPost2010PropOp45
 70
     0
102
RTVSPost2010Prop46
 90
       50
102
RTVSPost2010PropOp46
 70
     0
102
RTVSPost2010Prop47
 90
       50
102
RTVSPost2010PropOp47
 70
     0
102
RTVSPost2010Prop48
 90
       50
102
RTVSPost2010PropOp48
 70
     0
102
RTVSPost2010Prop49
280
     0
102
RTVSPost2010PropOp49
 70
     0
102
RTVSPost2010Prop50
 90
       50
102
RTVSPost2010PropOp50
 70
     0
102
RTVSPost2010Prop51ColorIndex
 90
      256
102
RTVSPost2010Prop51ColorRGB
 90
-16777216
102
RTVSPost2010PropOp51
 70
     0
102
RTVSPost2010Prop52
140
1.0
102
RTVSPost2010PropOp52
 70
     0
102
RTVSPost2010Prop53
 90
        2
102
RTVSPost2010PropOp53
 70
     0
102
RTVSPost2010Prop54
  1
strokes_ogs.tif
102
RTVSPost2010PropOp54
 70
     0
102
RTVSPost2010Prop55
280
     0
102
RTVSPost2010PropOp55
 70
     0
102
RTVSPost2010Prop56
140
1.0
102
RTVSPost2010PropOp56
 70
     0
102
RTVSPost2010Prop57
140
1.0
102
RTVSPost2010PropOp57
 70
     0
  0
XRECORD
  5
212
102
{ACAD_REACTORS
330
211
102
}
330
211
100
AcDbXrecord
280
     1
102
RTVSPost2010Prop28
280
     0
102
RTVSPost2010PropOp28
 70
     1
102
RTVSPost2010Prop29
280
     1
102
RTVSPost2010PropOp29
 70
     1
102
RTVSPost2010Prop30
280
     1
102
RTVSPost2010PropOp30
 70
     1
102
RTVSPost2010Prop31
280
     0
102
RTVSPost2010PropOp31
 70
     1
102
RTVSPost2010Prop32
280
     0
102
RTVSPost2010PropOp32
 70
     1
102
RTVSPost2010Prop33
280
     0
102
RTVSPost2010PropOp33
 70
     1
102
RTVSPost2010Prop34
280
     0
102
RTVSPost2010PropOp34
 70
     1
102
RTVSPost2010Prop35
280
     0
102
RTVSPost2010PropOp35
 70
     1
102
RTVSPost2010Prop36
280
     0
102
RTVSPost2010PropOp36
 70
     1
102
RTVSPost2010Prop37
 90
       50
102
RTVSPost2010PropOp37
 70
     1
102
RTVSPost2010Prop38
140
0.0
102
RTVSPost2010PropOp38
 70
     1
102
RTVSPost2010Prop39
140
1.0
102
RTVSPost2010PropOp39
 70
     1
102
RTVSPost2010Prop40
 90
        0
102
RTVSPost2010PropOp40
 70
     1
102
RTVSPost2010Prop41ColorIndex
 90
       18
102
RTVSPost2010Prop41ColorRGB
 90
        0
102
RTVSPost2010PropOp41
 70
     1
102
RTVSPost2010Prop42
 90
       50
102
RTVSPost2010PropOp42
 70
     1
102
RTVSPost2010Prop43
 90
        3
102
RTVSPost2010PropOp43
 70
     1
102
RTVSPost2010Prop44ColorIndex
 90
        5
102
RTVSPost2010Prop44ColorRGB
 90
      255
102
RTVSPost2010PropOp44
 70
     1
102
RTVSPost2010Prop45
280
     0
102
RTVSPost2010PropOp45
 70
     1
102
RTVSPost2010Prop46
 90
       50
102
RTVSPost2010PropOp46
 70
     1
102
RTVSPost2010Prop47
 90
       50
102
RTVSPost2010PropOp47
 70
     1
102
RTVSPost2010Prop48
 90
       50
102
RTVSPost2010PropOp48
 70
     1
102
RTVSPost2010Prop49
280
     0
102
RTVSPost2010PropOp49
 70
     1
102
RTVSPost2010Prop50
 90
       50
102
RTVSPost2010PropOp50
 70
     1
102
RTVSPost2010Prop51ColorIndex
 90
      256
102
RTVSPost2010Prop51ColorRGB
 90
-16777216
102
RTVSPost2010PropOp51
 70
     0
102
RTVSPost2010Prop52
140
1.0
102
RTVSPost2010PropOp52
 70
     0
102
RTVSPost2010Prop53
 90
        2
102
RTVSPost2010PropOp53
 70
     1
102
RTVSPost2010Prop54
  1
strokes_ogs.tif
102
RTVSPost2010PropOp54
 70
     1
102
RTVSPost2010Prop55
280
     0
102
RTVSPost2010PropOp55
 70
     1
102
RTVSPost2010Prop56
140
1.0
102
RTVSPost2010PropOp56
 70
     1
102
RTVSPost2010Prop57
140
1.0
102
RTVSPost2010PropOp57
 70
     1
  0
XRECORD
  5
1F6
102
{ACAD_REACTORS
330
1F5
102
}
330
1F5
100
AcDbXrecord
280
     1
102
RTVSPost2010Prop28
280
     0
102
RTVSPost2010PropOp28
 70
     1
102
RTVSPost2010Prop29
280
     1
102
RTVSPost2010PropOp29
 70
     1
102
RTVSPost2010Prop30
280
     1
102
RTVSPost2010PropOp30
 70
     1
102
RTVSPost2010Prop31
280
     0
102
RTVSPost2010PropOp31
 70
     1
102
RTVSPost2010Prop32
280
     0
102
RTVSPost2010PropOp32
 70
     1
102
RTVSPost2010Prop33
280
     0
102
RTVSPost2010PropOp33
 70
     1
102
RTVSPost2010Prop34
280
     0
102
RTVSPost2010PropOp34
 70
     1
102
RTVSPost2010Prop35
280
     0
102
RTVSPost2010PropOp35
 70
     1
102
RTVSPost2010Prop36
280
     0
102
RTVSPost2010PropOp36
 70
     1
102
RTVSPost2010Prop37
 90
       50
102
RTVSPost2010PropOp37
 70
     1
102
RTVSPost2010Prop38
140
0.0
102
RTVSPost2010PropOp38
 70
     1
102
RTVSPost2010Prop39
140
1.0
102
RTVSPost2010PropOp39
 70
     1
102
RTVSPost2010Prop40
 90
        0
102
RTVSPost2010PropOp40
 70
     1
102
RTVSPost2010Prop41ColorIndex
 90
       18
102
RTVSPost2010Prop41ColorRGB
 90
        0
102
RTVSPost2010PropOp41
 70
     1
102
RTVSPost2010Prop42
 90
       50
102
RTVSPost2010PropOp42
 70
     1
102
RTVSPost2010Prop43
 90
        3
102
RTVSPost2010PropOp43
 70
     1
102
RTVSPost2010Prop44ColorIndex
 90
        5
102
RTVSPost2010Prop44ColorRGB
 90
      255
102
RTVSPost2010PropOp44
 70
     1
102
RTVSPost2010Prop45
280
     0
102
RTVSPost2010PropOp45
 70
     1
102
RTVSPost2010Prop46
 90
       50
102
RTVSPost2010PropOp46
 70
     1
102
RTVSPost2010Prop47
 90
       50
102
RTVSPost2010PropOp47
 70
     1
102
RTVSPost2010Prop48
 90
       50
102
RTVSPost2010PropOp48
 70
     1
102
RTVSPost2010Prop49
280
     0
102
RTVSPost2010PropOp49
 70
     1
102
RTVSPost2010Prop50
 90
       50
102
RTVSPost2010PropOp50
 70
     1
102
RTVSPost2010Prop51ColorIndex
 90
      256
102
RTVSPost2010Prop51ColorRGB
 90
-16777216
102
RTVSPost2010PropOp51
 70
     0
102
RTVSPost2010Prop52
140
1.0
102
RTVSPost2010PropOp52
 70
     0
102
RTVSPost2010Prop53
 90
        2
102
RTVSPost2010PropOp53
 70
     1
102
RTVSPost2010Prop54
  1
strokes_ogs.tif
102
RTVSPost2010PropOp54
 70
     1
102
RTVSPost2010Prop55
280
     0
102
RTVSPost2010PropOp55
 70
     1
102
RTVSPost2010Prop56
140
1.0
102
RTVSPost2010PropOp56
 70
     1
102
RTVSPost2010Prop57
140
1.0
102
RTVSPost2010PropOp57
 70
     1
  0
XRECORD
  5
1F8
102
{ACAD_REACTORS
330
1F7
102
}
330
1F7
100
AcDbXrecord
280
     1
102
RTVSPost2010Prop28
280
     0
102
RTVSPost2010PropOp28
 70
     1
102
RTVSPost2010Prop29
280
     1
102
RTVSPost2010PropOp29
 70
     1
102
RTVSPost2010Prop30
280
     1
102
RTVSPost2010PropOp30
 70
     1
102
RTVSPost2010Prop31
280
     0
102
RTVSPost2010PropOp31
 70
     1
102
RTVSPost2010Prop32
280
     0
102
RTVSPost2010PropOp32
 70
     1
102
RTVSPost2010Prop33
280
     0
102
RTVSPost2010PropOp33
 70
     1
102
RTVSPost2010Prop34
280
     0
102
RTVSPost2010PropOp34
 70
     1
102
RTVSPost2010Prop35
280
     0
102
RTVSPost2010PropOp35
 70
     1
102
RTVSPost2010Prop36
280
     0
102
RTVSPost2010PropOp36
 70
     1
102
RTVSPost2010Prop37
 90
       50
102
RTVSPost2010PropOp37
 70
     1
102
RTVSPost2010Prop38
140
0.0
102
RTVSPost2010PropOp38
 70
     1
102
RTVSPost2010Prop39
140
1.0
102
RTVSPost2010PropOp39
 70
     1
102
RTVSPost2010Prop40
 90
        0
102
RTVSPost2010PropOp40
 70
     1
102
RTVSPost2010Prop41ColorIndex
 90
       18
102
RTVSPost2010Prop41ColorRGB
 90
        0
102
RTVSPost2010PropOp41
 70
     1
102
RTVSPost2010Prop42
 90
       50
102
RTVSPost2010PropOp42
 70
     1
102
RTVSPost2010Prop43
 90
        3
102
RTVSPost2010PropOp43
 70
     1
102
RTVSPost2010Prop44ColorIndex
 90
        5
102
RTVSPost2010Prop44ColorRGB
 90
      255
102
RTVSPost2010PropOp44
 70
     1
102
RTVSPost2010Prop45
280
     0
102
RTVSPost2010PropOp45
 70
     1
102
RTVSPost2010Prop46
 90
       50
102
RTVSPost2010PropOp46
 70
     1
102
RTVSPost2010Prop47
 90
       50
102
RTVSPost2010PropOp47
 70
     1
102
RTVSPost2010Prop48
 90
       50
102
RTVSPost2010PropOp48
 70
     1
102
RTVSPost2010Prop49
280
     0
102
RTVSPost2010PropOp49
 70
     1
102
RTVSPost2010Prop50
 90
       50
102
RTVSPost2010PropOp50
 70
     1
102
RTVSPost2010Prop51ColorIndex
 90
      256
102
RTVSPost2010Prop51ColorRGB
 90
-16777216
102
RTVSPost2010PropOp51
 70
     0
102
RTVSPost2010Prop52
140
1.0
102
RTVSPost2010PropOp52
 70
     0
102
RTVSPost2010Prop53
 90
        2
102
RTVSPost2010PropOp53
 70
     1
102
RTVSPost2010Prop54
  1
strokes_ogs.tif
102
RTVSPost2010PropOp54
 70
     1
102
RTVSPost2010Prop55
280
     0
102
RTVSPost2010PropOp55
 70
     1
102
RTVSPost2010Prop56
140
1.0
102
RTVSPost2010PropOp56
 70
     1
102
RTVSPost2010Prop57
140
1.0
102
RTVSPost2010PropOp57
 70
     1
  0
XRECORD
  5
1FA
102
{ACAD_REACTORS
330
1F9
102
}
330
1F9
100
AcDbXrecord
280
     1
102
RTVSPost2010Prop28
280
     0
102
RTVSPost2010PropOp28
 70
     1
102
RTVSPost2010Prop29
280
     1
102
RTVSPost2010PropOp29
 70
     1
102
RTVSPost2010Prop30
280
     1
102
RTVSPost2010PropOp30
 70
     1
102
RTVSPost2010Prop31
280
     0
102
RTVSPost2010PropOp31
 70
     1
102
RTVSPost2010Prop32
280
     0
102
RTVSPost2010PropOp32
 70
     1
102
RTVSPost2010Prop33
280
     0
102
RTVSPost2010PropOp33
 70
     1
102
RTVSPost2010Prop34
280
     0
102
RTVSPost2010PropOp34
 70
     1
102
RTVSPost2010Prop35
280
     0
102
RTVSPost2010PropOp35
 70
     1
102
RTVSPost2010Prop36
280
     0
102
RTVSPost2010PropOp36
 70
     1
102
RTVSPost2010Prop37
 90
       50
102
RTVSPost2010PropOp37
 70
     1
102
RTVSPost2010Prop38
140
0.0
102
RTVSPost2010PropOp38
 70
     1
102
RTVSPost2010Prop39
140
1.0
102
RTVSPost2010PropOp39
 70
     1
102
RTVSPost2010Prop40
 90
        0
102
RTVSPost2010PropOp40
 70
     1
102
RTVSPost2010Prop41ColorIndex
 90
       18
102
RTVSPost2010Prop41ColorRGB
 90
        0
102
RTVSPost2010PropOp41
 70
     1
102
RTVSPost2010Prop42
 90
       50
102
RTVSPost2010PropOp42
 70
     1
102
RTVSPost2010Prop43
 90
        3
102
RTVSPost2010PropOp43
 70
     1
102
RTVSPost2010Prop44ColorIndex
 90
        5
102
RTVSPost2010Prop44ColorRGB
 90
      255
102
RTVSPost2010PropOp44
 70
     1
102
RTVSPost2010Prop45
280
     0
102
RTVSPost2010PropOp45
 70
     1
102
RTVSPost2010Prop46
 90
       50
102
RTVSPost2010PropOp46
 70
     1
102
RTVSPost2010Prop47
 90
       50
102
RTVSPost2010PropOp47
 70
     1
102
RTVSPost2010Prop48
 90
       50
102
RTVSPost2010PropOp48
 70
     1
102
RTVSPost2010Prop49
280
     0
102
RTVSPost2010PropOp49
 70
     1
102
RTVSPost2010Prop50
 90
       50
102
RTVSPost2010PropOp50
 70
     1
102
RTVSPost2010Prop51ColorIndex
 90
      256
102
RTVSPost2010Prop51ColorRGB
 90
-16777216
102
RTVSPost2010PropOp51
 70
     0
102
RTVSPost2010Prop52
140
1.0
102
RTVSPost2010PropOp52
 70
     0
102
RTVSPost2010Prop53
 90
        2
102
RTVSPost2010PropOp53
 70
     1
102
RTVSPost2010Prop54
  1
strokes_ogs.tif
102
RTVSPost2010PropOp54
 70
     1
102
RTVSPost2010Prop55
280
     0
102
RTVSPost2010PropOp55
 70
     1
102
RTVSPost2010Prop56
140
1.0
102
RTVSPost2010PropOp56
 70
     1
102
RTVSPost2010Prop57
140
1.0
102
RTVSPost2010PropOp57
 70
     1
  0
XRECORD
  5
1FC
102
{ACAD_REACTORS
330
1FB
102
}
330
1FB
100
AcDbXrecord
280
     1
102
RTVSPost2010Prop28
280
     0
102
RTVSPost2010PropOp28
 70
     1
102
RTVSPost2010Prop29
280
     1
102
RTVSPost2010PropOp29
 70
     1
102
RTVSPost2010Prop30
280
     1
102
RTVSPost2010PropOp30
 70
     1
102
RTVSPost2010Prop31
280
     0
102
RTVSPost2010PropOp31
 70
     1
102
RTVSPost2010Prop32
280
     0
102
RTVSPost2010PropOp32
 70
     1
102
RTVSPost2010Prop33
280
     0
102
RTVSPost2010PropOp33
 70
     1
102
RTVSPost2010Prop34
280
     0
102
RTVSPost2010PropOp34
 70
     1
102
RTVSPost2010Prop35
280
     0
102
RTVSPost2010PropOp35
 70
     1
102
RTVSPost2010Prop36
280
     0
102
RTVSPost2010PropOp36
 70
     1
102
RTVSPost2010Prop37
 90
       50
102
RTVSPost2010PropOp37
 70
     1
102
RTVSPost2010Prop38
140
0.0
102
RTVSPost2010PropOp38
 70
     1
102
RTVSPost2010Prop39
140
1.0
102
RTVSPost2010PropOp39
 70
     1
102
RTVSPost2010Prop40
 90
        0
102
RTVSPost2010PropOp40
 70
     1
102
RTVSPost2010Prop41ColorIndex
 90
       18
102
RTVSPost2010Prop41ColorRGB
 90
        0
102
RTVSPost2010PropOp41
 70
     1
102
RTVSPost2010Prop42
 90
       50
102
RTVSPost2010PropOp42
 70
     1
102
RTVSPost2010Prop43
 90
        3
102
RTVSPost2010PropOp43
 70
     1
102
RTVSPost2010Prop44ColorIndex
 90
        5
102
RTVSPost2010Prop44ColorRGB
 90
      255
102
RTVSPost2010PropOp44
 70
     1
102
RTVSPost2010Prop45
280
     0
102
RTVSPost2010PropOp45
 70
     1
102
RTVSPost2010Prop46
 90
       50
102
RTVSPost2010PropOp46
 70
     1
102
RTVSPost2010Prop47
 90
       50
102
RTVSPost2010PropOp47
 70
     1
102
RTVSPost2010Prop48
 90
       50
102
RTVSPost2010PropOp48
 70
     1
102
RTVSPost2010Prop49
280
     0
102
RTVSPost2010PropOp49
 70
     1
102
RTVSPost2010Prop50
 90
       50
102
RTVSPost2010PropOp50
 70
     1
102
RTVSPost2010Prop51ColorIndex
 90
      256
102
RTVSPost2010Prop51ColorRGB
 90
-16777216
102
RTVSPost2010PropOp51
 70
     0
102
RTVSPost2010Prop52
140
1.0
102
RTVSPost2010PropOp52
 70
     0
102
RTVSPost2010Prop53
 90
        2
102
RTVSPost2010PropOp53
 70
     1
102
RTVSPost2010Prop54
  1
strokes_ogs.tif
102
RTVSPost2010PropOp54
 70
     1
102
RTVSPost2010Prop55
280
     0
102
RTVSPost2010PropOp55
 70
     1
102
RTVSPost2010Prop56
140
1.0
102
RTVSPost2010PropOp56
 70
     1
102
RTVSPost2010Prop57
140
1.0
102
RTVSPost2010PropOp57
 70
     1
  0
XRECORD
  5
202
102
{ACAD_REACTORS
330
201
102
}
330
201
100
AcDbXrecord
280
     1
102
RTVSPost2010Prop28
280
     0
102
RTVSPost2010PropOp28
 70
     1
102
RTVSPost2010Prop29
280
     1
102
RTVSPost2010PropOp29
 70
     1
102
RTVSPost2010Prop30
280
     1
102
RTVSPost2010PropOp30
 70
     1
102
RTVSPost2010Prop31
280
     0
102
RTVSPost2010PropOp31
 70
     1
102
RTVSPost2010Prop32
280
     0
102
RTVSPost2010PropOp32
 70
     1
102
RTVSPost2010Prop33
280
     0
102
RTVSPost2010PropOp33
 70
     1
102
RTVSPost2010Prop34
280
     0
102
RTVSPost2010PropOp34
 70
     1
102
RTVSPost2010Prop35
280
     0
102
RTVSPost2010PropOp35
 70
     1
102
RTVSPost2010Prop36
280
     0
102
RTVSPost2010PropOp36
 70
     1
102
RTVSPost2010Prop37
 90
       50
102
RTVSPost2010PropOp37
 70
     1
102
RTVSPost2010Prop38
140
0.0
102
RTVSPost2010PropOp38
 70
     1
102
RTVSPost2010Prop39
140
1.0
102
RTVSPost2010PropOp39
 70
     1
102
RTVSPost2010Prop40
 90
        0
102
RTVSPost2010PropOp40
 70
     1
102
RTVSPost2010Prop41ColorIndex
 90
       18
102
RTVSPost2010Prop41ColorRGB
 90
        0
102
RTVSPost2010PropOp41
 70
     1
102
RTVSPost2010Prop42
 90
       50
102
RTVSPost2010PropOp42
 70
     1
102
RTVSPost2010Prop43
 90
        3
102
RTVSPost2010PropOp43
 70
     1
102
RTVSPost2010Prop44ColorIndex
 90
        5
102
RTVSPost2010Prop44ColorRGB
 90
      255
102
RTVSPost2010PropOp44
 70
     1
102
RTVSPost2010Prop45
280
     0
102
RTVSPost2010PropOp45
 70
     1
102
RTVSPost2010Prop46
 90
       50
102
RTVSPost2010PropOp46
 70
     1
102
RTVSPost2010Prop47
 90
       50
102
RTVSPost2010PropOp47
 70
     1
102
RTVSPost2010Prop48
 90
       50
102
RTVSPost2010PropOp48
 70
     1
102
RTVSPost2010Prop49
280
     0
102
RTVSPost2010PropOp49
 70
     1
102
RTVSPost2010Prop50
 90
       50
102
RTVSPost2010PropOp50
 70
     1
102
RTVSPost2010Prop51ColorIndex
 90
      256
102
RTVSPost2010Prop51ColorRGB
 90
-16777216
102
RTVSPost2010PropOp51
 70
     0
102
RTVSPost2010Prop52
140
1.0
102
RTVSPost2010PropOp52
 70
     0
102
RTVSPost2010Prop53
 90
        2
102
RTVSPost2010PropOp53
 70
     1
102
RTVSPost2010Prop54
  1
strokes_ogs.tif
102
RTVSPost2010PropOp54
 70
     1
102
RTVSPost2010Prop55
280
     0
102
RTVSPost2010PropOp55
 70
     1
102
RTVSPost2010Prop56
140
1.0
102
RTVSPost2010PropOp56
 70
     1
102
RTVSPost2010Prop57
140
1.0
102
RTVSPost2010PropOp57
 70
     1
  0
XRECORD
  5
216
102
{ACAD_REACTORS
330
215
102
}
330
215
100
AcDbXrecord
280
     1
102
RTVSPost2010Prop28
280
     0
102
RTVSPost2010PropOp28
 70
     0
102
RTVSPost2010Prop29
280
     1
102
RTVSPost2010PropOp29
 70
     0
102
RTVSPost2010Prop30
280
     1
102
RTVSPost2010PropOp30
 70
     0
102
RTVSPost2010Prop31
280
     0
102
RTVSPost2010PropOp31
 70
     0
102
RTVSPost2010Prop32
280
     0
102
RTVSPost2010PropOp32
 70
     0
102
RTVSPost2010Prop33
280
     0
102
RTVSPost2010PropOp33
 70
     0
102
RTVSPost2010Prop34
280
     0
102
RTVSPost2010PropOp34
 70
     0
102
RTVSPost2010Prop35
280
     0
102
RTVSPost2010PropOp35
 70
     0
102
RTVSPost2010Prop36
280
     0
102
RTVSPost2010PropOp36
 70
     0
102
RTVSPost2010Prop37
 90
       50
102
RTVSPost2010PropOp37
 70
     0
102
RTVSPost2010Prop38
140
0.0
102
RTVSPost2010PropOp38
 70
     0
102
RTVSPost2010Prop39
140
1.0
102
RTVSPost2010PropOp39
 70
     0
102
RTVSPost2010Prop40
 90
        0
102
RTVSPost2010PropOp40
 70
     0
102
RTVSPost2010Prop41ColorIndex
 90
       18
102
RTVSPost2010Prop41ColorRGB
 90
        0
102
RTVSPost2010PropOp41
 70
     0
102
RTVSPost2010Prop42
 90
       50
102
RTVSPost2010PropOp42
 70
     0
102
RTVSPost2010Prop43
 90
        3
102
RTVSPost2010PropOp43
 70
     0
102
RTVSPost2010Prop44ColorIndex
 90
        5
102
RTVSPost2010Prop44ColorRGB
 90
      255
102
RTVSPost2010PropOp44
 70
     0
102
RTVSPost2010Prop45
280
     0
102
RTVSPost2010PropOp45
 70
     0
102
RTVSPost2010Prop46
 90
       50
102
RTVSPost2010PropOp46
 70
     0
102
RTVSPost2010Prop47
 90
       50
102
RTVSPost2010PropOp47
 70
     0
102
RTVSPost2010Prop48
 90
       50
102
RTVSPost2010PropOp48
 70
     0
102
RTVSPost2010Prop49
280
     0
102
RTVSPost2010PropOp49
 70
     0
102
RTVSPost2010Prop50
 90
       50
102
RTVSPost2010PropOp50
 70
     0
102
RTVSPost2010Prop51ColorIndex
 90
      256
102
RTVSPost2010Prop51ColorRGB
 90
-16777216
102
RTVSPost2010PropOp51
 70
     0
102
RTVSPost2010Prop52
140
1.0
102
RTVSPost2010PropOp52
 70
     0
102
RTVSPost2010Prop53
 90
        2
102
RTVSPost2010PropOp53
 70
     0
102
RTVSPost2010Prop54
  1
strokes_ogs.tif
102
RTVSPost2010PropOp54
 70
     0
102
RTVSPost2010Prop55
280
     0
102
RTVSPost2010PropOp55
 70
     0
102
RTVSPost2010Prop56
140
1.0
102
RTVSPost2010PropOp56
 70
     0
102
RTVSPost2010Prop57
140
1.0
102
RTVSPost2010PropOp57
 70
     0
  0
XRECORD
  5
210
102
{ACAD_REACTORS
330
20F
102
}
330
20F
100
AcDbXrecord
280
     1
102
RTVSPost2010Prop28
280
     0
102
RTVSPost2010PropOp28
 70
     1
102
RTVSPost2010Prop29
280
     1
102
RTVSPost2010PropOp29
 70
     1
102
RTVSPost2010Prop30
280
     1
102
RTVSPost2010PropOp30
 70
     1
102
RTVSPost2010Prop31
280
     0
102
RTVSPost2010PropOp31
 70
     1
102
RTVSPost2010Prop32
280
     0
102
RTVSPost2010PropOp32
 70
     1
102
RTVSPost2010Prop33
280
     0
102
RTVSPost2010PropOp33
 70
     1
102
RTVSPost2010Prop34
280
     0
102
RTVSPost2010PropOp34
 70
     1
102
RTVSPost2010Prop35
280
     0
102
RTVSPost2010PropOp35
 70
     1
102
RTVSPost2010Prop36
280
     0
102
RTVSPost2010PropOp36
 70
     1
102
RTVSPost2010Prop37
 90
       50
102
RTVSPost2010PropOp37
 70
     1
102
RTVSPost2010Prop38
140
0.0
102
RTVSPost2010PropOp38
 70
     1
102
RTVSPost2010Prop39
140
1.0
102
RTVSPost2010PropOp39
 70
     1
102
RTVSPost2010Prop40
 90
        0
102
RTVSPost2010PropOp40
 70
     1
102
RTVSPost2010Prop41ColorIndex
 90
       18
102
RTVSPost2010Prop41ColorRGB
 90
        0
102
RTVSPost2010PropOp41
 70
     1
102
RTVSPost2010Prop42
 90
       50
102
RTVSPost2010PropOp42
 70
     1
102
RTVSPost2010Prop43
 90
        3
102
RTVSPost2010PropOp43
 70
     1
102
RTVSPost2010Prop44ColorIndex
 90
        5
102
RTVSPost2010Prop44ColorRGB
 90
      255
102
RTVSPost2010PropOp44
 70
     1
102
RTVSPost2010Prop45
280
     0
102
RTVSPost2010PropOp45
 70
     1
102
RTVSPost2010Prop46
 90
       50
102
RTVSPost2010PropOp46
 70
     1
102
RTVSPost2010Prop47
 90
       50
102
RTVSPost2010PropOp47
 70
     1
102
RTVSPost2010Prop48
 90
       50
102
RTVSPost2010PropOp48
 70
     1
102
RTVSPost2010Prop49
280
     0
102
RTVSPost2010PropOp49
 70
     1
102
RTVSPost2010Prop50
 90
       50
102
RTVSPost2010PropOp50
 70
     1
102
RTVSPost2010Prop51ColorIndex
 90
      256
102
RTVSPost2010Prop51ColorRGB
 90
-16777216
102
RTVSPost2010PropOp51
 70
     0
102
RTVSPost2010Prop52
140
1.0
102
RTVSPost2010PropOp52
 70
     0
102
RTVSPost2010Prop53
 90
        2
102
RTVSPost2010PropOp53
 70
     1
102
RTVSPost2010Prop54
  1
strokes_ogs.tif
102
RTVSPost2010PropOp54
 70
     1
102
RTVSPost2010Prop55
280
     0
102
RTVSPost2010PropOp55
 70
     1
102
RTVSPost2010Prop56
140
1.0
102
RTVSPost2010PropOp56
 70
     1
102
RTVSPost2010Prop57
140
1.0
102
RTVSPost2010PropOp57
 70
     1
  0
XRECORD
  5
218
102
{ACAD_REACTORS
330
217
102
}
330
217
100
AcDbXrecord
280
     1
102
RTVSPost2010Prop28
280
     0
102
RTVSPost2010PropOp28
 70
     0
102
RTVSPost2010Prop29
280
     1
102
RTVSPost2010PropOp29
 70
     0
102
RTVSPost2010Prop30
280
     1
102
RTVSPost2010PropOp30
 70
     0
102
RTVSPost2010Prop31
280
     0
102
RTVSPost2010PropOp31
 70
     0
102
RTVSPost2010Prop32
280
     0
102
RTVSPost2010PropOp32
 70
     0
102
RTVSPost2010Prop33
280
     0
102
RTVSPost2010PropOp33
 70
     0
102
RTVSPost2010Prop34
280
     0
102
RTVSPost2010PropOp34
 70
     0
102
RTVSPost2010Prop35
280
     0
102
RTVSPost2010PropOp35
 70
     0
102
RTVSPost2010Prop36
280
     0
102
RTVSPost2010PropOp36
 70
     0
102
RTVSPost2010Prop37
 90
       50
102
RTVSPost2010PropOp37
 70
     0
102
RTVSPost2010Prop38
140
0.0
102
RTVSPost2010PropOp38
 70
     0
102
RTVSPost2010Prop39
140
1.0
102
RTVSPost2010PropOp39
 70
     0
102
RTVSPost2010Prop40
 90
        0
102
RTVSPost2010PropOp40
 70
     0
102
RTVSPost2010Prop41ColorIndex
 90
       18
102
RTVSPost2010Prop41ColorRGB
 90
        0
102
RTVSPost2010PropOp41
 70
     0
102
RTVSPost2010Prop42
 90
       50
102
RTVSPost2010PropOp42
 70
     0
102
RTVSPost2010Prop43
 90
        3
102
RTVSPost2010PropOp43
 70
     0
102
RTVSPost2010Prop44ColorIndex
 90
        5
102
RTVSPost2010Prop44ColorRGB
 90
      255
102
RTVSPost2010PropOp44
 70
     0
102
RTVSPost2010Prop45
280
     0
102
RTVSPost2010PropOp45
 70
     0
102
RTVSPost2010Prop46
 90
       50
102
RTVSPost2010PropOp46
 70
     0
102
RTVSPost2010Prop47
 90
       50
102
RTVSPost2010PropOp47
 70
     0
102
RTVSPost2010Prop48
 90
       50
102
RTVSPost2010PropOp48
 70
     0
102
RTVSPost2010Prop49
280
     0
102
RTVSPost2010PropOp49
 70
     0
102
RTVSPost2010Prop50
 90
       50
102
RTVSPost2010PropOp50
 70
     0
102
RTVSPost2010Prop51ColorIndex
 90
      256
102
RTVSPost2010Prop51ColorRGB
 90
-16777216
102
RTVSPost2010PropOp51
 70
     0
102
RTVSPost2010Prop52
140
1.0
102
RTVSPost2010PropOp52
 70
     0
102
RTVSPost2010Prop53
 90
        2
102
RTVSPost2010PropOp53
 70
     0
102
RTVSPost2010Prop54
  1
strokes_ogs.tif
102
RTVSPost2010PropOp54
 70
     0
102
RTVSPost2010Prop55
280
     0
102
RTVSPost2010PropOp55
 70
     0
102
RTVSPost2010Prop56
140
1.0
102
RTVSPost2010PropOp56
 70
     0
102
RTVSPost2010Prop57
140
1.0
102
RTVSPost2010PropOp57
 70
     0
  0
XRECORD
  5
206
102
{ACAD_REACTORS
330
205
102
}
330
205
100
AcDbXrecord
280
     1
102
RTVSPost2010Prop28
280
     0
102
RTVSPost2010PropOp28
 70
     1
102
RTVSPost2010Prop29
280
     1
102
RTVSPost2010PropOp29
 70
     1
102
RTVSPost2010Prop30
280
     1
102
RTVSPost2010PropOp30
 70
     1
102
RTVSPost2010Prop31
280
     0
102
RTVSPost2010PropOp31
 70
     1
102
RTVSPost2010Prop32
280
     0
102
RTVSPost2010PropOp32
 70
     1
102
RTVSPost2010Prop33
280
     0
102
RTVSPost2010PropOp33
 70
     1
102
RTVSPost2010Prop34
280
     0
102
RTVSPost2010PropOp34
 70
     1
102
RTVSPost2010Prop35
280
     0
102
RTVSPost2010PropOp35
 70
     1
102
RTVSPost2010Prop36
280
     0
102
RTVSPost2010PropOp36
 70
     1
102
RTVSPost2010Prop37
 90
       50
102
RTVSPost2010PropOp37
 70
     1
102
RTVSPost2010Prop38
140
0.0
102
RTVSPost2010PropOp38
 70
     1
102
RTVSPost2010Prop39
140
1.0
102
RTVSPost2010PropOp39
 70
     1
102
RTVSPost2010Prop40
 90
        0
102
RTVSPost2010PropOp40
 70
     1
102
RTVSPost2010Prop41ColorIndex
 90
       18
102
RTVSPost2010Prop41ColorRGB
 90
        0
102
RTVSPost2010PropOp41
 70
     1
102
RTVSPost2010Prop42
 90
       50
102
RTVSPost2010PropOp42
 70
     1
102
RTVSPost2010Prop43
 90
        3
102
RTVSPost2010PropOp43
 70
     1
102
RTVSPost2010Prop44ColorIndex
 90
        5
102
RTVSPost2010Prop44ColorRGB
 90
      255
102
RTVSPost2010PropOp44
 70
     1
102
RTVSPost2010Prop45
280
     0
102
RTVSPost2010PropOp45
 70
     1
102
RTVSPost2010Prop46
 90
       50
102
RTVSPost2010PropOp46
 70
     1
102
RTVSPost2010Prop47
 90
       50
102
RTVSPost2010PropOp47
 70
     1
102
RTVSPost2010Prop48
 90
       50
102
RTVSPost2010PropOp48
 70
     1
102
RTVSPost2010Prop49
280
     0
102
RTVSPost2010PropOp49
 70
     1
102
RTVSPost2010Prop50
 90
       50
102
RTVSPost2010PropOp50
 70
     1
102
RTVSPost2010Prop51ColorIndex
 90
      256
102
RTVSPost2010Prop51ColorRGB
 90
-16777216
102
RTVSPost2010PropOp51
 70
     0
102
RTVSPost2010Prop52
140
1.0
102
RTVSPost2010PropOp52
 70
     0
102
RTVSPost2010Prop53
 90
        2
102
RTVSPost2010PropOp53
 70
     1
102
RTVSPost2010Prop54
  1
strokes_ogs.tif
102
RTVSPost2010PropOp54
 70
     1
102
RTVSPost2010Prop55
280
     0
102
RTVSPost2010PropOp55
 70
     1
102
RTVSPost2010Prop56
140
1.0
102
RTVSPost2010PropOp56
 70
     1
102
RTVSPost2010Prop57
140
1.0
102
RTVSPost2010PropOp57
 70
     1
  0
XRECORD
  5
224
102
{ACAD_REACTORS
330
223
102
}
330
223
100
AcDbXrecord
280
     1
102
RTVSPost2010Prop28
280
     0
102
RTVSPost2010PropOp28
 70
     1
102
RTVSPost2010Prop29
280
     1
102
RTVSPost2010PropOp29
 70
     1
102
RTVSPost2010Prop30
280
     1
102
RTVSPost2010PropOp30
 70
     1
102
RTVSPost2010Prop31
280
     0
102
RTVSPost2010PropOp31
 70
     1
102
RTVSPost2010Prop32
280
     0
102
RTVSPost2010PropOp32
 70
     1
102
RTVSPost2010Prop33
280
     0
102
RTVSPost2010PropOp33
 70
     1
102
RTVSPost2010Prop34
280
     0
102
RTVSPost2010PropOp34
 70
     1
102
RTVSPost2010Prop35
280
     0
102
RTVSPost2010PropOp35
 70
     1
102
RTVSPost2010Prop36
280
     0
102
RTVSPost2010PropOp36
 70
     1
102
RTVSPost2010Prop37
 90
       50
102
RTVSPost2010PropOp37
 70
     1
102
RTVSPost2010Prop38
140
0.0
102
RTVSPost2010PropOp38
 70
     1
102
RTVSPost2010Prop39
140
1.0
102
RTVSPost2010PropOp39
 70
     1
102
RTVSPost2010Prop40
 90
        0
102
RTVSPost2010PropOp40
 70
     1
102
RTVSPost2010Prop41ColorIndex
 90
       18
102
RTVSPost2010Prop41ColorRGB
 90
        0
102
RTVSPost2010PropOp41
 70
     1
102
RTVSPost2010Prop42
 90
       50
102
RTVSPost2010PropOp42
 70
     1
102
RTVSPost2010Prop43
 90
        3
102
RTVSPost2010PropOp43
 70
     1
102
RTVSPost2010Prop44ColorIndex
 90
        5
102
RTVSPost2010Prop44ColorRGB
 90
      255
102
RTVSPost2010PropOp44
 70
     1
102
RTVSPost2010Prop45
280
     0
102
RTVSPost2010PropOp45
 70
     1
102
RTVSPost2010Prop46
 90
       50
102
RTVSPost2010PropOp46
 70
     1
102
RTVSPost2010Prop47
 90
       50
102
RTVSPost2010PropOp47
 70
     1
102
RTVSPost2010Prop48
 90
       50
102
RTVSPost2010PropOp48
 70
     1
102
RTVSPost2010Prop49
280
     0
102
RTVSPost2010PropOp49
 70
     1
102
RTVSPost2010Prop50
 90
       50
102
RTVSPost2010PropOp50
 70
     1
102
RTVSPost2010Prop51ColorIndex
 90
      256
102
RTVSPost2010Prop51ColorRGB
 90
-16777216
102
RTVSPost2010PropOp51
 70
     0
102
RTVSPost2010Prop52
140
1.0
102
RTVSPost2010PropOp52
 70
     0
102
RTVSPost2010Prop53
 90
        2
102
RTVSPost2010PropOp53
 70
     1
102
RTVSPost2010Prop54
  1
strokes_ogs.tif
102
RTVSPost2010PropOp54
 70
     1
102
RTVSPost2010Prop55
280
     0
102
RTVSPost2010PropOp55
 70
     1
102
RTVSPost2010Prop56
140
1.0
102
RTVSPost2010PropOp56
 70
     1
102
RTVSPost2010Prop57
140
1.0
102
RTVSPost2010PropOp57
 70
     1
  0
XRECORD
  5
222
102
{ACAD_REACTORS
330
221
102
}
330
221
100
AcDbXrecord
280
     1
102
RTVSPost2010Prop28
280
     0
102
RTVSPost2010PropOp28
 70
     1
102
RTVSPost2010Prop29
280
     1
102
RTVSPost2010PropOp29
 70
     1
102
RTVSPost2010Prop30
280
     1
102
RTVSPost2010PropOp30
 70
     1
102
RTVSPost2010Prop31
280
     0
102
RTVSPost2010PropOp31
 70
     1
102
RTVSPost2010Prop32
280
     0
102
RTVSPost2010PropOp32
 70
     1
102
RTVSPost2010Prop33
280
     0
102
RTVSPost2010PropOp33
 70
     1
102
RTVSPost2010Prop34
280
     0
102
RTVSPost2010PropOp34
 70
     1
102
RTVSPost2010Prop35
280
     0
102
RTVSPost2010PropOp35
 70
     1
102
RTVSPost2010Prop36
280
     0
102
RTVSPost2010PropOp36
 70
     1
102
RTVSPost2010Prop37
 90
       50
102
RTVSPost2010PropOp37
 70
     1
102
RTVSPost2010Prop38
140
0.0
102
RTVSPost2010PropOp38
 70
     1
102
RTVSPost2010Prop39
140
1.0
102
RTVSPost2010PropOp39
 70
     1
102
RTVSPost2010Prop40
 90
        0
102
RTVSPost2010PropOp40
 70
     1
102
RTVSPost2010Prop41ColorIndex
 90
       18
102
RTVSPost2010Prop41ColorRGB
 90
        0
102
RTVSPost2010PropOp41
 70
     1
102
RTVSPost2010Prop42
 90
       50
102
RTVSPost2010PropOp42
 70
     1
102
RTVSPost2010Prop43
 90
        3
102
RTVSPost2010PropOp43
 70
     1
102
RTVSPost2010Prop44ColorIndex
 90
        5
102
RTVSPost2010Prop44ColorRGB
 90
      255
102
RTVSPost2010PropOp44
 70
     1
102
RTVSPost2010Prop45
280
     0
102
RTVSPost2010PropOp45
 70
     1
102
RTVSPost2010Prop46
 90
       50
102
RTVSPost2010PropOp46
 70
     1
102
RTVSPost2010Prop47
 90
       50
102
RTVSPost2010PropOp47
 70
     1
102
RTVSPost2010Prop48
 90
       50
102
RTVSPost2010PropOp48
 70
     1
102
RTVSPost2010Prop49
280
     0
102
RTVSPost2010PropOp49
 70
     1
102
RTVSPost2010Prop50
 90
       50
102
RTVSPost2010PropOp50
 70
     1
102
RTVSPost2010Prop51ColorIndex
 90
      256
102
RTVSPost2010Prop51ColorRGB
 90
-16777216
102
RTVSPost2010PropOp51
 70
     0
102
RTVSPost2010Prop52
140
1.0
102
RTVSPost2010PropOp52
 70
     0
102
RTVSPost2010Prop53
 90
        2
102
RTVSPost2010PropOp53
 70
     1
102
RTVSPost2010Prop54
  1
strokes_ogs.tif
102
RTVSPost2010PropOp54
 70
     1
102
RTVSPost2010Prop55
280
     0
102
RTVSPost2010PropOp55
 70
     1
102
RTVSPost2010Prop56
140
1.0
102
RTVSPost2010PropOp56
 70
     1
102
RTVSPost2010Prop57
140
1.0
102
RTVSPost2010PropOp57
 70
     1
  0
XRECORD
  5
21C
102
{ACAD_REACTORS
330
21B
102
}
330
21B
100
AcDbXrecord
280
     1
102
RTVSPost2010Prop28
280
     0
102
RTVSPost2010PropOp28
 70
     1
102
RTVSPost2010Prop29
280
     1
102
RTVSPost2010PropOp29
 70
     1
102
RTVSPost2010Prop30
280
     1
102
RTVSPost2010PropOp30
 70
     1
102
RTVSPost2010Prop31
280
     0
102
RTVSPost2010PropOp31
 70
     1
102
RTVSPost2010Prop32
280
     0
102
RTVSPost2010PropOp32
 70
     1
102
RTVSPost2010Prop33
280
     0
102
RTVSPost2010PropOp33
 70
     1
102
RTVSPost2010Prop34
280
     0
102
RTVSPost2010PropOp34
 70
     1
102
RTVSPost2010Prop35
280
     0
102
RTVSPost2010PropOp35
 70
     1
102
RTVSPost2010Prop36
280
     0
102
RTVSPost2010PropOp36
 70
     1
102
RTVSPost2010Prop37
 90
       50
102
RTVSPost2010PropOp37
 70
     1
102
RTVSPost2010Prop38
140
0.0
102
RTVSPost2010PropOp38
 70
     1
102
RTVSPost2010Prop39
140
1.0
102
RTVSPost2010PropOp39
 70
     1
102
RTVSPost2010Prop40
 90
        0
102
RTVSPost2010PropOp40
 70
     1
102
RTVSPost2010Prop41ColorIndex
 90
       18
102
RTVSPost2010Prop41ColorRGB
 90
        0
102
RTVSPost2010PropOp41
 70
     1
102
RTVSPost2010Prop42
 90
       50
102
RTVSPost2010PropOp42
 70
     1
102
RTVSPost2010Prop43
 90
        3
102
RTVSPost2010PropOp43
 70
     1
102
RTVSPost2010Prop44ColorIndex
 90
        5
102
RTVSPost2010Prop44ColorRGB
 90
      255
102
RTVSPost2010PropOp44
 70
     1
102
RTVSPost2010Prop45
280
     0
102
RTVSPost2010PropOp45
 70
     1
102
RTVSPost2010Prop46
 90
       50
102
RTVSPost2010PropOp46
 70
     1
102
RTVSPost2010Prop47
 90
       50
102
RTVSPost2010PropOp47
 70
     1
102
RTVSPost2010Prop48
 90
       50
102
RTVSPost2010PropOp48
 70
     1
102
RTVSPost2010Prop49
280
     0
102
RTVSPost2010PropOp49
 70
     1
102
RTVSPost2010Prop50
 90
       50
102
RTVSPost2010PropOp50
 70
     1
102
RTVSPost2010Prop51ColorIndex
 90
      256
102
RTVSPost2010Prop51ColorRGB
 90
-16777216
102
RTVSPost2010PropOp51
 70
     0
102
RTVSPost2010Prop52
140
1.0
102
RTVSPost2010PropOp52
 70
     0
102
RTVSPost2010Prop53
 90
        2
102
RTVSPost2010PropOp53
 70
     1
102
RTVSPost2010Prop54
  1
strokes_ogs.tif
102
RTVSPost2010PropOp54
 70
     1
102
RTVSPost2010Prop55
280
     0
102
RTVSPost2010PropOp55
 70
     1
102
RTVSPost2010Prop56
140
1.0
102
RTVSPost2010PropOp56
 70
     1
102
RTVSPost2010Prop57
140
1.0
102
RTVSPost2010PropOp57
 70
     1
  0
XRECORD
  5
21E
102
{ACAD_REACTORS
330
21D
102
}
330
21D
100
AcDbXrecord
280
     1
102
RTVSPost2010Prop28
280
     0
102
RTVSPost2010PropOp28
 70
     1
102
RTVSPost2010Prop29
280
     1
102
RTVSPost2010PropOp29
 70
     1
102
RTVSPost2010Prop30
280
     1
102
RTVSPost2010PropOp30
 70
     1
102
RTVSPost2010Prop31
280
     0
102
RTVSPost2010PropOp31
 70
     1
102
RTVSPost2010Prop32
280
     0
102
RTVSPost2010PropOp32
 70
     1
102
RTVSPost2010Prop33
280
     0
102
RTVSPost2010PropOp33
 70
     1
102
RTVSPost2010Prop34
280
     0
102
RTVSPost2010PropOp34
 70
     1
102
RTVSPost2010Prop35
280
     0
102
RTVSPost2010PropOp35
 70
     1
102
RTVSPost2010Prop36
280
     0
102
RTVSPost2010PropOp36
 70
     1
102
RTVSPost2010Prop37
 90
       50
102
RTVSPost2010PropOp37
 70
     1
102
RTVSPost2010Prop38
140
0.0
102
RTVSPost2010PropOp38
 70
     1
102
RTVSPost2010Prop39
140
1.0
102
RTVSPost2010PropOp39
 70
     1
102
RTVSPost2010Prop40
 90
        0
102
RTVSPost2010PropOp40
 70
     1
102
RTVSPost2010Prop41ColorIndex
 90
       18
102
RTVSPost2010Prop41ColorRGB
 90
        0
102
RTVSPost2010PropOp41
 70
     1
102
RTVSPost2010Prop42
 90
       50
102
RTVSPost2010PropOp42
 70
     1
102
RTVSPost2010Prop43
 90
        3
102
RTVSPost2010PropOp43
 70
     1
102
RTVSPost2010Prop44ColorIndex
 90
        5
102
RTVSPost2010Prop44ColorRGB
 90
      255
102
RTVSPost2010PropOp44
 70
     1
102
RTVSPost2010Prop45
280
     0
102
RTVSPost2010PropOp45
 70
     1
102
RTVSPost2010Prop46
 90
       50
102
RTVSPost2010PropOp46
 70
     1
102
RTVSPost2010Prop47
 90
       50
102
RTVSPost2010PropOp47
 70
     1
102
RTVSPost2010Prop48
 90
       50
102
RTVSPost2010PropOp48
 70
     1
102
RTVSPost2010Prop49
280
     0
102
RTVSPost2010PropOp49
 70
     1
102
RTVSPost2010Prop50
 90
       50
102
RTVSPost2010PropOp50
 70
     1
102
RTVSPost2010Prop51ColorIndex
 90
      256
102
RTVSPost2010Prop51ColorRGB
 90
-16777216
102
RTVSPost2010PropOp51
 70
     0
102
RTVSPost2010Prop52
140
1.0
102
RTVSPost2010PropOp52
 70
     0
102
RTVSPost2010Prop53
 90
        2
102
RTVSPost2010PropOp53
 70
     1
102
RTVSPost2010Prop54
  1
strokes_ogs.tif
102
RTVSPost2010PropOp54
 70
     1
102
RTVSPost2010Prop55
280
     0
102
RTVSPost2010PropOp55
 70
     1
102
RTVSPost2010Prop56
140
1.0
102
RTVSPost2010PropOp56
 70
     1
102
RTVSPost2010Prop57
140
1.0
102
RTVSPost2010PropOp57
 70
     1
  0
XRECORD
  5
20E
102
{ACAD_REACTORS
330
20D
102
}
330
20D
100
AcDbXrecord
280
     1
102
RTVSPost2010Prop28
280
     0
102
RTVSPost2010PropOp28
 70
     1
102
RTVSPost2010Prop29
280
     1
102
RTVSPost2010PropOp29
 70
     1
102
RTVSPost2010Prop30
280
     1
102
RTVSPost2010PropOp30
 70
     1
102
RTVSPost2010Prop31
280
     0
102
RTVSPost2010PropOp31
 70
     1
102
RTVSPost2010Prop32
280
     0
102
RTVSPost2010PropOp32
 70
     1
102
RTVSPost2010Prop33
280
     0
102
RTVSPost2010PropOp33
 70
     1
102
RTVSPost2010Prop34
280
     0
102
RTVSPost2010PropOp34
 70
     1
102
RTVSPost2010Prop35
280
     0
102
RTVSPost2010PropOp35
 70
     1
102
RTVSPost2010Prop36
280
     0
102
RTVSPost2010PropOp36
 70
     1
102
RTVSPost2010Prop37
 90
       50
102
RTVSPost2010PropOp37
 70
     1
102
RTVSPost2010Prop38
140
0.0
102
RTVSPost2010PropOp38
 70
     1
102
RTVSPost2010Prop39
140
1.0
102
RTVSPost2010PropOp39
 70
     1
102
RTVSPost2010Prop40
 90
        0
102
RTVSPost2010PropOp40
 70
     1
102
RTVSPost2010Prop41ColorIndex
 90
       18
102
RTVSPost2010Prop41ColorRGB
 90
        0
102
RTVSPost2010PropOp41
 70
     1
102
RTVSPost2010Prop42
 90
       50
102
RTVSPost2010PropOp42
 70
     1
102
RTVSPost2010Prop43
 90
        3
102
RTVSPost2010PropOp43
 70
     1
102
RTVSPost2010Prop44ColorIndex
 90
        5
102
RTVSPost2010Prop44ColorRGB
 90
      255
102
RTVSPost2010PropOp44
 70
     1
102
RTVSPost2010Prop45
280
     0
102
RTVSPost2010PropOp45
 70
     1
102
RTVSPost2010Prop46
 90
       50
102
RTVSPost2010PropOp46
 70
     1
102
RTVSPost2010Prop47
 90
       50
102
RTVSPost2010PropOp47
 70
     1
102
RTVSPost2010Prop48
 90
       50
102
RTVSPost2010PropOp48
 70
     1
102
RTVSPost2010Prop49
280
     0
102
RTVSPost2010PropOp49
 70
     1
102
RTVSPost2010Prop50
 90
       50
102
RTVSPost2010PropOp50
 70
     1
102
RTVSPost2010Prop51ColorIndex
 90
      256
102
RTVSPost2010Prop51ColorRGB
 90
-16777216
102
RTVSPost2010PropOp51
 70
     0
102
RTVSPost2010Prop52
140
1.0
102
RTVSPost2010PropOp52
 70
     0
102
RTVSPost2010Prop53
 90
        2
102
RTVSPost2010PropOp53
 70
     1
102
RTVSPost2010Prop54
  1
strokes_ogs.tif
102
RTVSPost2010PropOp54
 70
     1
102
RTVSPost2010Prop55
280
     0
102
RTVSPost2010PropOp55
 70
     1
102
RTVSPost2010Prop56
140
1.0
102
RTVSPost2010PropOp56
 70
     1
102
RTVSPost2010Prop57
140
1.0
102
RTVSPost2010PropOp57
 70
     1
  0
XRECORD
  5
200
102
{ACAD_REACTORS
330
1FF
102
}
330
1FF
100
AcDbXrecord
280
     1
102
RTVSPost2010Prop28
280
     0
102
RTVSPost2010PropOp28
 70
     1
102
RTVSPost2010Prop29
280
     1
102
RTVSPost2010PropOp29
 70
     1
102
RTVSPost2010Prop30
280
     1
102
RTVSPost2010PropOp30
 70
     1
102
RTVSPost2010Prop31
280
     0
102
RTVSPost2010PropOp31
 70
     1
102
RTVSPost2010Prop32
280
     0
102
RTVSPost2010PropOp32
 70
     1
102
RTVSPost2010Prop33
280
     0
102
RTVSPost2010PropOp33
 70
     1
102
RTVSPost2010Prop34
280
     0
102
RTVSPost2010PropOp34
 70
     1
102
RTVSPost2010Prop35
280
     0
102
RTVSPost2010PropOp35
 70
     1
102
RTVSPost2010Prop36
280
     0
102
RTVSPost2010PropOp36
 70
     1
102
RTVSPost2010Prop37
 90
       50
102
RTVSPost2010PropOp37
 70
     1
102
RTVSPost2010Prop38
140
0.0
102
RTVSPost2010PropOp38
 70
     1
102
RTVSPost2010Prop39
140
1.0
102
RTVSPost2010PropOp39
 70
     1
102
RTVSPost2010Prop40
 90
        0
102
RTVSPost2010PropOp40
 70
     1
102
RTVSPost2010Prop41ColorIndex
 90
       18
102
RTVSPost2010Prop41ColorRGB
 90
        0
102
RTVSPost2010PropOp41
 70
     1
102
RTVSPost2010Prop42
 90
       50
102
RTVSPost2010PropOp42
 70
     1
102
RTVSPost2010Prop43
 90
        3
102
RTVSPost2010PropOp43
 70
     1
102
RTVSPost2010Prop44ColorIndex
 90
        5
102
RTVSPost2010Prop44ColorRGB
 90
      255
102
RTVSPost2010PropOp44
 70
     1
102
RTVSPost2010Prop45
280
     0
102
RTVSPost2010PropOp45
 70
     1
102
RTVSPost2010Prop46
 90
       50
102
RTVSPost2010PropOp46
 70
     1
102
RTVSPost2010Prop47
 90
       50
102
RTVSPost2010PropOp47
 70
     1
102
RTVSPost2010Prop48
 90
       50
102
RTVSPost2010PropOp48
 70
     1
102
RTVSPost2010Prop49
280
     0
102
RTVSPost2010PropOp49
 70
     1
102
RTVSPost2010Prop50
 90
       50
102
RTVSPost2010PropOp50
 70
     1
102
RTVSPost2010Prop51ColorIndex
 90
      256
102
RTVSPost2010Prop51ColorRGB
 90
-16777216
102
RTVSPost2010PropOp51
 70
     0
102
RTVSPost2010Prop52
140
1.0
102
RTVSPost2010PropOp52
 70
     0
102
RTVSPost2010Prop53
 90
        2
102
RTVSPost2010PropOp53
 70
     1
102
RTVSPost2010Prop54
  1
strokes_ogs.tif
102
RTVSPost2010PropOp54
 70
     1
102
RTVSPost2010Prop55
280
     0
102
RTVSPost2010PropOp55
 70
     1
102
RTVSPost2010Prop56
140
1.0
102
RTVSPost2010PropOp56
 70
     1
102
RTVSPost2010Prop57
140
1.0
102
RTVSPost2010PropOp57
 70
     1
  0
XRECORD
  5
220
102
{ACAD_REACTORS
330
21F
102
}
330
21F
100
AcDbXrecord
280
     1
102
RTVSPost2010Prop28
280
     0
102
RTVSPost2010PropOp28
 70
     1
102
RTVSPost2010Prop29
280
     1
102
RTVSPost2010PropOp29
 70
     1
102
RTVSPost2010Prop30
280
     1
102
RTVSPost2010PropOp30
 70
     1
102
RTVSPost2010Prop31
280
     0
102
RTVSPost2010PropOp31
 70
     1
102
RTVSPost2010Prop32
280
     0
102
RTVSPost2010PropOp32
 70
     1
102
RTVSPost2010Prop33
280
     0
102
RTVSPost2010PropOp33
 70
     1
102
RTVSPost2010Prop34
280
     0
102
RTVSPost2010PropOp34
 70
     1
102
RTVSPost2010Prop35
280
     0
102
RTVSPost2010PropOp35
 70
     1
102
RTVSPost2010Prop36
280
     0
102
RTVSPost2010PropOp36
 70
     1
102
RTVSPost2010Prop37
 90
       50
102
RTVSPost2010PropOp37
 70
     1
102
RTVSPost2010Prop38
140
0.0
102
RTVSPost2010PropOp38
 70
     1
102
RTVSPost2010Prop39
140
1.0
102
RTVSPost2010PropOp39
 70
     1
102
RTVSPost2010Prop40
 90
        0
102
RTVSPost2010PropOp40
 70
     1
102
RTVSPost2010Prop41ColorIndex
 90
       18
102
RTVSPost2010Prop41ColorRGB
 90
        0
102
RTVSPost2010PropOp41
 70
     1
102
RTVSPost2010Prop42
 90
       50
102
RTVSPost2010PropOp42
 70
     1
102
RTVSPost2010Prop43
 90
        3
102
RTVSPost2010PropOp43
 70
     1
102
RTVSPost2010Prop44ColorIndex
 90
        5
102
RTVSPost2010Prop44ColorRGB
 90
      255
102
RTVSPost2010PropOp44
 70
     1
102
RTVSPost2010Prop45
280
     0
102
RTVSPost2010PropOp45
 70
     1
102
RTVSPost2010Prop46
 90
       50
102
RTVSPost2010PropOp46
 70
     1
102
RTVSPost2010Prop47
 90
       50
102
RTVSPost2010PropOp47
 70
     1
102
RTVSPost2010Prop48
 90
       50
102
RTVSPost2010PropOp48
 70
     1
102
RTVSPost2010Prop49
280
     0
102
RTVSPost2010PropOp49
 70
     1
102
RTVSPost2010Prop50
 90
       50
102
RTVSPost2010PropOp50
 70
     1
102
RTVSPost2010Prop51ColorIndex
 90
      256
102
RTVSPost2010Prop51ColorRGB
 90
-16777216
102
RTVSPost2010PropOp51
 70
     0
102
RTVSPost2010Prop52
140
1.0
102
RTVSPost2010PropOp52
 70
     0
102
RTVSPost2010Prop53
 90
        2
102
RTVSPost2010PropOp53
 70
     1
102
RTVSPost2010Prop54
  1
strokes_ogs.tif
102
RTVSPost2010PropOp54
 70
     1
102
RTVSPost2010Prop55
280
     0
102
RTVSPost2010PropOp55
 70
     1
102
RTVSPost2010Prop56
140
1.0
102
RTVSPost2010PropOp56
 70
     1
102
RTVSPost2010Prop57
140
1.0
102
RTVSPost2010PropOp57
 70
     1
  0
ENDSEC
  0
EOF
