  0
SECTION
  2
HEADER
  9
$ACADVER
  1
AC1024
  9
$ACADMAINTVER
 70
     6
  9
$DWGCODEPAGE
  3
ANSI_932
  9
$INSBASE
 10
0.0
 20
0.0
 30
0.0
  9
$EXTMIN
 10
-4455.0
 20
-3150.0
 30
0.0
  9
$EXTMAX
 10
4455.0
 20
3150.0
 30
0.0
  9
$LIMMIN
 10
-4455.0
 20
-3150.0
  9
$LIMMAX
 10
4455.0
 20
3150.0
  9
$ORTHOMODE
 70
     0
  9
$REGENMODE
 70
     1
  9
$FILLMODE
 70
     1
  9
$QTEXTMODE
 70
     0
  9
$MIRRTEXT
 70
     1
  9
$LTSCALE
 40
30.0
  9
$ATTMODE
 70
     1
  9
$TEXTSIZE
 40
2.5
  9
$TRACEWID
 40
1.0
  9
$TEXTSTYLE
  7
Standard
  9
$CLAYER
  8
0
  9
$CELTYPE
  6
ByLayer
  9
$CECOLOR
 62
   256
  9
$CELTSCALE
 40
1.0
  9
$DISPSILH
 70
     0
  9
$DIMSCALE
 40
1.0
  9
$DIMASZ
 40
2.5
  9
$DIMEXO
 40
0.625
  9
$DIMDLI
 40
3.75
  9
$DIMRND
 40
0.0
  9
$DIMDLE
 40
0.0
  9
$DIMEXE
 40
1.25
  9
$DIMTP
 40
0.0
  9
$DIMTM
 40
0.0
  9
$DIMTXT
 40
2.5
  9
$DIMCEN
 40
2.5
  9
$DIMTSZ
 40
0.0
  9
$DIMTOL
 70
     0
  9
$DIMLIM
 70
     0
  9
$DIMTIH
 70
     0
  9
$DIMTOH
 70
     0
  9
$DIMSE1
 70
     0
  9
$DIMSE2
 70
     0
  9
$DIMTAD
 70
     1
  9
$DIMZIN
 70
     8
  9
$DIMBLK
  1

  9
$DIMASO
 70
     1
  9
$DIMSHO
 70
     1
  9
$DIMPOST
  1

  9
$DIMAPOST
  1

  9
$DIMALT
 70
     0
  9
$DIMALTD
 70
     3
  9
$DIMALTF
 40
0.03937007874016
  9
$DIMLFAC
 40
1.0
  9
$DIMTOFL
 70
     1
  9
$DIMTVP
 40
0.0
  9
$DIMTIX
 70
     0
  9
$DIMSOXD
 70
     0
  9
$DIMSAH
 70
     0
  9
$DIMBLK1
  1

  9
$DIMBLK2
  1

  9
$DIMSTYLE
  2
ISO-25
  9
$DIMCLRD
 70
     0
  9
$DIMCLRE
 70
     0
  9
$DIMCLRT
 70
     0
  9
$DIMTFAC
 40
1.0
  9
$DIMGAP
 40
0.625
  9
$DIMJUST
 70
     0
  9
$DIMSD1
 70
     0
  9
$DIMSD2
 70
     0
  9
$DIMTOLJ
 70
     0
  9
$DIMTZIN
 70
     8
  9
$DIMALTZ
 70
     0
  9
$DIMALTTZ
 70
     0
  9
$DIMUPT
 70
     0
  9
$DIMDEC
 70
     2
  9
$DIMTDEC
 70
     2
  9
$DIMALTU
 70
     2
  9
$DIMALTTD
 70
     3
  9
$DIMTXSTY
  7
Standard
  9
$DIMAUNIT
 70
     0
  9
$DIMADEC
 70
     0
  9
$DIMALTRND
 40
0.0
  9
$DIMAZIN
 70
     0
  9
$DIMDSEP
 70
    44
  9
$DIMATFIT
 70
     3
  9
$DIMFRAC
 70
     0
  9
$DIMLDRBLK
  1

  9
$DIMLUNIT
 70
     2
  9
$DIMLWD
 70
    -2
  9
$DIMLWE
 70
    -2
  9
$DIMTMOVE
 70
     0
  9
$DIMFXL
 40
1.0
  9
$DIMFXLON
 70
     0
  9
$DIMJOGANG
 40
0.7853981633974483
  9
$DIMTFILL
 70
     0
  9
$DIMTFILLCLR
 70
     0
  9
$DIMARCSYM
 70
     0
  9
$DIMLTYPE
  6

  9
$DIMLTEX1
  6

  9
$DIMLTEX2
  6

  9
$DIMTXTDIRECTION
 70
     0
  9
$LUNITS
 70
     2
  9
$LUPREC
 70
     4
  9
$SKETCHINC
 40
1.0
  9
$FILLETRAD
 40
10.0
  9
$AUNITS
 70
     0
  9
$AUPREC
 70
     0
  9
$MENU
  1
.
  9
$ELEVATION
 40
0.0
  9
$PELEVATION
 40
0.0
  9
$THICKNESS
 40
0.0
  9
$LIMCHECK
 70
     0
  9
$CHAMFERA
 40
0.0
  9
$CHAMFERB
 40
0.0
  9
$CHAMFERC
 40
0.0
  9
$CHAMFERD
 40
0.0
  9
$SKPOLY
 70
     0
  9
$TDCREATE
 40
2458466.688904606
  9
$TDUCREATE
 40
2458466.313904606
  9
$TDUPDATE
 40
2458466.68890478
  9
$TDUUPDATE
 40
2458466.31390478
  9
$TDINDWG
 40
0.0000000116
  9
$TDUSRTIMER
 40
0.0000000116
  9
$USRTIMER
 70
     1
  9
$ANGBASE
 50
0.0
  9
$ANGDIR
 70
     0
  9
$PDMODE
 70
     0
  9
$PDSIZE
 40
0.0
  9
$PLINEWID
 40
0.0
  9
$SPLFRAME
 70
     0
  9
$SPLINETYPE
 70
     6
  9
$SPLINESEGS
 70
     8
  9
$HANDSEED
  5
1E5
  9
$SURFTAB1
 70
     6
  9
$SURFTAB2
 70
     6
  9
$SURFTYPE
 70
     6
  9
$SURFU
 70
     6
  9
$SURFV
 70
     6
  9
$UCSBASE
  2

  9
$UCSNAME
  2

  9
$UCSORG
 10
0.0
 20
0.0
 30
0.0
  9
$UCSXDIR
 10
1.0
 20
0.0
 30
0.0
  9
$UCSYDIR
 10
0.0
 20
1.0
 30
0.0
  9
$UCSORTHOREF
  2

  9
$UCSORTHOVIEW
 70
     0
  9
$UCSORGTOP
 10
0.0
 20
0.0
 30
0.0
  9
$UCSORGBOTTOM
 10
0.0
 20
0.0
 30
0.0
  9
$UCSORGLEFT
 10
0.0
 20
0.0
 30
0.0
  9
$UCSORGRIGHT
 10
0.0
 20
0.0
 30
0.0
  9
$UCSORGFRONT
 10
0.0
 20
0.0
 30
0.0
  9
$UCSORGBACK
 10
0.0
 20
0.0
 30
0.0
  9
$PUCSBASE
  2

  9
$PUCSNAME
  2

  9
$PUCSORG
 10
0.0
 20
0.0
 30
0.0
  9
$PUCSXDIR
 10
1.0
 20
0.0
 30
0.0
  9
$PUCSYDIR
 10
0.0
 20
1.0
 30
0.0
  9
$PUCSORTHOREF
  2

  9
$PUCSORTHOVIEW
 70
     0
  9
$PUCSORGTOP
 10
0.0
 20
0.0
 30
0.0
  9
$PUCSORGBOTTOM
 10
0.0
 20
0.0
 30
0.0
  9
$PUCSORGLEFT
 10
0.0
 20
0.0
 30
0.0
  9
$PUCSORGRIGHT
 10
0.0
 20
0.0
 30
0.0
  9
$PUCSORGFRONT
 10
0.0
 20
0.0
 30
0.0
  9
$PUCSORGBACK
 10
0.0
 20
0.0
 30
0.0
  9
$USERI1
 70
     0
  9
$USERI2
 70
     0
  9
$USERI3
 70
     0
  9
$USERI4
 70
     0
  9
$USERI5
 70
     0
  9
$USERR1
 40
0.0
  9
$USERR2
 40
0.0
  9
$USERR3
 40
0.0
  9
$USERR4
 40
0.0
  9
$USERR5
 40
0.0
  9
$WORLDVIEW
 70
     1
  9
$SHADEDGE
 70
     3
  9
$SHADEDIF
 70
    70
  9
$TILEMODE
 70
     1
  9
$MAXACTVP
 70
    64
  9
$PINSBASE
 10
0.0
 20
0.0
 30
0.0
  9
$PLIMCHECK
 70
     0
  9
$PEXTMIN
 10
1.000000000000000E+20
 20
1.000000000000000E+20
 30
1.000000000000000E+20
  9
$PEXTMAX
 10
-1.000000000000000E+20
 20
-1.000000000000000E+20
 30
-1.000000000000000E+20
  9
$PLIMMIN
 10
0.0
 20
0.0
  9
$PLIMMAX
 10
420.0
 20
297.0
  9
$UNITMODE
 70
     0
  9
$VISRETAIN
 70
     1
  9
$PLINEGEN
 70
     0
  9
$PSLTSCALE
 70
     1
  9
$TREEDEPTH
 70
  3020
  9
$CMLSTYLE
  2
Standard
  9
$CMLJUST
 70
     0
  9
$CMLSCALE
 40
20.0
  9
$PROXYGRAPHICS
 70
     1
  9
$MEASUREMENT
 70
     1
  9
$CELWEIGHT
370
    -1
  9
$ENDCAPS
280
     0
  9
$JOINSTYLE
280
     0
  9
$LWDISPLAY
290
     0
  9
$INSUNITS
 70
     4
  9
$HYPERLINKBASE
  1

  9
$STYLESHEET
  1

  9
$XEDIT
290
     1
  9
$CEPSNTYPE
380
     0
  9
$PSTYLEMODE
290
     1
  9
$FINGERPRINTGUID
  2
{88188A26-6FF3-4BA4-8B26-CBBA3871EEF6}
  9
$VERSIONGUID
  2
{FAEB1C32-E019-11D5-929B-00C0DF256EC4}
  9
$EXTNAMES
290
     1
  9
$PSVPSCALE
 40
0.0
  9
$OLESTARTUP
290
     0
  9
$SORTENTS
280
   127
  9
$INDEXCTL
280
     0
  9
$HIDETEXT
280
     1
  9
$XCLIPFRAME
280
     2
  9
$HALOGAP
280
     0
  9
$OBSCOLOR
 70
   257
  9
$OBSLTYPE
280
     0
  9
$INTERSECTIONDISPLAY
280
     0
  9
$INTERSECTIONCOLOR
 70
   257
  9
$DIMASSOC
280
     2
  9
$PROJECTNAME
  1

  9
$CAMERADISPLAY
290
     0
  9
$LENSLENGTH
 40
50.0
  9
$CAMERAHEIGHT
 40
0.0
  9
$STEPSPERSEC
 40
2.0
  9
$STEPSIZE
 40
6.0
  9
$3DDWFPREC
 40
2.0
  9
$PSOLWIDTH
 40
5.0
  9
$PSOLHEIGHT
 40
80.0
  9
$LOFTANG1
 40
1.570796326794897
  9
$LOFTANG2
 40
1.570796326794897
  9
$LOFTMAG1
 40
0.0
  9
$LOFTMAG2
 40
0.0
  9
$LOFTPARAM
 70
     7
  9
$LOFTNORMALS
280
     1
  9
$LATITUDE
 40
37.795
  9
$LONGITUDE
 40
-122.394
  9
$NORTHDIRECTION
 40
0.0
  9
$TIMEZONE
 70
 -8000
  9
$LIGHTGLYPHDISPLAY
280
     1
  9
$TILEMODELIGHTSYNCH
280
     1
  9
$CMATERIAL
347
44
  9
$SOLIDHIST
280
     0
  9
$SHOWHIST
280
     1
  9
$DWFFRAME
280
     2
  9
$DGNFRAME
280
     2
  9
$REALWORLDSCALE
290
     1
  9
$INTERFERECOLOR
 62
   256
  9
$CSHADOW
280
     0
  9
$SHADOWPLANELOCATION
 40
0.0
  0
ENDSEC
  0
SECTION
  2
CLASSES
  0
CLASS
  1
ACDBDICTIONARYWDFLT
  2
AcDbDictionaryWithDefault
  3
ObjectDBX Classes
 90
        0
 91
        4
280
     0
281
     0
  0
CLASS
  1
VISUALSTYLE
  2
AcDbVisualStyle
  3
ObjectDBX Classes
 90
     4095
 91
        4
280
     0
281
     0
  0
CLASS
  1
MATERIAL
  2
AcDbMaterial
  3
ObjectDBX Classes
 90
     1153
 91
        4
280
     0
281
     0
  0
CLASS
  1
SCALE
  2
AcDbScale
  3
ObjectDBX Classes
 90
     1153
 91
        4
280
     0
281
     0
  0
CLASS
  1
TABLESTYLE
  2
AcDbTableStyle
  3
ObjectDBX Classes
 90
     4095
 91
        4
280
     0
281
     0
  0
CLASS
  1
MLEADERSTYLE
  2
AcDbMLeaderStyle
  3
ACDB_MLEADERSTYLE_CLASS
 90
     4095
 91
        4
280
     0
281
     0
  0
CLASS
  1
SUN
  2
AcDbSun
  3
SCENEOE
 90
     1153
 91
        4
280
     0
281
     0
  0
CLASS
  1
DICTIONARYVAR
  2
AcDbDictionaryVar
  3
ObjectDBX Classes
 90
        0
 91
        4
280
     0
281
     0
  0
CLASS
  1
CELLSTYLEMAP
  2
AcDbCellStyleMap
  3
ObjectDBX Classes
 90
     1152
 91
        4
280
     0
281
     0
  0
ENDSEC
  0
SECTION
  2
TABLES
  0
TABLE
  2
VPORT
  5
8
330
0
100
AcDbSymbolTable
 70
     1
  0
VPORT
  5
29
330
8
100
AcDbSymbolTableRecord
100
AcDbViewportTableRecord
  2
*Active
 70
     0
 10
0.0
 20
0.0
 11
1.0
 21
1.0
 12
0.0
 22
0.0
 13
0.0
 23
0.0
 14
10.0
 24
10.0
 15
10.0
 25
10.0
 16
0.0
 26
0.0
 36
1.0
 17
0.0
 27
0.0
 37
0.0
 40
6930.000000000001
 41
1.414285714285714
 42
50.0
 43
0.0
 44
0.0
 50
0.0
 51
0.0
 71
     0
 72
 10000
 73
     1
 74
     3
 75
     0
 76
     0
 77
     0
 78
     0
281
     0
 65
     1
110
0.0
120
0.0
130
0.0
111
1.0
121
0.0
131
0.0
112
0.0
122
1.0
132
0.0
 79
     0
146
0.0
348
2F
 60
     3
 61
     5
292
     1
282
     1
141
0.0
142
0.0
 63
   250
361
6D
  0
ENDTAB
  0
TABLE
  2
LTYPE
  5
5
330
0
100
AcDbSymbolTable
 70
     3
  0
LTYPE
  5
14
330
5
100
AcDbSymbolTableRecord
100
AcDbLinetypeTableRecord
  2
ByBlock
 70
     0
  3

 72
    65
 73
     0
 40
0.0
  0
LTYPE
  5
15
330
5
100
AcDbSymbolTableRecord
100
AcDbLinetypeTableRecord
  2
ByLayer
 70
     0
  3

 72
    65
 73
     0
 40
0.0
  0
LTYPE
  5
16
330
5
100
AcDbSymbolTableRecord
100
AcDbLinetypeTableRecord
  2
Continuous
 70
     0
  3
Solid line
 72
    65
 73
     0
 40
0.0
  0
LTYPE
  5
6F
330
5
100
AcDbSymbolTableRecord
100
AcDbLinetypeTableRecord
  2
JWW_CENTER2
 70
     0
  3
-------------  --  -------------
 72
    65
 73
     4
 40
13.54666666666667
 49
11.00666666666667
 74
     0
 49
-0.8466666666666667
 74
     0
 49
0.8466666666666667
 74
     0
 49
-0.8466666666666667
 74
     0
  0
LTYPE
  5
70
330
5
100
AcDbSymbolTableRecord
100
AcDbLinetypeTableRecord
  2
JWW_DASHED1
 70
     0
  3
-  --  --  --  --  --  --  --  -
 72
    65
 73
     2
 40
1.693333333333333
 49
0.8466666666666667
 74
     0
 49
-0.8466666666666667
 74
     0
  0
ENDTAB
  0
TABLE
  2
LAYER
  5
2
330
0
100
AcDbSymbolTable
 70
     3
  0
LAYER
  5
10
330
2
100
AcDbSymbolTableRecord
100
AcDbLayerTableRecord
  2
0
 70
     0
 62
     7
  6
Continuous
370
    -3
390
F
347
46
  0
LAYER
  5
71
330
2
100
AcDbSymbolTableRecord
100
AcDbLayerTableRecord
  2
0-0
 70
     0
 62
     7
  6
Continuous
370
    -3
390
F
347
46
  0
LAYER
  5
72
330
2
100
AcDbSymbolTableRecord
100
AcDbLayerTableRecord
  2
寸法
 70
     0
 62
     7
  6
Continuous
370
    -3
390
F
347
46
  0
ENDTAB
  0
TABLE
  2
STYLE
  5
3
330
0
100
AcDbSymbolTable
 70
     2
  0
STYLE
  5
11
330
3
100
AcDbSymbolTableRecord
100
AcDbTextStyleTableRecord
  2
Standard
 70
     0
 40
0.0
 41
1.0
 50
0.0
 71
     0
 42
2.5
  3
txt
  4

  0
STYLE
  5
6E
330
3
100
AcDbSymbolTableRecord
100
AcDbTextStyleTableRecord
  2
ＭＳ ゴシック
 70
     0
 40
1.0
 41
1.0
 50
0.0
 71
     0
 42
2.5
  3

  4

1001
ACAD
1000
MS Gothic
1071
    32817
  0
ENDTAB
  0
TABLE
  2
VIEW
  5
6
330
0
100
AcDbSymbolTable
 70
     0
  0
ENDTAB
  0
TABLE
  2
UCS
  5
7
330
0
100
AcDbSymbolTable
 70
     0
  0
ENDTAB
  0
TABLE
  2
APPID
  5
9
330
0
100
AcDbSymbolTable
 70
     1
  0
APPID
  5
12
330
9
100
AcDbSymbolTableRecord
100
AcDbRegAppTableRecord
  2
ACAD
 70
     0
  0
ENDTAB
  0
TABLE
  2
DIMSTYLE
  5
A
330
0
100
AcDbSymbolTable
 70
     1
100
AcDbDimStyleTable
  0
DIMSTYLE
105
27
330
A
100
AcDbSymbolTableRecord
100
AcDbDimStyleTableRecord
  2
ISO-25
 70
     0
 41
2.5
 42
0.625
 43
3.75
 44
1.25
 73
     0
 74
     0
 77
     1
 78
     8
140
2.5
141
2.5
143
0.03937007874016
147
0.625
171
     3
172
     1
178
     0
271
     2
272
     2
274
     3
278
    44
283
     0
284
     8
340
11
  0
ENDTAB
  0
TABLE
  2
BLOCK_RECORD
  5
1
330
0
100
AcDbSymbolTable
 70
     1
  0
BLOCK_RECORD
  5
1F
330
1
100
AcDbSymbolTableRecord
100
AcDbBlockTableRecord
  2
*Model_Space
340
22
 70
     0
280
     1
281
     0
  0
BLOCK_RECORD
  5
1B
330
1
100
AcDbSymbolTableRecord
100
AcDbBlockTableRecord
  2
*Paper_Space
340
1E
 70
     0
280
     1
281
     0
  0
BLOCK_RECORD
  5
23
330
1
100
AcDbSymbolTableRecord
100
AcDbBlockTableRecord
  2
*Paper_Space0
340
26
 70
     0
280
     1
281
     0
  0
ENDTAB
  0
ENDSEC
  0
SECTION
  2
BLOCKS
  0
BLOCK
  5
20
330
1F
100
AcDbEntity
  8
0
100
AcDbBlockBegin
  2
*Model_Space
 70
     0
 10
0.0
 20
0.0
 30
0.0
  3
*Model_Space
  1

  0
ENDBLK
  5
21
330
1F
100
AcDbEntity
  8
0
100
AcDbBlockEnd
  0
BLOCK
  5
1C
330
1B
100
AcDbEntity
 67
     1
  8
0
100
AcDbBlockBegin
  2
*Paper_Space
 70
     0
 10
0.0
 20
0.0
 30
0.0
  3
*Paper_Space
  1

  0
ENDBLK
  5
1D
330
1B
100
AcDbEntity
 67
     1
  8
0
100
AcDbBlockEnd
  0
BLOCK
  5
24
330
23
100
AcDbEntity
  8
0
100
AcDbBlockBegin
  2
*Paper_Space0
 70
     0
 10
0.0
 20
0.0
 30
0.0
  3
*Paper_Space0
  1

  0
ENDBLK
  5
25
330
23
100
AcDbEntity
  8
0
100
AcDbBlockEnd
  0
ENDSEC
  0
SECTION
  2
ENTITIES
  0
LINE
  5
73
330
1F
100
AcDbEntity
  8
0-0
  6
Continuous
 62
    92
370
    13
100
AcDbLine
 10
-304.0332863263432
 20
-989.2049183314409
 30
0.0
 11
418.9667136736558
 21
-989.2049183314409
 31
0.0
  0
LINE
  5
74
330
1F
100
AcDbEntity
  8
0-0
  6
Continuous
 62
    92
370
    13
100
AcDbLine
 10
-309.0332863263437
 20
-999.2049183314405
 30
0.0
 11
420.9667136736574
 21
-999.2049183314405
 31
0.0
  0
LINE
  5
75
330
1F
100
AcDbEntity
  8
0-0
  6
Continuous
 62
    92
370
    13
100
AcDbLine
 10
-333.0332863263424
 20
-1014.20491833144
 30
0.0
 11
444.966713673656
 21
-1014.20491833144
 31
0.0
  0
LINE
  5
76
330
1F
100
AcDbEntity
  8
0-0
  6
Continuous
 62
    92
370
    13
100
AcDbLine
 10
-230.5332863263435
 20
-24.70491833143996
 30
0.0
 11
-230.5332863263435
 21
53.79508166856027
 31
0.0
  0
LINE
  5
77
330
1F
100
AcDbEntity
  8
0-0
  6
Continuous
 62
    92
370
    13
100
AcDbLine
 10
-230.5332863263435
 20
-79.20491833143984
 30
0.0
 11
-230.5332863263435
 21
-38.70491833144001
 31
0.0
  0
LINE
  5
78
330
1F
100
AcDbEntity
  8
0-0
  6
Continuous
 62
   120
370
     5
100
AcDbLine
 10
-231.033286326343
 20
-24.70491833143996
 30
0.0
 11
-231.033286326343
 21
53.79508166856027
 31
0.0
  0
LINE
  5
79
330
1F
100
AcDbEntity
  8
0-0
  6
Continuous
 62
   120
370
     5
100
AcDbLine
 10
-231.033286326343
 20
-79.20491833143984
 30
0.0
 11
-231.033286326343
 21
-38.70491833144001
 31
0.0
  0
ARC
  5
7A
330
1F
100
AcDbEntity
  8
0-0
  6
Continuous
 62
   120
370
     5
100
AcDbCircle
 10
-232.0332863263438
 20
53.79508166856027
 30
0.0
 40
1.0
100
AcDbArc
 50
0.0
 51
90.0
  0
LINE
  5
7B
330
1F
100
AcDbEntity
  8
0-0
  6
Continuous
 62
   120
370
     5
100
AcDbLine
 10
-232.0332863263438
 20
54.79508166856021
 30
0.0
 11
-274.0332863263432
 21
54.79508166856021
 31
0.0
  0
ARC
  5
7C
330
1F
100
AcDbEntity
  8
0-0
  6
Continuous
 62
   120
370
     5
100
AcDbCircle
 10
-274.0332863263432
 20
53.79508166856027
 30
0.0
 40
1.0
100
AcDbArc
 50
89.99999999999999
 51
180.0
  0
LINE
  5
7D
330
1F
100
AcDbEntity
  8
0-0
  6
Continuous
 62
   120
370
     5
100
AcDbLine
 10
-275.033286326344
 20
-79.20491833143984
 30
0.0
 11
-275.033286326344
 21
53.79508166856027
 31
0.0
  0
ARC
  5
7E
330
1F
100
AcDbEntity
  8
0-0
  6
Continuous
 62
   120
370
     5
100
AcDbCircle
 10
-274.0332863263432
 20
-79.20491833143984
 30
0.0
 40
1.0
100
AcDbArc
 50
180.0
 51
270.0
  0
LINE
  5
7F
330
1F
100
AcDbEntity
  8
0-0
  6
Continuous
 62
   120
370
     5
100
AcDbLine
 10
-232.0332863263438
 20
-80.20491833143979
 30
0.0
 11
-274.0332863263432
 21
-80.20491833143979
 31
0.0
  0
ARC
  5
80
330
1F
100
AcDbEntity
  8
0-0
  6
Continuous
 62
   120
370
     5
100
AcDbCircle
 10
-232.0332863263438
 20
-79.20491833143984
 30
0.0
 40
1.0
100
AcDbArc
 50
270.0
 51
0.0
  0
ARC
  5
81
330
1F
100
AcDbEntity
  8
0-0
  6
Continuous
 62
    92
370
    13
100
AcDbCircle
 10
-232.0332863263438
 20
-79.20491833143984
 30
0.0
 40
1.5
100
AcDbArc
 50
270.0
 51
0.0
  0
LINE
  5
82
330
1F
100
AcDbEntity
  8
0-0
  6
Continuous
 62
    92
370
    13
100
AcDbLine
 10
-232.0332863263438
 20
-80.70491833144061
 30
0.0
 11
-274.0332863263432
 21
-80.70491833144061
 31
0.0
  0
ARC
  5
83
330
1F
100
AcDbEntity
  8
0-0
  6
Continuous
 62
    92
370
    13
100
AcDbCircle
 10
-274.0332863263432
 20
-79.20491833143984
 30
0.0
 40
1.5
100
AcDbArc
 50
180.0
 51
270.0
  0
LINE
  5
84
330
1F
100
AcDbEntity
  8
0-0
  6
Continuous
 62
    92
370
    13
100
AcDbLine
 10
-275.5332863263435
 20
-79.20491833143984
 30
0.0
 11
-275.5332863263435
 21
53.79508166856027
 31
0.0
  0
ARC
  5
85
330
1F
100
AcDbEntity
  8
0-0
  6
Continuous
 62
    92
370
    13
100
AcDbCircle
 10
-232.0332863263438
 20
53.79508166856027
 30
0.0
 40
1.5
100
AcDbArc
 50
0.0
 51
90.0
  0
LINE
  5
86
330
1F
100
AcDbEntity
  8
0-0
  6
Continuous
 62
    92
370
    13
100
AcDbLine
 10
-232.0332863263438
 20
55.29508166855976
 30
0.0
 11
-274.0332863263432
 21
55.29508166855976
 31
0.0
  0
ARC
  5
87
330
1F
100
AcDbEntity
  8
0-0
  6
Continuous
 62
    92
370
    13
100
AcDbCircle
 10
-274.0332863263432
 20
53.79508166856027
 30
0.0
 40
1.5
100
AcDbArc
 50
89.99999999999999
 51
180.0
  0
ELLIPSE
  5
88
330
1F
100
AcDbEntity
  8
0-0
  6
Continuous
 62
    92
370
    13
100
AcDbEllipse
 10
-258.0332863263424
 20
-31.70491833144041
 30
0.0
 11
-8.0
 21
9.797174393178826E-16
 31
0.0
210
0.0
220
0.0
230
1.0
 40
0.875
 41
4.71238898038469
 42
7.853981633974483
  0
LINE
  5
89
330
1F
100
AcDbEntity
  8
0-0
  6
Continuous
 62
    92
370
    13
100
AcDbLine
 10
-257.8521735790831
 20
-24.70491833143996
 30
0.0
 11
-258.0332863263424
 21
-24.70491833143996
 31
0.0
  0
LINE
  5
8A
330
1F
100
AcDbEntity
  8
0-0
  6
Continuous
 62
    92
370
    13
100
AcDbLine
 10
-136.0332863263424
 20
-24.70491833143996
 30
0.0
 11
-257.8521735790831
 21
-24.70491833143996
 31
0.0
  0
ELLIPSE
  5
8B
330
1F
100
AcDbEntity
  8
0-0
  6
Continuous
 62
    92
370
    13
100
AcDbEllipse
 10
-253.0332863263435
 20
-31.70491833144041
 30
0.0
 11
-13.0
 21
1.592040838891559E-15
 31
0.0
210
0.0
220
0.0
230
1.0
 40
0.8653839999999999
 41
0.0
 42
6.283185307179586
  0
LINE
  5
8C
330
1F
100
AcDbEntity
  8
0-0
  6
Continuous
 62
    92
370
    13
100
AcDbLine
 10
-136.0332863263424
 20
-38.70491833144001
 30
0.0
 11
-258.0332863263424
 21
-38.70491833144001
 31
0.0
  0
ARC
  5
8D
330
1F
100
AcDbEntity
  8
0-0
  6
Continuous
 62
    92
370
    13
100
AcDbCircle
 10
-136.0332863263424
 20
-37.70491833144007
 30
0.0
 40
1.0
100
AcDbArc
 50
270.0
 51
0.0
  0
LINE
  5
8E
330
1F
100
AcDbEntity
  8
0-0
  6
Continuous
 62
    92
370
    13
100
AcDbLine
 10
-135.0332863263434
 20
-37.70491833144007
 30
0.0
 11
-135.0332863263434
 21
-25.7049183314399
 31
0.0
  0
ARC
  5
8F
330
1F
100
AcDbEntity
  8
0-0
  6
Continuous
 62
    92
370
    13
100
AcDbCircle
 10
-136.0332863263424
 20
-25.7049183314399
 30
0.0
 40
1.0
100
AcDbArc
 50
0.0
 51
90.0
  0
LINE
  5
90
330
1F
100
AcDbEntity
  8
0-0
  6
Continuous
 62
    92
370
    13
100
AcDbLine
 10
-304.0332863263432
 20
1205.79508166856
 30
0.0
 11
418.9667136736558
 21
1205.79508166856
 31
0.0
  0
LINE
  5
91
330
1F
100
AcDbEntity
  8
0-0
  6
Continuous
 62
    92
370
    13
100
AcDbLine
 10
418.9667136736558
 20
-989.2049183314409
 30
0.0
 11
418.9667136736558
 21
1205.79508166856
 31
0.0
  0
LINE
  5
92
330
1F
100
AcDbEntity
  8
0-0
  6
Continuous
 62
    92
370
    13
100
AcDbLine
 10
-333.0332863263424
 20
1232.795081668559
 30
0.0
 11
444.966713673656
 21
1232.795081668559
 31
0.0
  0
LINE
  5
93
330
1F
100
AcDbEntity
  8
0-0
  6
Continuous
 62
    92
370
    13
100
AcDbLine
 10
-309.0332863263437
 20
1208.795081668559
 30
0.0
 11
420.9667136736574
 21
1208.795081668559
 31
0.0
  0
LINE
  5
94
330
1F
100
AcDbEntity
  8
0-0
  6
Continuous
 62
    92
370
    13
100
AcDbLine
 10
420.9667136736574
 20
-1014.20491833144
 30
0.0
 11
420.9667136736574
 21
1208.795081668559
 31
0.0
  0
LINE
  5
95
330
1F
100
AcDbEntity
  8
0-0
  6
Continuous
 62
    92
370
    13
100
AcDbLine
 10
444.966713673656
 20
-1014.20491833144
 30
0.0
 11
444.966713673656
 21
1232.795081668559
 31
0.0
  0
LINE
  5
96
330
1F
100
AcDbEntity
  8
0-0
  6
Continuous
 62
    92
370
    13
100
AcDbLine
 10
-304.0332863263432
 20
-989.2049183314409
 30
0.0
 11
-304.0332863263432
 21
1205.79508166856
 31
0.0
  0
LINE
  5
97
330
1F
100
AcDbEntity
  8
0-0
  6
Continuous
 62
    92
370
    13
100
AcDbLine
 10
-333.0332863263424
 20
-1014.20491833144
 30
0.0
 11
-333.0332863263424
 21
1232.795081668559
 31
0.0
  0
LINE
  5
98
330
1F
100
AcDbEntity
  8
0-0
  6
Continuous
 62
    92
370
    13
100
AcDbLine
 10
-309.0332863263437
 20
-1014.20491833144
 30
0.0
 11
-309.0332863263437
 21
1208.795081668559
 31
0.0
  0
LINE
  5
99
330
1F
100
AcDbEntity
  8
0-0
  6
JWW_CENTER2
 62
     7
370
     9
100
AcDbLine
 10
418.9667136736558
 20
108.2950816685593
 30
0.0
 11
-304.0332863263432
 21
-989.2049183314409
 31
0.0
  0
LINE
  5
9A
330
1F
100
AcDbEntity
  8
0-0
  6
JWW_CENTER2
 62
     7
370
     9
100
AcDbLine
 10
-304.0332863263432
 20
1205.79508166856
 30
0.0
 11
418.9667136736558
 21
108.2950816685593
 31
0.0
  0
LINE
  5
9B
330
1F
100
AcDbEntity
  8
0-0
  6
Continuous
 62
    92
370
    13
100
AcDbLine
 10
-194.0332863263426
 20
-839.2049183314409
 30
0.0
 11
308.966713673657
 21
-839.2049183314409
 31
0.0
  0
LINE
  5
9C
330
1F
100
AcDbEntity
  8
0-0
  6
Continuous
 62
    92
370
    13
100
AcDbLine
 10
-194.0332863263426
 20
1070.79508166856
 30
0.0
 11
308.966713673657
 21
1070.79508166856
 31
0.0
  0
LINE
  5
9D
330
1F
100
AcDbEntity
  8
0-0
  6
Continuous
 62
    92
370
    13
100
AcDbLine
 10
-194.0332863263426
 20
-989.2049183314409
 30
0.0
 11
-194.0332863263426
 21
1205.79508166856
 31
0.0
  0
LINE
  5
9E
330
1F
100
AcDbEntity
  8
0-0
  6
Continuous
 62
    92
370
    13
100
AcDbLine
 10
308.966713673657
 20
-989.2049183314409
 30
0.0
 11
308.966713673657
 21
1205.79508166856
 31
0.0
  0
LINE
  5
9F
330
1F
100
AcDbEntity
  8
0-0
  6
JWW_DASHED1
 62
   120
370
     5
100
AcDbLine
 10
299.4809463872504
 20
-839.2049183314355
 30
0.0
 11
308.9667136736514
 21
-829.7191510450343
 31
0.0
  0
LINE
  5
A0
330
1F
100
AcDbEntity
  8
0-0
  6
JWW_DASHED1
 62
   120
370
     5
100
AcDbLine
 10
289.5814514520694
 20
-839.2049183314546
 30
0.0
 11
308.9667136736702
 21
-819.8196561098539
 31
0.0
  0
LINE
  5
A1
330
1F
100
AcDbEntity
  8
0-0
  6
JWW_DASHED1
 62
   120
370
     5
100
AcDbLine
 10
279.6819565168612
 20
-839.2049183314465
 30
0.0
 11
308.9667136736621
 21
-809.9201611746456
 31
0.0
  0
LINE
  5
A2
330
1F
100
AcDbEntity
  8
0-0
  6
JWW_DASHED1
 62
   120
370
     5
100
AcDbLine
 10
269.7824615816529
 20
-839.2049183314384
 30
0.0
 11
308.9667136736535
 21
-800.0206662394378
 31
0.0
  0
LINE
  5
A3
330
1F
100
AcDbEntity
  8
0-0
  6
JWW_DASHED1
 62
   120
370
     5
100
AcDbLine
 10
259.8829666464736
 20
-839.2049183314559
 30
0.0
 11
308.9667136736728
 21
-790.1211713042568
 31
0.0
  0
LINE
  5
A4
330
1F
100
AcDbEntity
  8
0-0
  6
JWW_DASHED1
 62
   120
370
     5
100
AcDbLine
 10
249.9834717112641
 20
-839.2049183314491
 30
0.0
 11
308.9667136736642
 21
-780.221676369049
 31
0.0
  0
LINE
  5
A5
330
1F
100
AcDbEntity
  8
0-0
  6
JWW_DASHED1
 62
   120
370
     5
100
AcDbLine
 10
240.0839767760559
 20
-839.2049183314414
 30
0.0
 11
308.9667136736562
 21
-770.3221814338411
 31
0.0
  0
LINE
  5
A6
330
1F
100
AcDbEntity
  8
0-0
  6
JWW_DASHED1
 62
   120
370
     5
100
AcDbLine
 10
230.1844818408775
 20
-839.2049183314576
 30
0.0
 11
308.9667136736745
 21
-760.4226864986606
 31
0.0
  0
LINE
  5
A7
330
1F
100
AcDbEntity
  8
0-0
  6
JWW_DASHED1
 62
   120
370
     5
100
AcDbLine
 10
220.2849869056662
 20
-839.2049183314525
 30
0.0
 11
308.9667136736668
 21
-750.5231915634523
 31
0.0
  0
LINE
  5
A8
330
1F
100
AcDbEntity
  8
0-0
  6
JWW_DASHED1
 62
   120
370
     5
100
AcDbLine
 10
210.3854919704588
 20
-839.204918331444
 30
0.0
 11
308.9667136736579
 21
-740.6236966282445
 31
0.0
  0
LINE
  5
A9
330
1F
100
AcDbEntity
  8
0-0
  6
JWW_DASHED1
 62
   120
370
     5
100
AcDbLine
 10
200.4859970352966
 20
-839.204918331444
 30
0.0
 11
308.9667136736621
 21
-730.7242016930785
 31
0.0
  0
LINE
  5
AA
330
1F
100
AcDbEntity
  8
0-0
  6
JWW_DASHED1
 62
   120
370
     5
100
AcDbLine
 10
190.5865021000692
 20
-839.204918331455
 30
0.0
 11
308.9667136736689
 21
-720.8247067578553
 31
0.0
  0
LINE
  5
AB
330
1F
100
AcDbEntity
  8
0-0
  6
JWW_DASHED1
 62
   120
370
     5
100
AcDbLine
 10
180.6870071649202
 20
-839.2049183314423
 30
0.0
 11
308.9667136736557
 21
-710.9252118227067
 31
0.0
  0
LINE
  5
AC
330
1F
100
AcDbEntity
  8
0-0
  6
JWW_DASHED1
 62
   120
370
     5
100
AcDbLine
 10
170.7875122297004
 20
-839.2049183314457
 30
0.0
 11
308.9667136736647
 21
-701.0257168874814
 31
0.0
  0
LINE
  5
AD
330
1F
100
AcDbEntity
  8
0-0
  6
JWW_DASHED1
 62
   120
370
     5
100
AcDbLine
 10
160.8880172944764
 20
-839.2049183314533
 30
0.0
 11
308.9667136736711
 21
-691.1262219522591
 31
0.0
  0
LINE
  5
AE
330
1F
100
AcDbEntity
  8
0-0
  6
JWW_DASHED1
 62
   120
370
     5
100
AcDbLine
 10
150.9885223593227
 20
-839.2049183314452
 30
0.0
 11
308.9667136736583
 21
-681.2267270171096
 31
0.0
  0
LINE
  5
AF
330
1F
100
AcDbEntity
  8
0-0
  6
JWW_DASHED1
 62
   120
370
     5
100
AcDbLine
 10
141.0890274241144
 20
-839.2049183314375
 30
0.0
 11
308.9667136736514
 21
-671.3272320819005
 31
0.0
  0
LINE
  5
B0
330
1F
100
AcDbEntity
  8
0-0
  6
JWW_DASHED1
 62
   120
370
     5
100
AcDbLine
 10
131.1895324888802
 20
-839.204918331455
 30
0.0
 11
308.9667136736732
 21
-661.427737146662
 31
0.0
  0
LINE
  5
B1
330
1F
100
AcDbEntity
  8
0-0
  6
JWW_DASHED1
 62
   120
370
     5
100
AcDbLine
 10
121.2900375537257
 20
-839.2049183314482
 30
0.0
 11
308.9667136736608
 21
-651.5282422115126
 31
0.0
  0
LINE
  5
B2
330
1F
100
AcDbEntity
  8
0-0
  6
JWW_DASHED1
 62
   120
370
     5
100
AcDbLine
 10
111.390542618517
 20
-839.2049183314401
 30
0.0
 11
308.9667136736523
 21
-641.6287472763053
 31
0.0
  0
LINE
  5
B3
330
1F
100
AcDbEntity
  8
0-0
  6
JWW_DASHED1
 62
   120
370
     5
100
AcDbLine
 10
101.491047683284
 20
-839.2049183314572
 30
0.0
 11
308.9667136736757
 21
-631.729252341065
 31
0.0
  0
LINE
  5
B4
330
1F
100
AcDbEntity
  8
0-0
  6
JWW_DASHED1
 62
   120
370
     5
100
AcDbLine
 10
91.59155274812775
 20
-839.2049183314512
 30
0.0
 11
308.966713673663
 21
-621.829757405916
 31
0.0
  0
LINE
  5
B5
330
1F
100
AcDbEntity
  8
0-0
  6
JWW_DASHED1
 62
   120
370
     5
100
AcDbLine
 10
81.69205781291993
 20
-839.2049183314427
 30
0.0
 11
308.9667136736545
 21
-611.9302624707082
 31
0.0
  0
LINE
  5
B6
330
1F
100
AcDbEntity
  8
0-0
  6
JWW_DASHED1
 62
   120
370
     5
100
AcDbLine
 10
71.79256287770357
 20
-839.2049183314431
 30
0.0
 11
308.9667136736638
 21
-602.0307675354825
 31
0.0
  0
LINE
  5
B7
330
1F
100
AcDbEntity
  8
0-0
  6
JWW_DASHED1
 62
   120
370
     5
100
AcDbLine
 10
61.89306794253071
 20
-839.2049183314538
 30
0.0
 11
308.9667136736651
 21
-592.1312726003193
 31
0.0
  0
LINE
  5
B8
330
1F
100
AcDbEntity
  8
0-0
  6
JWW_DASHED1
 62
   120
370
     5
100
AcDbLine
 10
51.99357300732245
 20
-839.2049183314457
 30
0.0
 11
308.966713673657
 21
-582.2317776651112
 31
0.0
  0
LINE
  5
B9
330
1F
100
AcDbEntity
  8
0-0
  6
JWW_DASHED1
 62
   120
370
     5
100
AcDbLine
 10
42.0940780721142
 20
-839.2049183314375
 30
0.0
 11
308.9667136736506
 21
-572.3322827299012
 31
0.0
  0
LINE
  5
BA
330
1F
100
AcDbEntity
  8
0-0
  6
JWW_DASHED1
 62
   120
370
     5
100
AcDbLine
 10
32.19458313693323
 20
-839.2049183314567
 30
0.0
 11
308.9667136736672
 21
-562.4327877947228
 31
0.0
  0
LINE
  5
BB
330
1F
100
AcDbEntity
  8
0-0
  6
JWW_DASHED1
 62
   120
370
     5
100
AcDbLine
 10
22.29508820172498
 20
-839.2049183314487
 30
0.0
 11
308.9667136736587
 21
-552.533292859515
 31
0.0
  0
LINE
  5
BC
330
1F
100
AcDbEntity
  8
0-0
  6
JWW_DASHED1
 62
   120
370
     5
100
AcDbLine
 10
12.39559326651715
 20
-839.2049183314401
 30
0.0
 11
308.9667136736531
 21
-542.6337979243045
 31
0.0
  0
LINE
  5
BD
330
1F
100
AcDbEntity
  8
0-0
  6
JWW_DASHED1
 62
   120
370
     5
100
AcDbLine
 10
2.496098331336185
 20
-839.2049183314593
 30
0.0
 11
308.9667136736693
 21
-532.7343029891261
 31
0.0
  0
LINE
  5
BE
330
1F
100
AcDbEntity
  8
0-0
  6
JWW_DASHED1
 62
   120
370
     5
100
AcDbLine
 10
-7.403396603872068
 20
-839.2049183314516
 30
0.0
 11
308.9667136736617
 21
-522.8348080539179
 31
0.0
  0
LINE
  5
BF
330
1F
100
AcDbEntity
  8
0-0
  6
JWW_DASHED1
 62
   120
370
     5
100
AcDbLine
 10
-17.30289153908075
 20
-839.2049183314435
 30
0.0
 11
308.9667136736527
 21
-512.93531311871
 31
0.0
  0
LINE
  5
C0
330
1F
100
AcDbEntity
  8
0-0
  6
JWW_DASHED1
 62
   120
370
     5
100
AcDbLine
 10
-27.20238647425063
 20
-839.2049183314516
 30
0.0
 11
308.9667136736719
 21
-503.0358181835295
 31
0.0
  0
LINE
  5
C1
330
1F
100
AcDbEntity
  8
0-0
  6
JWW_DASHED1
 62
   120
370
     5
100
AcDbLine
 10
-37.10188140946954
 20
-839.2049183314542
 30
0.0
 11
308.9667136736634
 21
-493.1363232483213
 31
0.0
  0
LINE
  5
C2
330
1F
100
AcDbEntity
  8
0-0
  6
JWW_DASHED1
 62
   120
370
     5
100
AcDbLine
 10
-47.00137634467779
 20
-839.2049183314462
 30
0.0
 11
308.9667136736552
 21
-483.2368283131134
 31
0.0
  0
LINE
  5
C3
330
1F
100
AcDbEntity
  8
0-0
  6
JWW_DASHED1
 62
   120
370
     5
100
AcDbLine
 10
-56.90087127984725
 20
-839.2049183314538
 30
0.0
 11
308.966713673674
 21
-473.3373333779325
 31
0.0
  0
LINE
  5
C4
330
1F
100
AcDbEntity
  8
0-0
  6
JWW_DASHED1
 62
   120
370
     5
100
AcDbLine
 10
-66.80036621506659
 20
-839.2049183314567
 30
0.0
 11
308.9667136736659
 21
-463.4378384427242
 31
0.0
  0
LINE
  5
C5
330
1F
100
AcDbEntity
  8
0-0
  6
JWW_DASHED1
 62
   120
370
     5
100
AcDbLine
 10
-76.69986115021601
 20
-839.2049183314443
 30
0.0
 11
308.9667136736531
 21
-453.5383435075756
 31
0.0
  0
LINE
  5
C6
330
1F
100
AcDbEntity
  8
0-0
  6
JWW_DASHED1
 62
   120
370
     5
100
AcDbLine
 10
-86.5993560854281
 20
-839.2049183314401
 30
0.0
 11
308.9667136736638
 21
-443.6388485723483
 31
0.0
  0
LINE
  5
C7
330
1F
100
AcDbEntity
  8
0-0
  6
JWW_DASHED1
 62
   120
370
     5
100
AcDbLine
 10
-96.49885102066406
 20
-839.2049183314598
 30
0.0
 11
308.9667136736681
 21
-433.7393536371276
 31
0.0
  0
LINE
  5
C8
330
1F
100
AcDbEntity
  8
0-0
  6
JWW_DASHED1
 62
   120
370
     5
100
AcDbLine
 10
-106.3983459558131
 20
-839.204918331447
 30
0.0
 11
308.9667136736552
 21
-423.8398587019786
 31
0.0
  0
LINE
  5
C9
330
1F
100
AcDbEntity
  8
0-0
  6
JWW_DASHED1
 62
   120
370
     5
100
AcDbLine
 10
-116.2978408910213
 20
-839.2049183314389
 30
0.0
 11
308.9667136736501
 21
-413.9403637667674
 31
0.0
  0
LINE
  5
CA
330
1F
100
AcDbEntity
  8
0-0
  6
JWW_DASHED1
 62
   120
370
     5
100
AcDbLine
 10
-126.1973358262479
 20
-839.2049183314491
 30
0.0
 11
308.9667136736702
 21
-404.040868831531
 31
0.0
  0
LINE
  5
CB
330
1F
100
AcDbEntity
  8
0-0
  6
JWW_DASHED1
 62
   120
370
     5
100
AcDbLine
 10
-136.096830761411
 20
-839.2049183314504
 30
0.0
 11
308.9667136736579
 21
-394.1413738963815
 31
0.0
  0
LINE
  5
CC
330
1F
100
AcDbEntity
  8
0-0
  6
JWW_DASHED1
 62
   120
370
     5
100
AcDbLine
 10
-145.9963256966188
 20
-839.2049183314418
 30
0.0
 11
308.9667136736527
 21
-384.2418789611703
 31
0.0
  0
LINE
  5
CD
330
1F
100
AcDbEntity
  8
0-0
  6
JWW_DASHED1
 62
   120
370
     5
100
AcDbLine
 10
-155.8958206318445
 20
-839.2049183314512
 30
0.0
 11
308.9667136736723
 21
-374.3423840259344
 31
0.0
  0
LINE
  5
CE
330
1F
100
AcDbEntity
  8
0-0
  6
JWW_DASHED1
 62
   120
370
     5
100
AcDbLine
 10
-165.795315567008
 20
-839.2049183314533
 30
0.0
 11
308.96671367366
 21
-364.4428890907853
 31
0.0
  0
LINE
  5
CF
330
1F
100
AcDbEntity
  8
0-0
  6
JWW_DASHED1
 62
   120
370
     5
100
AcDbLine
 10
-175.6948105022163
 20
-839.2049183314448
 30
0.0
 11
308.9667136736514
 21
-354.5433941555771
 31
0.0
  0
LINE
  5
D0
330
1F
100
AcDbEntity
  8
0-0
  6
JWW_DASHED1
 62
   120
370
     5
100
AcDbLine
 10
-185.5943054374407
 20
-839.204918331453
 30
0.0
 11
308.9667136736749
 21
-344.6438992203373
 31
0.0
  0
LINE
  5
D1
330
1F
100
AcDbEntity
  8
0-0
  6
JWW_DASHED1
 62
   120
370
     5
100
AcDbLine
 10
-194.0332863263276
 20
-837.744404285178
 30
0.0
 11
308.9667136736625
 21
-334.7444042851884
 31
0.0
  0
LINE
  5
D2
330
1F
100
AcDbEntity
  8
0-0
  6
JWW_DASHED1
 62
   120
370
     5
100
AcDbLine
 10
-194.0332863263357
 20
-827.8449093499698
 30
0.0
 11
308.9667136736538
 21
-324.8449093499805
 31
0.0
  0
LINE
  5
D3
330
1F
100
AcDbEntity
  8
0-0
  6
JWW_DASHED1
 62
   120
370
     5
100
AcDbLine
 10
-194.0332863263443
 20
-817.945414414762
 30
0.0
 11
308.9667136736657
 21
-314.9454144147522
 31
0.0
  0
LINE
  5
D4
330
1F
100
AcDbEntity
  8
0-0
  6
JWW_DASHED1
 62
   120
370
     5
100
AcDbLine
 10
-194.0332863263251
 20
-808.045919479581
 30
0.0
 11
308.9667136736645
 21
-305.0459194795917
 31
0.0
  0
LINE
  5
D5
330
1F
100
AcDbEntity
  8
0-0
  6
JWW_DASHED1
 62
   120
370
     5
100
AcDbLine
 10
-194.0332863263336
 20
-798.1464245443732
 30
0.0
 11
308.9667136736562
 21
-295.1464245443839
 31
0.0
  0
LINE
  5
D6
330
1F
100
AcDbEntity
  8
0-0
  6
JWW_DASHED1
 62
   120
370
     5
100
AcDbLine
 10
-194.0332863263417
 20
-788.2469296091649
 30
0.0
 11
308.9667136736523
 21
-285.2469296091709
 31
0.0
  0
LINE
  5
D7
330
1F
100
AcDbEntity
  8
0-0
  6
JWW_DASHED1
 62
   120
370
     5
100
AcDbLine
 10
-194.033286326323
 20
-778.3474346739844
 30
0.0
 11
308.9667136736666
 21
-275.3474346739947
 31
0.0
  0
LINE
  5
D8
330
1F
100
AcDbEntity
  8
0-0
  6
JWW_DASHED1
 62
   120
370
     5
100
AcDbLine
 10
-194.0332863263315
 20
-768.4479397387765
 30
0.0
 11
308.9667136736583
 21
-265.4479397387868
 31
0.0
  0
LINE
  5
D9
330
1F
100
AcDbEntity
  8
0-0
  6
JWW_DASHED1
 62
   120
370
     5
100
AcDbLine
 10
-194.0332863263392
 20
-758.5484448035679
 30
0.0
 11
308.9667136736545
 21
-255.5484448035743
 31
0.0
  0
LINE
  5
DA
330
1F
100
AcDbEntity
  8
0-0
  6
JWW_DASHED1
 62
   120
370
     5
100
AcDbLine
 10
-194.0332863263208
 20
-748.6489498683882
 30
0.0
 11
308.9667136736689
 21
-245.6489498683985
 31
0.0
  0
LINE
  5
DB
330
1F
100
AcDbEntity
  8
0-0
  6
JWW_DASHED1
 62
   120
370
     5
100
AcDbLine
 10
-194.0332863263289
 20
-738.7494549331795
 30
0.0
 11
308.9667136736602
 21
-235.7494549331906
 31
0.0
  0
LINE
  5
DC
330
1F
100
AcDbEntity
  8
0-0
  6
JWW_DASHED1
 62
   120
370
     5
100
AcDbLine
 10
-194.0332863263374
 20
-728.8499599979717
 30
0.0
 11
308.9667136736523
 21
-225.849959997982
 31
0.0
  0
LINE
  5
DD
330
1F
100
AcDbEntity
  8
0-0
  6
JWW_DASHED1
 62
   120
370
     5
100
AcDbLine
 10
-194.0332863263345
 20
-718.9504650628069
 30
0.0
 11
308.9667136736713
 21
-215.9504650628014
 31
0.0
  0
LINE
  5
DE
330
1F
100
AcDbEntity
  8
0-0
  6
JWW_DASHED1
 62
   120
370
     5
100
AcDbLine
 10
-194.0332863263268
 20
-709.0509701275829
 30
0.0
 11
308.966713673663
 21
-206.0509701275936
 31
0.0
  0
LINE
  5
DF
330
1F
100
AcDbEntity
  8
0-0
  6
JWW_DASHED1
 62
   120
370
     5
100
AcDbLine
 10
-194.0332863263396
 20
-699.151475192434
 30
0.0
 11
308.9667136736501
 21
-196.1514751924446
 31
0.0
  0
LINE
  5
E0
330
1F
100
AcDbEntity
  8
0-0
  6
JWW_DASHED1
 62
   120
370
     5
100
AcDbLine
 10
-194.0332863263323
 20
-689.2519802572103
 30
0.0
 11
308.9667136736734
 21
-186.2519802572044
 31
0.0
  0
LINE
  5
E1
330
1F
100
AcDbEntity
  8
0-0
  6
JWW_DASHED1
 62
   120
370
     5
100
AcDbLine
 10
-194.0332863263247
 20
-679.3524853219863
 30
0.0
 11
308.9667136736649
 21
-176.352485321997
 31
0.0
  0
LINE
  5
E2
330
1F
100
AcDbEntity
  8
0-0
  6
JWW_DASHED1
 62
   120
370
     5
100
AcDbLine
 10
-194.033286326337
 20
-669.4529903868373
 30
0.0
 11
308.9667136736525
 21
-166.4529903868475
 31
0.0
  0
LINE
  5
E3
330
1F
100
AcDbEntity
  8
0-0
  6
JWW_DASHED1
 62
   120
370
     5
100
AcDbLine
 10
-194.0332863263443
 20
-659.5534954516278
 30
0.0
 11
308.9667136736651
 21
-156.5534954516184
 31
0.0
  0
LINE
  5
E4
330
1F
100
AcDbEntity
  8
0-0
  6
JWW_DASHED1
 62
   120
370
     5
100
AcDbLine
 10
-194.0332863263225
 20
-649.6540005163897
 30
0.0
 11
308.9667136736674
 21
-146.6540005163999
 31
0.0
  0
LINE
  5
E5
330
1F
100
AcDbEntity
  8
0-0
  6
JWW_DASHED1
 62
   120
370
     5
100
AcDbLine
 10
-194.0332863263349
 20
-639.7545055812402
 30
0.0
 11
308.9667136736546
 21
-136.7545055812505
 31
0.0
  0
LINE
  5
E6
330
1F
100
AcDbEntity
  8
0-0
  6
JWW_DASHED1
 62
   120
370
     5
100
AcDbLine
 10
-194.0332863263413
 20
-629.8550106460307
 30
0.0
 11
308.9667136736521
 21
-126.8550106460371
 31
0.0
  0
LINE
  5
E7
330
1F
100
AcDbEntity
  8
0-0
  6
JWW_DASHED1
 62
   120
370
     5
100
AcDbLine
 10
-194.0332863263357
 20
-619.9555157108089
 30
0.0
 11
308.9667136736693
 21
-116.9555157108033
 31
0.0
  0
LINE
  5
E8
330
1F
100
AcDbEntity
  8
0-0
  6
JWW_DASHED1
 62
   120
370
     5
100
AcDbLine
 10
-194.0332863263332
 20
-610.056020775644
 30
0.0
 11
308.9667136736568
 21
-107.0560207756543
 31
0.0
  0
LINE
  5
E9
330
1F
100
AcDbEntity
  8
0-0
  6
JWW_DASHED1
 62
   120
370
     5
100
AcDbLine
 10
-194.0332863263387
 20
-600.1565258404337
 30
0.0
 11
308.9667136736546
 21
-97.15652584044008
 31
0.0
  0
LINE
  5
EA
330
1F
100
AcDbEntity
  8
0-0
  6
JWW_DASHED1
 62
   120
370
     5
100
AcDbLine
 10
-194.0332863263336
 20
-590.2570309052118
 30
0.0
 11
308.9667136736719
 21
-87.25703090520625
 31
0.0
  0
LINE
  5
EB
330
1F
100
AcDbEntity
  8
0-0
  6
JWW_DASHED1
 62
   120
370
     5
100
AcDbLine
 10
-194.0332863263306
 20
-580.357535970047
 30
0.0
 11
308.9667136736593
 21
-77.35753597005726
 31
0.0
  0
LINE
  5
EC
330
1F
100
AcDbEntity
  8
0-0
  6
JWW_DASHED1
 62
   120
370
     5
100
AcDbLine
 10
-194.0332863263387
 20
-570.4580410348387
 30
0.0
 11
308.9667136736506
 21
-67.45804103484943
 31
0.0
  0
LINE
  5
ED
330
1F
100
AcDbEntity
  8
0-0
  6
JWW_DASHED1
 62
   120
370
     5
100
AcDbLine
 10
-194.0332863263315
 20
-560.5585460996151
 30
0.0
 11
308.9667136736738
 21
-57.55854609961006
 31
0.0
  0
LINE
  5
EE
330
1F
100
AcDbEntity
  8
0-0
  6
JWW_DASHED1
 62
   120
370
     5
100
AcDbLine
 10
-194.0332863263281
 20
-550.6590511644499
 30
0.0
 11
308.9667136736613
 21
-47.65905116446106
 31
0.0
  0
LINE
  5
EF
330
1F
100
AcDbEntity
  8
0-0
  6
JWW_DASHED1
 62
   120
370
     5
100
AcDbLine
 10
-194.0332863263366
 20
-540.7595562292425
 30
0.0
 11
308.9667136736531
 21
-37.75955622925238
 31
0.0
  0
LINE
  5
F0
330
1F
100
AcDbEntity
  8
0-0
  6
JWW_DASHED1
 62
   120
370
     5
100
AcDbLine
 10
-194.0332863263426
 20
-530.8600612940318
 30
0.0
 11
308.9667136736672
 21
-27.86006129402239
 31
0.0
  0
LINE
  5
F1
330
1F
100
AcDbEntity
  8
0-0
  6
JWW_DASHED1
 62
   120
370
     5
100
AcDbLine
 10
-194.0332863263264
 20
-520.9605663588537
 30
0.0
 11
308.9667136736638
 21
-17.96056635886401
 31
0.0
  0
LINE
  5
F2
330
1F
100
AcDbEntity
  8
0-0
  6
JWW_DASHED1
 62
   120
370
     5
100
AcDbLine
 10
-194.033286326334
 20
-511.0610714236455
 30
0.0
 11
308.9667136736551
 21
-8.061071423656188
 31
0.0
  0
LINE
  5
F3
330
1F
100
AcDbEntity
  8
0-0
  6
JWW_DASHED1
 62
   120
370
     5
100
AcDbLine
 10
-194.03328632634
 20
-501.1615764884347
 30
0.0
 11
308.9667136736538
 21
1.838423511558887
 31
0.0
  0
LINE
  5
F4
330
1F
100
AcDbEntity
  8
0-0
  6
JWW_DASHED1
 62
   120
370
     5
100
AcDbLine
 10
-194.0332863263238
 20
-491.2620815532567
 30
0.0
 11
308.9667136736657
 21
11.73791844673261
 31
0.0
  0
LINE
  5
F5
330
1F
100
AcDbEntity
  8
0-0
  6
JWW_DASHED1
 62
   120
370
     5
100
AcDbLine
 10
-194.0332863263319
 20
-481.3625866180485
 30
0.0
 11
308.9667136736576
 21
21.63741338194086
 31
0.0
  0
LINE
  5
F6
330
1F
100
AcDbEntity
  8
0-0
  6
JWW_DASHED1
 62
   120
370
     5
100
AcDbLine
 10
-194.0332863263417
 20
-471.4630916828969
 30
0.0
 11
308.9667136736679
 21
31.53690831711288
 31
0.0
  0
LINE
  5
F7
330
1F
100
AcDbEntity
  8
0-0
  6
JWW_DASHED1
 62
   120
370
     5
100
AcDbLine
 10
-194.0332863263374
 20
-461.5635967476759
 30
0.0
 11
308.9667136736683
 21
41.43640325232965
 31
0.0
  0
LINE
  5
F8
330
1F
100
AcDbEntity
  8
0-0
  6
JWW_DASHED1
 62
   120
370
     5
100
AcDbLine
 10
-194.0332863263298
 20
-451.6641018124523
 30
0.0
 11
308.9667136736597
 21
51.33589818753748
 31
0.0
  0
LINE
  5
F9
330
1F
100
AcDbEntity
  8
0-0
  6
JWW_DASHED1
 62
   120
370
     5
100
AcDbLine
 10
-194.0332863263392
 20
-441.7646068772999
 30
0.0
 11
308.9667136736545
 21
61.23539312269415
 31
0.0
  0
LINE
  5
FA
330
1F
100
AcDbEntity
  8
0-0
  6
JWW_DASHED1
 62
   120
370
     5
100
AcDbLine
 10
-194.0332863263349
 20
-431.8651119420788
 30
0.0
 11
308.9667136736702
 21
71.13488805792628
 31
0.0
  0
LINE
  5
FB
330
1F
100
AcDbEntity
  8
0-0
  6
JWW_DASHED1
 62
   120
370
     5
100
AcDbLine
 10
-194.0332863263276
 20
-421.9656170068552
 30
0.0
 11
308.9667136736623
 21
81.03438299313453
 31
0.0
  0
LINE
  5
FC
330
1F
100
AcDbEntity
  8
0-0
  6
JWW_DASHED1
 62
   120
370
     5
100
AcDbLine
 10
-194.0332863263404
 20
-412.0661220717062
 30
0.0
 11
308.9667136736495
 21
90.93387792828352
 31
0.0
  0
LINE
  5
FD
330
1F
100
AcDbEntity
  8
0-0
  6
JWW_DASHED1
 62
   120
370
     5
100
AcDbLine
 10
-194.0332863263328
 20
-402.1666271364822
 30
0.0
 11
308.966713673673
 21
100.8333728635233
 31
0.0
  0
LINE
  5
FE
330
1F
100
AcDbEntity
  8
0-0
  6
JWW_DASHED1
 62
   120
370
     5
100
AcDbLine
 10
-194.0332863263255
 20
-392.2671322012586
 30
0.0
 11
308.9667136736642
 21
110.7328677987311
 31
0.0
  0
LINE
  5
FF
330
1F
100
AcDbEntity
  8
0-0
  6
JWW_DASHED1
 62
   120
370
     5
100
AcDbLine
 10
-194.0332863263379
 20
-382.3676372661092
 30
0.0
 11
308.9667136736514
 21
120.6323627338801
 31
0.0
  0
LINE
  5
100
330
1F
100
AcDbEntity
  8
0-0
  6
JWW_DASHED1
 62
   120
370
     5
100
AcDbLine
 10
-194.0332863263426
 20
-372.4681423308975
 30
0.0
 11
308.966713673667
 21
130.5318576691118
 31
0.0
  0
LINE
  5
101
330
1F
100
AcDbEntity
  8
0-0
  6
JWW_DASHED1
 62
   120
370
     5
100
AcDbLine
 10
-194.033286326323
 20
-362.568647395662
 30
0.0
 11
308.9667136736668
 21
140.4313526043282
 31
0.0
  0
LINE
  5
102
330
1F
100
AcDbEntity
  8
0-0
  6
JWW_DASHED1
 62
   120
370
     5
100
AcDbLine
 10
-194.0332863263357
 20
-352.6691524605126
 30
0.0
 11
308.966713673654
 21
150.3308475394772
 31
0.0
  0
LINE
  5
103
330
1F
100
AcDbEntity
  8
0-0
  6
JWW_DASHED1
 62
   120
370
     5
100
AcDbLine
 10
-194.0332863263404
 20
-342.7696575253009
 30
0.0
 11
308.966713673654
 21
160.2303424746935
 31
0.0
  0
LINE
  5
104
330
1F
100
AcDbEntity
  8
0-0
  6
JWW_DASHED1
 62
   120
370
     5
100
AcDbLine
 10
-194.033286326337
 20
-332.8701625900811
 30
0.0
 11
308.9667136736687
 21
170.1298374099244
 31
0.0
  0
LINE
  5
105
330
1F
100
AcDbEntity
  8
0-0
  6
JWW_DASHED1
 62
   120
370
     5
100
AcDbLine
 10
-194.0332863263336
 20
-322.9706676549159
 30
0.0
 11
308.9667136736562
 21
180.0293323450734
 31
0.0
  0
LINE
  5
106
330
1F
100
AcDbEntity
  8
0-0
  6
JWW_DASHED1
 62
   120
370
     5
100
AcDbLine
 10
-194.0332863263379
 20
-313.0711727197038
 30
0.0
 11
308.9667136736566
 21
189.9288272802906
 31
0.0
  0
LINE
  5
107
330
1F
100
AcDbEntity
  8
0-0
  6
JWW_DASHED1
 62
   120
370
     5
100
AcDbLine
 10
-194.0332863263345
 20
-303.1716777844841
 30
0.0
 11
308.9667136736711
 21
199.8283222155214
 31
0.0
  0
LINE
  5
108
330
1F
100
AcDbEntity
  8
0-0
  6
JWW_DASHED1
 62
   120
370
     5
100
AcDbLine
 10
-194.0332863263315
 20
-293.2721828493193
 30
0.0
 11
308.9667136736587
 21
209.7278171506704
 31
0.0
  0
LINE
  5
109
330
1F
100
AcDbEntity
  8
0-0
  6
JWW_DASHED1
 62
   120
370
     5
100
AcDbLine
 10
-194.03328632634
 20
-283.3726879141115
 30
0.0
 11
308.96671367365
 21
219.6273120858783
 31
0.0
  0
LINE
  5
10A
330
1F
100
AcDbEntity
  8
0-0
  6
JWW_DASHED1
 62
   120
370
     5
100
AcDbLine
 10
-194.033286326343
 20
-273.4731929788985
 30
0.0
 11
308.9667136736664
 21
229.5268070211108
 31
0.0
  0
LINE
  5
10B
330
1F
100
AcDbEntity
  8
0-0
  6
JWW_DASHED1
 62
   120
370
     5
100
AcDbLine
 10
-194.0332863263289
 20
-263.5736980437223
 30
0.0
 11
308.9667136736606
 21
239.4263019562671
 31
0.0
  0
LINE
  5
10C
330
1F
100
AcDbEntity
  8
0-0
  6
JWW_DASHED1
 62
   120
370
     5
100
AcDbLine
 10
-194.0332863263374
 20
-253.6742031085144
 30
0.0
 11
308.9667136736525
 21
249.3257968914753
 31
0.0
  0
LINE
  5
10D
330
1F
100
AcDbEntity
  8
0-0
  6
JWW_DASHED1
 62
   120
370
     5
100
AcDbLine
 10
-194.0332863263409
 20
-243.7747081733015
 30
0.0
 11
308.9667136736689
 21
259.2252918267079
 31
0.0
  0
LINE
  5
10E
330
1F
100
AcDbEntity
  8
0-0
  6
JWW_DASHED1
 62
   120
370
     5
100
AcDbLine
 10
-194.0332863263268
 20
-233.8752132381256
 30
0.0
 11
308.966713673663
 21
269.1247867618637
 31
0.0
  0
LINE
  5
10F
330
1F
100
AcDbEntity
  8
0-0
  6
JWW_DASHED1
 62
   120
370
     5
100
AcDbLine
 10
-194.0332863263349
 20
-223.9757183029178
 30
0.0
 11
308.9667136736546
 21
279.024281697072
 31
0.0
  0
LINE
  5
110
330
1F
100
AcDbEntity
  8
0-0
  6
JWW_DASHED1
 62
   120
370
     5
100
AcDbLine
 10
-194.0332863263426
 20
-214.0762233677633
 30
0.0
 11
308.9667136736668
 21
288.9237766322461
 31
0.0
  0
LINE
  5
111
330
1F
100
AcDbEntity
  8
0-0
  6
JWW_DASHED1
 62
   120
370
     5
100
AcDbLine
 10
-194.0332863263242
 20
-204.1767284325286
 30
0.0
 11
308.9667136736651
 21
298.8232715674607
 31
0.0
  0
LINE
  5
112
330
1F
100
AcDbEntity
  8
0-0
  6
JWW_DASHED1
 62
   120
370
     5
100
AcDbLine
 10
-194.0332863263328
 20
-194.2772334973208
 30
0.0
 11
308.9667136736568
 21
308.7227665026685
 31
0.0
  0
LINE
  5
113
330
1F
100
AcDbEntity
  8
0-0
  6
JWW_DASHED1
 62
   120
370
     5
100
AcDbLine
 10
-194.03328632634
 20
-184.3777385621662
 30
0.0
 11
308.9667136736538
 21
318.6222614378273
 31
0.0
  0
LINE
  5
114
330
1F
100
AcDbEntity
  8
0-0
  6
JWW_DASHED1
 62
   120
370
     5
100
AcDbLine
 10
-194.0332863263379
 20
-174.4782436269477
 30
0.0
 11
308.9667136736674
 21
328.5217563730573
 31
0.0
  0
LINE
  5
115
330
1F
100
AcDbEntity
  8
0-0
  6
JWW_DASHED1
 62
   120
370
     5
100
AcDbLine
 10
-194.0332863263306
 20
-164.5787486917241
 30
0.0
 11
308.9667136736591
 21
338.4212513082656
 31
0.0
  0
LINE
  5
116
330
1F
100
AcDbEntity
  8
0-0
  6
JWW_DASHED1
 62
   120
370
     5
100
AcDbLine
 10
-194.0332863263374
 20
-154.6792537565692
 30
0.0
 11
308.9667136736562
 21
348.320746243424
 31
0.0
  0
LINE
  5
117
330
1F
100
AcDbEntity
  8
0-0
  6
JWW_DASHED1
 62
   120
370
     5
100
AcDbLine
 10
-194.0332863263357
 20
-144.7797588213515
 30
0.0
 11
308.9667136736698
 21
358.220241178654
 31
0.0
  0
LINE
  5
118
330
1F
100
AcDbEntity
  8
0-0
  6
JWW_DASHED1
 62
   120
370
     5
100
AcDbLine
 10
-194.0332863263281
 20
-134.8802638861275
 30
0.0
 11
308.9667136736614
 21
368.1197361138622
 31
0.0
  0
LINE
  5
119
330
1F
100
AcDbEntity
  8
0-0
  6
JWW_DASHED1
 62
   120
370
     5
100
AcDbLine
 10
-194.0332863263409
 20
-124.9807689509785
 30
0.0
 11
308.9667136736487
 21
378.0192310490112
 31
0.0
  0
LINE
  5
11A
330
1F
100
AcDbEntity
  8
0-0
  6
JWW_DASHED1
 62
   120
370
     5
100
AcDbLine
 10
-194.0332863263336
 20
-115.0812740157545
 30
0.0
 11
308.9667136736719
 21
387.918725984251
 31
0.0
  0
LINE
  5
11B
330
1F
100
AcDbEntity
  8
0-0
  6
JWW_DASHED1
 62
   120
370
     5
100
AcDbLine
 10
-194.0332863263259
 20
-105.1817790805305
 30
0.0
 11
308.9667136736636
 21
397.8182209194588
 31
0.0
  0
LINE
  5
11C
330
1F
100
AcDbEntity
  8
0-0
  6
JWW_DASHED1
 62
   120
370
     5
100
AcDbLine
 10
-194.0332863263392
 20
-95.28228414538191
 30
0.0
 11
308.966713673651
 21
407.7177158546078
 31
0.0
  0
LINE
  5
11D
330
1F
100
AcDbEntity
  8
0-0
  6
JWW_DASHED1
 62
   120
370
     5
100
AcDbLine
 10
-194.0332863263409
 20
-85.38278921016769
 30
0.0
 11
308.9667136736689
 21
417.6172107898421
 31
0.0
  0
LINE
  5
11E
330
1F
100
AcDbEntity
  8
0-0
  6
JWW_DASHED1
 62
   120
370
     5
100
AcDbLine
 10
-194.0332863263238
 20
-75.48329427493385
 30
0.0
 11
308.9667136736659
 21
427.5167057250559
 31
0.0
  0
LINE
  5
11F
330
1F
100
AcDbEntity
  8
0-0
  6
JWW_DASHED1
 62
   120
370
     5
100
AcDbLine
 10
-194.0332863263366
 20
-65.58379933978486
 30
0.0
 11
308.9667136736531
 21
437.4162006602049
 31
0.0
  0
LINE
  5
120
330
1F
100
AcDbEntity
  8
0-0
  6
JWW_DASHED1
 62
   120
370
     5
100
AcDbLine
 10
-194.0332863263383
 20
-55.68430440457064
 30
0.0
 11
308.9667136736555
 21
447.3156955954233
 31
0.0
  0
LINE
  5
121
330
1F
100
AcDbEntity
  8
0-0
  6
JWW_DASHED1
 62
   120
370
     5
100
AcDbLine
 10
-194.0332863263374
 20
-45.78480946935301
 30
0.0
 11
308.9667136736683
 21
457.2151905306525
 31
0.0
  0
LINE
  5
122
330
1F
100
AcDbEntity
  8
0-0
  6
JWW_DASHED1
 62
   120
370
     5
100
AcDbLine
 10
-194.033286326334
 20
-35.88531453418824
 30
0.0
 11
308.9667136736555
 21
467.1146854658015
 31
0.0
  0
LINE
  5
123
330
1F
100
AcDbEntity
  8
0-0
  6
JWW_DASHED1
 62
   120
370
     5
100
AcDbLine
 10
-194.0332863263357
 20
-25.98581959897359
 30
0.0
 11
308.966713673658
 21
477.0141804010204
 31
0.0
  0
LINE
  5
124
330
1F
100
AcDbEntity
  8
0-0
  6
JWW_DASHED1
 62
   120
370
     5
100
AcDbLine
 10
-194.0332863263349
 20
-16.08632466375596
 30
0.0
 11
308.9667136736704
 21
486.9136753362491
 31
0.0
  0
LINE
  5
125
330
1F
100
AcDbEntity
  8
0-0
  6
JWW_DASHED1
 62
   120
370
     5
100
AcDbLine
 10
-194.0332863263319
 20
-6.186829728591192
 30
0.0
 11
308.9667136736574
 21
496.8131702713981
 31
0.0
  0
LINE
  5
126
330
1F
100
AcDbEntity
  8
0-0
  6
JWW_DASHED1
 62
   120
370
     5
100
AcDbLine
 10
-194.0332863263404
 20
3.712665206616634
 30
0.0
 11
308.9667136736495
 21
506.7126652066064
 31
0.0
  0
LINE
  5
127
330
1F
100
AcDbEntity
  8
0-0
  6
JWW_DASHED1
 62
   120
370
     5
100
AcDbLine
 10
-194.0332863263417
 20
13.61216014183171
 30
0.0
 11
308.9667136736679
 21
516.6121601418411
 31
0.0
  0
LINE
  5
128
330
1F
100
AcDbEntity
  8
0-0
  6
JWW_DASHED1
 62
   120
370
     5
100
AcDbLine
 10
-194.0332863263298
 20
23.511655077005
 30
0.0
 11
308.96671367366
 21
526.5116550769951
 31
0.0
  0
LINE
  5
129
330
1F
100
AcDbEntity
  8
0-0
  6
JWW_DASHED1
 62
   120
370
     5
100
AcDbLine
 10
-194.0332863263379
 20
33.41115001221368
 30
0.0
 11
308.9667136736514
 21
536.411150012203
 31
0.0
  0
LINE
  5
12A
330
1F
100
AcDbEntity
  8
0-0
  6
JWW_DASHED1
 62
   120
370
     5
100
AcDbLine
 10
-194.0332863263349
 20
43.31064494737802
 30
0.0
 11
308.9667136736706
 21
546.3106449473835
 31
0.0
  0
LINE
  5
12B
330
1F
100
AcDbEntity
  8
0-0
  6
JWW_DASHED1
 62
   120
370
     5
100
AcDbLine
 10
-194.0332863263272
 20
53.21013988260205
 30
0.0
 11
308.9667136736623
 21
556.2101398825918
 31
0.0
  0
LINE
  5
12C
330
1F
100
AcDbEntity
  8
0-0
  6
JWW_DASHED1
 62
   120
370
     5
100
AcDbLine
 10
-194.0332863263362
 20
63.10963481780988
 30
0.0
 11
308.966713673654
 21
566.1096348178
 31
0.0
  0
LINE
  5
12D
330
1F
100
AcDbEntity
  8
0-0
  6
JWW_DASHED1
 62
   120
370
     5
100
AcDbLine
 10
-194.0332863263409
 20
73.00912975296697
 30
0.0
 11
308.9667136736689
 21
576.0091297529764
 31
0.0
  0
LINE
  5
12E
330
1F
100
AcDbEntity
  8
0-0
  6
JWW_DASHED1
 62
   120
370
     5
100
AcDbLine
 10
-194.0332863263255
 20
82.90862468819867
 30
0.0
 11
308.9667136736647
 21
585.9086246881884
 31
0.0
  0
LINE
  5
12F
330
1F
100
AcDbEntity
  8
0-0
  6
JWW_DASHED1
 62
   120
370
     5
100
AcDbLine
 10
-194.0332863263336
 20
92.80811962340692
 30
0.0
 11
308.9667136736562
 21
595.8081196233967
 31
0.0
  0
LINE
  5
130
330
1F
100
AcDbEntity
  8
0-0
  6
JWW_DASHED1
 62
   120
370
     5
100
AcDbLine
 10
-194.0332863263383
 20
102.707614558564
 30
0.0
 11
308.9667136736552
 21
605.7076145585572
 31
0.0
  0
LINE
  5
131
330
1F
100
AcDbEntity
  8
0-0
  6
JWW_DASHED1
 62
   120
370
     5
100
AcDbLine
 10
-194.0332863263387
 20
112.6071094937799
 30
0.0
 11
308.9667136736668
 21
615.6071094937854
 31
0.0
  0
LINE
  5
132
330
1F
100
AcDbEntity
  8
0-0
  6
JWW_DASHED1
 62
   120
370
     5
100
AcDbLine
 10
-194.0332863263315
 20
122.5066044290035
 30
0.0
 11
308.9667136736583
 21
625.5066044289933
 31
0.0
  0
LINE
  5
133
330
1F
100
AcDbEntity
  8
0-0
  6
JWW_DASHED1
 62
   120
370
     5
100
AcDbLine
 10
-194.0332863263357
 20
132.4060993641611
 30
0.0
 11
308.9667136736579
 21
635.4060993641542
 31
0.0
  0
LINE
  5
134
330
1F
100
AcDbEntity
  8
0-0
  6
JWW_DASHED1
 62
   120
370
     5
100
AcDbLine
 10
-194.0332863263366
 20
142.3055942993766
 30
0.0
 11
308.9667136736691
 21
645.305594299382
 31
0.0
  0
LINE
  5
135
330
1F
100
AcDbEntity
  8
0-0
  6
JWW_DASHED1
 62
   120
370
     5
100
AcDbLine
 10
-194.0332863263289
 20
152.2050892346006
 30
0.0
 11
308.9667136736604
 21
655.2050892345894
 31
0.0
  0
LINE
  5
136
330
1F
100
AcDbEntity
  8
0-0
  6
JWW_DASHED1
 62
   120
370
     5
100
AcDbLine
 10
-194.0332863263417
 20
162.1045841697496
 30
0.0
 11
308.9667136736478
 21
665.1045841697389
 31
0.0
  0
LINE
  5
137
330
1F
100
AcDbEntity
  8
0-0
  6
JWW_DASHED1
 62
   120
370
     5
100
AcDbLine
 10
-194.033286326334
 20
172.0040791049736
 30
0.0
 11
308.9667136736711
 21
675.0040791049787
 31
0.0
  0
LINE
  5
138
330
1F
100
AcDbEntity
  8
0-0
  6
JWW_DASHED1
 62
   120
370
     5
100
AcDbLine
 10
-194.0332863263272
 20
181.9035740401972
 30
0.0
 11
308.966713673663
 21
684.903574040187
 31
0.0
  0
LINE
  5
139
330
1F
100
AcDbEntity
  8
0-0
  6
JWW_DASHED1
 62
   120
370
     5
100
AcDbLine
 10
-194.0332863263396
 20
191.8030689753462
 30
0.0
 11
308.9667136736504
 21
694.8030689753359
 31
0.0
  0
LINE
  5
13A
330
1F
100
AcDbEntity
  8
0-0
  6
JWW_DASHED1
 62
   120
370
     5
100
AcDbLine
 10
-194.0332863263392
 20
201.7025639105626
 30
0.0
 11
308.9667136736706
 21
704.7025639105723
 31
0.0
  0
LINE
  5
13B
330
1F
100
AcDbEntity
  8
0-0
  6
JWW_DASHED1
 62
   120
370
     5
100
AcDbLine
 10
-194.0332863263409
 20
211.6020588457781
 30
0.0
 11
308.9667136736651
 21
714.6020588457836
 31
0.0
  0
LINE
  5
13C
330
1F
100
AcDbEntity
  8
0-0
  6
JWW_DASHED1
 62
   120
370
     5
100
AcDbLine
 10
-194.033286326337
 20
221.5015537809433
 30
0.0
 11
308.9667136736527
 21
724.5015537809326
 31
0.0
  0
LINE
  5
13D
330
1F
100
AcDbEntity
  8
0-0
  6
JWW_DASHED1
 62
   120
370
     5
100
AcDbLine
 10
-194.0332863263366
 20
231.4010487161596
 30
0.0
 11
308.9667136736572
 21
734.4010487161536
 31
0.0
  0
LINE
  5
13E
330
1F
100
AcDbEntity
  8
0-0
  6
JWW_DASHED1
 62
   120
370
     5
100
AcDbLine
 10
-194.0332863263383
 20
241.3005436513751
 30
0.0
 11
308.9667136736676
 21
744.3005436513806
 31
0.0
  0
LINE
  5
13F
330
1F
100
AcDbEntity
  8
0-0
  6
JWW_DASHED1
 62
   120
370
     5
100
AcDbLine
 10
-194.0332863263349
 20
251.2000385865394
 30
0.0
 11
308.9667136736546
 21
754.2000385865292
 31
0.0
  0
LINE
  5
140
330
1F
100
AcDbEntity
  8
0-0
  6
JWW_DASHED1
 62
   120
370
     5
100
AcDbLine
 10
-194.033286326343
 20
261.0995335217481
 30
0.0
 11
308.9667136736463
 21
764.0995335217374
 31
0.0
  0
LINE
  5
141
330
1F
100
AcDbEntity
  8
0-0
  6
JWW_DASHED1
 62
   120
370
     5
100
AcDbLine
 10
-194.03328632634
 20
270.9990284569125
 30
0.0
 11
308.9667136736655
 21
773.999028456918
 31
0.0
  0
LINE
  5
142
330
1F
100
AcDbEntity
  8
0-0
  6
JWW_DASHED1
 62
   120
370
     5
100
AcDbLine
 10
-194.0332863263323
 20
280.8985233921365
 30
0.0
 11
308.9667136736568
 21
783.8985233921258
 31
0.0
  0
LINE
  5
143
330
1F
100
AcDbEntity
  8
0-0
  6
JWW_DASHED1
 62
   120
370
     5
100
AcDbLine
 10
-194.0332863263409
 20
290.7980183273443
 30
0.0
 11
308.9667136736484
 21
793.7980183273337
 31
0.0
  0
LINE
  5
144
330
1F
100
AcDbEntity
  8
0-0
  6
JWW_DASHED1
 62
   120
370
     5
100
AcDbLine
 10
-194.0332863263379
 20
300.6975132625095
 30
0.0
 11
308.9667136736674
 21
803.6975132625146
 31
0.0
  0
LINE
  5
145
330
1F
100
AcDbEntity
  8
0-0
  6
JWW_DASHED1
 62
   120
370
     5
100
AcDbLine
 10
-194.0332863263306
 20
310.5970081977331
 30
0.0
 11
308.9667136736593
 21
813.5970081977229
 31
0.0
  0
LINE
  5
146
330
1F
100
AcDbEntity
  8
0-0
  6
JWW_DASHED1
 62
   120
370
     5
100
AcDbLine
 10
-194.0332863263392
 20
320.4965031329414
 30
0.0
 11
308.966713673651
 21
823.4965031329307
 31
0.0
  0
LINE
  5
147
330
1F
100
AcDbEntity
  8
0-0
  6
JWW_DASHED1
 62
   120
370
     5
100
AcDbLine
 10
-194.0332863263357
 20
330.3959980681061
 30
0.0
 11
308.9667136736698
 21
833.3959980681112
 31
0.0
  0
LINE
  5
148
330
1F
100
AcDbEntity
  8
0-0
  6
JWW_DASHED1
 62
   120
370
     5
100
AcDbLine
 10
-194.0332863263281
 20
340.2954930033297
 30
0.0
 11
308.9667136736614
 21
843.2954930033195
 31
0.0
  0
LINE
  5
149
330
1F
100
AcDbEntity
  8
0-0
  6
JWW_DASHED1
 62
   120
370
     5
100
AcDbLine
 10
-194.0332863263366
 20
350.1949879385376
 30
0.0
 11
308.9667136736531
 21
853.1949879385277
 31
0.0
  0
LINE
  5
14A
330
1F
100
AcDbEntity
  8
0-0
  6
JWW_DASHED1
 62
   120
370
     5
100
AcDbLine
 10
-194.0332863263392
 20
360.0944828736968
 30
0.0
 11
308.9667136736704
 21
863.0944828737065
 31
0.0
  0
LINE
  5
14B
330
1F
100
AcDbEntity
  8
0-0
  6
JWW_DASHED1
 62
   120
370
     5
100
AcDbLine
 10
-194.0332863263259
 20
369.9939778089268
 30
0.0
 11
308.9667136736636
 21
872.993977808916
 31
0.0
  0
LINE
  5
14C
330
1F
100
AcDbEntity
  8
0-0
  6
JWW_DASHED1
 62
   120
370
     5
100
AcDbLine
 10
-194.033286326334
 20
379.8934727441346
 30
0.0
 11
308.9667136736552
 21
882.893472744124
 31
0.0
  0
LINE
  5
14D
330
1F
100
AcDbEntity
  8
0-0
  6
JWW_DASHED1
 62
   120
370
     5
100
AcDbLine
 10
-194.0332863263366
 20
389.7929676792938
 30
0.0
 11
308.9667136736572
 21
892.7929676792878
 31
0.0
  0
LINE
  5
14E
330
1F
100
AcDbEntity
  8
0-0
  6
JWW_DASHED1
 62
   120
370
     5
100
AcDbLine
 10
-194.0332863263392
 20
399.6924626145076
 30
0.0
 11
308.9667136736659
 21
902.6924626145131
 31
0.0
  0
LINE
  5
14F
330
1F
100
AcDbEntity
  8
0-0
  6
JWW_DASHED1
 62
   120
370
     5
100
AcDbLine
 10
-194.0332863263323
 20
409.5919575497317
 30
0.0
 11
308.9667136736576
 21
912.591957549721
 31
0.0
  0
LINE
  5
150
330
1F
100
AcDbEntity
  8
0-0
  6
JWW_DASHED1
 62
   120
370
     5
100
AcDbLine
 10
-194.0332863263345
 20
419.4914524848909
 30
0.0
 11
308.9667136736593
 21
922.4914524848845
 31
0.0
  0
LINE
  5
151
330
1F
100
AcDbEntity
  8
0-0
  6
JWW_DASHED1
 62
   120
370
     5
100
AcDbLine
 10
-194.033286326337
 20
429.3909474201047
 30
0.0
 11
308.9667136736683
 21
932.3909474201098
 31
0.0
  0
LINE
  5
152
330
1F
100
AcDbEntity
  8
0-0
  6
JWW_DASHED1
 62
   120
370
     5
100
AcDbLine
 10
-194.0332863263298
 20
439.2904423553279
 30
0.0
 11
308.96671367366
 21
942.290442355318
 31
0.0
  0
LINE
  5
153
330
1F
100
AcDbEntity
  8
0-0
  6
JWW_DASHED1
 62
   120
370
     5
100
AcDbLine
 10
-194.0332863263426
 20
449.1899372904772
 30
0.0
 11
308.9667136736472
 21
952.189937290467
 31
0.0
  0
LINE
  5
154
330
1F
100
AcDbEntity
  8
0-0
  6
JWW_DASHED1
 62
   120
370
     5
100
AcDbLine
 10
-194.03328632634
 20
459.0894322256962
 30
0.0
 11
308.9667136736696
 21
962.0894322257055
 31
0.0
  0
LINE
  5
155
330
1F
100
AcDbEntity
  8
0-0
  6
JWW_DASHED1
 62
   120
370
     5
100
AcDbLine
 10
-194.0332863263272
 20
468.9889271609249
 30
0.0
 11
308.9667136736623
 21
971.9889271609146
 31
0.0
  0
LINE
  5
156
330
1F
100
AcDbEntity
  8
0-0
  6
JWW_DASHED1
 62
   120
370
     5
100
AcDbLine
 10
-194.03328632634
 20
478.8884220960739
 30
0.0
 11
308.9667136736495
 21
981.8884220960637
 31
0.0
  0
LINE
  5
157
330
1F
100
AcDbEntity
  8
0-0
  6
JWW_DASHED1
 62
   120
370
     5
100
AcDbLine
 10
-194.0332863263374
 20
488.7879170312932
 30
0.0
 11
308.9667136736721
 21
991.7879170313026
 31
0.0
  0
LINE
  5
158
330
1F
100
AcDbEntity
  8
0-0
  6
JWW_DASHED1
 62
   120
370
     5
100
AcDbLine
 10
-194.0332863263272
 20
498.6874119664921
 30
0.0
 11
308.9667136736621
 21
1001.687411966481
 31
0.0
  0
LINE
  5
159
330
1F
100
AcDbEntity
  8
0-0
  6
JWW_DASHED1
 62
   120
370
     5
100
AcDbLine
 10
-194.0332863263379
 20
508.5869069016709
 30
0.0
 11
308.9667136736517
 21
1011.58690690166
 31
0.0
  0
LINE
  5
15A
330
1F
100
AcDbEntity
  8
0-0
  6
JWW_DASHED1
 62
   120
370
     5
100
AcDbLine
 10
-194.0332863263349
 20
518.4864018368899
 30
0.0
 11
308.9667136736587
 21
1021.486401836883
 31
0.0
  0
LINE
  5
15B
330
1F
100
AcDbEntity
  8
0-0
  6
JWW_DASHED1
 62
   120
370
     5
100
AcDbLine
 10
-194.0332863263272
 20
528.3858967720594
 30
0.0
 11
308.9667136736623
 21
1031.385896772049
 31
0.0
  0
LINE
  5
15C
330
1F
100
AcDbEntity
  8
0-0
  6
JWW_DASHED1
 62
   120
370
     5
100
AcDbLine
 10
-194.0332863263357
 20
538.2853917072675
 30
0.0
 11
308.966713673654
 21
1041.285391707257
 31
0.0
  0
LINE
  5
15D
330
1F
100
AcDbEntity
  8
0-0
  6
JWW_DASHED1
 62
   120
370
     5
100
AcDbLine
 10
-194.0332863263443
 20
548.1848866424758
 30
0.0
 11
308.9667136736457
 21
1051.184886642465
 31
0.0
  0
LINE
  5
15E
330
1F
100
AcDbEntity
  8
0-0
  6
JWW_DASHED1
 62
   120
370
     5
100
AcDbLine
 10
-194.0332863263409
 20
558.0843815776402
 30
0.0
 11
308.9667136736647
 21
1061.084381577646
 31
0.0
  0
LINE
  5
15F
330
1F
100
AcDbEntity
  8
0-0
  6
JWW_DASHED1
 62
   120
370
     5
100
AcDbLine
 10
-194.0332863263336
 20
567.9838765128642
 30
0.0
 11
308.7779188293626
 21
1070.79508166856
 31
0.0
  0
LINE
  5
160
330
1F
100
AcDbEntity
  8
0-0
  6
JWW_DASHED1
 62
   120
370
     5
100
AcDbLine
 10
-194.0332863263417
 20
577.883371448072
 30
0.0
 11
298.8784238941546
 21
1070.795081668569
 31
0.0
  0
LINE
  5
161
330
1F
100
AcDbEntity
  8
0-0
  6
JWW_DASHED1
 62
   120
370
     5
100
AcDbLine
 10
-194.0332863263387
 20
587.7828663832372
 30
0.0
 11
288.9789289589743
 21
1070.79508166855
 31
0.0
  0
LINE
  5
162
330
1F
100
AcDbEntity
  8
0-0
  6
JWW_DASHED1
 62
   120
370
     5
100
AcDbLine
 10
-194.0332863263311
 20
597.6823613184613
 30
0.0
 11
279.0794340237654
 21
1070.795081668557
 31
0.0
  0
LINE
  5
163
330
1F
100
AcDbEntity
  8
0-0
  6
JWW_DASHED1
 62
   120
370
     5
100
AcDbLine
 10
-194.03328632634
 20
607.5818562536687
 30
0.0
 11
269.1799390885574
 21
1070.795081668566
 31
0.0
  0
LINE
  5
164
330
1F
100
AcDbEntity
  8
0-0
  6
JWW_DASHED1
 62
   120
370
     5
100
AcDbLine
 10
-194.0332863263362
 20
617.4813511888342
 30
0.0
 11
259.2804441533779
 21
1070.795081668548
 31
0.0
  0
LINE
  5
165
330
1F
100
AcDbEntity
  8
0-0
  6
JWW_DASHED1
 62
   120
370
     5
100
AcDbLine
 10
-194.0332863263289
 20
627.3808461240578
 30
0.0
 11
249.3809492181681
 21
1070.795081668555
 31
0.0
  0
LINE
  5
166
330
1F
100
AcDbEntity
  8
0-0
  6
JWW_DASHED1
 62
   120
370
     5
100
AcDbLine
 10
-194.0332863263374
 20
637.2803410592661
 30
0.0
 11
239.4814542829599
 21
1070.795081668563
 31
0.0
  0
LINE
  5
167
330
1F
100
AcDbEntity
  8
0-0
  6
JWW_DASHED1
 62
   120
370
     5
100
AcDbLine
 10
-194.0332863263379
 20
647.1798359944271
 30
0.0
 11
229.5819593477817
 21
1070.795081668546
 31
0.0
  0
LINE
  5
168
330
1F
100
AcDbEntity
  8
0-0
  6
JWW_DASHED1
 62
   120
370
     5
100
AcDbLine
 10
-194.0332863263264
 20
657.0793309296545
 30
0.0
 11
219.6824644125709
 21
1070.795081668552
 31
0.0
  0
LINE
  5
169
330
1F
100
AcDbEntity
  8
0-0
  6
JWW_DASHED1
 62
   120
370
     5
100
AcDbLine
 10
-194.0332863263349
 20
666.9788258648623
 30
0.0
 11
209.7829694773624
 21
1070.79508166856
 31
0.0
  0
LINE
  5
16A
330
1F
100
AcDbEntity
  8
0-0
  6
JWW_DASHED1
 62
   120
370
     5
100
AcDbLine
 10
-194.0332863263353
 20
676.8783208000241
 30
0.0
 11
199.8834745421976
 21
1070.795081668557
 31
0.0
  0
LINE
  5
16B
330
1F
100
AcDbEntity
  8
0-0
  6
JWW_DASHED1
 62
   120
370
     5
100
AcDbLine
 10
-194.03328632634
 20
686.7778157352353
 30
0.0
 11
189.9839796069774
 21
1070.795081668553
 31
0.0
  0
LINE
  5
16C
330
1F
100
AcDbEntity
  8
0-0
  6
JWW_DASHED1
 62
   120
370
     5
100
AcDbLine
 10
-194.0332863263332
 20
696.677310670459
 30
0.0
 11
180.0844846717654
 21
1070.795081668557
 31
0.0
  0
LINE
  5
16D
330
1F
100
AcDbEntity
  8
0-0
  6
JWW_DASHED1
 62
   120
370
     5
100
AcDbLine
 10
-194.0332863263328
 20
706.5768056056211
 30
0.0
 11
170.1849897366002
 21
1070.795081668554
 31
0.0
  0
LINE
  5
16E
330
1F
100
AcDbEntity
  8
0-0
  6
JWW_DASHED1
 62
   120
370
     5
100
AcDbLine
 10
-194.0332863263383
 20
716.4763005408324
 30
0.0
 11
160.2854948013804
 21
1070.795081668551
 31
0.0
  0
LINE
  5
16F
330
1F
100
AcDbEntity
  8
0-0
  6
JWW_DASHED1
 62
   120
370
     5
100
AcDbLine
 10
-194.0332863263306
 20
726.3757954760556
 30
0.0
 11
150.3859998661683
 21
1070.795081668555
 31
0.0
  0
LINE
  5
170
330
1F
100
AcDbEntity
  8
0-0
  6
JWW_DASHED1
 62
   120
370
     5
100
AcDbLine
 10
-194.0332863263434
 20
736.2752904112045
 30
0.0
 11
140.4865049310185
 21
1070.795081668567
 31
0.0
  0
LINE
  5
171
330
1F
100
AcDbEntity
  8
0-0
  6
JWW_DASHED1
 62
   120
370
     5
100
AcDbLine
 10
-194.0332863263383
 20
746.1747853464265
 30
0.0
 11
130.5870099957846
 21
1070.795081668549
 31
0.0
  0
LINE
  5
172
330
1F
100
AcDbEntity
  8
0-0
  6
JWW_DASHED1
 62
   120
370
     5
100
AcDbLine
 10
-194.0332863263323
 20
756.0742802815937
 30
0.0
 11
120.6875150606297
 21
1070.795081668556
 31
0.0
  0
LINE
  5
173
330
1F
100
AcDbEntity
  8
0-0
  6
JWW_DASHED1
 62
   120
370
     5
100
AcDbLine
 10
-194.0332863263409
 20
765.973775216802
 30
0.0
 11
110.7880201254214
 21
1070.795081668564
 31
0.0
  0
LINE
  5
174
330
1F
100
AcDbEntity
  8
0-0
  6
JWW_DASHED1
 62
   120
370
     5
100
AcDbLine
 10
-194.0332863263357
 20
775.873270152023
 30
0.0
 11
100.8885251901974
 21
1070.795081668556
 31
0.0
  0
LINE
  5
175
330
1F
100
AcDbEntity
  8
0-0
  6
JWW_DASHED1
 62
   120
370
     5
100
AcDbLine
 10
-194.0332863263302
 20
785.7727650871908
 30
0.0
 11
90.98903025503219
 21
1070.795081668553
 31
0.0
  0
LINE
  5
176
330
1F
100
AcDbEntity
  8
0-0
  6
JWW_DASHED1
 62
   120
370
     5
100
AcDbLine
 10
-194.0332863263387
 20
795.6722600223986
 30
0.0
 11
81.08953531982436
 21
1070.795081668561
 31
0.0
  0
LINE
  5
177
330
1F
100
AcDbEntity
  8
0-0
  6
JWW_DASHED1
 62
   120
370
     5
100
AcDbLine
 10
-194.0332863263336
 20
805.5717549576201
 30
0.0
 11
71.19004038460034
 21
1070.795081668554
 31
0.0
  0
LINE
  5
178
330
1F
100
AcDbEntity
  8
0-0
  6
JWW_DASHED1
 62
   120
370
     5
100
AcDbLine
 10
-194.0332863263281
 20
815.471249892787
 30
0.0
 11
61.29054544943514
 21
1070.79508166855
 31
0.0
  0
LINE
  5
179
330
1F
100
AcDbEntity
  8
0-0
  6
JWW_DASHED1
 62
   120
370
     5
100
AcDbLine
 10
-194.0332863263366
 20
825.3707448279948
 30
0.0
 11
51.39105051422646
 21
1070.795081668558
 31
0.0
  0
LINE
  5
17A
330
1F
100
AcDbEntity
  8
0-0
  6
JWW_DASHED1
 62
   120
370
     5
100
AcDbLine
 10
-194.0332863263451
 20
835.2702397632031
 30
0.0
 11
41.49155557901864
 21
1070.795081668566
 31
0.0
  0
LINE
  5
17B
330
1F
100
AcDbEntity
  8
0-0
  6
JWW_DASHED1
 62
   120
370
     5
100
AcDbLine
 10
-194.0332863263417
 20
845.1697346983683
 30
0.0
 11
31.59206064384577
 21
1070.795081668556
 31
0.0
  0
LINE
  5
17C
330
1F
100
AcDbEntity
  8
0-0
  6
JWW_DASHED1
 62
   120
370
     5
100
AcDbLine
 10
-194.033286326334
 20
855.0692296335919
 30
0.0
 11
21.69256570862942
 21
1070.795081668555
 31
0.0
  0
LINE
  5
17D
330
1F
100
AcDbEntity
  8
0-0
  6
JWW_DASHED1
 62
   120
370
     5
100
AcDbLine
 10
-194.0332863263426
 20
864.9687245687996
 30
0.0
 11
11.79307077342074
 21
1070.795081668563
 31
0.0
  0
LINE
  5
17E
330
1F
100
AcDbEntity
  8
0-0
  6
JWW_DASHED1
 62
   120
370
     5
100
AcDbLine
 10
-194.0332863263392
 20
874.8682195039648
 30
0.0
 11
1.893575838250001
 21
1070.795081668555
 31
0.0
  0
LINE
  5
17F
330
1F
100
AcDbEntity
  8
0-0
  6
JWW_DASHED1
 62
   120
370
     5
100
AcDbLine
 10
-194.0332863263319
 20
884.7677144391889
 30
0.0
 11
-8.00591909696763
 21
1070.795081668553
 31
0.0
  0
LINE
  5
180
330
1F
100
AcDbEntity
  8
0-0
  6
JWW_DASHED1
 62
   120
370
     5
100
AcDbLine
 10
-194.0332863263404
 20
894.6672093743967
 30
0.0
 11
-17.90541403217631
 21
1070.795081668561
 31
0.0
  0
LINE
  5
181
330
1F
100
AcDbEntity
  8
0-0
  6
JWW_DASHED1
 62
   120
370
     5
100
AcDbLine
 10
-194.0332863263383
 20
904.5667043095602
 30
0.0
 11
-27.80490896734662
 21
1070.795081668552
 31
0.0
  0
LINE
  5
182
330
1F
100
AcDbEntity
  8
0-0
  6
JWW_DASHED1
 62
   120
370
     5
100
AcDbLine
 10
-194.0332863263298
 20
914.4661992447851
 30
0.0
 11
-37.7044039025651
 21
1070.79508166855
 31
0.0
  0
LINE
  5
183
330
1F
100
AcDbEntity
  8
0-0
  6
JWW_DASHED1
 62
   120
370
     5
100
AcDbLine
 10
-194.0332863263383
 20
924.3656941799934
 30
0.0
 11
-47.60389883777336
 21
1070.795081668558
 31
0.0
  0
LINE
  5
184
330
1F
100
AcDbEntity
  8
0-0
  6
JWW_DASHED1
 62
   120
370
     5
100
AcDbLine
 10
-194.0332863263357
 20
934.2651891151572
 30
0.0
 11
-57.50339377294281
 21
1070.795081668551
 31
0.0
  0
LINE
  5
185
330
1F
100
AcDbEntity
  8
0-0
  6
JWW_DASHED1
 62
   120
370
     5
100
AcDbLine
 10
-194.0332863263434
 20
944.164684050366
 30
0.0
 11
-67.40288870815064
 21
1070.795081668559
 31
0.0
  0
LINE
  5
186
330
1F
100
AcDbEntity
  8
0-0
  6
JWW_DASHED1
 62
   120
370
     5
100
AcDbLine
 10
-194.0332863263357
 20
954.0641789855899
 30
0.0
 11
-77.30238364337083
 21
1070.795081668555
 31
0.0
  0
LINE
  5
187
330
1F
100
AcDbEntity
  8
0-0
  6
JWW_DASHED1
 62
   120
370
     5
100
AcDbLine
 10
-194.0332863263332
 20
963.9636739207543
 30
0.0
 11
-87.20187857853645
 21
1070.795081668552
 31
0.0
  0
LINE
  5
188
330
1F
100
AcDbEntity
  8
0-0
  6
JWW_DASHED1
 62
   120
370
     5
100
AcDbLine
 10
-194.0332863263409
 20
973.8631688559631
 30
0.0
 11
-97.10137351374684
 21
1070.795081668557
 31
0.0
  0
LINE
  5
189
330
1F
100
AcDbEntity
  8
0-0
  6
JWW_DASHED1
 62
   120
370
     5
100
AcDbLine
 10
-194.0332863263336
 20
983.762663791187
 30
0.0
 11
-107.0008684489683
 21
1070.795081668552
 31
0.0
  0
LINE
  5
18A
330
1F
100
AcDbEntity
  8
0-0
  6
JWW_DASHED1
 62
   120
370
     5
100
AcDbLine
 10
-194.033286326346
 20
993.662158726336
 30
0.0
 11
-116.9003633841173
 21
1070.795081668565
 31
0.0
  0
LINE
  5
18B
330
1F
100
AcDbEntity
  8
0-0
  6
JWW_DASHED1
 62
   120
370
     5
100
AcDbLine
 10
-194.0332863263392
 20
1003.56165366156
 30
0.0
 11
-126.7998583193439
 21
1070.795081668555
 31
0.0
  0
LINE
  5
18C
330
1F
100
AcDbEntity
  8
0-0
  6
JWW_DASHED1
 62
   120
370
     5
100
AcDbLine
 10
-194.0332863263315
 20
1013.461148596784
 30
0.0
 11
-136.6993532545654
 21
1070.795081668549
 31
0.0
  0
LINE
  5
18D
330
1F
100
AcDbEntity
  8
0-0
  6
JWW_DASHED1
 62
   120
370
     5
100
AcDbLine
 10
-194.0332863263443
 20
1023.360643531933
 30
0.0
 11
-146.5988481897152
 21
1070.795081668562
 31
0.0
  0
LINE
  5
18E
330
1F
100
AcDbEntity
  8
0-0
  6
JWW_DASHED1
 62
   120
370
     5
100
AcDbLine
 10
-194.0332863263366
 20
1033.260138467156
 30
0.0
 11
-156.4983431249401
 21
1070.795081668553
 31
0.0
  0
LINE
  5
18F
330
1F
100
AcDbEntity
  8
0-0
  6
JWW_DASHED1
 62
   120
370
     5
100
AcDbLine
 10
-194.0332863263315
 20
1043.159633402351
 30
0.0
 11
-166.3978380601334
 21
1070.795081668548
 31
0.0
  0
LINE
  5
190
330
1F
100
AcDbEntity
  8
0-0
  6
JWW_DASHED1
 62
   120
370
     5
100
AcDbLine
 10
-194.0332863263417
 20
1053.059128337529
 30
0.0
 11
-176.2973329953122
 21
1070.795081668559
 31
0.0
  0
LINE
  5
191
330
1F
100
AcDbEntity
  8
0-0
  6
JWW_DASHED1
 62
   120
370
     5
100
AcDbLine
 10
-194.033286326334
 20
1062.958623272753
 30
0.0
 11
-186.1968279305363
 21
1070.795081668551
 31
0.0
  0
LWPOLYLINE
  5
192
330
1F
100
AcDbEntity
  8
寸法
  6
Continuous
 62
     7
370
     9
100
AcDbPolyline
 90
        4
 70
     1
 43
6.0
 10
-630.0332863263422
 20
-989.2049183314409
 42
0.4142135623731
 10
-633.0332863263424
 20
-986.2049183314409
 42
0.4142135623731
 10
-636.0332863263424
 20
-989.2049183314409
 42
0.4142135623731
 10
-633.0332863263424
 20
-992.204918331441
 42
0.4142135623731
  0
LINE
  5
193
330
1F
100
AcDbEntity
  8
寸法
  6
Continuous
 62
   120
370
     5
100
AcDbLine
 10
-633.0332863263424
 20
-989.2049183314409
 30
0.0
 11
-383.0332863263446
 21
-989.2049183314409
 31
0.0
  0
LWPOLYLINE
  5
194
330
1F
100
AcDbEntity
  8
寸法
  6
Continuous
 62
     7
370
     9
100
AcDbPolyline
 90
        4
 70
     1
 43
6.0
 10
447.966713673656
 20
-1664.20491833144
 42
0.4142135623731
 10
444.966713673656
 20
-1661.20491833144
 42
0.4142135623731
 10
441.966713673656
 20
-1664.20491833144
 42
0.4142135623731
 10
444.966713673656
 20
-1667.20491833144
 42
0.4142135623731
  0
LWPOLYLINE
  5
195
330
1F
100
AcDbEntity
  8
寸法
  6
Continuous
 62
     7
370
     9
100
AcDbPolyline
 90
        4
 70
     1
 43
6.0
 10
423.9667136736574
 20
-1464.20491833144
 42
0.4142135623731
 10
420.9667136736574
 20
-1461.20491833144
 42
0.4142135623731
 10
417.9667136736574
 20
-1464.20491833144
 42
0.4142135623731
 10
420.9667136736574
 20
-1467.20491833144
 42
0.4142135623731
  0
LWPOLYLINE
  5
196
330
1F
100
AcDbEntity
  8
寸法
  6
Continuous
 62
     7
370
     9
100
AcDbPolyline
 90
        4
 70
     1
 43
6.0
 10
421.9667136736558
 20
-1264.20491833144
 42
0.4142135623731
 10
418.9667136736558
 20
-1261.20491833144
 42
0.4142135623731
 10
415.9667136736558
 20
-1264.20491833144
 42
0.4142135623731
 10
418.9667136736558
 20
-1267.20491833144
 42
0.4142135623731
  0
LINE
  5
197
330
1F
100
AcDbEntity
  8
寸法
  6
Continuous
 62
   120
370
     5
100
AcDbLine
 10
444.966713673656
 20
-1664.20491833144
 30
0.0
 11
444.966713673656
 21
-1064.204918331441
 31
0.0
  0
LINE
  5
198
330
1F
100
AcDbEntity
  8
寸法
  6
Continuous
 62
   120
370
     5
100
AcDbLine
 10
-333.0332863263424
 20
-1664.20491833144
 30
0.0
 11
444.966713673656
 21
-1664.20491833144
 31
0.0
  0
LINE
  5
199
330
1F
100
AcDbEntity
  8
寸法
  6
Continuous
 62
   120
370
     5
100
AcDbLine
 10
420.9667136736574
 20
-1464.20491833144
 30
0.0
 11
420.9667136736574
 21
-1064.204918331441
 31
0.0
  0
LINE
  5
19A
330
1F
100
AcDbEntity
  8
寸法
  6
Continuous
 62
   120
370
     5
100
AcDbLine
 10
-309.0332863263437
 20
-1464.20491833144
 30
0.0
 11
420.9667136736574
 21
-1464.20491833144
 31
0.0
  0
LINE
  5
19B
330
1F
100
AcDbEntity
  8
寸法
  6
Continuous
 62
   120
370
     5
100
AcDbLine
 10
418.9667136736558
 20
-1264.20491833144
 30
0.0
 11
418.9667136736558
 21
-1064.204918331441
 31
0.0
  0
LINE
  5
19C
330
1F
100
AcDbEntity
  8
寸法
  6
Continuous
 62
   120
370
     5
100
AcDbLine
 10
-304.0332863263432
 20
-1264.20491833144
 30
0.0
 11
418.9667136736558
 21
-1264.20491833144
 31
0.0
  0
LWPOLYLINE
  5
19D
330
1F
100
AcDbEntity
  8
寸法
  6
Continuous
 62
     7
370
     9
100
AcDbPolyline
 90
        4
 70
     1
 43
6.0
 10
-330.0332863263424
 20
-1664.20491833144
 42
0.4142135623731
 10
-333.0332863263424
 20
-1661.20491833144
 42
0.4142135623731
 10
-336.0332863263423
 20
-1664.20491833144
 42
0.4142135623731
 10
-333.0332863263424
 20
-1667.20491833144
 42
0.4142135623731
  0
LWPOLYLINE
  5
19E
330
1F
100
AcDbEntity
  8
寸法
  6
Continuous
 62
     7
370
     9
100
AcDbPolyline
 90
        4
 70
     1
 43
6.0
 10
-306.0332863263437
 20
-1464.20491833144
 42
0.4142135623731
 10
-309.0332863263437
 20
-1461.20491833144
 42
0.4142135623731
 10
-312.0332863263437
 20
-1464.20491833144
 42
0.4142135623731
 10
-309.0332863263437
 20
-1467.20491833144
 42
0.4142135623731
  0
LWPOLYLINE
  5
19F
330
1F
100
AcDbEntity
  8
寸法
  6
Continuous
 62
     7
370
     9
100
AcDbPolyline
 90
        4
 70
     1
 43
6.0
 10
-301.0332863263432
 20
-1264.20491833144
 42
0.4142135623731
 10
-304.0332863263432
 20
-1261.20491833144
 42
0.4142135623731
 10
-307.0332863263431
 20
-1264.20491833144
 42
0.4142135623731
 10
-304.0332863263432
 20
-1267.20491833144
 42
0.4142135623731
  0
LINE
  5
1A0
330
1F
100
AcDbEntity
  8
寸法
  6
Continuous
 62
   120
370
     5
100
AcDbLine
 10
-333.0332863263424
 20
-1664.20491833144
 30
0.0
 11
-333.0332863263424
 21
-1064.204918331441
 31
0.0
  0
LINE
  5
1A1
330
1F
100
AcDbEntity
  8
寸法
  6
Continuous
 62
   120
370
     5
100
AcDbLine
 10
-309.0332863263437
 20
-1464.20491833144
 30
0.0
 11
-309.0332863263437
 21
-1064.204918331441
 31
0.0
  0
LINE
  5
1A2
330
1F
100
AcDbEntity
  8
寸法
  6
Continuous
 62
   120
370
     5
100
AcDbLine
 10
-304.0332863263432
 20
-1264.20491833144
 30
0.0
 11
-304.0332863263432
 21
-1064.204918331441
 31
0.0
  0
LWPOLYLINE
  5
1A3
330
1F
100
AcDbEntity
  8
寸法
  6
Continuous
 62
     7
370
     9
100
AcDbPolyline
 90
        4
 70
     1
 43
6.0
 10
-630.0332863263422
 20
1205.79508166856
 42
0.4142135623731
 10
-633.0332863263424
 20
1208.79508166856
 42
0.4142135623731
 10
-636.0332863263424
 20
1205.79508166856
 42
0.4142135623731
 10
-633.0332863263424
 20
1202.79508166856
 42
0.4142135623731
  0
LINE
  5
1A4
330
1F
100
AcDbEntity
  8
寸法
  6
Continuous
 62
   120
370
     5
100
AcDbLine
 10
-633.0332863263424
 20
1205.79508166856
 30
0.0
 11
-383.0332863263446
 21
1205.79508166856
 31
0.0
  0
LINE
  5
1A5
330
1F
100
AcDbEntity
  8
寸法
  6
Continuous
 62
   120
370
     5
100
AcDbLine
 10
-633.0332863263424
 20
1205.79508166856
 30
0.0
 11
-633.0332863263424
 21
-989.2049183314409
 31
0.0
  0
TEXT
  5
1A6
330
1F
100
AcDbEntity
  8
寸法
  6
Continuous
 62
     7
370
    70
100
AcDbText
 10
-658.6082863263424
 20
-97.95491833144071
 30
0.0
 40
57.15000000000001
  1
ＤＨ＝2,195
 50
90.0
 41
0.9999999999999999
  7
ＭＳ ゴシック
100
AcDbText
  0
TEXT
  5
1A7
330
1F
100
AcDbEntity
  8
寸法
  6
Continuous
 62
     7
370
    70
100
AcDbText
 10
-111.7832863263423
 20
-1238.62991833144
 30
0.0
 40
57.15000000000001
  1
ＤＷ＝723
 41
0.9999999999999998
  7
ＭＳ ゴシック
100
AcDbText
  0
TEXT
  5
1A8
330
1F
100
AcDbEntity
  8
寸法
  6
Continuous
 62
     7
370
    70
100
AcDbText
 10
-188.2832863263444
 20
-1438.62991833144
 30
0.0
 40
57.15000000000001
  1
枠内寸法＝730
 41
0.9999999999999999
  7
ＭＳ ゴシック
100
AcDbText
  0
TEXT
  5
1A9
330
1F
100
AcDbEntity
  8
寸法
  6
Continuous
 62
     7
370
    70
100
AcDbText
 10
-188.2832863263444
 20
-1638.62991833144
 30
0.0
 40
57.15000000000001
  1
枠外寸法＝778
 41
0.9999999999999999
  7
ＭＳ ゴシック
100
AcDbText
  0
ENDSEC
  0
SECTION
  2
OBJECTS
  0
DICTIONARY
  5
C
330
0
100
AcDbDictionary
281
     1
  3
ACAD_DETAILVIEWSTYLE
350
1E1
  3
ACAD_GROUP
350
D
  3
ACAD_LAYOUT
350
1A
  3
ACAD_MATERIAL
350
43
  3
ACAD_MLEADERSTYLE
350
6B
  3
ACAD_MLINESTYLE
350
17
  3
ACAD_PLOTSETTINGS
350
19
  3
ACAD_PLOTSTYLENAME
350
E
  3
ACAD_SCALELIST
350
47
  3
ACAD_SECTIONVIEWSTYLE
350
1E2
  3
ACAD_TABLESTYLE
350
69
  3
ACAD_VISUALSTYLE
350
2A
  3
ACDB_RECOMPOSE_DATA
350
1DE
  3
AcDbVariableDictionary
350
1AA
  0
SUN
  5
6D
330
29
100
AcDbSun
 90
        1
290
     0
 63
     7
421
 16777215
 40
1.0
291
     1
 91
  2455826
 92
 54000000
292
     0
 70
     2
 71
   256
280
     1
  0
DICTIONARY
  5
1E1
102
{ACAD_REACTORS
330
C
102
}
330
C
100
AcDbDictionary
281
     1
  0
DICTIONARY
  5
D
102
{ACAD_REACTORS
330
C
102
}
330
C
100
AcDbDictionary
281
     1
  0
DICTIONARY
  5
1A
102
{ACAD_REACTORS
330
C
102
}
330
C
100
AcDbDictionary
281
     1
  3
Layout1
350
1E
  3
Layout2
350
26
  3
Model
350
22
  0
DICTIONARY
  5
43
102
{ACAD_REACTORS
330
C
102
}
330
C
100
AcDbDictionary
281
     1
  3
ByBlock
350
45
  3
ByLayer
350
44
  3
Global
350
46
  0
DICTIONARY
  5
6B
102
{ACAD_REACTORS
330
C
102
}
330
C
100
AcDbDictionary
281
     1
  3
Standard
350
6C
  0
DICTIONARY
  5
17
102
{ACAD_REACTORS
330
C
102
}
330
C
100
AcDbDictionary
281
     1
  3
Standard
350
18
  0
DICTIONARY
  5
19
102
{ACAD_REACTORS
330
C
102
}
330
C
100
AcDbDictionary
281
     1
  0
ACDBDICTIONARYWDFLT
  5
E
102
{ACAD_REACTORS
330
C
102
}
330
C
100
AcDbDictionary
281
     1
  3
Normal
350
F
100
AcDbDictionaryWithDefault
340
F
  0
DICTIONARY
  5
47
102
{ACAD_REACTORS
330
C
102
}
330
C
100
AcDbDictionary
281
     1
  3
A0
350
48
  3
A1
350
49
  3
A2
350
4A
  3
A3
350
4B
  3
A4
350
4C
  3
A5
350
4D
  3
A6
350
4E
  3
A7
350
4F
  3
A8
350
50
  3
A9
350
51
  3
B0
350
52
  3
B1
350
53
  3
B2
350
54
  3
B3
350
55
  3
B4
350
56
  3
B5
350
57
  3
B6
350
58
  3
B7
350
59
  3
B8
350
5A
  3
B9
350
5B
  3
C0
350
5C
  3
C1
350
5D
  3
C2
350
5E
  3
C3
350
5F
  3
C4
350
60
  3
C5
350
61
  3
C6
350
62
  3
C7
350
63
  3
C8
350
64
  3
C9
350
65
  3
D0
350
66
  3
D1
350
67
  3
D2
350
68
  0
DICTIONARY
  5
1E2
102
{ACAD_REACTORS
330
C
102
}
330
C
100
AcDbDictionary
281
     1
  0
DICTIONARY
  5
69
102
{ACAD_REACTORS
330
C
102
}
330
C
100
AcDbDictionary
281
     1
  3
Standard
350
6A
  0
DICTIONARY
  5
2A
102
{ACAD_REACTORS
330
C
102
}
330
C
100
AcDbDictionary
281
     1
  3
2dWireframe
350
2F
  3
Basic
350
32
  3
Brighten
350
36
  3
ColorChange
350
3A
  3
Conceptual
350
34
  3
Dim
350
35
  3
EdgeColorOff
350
3D
  3
Facepattern
350
39
  3
Flat
350
2B
  3
FlatWithEdges
350
2C
  3
Gouraud
350
2D
  3
GouraudWithEdges
350
2E
  3
Hidden
350
31
  3
JitterOff
350
3B
  3
Linepattern
350
38
  3
OverhangOff
350
3C
  3
Realistic
350
33
  3
Shaded
350
42
  3
Shaded with edges
350
41
  3
Shades of Gray
350
3E
  3
Sketchy
350
3F
  3
Thicken
350
37
  3
Wireframe
350
30
  3
X-Ray
350
40
  0
XRECORD
  5
1DE
102
{ACAD_REACTORS
330
C
102
}
330
C
100
AcDbXrecord
280
     1
 90
        1
330
6A
  0
DICTIONARY
  5
1AA
102
{ACAD_REACTORS
330
C
102
}
330
C
100
AcDbDictionary
281
     1
  3
CANNOSCALE
350
1AB
  3
CENTEREXE
350
1E3
  3
CENTERLTYPEFILE
350
1E4
  3
CMLEADERSTYLE
350
1E0
  3
CTABLESTYLE
350
1DF
  0
LAYOUT
  5
1E
102
{ACAD_REACTORS
330
1A
102
}
330
1A
100
AcDbPlotSettings
  1

  2
none_device
  4

  6

 40
0.0
 41
0.0
 42
0.0
 43
0.0
 44
0.0
 45
0.0
 46
0.0
 47
0.0
 48
0.0
 49
0.0
140
0.0
141
0.0
142
1.0
143
1.0
 70
   688
 72
     1
 73
     0
 74
     5
  7

 75
    16
 76
     0
 77
     5
 78
   300
147
1.0
148
0.0
149
0.0
100
AcDbLayout
  1
Layout1
 70
     1
 71
     1
 10
0.0
 20
0.0
 11
420.0
 21
297.0
 12
0.0
 22
0.0
 32
0.0
 14
1.000000000000000E+20
 24
1.000000000000000E+20
 34
1.000000000000000E+20
 15
-1.000000000000000E+20
 25
-1.000000000000000E+20
 35
-1.000000000000000E+20
146
0.0
 13
0.0
 23
0.0
 33
0.0
 16
1.0
 26
0.0
 36
0.0
 17
0.0
 27
1.0
 37
0.0
 76
     0
330
1B
  0
LAYOUT
  5
26
102
{ACAD_REACTORS
330
1A
102
}
330
1A
100
AcDbPlotSettings
  1

  2
none_device
  4

  6

 40
0.0
 41
0.0
 42
0.0
 43
0.0
 44
0.0
 45
0.0
 46
0.0
 47
0.0
 48
0.0
 49
0.0
140
0.0
141
0.0
142
1.0
143
1.0
 70
   688
 72
     1
 73
     0
 74
     5
  7

 75
    16
 76
     0
 77
     5
 78
   300
147
1.0
148
0.0
149
0.0
100
AcDbLayout
  1
Layout2
 70
     1
 71
     2
 10
0.0
 20
0.0
 11
0.0
 21
0.0
 12
0.0
 22
0.0
 32
0.0
 14
0.0
 24
0.0
 34
0.0
 15
0.0
 25
0.0
 35
0.0
146
0.0
 13
0.0
 23
0.0
 33
0.0
 16
1.0
 26
0.0
 36
0.0
 17
0.0
 27
1.0
 37
0.0
 76
     0
330
23
  0
LAYOUT
  5
22
102
{ACAD_REACTORS
330
1A
102
}
330
1A
100
AcDbPlotSettings
  1

  2
none_device
  4
Letter_(8.50_x_11.00_Inches)
  6

 40
6.35
 41
6.35
 42
6.35000508
 43
6.35000508
 44
215.9
 45
279.4
 46
0.0
 47
0.0
 48
0.0
 49
0.0
140
0.0
141
0.0
142
1.0
143
1.0
 70
  1712
 72
     1
 73
     0
 74
     0
  7

 75
     0
 76
     0
 77
     5
 78
   300
147
1.0
148
0.0
149
0.0
100
AcDbLayout
  1
Model
 70
     1
 71
     0
 10
-4455.0
 20
-3150.0
 11
4455.0
 21
3150.0
 12
0.0
 22
0.0
 32
0.0
 14
-4455.0
 24
-3150.0
 34
0.0
 15
4455.0
 25
3150.0
 35
0.0
146
0.0
 13
0.0
 23
0.0
 33
0.0
 16
1.0
 26
0.0
 36
0.0
 17
0.0
 27
1.0
 37
0.0
 76
     0
330
1F
331
29
  0
MATERIAL
  5
45
102
{ACAD_REACTORS
330
43
102
}
330
43
100
AcDbMaterial
  1
ByBlock
 72
     1
 94
      127
  0
MATERIAL
  5
44
102
{ACAD_REACTORS
330
43
102
}
330
43
100
AcDbMaterial
  1
ByLayer
 72
     1
 94
      127
  0
MATERIAL
  5
46
102
{ACAD_REACTORS
330
43
102
}
330
43
100
AcDbMaterial
  1
Global
 72
     1
 94
      127
  0
MLEADERSTYLE
  5
6C
102
{ACAD_REACTORS
330
6B
102
}
330
6B
100
AcDbMLeaderStyle
179
     2
170
     2
171
     1
172
     0
 90
        2
 40
0.0
 41
0.0
173
     1
 91
-1056964608
340
14
 92
       -2
290
     1
 42
2.0
291
     1
 43
8.0
  3
Standard
341
0
 44
4.0
300

342
11
174
     1
178
     6
175
     1
176
     0
 93
-1056964608
 45
4.0
292
     0
297
     0
 46
4.0
343
0
 94
-1056964608
 47
1.0
 49
1.0
140
1.0
293
     1
141
0.0
294
     1
177
     0
142
1.0
295
     0
296
     0
143
3.75
271
     0
272
     9
273
     9
  0
MLINESTYLE
  5
18
102
{ACAD_REACTORS
330
17
102
}
330
17
100
AcDbMlineStyle
  2
Standard
 70
     0
  3

 62
   256
 51
90.0
 52
90.0
 71
     2
 49
0.5
 62
   256
  6
BYLAYER
 49
-0.5
 62
   256
  6
BYLAYER
  0
ACDBPLACEHOLDER
  5
F
102
{ACAD_REACTORS
330
E
102
}
330
E
  0
SCALE
  5
48
102
{ACAD_REACTORS
330
47
102
}
330
47
100
AcDbScale
 70
     0
300
1:1
140
1.0
141
1.0
290
     1
  0
SCALE
  5
49
102
{ACAD_REACTORS
330
47
102
}
330
47
100
AcDbScale
 70
     0
300
1:2
140
1.0
141
2.0
290
     0
  0
SCALE
  5
4A
102
{ACAD_REACTORS
330
47
102
}
330
47
100
AcDbScale
 70
     0
300
1:4
140
1.0
141
4.0
290
     0
  0
SCALE
  5
4B
102
{ACAD_REACTORS
330
47
102
}
330
47
100
AcDbScale
 70
     0
300
1:5
140
1.0
141
5.0
290
     0
  0
SCALE
  5
4C
102
{ACAD_REACTORS
330
47
102
}
330
47
100
AcDbScale
 70
     0
300
1:8
140
1.0
141
8.0
290
     0
  0
SCALE
  5
4D
102
{ACAD_REACTORS
330
47
102
}
330
47
100
AcDbScale
 70
     0
300
1:10
140
1.0
141
10.0
290
     0
  0
SCALE
  5
4E
102
{ACAD_REACTORS
330
47
102
}
330
47
100
AcDbScale
 70
     0
300
1:16
140
1.0
141
16.0
290
     0
  0
SCALE
  5
4F
102
{ACAD_REACTORS
330
47
102
}
330
47
100
AcDbScale
 70
     0
300
1:20
140
1.0
141
20.0
290
     0
  0
SCALE
  5
50
102
{ACAD_REACTORS
330
47
102
}
330
47
100
AcDbScale
 70
     0
300
1:30
140
1.0
141
30.0
290
     0
  0
SCALE
  5
51
102
{ACAD_REACTORS
330
47
102
}
330
47
100
AcDbScale
 70
     0
300
1:40
140
1.0
141
40.0
290
     0
  0
SCALE
  5
52
102
{ACAD_REACTORS
330
47
102
}
330
47
100
AcDbScale
 70
     0
300
1:50
140
1.0
141
50.0
290
     0
  0
SCALE
  5
53
102
{ACAD_REACTORS
330
47
102
}
330
47
100
AcDbScale
 70
     0
300
1:100
140
1.0
141
100.0
290
     0
  0
SCALE
  5
54
102
{ACAD_REACTORS
330
47
102
}
330
47
100
AcDbScale
 70
     0
300
2:1
140
2.0
141
1.0
290
     0
  0
SCALE
  5
55
102
{ACAD_REACTORS
330
47
102
}
330
47
100
AcDbScale
 70
     0
300
4:1
140
4.0
141
1.0
290
     0
  0
SCALE
  5
56
102
{ACAD_REACTORS
330
47
102
}
330
47
100
AcDbScale
 70
     0
300
8:1
140
8.0
141
1.0
290
     0
  0
SCALE
  5
57
102
{ACAD_REACTORS
330
47
102
}
330
47
100
AcDbScale
 70
     0
300
10:1
140
10.0
141
1.0
290
     0
  0
SCALE
  5
58
102
{ACAD_REACTORS
330
47
102
}
330
47
100
AcDbScale
 70
     0
300
100:1
140
100.0
141
1.0
290
     0
  0
SCALE
  5
59
102
{ACAD_REACTORS
330
47
102
}
330
47
100
AcDbScale
 70
     0
300
1/128" = 1'-0"
140
0.0078125
141
12.0
290
     0
  0
SCALE
  5
5A
102
{ACAD_REACTORS
330
47
102
}
330
47
100
AcDbScale
 70
     0
300
1/64" = 1'-0"
140
0.015625
141
12.0
290
     0
  0
SCALE
  5
5B
102
{ACAD_REACTORS
330
47
102
}
330
47
100
AcDbScale
 70
     0
300
1/32" = 1'-0"
140
0.03125
141
12.0
290
     0
  0
SCALE
  5
5C
102
{ACAD_REACTORS
330
47
102
}
330
47
100
AcDbScale
 70
     0
300
1/16" = 1'-0"
140
0.0625
141
12.0
290
     0
  0
SCALE
  5
5D
102
{ACAD_REACTORS
330
47
102
}
330
47
100
AcDbScale
 70
     0
300
3/32" = 1'-0"
140
0.09375
141
12.0
290
     0
  0
SCALE
  5
5E
102
{ACAD_REACTORS
330
47
102
}
330
47
100
AcDbScale
 70
     0
300
1/8" = 1'-0"
140
0.125
141
12.0
290
     0
  0
SCALE
  5
5F
102
{ACAD_REACTORS
330
47
102
}
330
47
100
AcDbScale
 70
     0
300
3/16" = 1'-0"
140
0.1875
141
12.0
290
     0
  0
SCALE
  5
60
102
{ACAD_REACTORS
330
47
102
}
330
47
100
AcDbScale
 70
     0
300
1/4" = 1'-0"
140
0.25
141
12.0
290
     0
  0
SCALE
  5
61
102
{ACAD_REACTORS
330
47
102
}
330
47
100
AcDbScale
 70
     0
300
3/8" = 1'-0"
140
0.375
141
12.0
290
     0
  0
SCALE
  5
62
102
{ACAD_REACTORS
330
47
102
}
330
47
100
AcDbScale
 70
     0
300
1/2" = 1'-0"
140
0.5
141
12.0
290
     0
  0
SCALE
  5
63
102
{ACAD_REACTORS
330
47
102
}
330
47
100
AcDbScale
 70
     0
300
3/4" = 1'-0"
140
0.75
141
12.0
290
     0
  0
SCALE
  5
64
102
{ACAD_REACTORS
330
47
102
}
330
47
100
AcDbScale
 70
     0
300
1" = 1'-0"
140
1.0
141
12.0
290
     0
  0
SCALE
  5
65
102
{ACAD_REACTORS
330
47
102
}
330
47
100
AcDbScale
 70
     0
300
1-1/2" = 1'-0"
140
1.5
141
12.0
290
     0
  0
SCALE
  5
66
102
{ACAD_REACTORS
330
47
102
}
330
47
100
AcDbScale
 70
     0
300
3" = 1'-0"
140
3.0
141
12.0
290
     0
  0
SCALE
  5
67
102
{ACAD_REACTORS
330
47
102
}
330
47
100
AcDbScale
 70
     0
300
6" = 1'-0"
140
6.0
141
12.0
290
     0
  0
SCALE
  5
68
102
{ACAD_REACTORS
330
47
102
}
330
47
100
AcDbScale
 70
     0
300
1'-0" = 1'-0"
140
12.0
141
12.0
290
     0
  0
TABLESTYLE
  5
6A
102
{ACAD_REACTORS
330
69
102
}
102
{ACAD_XDICTIONARY
360
1DC
102
}
330
69
100
AcDbTableStyle
  3
Standard
 70
     0
 71
     0
 40
0.06
 41
0.06
280
     0
281
     0
  7
Standard
140
4.5
170
     2
 62
     0
 63
   257
283
     0
 90
        4
 91
        0
  1

274
    -2
284
     1
 64
     0
275
    -2
285
     1
 65
     0
276
    -2
286
     1
 66
     0
277
    -2
287
     1
 67
     0
278
    -2
288
     1
 68
     0
279
    -2
289
     1
 69
     0
  7
Standard
140
6.0
170
     5
 62
     0
 63
   257
283
     0
 90
        4
 91
        0
  1

274
    -2
284
     1
 64
     0
275
    -2
285
     1
 65
     0
276
    -2
286
     1
 66
     0
277
    -2
287
     1
 67
     0
278
    -2
288
     1
 68
     0
279
    -2
289
     1
 69
     0
  7
Standard
140
4.5
170
     5
 62
     0
 63
   257
283
     0
 90
        4
 91
        0
  1

274
    -2
284
     1
 64
     0
275
    -2
285
     1
 65
     0
276
    -2
286
     1
 66
     0
277
    -2
287
     1
 67
     0
278
    -2
288
     1
 68
     0
279
    -2
289
     1
 69
     0
  0
VISUALSTYLE
  5
2F
102
{ACAD_REACTORS
330
2A
102
}
102
{ACAD_XDICTIONARY
360
1B4
102
}
330
2A
100
AcDbVisualStyle
  2
2dWireframe
 70
     4
177
     2
291
     0
 71
     0
176
     1
 72
     2
176
     1
 73
     0
176
     1
 90
        0
176
     1
 40
0.6
176
     1
 41
30.0
176
     1
 62
     5
 63
     7
421
 16777215
176
     1
 74
     1
176
     1
 91
        4
176
     1
 64
     7
176
     1
 65
   257
176
     1
 75
     1
176
     1
175
     1
176
     1
 42
1.0
176
     1
 92
        0
176
     1
 66
   257
176
     1
 43
1.0
176
     1
 76
     1
176
     1
 77
     6
176
     1
 78
     2
176
     1
 67
     7
176
     1
 79
     5
176
     1
170
     0
176
     1
171
     0
176
     1
290
     0
176
     1
 93
        1
176
     1
 44
0.0
176
     1
173
     0
176
     1
  0
VISUALSTYLE
  5
32
102
{ACAD_REACTORS
330
2A
102
}
102
{ACAD_XDICTIONARY
360
1BA
102
}
330
2A
100
AcDbVisualStyle
  2
Basic
 70
     7
177
     2
291
     1
 71
     1
176
     1
 72
     0
176
     1
 73
     1
176
     1
 90
        0
176
     1
 40
0.6
176
     1
 41
30.0
176
     1
 62
     5
 63
     7
421
 16777215
176
     1
 74
     0
176
     1
 91
        4
176
     1
 64
     7
176
     1
 65
   257
176
     1
 75
     1
176
     1
175
     1
176
     1
 42
1.0
176
     1
 92
        8
176
     1
 66
     7
176
     1
 43
1.0
176
     1
 76
     1
176
     1
 77
     6
176
     1
 78
     2
176
     1
 67
     7
176
     1
 79
     5
176
     1
170
     0
176
     1
171
     0
176
     1
290
     0
176
     1
 93
        1
176
     1
 44
0.0
176
     1
173
     0
176
     1
  0
VISUALSTYLE
  5
36
102
{ACAD_REACTORS
330
2A
102
}
102
{ACAD_XDICTIONARY
360
1C2
102
}
330
2A
100
AcDbVisualStyle
  2
Brighten
 70
    12
177
     2
291
     1
 71
     2
176
     1
 72
     2
176
     1
 73
     0
176
     1
 90
        0
176
     1
 40
0.6
176
     1
 41
30.0
176
     1
 62
     5
 63
     7
421
 16777215
176
     1
 74
     1
176
     1
 91
        4
176
     1
 64
     7
176
     1
 65
   257
176
     1
 75
     1
176
     1
175
     1
176
     1
 42
1.0
176
     1
 92
        8
176
     1
 66
     7
176
     1
 43
1.0
176
     1
 76
     1
176
     1
 77
     6
176
     1
 78
     2
176
     1
 67
     7
176
     1
 79
     5
176
     1
170
     0
176
     1
171
     0
176
     1
290
     0
176
     1
 93
        1
176
     1
 44
50.0
176
     1
173
     0
176
     1
  0
VISUALSTYLE
  5
3A
102
{ACAD_REACTORS
330
2A
102
}
102
{ACAD_XDICTIONARY
360
1CA
102
}
330
2A
100
AcDbVisualStyle
  2
ColorChange
 70
    16
177
     2
291
     1
 71
     2
176
     1
 72
     2
176
     1
 73
     3
176
     1
 90
        0
176
     1
 40
0.6
176
     1
 41
30.0
176
     1
 62
     5
 63
     8
421
  8421504
176
     1
 74
     1
176
     1
 91
        4
176
     1
 64
     7
176
     1
 65
   257
176
     1
 75
     1
176
     1
175
     1
176
     1
 42
1.0
176
     1
 92
        8
176
     1
 66
     8
424
  8421504
176
     1
 43
1.0
176
     1
 76
     1
176
     1
 77
     6
176
     1
 78
     2
176
     1
 67
     7
176
     1
 79
     5
176
     1
170
     0
176
     1
171
     0
176
     1
290
     0
176
     1
 93
        1
176
     1
 44
0.0
176
     1
173
     0
176
     1
  0
VISUALSTYLE
  5
34
102
{ACAD_REACTORS
330
2A
102
}
102
{ACAD_XDICTIONARY
360
1BE
102
}
330
2A
100
AcDbVisualStyle
  2
Conceptual
 70
     9
177
     2
291
     0
 71
     3
176
     1
 72
     2
176
     1
 73
     0
176
     1
 90
        0
176
     1
 40
0.6
176
     1
 41
30.0
176
     1
 62
     5
 63
     7
421
 16777215
176
     1
 74
     2
176
     1
 91
        2
176
     1
 64
     7
176
     1
 65
   257
176
     1
 75
     1
176
     1
175
     1
176
     1
 42
179.0
176
     1
 92
        8
176
     1
 66
     7
176
     1
 43
1.0
176
     1
 76
     1
176
     1
 77
     6
176
     1
 78
     2
176
     1
 67
     7
176
     1
 79
     3
176
     1
170
     0
176
     1
171
     0
176
     1
290
     0
176
     1
 93
        1
176
     1
 44
0.0
176
     1
173
     0
176
     1
  0
VISUALSTYLE
  5
35
102
{ACAD_REACTORS
330
2A
102
}
102
{ACAD_XDICTIONARY
360
1C0
102
}
330
2A
100
AcDbVisualStyle
  2
Dim
 70
    11
177
     2
291
     1
 71
     2
176
     1
 72
     2
176
     1
 73
     0
176
     1
 90
        0
176
     1
 40
0.6
176
     1
 41
30.0
176
     1
 62
     5
 63
     7
421
 16777215
176
     1
 74
     1
176
     1
 91
        4
176
     1
 64
     7
176
     1
 65
   257
176
     1
 75
     1
176
     1
175
     1
176
     1
 42
1.0
176
     1
 92
        8
176
     1
 66
     7
176
     1
 43
1.0
176
     1
 76
     1
176
     1
 77
     6
176
     1
 78
     2
176
     1
 67
     7
176
     1
 79
     5
176
     1
170
     0
176
     1
171
     0
176
     1
290
     0
176
     1
 93
        1
176
     1
 44
-50.0
176
     1
173
     0
176
     1
  0
VISUALSTYLE
  5
3D
102
{ACAD_REACTORS
330
2A
102
}
102
{ACAD_XDICTIONARY
360
1D0
102
}
330
2A
100
AcDbVisualStyle
  2
EdgeColorOff
 70
    22
177
     2
291
     1
 71
     2
176
     0
 72
     2
176
     0
 73
     0
176
     0
 90
        0
176
     0
 40
0.6
176
     0
 41
30.0
176
     0
 62
     5
 63
     7
421
 16777215
176
     0
 74
     1
176
     0
 91
        4
176
     0
 64
     7
176
     0
 65
   257
176
     0
 75
     1
176
     0
175
     1
176
     0
 42
1.0
176
     0
 92
        8
176
     2
 66
     7
176
     0
 43
1.0
176
     0
 76
     1
176
     0
 77
     6
176
     0
 78
     2
176
     0
 67
     7
176
     0
 79
     5
176
     0
170
     0
176
     0
171
     0
176
     0
290
     0
176
     0
 93
        1
176
     0
 44
0.0
176
     0
173
     0
176
     0
  0
VISUALSTYLE
  5
39
102
{ACAD_REACTORS
330
2A
102
}
102
{ACAD_XDICTIONARY
360
1C8
102
}
330
2A
100
AcDbVisualStyle
  2
Facepattern
 70
    15
177
     2
291
     1
 71
     2
176
     1
 72
     2
176
     1
 73
     0
176
     1
 90
        0
176
     1
 40
0.6
176
     1
 41
30.0
176
     1
 62
     5
 63
     7
421
 16777215
176
     1
 74
     1
176
     1
 91
        4
176
     1
 64
     7
176
     1
 65
   257
176
     1
 75
     1
176
     1
175
     1
176
     1
 42
1.0
176
     1
 92
        8
176
     1
 66
     7
176
     1
 43
1.0
176
     1
 76
     1
176
     1
 77
     6
176
     1
 78
     2
176
     1
 67
     7
176
     1
 79
     5
176
     1
170
     0
176
     1
171
     0
176
     1
290
     0
176
     1
 93
        1
176
     1
 44
0.0
176
     1
173
     0
176
     1
  0
VISUALSTYLE
  5
2B
102
{ACAD_REACTORS
330
2A
102
}
102
{ACAD_XDICTIONARY
360
1AC
102
}
330
2A
100
AcDbVisualStyle
  2
Flat
 70
     0
177
     2
291
     1
 71
     2
176
     1
 72
     1
176
     1
 73
     1
176
     1
 90
        2
176
     1
 40
0.6
176
     1
 41
30.0
176
     1
 62
     5
 63
     7
421
 16777215
176
     1
 74
     0
176
     1
 91
        0
176
     1
 64
     7
176
     1
 65
   257
176
     1
 75
     1
176
     1
175
     1
176
     1
 42
1.0
176
     1
 92
        8
176
     1
 66
     7
176
     1
 43
1.0
176
     1
 76
     1
176
     1
 77
     6
176
     1
 78
     2
176
     1
 67
     7
176
     1
 79
     5
176
     1
170
     0
176
     1
171
     0
176
     1
290
     0
176
     1
 93
       13
176
     1
 44
0.0
176
     1
173
     0
176
     1
  0
VISUALSTYLE
  5
2C
102
{ACAD_REACTORS
330
2A
102
}
102
{ACAD_XDICTIONARY
360
1AE
102
}
330
2A
100
AcDbVisualStyle
  2
FlatWithEdges
 70
     1
177
     2
291
     1
 71
     2
176
     1
 72
     1
176
     1
 73
     1
176
     1
 90
        2
176
     1
 40
0.6
176
     1
 41
30.0
176
     1
 62
     5
 63
     7
421
 16777215
176
     1
 74
     1
176
     1
 91
        0
176
     1
 64
     7
176
     1
 65
   257
176
     1
 75
     1
176
     1
175
     1
176
     1
 42
1.0
176
     1
 92
        0
176
     1
 66
   257
176
     1
 43
1.0
176
     1
 76
     1
176
     1
 77
     6
176
     1
 78
     2
176
     1
 67
     7
176
     1
 79
     5
176
     1
170
     0
176
     1
171
     0
176
     1
290
     0
176
     1
 93
       13
176
     1
 44
0.0
176
     1
173
     0
176
     1
  0
VISUALSTYLE
  5
2D
102
{ACAD_REACTORS
330
2A
102
}
102
{ACAD_XDICTIONARY
360
1B0
102
}
330
2A
100
AcDbVisualStyle
  2
Gouraud
 70
     2
177
     2
291
     1
 71
     2
176
     1
 72
     2
176
     1
 73
     1
176
     1
 90
        2
176
     1
 40
0.6
176
     1
 41
30.0
176
     1
 62
     5
 63
     7
421
 16777215
176
     1
 74
     0
176
     1
 91
        0
176
     1
 64
     7
176
     1
 65
   257
176
     1
 75
     1
176
     1
175
     1
176
     1
 42
1.0
176
     1
 92
        0
176
     1
 66
     7
176
     1
 43
1.0
176
     1
 76
     1
176
     1
 77
     6
176
     1
 78
     2
176
     1
 67
     7
176
     1
 79
     5
176
     1
170
     0
176
     1
171
     0
176
     1
290
     0
176
     1
 93
       13
176
     1
 44
0.0
176
     1
173
     0
176
     1
  0
VISUALSTYLE
  5
2E
102
{ACAD_REACTORS
330
2A
102
}
102
{ACAD_XDICTIONARY
360
1B2
102
}
330
2A
100
AcDbVisualStyle
  2
GouraudWithEdges
 70
     3
177
     2
291
     1
 71
     2
176
     1
 72
     2
176
     1
 73
     1
176
     1
 90
        2
176
     1
 40
0.6
176
     1
 41
30.0
176
     1
 62
     5
 63
     7
421
 16777215
176
     1
 74
     1
176
     1
 91
        0
176
     1
 64
     7
176
     1
 65
   257
176
     1
 75
     1
176
     1
175
     1
176
     1
 42
1.0
176
     1
 92
        0
176
     1
 66
   257
176
     1
 43
1.0
176
     1
 76
     1
176
     1
 77
     6
176
     1
 78
     2
176
     1
 67
     7
176
     1
 79
     5
176
     1
170
     0
176
     1
171
     0
176
     1
290
     0
176
     1
 93
       13
176
     1
 44
0.0
176
     1
173
     0
176
     1
  0
VISUALSTYLE
  5
31
102
{ACAD_REACTORS
330
2A
102
}
102
{ACAD_XDICTIONARY
360
1B8
102
}
330
2A
100
AcDbVisualStyle
  2
Hidden
 70
     6
177
     2
291
     0
 71
     1
176
     1
 72
     2
176
     1
 73
     2
176
     1
 90
        0
176
     1
 40
0.6
176
     1
 41
30.0
176
     1
 62
     5
 63
     7
421
 16777215
176
     1
 74
     2
176
     1
 91
        2
176
     1
 64
     7
176
     1
 65
   257
176
     1
 75
     2
176
     1
175
     1
176
     1
 42
40.0
176
     1
 92
        0
176
     1
 66
   257
176
     1
 43
1.0
176
     1
 76
     1
176
     1
 77
     6
176
     1
 78
     2
176
     1
 67
     7
176
     1
 79
     3
176
     1
170
     0
176
     1
171
     0
176
     1
290
     0
176
     1
 93
        1
176
     1
 44
0.0
176
     1
173
     0
176
     1
  0
VISUALSTYLE
  5
3B
102
{ACAD_REACTORS
330
2A
102
}
102
{ACAD_XDICTIONARY
360
1CC
102
}
330
2A
100
AcDbVisualStyle
  2
JitterOff
 70
    20
177
     2
291
     1
 71
     2
176
     0
 72
     2
176
     0
 73
     0
176
     0
 90
        0
176
     0
 40
0.6
176
     0
 41
30.0
176
     0
 62
     5
 63
     7
421
 16777215
176
     0
 74
     1
176
     0
 91
        4
176
     0
 64
     7
176
     0
 65
   257
176
     0
 75
     1
176
     0
175
     1
176
     0
 42
1.0
176
     0
 92
       10
176
     2
 66
     7
176
     0
 43
1.0
176
     0
 76
     1
176
     0
 77
     6
176
     0
 78
     2
176
     0
 67
     7
176
     0
 79
     5
176
     0
170
     0
176
     0
171
     0
176
     0
290
     0
176
     0
 93
        1
176
     0
 44
0.0
176
     0
173
     0
176
     0
  0
VISUALSTYLE
  5
38
102
{ACAD_REACTORS
330
2A
102
}
102
{ACAD_XDICTIONARY
360
1C6
102
}
330
2A
100
AcDbVisualStyle
  2
Linepattern
 70
    14
177
     2
291
     1
 71
     2
176
     1
 72
     2
176
     1
 73
     0
176
     1
 90
        0
176
     1
 40
0.6
176
     1
 41
30.0
176
     1
 62
     5
 63
     7
421
 16777215
176
     1
 74
     1
176
     1
 91
        4
176
     1
 64
     7
176
     1
 65
   257
176
     1
 75
     7
176
     1
175
     7
176
     1
 42
1.0
176
     1
 92
        8
176
     1
 66
     7
176
     1
 43
1.0
176
     1
 76
     1
176
     1
 77
     6
176
     1
 78
     2
176
     1
 67
     7
176
     1
 79
     5
176
     1
170
     0
176
     1
171
     0
176
     1
290
     0
176
     1
 93
        1
176
     1
 44
0.0
176
     1
173
     0
176
     1
  0
VISUALSTYLE
  5
3C
102
{ACAD_REACTORS
330
2A
102
}
102
{ACAD_XDICTIONARY
360
1CE
102
}
330
2A
100
AcDbVisualStyle
  2
OverhangOff
 70
    21
177
     2
291
     1
 71
     2
176
     0
 72
     2
176
     0
 73
     0
176
     0
 90
        0
176
     0
 40
0.6
176
     0
 41
30.0
176
     0
 62
     5
 63
     7
421
 16777215
176
     0
 74
     1
176
     0
 91
        4
176
     0
 64
     7
176
     0
 65
   257
176
     0
 75
     1
176
     0
175
     1
176
     0
 42
1.0
176
     0
 92
        9
176
     2
 66
     7
176
     0
 43
1.0
176
     0
 76
     1
176
     0
 77
     6
176
     0
 78
     2
176
     0
 67
     7
176
     0
 79
     5
176
     0
170
     0
176
     0
171
     0
176
     0
290
     0
176
     0
 93
        1
176
     0
 44
0.0
176
     0
173
     0
176
     0
  0
VISUALSTYLE
  5
33
102
{ACAD_REACTORS
330
2A
102
}
102
{ACAD_XDICTIONARY
360
1BC
102
}
330
2A
100
AcDbVisualStyle
  2
Realistic
 70
     8
177
     2
291
     0
 71
     2
176
     1
 72
     3
176
     1
 73
     0
176
     1
 90
        2
176
     1
 40
0.6
176
     1
 41
30.0
176
     1
 62
     5
 63
     7
421
 16777215
176
     1
 74
     0
176
     1
 91
        0
176
     1
 64
     7
176
     1
 65
   257
176
     1
 75
     1
176
     1
175
     1
176
     1
 42
1.0
176
     1
 92
        8
176
     1
 66
   257
176
     1
 43
1.0
176
     1
 76
     1
176
     1
 77
     6
176
     1
 78
     2
176
     1
 67
     7
176
     1
 79
     3
176
     1
170
     0
176
     1
171
     0
176
     1
290
     0
176
     1
 93
       13
176
     1
 44
0.0
176
     1
173
     0
176
     1
  0
VISUALSTYLE
  5
42
102
{ACAD_REACTORS
330
2A
102
}
102
{ACAD_XDICTIONARY
360
1DA
102
}
330
2A
100
AcDbVisualStyle
  2
Shaded
 70
    27
177
     2
291
     0
 71
     2
176
     1
 72
     2
176
     1
 73
     1
176
     1
 90
        2
176
     1
 40
0.6
176
     1
 41
30.0
176
     1
 62
     5
 63
     7
421
 16777215
176
     1
 74
     0
176
     1
 91
        4
176
     1
 64
     7
176
     1
 65
   257
176
     1
 75
     1
176
     1
175
     1
176
     1
 42
1.0
176
     1
 92
        8
176
     1
 66
   257
176
     1
 43
1.0
176
     1
 76
     1
176
     1
 77
     6
176
     1
 78
     2
176
     1
 67
     8
425
  7895160
176
     1
 79
     3
176
     1
170
     0
176
     1
171
     0
176
     1
290
     0
176
     1
 93
        5
176
     1
 44
0.0
176
     1
173
     0
176
     1
  0
VISUALSTYLE
  5
41
102
{ACAD_REACTORS
330
2A
102
}
102
{ACAD_XDICTIONARY
360
1D8
102
}
330
2A
100
AcDbVisualStyle
  2
Shaded with edges
 70
    26
177
     2
291
     0
 71
     2
176
     1
 72
     2
176
     1
 73
     1
176
     1
 90
        2
176
     1
 40
0.6
176
     1
 41
30.0
176
     1
 62
     5
 63
     7
421
 16777215
176
     1
 74
     1
176
     1
 91
       10
176
     1
 64
     7
176
     1
 65
   257
176
     1
 75
     2
176
     1
175
     1
176
     1
 42
1.0
176
     1
 92
        8
176
     1
 66
   257
176
     1
 43
1.0
176
     1
 76
     1
176
     1
 77
     6
176
     1
 78
     2
176
     1
 67
     7
176
     1
 79
     3
176
     1
170
     0
176
     1
171
     0
176
     1
290
     0
176
     1
 93
        5
176
     1
 44
0.0
176
     1
173
     0
176
     1
  0
VISUALSTYLE
  5
3E
102
{ACAD_REACTORS
330
2A
102
}
102
{ACAD_XDICTIONARY
360
1D2
102
}
330
2A
100
AcDbVisualStyle
  2
Shades of Gray
 70
    23
177
     2
291
     0
 71
     2
176
     1
 72
     2
176
     1
 73
     3
176
     1
 90
        0
176
     1
 40
0.6
176
     1
 41
30.0
176
     1
 62
     5
 63
     7
421
 16777215
176
     1
 74
     2
176
     1
 91
        2
176
     1
 64
     7
176
     1
 65
     7
176
     1
 75
     1
176
     1
175
     1
176
     1
 42
40.0
176
     1
 92
        8
176
     1
 66
     7
176
     1
 43
1.0
176
     1
 76
     1
176
     1
 77
     6
176
     1
 78
     2
176
     1
 67
     7
176
     1
 79
     3
176
     1
170
     0
176
     1
171
     0
176
     1
290
     0
176
     1
 93
        1
176
     1
 44
0.0
176
     1
173
     0
176
     1
  0
VISUALSTYLE
  5
3F
102
{ACAD_REACTORS
330
2A
102
}
102
{ACAD_XDICTIONARY
360
1D4
102
}
330
2A
100
AcDbVisualStyle
  2
Sketchy
 70
    24
177
     2
291
     0
 71
     1
176
     1
 72
     2
176
     1
 73
     2
176
     1
 90
        0
176
     1
 40
0.6
176
     1
 41
30.0
176
     1
 62
     5
 63
     7
421
 16777215
176
     1
 74
     2
176
     1
 91
        2
176
     1
 64
     7
176
     1
 65
     7
176
     1
 75
     1
176
     1
175
     1
176
     1
 42
40.0
176
     1
 92
       11
176
     1
 66
     7
176
     1
 43
1.0
176
     1
 76
     1
176
     1
 77
     6
176
     1
 78
     2
176
     1
 67
     7
176
     1
 79
     6
176
     1
170
     0
176
     1
171
     0
176
     1
290
     0
176
     1
 93
        1
176
     1
 44
0.0
176
     1
173
     0
176
     1
  0
VISUALSTYLE
  5
37
102
{ACAD_REACTORS
330
2A
102
}
102
{ACAD_XDICTIONARY
360
1C4
102
}
330
2A
100
AcDbVisualStyle
  2
Thicken
 70
    13
177
     2
291
     1
 71
     2
176
     1
 72
     2
176
     1
 73
     0
176
     1
 90
        0
176
     1
 40
0.6
176
     1
 41
30.0
176
     1
 62
     5
 63
     7
421
 16777215
176
     1
 74
     1
176
     1
 91
        4
176
     1
 64
     7
176
     1
 65
   257
176
     1
 75
     1
176
     1
175
     1
176
     1
 42
1.0
176
     1
 92
       12
176
     1
 66
     7
176
     1
 43
1.0
176
     1
 76
     1
176
     1
 77
     6
176
     1
 78
     2
176
     1
 67
     7
176
     1
 79
     5
176
     1
170
     0
176
     1
171
     0
176
     1
290
     0
176
     1
 93
        1
176
     1
 44
0.0
176
     1
173
     0
176
     1
  0
VISUALSTYLE
  5
30
102
{ACAD_REACTORS
330
2A
102
}
102
{ACAD_XDICTIONARY
360
1B6
102
}
330
2A
100
AcDbVisualStyle
  2
Wireframe
 70
     5
177
     2
291
     0
 71
     0
176
     1
 72
     2
176
     1
 73
     0
176
     1
 90
        0
176
     1
 40
0.6
176
     1
 41
30.0
176
     1
 62
     5
 63
     7
421
 16777215
176
     1
 74
     1
176
     1
 91
        4
176
     1
 64
     7
176
     1
 65
   257
176
     1
 75
     1
176
     1
175
     1
176
     1
 42
1.0
176
     1
 92
        0
176
     1
 66
   257
176
     1
 43
1.0
176
     1
 76
     1
176
     1
 77
     6
176
     1
 78
     2
176
     1
 67
     7
176
     1
 79
     3
176
     1
170
     0
176
     1
171
     0
176
     1
290
     0
176
     1
 93
        1
176
     1
 44
0.0
176
     1
173
     0
176
     1
  0
VISUALSTYLE
  5
40
102
{ACAD_REACTORS
330
2A
102
}
102
{ACAD_XDICTIONARY
360
1D6
102
}
330
2A
100
AcDbVisualStyle
  2
X-Ray
 70
    25
177
     2
291
     0
 71
     2
176
     1
 72
     2
176
     1
 73
     1
176
     1
 90
        1
176
     1
 40
0.5
176
     1
 41
30.0
176
     1
 62
     5
 63
     7
421
 16777215
176
     1
 74
     1
176
     1
 91
        0
176
     1
 64
     7
176
     1
 65
   257
176
     1
 75
     1
176
     1
175
     1
176
     1
 42
1.0
176
     1
 92
        8
176
     1
 66
     7
176
     1
 43
1.0
176
     1
 76
     1
176
     1
 77
     6
176
     1
 78
     2
176
     1
 67
     7
176
     1
 79
     3
176
     1
170
     0
176
     1
171
     0
176
     1
290
     0
176
     1
 93
       13
176
     1
 44
0.0
176
     1
173
     0
176
     1
  0
DICTIONARYVAR
  5
1AB
102
{ACAD_REACTORS
330
1AA
102
}
330
1AA
100
DictionaryVariables
280
     0
  1
1:1
  0
DICTIONARYVAR
  5
1E3
102
{ACAD_REACTORS
330
1AA
102
}
330
1AA
100
DictionaryVariables
280
     0
  1
3.500000
  0
DICTIONARYVAR
  5
1E4
102
{ACAD_REACTORS
330
1AA
102
}
330
1AA
100
DictionaryVariables
280
     0
  1
acadiso.lin
  0
DICTIONARYVAR
  5
1E0
102
{ACAD_REACTORS
330
1AA
102
}
330
1AA
100
DictionaryVariables
280
     0
  1
Standard
  0
DICTIONARYVAR
  5
1DF
102
{ACAD_REACTORS
330
1AA
102
}
330
1AA
100
DictionaryVariables
280
     0
  1
Standard
  0
DICTIONARY
  5
1DC
330
6A
100
AcDbDictionary
280
     1
281
     1
  3
ACAD_ROUNDTRIP_2008_TABLESTYLE_CELLSTYLEMAP
360
1DD
  0
DICTIONARY
  5
1B4
330
2F
100
AcDbDictionary
280
     1
281
     1
  3
ACAD_XREC_ROUNDTRIP
360
1B5
  0
DICTIONARY
  5
1BA
330
32
100
AcDbDictionary
280
     1
281
     1
  3
ACAD_XREC_ROUNDTRIP
360
1BB
  0
DICTIONARY
  5
1C2
330
36
100
AcDbDictionary
280
     1
281
     1
  3
ACAD_XREC_ROUNDTRIP
360
1C3
  0
DICTIONARY
  5
1CA
330
3A
100
AcDbDictionary
280
     1
281
     1
  3
ACAD_XREC_ROUNDTRIP
360
1CB
  0
DICTIONARY
  5
1BE
330
34
100
AcDbDictionary
280
     1
281
     1
  3
ACAD_XREC_ROUNDTRIP
360
1BF
  0
DICTIONARY
  5
1C0
330
35
100
AcDbDictionary
280
     1
281
     1
  3
ACAD_XREC_ROUNDTRIP
360
1C1
  0
DICTIONARY
  5
1D0
330
3D
100
AcDbDictionary
280
     1
281
     1
  3
ACAD_XREC_ROUNDTRIP
360
1D1
  0
DICTIONARY
  5
1C8
330
39
100
AcDbDictionary
280
     1
281
     1
  3
ACAD_XREC_ROUNDTRIP
360
1C9
  0
DICTIONARY
  5
1AC
330
2B
100
AcDbDictionary
280
     1
281
     1
  3
ACAD_XREC_ROUNDTRIP
360
1AD
  0
DICTIONARY
  5
1AE
330
2C
100
AcDbDictionary
280
     1
281
     1
  3
ACAD_XREC_ROUNDTRIP
360
1AF
  0
DICTIONARY
  5
1B0
330
2D
100
AcDbDictionary
280
     1
281
     1
  3
ACAD_XREC_ROUNDTRIP
360
1B1
  0
DICTIONARY
  5
1B2
330
2E
100
AcDbDictionary
280
     1
281
     1
  3
ACAD_XREC_ROUNDTRIP
360
1B3
  0
DICTIONARY
  5
1B8
330
31
100
AcDbDictionary
280
     1
281
     1
  3
ACAD_XREC_ROUNDTRIP
360
1B9
  0
DICTIONARY
  5
1CC
330
3B
100
AcDbDictionary
280
     1
281
     1
  3
ACAD_XREC_ROUNDTRIP
360
1CD
  0
DICTIONARY
  5
1C6
330
38
100
AcDbDictionary
280
     1
281
     1
  3
ACAD_XREC_ROUNDTRIP
360
1C7
  0
DICTIONARY
  5
1CE
330
3C
100
AcDbDictionary
280
     1
281
     1
  3
ACAD_XREC_ROUNDTRIP
360
1CF
  0
DICTIONARY
  5
1BC
330
33
100
AcDbDictionary
280
     1
281
     1
  3
ACAD_XREC_ROUNDTRIP
360
1BD
  0
DICTIONARY
  5
1DA
330
42
100
AcDbDictionary
280
     1
281
     1
  3
ACAD_XREC_ROUNDTRIP
360
1DB
  0
DICTIONARY
  5
1D8
330
41
100
AcDbDictionary
280
     1
281
     1
  3
ACAD_XREC_ROUNDTRIP
360
1D9
  0
DICTIONARY
  5
1D2
330
3E
100
AcDbDictionary
280
     1
281
     1
  3
ACAD_XREC_ROUNDTRIP
360
1D3
  0
DICTIONARY
  5
1D4
330
3F
100
AcDbDictionary
280
     1
281
     1
  3
ACAD_XREC_ROUNDTRIP
360
1D5
  0
DICTIONARY
  5
1C4
330
37
100
AcDbDictionary
280
     1
281
     1
  3
ACAD_XREC_ROUNDTRIP
360
1C5
  0
DICTIONARY
  5
1B6
330
30
100
AcDbDictionary
280
     1
281
     1
  3
ACAD_XREC_ROUNDTRIP
360
1B7
  0
DICTIONARY
  5
1D6
330
40
100
AcDbDictionary
280
     1
281
     1
  3
ACAD_XREC_ROUNDTRIP
360
1D7
  0
CELLSTYLEMAP
  5
1DD
102
{ACAD_REACTORS
330
1DC
102
}
330
1DC
100
AcDbCellStyleMap
 90
        3
300
CELLSTYLE
  1
TABLEFORMAT_BEGIN
 90
        5
170
     1
 91
        0
 92
    32768
 62
   257
 93
        1
300
CONTENTFORMAT
  1
CONTENTFORMAT_BEGIN
 90
        0
 91
        0
 92
        4
 93
        0
300

 40
0.0
140
1.0
 94
        5
 62
     0
340
11
144
6.0
309
CONTENTFORMAT_END
171
     1
301
MARGIN
  1
CELLMARGIN_BEGIN
 40
1.5
 40
1.5
 40
1.5
 40
1.5
 40
1.5
 40
1.5
309
CELLMARGIN_END
 94
        6
 95
        1
302
GRIDFORMAT
  1
GRIDFORMAT_BEGIN
 90
        0
 91
        1
 62
     0
 92
       -2
340
14
 93
        0
 40
0.045
309
GRIDFORMAT_END
 95
        2
302
GRIDFORMAT
  1
GRIDFORMAT_BEGIN
 90
        0
 91
        1
 62
     0
 92
       -2
340
14
 93
        0
 40
0.045
309
GRIDFORMAT_END
 95
        4
302
GRIDFORMAT
  1
GRIDFORMAT_BEGIN
 90
        0
 91
        1
 62
     0
 92
       -2
340
14
 93
        0
 40
0.045
309
GRIDFORMAT_END
 95
        8
302
GRIDFORMAT
  1
GRIDFORMAT_BEGIN
 90
        0
 91
        1
 62
     0
 92
       -2
340
14
 93
        0
 40
0.045
309
GRIDFORMAT_END
 95
       16
302
GRIDFORMAT
  1
GRIDFORMAT_BEGIN
 90
        0
 91
        1
 62
     0
 92
       -2
340
14
 93
        0
 40
0.045
309
GRIDFORMAT_END
 95
       32
302
GRIDFORMAT
  1
GRIDFORMAT_BEGIN
 90
        0
 91
        1
 62
     0
 92
       -2
340
14
 93
        0
 40
0.045
309
GRIDFORMAT_END
309
TABLEFORMAT_END
  1
CELLSTYLE_BEGIN
 90
        1
 91
        1
300
_TITLE
309
CELLSTYLE_END
300
CELLSTYLE
  1
TABLEFORMAT_BEGIN
 90
        5
170
     1
 91
        0
 92
        0
 62
   257
 93
        1
300
CONTENTFORMAT
  1
CONTENTFORMAT_BEGIN
 90
        0
 91
        0
 92
        4
 93
        0
300

 40
0.0
140
1.0
 94
        5
 62
     0
340
11
144
4.5
309
CONTENTFORMAT_END
171
     1
301
MARGIN
  1
CELLMARGIN_BEGIN
 40
1.5
 40
1.5
 40
1.5
 40
1.5
 40
1.5
 40
1.5
309
CELLMARGIN_END
 94
        6
 95
        1
302
GRIDFORMAT
  1
GRIDFORMAT_BEGIN
 90
        0
 91
        1
 62
     0
 92
       -2
340
14
 93
        0
 40
0.045
309
GRIDFORMAT_END
 95
        2
302
GRIDFORMAT
  1
GRIDFORMAT_BEGIN
 90
        0
 91
        1
 62
     0
 92
       -2
340
14
 93
        0
 40
0.045
309
GRIDFORMAT_END
 95
        4
302
GRIDFORMAT
  1
GRIDFORMAT_BEGIN
 90
        0
 91
        1
 62
     0
 92
       -2
340
14
 93
        0
 40
0.045
309
GRIDFORMAT_END
 95
        8
302
GRIDFORMAT
  1
GRIDFORMAT_BEGIN
 90
        0
 91
        1
 62
     0
 92
       -2
340
14
 93
        0
 40
0.045
309
GRIDFORMAT_END
 95
       16
302
GRIDFORMAT
  1
GRIDFORMAT_BEGIN
 90
        0
 91
        1
 62
     0
 92
       -2
340
14
 93
        0
 40
0.045
309
GRIDFORMAT_END
 95
       32
302
GRIDFORMAT
  1
GRIDFORMAT_BEGIN
 90
        0
 91
        1
 62
     0
 92
       -2
340
14
 93
        0
 40
0.045
309
GRIDFORMAT_END
309
TABLEFORMAT_END
  1
CELLSTYLE_BEGIN
 90
        2
 91
        1
300
_HEADER
309
CELLSTYLE_END
300
CELLSTYLE
  1
TABLEFORMAT_BEGIN
 90
        5
170
     1
 91
        0
 92
        0
 62
   257
 93
        1
300
CONTENTFORMAT
  1
CONTENTFORMAT_BEGIN
 90
        0
 91
        0
 92
        4
 93
        0
300

 40
0.0
140
1.0
 94
        2
 62
     0
340
11
144
4.5
309
CONTENTFORMAT_END
171
     1
301
MARGIN
  1
CELLMARGIN_BEGIN
 40
1.5
 40
1.5
 40
1.5
 40
1.5
 40
1.5
 40
1.5
309
CELLMARGIN_END
 94
        6
 95
        1
302
GRIDFORMAT
  1
GRIDFORMAT_BEGIN
 90
        0
 91
        1
 62
     0
 92
       -2
340
14
 93
        0
 40
0.045
309
GRIDFORMAT_END
 95
        2
302
GRIDFORMAT
  1
GRIDFORMAT_BEGIN
 90
        0
 91
        1
 62
     0
 92
       -2
340
14
 93
        0
 40
0.045
309
GRIDFORMAT_END
 95
        4
302
GRIDFORMAT
  1
GRIDFORMAT_BEGIN
 90
        0
 91
        1
 62
     0
 92
       -2
340
14
 93
        0
 40
0.045
309
GRIDFORMAT_END
 95
        8
302
GRIDFORMAT
  1
GRIDFORMAT_BEGIN
 90
        0
 91
        1
 62
     0
 92
       -2
340
14
 93
        0
 40
0.045
309
GRIDFORMAT_END
 95
       16
302
GRIDFORMAT
  1
GRIDFORMAT_BEGIN
 90
        0
 91
        1
 62
     0
 92
       -2
340
14
 93
        0
 40
0.045
309
GRIDFORMAT_END
 95
       32
302
GRIDFORMAT
  1
GRIDFORMAT_BEGIN
 90
        0
 91
        1
 62
     0
 92
       -2
340
14
 93
        0
 40
0.045
309
GRIDFORMAT_END
309
TABLEFORMAT_END
  1
CELLSTYLE_BEGIN
 90
        3
 91
        2
300
_DATA
309
CELLSTYLE_END
  0
XRECORD
  5
1B5
102
{ACAD_REACTORS
330
1B4
102
}
330
1B4
100
AcDbXrecord
280
     1
102
RTVSPost2010Prop28
280
     1
102
RTVSPost2010PropOp28
 70
     1
102
RTVSPost2010Prop29
280
     1
102
RTVSPost2010PropOp29
 70
     1
102
RTVSPost2010Prop30
280
     0
102
RTVSPost2010PropOp30
 70
     1
102
RTVSPost2010Prop31
280
     0
102
RTVSPost2010PropOp31
 70
     1
102
RTVSPost2010Prop32
280
     0
102
RTVSPost2010PropOp32
 70
     1
102
RTVSPost2010Prop33
280
     0
102
RTVSPost2010PropOp33
 70
     1
102
RTVSPost2010Prop34
280
     0
102
RTVSPost2010PropOp34
 70
     1
102
RTVSPost2010Prop35
280
     0
102
RTVSPost2010PropOp35
 70
     1
102
RTVSPost2010Prop36
280
     0
102
RTVSPost2010PropOp36
 70
     1
102
RTVSPost2010Prop37
 90
       50
102
RTVSPost2010PropOp37
 70
     1
102
RTVSPost2010Prop38
140
0.0
102
RTVSPost2010PropOp38
 70
     1
102
RTVSPost2010Prop39
140
1.0
102
RTVSPost2010PropOp39
 70
     1
102
RTVSPost2010Prop40
 90
        0
102
RTVSPost2010PropOp40
 70
     1
102
RTVSPost2010Prop41ColorIndex
 90
       18
102
RTVSPost2010Prop41ColorRGB
 90
        0
102
RTVSPost2010PropOp41
 70
     1
102
RTVSPost2010Prop42
 90
       50
102
RTVSPost2010PropOp42
 70
     1
102
RTVSPost2010Prop43
 90
        3
102
RTVSPost2010PropOp43
 70
     1
102
RTVSPost2010Prop44ColorIndex
 90
        5
102
RTVSPost2010Prop44ColorRGB
 90
      255
102
RTVSPost2010PropOp44
 70
     1
102
RTVSPost2010Prop45
280
     0
102
RTVSPost2010PropOp45
 70
     1
102
RTVSPost2010Prop46
 90
       50
102
RTVSPost2010PropOp46
 70
     1
102
RTVSPost2010Prop47
 90
       50
102
RTVSPost2010PropOp47
 70
     1
102
RTVSPost2010Prop48
 90
       50
102
RTVSPost2010PropOp48
 70
     1
102
RTVSPost2010Prop49
280
     0
102
RTVSPost2010PropOp49
 70
     1
102
RTVSPost2010Prop50
 90
       50
102
RTVSPost2010PropOp50
 70
     1
102
RTVSPost2010Prop51ColorIndex
 90
      256
102
RTVSPost2010Prop51ColorRGB
 90
-16777216
102
RTVSPost2010PropOp51
 70
     0
102
RTVSPost2010Prop52
140
1.0
102
RTVSPost2010PropOp52
 70
     0
102
RTVSPost2010Prop53
 90
        2
102
RTVSPost2010PropOp53
 70
     1
102
RTVSPost2010Prop54
  1
strokes_ogs.tif
102
RTVSPost2010PropOp54
 70
     1
102
RTVSPost2010Prop55
280
     0
102
RTVSPost2010PropOp55
 70
     1
102
RTVSPost2010Prop56
140
1.0
102
RTVSPost2010PropOp56
 70
     1
102
RTVSPost2010Prop57
140
1.0
102
RTVSPost2010PropOp57
 70
     1
  0
XRECORD
  5
1BB
102
{ACAD_REACTORS
330
1BA
102
}
330
1BA
100
AcDbXrecord
280
     1
102
RTVSPost2010Prop28
280
     0
102
RTVSPost2010PropOp28
 70
     1
102
RTVSPost2010Prop29
280
     1
102
RTVSPost2010PropOp29
 70
     1
102
RTVSPost2010Prop30
280
     1
102
RTVSPost2010PropOp30
 70
     1
102
RTVSPost2010Prop31
280
     0
102
RTVSPost2010PropOp31
 70
     1
102
RTVSPost2010Prop32
280
     0
102
RTVSPost2010PropOp32
 70
     1
102
RTVSPost2010Prop33
280
     0
102
RTVSPost2010PropOp33
 70
     1
102
RTVSPost2010Prop34
280
     0
102
RTVSPost2010PropOp34
 70
     1
102
RTVSPost2010Prop35
280
     0
102
RTVSPost2010PropOp35
 70
     1
102
RTVSPost2010Prop36
280
     0
102
RTVSPost2010PropOp36
 70
     1
102
RTVSPost2010Prop37
 90
       50
102
RTVSPost2010PropOp37
 70
     1
102
RTVSPost2010Prop38
140
0.0
102
RTVSPost2010PropOp38
 70
     1
102
RTVSPost2010Prop39
140
1.0
102
RTVSPost2010PropOp39
 70
     1
102
RTVSPost2010Prop40
 90
        0
102
RTVSPost2010PropOp40
 70
     1
102
RTVSPost2010Prop41ColorIndex
 90
       18
102
RTVSPost2010Prop41ColorRGB
 90
        0
102
RTVSPost2010PropOp41
 70
     1
102
RTVSPost2010Prop42
 90
       50
102
RTVSPost2010PropOp42
 70
     1
102
RTVSPost2010Prop43
 90
        3
102
RTVSPost2010PropOp43
 70
     1
102
RTVSPost2010Prop44ColorIndex
 90
        5
102
RTVSPost2010Prop44ColorRGB
 90
      255
102
RTVSPost2010PropOp44
 70
     1
102
RTVSPost2010Prop45
280
     0
102
RTVSPost2010PropOp45
 70
     1
102
RTVSPost2010Prop46
 90
       50
102
RTVSPost2010PropOp46
 70
     1
102
RTVSPost2010Prop47
 90
       50
102
RTVSPost2010PropOp47
 70
     1
102
RTVSPost2010Prop48
 90
       50
102
RTVSPost2010PropOp48
 70
     1
102
RTVSPost2010Prop49
280
     0
102
RTVSPost2010PropOp49
 70
     1
102
RTVSPost2010Prop50
 90
       50
102
RTVSPost2010PropOp50
 70
     1
102
RTVSPost2010Prop51ColorIndex
 90
      256
102
RTVSPost2010Prop51ColorRGB
 90
-16777216
102
RTVSPost2010PropOp51
 70
     0
102
RTVSPost2010Prop52
140
1.0
102
RTVSPost2010PropOp52
 70
     0
102
RTVSPost2010Prop53
 90
        2
102
RTVSPost2010PropOp53
 70
     1
102
RTVSPost2010Prop54
  1
strokes_ogs.tif
102
RTVSPost2010PropOp54
 70
     1
102
RTVSPost2010Prop55
280
     0
102
RTVSPost2010PropOp55
 70
     1
102
RTVSPost2010Prop56
140
1.0
102
RTVSPost2010PropOp56
 70
     1
102
RTVSPost2010Prop57
140
1.0
102
RTVSPost2010PropOp57
 70
     1
  0
XRECORD
  5
1C3
102
{ACAD_REACTORS
330
1C2
102
}
330
1C2
100
AcDbXrecord
280
     1
102
RTVSPost2010Prop28
280
     0
102
RTVSPost2010PropOp28
 70
     1
102
RTVSPost2010Prop29
280
     1
102
RTVSPost2010PropOp29
 70
     1
102
RTVSPost2010Prop30
280
     1
102
RTVSPost2010PropOp30
 70
     1
102
RTVSPost2010Prop31
280
     0
102
RTVSPost2010PropOp31
 70
     1
102
RTVSPost2010Prop32
280
     0
102
RTVSPost2010PropOp32
 70
     1
102
RTVSPost2010Prop33
280
     0
102
RTVSPost2010PropOp33
 70
     1
102
RTVSPost2010Prop34
280
     0
102
RTVSPost2010PropOp34
 70
     1
102
RTVSPost2010Prop35
280
     0
102
RTVSPost2010PropOp35
 70
     1
102
RTVSPost2010Prop36
280
     0
102
RTVSPost2010PropOp36
 70
     1
102
RTVSPost2010Prop37
 90
       50
102
RTVSPost2010PropOp37
 70
     1
102
RTVSPost2010Prop38
140
0.0
102
RTVSPost2010PropOp38
 70
     1
102
RTVSPost2010Prop39
140
1.0
102
RTVSPost2010PropOp39
 70
     1
102
RTVSPost2010Prop40
 90
        0
102
RTVSPost2010PropOp40
 70
     1
102
RTVSPost2010Prop41ColorIndex
 90
       18
102
RTVSPost2010Prop41ColorRGB
 90
        0
102
RTVSPost2010PropOp41
 70
     1
102
RTVSPost2010Prop42
 90
       50
102
RTVSPost2010PropOp42
 70
     1
102
RTVSPost2010Prop43
 90
        3
102
RTVSPost2010PropOp43
 70
     1
102
RTVSPost2010Prop44ColorIndex
 90
        5
102
RTVSPost2010Prop44ColorRGB
 90
      255
102
RTVSPost2010PropOp44
 70
     1
102
RTVSPost2010Prop45
280
     0
102
RTVSPost2010PropOp45
 70
     1
102
RTVSPost2010Prop46
 90
       50
102
RTVSPost2010PropOp46
 70
     1
102
RTVSPost2010Prop47
 90
       50
102
RTVSPost2010PropOp47
 70
     1
102
RTVSPost2010Prop48
 90
       50
102
RTVSPost2010PropOp48
 70
     1
102
RTVSPost2010Prop49
280
     0
102
RTVSPost2010PropOp49
 70
     1
102
RTVSPost2010Prop50
 90
       50
102
RTVSPost2010PropOp50
 70
     1
102
RTVSPost2010Prop51ColorIndex
 90
      256
102
RTVSPost2010Prop51ColorRGB
 90
-16777216
102
RTVSPost2010PropOp51
 70
     0
102
RTVSPost2010Prop52
140
1.0
102
RTVSPost2010PropOp52
 70
     0
102
RTVSPost2010Prop53
 90
        2
102
RTVSPost2010PropOp53
 70
     1
102
RTVSPost2010Prop54
  1
strokes_ogs.tif
102
RTVSPost2010PropOp54
 70
     1
102
RTVSPost2010Prop55
280
     0
102
RTVSPost2010PropOp55
 70
     1
102
RTVSPost2010Prop56
140
1.0
102
RTVSPost2010PropOp56
 70
     1
102
RTVSPost2010Prop57
140
1.0
102
RTVSPost2010PropOp57
 70
     1
  0
XRECORD
  5
1CB
102
{ACAD_REACTORS
330
1CA
102
}
330
1CA
100
AcDbXrecord
280
     1
102
RTVSPost2010Prop28
280
     0
102
RTVSPost2010PropOp28
 70
     1
102
RTVSPost2010Prop29
280
     1
102
RTVSPost2010PropOp29
 70
     1
102
RTVSPost2010Prop30
280
     1
102
RTVSPost2010PropOp30
 70
     1
102
RTVSPost2010Prop31
280
     0
102
RTVSPost2010PropOp31
 70
     1
102
RTVSPost2010Prop32
280
     0
102
RTVSPost2010PropOp32
 70
     1
102
RTVSPost2010Prop33
280
     0
102
RTVSPost2010PropOp33
 70
     1
102
RTVSPost2010Prop34
280
     0
102
RTVSPost2010PropOp34
 70
     1
102
RTVSPost2010Prop35
280
     0
102
RTVSPost2010PropOp35
 70
     1
102
RTVSPost2010Prop36
280
     0
102
RTVSPost2010PropOp36
 70
     1
102
RTVSPost2010Prop37
 90
       50
102
RTVSPost2010PropOp37
 70
     1
102
RTVSPost2010Prop38
140
0.0
102
RTVSPost2010PropOp38
 70
     1
102
RTVSPost2010Prop39
140
1.0
102
RTVSPost2010PropOp39
 70
     1
102
RTVSPost2010Prop40
 90
        0
102
RTVSPost2010PropOp40
 70
     1
102
RTVSPost2010Prop41ColorIndex
 90
       18
102
RTVSPost2010Prop41ColorRGB
 90
        0
102
RTVSPost2010PropOp41
 70
     1
102
RTVSPost2010Prop42
 90
       50
102
RTVSPost2010PropOp42
 70
     1
102
RTVSPost2010Prop43
 90
        3
102
RTVSPost2010PropOp43
 70
     1
102
RTVSPost2010Prop44ColorIndex
 90
        5
102
RTVSPost2010Prop44ColorRGB
 90
      255
102
RTVSPost2010PropOp44
 70
     1
102
RTVSPost2010Prop45
280
     0
102
RTVSPost2010PropOp45
 70
     1
102
RTVSPost2010Prop46
 90
       50
102
RTVSPost2010PropOp46
 70
     1
102
RTVSPost2010Prop47
 90
       50
102
RTVSPost2010PropOp47
 70
     1
102
RTVSPost2010Prop48
 90
       50
102
RTVSPost2010PropOp48
 70
     1
102
RTVSPost2010Prop49
280
     0
102
RTVSPost2010PropOp49
 70
     1
102
RTVSPost2010Prop50
 90
       50
102
RTVSPost2010PropOp50
 70
     1
102
RTVSPost2010Prop51ColorIndex
 90
      256
102
RTVSPost2010Prop51ColorRGB
 90
-16777216
102
RTVSPost2010PropOp51
 70
     0
102
RTVSPost2010Prop52
140
1.0
102
RTVSPost2010PropOp52
 70
     0
102
RTVSPost2010Prop53
 90
        2
102
RTVSPost2010PropOp53
 70
     1
102
RTVSPost2010Prop54
  1
strokes_ogs.tif
102
RTVSPost2010PropOp54
 70
     1
102
RTVSPost2010Prop55
280
     0
102
RTVSPost2010PropOp55
 70
     1
102
RTVSPost2010Prop56
140
1.0
102
RTVSPost2010PropOp56
 70
     1
102
RTVSPost2010Prop57
140
1.0
102
RTVSPost2010PropOp57
 70
     1
  0
XRECORD
  5
1BF
102
{ACAD_REACTORS
330
1BE
102
}
330
1BE
100
AcDbXrecord
280
     1
102
RTVSPost2010Prop28
280
     0
102
RTVSPost2010PropOp28
 70
     1
102
RTVSPost2010Prop29
280
     1
102
RTVSPost2010PropOp29
 70
     1
102
RTVSPost2010Prop30
280
     1
102
RTVSPost2010PropOp30
 70
     1
102
RTVSPost2010Prop31
280
     0
102
RTVSPost2010PropOp31
 70
     1
102
RTVSPost2010Prop32
280
     0
102
RTVSPost2010PropOp32
 70
     1
102
RTVSPost2010Prop33
280
     0
102
RTVSPost2010PropOp33
 70
     1
102
RTVSPost2010Prop34
280
     0
102
RTVSPost2010PropOp34
 70
     1
102
RTVSPost2010Prop35
280
     0
102
RTVSPost2010PropOp35
 70
     1
102
RTVSPost2010Prop36
280
     0
102
RTVSPost2010PropOp36
 70
     1
102
RTVSPost2010Prop37
 90
       50
102
RTVSPost2010PropOp37
 70
     1
102
RTVSPost2010Prop38
140
0.0
102
RTVSPost2010PropOp38
 70
     1
102
RTVSPost2010Prop39
140
1.0
102
RTVSPost2010PropOp39
 70
     1
102
RTVSPost2010Prop40
 90
        0
102
RTVSPost2010PropOp40
 70
     1
102
RTVSPost2010Prop41ColorIndex
 90
       18
102
RTVSPost2010Prop41ColorRGB
 90
        0
102
RTVSPost2010PropOp41
 70
     1
102
RTVSPost2010Prop42
 90
       50
102
RTVSPost2010PropOp42
 70
     1
102
RTVSPost2010Prop43
 90
        3
102
RTVSPost2010PropOp43
 70
     1
102
RTVSPost2010Prop44ColorIndex
 90
        5
102
RTVSPost2010Prop44ColorRGB
 90
      255
102
RTVSPost2010PropOp44
 70
     1
102
RTVSPost2010Prop45
280
     0
102
RTVSPost2010PropOp45
 70
     1
102
RTVSPost2010Prop46
 90
       50
102
RTVSPost2010PropOp46
 70
     1
102
RTVSPost2010Prop47
 90
       50
102
RTVSPost2010PropOp47
 70
     1
102
RTVSPost2010Prop48
 90
       50
102
RTVSPost2010PropOp48
 70
     1
102
RTVSPost2010Prop49
280
     0
102
RTVSPost2010PropOp49
 70
     1
102
RTVSPost2010Prop50
 90
       50
102
RTVSPost2010PropOp50
 70
     1
102
RTVSPost2010Prop51ColorIndex
 90
      256
102
RTVSPost2010Prop51ColorRGB
 90
-16777216
102
RTVSPost2010PropOp51
 70
     0
102
RTVSPost2010Prop52
140
1.0
102
RTVSPost2010PropOp52
 70
     0
102
RTVSPost2010Prop53
 90
        2
102
RTVSPost2010PropOp53
 70
     1
102
RTVSPost2010Prop54
  1
strokes_ogs.tif
102
RTVSPost2010PropOp54
 70
     1
102
RTVSPost2010Prop55
280
     0
102
RTVSPost2010PropOp55
 70
     1
102
RTVSPost2010Prop56
140
1.0
102
RTVSPost2010PropOp56
 70
     1
102
RTVSPost2010Prop57
140
1.0
102
RTVSPost2010PropOp57
 70
     1
  0
XRECORD
  5
1C1
102
{ACAD_REACTORS
330
1C0
102
}
330
1C0
100
AcDbXrecord
280
     1
102
RTVSPost2010Prop28
280
     0
102
RTVSPost2010PropOp28
 70
     1
102
RTVSPost2010Prop29
280
     1
102
RTVSPost2010PropOp29
 70
     1
102
RTVSPost2010Prop30
280
     1
102
RTVSPost2010PropOp30
 70
     1
102
RTVSPost2010Prop31
280
     0
102
RTVSPost2010PropOp31
 70
     1
102
RTVSPost2010Prop32
280
     0
102
RTVSPost2010PropOp32
 70
     1
102
RTVSPost2010Prop33
280
     0
102
RTVSPost2010PropOp33
 70
     1
102
RTVSPost2010Prop34
280
     0
102
RTVSPost2010PropOp34
 70
     1
102
RTVSPost2010Prop35
280
     0
102
RTVSPost2010PropOp35
 70
     1
102
RTVSPost2010Prop36
280
     0
102
RTVSPost2010PropOp36
 70
     1
102
RTVSPost2010Prop37
 90
       50
102
RTVSPost2010PropOp37
 70
     1
102
RTVSPost2010Prop38
140
0.0
102
RTVSPost2010PropOp38
 70
     1
102
RTVSPost2010Prop39
140
1.0
102
RTVSPost2010PropOp39
 70
     1
102
RTVSPost2010Prop40
 90
        0
102
RTVSPost2010PropOp40
 70
     1
102
RTVSPost2010Prop41ColorIndex
 90
       18
102
RTVSPost2010Prop41ColorRGB
 90
        0
102
RTVSPost2010PropOp41
 70
     1
102
RTVSPost2010Prop42
 90
       50
102
RTVSPost2010PropOp42
 70
     1
102
RTVSPost2010Prop43
 90
        3
102
RTVSPost2010PropOp43
 70
     1
102
RTVSPost2010Prop44ColorIndex
 90
        5
102
RTVSPost2010Prop44ColorRGB
 90
      255
102
RTVSPost2010PropOp44
 70
     1
102
RTVSPost2010Prop45
280
     0
102
RTVSPost2010PropOp45
 70
     1
102
RTVSPost2010Prop46
 90
       50
102
RTVSPost2010PropOp46
 70
     1
102
RTVSPost2010Prop47
 90
       50
102
RTVSPost2010PropOp47
 70
     1
102
RTVSPost2010Prop48
 90
       50
102
RTVSPost2010PropOp48
 70
     1
102
RTVSPost2010Prop49
280
     0
102
RTVSPost2010PropOp49
 70
     1
102
RTVSPost2010Prop50
 90
       50
102
RTVSPost2010PropOp50
 70
     1
102
RTVSPost2010Prop51ColorIndex
 90
      256
102
RTVSPost2010Prop51ColorRGB
 90
-16777216
102
RTVSPost2010PropOp51
 70
     0
102
RTVSPost2010Prop52
140
1.0
102
RTVSPost2010PropOp52
 70
     0
102
RTVSPost2010Prop53
 90
        2
102
RTVSPost2010PropOp53
 70
     1
102
RTVSPost2010Prop54
  1
strokes_ogs.tif
102
RTVSPost2010PropOp54
 70
     1
102
RTVSPost2010Prop55
280
     0
102
RTVSPost2010PropOp55
 70
     1
102
RTVSPost2010Prop56
140
1.0
102
RTVSPost2010PropOp56
 70
     1
102
RTVSPost2010Prop57
140
1.0
102
RTVSPost2010PropOp57
 70
     1
  0
XRECORD
  5
1D1
102
{ACAD_REACTORS
330
1D0
102
}
330
1D0
100
AcDbXrecord
280
     1
102
RTVSPost2010Prop28
280
     0
102
RTVSPost2010PropOp28
 70
     0
102
RTVSPost2010Prop29
280
     1
102
RTVSPost2010PropOp29
 70
     0
102
RTVSPost2010Prop30
280
     1
102
RTVSPost2010PropOp30
 70
     0
102
RTVSPost2010Prop31
280
     0
102
RTVSPost2010PropOp31
 70
     0
102
RTVSPost2010Prop32
280
     0
102
RTVSPost2010PropOp32
 70
     0
102
RTVSPost2010Prop33
280
     0
102
RTVSPost2010PropOp33
 70
     0
102
RTVSPost2010Prop34
280
     0
102
RTVSPost2010PropOp34
 70
     0
102
RTVSPost2010Prop35
280
     0
102
RTVSPost2010PropOp35
 70
     0
102
RTVSPost2010Prop36
280
     0
102
RTVSPost2010PropOp36
 70
     0
102
RTVSPost2010Prop37
 90
       50
102
RTVSPost2010PropOp37
 70
     0
102
RTVSPost2010Prop38
140
0.0
102
RTVSPost2010PropOp38
 70
     0
102
RTVSPost2010Prop39
140
1.0
102
RTVSPost2010PropOp39
 70
     0
102
RTVSPost2010Prop40
 90
        0
102
RTVSPost2010PropOp40
 70
     0
102
RTVSPost2010Prop41ColorIndex
 90
       18
102
RTVSPost2010Prop41ColorRGB
 90
        0
102
RTVSPost2010PropOp41
 70
     0
102
RTVSPost2010Prop42
 90
       50
102
RTVSPost2010PropOp42
 70
     0
102
RTVSPost2010Prop43
 90
        3
102
RTVSPost2010PropOp43
 70
     0
102
RTVSPost2010Prop44ColorIndex
 90
        5
102
RTVSPost2010Prop44ColorRGB
 90
      255
102
RTVSPost2010PropOp44
 70
     0
102
RTVSPost2010Prop45
280
     0
102
RTVSPost2010PropOp45
 70
     0
102
RTVSPost2010Prop46
 90
       50
102
RTVSPost2010PropOp46
 70
     0
102
RTVSPost2010Prop47
 90
       50
102
RTVSPost2010PropOp47
 70
     0
102
RTVSPost2010Prop48
 90
       50
102
RTVSPost2010PropOp48
 70
     0
102
RTVSPost2010Prop49
280
     0
102
RTVSPost2010PropOp49
 70
     0
102
RTVSPost2010Prop50
 90
       50
102
RTVSPost2010PropOp50
 70
     0
102
RTVSPost2010Prop51ColorIndex
 90
      256
102
RTVSPost2010Prop51ColorRGB
 90
-16777216
102
RTVSPost2010PropOp51
 70
     0
102
RTVSPost2010Prop52
140
1.0
102
RTVSPost2010PropOp52
 70
     0
102
RTVSPost2010Prop53
 90
        2
102
RTVSPost2010PropOp53
 70
     0
102
RTVSPost2010Prop54
  1
strokes_ogs.tif
102
RTVSPost2010PropOp54
 70
     0
102
RTVSPost2010Prop55
280
     0
102
RTVSPost2010PropOp55
 70
     0
102
RTVSPost2010Prop56
140
1.0
102
RTVSPost2010PropOp56
 70
     0
102
RTVSPost2010Prop57
140
1.0
102
RTVSPost2010PropOp57
 70
     0
  0
XRECORD
  5
1C9
102
{ACAD_REACTORS
330
1C8
102
}
330
1C8
100
AcDbXrecord
280
     1
102
RTVSPost2010Prop28
280
     0
102
RTVSPost2010PropOp28
 70
     1
102
RTVSPost2010Prop29
280
     1
102
RTVSPost2010PropOp29
 70
     1
102
RTVSPost2010Prop30
280
     1
102
RTVSPost2010PropOp30
 70
     1
102
RTVSPost2010Prop31
280
     0
102
RTVSPost2010PropOp31
 70
     1
102
RTVSPost2010Prop32
280
     0
102
RTVSPost2010PropOp32
 70
     1
102
RTVSPost2010Prop33
280
     0
102
RTVSPost2010PropOp33
 70
     1
102
RTVSPost2010Prop34
280
     0
102
RTVSPost2010PropOp34
 70
     1
102
RTVSPost2010Prop35
280
     0
102
RTVSPost2010PropOp35
 70
     1
102
RTVSPost2010Prop36
280
     0
102
RTVSPost2010PropOp36
 70
     1
102
RTVSPost2010Prop37
 90
       50
102
RTVSPost2010PropOp37
 70
     1
102
RTVSPost2010Prop38
140
0.0
102
RTVSPost2010PropOp38
 70
     1
102
RTVSPost2010Prop39
140
1.0
102
RTVSPost2010PropOp39
 70
     1
102
RTVSPost2010Prop40
 90
        0
102
RTVSPost2010PropOp40
 70
     1
102
RTVSPost2010Prop41ColorIndex
 90
       18
102
RTVSPost2010Prop41ColorRGB
 90
        0
102
RTVSPost2010PropOp41
 70
     1
102
RTVSPost2010Prop42
 90
       50
102
RTVSPost2010PropOp42
 70
     1
102
RTVSPost2010Prop43
 90
        3
102
RTVSPost2010PropOp43
 70
     1
102
RTVSPost2010Prop44ColorIndex
 90
        5
102
RTVSPost2010Prop44ColorRGB
 90
      255
102
RTVSPost2010PropOp44
 70
     1
102
RTVSPost2010Prop45
280
     0
102
RTVSPost2010PropOp45
 70
     1
102
RTVSPost2010Prop46
 90
       50
102
RTVSPost2010PropOp46
 70
     1
102
RTVSPost2010Prop47
 90
       50
102
RTVSPost2010PropOp47
 70
     1
102
RTVSPost2010Prop48
 90
       50
102
RTVSPost2010PropOp48
 70
     1
102
RTVSPost2010Prop49
280
     0
102
RTVSPost2010PropOp49
 70
     1
102
RTVSPost2010Prop50
 90
       50
102
RTVSPost2010PropOp50
 70
     1
102
RTVSPost2010Prop51ColorIndex
 90
      256
102
RTVSPost2010Prop51ColorRGB
 90
-16777216
102
RTVSPost2010PropOp51
 70
     0
102
RTVSPost2010Prop52
140
1.0
102
RTVSPost2010PropOp52
 70
     0
102
RTVSPost2010Prop53
 90
        2
102
RTVSPost2010PropOp53
 70
     1
102
RTVSPost2010Prop54
  1
strokes_ogs.tif
102
RTVSPost2010PropOp54
 70
     1
102
RTVSPost2010Prop55
280
     0
102
RTVSPost2010PropOp55
 70
     1
102
RTVSPost2010Prop56
140
1.0
102
RTVSPost2010PropOp56
 70
     1
102
RTVSPost2010Prop57
140
1.0
102
RTVSPost2010PropOp57
 70
     1
  0
XRECORD
  5
1AD
102
{ACAD_REACTORS
330
1AC
102
}
330
1AC
100
AcDbXrecord
280
     1
102
RTVSPost2010Prop28
280
     0
102
RTVSPost2010PropOp28
 70
     1
102
RTVSPost2010Prop29
280
     1
102
RTVSPost2010PropOp29
 70
     1
102
RTVSPost2010Prop30
280
     1
102
RTVSPost2010PropOp30
 70
     1
102
RTVSPost2010Prop31
280
     0
102
RTVSPost2010PropOp31
 70
     1
102
RTVSPost2010Prop32
280
     0
102
RTVSPost2010PropOp32
 70
     1
102
RTVSPost2010Prop33
280
     0
102
RTVSPost2010PropOp33
 70
     1
102
RTVSPost2010Prop34
280
     0
102
RTVSPost2010PropOp34
 70
     1
102
RTVSPost2010Prop35
280
     0
102
RTVSPost2010PropOp35
 70
     1
102
RTVSPost2010Prop36
280
     0
102
RTVSPost2010PropOp36
 70
     1
102
RTVSPost2010Prop37
 90
       50
102
RTVSPost2010PropOp37
 70
     1
102
RTVSPost2010Prop38
140
0.0
102
RTVSPost2010PropOp38
 70
     1
102
RTVSPost2010Prop39
140
1.0
102
RTVSPost2010PropOp39
 70
     1
102
RTVSPost2010Prop40
 90
        0
102
RTVSPost2010PropOp40
 70
     1
102
RTVSPost2010Prop41ColorIndex
 90
       18
102
RTVSPost2010Prop41ColorRGB
 90
        0
102
RTVSPost2010PropOp41
 70
     1
102
RTVSPost2010Prop42
 90
       50
102
RTVSPost2010PropOp42
 70
     1
102
RTVSPost2010Prop43
 90
        3
102
RTVSPost2010PropOp43
 70
     1
102
RTVSPost2010Prop44ColorIndex
 90
        5
102
RTVSPost2010Prop44ColorRGB
 90
      255
102
RTVSPost2010PropOp44
 70
     1
102
RTVSPost2010Prop45
280
     0
102
RTVSPost2010PropOp45
 70
     1
102
RTVSPost2010Prop46
 90
       50
102
RTVSPost2010PropOp46
 70
     1
102
RTVSPost2010Prop47
 90
       50
102
RTVSPost2010PropOp47
 70
     1
102
RTVSPost2010Prop48
 90
       50
102
RTVSPost2010PropOp48
 70
     1
102
RTVSPost2010Prop49
280
     0
102
RTVSPost2010PropOp49
 70
     1
102
RTVSPost2010Prop50
 90
       50
102
RTVSPost2010PropOp50
 70
     1
102
RTVSPost2010Prop51ColorIndex
 90
      256
102
RTVSPost2010Prop51ColorRGB
 90
-16777216
102
RTVSPost2010PropOp51
 70
     0
102
RTVSPost2010Prop52
140
1.0
102
RTVSPost2010PropOp52
 70
     0
102
RTVSPost2010Prop53
 90
        2
102
RTVSPost2010PropOp53
 70
     1
102
RTVSPost2010Prop54
  1
strokes_ogs.tif
102
RTVSPost2010PropOp54
 70
     1
102
RTVSPost2010Prop55
280
     0
102
RTVSPost2010PropOp55
 70
     1
102
RTVSPost2010Prop56
140
1.0
102
RTVSPost2010PropOp56
 70
     1
102
RTVSPost2010Prop57
140
1.0
102
RTVSPost2010PropOp57
 70
     1
  0
XRECORD
  5
1AF
102
{ACAD_REACTORS
330
1AE
102
}
330
1AE
100
AcDbXrecord
280
     1
102
RTVSPost2010Prop28
280
     0
102
RTVSPost2010PropOp28
 70
     1
102
RTVSPost2010Prop29
280
     1
102
RTVSPost2010PropOp29
 70
     1
102
RTVSPost2010Prop30
280
     1
102
RTVSPost2010PropOp30
 70
     1
102
RTVSPost2010Prop31
280
     0
102
RTVSPost2010PropOp31
 70
     1
102
RTVSPost2010Prop32
280
     0
102
RTVSPost2010PropOp32
 70
     1
102
RTVSPost2010Prop33
280
     0
102
RTVSPost2010PropOp33
 70
     1
102
RTVSPost2010Prop34
280
     0
102
RTVSPost2010PropOp34
 70
     1
102
RTVSPost2010Prop35
280
     0
102
RTVSPost2010PropOp35
 70
     1
102
RTVSPost2010Prop36
280
     0
102
RTVSPost2010PropOp36
 70
     1
102
RTVSPost2010Prop37
 90
       50
102
RTVSPost2010PropOp37
 70
     1
102
RTVSPost2010Prop38
140
0.0
102
RTVSPost2010PropOp38
 70
     1
102
RTVSPost2010Prop39
140
1.0
102
RTVSPost2010PropOp39
 70
     1
102
RTVSPost2010Prop40
 90
        0
102
RTVSPost2010PropOp40
 70
     1
102
RTVSPost2010Prop41ColorIndex
 90
       18
102
RTVSPost2010Prop41ColorRGB
 90
        0
102
RTVSPost2010PropOp41
 70
     1
102
RTVSPost2010Prop42
 90
       50
102
RTVSPost2010PropOp42
 70
     1
102
RTVSPost2010Prop43
 90
        3
102
RTVSPost2010PropOp43
 70
     1
102
RTVSPost2010Prop44ColorIndex
 90
        5
102
RTVSPost2010Prop44ColorRGB
 90
      255
102
RTVSPost2010PropOp44
 70
     1
102
RTVSPost2010Prop45
280
     0
102
RTVSPost2010PropOp45
 70
     1
102
RTVSPost2010Prop46
 90
       50
102
RTVSPost2010PropOp46
 70
     1
102
RTVSPost2010Prop47
 90
       50
102
RTVSPost2010PropOp47
 70
     1
102
RTVSPost2010Prop48
 90
       50
102
RTVSPost2010PropOp48
 70
     1
102
RTVSPost2010Prop49
280
     0
102
RTVSPost2010PropOp49
 70
     1
102
RTVSPost2010Prop50
 90
       50
102
RTVSPost2010PropOp50
 70
     1
102
RTVSPost2010Prop51ColorIndex
 90
      256
102
RTVSPost2010Prop51ColorRGB
 90
-16777216
102
RTVSPost2010PropOp51
 70
     0
102
RTVSPost2010Prop52
140
1.0
102
RTVSPost2010PropOp52
 70
     0
102
RTVSPost2010Prop53
 90
        2
102
RTVSPost2010PropOp53
 70
     1
102
RTVSPost2010Prop54
  1
strokes_ogs.tif
102
RTVSPost2010PropOp54
 70
     1
102
RTVSPost2010Prop55
280
     0
102
RTVSPost2010PropOp55
 70
     1
102
RTVSPost2010Prop56
140
1.0
102
RTVSPost2010PropOp56
 70
     1
102
RTVSPost2010Prop57
140
1.0
102
RTVSPost2010PropOp57
 70
     1
  0
XRECORD
  5
1B1
102
{ACAD_REACTORS
330
1B0
102
}
330
1B0
100
AcDbXrecord
280
     1
102
RTVSPost2010Prop28
280
     0
102
RTVSPost2010PropOp28
 70
     1
102
RTVSPost2010Prop29
280
     1
102
RTVSPost2010PropOp29
 70
     1
102
RTVSPost2010Prop30
280
     1
102
RTVSPost2010PropOp30
 70
     1
102
RTVSPost2010Prop31
280
     0
102
RTVSPost2010PropOp31
 70
     1
102
RTVSPost2010Prop32
280
     0
102
RTVSPost2010PropOp32
 70
     1
102
RTVSPost2010Prop33
280
     0
102
RTVSPost2010PropOp33
 70
     1
102
RTVSPost2010Prop34
280
     0
102
RTVSPost2010PropOp34
 70
     1
102
RTVSPost2010Prop35
280
     0
102
RTVSPost2010PropOp35
 70
     1
102
RTVSPost2010Prop36
280
     0
102
RTVSPost2010PropOp36
 70
     1
102
RTVSPost2010Prop37
 90
       50
102
RTVSPost2010PropOp37
 70
     1
102
RTVSPost2010Prop38
140
0.0
102
RTVSPost2010PropOp38
 70
     1
102
RTVSPost2010Prop39
140
1.0
102
RTVSPost2010PropOp39
 70
     1
102
RTVSPost2010Prop40
 90
        0
102
RTVSPost2010PropOp40
 70
     1
102
RTVSPost2010Prop41ColorIndex
 90
       18
102
RTVSPost2010Prop41ColorRGB
 90
        0
102
RTVSPost2010PropOp41
 70
     1
102
RTVSPost2010Prop42
 90
       50
102
RTVSPost2010PropOp42
 70
     1
102
RTVSPost2010Prop43
 90
        3
102
RTVSPost2010PropOp43
 70
     1
102
RTVSPost2010Prop44ColorIndex
 90
        5
102
RTVSPost2010Prop44ColorRGB
 90
      255
102
RTVSPost2010PropOp44
 70
     1
102
RTVSPost2010Prop45
280
     0
102
RTVSPost2010PropOp45
 70
     1
102
RTVSPost2010Prop46
 90
       50
102
RTVSPost2010PropOp46
 70
     1
102
RTVSPost2010Prop47
 90
       50
102
RTVSPost2010PropOp47
 70
     1
102
RTVSPost2010Prop48
 90
       50
102
RTVSPost2010PropOp48
 70
     1
102
RTVSPost2010Prop49
280
     0
102
RTVSPost2010PropOp49
 70
     1
102
RTVSPost2010Prop50
 90
       50
102
RTVSPost2010PropOp50
 70
     1
102
RTVSPost2010Prop51ColorIndex
 90
      256
102
RTVSPost2010Prop51ColorRGB
 90
-16777216
102
RTVSPost2010PropOp51
 70
     0
102
RTVSPost2010Prop52
140
1.0
102
RTVSPost2010PropOp52
 70
     0
102
RTVSPost2010Prop53
 90
        2
102
RTVSPost2010PropOp53
 70
     1
102
RTVSPost2010Prop54
  1
strokes_ogs.tif
102
RTVSPost2010PropOp54
 70
     1
102
RTVSPost2010Prop55
280
     0
102
RTVSPost2010PropOp55
 70
     1
102
RTVSPost2010Prop56
140
1.0
102
RTVSPost2010PropOp56
 70
     1
102
RTVSPost2010Prop57
140
1.0
102
RTVSPost2010PropOp57
 70
     1
  0
XRECORD
  5
1B3
102
{ACAD_REACTORS
330
1B2
102
}
330
1B2
100
AcDbXrecord
280
     1
102
RTVSPost2010Prop28
280
     0
102
RTVSPost2010PropOp28
 70
     1
102
RTVSPost2010Prop29
280
     1
102
RTVSPost2010PropOp29
 70
     1
102
RTVSPost2010Prop30
280
     1
102
RTVSPost2010PropOp30
 70
     1
102
RTVSPost2010Prop31
280
     0
102
RTVSPost2010PropOp31
 70
     1
102
RTVSPost2010Prop32
280
     0
102
RTVSPost2010PropOp32
 70
     1
102
RTVSPost2010Prop33
280
     0
102
RTVSPost2010PropOp33
 70
     1
102
RTVSPost2010Prop34
280
     0
102
RTVSPost2010PropOp34
 70
     1
102
RTVSPost2010Prop35
280
     0
102
RTVSPost2010PropOp35
 70
     1
102
RTVSPost2010Prop36
280
     0
102
RTVSPost2010PropOp36
 70
     1
102
RTVSPost2010Prop37
 90
       50
102
RTVSPost2010PropOp37
 70
     1
102
RTVSPost2010Prop38
140
0.0
102
RTVSPost2010PropOp38
 70
     1
102
RTVSPost2010Prop39
140
1.0
102
RTVSPost2010PropOp39
 70
     1
102
RTVSPost2010Prop40
 90
        0
102
RTVSPost2010PropOp40
 70
     1
102
RTVSPost2010Prop41ColorIndex
 90
       18
102
RTVSPost2010Prop41ColorRGB
 90
        0
102
RTVSPost2010PropOp41
 70
     1
102
RTVSPost2010Prop42
 90
       50
102
RTVSPost2010PropOp42
 70
     1
102
RTVSPost2010Prop43
 90
        3
102
RTVSPost2010PropOp43
 70
     1
102
RTVSPost2010Prop44ColorIndex
 90
        5
102
RTVSPost2010Prop44ColorRGB
 90
      255
102
RTVSPost2010PropOp44
 70
     1
102
RTVSPost2010Prop45
280
     0
102
RTVSPost2010PropOp45
 70
     1
102
RTVSPost2010Prop46
 90
       50
102
RTVSPost2010PropOp46
 70
     1
102
RTVSPost2010Prop47
 90
       50
102
RTVSPost2010PropOp47
 70
     1
102
RTVSPost2010Prop48
 90
       50
102
RTVSPost2010PropOp48
 70
     1
102
RTVSPost2010Prop49
280
     0
102
RTVSPost2010PropOp49
 70
     1
102
RTVSPost2010Prop50
 90
       50
102
RTVSPost2010PropOp50
 70
     1
102
RTVSPost2010Prop51ColorIndex
 90
      256
102
RTVSPost2010Prop51ColorRGB
 90
-16777216
102
RTVSPost2010PropOp51
 70
     0
102
RTVSPost2010Prop52
140
1.0
102
RTVSPost2010PropOp52
 70
     0
102
RTVSPost2010Prop53
 90
        2
102
RTVSPost2010PropOp53
 70
     1
102
RTVSPost2010Prop54
  1
strokes_ogs.tif
102
RTVSPost2010PropOp54
 70
     1
102
RTVSPost2010Prop55
280
     0
102
RTVSPost2010PropOp55
 70
     1
102
RTVSPost2010Prop56
140
1.0
102
RTVSPost2010PropOp56
 70
     1
102
RTVSPost2010Prop57
140
1.0
102
RTVSPost2010PropOp57
 70
     1
  0
XRECORD
  5
1B9
102
{ACAD_REACTORS
330
1B8
102
}
330
1B8
100
AcDbXrecord
280
     1
102
RTVSPost2010Prop28
280
     0
102
RTVSPost2010PropOp28
 70
     1
102
RTVSPost2010Prop29
280
     1
102
RTVSPost2010PropOp29
 70
     1
102
RTVSPost2010Prop30
280
     1
102
RTVSPost2010PropOp30
 70
     1
102
RTVSPost2010Prop31
280
     0
102
RTVSPost2010PropOp31
 70
     1
102
RTVSPost2010Prop32
280
     0
102
RTVSPost2010PropOp32
 70
     1
102
RTVSPost2010Prop33
280
     0
102
RTVSPost2010PropOp33
 70
     1
102
RTVSPost2010Prop34
280
     0
102
RTVSPost2010PropOp34
 70
     1
102
RTVSPost2010Prop35
280
     0
102
RTVSPost2010PropOp35
 70
     1
102
RTVSPost2010Prop36
280
     0
102
RTVSPost2010PropOp36
 70
     1
102
RTVSPost2010Prop37
 90
       50
102
RTVSPost2010PropOp37
 70
     1
102
RTVSPost2010Prop38
140
0.0
102
RTVSPost2010PropOp38
 70
     1
102
RTVSPost2010Prop39
140
1.0
102
RTVSPost2010PropOp39
 70
     1
102
RTVSPost2010Prop40
 90
        0
102
RTVSPost2010PropOp40
 70
     1
102
RTVSPost2010Prop41ColorIndex
 90
       18
102
RTVSPost2010Prop41ColorRGB
 90
        0
102
RTVSPost2010PropOp41
 70
     1
102
RTVSPost2010Prop42
 90
       50
102
RTVSPost2010PropOp42
 70
     1
102
RTVSPost2010Prop43
 90
        3
102
RTVSPost2010PropOp43
 70
     1
102
RTVSPost2010Prop44ColorIndex
 90
        5
102
RTVSPost2010Prop44ColorRGB
 90
      255
102
RTVSPost2010PropOp44
 70
     1
102
RTVSPost2010Prop45
280
     0
102
RTVSPost2010PropOp45
 70
     1
102
RTVSPost2010Prop46
 90
       50
102
RTVSPost2010PropOp46
 70
     1
102
RTVSPost2010Prop47
 90
       50
102
RTVSPost2010PropOp47
 70
     1
102
RTVSPost2010Prop48
 90
       50
102
RTVSPost2010PropOp48
 70
     1
102
RTVSPost2010Prop49
280
     0
102
RTVSPost2010PropOp49
 70
     1
102
RTVSPost2010Prop50
 90
       50
102
RTVSPost2010PropOp50
 70
     1
102
RTVSPost2010Prop51ColorIndex
 90
      256
102
RTVSPost2010Prop51ColorRGB
 90
-16777216
102
RTVSPost2010PropOp51
 70
     0
102
RTVSPost2010Prop52
140
1.0
102
RTVSPost2010PropOp52
 70
     0
102
RTVSPost2010Prop53
 90
        2
102
RTVSPost2010PropOp53
 70
     1
102
RTVSPost2010Prop54
  1
strokes_ogs.tif
102
RTVSPost2010PropOp54
 70
     1
102
RTVSPost2010Prop55
280
     0
102
RTVSPost2010PropOp55
 70
     1
102
RTVSPost2010Prop56
140
1.0
102
RTVSPost2010PropOp56
 70
     1
102
RTVSPost2010Prop57
140
1.0
102
RTVSPost2010PropOp57
 70
     1
  0
XRECORD
  5
1CD
102
{ACAD_REACTORS
330
1CC
102
}
330
1CC
100
AcDbXrecord
280
     1
102
RTVSPost2010Prop28
280
     0
102
RTVSPost2010PropOp28
 70
     0
102
RTVSPost2010Prop29
280
     1
102
RTVSPost2010PropOp29
 70
     0
102
RTVSPost2010Prop30
280
     1
102
RTVSPost2010PropOp30
 70
     0
102
RTVSPost2010Prop31
280
     0
102
RTVSPost2010PropOp31
 70
     0
102
RTVSPost2010Prop32
280
     0
102
RTVSPost2010PropOp32
 70
     0
102
RTVSPost2010Prop33
280
     0
102
RTVSPost2010PropOp33
 70
     0
102
RTVSPost2010Prop34
280
     0
102
RTVSPost2010PropOp34
 70
     0
102
RTVSPost2010Prop35
280
     0
102
RTVSPost2010PropOp35
 70
     0
102
RTVSPost2010Prop36
280
     0
102
RTVSPost2010PropOp36
 70
     0
102
RTVSPost2010Prop37
 90
       50
102
RTVSPost2010PropOp37
 70
     0
102
RTVSPost2010Prop38
140
0.0
102
RTVSPost2010PropOp38
 70
     0
102
RTVSPost2010Prop39
140
1.0
102
RTVSPost2010PropOp39
 70
     0
102
RTVSPost2010Prop40
 90
        0
102
RTVSPost2010PropOp40
 70
     0
102
RTVSPost2010Prop41ColorIndex
 90
       18
102
RTVSPost2010Prop41ColorRGB
 90
        0
102
RTVSPost2010PropOp41
 70
     0
102
RTVSPost2010Prop42
 90
       50
102
RTVSPost2010PropOp42
 70
     0
102
RTVSPost2010Prop43
 90
        3
102
RTVSPost2010PropOp43
 70
     0
102
RTVSPost2010Prop44ColorIndex
 90
        5
102
RTVSPost2010Prop44ColorRGB
 90
      255
102
RTVSPost2010PropOp44
 70
     0
102
RTVSPost2010Prop45
280
     0
102
RTVSPost2010PropOp45
 70
     0
102
RTVSPost2010Prop46
 90
       50
102
RTVSPost2010PropOp46
 70
     0
102
RTVSPost2010Prop47
 90
       50
102
RTVSPost2010PropOp47
 70
     0
102
RTVSPost2010Prop48
 90
       50
102
RTVSPost2010PropOp48
 70
     0
102
RTVSPost2010Prop49
280
     0
102
RTVSPost2010PropOp49
 70
     0
102
RTVSPost2010Prop50
 90
       50
102
RTVSPost2010PropOp50
 70
     0
102
RTVSPost2010Prop51ColorIndex
 90
      256
102
RTVSPost2010Prop51ColorRGB
 90
-16777216
102
RTVSPost2010PropOp51
 70
     0
102
RTVSPost2010Prop52
140
1.0
102
RTVSPost2010PropOp52
 70
     0
102
RTVSPost2010Prop53
 90
        2
102
RTVSPost2010PropOp53
 70
     0
102
RTVSPost2010Prop54
  1
strokes_ogs.tif
102
RTVSPost2010PropOp54
 70
     0
102
RTVSPost2010Prop55
280
     0
102
RTVSPost2010PropOp55
 70
     0
102
RTVSPost2010Prop56
140
1.0
102
RTVSPost2010PropOp56
 70
     0
102
RTVSPost2010Prop57
140
1.0
102
RTVSPost2010PropOp57
 70
     0
  0
XRECORD
  5
1C7
102
{ACAD_REACTORS
330
1C6
102
}
330
1C6
100
AcDbXrecord
280
     1
102
RTVSPost2010Prop28
280
     0
102
RTVSPost2010PropOp28
 70
     1
102
RTVSPost2010Prop29
280
     1
102
RTVSPost2010PropOp29
 70
     1
102
RTVSPost2010Prop30
280
     1
102
RTVSPost2010PropOp30
 70
     1
102
RTVSPost2010Prop31
280
     0
102
RTVSPost2010PropOp31
 70
     1
102
RTVSPost2010Prop32
280
     0
102
RTVSPost2010PropOp32
 70
     1
102
RTVSPost2010Prop33
280
     0
102
RTVSPost2010PropOp33
 70
     1
102
RTVSPost2010Prop34
280
     0
102
RTVSPost2010PropOp34
 70
     1
102
RTVSPost2010Prop35
280
     0
102
RTVSPost2010PropOp35
 70
     1
102
RTVSPost2010Prop36
280
     0
102
RTVSPost2010PropOp36
 70
     1
102
RTVSPost2010Prop37
 90
       50
102
RTVSPost2010PropOp37
 70
     1
102
RTVSPost2010Prop38
140
0.0
102
RTVSPost2010PropOp38
 70
     1
102
RTVSPost2010Prop39
140
1.0
102
RTVSPost2010PropOp39
 70
     1
102
RTVSPost2010Prop40
 90
        0
102
RTVSPost2010PropOp40
 70
     1
102
RTVSPost2010Prop41ColorIndex
 90
       18
102
RTVSPost2010Prop41ColorRGB
 90
        0
102
RTVSPost2010PropOp41
 70
     1
102
RTVSPost2010Prop42
 90
       50
102
RTVSPost2010PropOp42
 70
     1
102
RTVSPost2010Prop43
 90
        3
102
RTVSPost2010PropOp43
 70
     1
102
RTVSPost2010Prop44ColorIndex
 90
        5
102
RTVSPost2010Prop44ColorRGB
 90
      255
102
RTVSPost2010PropOp44
 70
     1
102
RTVSPost2010Prop45
280
     0
102
RTVSPost2010PropOp45
 70
     1
102
RTVSPost2010Prop46
 90
       50
102
RTVSPost2010PropOp46
 70
     1
102
RTVSPost2010Prop47
 90
       50
102
RTVSPost2010PropOp47
 70
     1
102
RTVSPost2010Prop48
 90
       50
102
RTVSPost2010PropOp48
 70
     1
102
RTVSPost2010Prop49
280
     0
102
RTVSPost2010PropOp49
 70
     1
102
RTVSPost2010Prop50
 90
       50
102
RTVSPost2010PropOp50
 70
     1
102
RTVSPost2010Prop51ColorIndex
 90
      256
102
RTVSPost2010Prop51ColorRGB
 90
-16777216
102
RTVSPost2010PropOp51
 70
     0
102
RTVSPost2010Prop52
140
1.0
102
RTVSPost2010PropOp52
 70
     0
102
RTVSPost2010Prop53
 90
        2
102
RTVSPost2010PropOp53
 70
     1
102
RTVSPost2010Prop54
  1
strokes_ogs.tif
102
RTVSPost2010PropOp54
 70
     1
102
RTVSPost2010Prop55
280
     0
102
RTVSPost2010PropOp55
 70
     1
102
RTVSPost2010Prop56
140
1.0
102
RTVSPost2010PropOp56
 70
     1
102
RTVSPost2010Prop57
140
1.0
102
RTVSPost2010PropOp57
 70
     1
  0
XRECORD
  5
1CF
102
{ACAD_REACTORS
330
1CE
102
}
330
1CE
100
AcDbXrecord
280
     1
102
RTVSPost2010Prop28
280
     0
102
RTVSPost2010PropOp28
 70
     0
102
RTVSPost2010Prop29
280
     1
102
RTVSPost2010PropOp29
 70
     0
102
RTVSPost2010Prop30
280
     1
102
RTVSPost2010PropOp30
 70
     0
102
RTVSPost2010Prop31
280
     0
102
RTVSPost2010PropOp31
 70
     0
102
RTVSPost2010Prop32
280
     0
102
RTVSPost2010PropOp32
 70
     0
102
RTVSPost2010Prop33
280
     0
102
RTVSPost2010PropOp33
 70
     0
102
RTVSPost2010Prop34
280
     0
102
RTVSPost2010PropOp34
 70
     0
102
RTVSPost2010Prop35
280
     0
102
RTVSPost2010PropOp35
 70
     0
102
RTVSPost2010Prop36
280
     0
102
RTVSPost2010PropOp36
 70
     0
102
RTVSPost2010Prop37
 90
       50
102
RTVSPost2010PropOp37
 70
     0
102
RTVSPost2010Prop38
140
0.0
102
RTVSPost2010PropOp38
 70
     0
102
RTVSPost2010Prop39
140
1.0
102
RTVSPost2010PropOp39
 70
     0
102
RTVSPost2010Prop40
 90
        0
102
RTVSPost2010PropOp40
 70
     0
102
RTVSPost2010Prop41ColorIndex
 90
       18
102
RTVSPost2010Prop41ColorRGB
 90
        0
102
RTVSPost2010PropOp41
 70
     0
102
RTVSPost2010Prop42
 90
       50
102
RTVSPost2010PropOp42
 70
     0
102
RTVSPost2010Prop43
 90
        3
102
RTVSPost2010PropOp43
 70
     0
102
RTVSPost2010Prop44ColorIndex
 90
        5
102
RTVSPost2010Prop44ColorRGB
 90
      255
102
RTVSPost2010PropOp44
 70
     0
102
RTVSPost2010Prop45
280
     0
102
RTVSPost2010PropOp45
 70
     0
102
RTVSPost2010Prop46
 90
       50
102
RTVSPost2010PropOp46
 70
     0
102
RTVSPost2010Prop47
 90
       50
102
RTVSPost2010PropOp47
 70
     0
102
RTVSPost2010Prop48
 90
       50
102
RTVSPost2010PropOp48
 70
     0
102
RTVSPost2010Prop49
280
     0
102
RTVSPost2010PropOp49
 70
     0
102
RTVSPost2010Prop50
 90
       50
102
RTVSPost2010PropOp50
 70
     0
102
RTVSPost2010Prop51ColorIndex
 90
      256
102
RTVSPost2010Prop51ColorRGB
 90
-16777216
102
RTVSPost2010PropOp51
 70
     0
102
RTVSPost2010Prop52
140
1.0
102
RTVSPost2010PropOp52
 70
     0
102
RTVSPost2010Prop53
 90
        2
102
RTVSPost2010PropOp53
 70
     0
102
RTVSPost2010Prop54
  1
strokes_ogs.tif
102
RTVSPost2010PropOp54
 70
     0
102
RTVSPost2010Prop55
280
     0
102
RTVSPost2010PropOp55
 70
     0
102
RTVSPost2010Prop56
140
1.0
102
RTVSPost2010PropOp56
 70
     0
102
RTVSPost2010Prop57
140
1.0
102
RTVSPost2010PropOp57
 70
     0
  0
XRECORD
  5
1BD
102
{ACAD_REACTORS
330
1BC
102
}
330
1BC
100
AcDbXrecord
280
     1
102
RTVSPost2010Prop28
280
     0
102
RTVSPost2010PropOp28
 70
     1
102
RTVSPost2010Prop29
280
     1
102
RTVSPost2010PropOp29
 70
     1
102
RTVSPost2010Prop30
280
     1
102
RTVSPost2010PropOp30
 70
     1
102
RTVSPost2010Prop31
280
     0
102
RTVSPost2010PropOp31
 70
     1
102
RTVSPost2010Prop32
280
     0
102
RTVSPost2010PropOp32
 70
     1
102
RTVSPost2010Prop33
280
     0
102
RTVSPost2010PropOp33
 70
     1
102
RTVSPost2010Prop34
280
     0
102
RTVSPost2010PropOp34
 70
     1
102
RTVSPost2010Prop35
280
     0
102
RTVSPost2010PropOp35
 70
     1
102
RTVSPost2010Prop36
280
     0
102
RTVSPost2010PropOp36
 70
     1
102
RTVSPost2010Prop37
 90
       50
102
RTVSPost2010PropOp37
 70
     1
102
RTVSPost2010Prop38
140
0.0
102
RTVSPost2010PropOp38
 70
     1
102
RTVSPost2010Prop39
140
1.0
102
RTVSPost2010PropOp39
 70
     1
102
RTVSPost2010Prop40
 90
        0
102
RTVSPost2010PropOp40
 70
     1
102
RTVSPost2010Prop41ColorIndex
 90
       18
102
RTVSPost2010Prop41ColorRGB
 90
        0
102
RTVSPost2010PropOp41
 70
     1
102
RTVSPost2010Prop42
 90
       50
102
RTVSPost2010PropOp42
 70
     1
102
RTVSPost2010Prop43
 90
        3
102
RTVSPost2010PropOp43
 70
     1
102
RTVSPost2010Prop44ColorIndex
 90
        5
102
RTVSPost2010Prop44ColorRGB
 90
      255
102
RTVSPost2010PropOp44
 70
     1
102
RTVSPost2010Prop45
280
     0
102
RTVSPost2010PropOp45
 70
     1
102
RTVSPost2010Prop46
 90
       50
102
RTVSPost2010PropOp46
 70
     1
102
RTVSPost2010Prop47
 90
       50
102
RTVSPost2010PropOp47
 70
     1
102
RTVSPost2010Prop48
 90
       50
102
RTVSPost2010PropOp48
 70
     1
102
RTVSPost2010Prop49
280
     0
102
RTVSPost2010PropOp49
 70
     1
102
RTVSPost2010Prop50
 90
       50
102
RTVSPost2010PropOp50
 70
     1
102
RTVSPost2010Prop51ColorIndex
 90
      256
102
RTVSPost2010Prop51ColorRGB
 90
-16777216
102
RTVSPost2010PropOp51
 70
     0
102
RTVSPost2010Prop52
140
1.0
102
RTVSPost2010PropOp52
 70
     0
102
RTVSPost2010Prop53
 90
        2
102
RTVSPost2010PropOp53
 70
     1
102
RTVSPost2010Prop54
  1
strokes_ogs.tif
102
RTVSPost2010PropOp54
 70
     1
102
RTVSPost2010Prop55
280
     0
102
RTVSPost2010PropOp55
 70
     1
102
RTVSPost2010Prop56
140
1.0
102
RTVSPost2010PropOp56
 70
     1
102
RTVSPost2010Prop57
140
1.0
102
RTVSPost2010PropOp57
 70
     1
  0
XRECORD
  5
1DB
102
{ACAD_REACTORS
330
1DA
102
}
330
1DA
100
AcDbXrecord
280
     1
102
RTVSPost2010Prop28
280
     0
102
RTVSPost2010PropOp28
 70
     1
102
RTVSPost2010Prop29
280
     1
102
RTVSPost2010PropOp29
 70
     1
102
RTVSPost2010Prop30
280
     1
102
RTVSPost2010PropOp30
 70
     1
102
RTVSPost2010Prop31
280
     0
102
RTVSPost2010PropOp31
 70
     1
102
RTVSPost2010Prop32
280
     0
102
RTVSPost2010PropOp32
 70
     1
102
RTVSPost2010Prop33
280
     0
102
RTVSPost2010PropOp33
 70
     1
102
RTVSPost2010Prop34
280
     0
102
RTVSPost2010PropOp34
 70
     1
102
RTVSPost2010Prop35
280
     0
102
RTVSPost2010PropOp35
 70
     1
102
RTVSPost2010Prop36
280
     0
102
RTVSPost2010PropOp36
 70
     1
102
RTVSPost2010Prop37
 90
       50
102
RTVSPost2010PropOp37
 70
     1
102
RTVSPost2010Prop38
140
0.0
102
RTVSPost2010PropOp38
 70
     1
102
RTVSPost2010Prop39
140
1.0
102
RTVSPost2010PropOp39
 70
     1
102
RTVSPost2010Prop40
 90
        0
102
RTVSPost2010PropOp40
 70
     1
102
RTVSPost2010Prop41ColorIndex
 90
       18
102
RTVSPost2010Prop41ColorRGB
 90
        0
102
RTVSPost2010PropOp41
 70
     1
102
RTVSPost2010Prop42
 90
       50
102
RTVSPost2010PropOp42
 70
     1
102
RTVSPost2010Prop43
 90
        3
102
RTVSPost2010PropOp43
 70
     1
102
RTVSPost2010Prop44ColorIndex
 90
        5
102
RTVSPost2010Prop44ColorRGB
 90
      255
102
RTVSPost2010PropOp44
 70
     1
102
RTVSPost2010Prop45
280
     0
102
RTVSPost2010PropOp45
 70
     1
102
RTVSPost2010Prop46
 90
       50
102
RTVSPost2010PropOp46
 70
     1
102
RTVSPost2010Prop47
 90
       50
102
RTVSPost2010PropOp47
 70
     1
102
RTVSPost2010Prop48
 90
       50
102
RTVSPost2010PropOp48
 70
     1
102
RTVSPost2010Prop49
280
     0
102
RTVSPost2010PropOp49
 70
     1
102
RTVSPost2010Prop50
 90
       50
102
RTVSPost2010PropOp50
 70
     1
102
RTVSPost2010Prop51ColorIndex
 90
      256
102
RTVSPost2010Prop51ColorRGB
 90
-16777216
102
RTVSPost2010PropOp51
 70
     0
102
RTVSPost2010Prop52
140
1.0
102
RTVSPost2010PropOp52
 70
     0
102
RTVSPost2010Prop53
 90
        2
102
RTVSPost2010PropOp53
 70
     1
102
RTVSPost2010Prop54
  1
strokes_ogs.tif
102
RTVSPost2010PropOp54
 70
     1
102
RTVSPost2010Prop55
280
     0
102
RTVSPost2010PropOp55
 70
     1
102
RTVSPost2010Prop56
140
1.0
102
RTVSPost2010PropOp56
 70
     1
102
RTVSPost2010Prop57
140
1.0
102
RTVSPost2010PropOp57
 70
     1
  0
XRECORD
  5
1D9
102
{ACAD_REACTORS
330
1D8
102
}
330
1D8
100
AcDbXrecord
280
     1
102
RTVSPost2010Prop28
280
     0
102
RTVSPost2010PropOp28
 70
     1
102
RTVSPost2010Prop29
280
     1
102
RTVSPost2010PropOp29
 70
     1
102
RTVSPost2010Prop30
280
     1
102
RTVSPost2010PropOp30
 70
     1
102
RTVSPost2010Prop31
280
     0
102
RTVSPost2010PropOp31
 70
     1
102
RTVSPost2010Prop32
280
     0
102
RTVSPost2010PropOp32
 70
     1
102
RTVSPost2010Prop33
280
     0
102
RTVSPost2010PropOp33
 70
     1
102
RTVSPost2010Prop34
280
     0
102
RTVSPost2010PropOp34
 70
     1
102
RTVSPost2010Prop35
280
     0
102
RTVSPost2010PropOp35
 70
     1
102
RTVSPost2010Prop36
280
     0
102
RTVSPost2010PropOp36
 70
     1
102
RTVSPost2010Prop37
 90
       50
102
RTVSPost2010PropOp37
 70
     1
102
RTVSPost2010Prop38
140
0.0
102
RTVSPost2010PropOp38
 70
     1
102
RTVSPost2010Prop39
140
1.0
102
RTVSPost2010PropOp39
 70
     1
102
RTVSPost2010Prop40
 90
        0
102
RTVSPost2010PropOp40
 70
     1
102
RTVSPost2010Prop41ColorIndex
 90
       18
102
RTVSPost2010Prop41ColorRGB
 90
        0
102
RTVSPost2010PropOp41
 70
     1
102
RTVSPost2010Prop42
 90
       50
102
RTVSPost2010PropOp42
 70
     1
102
RTVSPost2010Prop43
 90
        3
102
RTVSPost2010PropOp43
 70
     1
102
RTVSPost2010Prop44ColorIndex
 90
        5
102
RTVSPost2010Prop44ColorRGB
 90
      255
102
RTVSPost2010PropOp44
 70
     1
102
RTVSPost2010Prop45
280
     0
102
RTVSPost2010PropOp45
 70
     1
102
RTVSPost2010Prop46
 90
       50
102
RTVSPost2010PropOp46
 70
     1
102
RTVSPost2010Prop47
 90
       50
102
RTVSPost2010PropOp47
 70
     1
102
RTVSPost2010Prop48
 90
       50
102
RTVSPost2010PropOp48
 70
     1
102
RTVSPost2010Prop49
280
     0
102
RTVSPost2010PropOp49
 70
     1
102
RTVSPost2010Prop50
 90
       50
102
RTVSPost2010PropOp50
 70
     1
102
RTVSPost2010Prop51ColorIndex
 90
      256
102
RTVSPost2010Prop51ColorRGB
 90
-16777216
102
RTVSPost2010PropOp51
 70
     0
102
RTVSPost2010Prop52
140
1.0
102
RTVSPost2010PropOp52
 70
     0
102
RTVSPost2010Prop53
 90
        2
102
RTVSPost2010PropOp53
 70
     1
102
RTVSPost2010Prop54
  1
strokes_ogs.tif
102
RTVSPost2010PropOp54
 70
     1
102
RTVSPost2010Prop55
280
     0
102
RTVSPost2010PropOp55
 70
     1
102
RTVSPost2010Prop56
140
1.0
102
RTVSPost2010PropOp56
 70
     1
102
RTVSPost2010Prop57
140
1.0
102
RTVSPost2010PropOp57
 70
     1
  0
XRECORD
  5
1D3
102
{ACAD_REACTORS
330
1D2
102
}
330
1D2
100
AcDbXrecord
280
     1
102
RTVSPost2010Prop28
280
     0
102
RTVSPost2010PropOp28
 70
     1
102
RTVSPost2010Prop29
280
     1
102
RTVSPost2010PropOp29
 70
     1
102
RTVSPost2010Prop30
280
     1
102
RTVSPost2010PropOp30
 70
     1
102
RTVSPost2010Prop31
280
     0
102
RTVSPost2010PropOp31
 70
     1
102
RTVSPost2010Prop32
280
     0
102
RTVSPost2010PropOp32
 70
     1
102
RTVSPost2010Prop33
280
     0
102
RTVSPost2010PropOp33
 70
     1
102
RTVSPost2010Prop34
280
     0
102
RTVSPost2010PropOp34
 70
     1
102
RTVSPost2010Prop35
280
     0
102
RTVSPost2010PropOp35
 70
     1
102
RTVSPost2010Prop36
280
     0
102
RTVSPost2010PropOp36
 70
     1
102
RTVSPost2010Prop37
 90
       50
102
RTVSPost2010PropOp37
 70
     1
102
RTVSPost2010Prop38
140
0.0
102
RTVSPost2010PropOp38
 70
     1
102
RTVSPost2010Prop39
140
1.0
102
RTVSPost2010PropOp39
 70
     1
102
RTVSPost2010Prop40
 90
        0
102
RTVSPost2010PropOp40
 70
     1
102
RTVSPost2010Prop41ColorIndex
 90
       18
102
RTVSPost2010Prop41ColorRGB
 90
        0
102
RTVSPost2010PropOp41
 70
     1
102
RTVSPost2010Prop42
 90
       50
102
RTVSPost2010PropOp42
 70
     1
102
RTVSPost2010Prop43
 90
        3
102
RTVSPost2010PropOp43
 70
     1
102
RTVSPost2010Prop44ColorIndex
 90
        5
102
RTVSPost2010Prop44ColorRGB
 90
      255
102
RTVSPost2010PropOp44
 70
     1
102
RTVSPost2010Prop45
280
     0
102
RTVSPost2010PropOp45
 70
     1
102
RTVSPost2010Prop46
 90
       50
102
RTVSPost2010PropOp46
 70
     1
102
RTVSPost2010Prop47
 90
       50
102
RTVSPost2010PropOp47
 70
     1
102
RTVSPost2010Prop48
 90
       50
102
RTVSPost2010PropOp48
 70
     1
102
RTVSPost2010Prop49
280
     0
102
RTVSPost2010PropOp49
 70
     1
102
RTVSPost2010Prop50
 90
       50
102
RTVSPost2010PropOp50
 70
     1
102
RTVSPost2010Prop51ColorIndex
 90
      256
102
RTVSPost2010Prop51ColorRGB
 90
-16777216
102
RTVSPost2010PropOp51
 70
     0
102
RTVSPost2010Prop52
140
1.0
102
RTVSPost2010PropOp52
 70
     0
102
RTVSPost2010Prop53
 90
        2
102
RTVSPost2010PropOp53
 70
     1
102
RTVSPost2010Prop54
  1
strokes_ogs.tif
102
RTVSPost2010PropOp54
 70
     1
102
RTVSPost2010Prop55
280
     0
102
RTVSPost2010PropOp55
 70
     1
102
RTVSPost2010Prop56
140
1.0
102
RTVSPost2010PropOp56
 70
     1
102
RTVSPost2010Prop57
140
1.0
102
RTVSPost2010PropOp57
 70
     1
  0
XRECORD
  5
1D5
102
{ACAD_REACTORS
330
1D4
102
}
330
1D4
100
AcDbXrecord
280
     1
102
RTVSPost2010Prop28
280
     0
102
RTVSPost2010PropOp28
 70
     1
102
RTVSPost2010Prop29
280
     1
102
RTVSPost2010PropOp29
 70
     1
102
RTVSPost2010Prop30
280
     1
102
RTVSPost2010PropOp30
 70
     1
102
RTVSPost2010Prop31
280
     0
102
RTVSPost2010PropOp31
 70
     1
102
RTVSPost2010Prop32
280
     0
102
RTVSPost2010PropOp32
 70
     1
102
RTVSPost2010Prop33
280
     0
102
RTVSPost2010PropOp33
 70
     1
102
RTVSPost2010Prop34
280
     0
102
RTVSPost2010PropOp34
 70
     1
102
RTVSPost2010Prop35
280
     0
102
RTVSPost2010PropOp35
 70
     1
102
RTVSPost2010Prop36
280
     0
102
RTVSPost2010PropOp36
 70
     1
102
RTVSPost2010Prop37
 90
       50
102
RTVSPost2010PropOp37
 70
     1
102
RTVSPost2010Prop38
140
0.0
102
RTVSPost2010PropOp38
 70
     1
102
RTVSPost2010Prop39
140
1.0
102
RTVSPost2010PropOp39
 70
     1
102
RTVSPost2010Prop40
 90
        0
102
RTVSPost2010PropOp40
 70
     1
102
RTVSPost2010Prop41ColorIndex
 90
       18
102
RTVSPost2010Prop41ColorRGB
 90
        0
102
RTVSPost2010PropOp41
 70
     1
102
RTVSPost2010Prop42
 90
       50
102
RTVSPost2010PropOp42
 70
     1
102
RTVSPost2010Prop43
 90
        3
102
RTVSPost2010PropOp43
 70
     1
102
RTVSPost2010Prop44ColorIndex
 90
        5
102
RTVSPost2010Prop44ColorRGB
 90
      255
102
RTVSPost2010PropOp44
 70
     1
102
RTVSPost2010Prop45
280
     0
102
RTVSPost2010PropOp45
 70
     1
102
RTVSPost2010Prop46
 90
       50
102
RTVSPost2010PropOp46
 70
     1
102
RTVSPost2010Prop47
 90
       50
102
RTVSPost2010PropOp47
 70
     1
102
RTVSPost2010Prop48
 90
       50
102
RTVSPost2010PropOp48
 70
     1
102
RTVSPost2010Prop49
280
     0
102
RTVSPost2010PropOp49
 70
     1
102
RTVSPost2010Prop50
 90
       50
102
RTVSPost2010PropOp50
 70
     1
102
RTVSPost2010Prop51ColorIndex
 90
      256
102
RTVSPost2010Prop51ColorRGB
 90
-16777216
102
RTVSPost2010PropOp51
 70
     0
102
RTVSPost2010Prop52
140
1.0
102
RTVSPost2010PropOp52
 70
     0
102
RTVSPost2010Prop53
 90
        2
102
RTVSPost2010PropOp53
 70
     1
102
RTVSPost2010Prop54
  1
strokes_ogs.tif
102
RTVSPost2010PropOp54
 70
     1
102
RTVSPost2010Prop55
280
     0
102
RTVSPost2010PropOp55
 70
     1
102
RTVSPost2010Prop56
140
1.0
102
RTVSPost2010PropOp56
 70
     1
102
RTVSPost2010Prop57
140
1.0
102
RTVSPost2010PropOp57
 70
     1
  0
XRECORD
  5
1C5
102
{ACAD_REACTORS
330
1C4
102
}
330
1C4
100
AcDbXrecord
280
     1
102
RTVSPost2010Prop28
280
     0
102
RTVSPost2010PropOp28
 70
     1
102
RTVSPost2010Prop29
280
     1
102
RTVSPost2010PropOp29
 70
     1
102
RTVSPost2010Prop30
280
     1
102
RTVSPost2010PropOp30
 70
     1
102
RTVSPost2010Prop31
280
     0
102
RTVSPost2010PropOp31
 70
     1
102
RTVSPost2010Prop32
280
     0
102
RTVSPost2010PropOp32
 70
     1
102
RTVSPost2010Prop33
280
     0
102
RTVSPost2010PropOp33
 70
     1
102
RTVSPost2010Prop34
280
     0
102
RTVSPost2010PropOp34
 70
     1
102
RTVSPost2010Prop35
280
     0
102
RTVSPost2010PropOp35
 70
     1
102
RTVSPost2010Prop36
280
     0
102
RTVSPost2010PropOp36
 70
     1
102
RTVSPost2010Prop37
 90
       50
102
RTVSPost2010PropOp37
 70
     1
102
RTVSPost2010Prop38
140
0.0
102
RTVSPost2010PropOp38
 70
     1
102
RTVSPost2010Prop39
140
1.0
102
RTVSPost2010PropOp39
 70
     1
102
RTVSPost2010Prop40
 90
        0
102
RTVSPost2010PropOp40
 70
     1
102
RTVSPost2010Prop41ColorIndex
 90
       18
102
RTVSPost2010Prop41ColorRGB
 90
        0
102
RTVSPost2010PropOp41
 70
     1
102
RTVSPost2010Prop42
 90
       50
102
RTVSPost2010PropOp42
 70
     1
102
RTVSPost2010Prop43
 90
        3
102
RTVSPost2010PropOp43
 70
     1
102
RTVSPost2010Prop44ColorIndex
 90
        5
102
RTVSPost2010Prop44ColorRGB
 90
      255
102
RTVSPost2010PropOp44
 70
     1
102
RTVSPost2010Prop45
280
     0
102
RTVSPost2010PropOp45
 70
     1
102
RTVSPost2010Prop46
 90
       50
102
RTVSPost2010PropOp46
 70
     1
102
RTVSPost2010Prop47
 90
       50
102
RTVSPost2010PropOp47
 70
     1
102
RTVSPost2010Prop48
 90
       50
102
RTVSPost2010PropOp48
 70
     1
102
RTVSPost2010Prop49
280
     0
102
RTVSPost2010PropOp49
 70
     1
102
RTVSPost2010Prop50
 90
       50
102
RTVSPost2010PropOp50
 70
     1
102
RTVSPost2010Prop51ColorIndex
 90
      256
102
RTVSPost2010Prop51ColorRGB
 90
-16777216
102
RTVSPost2010PropOp51
 70
     0
102
RTVSPost2010Prop52
140
1.0
102
RTVSPost2010PropOp52
 70
     0
102
RTVSPost2010Prop53
 90
        2
102
RTVSPost2010PropOp53
 70
     1
102
RTVSPost2010Prop54
  1
strokes_ogs.tif
102
RTVSPost2010PropOp54
 70
     1
102
RTVSPost2010Prop55
280
     0
102
RTVSPost2010PropOp55
 70
     1
102
RTVSPost2010Prop56
140
1.0
102
RTVSPost2010PropOp56
 70
     1
102
RTVSPost2010Prop57
140
1.0
102
RTVSPost2010PropOp57
 70
     1
  0
XRECORD
  5
1B7
102
{ACAD_REACTORS
330
1B6
102
}
330
1B6
100
AcDbXrecord
280
     1
102
RTVSPost2010Prop28
280
     0
102
RTVSPost2010PropOp28
 70
     1
102
RTVSPost2010Prop29
280
     1
102
RTVSPost2010PropOp29
 70
     1
102
RTVSPost2010Prop30
280
     1
102
RTVSPost2010PropOp30
 70
     1
102
RTVSPost2010Prop31
280
     0
102
RTVSPost2010PropOp31
 70
     1
102
RTVSPost2010Prop32
280
     0
102
RTVSPost2010PropOp32
 70
     1
102
RTVSPost2010Prop33
280
     0
102
RTVSPost2010PropOp33
 70
     1
102
RTVSPost2010Prop34
280
     0
102
RTVSPost2010PropOp34
 70
     1
102
RTVSPost2010Prop35
280
     0
102
RTVSPost2010PropOp35
 70
     1
102
RTVSPost2010Prop36
280
     0
102
RTVSPost2010PropOp36
 70
     1
102
RTVSPost2010Prop37
 90
       50
102
RTVSPost2010PropOp37
 70
     1
102
RTVSPost2010Prop38
140
0.0
102
RTVSPost2010PropOp38
 70
     1
102
RTVSPost2010Prop39
140
1.0
102
RTVSPost2010PropOp39
 70
     1
102
RTVSPost2010Prop40
 90
        0
102
RTVSPost2010PropOp40
 70
     1
102
RTVSPost2010Prop41ColorIndex
 90
       18
102
RTVSPost2010Prop41ColorRGB
 90
        0
102
RTVSPost2010PropOp41
 70
     1
102
RTVSPost2010Prop42
 90
       50
102
RTVSPost2010PropOp42
 70
     1
102
RTVSPost2010Prop43
 90
        3
102
RTVSPost2010PropOp43
 70
     1
102
RTVSPost2010Prop44ColorIndex
 90
        5
102
RTVSPost2010Prop44ColorRGB
 90
      255
102
RTVSPost2010PropOp44
 70
     1
102
RTVSPost2010Prop45
280
     0
102
RTVSPost2010PropOp45
 70
     1
102
RTVSPost2010Prop46
 90
       50
102
RTVSPost2010PropOp46
 70
     1
102
RTVSPost2010Prop47
 90
       50
102
RTVSPost2010PropOp47
 70
     1
102
RTVSPost2010Prop48
 90
       50
102
RTVSPost2010PropOp48
 70
     1
102
RTVSPost2010Prop49
280
     0
102
RTVSPost2010PropOp49
 70
     1
102
RTVSPost2010Prop50
 90
       50
102
RTVSPost2010PropOp50
 70
     1
102
RTVSPost2010Prop51ColorIndex
 90
      256
102
RTVSPost2010Prop51ColorRGB
 90
-16777216
102
RTVSPost2010PropOp51
 70
     0
102
RTVSPost2010Prop52
140
1.0
102
RTVSPost2010PropOp52
 70
     0
102
RTVSPost2010Prop53
 90
        2
102
RTVSPost2010PropOp53
 70
     1
102
RTVSPost2010Prop54
  1
strokes_ogs.tif
102
RTVSPost2010PropOp54
 70
     1
102
RTVSPost2010Prop55
280
     0
102
RTVSPost2010PropOp55
 70
     1
102
RTVSPost2010Prop56
140
1.0
102
RTVSPost2010PropOp56
 70
     1
102
RTVSPost2010Prop57
140
1.0
102
RTVSPost2010PropOp57
 70
     1
  0
XRECORD
  5
1D7
102
{ACAD_REACTORS
330
1D6
102
}
330
1D6
100
AcDbXrecord
280
     1
102
RTVSPost2010Prop28
280
     0
102
RTVSPost2010PropOp28
 70
     1
102
RTVSPost2010Prop29
280
     1
102
RTVSPost2010PropOp29
 70
     1
102
RTVSPost2010Prop30
280
     1
102
RTVSPost2010PropOp30
 70
     1
102
RTVSPost2010Prop31
280
     0
102
RTVSPost2010PropOp31
 70
     1
102
RTVSPost2010Prop32
280
     0
102
RTVSPost2010PropOp32
 70
     1
102
RTVSPost2010Prop33
280
     0
102
RTVSPost2010PropOp33
 70
     1
102
RTVSPost2010Prop34
280
     0
102
RTVSPost2010PropOp34
 70
     1
102
RTVSPost2010Prop35
280
     0
102
RTVSPost2010PropOp35
 70
     1
102
RTVSPost2010Prop36
280
     0
102
RTVSPost2010PropOp36
 70
     1
102
RTVSPost2010Prop37
 90
       50
102
RTVSPost2010PropOp37
 70
     1
102
RTVSPost2010Prop38
140
0.0
102
RTVSPost2010PropOp38
 70
     1
102
RTVSPost2010Prop39
140
1.0
102
RTVSPost2010PropOp39
 70
     1
102
RTVSPost2010Prop40
 90
        0
102
RTVSPost2010PropOp40
 70
     1
102
RTVSPost2010Prop41ColorIndex
 90
       18
102
RTVSPost2010Prop41ColorRGB
 90
        0
102
RTVSPost2010PropOp41
 70
     1
102
RTVSPost2010Prop42
 90
       50
102
RTVSPost2010PropOp42
 70
     1
102
RTVSPost2010Prop43
 90
        3
102
RTVSPost2010PropOp43
 70
     1
102
RTVSPost2010Prop44ColorIndex
 90
        5
102
RTVSPost2010Prop44ColorRGB
 90
      255
102
RTVSPost2010PropOp44
 70
     1
102
RTVSPost2010Prop45
280
     0
102
RTVSPost2010PropOp45
 70
     1
102
RTVSPost2010Prop46
 90
       50
102
RTVSPost2010PropOp46
 70
     1
102
RTVSPost2010Prop47
 90
       50
102
RTVSPost2010PropOp47
 70
     1
102
RTVSPost2010Prop48
 90
       50
102
RTVSPost2010PropOp48
 70
     1
102
RTVSPost2010Prop49
280
     0
102
RTVSPost2010PropOp49
 70
     1
102
RTVSPost2010Prop50
 90
       50
102
RTVSPost2010PropOp50
 70
     1
102
RTVSPost2010Prop51ColorIndex
 90
      256
102
RTVSPost2010Prop51ColorRGB
 90
-16777216
102
RTVSPost2010PropOp51
 70
     0
102
RTVSPost2010Prop52
140
1.0
102
RTVSPost2010PropOp52
 70
     0
102
RTVSPost2010Prop53
 90
        2
102
RTVSPost2010PropOp53
 70
     1
102
RTVSPost2010Prop54
  1
strokes_ogs.tif
102
RTVSPost2010PropOp54
 70
     1
102
RTVSPost2010Prop55
280
     0
102
RTVSPost2010PropOp55
 70
     1
102
RTVSPost2010Prop56
140
1.0
102
RTVSPost2010PropOp56
 70
     1
102
RTVSPost2010Prop57
140
1.0
102
RTVSPost2010PropOp57
 70
     1
  0
ENDSEC
  0
EOF
