  0
SECTION
  2
HEADER
  9
$ACADVER
  1
AC1024
  9
$ACADMAINTVER
 70
     6
  9
$DWGCODEPAGE
  3
ANSI_932
  9
$INSBASE
 10
0.0
 20
0.0
 30
0.0
  9
$EXTMIN
 10
-4455.0
 20
-3150.0
 30
0.0
  9
$EXTMAX
 10
4455.0
 20
3150.0
 30
0.0
  9
$LIMMIN
 10
-4455.0
 20
-3150.0
  9
$LIMMAX
 10
4455.0
 20
3150.0
  9
$ORTHOMODE
 70
     0
  9
$REGENMODE
 70
     1
  9
$FILLMODE
 70
     1
  9
$QTEXTMODE
 70
     0
  9
$MIRRTEXT
 70
     1
  9
$LTSCALE
 40
30.0
  9
$ATTMODE
 70
     1
  9
$TEXTSIZE
 40
2.5
  9
$TRACEWID
 40
1.0
  9
$TEXTSTYLE
  7
Standard
  9
$CLAYER
  8
0
  9
$CELTYPE
  6
ByLayer
  9
$CECOLOR
 62
   256
  9
$CELTSCALE
 40
1.0
  9
$DISPSILH
 70
     0
  9
$DIMSCALE
 40
1.0
  9
$DIMASZ
 40
2.5
  9
$DIMEXO
 40
0.625
  9
$DIMDLI
 40
3.75
  9
$DIMRND
 40
0.0
  9
$DIMDLE
 40
0.0
  9
$DIMEXE
 40
1.25
  9
$DIMTP
 40
0.0
  9
$DIMTM
 40
0.0
  9
$DIMTXT
 40
2.5
  9
$DIMCEN
 40
2.5
  9
$DIMTSZ
 40
0.0
  9
$DIMTOL
 70
     0
  9
$DIMLIM
 70
     0
  9
$DIMTIH
 70
     0
  9
$DIMTOH
 70
     0
  9
$DIMSE1
 70
     0
  9
$DIMSE2
 70
     0
  9
$DIMTAD
 70
     1
  9
$DIMZIN
 70
     8
  9
$DIMBLK
  1

  9
$DIMASO
 70
     1
  9
$DIMSHO
 70
     1
  9
$DIMPOST
  1

  9
$DIMAPOST
  1

  9
$DIMALT
 70
     0
  9
$DIMALTD
 70
     3
  9
$DIMALTF
 40
0.03937007874016
  9
$DIMLFAC
 40
1.0
  9
$DIMTOFL
 70
     1
  9
$DIMTVP
 40
0.0
  9
$DIMTIX
 70
     0
  9
$DIMSOXD
 70
     0
  9
$DIMSAH
 70
     0
  9
$DIMBLK1
  1

  9
$DIMBLK2
  1

  9
$DIMSTYLE
  2
ISO-25
  9
$DIMCLRD
 70
     0
  9
$DIMCLRE
 70
     0
  9
$DIMCLRT
 70
     0
  9
$DIMTFAC
 40
1.0
  9
$DIMGAP
 40
0.625
  9
$DIMJUST
 70
     0
  9
$DIMSD1
 70
     0
  9
$DIMSD2
 70
     0
  9
$DIMTOLJ
 70
     0
  9
$DIMTZIN
 70
     8
  9
$DIMALTZ
 70
     0
  9
$DIMALTTZ
 70
     0
  9
$DIMUPT
 70
     0
  9
$DIMDEC
 70
     2
  9
$DIMTDEC
 70
     2
  9
$DIMALTU
 70
     2
  9
$DIMALTTD
 70
     3
  9
$DIMTXSTY
  7
Standard
  9
$DIMAUNIT
 70
     0
  9
$DIMADEC
 70
     0
  9
$DIMALTRND
 40
0.0
  9
$DIMAZIN
 70
     0
  9
$DIMDSEP
 70
    44
  9
$DIMATFIT
 70
     3
  9
$DIMFRAC
 70
     0
  9
$DIMLDRBLK
  1

  9
$DIMLUNIT
 70
     2
  9
$DIMLWD
 70
    -2
  9
$DIMLWE
 70
    -2
  9
$DIMTMOVE
 70
     0
  9
$DIMFXL
 40
1.0
  9
$DIMFXLON
 70
     0
  9
$DIMJOGANG
 40
0.7853981633974483
  9
$DIMTFILL
 70
     0
  9
$DIMTFILLCLR
 70
     0
  9
$DIMARCSYM
 70
     0
  9
$DIMLTYPE
  6

  9
$DIMLTEX1
  6

  9
$DIMLTEX2
  6

  9
$DIMTXTDIRECTION
 70
     0
  9
$LUNITS
 70
     2
  9
$LUPREC
 70
     4
  9
$SKETCHINC
 40
1.0
  9
$FILLETRAD
 40
10.0
  9
$AUNITS
 70
     0
  9
$AUPREC
 70
     0
  9
$MENU
  1
.
  9
$ELEVATION
 40
0.0
  9
$PELEVATION
 40
0.0
  9
$THICKNESS
 40
0.0
  9
$LIMCHECK
 70
     0
  9
$CHAMFERA
 40
10.0
  9
$CHAMFERB
 40
10.0
  9
$CHAMFERC
 40
20.0
  9
$CHAMFERD
 40
0.0
  9
$SKPOLY
 70
     0
  9
$TDCREATE
 40
2457953.401084039
  9
$TDUCREATE
 40
2457953.026084039
  9
$TDUPDATE
 40
2457953.401084051
  9
$TDUUPDATE
 40
2457953.026084051
  9
$TDINDWG
 40
0.0000000116
  9
$TDUSRTIMER
 40
0.0000000116
  9
$USRTIMER
 70
     1
  9
$ANGBASE
 50
0.0
  9
$ANGDIR
 70
     0
  9
$PDMODE
 70
     0
  9
$PDSIZE
 40
0.0
  9
$PLINEWID
 40
0.0
  9
$SPLFRAME
 70
     0
  9
$SPLINETYPE
 70
     6
  9
$SPLINESEGS
 70
     8
  9
$HANDSEED
  5
3DF
  9
$SURFTAB1
 70
     6
  9
$SURFTAB2
 70
     6
  9
$SURFTYPE
 70
     6
  9
$SURFU
 70
     6
  9
$SURFV
 70
     6
  9
$UCSBASE
  2

  9
$UCSNAME
  2

  9
$UCSORG
 10
0.0
 20
0.0
 30
0.0
  9
$UCSXDIR
 10
1.0
 20
0.0
 30
0.0
  9
$UCSYDIR
 10
0.0
 20
1.0
 30
0.0
  9
$UCSORTHOREF
  2

  9
$UCSORTHOVIEW
 70
     0
  9
$UCSORGTOP
 10
0.0
 20
0.0
 30
0.0
  9
$UCSORGBOTTOM
 10
0.0
 20
0.0
 30
0.0
  9
$UCSORGLEFT
 10
0.0
 20
0.0
 30
0.0
  9
$UCSORGRIGHT
 10
0.0
 20
0.0
 30
0.0
  9
$UCSORGFRONT
 10
0.0
 20
0.0
 30
0.0
  9
$UCSORGBACK
 10
0.0
 20
0.0
 30
0.0
  9
$PUCSBASE
  2

  9
$PUCSNAME
  2

  9
$PUCSORG
 10
0.0
 20
0.0
 30
0.0
  9
$PUCSXDIR
 10
1.0
 20
0.0
 30
0.0
  9
$PUCSYDIR
 10
0.0
 20
1.0
 30
0.0
  9
$PUCSORTHOREF
  2

  9
$PUCSORTHOVIEW
 70
     0
  9
$PUCSORGTOP
 10
0.0
 20
0.0
 30
0.0
  9
$PUCSORGBOTTOM
 10
0.0
 20
0.0
 30
0.0
  9
$PUCSORGLEFT
 10
0.0
 20
0.0
 30
0.0
  9
$PUCSORGRIGHT
 10
0.0
 20
0.0
 30
0.0
  9
$PUCSORGFRONT
 10
0.0
 20
0.0
 30
0.0
  9
$PUCSORGBACK
 10
0.0
 20
0.0
 30
0.0
  9
$USERI1
 70
     0
  9
$USERI2
 70
     0
  9
$USERI3
 70
     0
  9
$USERI4
 70
     0
  9
$USERI5
 70
     0
  9
$USERR1
 40
0.0
  9
$USERR2
 40
0.0
  9
$USERR3
 40
0.0
  9
$USERR4
 40
0.0
  9
$USERR5
 40
0.0
  9
$WORLDVIEW
 70
     1
  9
$SHADEDGE
 70
     3
  9
$SHADEDIF
 70
    70
  9
$TILEMODE
 70
     1
  9
$MAXACTVP
 70
    64
  9
$PINSBASE
 10
0.0
 20
0.0
 30
0.0
  9
$PLIMCHECK
 70
     0
  9
$PEXTMIN
 10
1.000000000000000E+20
 20
1.000000000000000E+20
 30
1.000000000000000E+20
  9
$PEXTMAX
 10
-1.000000000000000E+20
 20
-1.000000000000000E+20
 30
-1.000000000000000E+20
  9
$PLIMMIN
 10
0.0
 20
0.0
  9
$PLIMMAX
 10
420.0
 20
297.0
  9
$UNITMODE
 70
     0
  9
$VISRETAIN
 70
     1
  9
$PLINEGEN
 70
     0
  9
$PSLTSCALE
 70
     1
  9
$TREEDEPTH
 70
  3020
  9
$CMLSTYLE
  2
Standard
  9
$CMLJUST
 70
     0
  9
$CMLSCALE
 40
20.0
  9
$PROXYGRAPHICS
 70
     1
  9
$MEASUREMENT
 70
     1
  9
$CELWEIGHT
370
    -1
  9
$ENDCAPS
280
     0
  9
$JOINSTYLE
280
     0
  9
$LWDISPLAY
290
     0
  9
$INSUNITS
 70
     4
  9
$HYPERLINKBASE
  1

  9
$STYLESHEET
  1

  9
$XEDIT
290
     1
  9
$CEPSNTYPE
380
     0
  9
$PSTYLEMODE
290
     1
  9
$FINGERPRINTGUID
  2
{BF752D1A-D4CF-4551-8938-9A10D0E55830}
  9
$VERSIONGUID
  2
{FAEB1C32-E019-11D5-929B-00C0DF256EC4}
  9
$EXTNAMES
290
     1
  9
$PSVPSCALE
 40
0.0
  9
$OLESTARTUP
290
     0
  9
$SORTENTS
280
   127
  9
$INDEXCTL
280
     0
  9
$HIDETEXT
280
     1
  9
$XCLIPFRAME
280
     2
  9
$HALOGAP
280
     0
  9
$OBSCOLOR
 70
   257
  9
$OBSLTYPE
280
     0
  9
$INTERSECTIONDISPLAY
280
     0
  9
$INTERSECTIONCOLOR
 70
   257
  9
$DIMASSOC
280
     2
  9
$PROJECTNAME
  1

  9
$CAMERADISPLAY
290
     0
  9
$LENSLENGTH
 40
50.0
  9
$CAMERAHEIGHT
 40
0.0
  9
$STEPSPERSEC
 40
2.0
  9
$STEPSIZE
 40
6.0
  9
$3DDWFPREC
 40
2.0
  9
$PSOLWIDTH
 40
5.0
  9
$PSOLHEIGHT
 40
80.0
  9
$LOFTANG1
 40
1.570796326794897
  9
$LOFTANG2
 40
1.570796326794897
  9
$LOFTMAG1
 40
0.0
  9
$LOFTMAG2
 40
0.0
  9
$LOFTPARAM
 70
     7
  9
$LOFTNORMALS
280
     1
  9
$LATITUDE
 40
37.795
  9
$LONGITUDE
 40
-122.394
  9
$NORTHDIRECTION
 40
0.0
  9
$TIMEZONE
 70
 -8000
  9
$LIGHTGLYPHDISPLAY
280
     1
  9
$TILEMODELIGHTSYNCH
280
     1
  9
$SOLIDHIST
280
     1
  9
$SHOWHIST
280
     1
  9
$DWFFRAME
280
     2
  9
$DGNFRAME
280
     2
  9
$REALWORLDSCALE
290
     1
  9
$INTERFERECOLOR
 62
   256
  9
$CSHADOW
280
     0
  9
$SHADOWPLANELOCATION
 40
0.0
  0
ENDSEC
  0
SECTION
  2
CLASSES
  0
CLASS
  1
ACDBDICTIONARYWDFLT
  2
AcDbDictionaryWithDefault
  3
ObjectDBX Classes
 90
        0
 91
        4
280
     0
281
     0
  0
CLASS
  1
VISUALSTYLE
  2
AcDbVisualStyle
  3
ObjectDBX Classes
 90
     4095
 91
        4
280
     0
281
     0
  0
CLASS
  1
MATERIAL
  2
AcDbMaterial
  3
ObjectDBX Classes
 90
     1153
 91
        4
280
     0
281
     0
  0
ENDSEC
  0
SECTION
  2
TABLES
  0
TABLE
  2
VPORT
  5
8
330
0
100
AcDbSymbolTable
 70
     1
  0
VPORT
  5
29
330
8
100
AcDbSymbolTableRecord
100
AcDbViewportTableRecord
  2
*Active
 70
     0
 10
0.0
 20
0.0
 11
1.0
 21
1.0
 12
0.0
 22
0.0
 13
0.0
 23
0.0
 14
10.0
 24
10.0
 15
10.0
 25
10.0
 16
0.0
 26
0.0
 36
1.0
 17
0.0
 27
0.0
 37
0.0
 40
6930.000000000001
 41
1.414285714285714
 42
50.0
 43
0.0
 44
0.0
 50
0.0
 51
0.0
 71
     0
 72
 10000
 73
     1
 74
     3
 75
     0
 76
     0
 77
     0
 78
     0
281
     0
 65
     1
110
0.0
120
0.0
130
0.0
111
1.0
121
0.0
131
0.0
112
0.0
122
1.0
132
0.0
 79
     0
146
0.0
 60
     3
 61
     5
292
     1
282
     1
141
0.0
142
0.0
 63
   250
  0
ENDTAB
  0
TABLE
  2
LTYPE
  5
5
330
0
100
AcDbSymbolTable
 70
     2
  0
LTYPE
  5
14
330
5
100
AcDbSymbolTableRecord
100
AcDbLinetypeTableRecord
  2
ByBlock
 70
     0
  3

 72
    65
 73
     0
 40
0.0
  0
LTYPE
  5
15
330
5
100
AcDbSymbolTableRecord
100
AcDbLinetypeTableRecord
  2
ByLayer
 70
     0
  3

 72
    65
 73
     0
 40
0.0
  0
LTYPE
  5
16
330
5
100
AcDbSymbolTableRecord
100
AcDbLinetypeTableRecord
  2
Continuous
 70
     0
  3
Solid line
 72
    65
 73
     0
 40
0.0
  0
LTYPE
  5
3F
330
5
100
AcDbSymbolTableRecord
100
AcDbLinetypeTableRecord
  2
JWW_DASHED1
 70
     0
  3
-  --  --  --  --  --  --  --  -
 72
    65
 73
     2
 40
1.693333333333333
 49
0.8466666666666667
 74
     0
 49
-0.8466666666666667
 74
     0
  0
ENDTAB
  0
TABLE
  2
LAYER
  5
2
330
0
100
AcDbSymbolTable
 70
     3
  0
LAYER
  5
10
330
2
100
AcDbSymbolTableRecord
100
AcDbLayerTableRecord
  2
0
 70
     0
 62
     7
  6
Continuous
370
    -3
390
F
347
3E
  0
LAYER
  5
40
330
2
100
AcDbSymbolTableRecord
100
AcDbLayerTableRecord
  2
寸法
 70
     0
 62
     7
  6
Continuous
370
    -3
390
F
347
3E
  0
LAYER
  5
41
330
2
100
AcDbSymbolTableRecord
100
AcDbLayerTableRecord
  2
0-0
 70
     0
 62
     7
  6
Continuous
370
    -3
390
F
347
3E
  0
ENDTAB
  0
TABLE
  2
STYLE
  5
3
330
0
100
AcDbSymbolTable
 70
     1
  0
STYLE
  5
11
330
3
100
AcDbSymbolTableRecord
100
AcDbTextStyleTableRecord
  2
Standard
 70
     0
 40
0.0
 41
1.0
 50
0.0
 71
     0
 42
2.5
  3
txt
  4

  0
ENDTAB
  0
TABLE
  2
VIEW
  5
6
330
0
100
AcDbSymbolTable
 70
     0
  0
ENDTAB
  0
TABLE
  2
UCS
  5
7
330
0
100
AcDbSymbolTable
 70
     0
  0
ENDTAB
  0
TABLE
  2
APPID
  5
9
330
0
100
AcDbSymbolTable
 70
     1
  0
APPID
  5
12
330
9
100
AcDbSymbolTableRecord
100
AcDbRegAppTableRecord
  2
ACAD
 70
     0
  0
ENDTAB
  0
TABLE
  2
DIMSTYLE
  5
A
330
0
100
AcDbSymbolTable
 70
     1
100
AcDbDimStyleTable
  0
DIMSTYLE
105
27
330
A
100
AcDbSymbolTableRecord
100
AcDbDimStyleTableRecord
  2
ISO-25
 70
     0
 41
2.5
 42
0.625
 43
3.75
 44
1.25
 73
     0
 74
     0
 77
     1
 78
     8
140
2.5
141
2.5
143
0.03937007874016
147
0.625
171
     3
172
     1
178
     0
271
     2
272
     2
274
     3
278
    44
283
     0
284
     8
340
11
  0
ENDTAB
  0
TABLE
  2
BLOCK_RECORD
  5
1
330
0
100
AcDbSymbolTable
 70
     1
  0
BLOCK_RECORD
  5
1F
330
1
100
AcDbSymbolTableRecord
100
AcDbBlockTableRecord
  2
*Model_Space
340
22
 70
     0
280
     1
281
     0
  0
BLOCK_RECORD
  5
1B
330
1
100
AcDbSymbolTableRecord
100
AcDbBlockTableRecord
  2
*Paper_Space
340
1E
 70
     0
280
     1
281
     0
  0
BLOCK_RECORD
  5
23
330
1
100
AcDbSymbolTableRecord
100
AcDbBlockTableRecord
  2
*Paper_Space0
340
26
 70
     0
280
     1
281
     0
  0
ENDTAB
  0
ENDSEC
  0
SECTION
  2
BLOCKS
  0
BLOCK
  5
20
330
1F
100
AcDbEntity
  8
0
100
AcDbBlockBegin
  2
*Model_Space
 70
     0
 10
0.0
 20
0.0
 30
0.0
  3
*Model_Space
  1

  0
ENDBLK
  5
21
330
1F
100
AcDbEntity
  8
0
100
AcDbBlockEnd
  0
BLOCK
  5
1C
330
1B
100
AcDbEntity
 67
     1
  8
0
100
AcDbBlockBegin
  2
*Paper_Space
 70
     0
 10
0.0
 20
0.0
 30
0.0
  3
*Paper_Space
  1

  0
ENDBLK
  5
1D
330
1B
100
AcDbEntity
 67
     1
  8
0
100
AcDbBlockEnd
  0
BLOCK
  5
24
330
23
100
AcDbEntity
  8
0
100
AcDbBlockBegin
  2
*Paper_Space0
 70
     0
 10
0.0
 20
0.0
 30
0.0
  3
*Paper_Space0
  1

  0
ENDBLK
  5
25
330
23
100
AcDbEntity
  8
0
100
AcDbBlockEnd
  0
ENDSEC
  0
SECTION
  2
ENTITIES
  0
LINE
  5
42
330
1F
100
AcDbEntity
  8
寸法
  6
Continuous
 62
   120
370
     5
100
AcDbLine
 10
-1530.314539796285
 20
1193.791845493561
 30
0.0
 11
-1530.314539796285
 21
-853.2081545064397
 31
0.0
  0
LINE
  5
43
330
1F
100
AcDbEntity
  8
寸法
  6
Continuous
 62
   120
370
     5
100
AcDbLine
 10
-1530.314539796285
 20
1193.791845493561
 30
0.0
 11
-1130.314539796283
 21
1193.791845493561
 31
0.0
  0
LINE
  5
44
330
1F
100
AcDbEntity
  8
寸法
  6
Continuous
 62
   120
370
     5
100
AcDbLine
 10
-1530.314539796285
 20
-853.2081545064397
 30
0.0
 11
-1130.314539796283
 21
-853.2081545064397
 31
0.0
  0
LINE
  5
45
330
1F
100
AcDbEntity
  8
寸法
  6
Continuous
 62
   120
370
     5
100
AcDbLine
 10
-1330.314539796286
 20
-833.2081545064391
 30
0.0
 11
-1130.314539796283
 21
-833.2081545064391
 31
0.0
  0
LWPOLYLINE
  5
46
330
1F
100
AcDbEntity
  8
寸法
  6
Continuous
 62
     7
370
     9
100
AcDbPolyline
 90
        4
 70
     1
 43
3.0
 10
-1528.814539796285
 20
1193.791845493561
 42
0.4142135623731
 10
-1530.314539796285
 20
1195.291845493561
 42
0.4142135623731
 10
-1531.814539796285
 20
1193.791845493561
 42
0.4142135623731
 10
-1530.314539796285
 20
1192.291845493561
 42
0.4142135623731
  0
LWPOLYLINE
  5
47
330
1F
100
AcDbEntity
  8
寸法
  6
Continuous
 62
     7
370
     9
100
AcDbPolyline
 90
        4
 70
     1
 43
3.0
 10
-1528.814539796285
 20
-853.2081545064397
 42
0.4142135623731
 10
-1530.314539796285
 20
-851.7081545064397
 42
0.4142135623731
 10
-1531.814539796285
 20
-853.2081545064397
 42
0.4142135623731
 10
-1530.314539796285
 20
-854.7081545064397
 42
0.4142135623731
  0
LWPOLYLINE
  5
48
330
1F
100
AcDbEntity
  8
寸法
  6
Continuous
 62
     7
370
     9
100
AcDbPolyline
 90
        4
 70
     1
 43
3.0
 10
-1328.814539796286
 20
-833.2081545064391
 42
0.4142135623731
 10
-1330.314539796286
 20
-831.7081545064391
 42
0.4142135623731
 10
-1331.814539796286
 20
-833.2081545064391
 42
0.4142135623731
 10
-1330.314539796286
 20
-834.7081545064391
 42
0.4142135623731
  0
LINE
  5
49
330
1F
100
AcDbEntity
  8
寸法
  6
Continuous
 62
   120
370
     5
100
AcDbLine
 10
-1330.314539796286
 20
1149.791845493562
 30
0.0
 11
-1130.314539796283
 21
1149.791845493562
 31
0.0
  0
LINE
  5
4A
330
1F
100
AcDbEntity
  8
寸法
  6
Continuous
 62
   120
370
     5
100
AcDbLine
 10
-1330.314539796286
 20
1149.791845493562
 30
0.0
 11
-1330.314539796286
 21
-833.2081545064391
 31
0.0
  0
LWPOLYLINE
  5
4B
330
1F
100
AcDbEntity
  8
寸法
  6
Continuous
 62
     7
370
     9
100
AcDbPolyline
 90
        4
 70
     1
 43
3.0
 10
-1328.814539796286
 20
1149.791845493562
 42
0.4142135623731
 10
-1330.314539796286
 20
1151.291845493562
 42
0.4142135623731
 10
-1331.814539796286
 20
1149.791845493562
 42
0.4142135623731
 10
-1330.314539796286
 20
1148.291845493562
 42
0.4142135623731
  0
LINE
  5
4C
330
1F
100
AcDbEntity
  8
寸法
  6
Continuous
 62
   120
370
     5
100
AcDbLine
 10
-1050.314539796285
 20
-1303.20815450644
 30
0.0
 11
-1050.314539796285
 21
-903.2081545064402
 31
0.0
  0
LINE
  5
4D
330
1F
100
AcDbEntity
  8
寸法
  6
Continuous
 62
   120
370
     5
100
AcDbLine
 10
-1080.314539796285
 20
-1503.208154506439
 30
0.0
 11
-1080.314539796285
 21
-903.2081545064402
 31
0.0
  0
LINE
  5
4E
330
1F
100
AcDbEntity
  8
寸法
  6
Continuous
 62
   120
370
     5
100
AcDbLine
 10
-1080.314539796285
 20
-1503.208154506439
 30
0.0
 11
2126.685460203716
 21
-1503.208154506439
 31
0.0
  0
LINE
  5
4F
330
1F
100
AcDbEntity
  8
寸法
  6
Continuous
 62
   120
370
     5
100
AcDbLine
 10
2126.685460203716
 20
-1503.208154506439
 30
0.0
 11
2126.685460203716
 21
-903.2081545064393
 31
0.0
  0
LINE
  5
50
330
1F
100
AcDbEntity
  8
寸法
  6
Continuous
 62
   120
370
     5
100
AcDbLine
 10
-1053.314539796285
 20
-1103.20815450644
 30
0.0
 11
-1053.314539796285
 21
-903.2081545064402
 31
0.0
  0
LINE
  5
51
330
1F
100
AcDbEntity
  8
寸法
  6
Continuous
 62
   120
370
     5
100
AcDbLine
 10
-1053.314539796285
 20
-1103.20815450644
 30
0.0
 11
-243.3145397962846
 21
-1103.20815450644
 31
0.0
  0
LINE
  5
52
330
1F
100
AcDbEntity
  8
寸法
  6
Continuous
 62
   120
370
     5
100
AcDbLine
 10
-243.3145397962846
 20
-1103.20815450644
 30
0.0
 11
-243.3145397962846
 21
-903.2081545064402
 31
0.0
  0
LINE
  5
53
330
1F
100
AcDbEntity
  8
寸法
  6
Continuous
 62
   120
370
     5
100
AcDbLine
 10
-1050.314539796285
 20
-1303.20815450644
 30
0.0
 11
1286.685460203716
 21
-1303.208154506439
 31
0.0
  0
LINE
  5
54
330
1F
100
AcDbEntity
  8
寸法
  6
Continuous
 62
   120
370
     5
100
AcDbLine
 10
1286.685460203716
 20
-1303.208154506439
 30
0.0
 11
1286.685460203716
 21
-903.2081545064393
 31
0.0
  0
LWPOLYLINE
  5
55
330
1F
100
AcDbEntity
  8
寸法
  6
Continuous
 62
     7
370
     9
100
AcDbPolyline
 90
        4
 70
     1
 43
3.0
 10
-1048.814539796285
 20
-1303.20815450644
 42
0.4142135623731
 10
-1050.314539796285
 20
-1301.70815450644
 42
0.4142135623731
 10
-1051.814539796285
 20
-1303.20815450644
 42
0.4142135623731
 10
-1050.314539796285
 20
-1304.70815450644
 42
0.4142135623731
  0
LWPOLYLINE
  5
56
330
1F
100
AcDbEntity
  8
寸法
  6
Continuous
 62
     7
370
     9
100
AcDbPolyline
 90
        4
 70
     1
 43
3.0
 10
-1078.814539796285
 20
-1503.208154506439
 42
0.4142135623731
 10
-1080.314539796285
 20
-1501.708154506439
 42
0.4142135623731
 10
-1081.814539796285
 20
-1503.208154506439
 42
0.4142135623731
 10
-1080.314539796285
 20
-1504.708154506439
 42
0.4142135623731
  0
LWPOLYLINE
  5
57
330
1F
100
AcDbEntity
  8
寸法
  6
Continuous
 62
     7
370
     9
100
AcDbPolyline
 90
        4
 70
     1
 43
3.0
 10
2128.185460203716
 20
-1503.208154506439
 42
0.4142135623731
 10
2126.685460203716
 20
-1501.708154506439
 42
0.4142135623731
 10
2125.185460203716
 20
-1503.208154506439
 42
0.4142135623731
 10
2126.685460203716
 20
-1504.708154506439
 42
0.4142135623731
  0
LWPOLYLINE
  5
58
330
1F
100
AcDbEntity
  8
寸法
  6
Continuous
 62
     7
370
     9
100
AcDbPolyline
 90
        4
 70
     1
 43
3.0
 10
-1051.814539796285
 20
-1103.20815450644
 42
0.4142135623731
 10
-1053.314539796285
 20
-1101.70815450644
 42
0.4142135623731
 10
-1054.814539796285
 20
-1103.20815450644
 42
0.4142135623731
 10
-1053.314539796285
 20
-1104.708154506439
 42
0.4142135623731
  0
LWPOLYLINE
  5
59
330
1F
100
AcDbEntity
  8
寸法
  6
Continuous
 62
     7
370
     9
100
AcDbPolyline
 90
        4
 70
     1
 43
3.0
 10
-241.8145397962846
 20
-1103.20815450644
 42
0.4142135623731
 10
-243.3145397962846
 20
-1101.70815450644
 42
0.4142135623731
 10
-244.8145397962846
 20
-1103.20815450644
 42
0.4142135623731
 10
-243.3145397962846
 20
-1104.708154506439
 42
0.4142135623731
  0
LWPOLYLINE
  5
5A
330
1F
100
AcDbEntity
  8
寸法
  6
Continuous
 62
     7
370
     9
100
AcDbPolyline
 90
        4
 70
     1
 43
3.0
 10
1288.185460203715
 20
-1303.208154506439
 42
0.4142135623731
 10
1286.685460203716
 20
-1301.708154506439
 42
0.4142135623731
 10
1285.185460203716
 20
-1303.208154506439
 42
0.4142135623731
 10
1286.685460203716
 20
-1304.708154506439
 42
0.4142135623731
  0
MTEXT
  5
5B
330
1F
100
AcDbEntity
  8
寸法
  6
Continuous
 62
     7
370
    70
100
AcDbMText
 10
-1545.314539796285
 20
-44.88315450643855
 30
0.0
 40
57.14999999999999
 41
412.5
 46
0.0
 71
     7
 72
     1
  1
{\fＭＳ ゴシック|b0|i0|c128|p49;枠外＝2,047}
 11
6.123031769111886E-17
 21
1.0
 31
0.0
 73
     1
 44
1.0
  0
MTEXT
  5
5C
330
1F
100
AcDbEntity
  8
寸法
  6
Continuous
 62
     7
370
    70
100
AcDbMText
 10
-1345.314539796286
 20
-50.88315450643906
 30
0.0
 40
57.14999999999999
 41
412.5
 46
0.0
 71
     7
 72
     1
  1
{\fＭＳ ゴシック|b0|i0|c128|p49;ＤＨ＝1,983}
 11
6.123031769111886E-17
 21
1.0
 31
0.0
 73
     1
 44
1.0
  0
MTEXT
  5
5D
330
1F
100
AcDbEntity
  8
寸法
  6
Continuous
 62
     7
370
   211
100
AcDbMText
 10
-817.0645397962846
 20
-1097.133154506439
 30
0.0
 40
57.15
 41
337.5
 46
0.0
 71
     7
 72
     1
  1
{\fＭＳ ゴシック|b0|i0|c128|p49;ＤＷ＝810}
 73
     1
 44
1.0
  0
MTEXT
  5
5E
330
1F
100
AcDbEntity
  8
寸法
  6
Continuous
 62
     7
370
   211
100
AcDbMText
 10
-163.0645397962868
 20
-1297.133154506439
 30
0.0
 40
57.15000000000001
 41
562.5
 46
0.0
 71
     7
 72
     1
  1
{\fＭＳ ゴシック|b0|i0|c128|p49;有効開口＝2,337}
 73
     1
 44
1.0
  0
MTEXT
  5
5F
330
1F
100
AcDbEntity
  8
寸法
  6
Continuous
 62
     7
370
   211
100
AcDbMText
 10
316.9354602037132
 20
-1497.133154506439
 30
0.0
 40
57.14999999999999
 41
412.5
 46
0.0
 71
     7
 72
     1
  1
{\fＭＳ ゴシック|b0|i0|c128|p49;枠外＝3,207}
 73
     1
 44
1.0
  0
LINE
  5
60
330
1F
100
AcDbEntity
  8
0-0
  6
Continuous
 62
    92
370
    13
100
AcDbLine
 10
-1050.314539796285
 20
1149.791845493562
 30
0.0
 11
1316.685460203716
 21
1149.791845493562
 31
0.0
  0
LINE
  5
61
330
1F
100
AcDbEntity
  8
0-0
  6
Continuous
 62
    92
370
    13
100
AcDbLine
 10
-1080.314539796285
 20
-853.2081545064387
 30
0.0
 11
-1080.314539796285
 21
1193.791845493561
 31
0.0
  0
LINE
  5
62
330
1F
100
AcDbEntity
  8
0-0
  6
Continuous
 62
    92
370
    13
100
AcDbLine
 10
2126.685460203715
 20
1193.791845493561
 30
0.0
 11
2126.685460203715
 21
-853.2081545064387
 31
0.0
  0
LINE
  5
63
330
1F
100
AcDbEntity
  8
0-0
  6
JWW_DASHED1
 62
   120
370
     5
100
AcDbLine
 10
1286.685460203716
 20
-838.2081545064387
 30
0.0
 11
1286.685460203716
 21
1157.791845493561
 31
0.0
  0
LINE
  5
64
330
1F
100
AcDbEntity
  8
0-0
  6
JWW_DASHED1
 62
   120
370
     5
100
AcDbLine
 10
1316.685460203716
 20
-838.2081545064387
 30
0.0
 11
1316.685460203716
 21
1157.791845493561
 31
0.0
  0
LINE
  5
65
330
1F
100
AcDbEntity
  8
0-0
  6
Continuous
 62
    92
370
    13
100
AcDbLine
 10
-1050.314539796285
 20
-853.2081545064387
 30
0.0
 11
-1050.314539796285
 21
1193.791845493561
 31
0.0
  0
LINE
  5
66
330
1F
100
AcDbEntity
  8
0-0
  6
Continuous
 62
    92
370
    13
100
AcDbLine
 10
2096.685460203715
 20
-853.2081545064387
 30
0.0
 11
2096.685460203715
 21
1193.791845493561
 31
0.0
  0
LINE
  5
67
330
1F
100
AcDbEntity
  8
0-0
  6
Continuous
 62
    92
370
    13
100
AcDbLine
 10
-1050.314539796285
 20
1157.791845493561
 30
0.0
 11
2096.685460203715
 21
1157.791845493561
 31
0.0
  0
LINE
  5
68
330
1F
100
AcDbEntity
  8
0-0
  6
Continuous
 62
    92
370
    13
100
AcDbLine
 10
-1080.314539796285
 20
1193.791845493561
 30
0.0
 11
2126.685460203715
 21
1193.791845493561
 31
0.0
  0
LINE
  5
69
330
1F
100
AcDbEntity
  8
0-0
  6
Continuous
 62
    92
370
    13
100
AcDbLine
 10
2126.685460203715
 20
-853.2081545064387
 30
0.0
 11
-1080.314539796285
 21
-853.2081545064387
 31
0.0
  0
LINE
  5
6A
330
1F
100
AcDbEntity
  8
0-0
  6
Continuous
 62
    92
370
    13
100
AcDbLine
 10
2096.685460203715
 20
-838.2081545064387
 30
0.0
 11
-1050.314539796285
 21
-838.2081545064387
 31
0.0
  0
ARC
  5
6B
330
1F
100
AcDbEntity
  8
0-0
  6
Continuous
 62
    92
370
    13
100
AcDbCircle
 10
-1021.814539796283
 20
183.7918454935615
 30
0.0
 40
1.5
100
AcDbArc
 50
90.0
 51
180.0
  0
LINE
  5
6C
330
1F
100
AcDbEntity
  8
0-0
  6
Continuous
 62
    92
370
    13
100
AcDbLine
 10
-982.8145397962846
 20
185.2918454935615
 30
0.0
 11
-1021.814539796283
 21
185.2918454935615
 31
0.0
  0
ARC
  5
6D
330
1F
100
AcDbEntity
  8
0-0
  6
Continuous
 62
    92
370
    13
100
AcDbCircle
 10
-982.8145397962846
 20
183.7918454935615
 30
0.0
 40
1.5
100
AcDbArc
 50
0.0
 51
90.00000000000001
  0
LINE
  5
6E
330
1F
100
AcDbEntity
  8
0-0
  6
Continuous
 62
    92
370
    13
100
AcDbLine
 10
-981.3145397962843
 20
64.79184549356106
 30
0.0
 11
-981.3145397962843
 21
183.7918454935615
 31
0.0
  0
ARC
  5
6F
330
1F
100
AcDbEntity
  8
0-0
  6
Continuous
 62
    92
370
    13
100
AcDbCircle
 10
-982.8145397962846
 20
64.79184549356106
 30
0.0
 40
1.5
100
AcDbArc
 50
270.0
 51
0.0
  0
LINE
  5
70
330
1F
100
AcDbEntity
  8
0-0
  6
Continuous
 62
    92
370
    13
100
AcDbLine
 10
-1021.814539796283
 20
63.29184549356146
 30
0.0
 11
-982.8145397962846
 21
63.29184549356146
 31
0.0
  0
LINE
  5
71
330
1F
100
AcDbEntity
  8
0-0
  6
Continuous
 62
    92
370
    13
100
AcDbLine
 10
-1023.314539796284
 20
64.79184549356106
 30
0.0
 11
-1023.314539796284
 21
183.7918454935615
 31
0.0
  0
ARC
  5
72
330
1F
100
AcDbEntity
  8
0-0
  6
Continuous
 62
    92
370
    13
100
AcDbCircle
 10
-1021.814539796283
 20
64.79184549356106
 30
0.0
 40
1.5
100
AcDbArc
 50
180.0
 51
270.0
  0
ARC
  5
73
330
1F
100
AcDbEntity
  8
0-0
  6
Continuous
 62
     7
370
     9
100
AcDbCircle
 10
-1002.314539796284
 20
94.69184549356115
 30
0.0
 40
15.0
100
AcDbArc
 50
180.0
 51
0.0
  0
ARC
  5
74
330
1F
100
AcDbEntity
  8
0-0
  6
Continuous
 62
     7
370
     9
100
AcDbCircle
 10
-1002.314539796284
 20
153.8918454935614
 30
0.0
 40
15.0
100
AcDbArc
 50
0.0
 51
180.0
  0
LINE
  5
75
330
1F
100
AcDbEntity
  8
0-0
  6
Continuous
 62
     7
370
     9
100
AcDbLine
 10
-987.314539796284
 20
94.69184549356115
 30
0.0
 11
-987.314539796284
 21
153.8918454935614
 31
0.0
  0
LINE
  5
76
330
1F
100
AcDbEntity
  8
0-0
  6
Continuous
 62
     7
370
     9
100
AcDbLine
 10
-1017.314539796284
 20
153.8918454935614
 30
0.0
 11
-1017.314539796284
 21
94.69184549356115
 31
0.0
  0
ARC
  5
77
330
1F
100
AcDbEntity
  8
0-0
  6
Continuous
 62
    92
370
    13
100
AcDbCircle
 10
-241.8145397962833
 20
183.7918454935615
 30
0.0
 40
1.5
100
AcDbArc
 50
90.0
 51
180.0
  0
LINE
  5
78
330
1F
100
AcDbEntity
  8
0-0
  6
Continuous
 62
    92
370
    13
100
AcDbLine
 10
-202.8145397962847
 20
185.2918454935615
 30
0.0
 11
-241.8145397962833
 21
185.2918454935615
 31
0.0
  0
ARC
  5
79
330
1F
100
AcDbEntity
  8
0-0
  6
Continuous
 62
    92
370
    13
100
AcDbCircle
 10
-202.8145397962847
 20
183.7918454935615
 30
0.0
 40
1.5
100
AcDbArc
 50
0.0
 51
90.00000000000001
  0
LINE
  5
7A
330
1F
100
AcDbEntity
  8
0-0
  6
Continuous
 62
    92
370
    13
100
AcDbLine
 10
-201.3145397962826
 20
64.79184549356106
 30
0.0
 11
-201.3145397962826
 21
183.7918454935615
 31
0.0
  0
ARC
  5
7B
330
1F
100
AcDbEntity
  8
0-0
  6
Continuous
 62
    92
370
    13
100
AcDbCircle
 10
-202.8145397962847
 20
64.79184549356106
 30
0.0
 40
1.5
100
AcDbArc
 50
270.0
 51
0.0
  0
LINE
  5
7C
330
1F
100
AcDbEntity
  8
0-0
  6
Continuous
 62
    92
370
    13
100
AcDbLine
 10
-241.8145397962833
 20
63.29184549356146
 30
0.0
 11
-202.8145397962847
 21
63.29184549356146
 31
0.0
  0
LINE
  5
7D
330
1F
100
AcDbEntity
  8
0-0
  6
Continuous
 62
    92
370
    13
100
AcDbLine
 10
-243.3145397962836
 20
64.79184549356106
 30
0.0
 11
-243.3145397962836
 21
183.7918454935615
 31
0.0
  0
ARC
  5
7E
330
1F
100
AcDbEntity
  8
0-0
  6
Continuous
 62
    92
370
    13
100
AcDbCircle
 10
-241.8145397962833
 20
64.79184549356106
 30
0.0
 40
1.5
100
AcDbArc
 50
180.0
 51
270.0
  0
ARC
  5
7F
330
1F
100
AcDbEntity
  8
0-0
  6
Continuous
 62
     7
370
     9
100
AcDbCircle
 10
-222.314539796284
 20
94.69184549356115
 30
0.0
 40
15.0
100
AcDbArc
 50
180.0
 51
0.0
  0
ARC
  5
80
330
1F
100
AcDbEntity
  8
0-0
  6
Continuous
 62
     7
370
     9
100
AcDbCircle
 10
-222.314539796284
 20
153.8918454935614
 30
0.0
 40
15.0
100
AcDbArc
 50
0.0
 51
180.0
  0
LINE
  5
81
330
1F
100
AcDbEntity
  8
0-0
  6
Continuous
 62
     7
370
     9
100
AcDbLine
 10
-207.314539796284
 20
94.69184549356115
 30
0.0
 11
-207.314539796284
 21
153.8918454935614
 31
0.0
  0
LINE
  5
82
330
1F
100
AcDbEntity
  8
0-0
  6
Continuous
 62
     7
370
     9
100
AcDbLine
 10
-237.314539796284
 20
153.8918454935614
 30
0.0
 11
-237.314539796284
 21
94.69184549356115
 31
0.0
  0
ARC
  5
83
330
1F
100
AcDbEntity
  8
0-0
  6
Continuous
 62
    92
370
    13
100
AcDbCircle
 10
538.1854602037167
 20
183.7918454935615
 30
0.0
 40
1.5
100
AcDbArc
 50
90.0
 51
180.0
  0
LINE
  5
84
330
1F
100
AcDbEntity
  8
0-0
  6
Continuous
 62
    92
370
    13
100
AcDbLine
 10
577.1854602037154
 20
185.2918454935615
 30
0.0
 11
538.1854602037167
 21
185.2918454935615
 31
0.0
  0
ARC
  5
85
330
1F
100
AcDbEntity
  8
0-0
  6
Continuous
 62
    92
370
    13
100
AcDbCircle
 10
577.1854602037154
 20
183.7918454935615
 30
0.0
 40
1.5
100
AcDbArc
 50
0.0
 51
90.00000000000001
  0
LINE
  5
86
330
1F
100
AcDbEntity
  8
0-0
  6
Continuous
 62
    92
370
    13
100
AcDbLine
 10
578.6854602037174
 20
64.79184549356106
 30
0.0
 11
578.6854602037174
 21
183.7918454935615
 31
0.0
  0
ARC
  5
87
330
1F
100
AcDbEntity
  8
0-0
  6
Continuous
 62
    92
370
    13
100
AcDbCircle
 10
577.1854602037154
 20
64.79184549356106
 30
0.0
 40
1.5
100
AcDbArc
 50
270.0
 51
0.0
  0
LINE
  5
88
330
1F
100
AcDbEntity
  8
0-0
  6
Continuous
 62
    92
370
    13
100
AcDbLine
 10
538.1854602037167
 20
63.29184549356146
 30
0.0
 11
577.1854602037154
 21
63.29184549356146
 31
0.0
  0
LINE
  5
89
330
1F
100
AcDbEntity
  8
0-0
  6
Continuous
 62
    92
370
    13
100
AcDbLine
 10
536.6854602037162
 20
64.79184549356106
 30
0.0
 11
536.6854602037162
 21
183.7918454935615
 31
0.0
  0
ARC
  5
8A
330
1F
100
AcDbEntity
  8
0-0
  6
Continuous
 62
    92
370
    13
100
AcDbCircle
 10
538.1854602037167
 20
64.79184549356106
 30
0.0
 40
1.5
100
AcDbArc
 50
180.0
 51
270.0
  0
ARC
  5
8B
330
1F
100
AcDbEntity
  8
0-0
  6
Continuous
 62
     7
370
     9
100
AcDbCircle
 10
557.685460203716
 20
94.69184549356115
 30
0.0
 40
15.0
100
AcDbArc
 50
180.0
 51
0.0
  0
ARC
  5
8C
330
1F
100
AcDbEntity
  8
0-0
  6
Continuous
 62
     7
370
     9
100
AcDbCircle
 10
557.685460203716
 20
153.8918454935614
 30
0.0
 40
15.0
100
AcDbArc
 50
0.0
 51
180.0
  0
LINE
  5
8D
330
1F
100
AcDbEntity
  8
0-0
  6
Continuous
 62
     7
370
     9
100
AcDbLine
 10
572.685460203716
 20
94.69184549356115
 30
0.0
 11
572.685460203716
 21
153.8918454935614
 31
0.0
  0
LINE
  5
8E
330
1F
100
AcDbEntity
  8
0-0
  6
Continuous
 62
     7
370
     9
100
AcDbLine
 10
542.685460203716
 20
153.8918454935614
 30
0.0
 11
542.685460203716
 21
94.69184549356115
 31
0.0
  0
LINE
  5
8F
330
1F
100
AcDbEntity
  8
0-0
  6
JWW_DASHED1
 62
   120
370
     5
100
AcDbLine
 10
-1050.314539796285
 20
-833.2081545064382
 30
0.0
 11
-1053.314539796285
 21
-833.2081545064382
 31
0.0
  0
LINE
  5
90
330
1F
100
AcDbEntity
  8
0-0
  6
JWW_DASHED1
 62
   120
370
     5
100
AcDbLine
 10
-1053.314539796285
 20
-833.2081545064382
 30
0.0
 11
-1053.314539796285
 21
1149.791845493562
 31
0.0
  0
LINE
  5
91
330
1F
100
AcDbEntity
  8
0-0
  6
JWW_DASHED1
 62
   120
370
     5
100
AcDbLine
 10
-1053.314539796285
 20
1149.791845493562
 30
0.0
 11
-1050.314539796285
 21
1149.791845493562
 31
0.0
  0
LINE
  5
92
330
1F
100
AcDbEntity
  8
0-0
  6
JWW_DASHED1
 62
   120
370
     5
100
AcDbLine
 10
-243.3145397962845
 20
-833.2081545064382
 30
0.0
 11
-243.3145397962845
 21
1149.791845493562
 31
0.0
  0
LINE
  5
93
330
1F
100
AcDbEntity
  8
0-0
  6
Continuous
 62
    92
370
    13
100
AcDbLine
 10
-273.3145397962845
 20
1149.791845493562
 30
0.0
 11
-273.3145397962845
 21
-833.2081545064382
 31
0.0
  0
LINE
  5
94
330
1F
100
AcDbEntity
  8
0-0
  6
Continuous
 62
    92
370
    13
100
AcDbLine
 10
-1050.314539796285
 20
-833.2081545064382
 30
0.0
 11
1316.685460203716
 21
-833.2081545064382
 31
0.0
  0
LINE
  5
95
330
1F
100
AcDbEntity
  8
0-0
  6
JWW_DASHED1
 62
   120
370
     5
100
AcDbLine
 10
536.6854602037155
 20
-833.2081545064382
 30
0.0
 11
536.6854602037155
 21
1149.791845493562
 31
0.0
  0
LINE
  5
96
330
1F
100
AcDbEntity
  8
0-0
  6
Continuous
 62
    92
370
    13
100
AcDbLine
 10
506.6854602037155
 20
1149.791845493562
 30
0.0
 11
506.6854602037155
 21
-833.2081545064382
 31
0.0
  0
LINE
  5
97
330
1F
100
AcDbEntity
  8
0-0
  6
Continuous
 62
    92
370
    13
100
AcDbLine
 10
1316.685460203716
 20
1149.791845493562
 30
0.0
 11
1316.685460203716
 21
-833.2081545064382
 31
0.0
  0
LINE
  5
98
330
1F
100
AcDbEntity
  8
0-0
  6
Continuous
 62
     7
370
     9
100
AcDbLine
 10
-934.8145397962849
 20
-683.2081545064382
 30
0.0
 11
-949.8145397962849
 21
-698.2081545064382
 31
0.0
  0
LINE
  5
99
330
1F
100
AcDbEntity
  8
0-0
  6
Continuous
 62
     7
370
     9
100
AcDbLine
 10
-949.8145397962849
 20
1029.791845493562
 30
0.0
 11
-934.8145397962849
 21
1014.791845493562
 31
0.0
  0
LINE
  5
9A
330
1F
100
AcDbEntity
  8
0-0
  6
Continuous
 62
     7
370
     9
100
AcDbLine
 10
-949.8145397962849
 20
-833.2081545064382
 30
0.0
 11
-949.8145397962849
 21
1149.791845493562
 31
0.0
  0
LINE
  5
9B
330
1F
100
AcDbEntity
  8
0-0
  6
Continuous
 62
     7
370
     9
100
AcDbLine
 10
-361.8145397962859
 20
-683.2081545064382
 30
0.0
 11
-346.8145397962859
 21
-698.2081545064382
 31
0.0
  0
LINE
  5
9C
330
1F
100
AcDbEntity
  8
0-0
  6
Continuous
 62
     7
370
     9
100
AcDbLine
 10
-346.8145397962859
 20
1029.791845493562
 30
0.0
 11
-361.8145397962859
 21
1014.791845493562
 31
0.0
  0
LINE
  5
9D
330
1F
100
AcDbEntity
  8
0-0
  6
Continuous
 62
     7
370
     9
100
AcDbLine
 10
-346.8145397962859
 20
-833.2081545064382
 30
0.0
 11
-346.8145397962859
 21
1149.791845493562
 31
0.0
  0
LINE
  5
9E
330
1F
100
AcDbEntity
  8
0-0
  6
Continuous
 62
     7
370
     9
100
AcDbLine
 10
-949.8145397962849
 20
1029.791845493562
 30
0.0
 11
-346.8145397962859
 21
1029.791845493562
 31
0.0
  0
LINE
  5
9F
330
1F
100
AcDbEntity
  8
0-0
  6
Continuous
 62
     7
370
     9
100
AcDbLine
 10
-949.8145397962849
 20
-698.2081545064382
 30
0.0
 11
-346.8145397962859
 21
-698.2081545064382
 31
0.0
  0
LINE
  5
A0
330
1F
100
AcDbEntity
  8
0-0
  6
Continuous
 62
     7
370
     9
100
AcDbLine
 10
-934.8145397962849
 20
-160.2081545064381
 30
0.0
 11
-949.8145397962849
 21
-175.2081545064381
 31
0.0
  0
LINE
  5
A1
330
1F
100
AcDbEntity
  8
0-0
  6
Continuous
 62
     7
370
     9
100
AcDbLine
 10
-949.8145397962849
 20
-250.2081545064381
 30
0.0
 11
-934.8145397962849
 21
-265.2081545064381
 31
0.0
  0
LINE
  5
A2
330
1F
100
AcDbEntity
  8
0-0
  6
Continuous
 62
     7
370
     9
100
AcDbLine
 10
-361.8145397962859
 20
-160.2081545064381
 30
0.0
 11
-346.8145397962859
 21
-175.2081545064381
 31
0.0
  0
LINE
  5
A3
330
1F
100
AcDbEntity
  8
0-0
  6
Continuous
 62
     7
370
     9
100
AcDbLine
 10
-346.8145397962859
 20
-250.2081545064381
 30
0.0
 11
-361.8145397962859
 21
-265.2081545064381
 31
0.0
  0
LINE
  5
A4
330
1F
100
AcDbEntity
  8
0-0
  6
Continuous
 62
     7
370
     9
100
AcDbLine
 10
-949.8145397962849
 20
-175.2081545064381
 30
0.0
 11
-346.8145397962859
 21
-175.2081545064381
 31
0.0
  0
LINE
  5
A5
330
1F
100
AcDbEntity
  8
0-0
  6
Continuous
 62
     7
370
     9
100
AcDbLine
 10
-949.8145397962849
 20
-250.2081545064381
 30
0.0
 11
-346.8145397962859
 21
-250.2081545064381
 31
0.0
  0
LINE
  5
A6
330
1F
100
AcDbEntity
  8
0-0
  6
Continuous
 62
     7
370
     9
100
AcDbLine
 10
-904.8145397962849
 20
-653.2081545064382
 30
0.0
 11
-904.8145397962849
 21
-295.2081545064381
 31
0.0
  0
LINE
  5
A7
330
1F
100
AcDbEntity
  8
0-0
  6
Continuous
 62
     7
370
     9
100
AcDbLine
 10
-904.8145397962849
 20
-653.2081545064382
 30
0.0
 11
-919.8145397962849
 21
-668.2081545064382
 31
0.0
  0
LINE
  5
A8
330
1F
100
AcDbEntity
  8
0-0
  6
Continuous
 62
     7
370
     9
100
AcDbLine
 10
-919.8145397962849
 20
-280.2081545064381
 30
0.0
 11
-904.8145397962849
 21
-295.2081545064381
 31
0.0
  0
LINE
  5
A9
330
1F
100
AcDbEntity
  8
0-0
  6
Continuous
 62
     7
370
     9
100
AcDbLine
 10
-391.8145397962859
 20
-653.2081545064382
 30
0.0
 11
-376.8145397962859
 21
-668.2081545064382
 31
0.0
  0
LINE
  5
AA
330
1F
100
AcDbEntity
  8
0-0
  6
Continuous
 62
     7
370
     9
100
AcDbLine
 10
-376.8145397962859
 20
-280.2081545064381
 30
0.0
 11
-391.8145397962859
 21
-295.2081545064381
 31
0.0
  0
LINE
  5
AB
330
1F
100
AcDbEntity
  8
0-0
  6
Continuous
 62
     7
370
     9
100
AcDbLine
 10
-904.8145397962849
 20
-295.2081545064381
 30
0.0
 11
-391.8145397962859
 21
-295.2081545064381
 31
0.0
  0
LINE
  5
AC
330
1F
100
AcDbEntity
  8
0-0
  6
Continuous
 62
     7
370
     9
100
AcDbLine
 10
-391.8145397962859
 20
-653.2081545064382
 30
0.0
 11
-391.8145397962859
 21
-295.2081545064381
 31
0.0
  0
LINE
  5
AD
330
1F
100
AcDbEntity
  8
0-0
  6
Continuous
 62
     7
370
     9
100
AcDbLine
 10
-904.8145397962849
 20
-653.2081545064382
 30
0.0
 11
-391.8145397962859
 21
-653.2081545064382
 31
0.0
  0
LINE
  5
AE
330
1F
100
AcDbEntity
  8
0-0
  6
Continuous
 62
    92
370
    13
100
AcDbLine
 10
-934.8145397962849
 20
1014.791845493562
 30
0.0
 11
-361.8145397962859
 21
1014.791845493562
 31
0.0
  0
LINE
  5
AF
330
1F
100
AcDbEntity
  8
0-0
  6
Continuous
 62
    92
370
    13
100
AcDbLine
 10
-934.8145397962849
 20
-683.2081545064382
 30
0.0
 11
-361.8145397962859
 21
-683.2081545064382
 31
0.0
  0
LINE
  5
B0
330
1F
100
AcDbEntity
  8
0-0
  6
Continuous
 62
    92
370
    13
100
AcDbLine
 10
-934.8145397962849
 20
-160.2081545064381
 30
0.0
 11
-361.8145397962859
 21
-160.2081545064381
 31
0.0
  0
LINE
  5
B1
330
1F
100
AcDbEntity
  8
0-0
  6
Continuous
 62
    92
370
    13
100
AcDbLine
 10
-934.8145397962849
 20
-265.2081545064381
 30
0.0
 11
-361.8145397962859
 21
-265.2081545064381
 31
0.0
  0
LINE
  5
B2
330
1F
100
AcDbEntity
  8
0-0
  6
Continuous
 62
    92
370
    13
100
AcDbLine
 10
-934.8145397962849
 20
-160.2081545064381
 30
0.0
 11
-934.8145397962849
 21
1014.791845493562
 31
0.0
  0
LINE
  5
B3
330
1F
100
AcDbEntity
  8
0-0
  6
Continuous
 62
    92
370
    13
100
AcDbLine
 10
-934.8145397962849
 20
-683.2081545064382
 30
0.0
 11
-934.8145397962849
 21
-265.2081545064381
 31
0.0
  0
LINE
  5
B4
330
1F
100
AcDbEntity
  8
0-0
  6
Continuous
 62
    92
370
    13
100
AcDbLine
 10
-361.8145397962859
 20
-160.2081545064381
 30
0.0
 11
-361.8145397962859
 21
1014.791845493562
 31
0.0
  0
LINE
  5
B5
330
1F
100
AcDbEntity
  8
0-0
  6
Continuous
 62
    92
370
    13
100
AcDbLine
 10
-361.8145397962859
 20
-683.2081545064382
 30
0.0
 11
-361.8145397962859
 21
-265.2081545064381
 31
0.0
  0
LINE
  5
B6
330
1F
100
AcDbEntity
  8
0-0
  6
Continuous
 62
     7
370
     9
100
AcDbLine
 10
-154.814539796284
 20
-683.2081545064382
 30
0.0
 11
-169.814539796284
 21
-698.2081545064382
 31
0.0
  0
LINE
  5
B7
330
1F
100
AcDbEntity
  8
0-0
  6
Continuous
 62
     7
370
     9
100
AcDbLine
 10
-169.814539796284
 20
1029.791845493562
 30
0.0
 11
-154.814539796284
 21
1014.791845493562
 31
0.0
  0
LINE
  5
B8
330
1F
100
AcDbEntity
  8
0-0
  6
Continuous
 62
     7
370
     9
100
AcDbLine
 10
-169.814539796284
 20
-833.2081545064382
 30
0.0
 11
-169.814539796284
 21
1149.791845493562
 31
0.0
  0
LINE
  5
B9
330
1F
100
AcDbEntity
  8
0-0
  6
Continuous
 62
     7
370
     9
100
AcDbLine
 10
418.1854602037148
 20
-683.2081545064382
 30
0.0
 11
433.1854602037148
 21
-698.2081545064382
 31
0.0
  0
LINE
  5
BA
330
1F
100
AcDbEntity
  8
0-0
  6
Continuous
 62
     7
370
     9
100
AcDbLine
 10
433.1854602037148
 20
1029.791845493562
 30
0.0
 11
418.1854602037148
 21
1014.791845493562
 31
0.0
  0
LINE
  5
BB
330
1F
100
AcDbEntity
  8
0-0
  6
Continuous
 62
     7
370
     9
100
AcDbLine
 10
433.1854602037148
 20
-833.2081545064382
 30
0.0
 11
433.1854602037148
 21
1149.791845493562
 31
0.0
  0
LINE
  5
BC
330
1F
100
AcDbEntity
  8
0-0
  6
Continuous
 62
     7
370
     9
100
AcDbLine
 10
-169.814539796284
 20
1029.791845493562
 30
0.0
 11
433.1854602037148
 21
1029.791845493562
 31
0.0
  0
LINE
  5
BD
330
1F
100
AcDbEntity
  8
0-0
  6
Continuous
 62
     7
370
     9
100
AcDbLine
 10
-169.814539796284
 20
-698.2081545064382
 30
0.0
 11
433.1854602037148
 21
-698.2081545064382
 31
0.0
  0
LINE
  5
BE
330
1F
100
AcDbEntity
  8
0-0
  6
Continuous
 62
     7
370
     9
100
AcDbLine
 10
-154.814539796284
 20
-160.2081545064381
 30
0.0
 11
-169.814539796284
 21
-175.2081545064381
 31
0.0
  0
LINE
  5
BF
330
1F
100
AcDbEntity
  8
0-0
  6
Continuous
 62
     7
370
     9
100
AcDbLine
 10
-169.814539796284
 20
-250.2081545064381
 30
0.0
 11
-154.814539796284
 21
-265.2081545064381
 31
0.0
  0
LINE
  5
C0
330
1F
100
AcDbEntity
  8
0-0
  6
Continuous
 62
     7
370
     9
100
AcDbLine
 10
418.1854602037148
 20
-160.2081545064381
 30
0.0
 11
433.1854602037148
 21
-175.2081545064381
 31
0.0
  0
LINE
  5
C1
330
1F
100
AcDbEntity
  8
0-0
  6
Continuous
 62
     7
370
     9
100
AcDbLine
 10
433.1854602037148
 20
-250.2081545064381
 30
0.0
 11
418.1854602037148
 21
-265.2081545064381
 31
0.0
  0
LINE
  5
C2
330
1F
100
AcDbEntity
  8
0-0
  6
Continuous
 62
     7
370
     9
100
AcDbLine
 10
-169.814539796284
 20
-175.2081545064381
 30
0.0
 11
433.1854602037148
 21
-175.2081545064381
 31
0.0
  0
LINE
  5
C3
330
1F
100
AcDbEntity
  8
0-0
  6
Continuous
 62
     7
370
     9
100
AcDbLine
 10
-169.814539796284
 20
-250.2081545064381
 30
0.0
 11
433.1854602037148
 21
-250.2081545064381
 31
0.0
  0
LINE
  5
C4
330
1F
100
AcDbEntity
  8
0-0
  6
Continuous
 62
     7
370
     9
100
AcDbLine
 10
-124.814539796284
 20
-653.2081545064382
 30
0.0
 11
-124.814539796284
 21
-295.2081545064381
 31
0.0
  0
LINE
  5
C5
330
1F
100
AcDbEntity
  8
0-0
  6
Continuous
 62
     7
370
     9
100
AcDbLine
 10
-124.814539796284
 20
-653.2081545064382
 30
0.0
 11
-139.814539796284
 21
-668.2081545064382
 31
0.0
  0
LINE
  5
C6
330
1F
100
AcDbEntity
  8
0-0
  6
Continuous
 62
     7
370
     9
100
AcDbLine
 10
-139.814539796284
 20
-280.2081545064381
 30
0.0
 11
-124.814539796284
 21
-295.2081545064381
 31
0.0
  0
LINE
  5
C7
330
1F
100
AcDbEntity
  8
0-0
  6
Continuous
 62
     7
370
     9
100
AcDbLine
 10
388.1854602037148
 20
-653.2081545064382
 30
0.0
 11
403.1854602037148
 21
-668.2081545064382
 31
0.0
  0
LINE
  5
C8
330
1F
100
AcDbEntity
  8
0-0
  6
Continuous
 62
     7
370
     9
100
AcDbLine
 10
403.1854602037148
 20
-280.2081545064381
 30
0.0
 11
388.1854602037148
 21
-295.2081545064381
 31
0.0
  0
LINE
  5
C9
330
1F
100
AcDbEntity
  8
0-0
  6
Continuous
 62
     7
370
     9
100
AcDbLine
 10
-124.814539796284
 20
-295.2081545064381
 30
0.0
 11
388.1854602037148
 21
-295.2081545064381
 31
0.0
  0
LINE
  5
CA
330
1F
100
AcDbEntity
  8
0-0
  6
Continuous
 62
     7
370
     9
100
AcDbLine
 10
388.1854602037148
 20
-653.2081545064382
 30
0.0
 11
388.1854602037148
 21
-295.2081545064381
 31
0.0
  0
LINE
  5
CB
330
1F
100
AcDbEntity
  8
0-0
  6
Continuous
 62
     7
370
     9
100
AcDbLine
 10
-124.814539796284
 20
-653.2081545064382
 30
0.0
 11
388.1854602037148
 21
-653.2081545064382
 31
0.0
  0
LINE
  5
CC
330
1F
100
AcDbEntity
  8
0-0
  6
Continuous
 62
    92
370
    13
100
AcDbLine
 10
-154.814539796284
 20
1014.791845493562
 30
0.0
 11
418.1854602037148
 21
1014.791845493562
 31
0.0
  0
LINE
  5
CD
330
1F
100
AcDbEntity
  8
0-0
  6
Continuous
 62
    92
370
    13
100
AcDbLine
 10
-154.814539796284
 20
-683.2081545064382
 30
0.0
 11
418.1854602037148
 21
-683.2081545064382
 31
0.0
  0
LINE
  5
CE
330
1F
100
AcDbEntity
  8
0-0
  6
Continuous
 62
    92
370
    13
100
AcDbLine
 10
-154.814539796284
 20
-160.2081545064381
 30
0.0
 11
418.1854602037148
 21
-160.2081545064381
 31
0.0
  0
LINE
  5
CF
330
1F
100
AcDbEntity
  8
0-0
  6
Continuous
 62
    92
370
    13
100
AcDbLine
 10
-154.814539796284
 20
-265.2081545064381
 30
0.0
 11
418.1854602037148
 21
-265.2081545064381
 31
0.0
  0
LINE
  5
D0
330
1F
100
AcDbEntity
  8
0-0
  6
Continuous
 62
    92
370
    13
100
AcDbLine
 10
-154.814539796284
 20
-160.2081545064381
 30
0.0
 11
-154.814539796284
 21
1014.791845493562
 31
0.0
  0
LINE
  5
D1
330
1F
100
AcDbEntity
  8
0-0
  6
Continuous
 62
    92
370
    13
100
AcDbLine
 10
-154.814539796284
 20
-683.2081545064382
 30
0.0
 11
-154.814539796284
 21
-265.2081545064381
 31
0.0
  0
LINE
  5
D2
330
1F
100
AcDbEntity
  8
0-0
  6
Continuous
 62
    92
370
    13
100
AcDbLine
 10
418.1854602037148
 20
-160.2081545064381
 30
0.0
 11
418.1854602037148
 21
1014.791845493562
 31
0.0
  0
LINE
  5
D3
330
1F
100
AcDbEntity
  8
0-0
  6
Continuous
 62
    92
370
    13
100
AcDbLine
 10
418.1854602037148
 20
-683.2081545064382
 30
0.0
 11
418.1854602037148
 21
-265.2081545064381
 31
0.0
  0
LINE
  5
D4
330
1F
100
AcDbEntity
  8
0-0
  6
Continuous
 62
     7
370
     9
100
AcDbLine
 10
625.185460203716
 20
-683.2081545064382
 30
0.0
 11
610.185460203716
 21
-698.2081545064382
 31
0.0
  0
LINE
  5
D5
330
1F
100
AcDbEntity
  8
0-0
  6
Continuous
 62
     7
370
     9
100
AcDbLine
 10
610.185460203716
 20
1029.791845493562
 30
0.0
 11
625.185460203716
 21
1014.791845493562
 31
0.0
  0
LINE
  5
D6
330
1F
100
AcDbEntity
  8
0-0
  6
Continuous
 62
     7
370
     9
100
AcDbLine
 10
610.185460203716
 20
-833.2081545064382
 30
0.0
 11
610.185460203716
 21
1149.791845493562
 31
0.0
  0
LINE
  5
D7
330
1F
100
AcDbEntity
  8
0-0
  6
Continuous
 62
     7
370
     9
100
AcDbLine
 10
1198.185460203715
 20
-683.2081545064382
 30
0.0
 11
1213.185460203715
 21
-698.2081545064382
 31
0.0
  0
LINE
  5
D8
330
1F
100
AcDbEntity
  8
0-0
  6
Continuous
 62
     7
370
     9
100
AcDbLine
 10
1213.185460203715
 20
1029.791845493562
 30
0.0
 11
1198.185460203715
 21
1014.791845493562
 31
0.0
  0
LINE
  5
D9
330
1F
100
AcDbEntity
  8
0-0
  6
Continuous
 62
     7
370
     9
100
AcDbLine
 10
1213.185460203715
 20
-833.2081545064382
 30
0.0
 11
1213.185460203715
 21
1149.791845493562
 31
0.0
  0
LINE
  5
DA
330
1F
100
AcDbEntity
  8
0-0
  6
Continuous
 62
     7
370
     9
100
AcDbLine
 10
610.185460203716
 20
1029.791845493562
 30
0.0
 11
1213.185460203715
 21
1029.791845493562
 31
0.0
  0
LINE
  5
DB
330
1F
100
AcDbEntity
  8
0-0
  6
Continuous
 62
     7
370
     9
100
AcDbLine
 10
610.185460203716
 20
-698.2081545064382
 30
0.0
 11
1213.185460203715
 21
-698.2081545064382
 31
0.0
  0
LINE
  5
DC
330
1F
100
AcDbEntity
  8
0-0
  6
Continuous
 62
     7
370
     9
100
AcDbLine
 10
625.185460203716
 20
-160.2081545064381
 30
0.0
 11
610.185460203716
 21
-175.2081545064381
 31
0.0
  0
LINE
  5
DD
330
1F
100
AcDbEntity
  8
0-0
  6
Continuous
 62
     7
370
     9
100
AcDbLine
 10
610.185460203716
 20
-250.2081545064381
 30
0.0
 11
625.185460203716
 21
-265.2081545064381
 31
0.0
  0
LINE
  5
DE
330
1F
100
AcDbEntity
  8
0-0
  6
Continuous
 62
     7
370
     9
100
AcDbLine
 10
1198.185460203715
 20
-160.2081545064381
 30
0.0
 11
1213.185460203715
 21
-175.2081545064381
 31
0.0
  0
LINE
  5
DF
330
1F
100
AcDbEntity
  8
0-0
  6
Continuous
 62
     7
370
     9
100
AcDbLine
 10
1213.185460203715
 20
-250.2081545064381
 30
0.0
 11
1198.185460203715
 21
-265.2081545064381
 31
0.0
  0
LINE
  5
E0
330
1F
100
AcDbEntity
  8
0-0
  6
Continuous
 62
     7
370
     9
100
AcDbLine
 10
610.185460203716
 20
-175.2081545064381
 30
0.0
 11
1213.185460203715
 21
-175.2081545064381
 31
0.0
  0
LINE
  5
E1
330
1F
100
AcDbEntity
  8
0-0
  6
Continuous
 62
     7
370
     9
100
AcDbLine
 10
610.185460203716
 20
-250.2081545064381
 30
0.0
 11
1213.185460203715
 21
-250.2081545064381
 31
0.0
  0
LINE
  5
E2
330
1F
100
AcDbEntity
  8
0-0
  6
Continuous
 62
     7
370
     9
100
AcDbLine
 10
655.185460203716
 20
-653.2081545064382
 30
0.0
 11
655.185460203716
 21
-295.2081545064381
 31
0.0
  0
LINE
  5
E3
330
1F
100
AcDbEntity
  8
0-0
  6
Continuous
 62
     7
370
     9
100
AcDbLine
 10
655.185460203716
 20
-653.2081545064382
 30
0.0
 11
640.185460203716
 21
-668.2081545064382
 31
0.0
  0
LINE
  5
E4
330
1F
100
AcDbEntity
  8
0-0
  6
Continuous
 62
     7
370
     9
100
AcDbLine
 10
640.185460203716
 20
-280.2081545064381
 30
0.0
 11
655.185460203716
 21
-295.2081545064381
 31
0.0
  0
LINE
  5
E5
330
1F
100
AcDbEntity
  8
0-0
  6
Continuous
 62
     7
370
     9
100
AcDbLine
 10
1168.185460203715
 20
-653.2081545064382
 30
0.0
 11
1183.185460203715
 21
-668.2081545064382
 31
0.0
  0
LINE
  5
E6
330
1F
100
AcDbEntity
  8
0-0
  6
Continuous
 62
     7
370
     9
100
AcDbLine
 10
1183.185460203715
 20
-280.2081545064381
 30
0.0
 11
1168.185460203715
 21
-295.2081545064381
 31
0.0
  0
LINE
  5
E7
330
1F
100
AcDbEntity
  8
0-0
  6
Continuous
 62
     7
370
     9
100
AcDbLine
 10
655.185460203716
 20
-295.2081545064381
 30
0.0
 11
1168.185460203715
 21
-295.2081545064381
 31
0.0
  0
LINE
  5
E8
330
1F
100
AcDbEntity
  8
0-0
  6
Continuous
 62
     7
370
     9
100
AcDbLine
 10
1168.185460203715
 20
-653.2081545064382
 30
0.0
 11
1168.185460203715
 21
-295.2081545064381
 31
0.0
  0
LINE
  5
E9
330
1F
100
AcDbEntity
  8
0-0
  6
Continuous
 62
     7
370
     9
100
AcDbLine
 10
655.185460203716
 20
-653.2081545064382
 30
0.0
 11
1168.185460203715
 21
-653.2081545064382
 31
0.0
  0
LINE
  5
EA
330
1F
100
AcDbEntity
  8
0-0
  6
Continuous
 62
    92
370
    13
100
AcDbLine
 10
625.185460203716
 20
1014.791845493562
 30
0.0
 11
1198.185460203715
 21
1014.791845493562
 31
0.0
  0
LINE
  5
EB
330
1F
100
AcDbEntity
  8
0-0
  6
Continuous
 62
    92
370
    13
100
AcDbLine
 10
625.185460203716
 20
-683.2081545064382
 30
0.0
 11
1198.185460203715
 21
-683.2081545064382
 31
0.0
  0
LINE
  5
EC
330
1F
100
AcDbEntity
  8
0-0
  6
Continuous
 62
    92
370
    13
100
AcDbLine
 10
625.185460203716
 20
-160.2081545064381
 30
0.0
 11
1198.185460203715
 21
-160.2081545064381
 31
0.0
  0
LINE
  5
ED
330
1F
100
AcDbEntity
  8
0-0
  6
Continuous
 62
    92
370
    13
100
AcDbLine
 10
625.185460203716
 20
-265.2081545064381
 30
0.0
 11
1198.185460203715
 21
-265.2081545064381
 31
0.0
  0
LINE
  5
EE
330
1F
100
AcDbEntity
  8
0-0
  6
Continuous
 62
    92
370
    13
100
AcDbLine
 10
625.185460203716
 20
-160.2081545064381
 30
0.0
 11
625.185460203716
 21
1014.791845493562
 31
0.0
  0
LINE
  5
EF
330
1F
100
AcDbEntity
  8
0-0
  6
Continuous
 62
    92
370
    13
100
AcDbLine
 10
625.185460203716
 20
-683.2081545064382
 30
0.0
 11
625.185460203716
 21
-265.2081545064381
 31
0.0
  0
LINE
  5
F0
330
1F
100
AcDbEntity
  8
0-0
  6
Continuous
 62
    92
370
    13
100
AcDbLine
 10
1198.185460203715
 20
-160.2081545064381
 30
0.0
 11
1198.185460203715
 21
1014.791845493562
 31
0.0
  0
LINE
  5
F1
330
1F
100
AcDbEntity
  8
0-0
  6
Continuous
 62
    92
370
    13
100
AcDbLine
 10
1198.185460203715
 20
-683.2081545064382
 30
0.0
 11
1198.185460203715
 21
-265.2081545064381
 31
0.0
  0
LINE
  5
F2
330
1F
100
AcDbEntity
  8
0-0
  6
JWW_DASHED1
 62
   120
370
     5
100
AcDbLine
 10
-934.8145397962857
 20
-159.2083028203817
 30
0.0
 11
-361.814539796285
 21
-159.2083028203817
 31
0.0
  0
LINE
  5
F3
330
1F
100
AcDbEntity
  8
0-0
  6
JWW_DASHED1
 62
   120
370
     5
100
AcDbLine
 10
-934.8145397962857
 20
-146.2083028192821
 30
0.0
 11
-361.814539796285
 21
-146.2083028192821
 31
0.0
  0
LINE
  5
F4
330
1F
100
AcDbEntity
  8
0-0
  6
JWW_DASHED1
 62
   120
370
     5
100
AcDbLine
 10
-934.8145397962857
 20
-145.2083028193819
 30
0.0
 11
-361.814539796285
 21
-145.2083028193819
 31
0.0
  0
LINE
  5
F5
330
1F
100
AcDbEntity
  8
0-0
  6
JWW_DASHED1
 62
   120
370
     5
100
AcDbLine
 10
-934.8145397962857
 20
-132.2083028182823
 30
0.0
 11
-361.814539796285
 21
-132.2083028182823
 31
0.0
  0
LINE
  5
F6
330
1F
100
AcDbEntity
  8
0-0
  6
JWW_DASHED1
 62
   120
370
     5
100
AcDbLine
 10
-934.8145397962857
 20
-131.2083028183821
 30
0.0
 11
-361.814539796285
 21
-131.2083028183821
 31
0.0
  0
LINE
  5
F7
330
1F
100
AcDbEntity
  8
0-0
  6
JWW_DASHED1
 62
   120
370
     5
100
AcDbLine
 10
-934.8145397962857
 20
-118.2083028172825
 30
0.0
 11
-361.814539796285
 21
-118.2083028172825
 31
0.0
  0
LINE
  5
F8
330
1F
100
AcDbEntity
  8
0-0
  6
JWW_DASHED1
 62
   120
370
     5
100
AcDbLine
 10
-934.8145397962857
 20
-117.2083028173823
 30
0.0
 11
-361.814539796285
 21
-117.2083028173823
 31
0.0
  0
LINE
  5
F9
330
1F
100
AcDbEntity
  8
0-0
  6
JWW_DASHED1
 62
   120
370
     5
100
AcDbLine
 10
-934.8145397962857
 20
-104.2083028162827
 30
0.0
 11
-361.814539796285
 21
-104.2083028162827
 31
0.0
  0
LINE
  5
FA
330
1F
100
AcDbEntity
  8
0-0
  6
JWW_DASHED1
 62
   120
370
     5
100
AcDbLine
 10
-934.8145397962857
 20
-103.2083028163825
 30
0.0
 11
-361.814539796285
 21
-103.2083028163825
 31
0.0
  0
LINE
  5
FB
330
1F
100
AcDbEntity
  8
0-0
  6
JWW_DASHED1
 62
   120
370
     5
100
AcDbLine
 10
-934.8145397962857
 20
-90.20830281528302
 30
0.0
 11
-361.814539796285
 21
-90.20830281528302
 31
0.0
  0
LINE
  5
FC
330
1F
100
AcDbEntity
  8
0-0
  6
JWW_DASHED1
 62
   120
370
     5
100
AcDbLine
 10
-934.8145397962857
 20
-89.20830281538284
 30
0.0
 11
-361.814539796285
 21
-89.20830281538284
 31
0.0
  0
LINE
  5
FD
330
1F
100
AcDbEntity
  8
0-0
  6
JWW_DASHED1
 62
   120
370
     5
100
AcDbLine
 10
-934.8145397962857
 20
-76.20830281428312
 30
0.0
 11
-361.814539796285
 21
-76.20830281428312
 31
0.0
  0
LINE
  5
FE
330
1F
100
AcDbEntity
  8
0-0
  6
JWW_DASHED1
 62
   120
370
     5
100
AcDbLine
 10
-934.8145397962857
 20
-75.20830281438293
 30
0.0
 11
-361.814539796285
 21
-75.20830281438293
 31
0.0
  0
LINE
  5
FF
330
1F
100
AcDbEntity
  8
0-0
  6
JWW_DASHED1
 62
   120
370
     5
100
AcDbLine
 10
-934.8145397962857
 20
-62.20830281328332
 30
0.0
 11
-361.814539796285
 21
-62.20830281328332
 31
0.0
  0
LINE
  5
100
330
1F
100
AcDbEntity
  8
0-0
  6
JWW_DASHED1
 62
   120
370
     5
100
AcDbLine
 10
-934.8145397962857
 20
-61.20830281338314
 30
0.0
 11
-361.814539796285
 21
-61.20830281338314
 31
0.0
  0
LINE
  5
101
330
1F
100
AcDbEntity
  8
0-0
  6
JWW_DASHED1
 62
   120
370
     5
100
AcDbLine
 10
-934.8145397962857
 20
-48.20830281228353
 30
0.0
 11
-361.814539796285
 21
-48.20830281228353
 31
0.0
  0
LINE
  5
102
330
1F
100
AcDbEntity
  8
0-0
  6
JWW_DASHED1
 62
   120
370
     5
100
AcDbLine
 10
-934.8145397962857
 20
-47.20830281238335
 30
0.0
 11
-361.814539796285
 21
-47.20830281238335
 31
0.0
  0
LINE
  5
103
330
1F
100
AcDbEntity
  8
0-0
  6
JWW_DASHED1
 62
   120
370
     5
100
AcDbLine
 10
-934.8145397962857
 20
-34.20830281128374
 30
0.0
 11
-361.814539796285
 21
-34.20830281128374
 31
0.0
  0
LINE
  5
104
330
1F
100
AcDbEntity
  8
0-0
  6
JWW_DASHED1
 62
   120
370
     5
100
AcDbLine
 10
-934.8145397962857
 20
-33.20830281138356
 30
0.0
 11
-361.814539796285
 21
-33.20830281138356
 31
0.0
  0
LINE
  5
105
330
1F
100
AcDbEntity
  8
0-0
  6
JWW_DASHED1
 62
   120
370
     5
100
AcDbLine
 10
-934.8145397962857
 20
-20.20830281028395
 30
0.0
 11
-361.814539796285
 21
-20.20830281028395
 31
0.0
  0
LINE
  5
106
330
1F
100
AcDbEntity
  8
0-0
  6
JWW_DASHED1
 62
   120
370
     5
100
AcDbLine
 10
-934.8145397962857
 20
-19.20830281038377
 30
0.0
 11
-361.814539796285
 21
-19.20830281038377
 31
0.0
  0
LINE
  5
107
330
1F
100
AcDbEntity
  8
0-0
  6
JWW_DASHED1
 62
   120
370
     5
100
AcDbLine
 10
-934.8145397962857
 20
-6.208302809284163
 30
0.0
 11
-361.814539796285
 21
-6.208302809284163
 31
0.0
  0
LINE
  5
108
330
1F
100
AcDbEntity
  8
0-0
  6
JWW_DASHED1
 62
   120
370
     5
100
AcDbLine
 10
-934.8145397962857
 20
-5.20830280938398
 30
0.0
 11
-361.814539796285
 21
-5.20830280938398
 31
0.0
  0
LINE
  5
109
330
1F
100
AcDbEntity
  8
0-0
  6
JWW_DASHED1
 62
   120
370
     5
100
AcDbLine
 10
-934.8145397962857
 20
7.791697191715627
 30
0.0
 11
-361.814539796285
 21
7.791697191715627
 31
0.0
  0
LINE
  5
10A
330
1F
100
AcDbEntity
  8
0-0
  6
JWW_DASHED1
 62
   120
370
     5
100
AcDbLine
 10
-934.8145397962857
 20
8.79169719161581
 30
0.0
 11
-361.814539796285
 21
8.79169719161581
 31
0.0
  0
LINE
  5
10B
330
1F
100
AcDbEntity
  8
0-0
  6
JWW_DASHED1
 62
   120
370
     5
100
AcDbLine
 10
-934.8145397962857
 20
21.79169719271531
 30
0.0
 11
-361.814539796285
 21
21.79169719271531
 31
0.0
  0
LINE
  5
10C
330
1F
100
AcDbEntity
  8
0-0
  6
JWW_DASHED1
 62
   120
370
     5
100
AcDbLine
 10
-934.8145397962857
 20
22.79169719261549
 30
0.0
 11
-361.814539796285
 21
22.79169719261549
 31
0.0
  0
LINE
  5
10D
330
1F
100
AcDbEntity
  8
0-0
  6
JWW_DASHED1
 62
   120
370
     5
100
AcDbLine
 10
-934.8145397962857
 20
35.79169719371521
 30
0.0
 11
-361.814539796285
 21
35.79169719371521
 31
0.0
  0
LINE
  5
10E
330
1F
100
AcDbEntity
  8
0-0
  6
JWW_DASHED1
 62
   120
370
     5
100
AcDbLine
 10
-934.8145397962857
 20
36.79169719361539
 30
0.0
 11
-361.814539796285
 21
36.79169719361539
 31
0.0
  0
LINE
  5
10F
330
1F
100
AcDbEntity
  8
0-0
  6
JWW_DASHED1
 62
   120
370
     5
100
AcDbLine
 10
-934.8145397962857
 20
49.791697194715
 30
0.0
 11
-361.814539796285
 21
49.791697194715
 31
0.0
  0
LINE
  5
110
330
1F
100
AcDbEntity
  8
0-0
  6
JWW_DASHED1
 62
   120
370
     5
100
AcDbLine
 10
-934.8145397962857
 20
50.79169719461518
 30
0.0
 11
-361.814539796285
 21
50.79169719461518
 31
0.0
  0
LINE
  5
111
330
1F
100
AcDbEntity
  8
0-0
  6
JWW_DASHED1
 62
   120
370
     5
100
AcDbLine
 10
-934.8145397962857
 20
63.79169719571479
 30
0.0
 11
-361.814539796285
 21
63.79169719571479
 31
0.0
  0
LINE
  5
112
330
1F
100
AcDbEntity
  8
0-0
  6
JWW_DASHED1
 62
   120
370
     5
100
AcDbLine
 10
-934.8145397962857
 20
64.79169719561497
 30
0.0
 11
-361.814539796285
 21
64.79169719561497
 31
0.0
  0
LINE
  5
113
330
1F
100
AcDbEntity
  8
0-0
  6
JWW_DASHED1
 62
   120
370
     5
100
AcDbLine
 10
-934.8145397962857
 20
77.79169719671458
 30
0.0
 11
-361.814539796285
 21
77.79169719671458
 31
0.0
  0
LINE
  5
114
330
1F
100
AcDbEntity
  8
0-0
  6
JWW_DASHED1
 62
   120
370
     5
100
AcDbLine
 10
-934.8145397962857
 20
78.79169719661476
 30
0.0
 11
-361.814539796285
 21
78.79169719661476
 31
0.0
  0
LINE
  5
115
330
1F
100
AcDbEntity
  8
0-0
  6
JWW_DASHED1
 62
   120
370
     5
100
AcDbLine
 10
-934.8145397962857
 20
91.79169719771437
 30
0.0
 11
-361.814539796285
 21
91.79169719771437
 31
0.0
  0
LINE
  5
116
330
1F
100
AcDbEntity
  8
0-0
  6
JWW_DASHED1
 62
   120
370
     5
100
AcDbLine
 10
-934.8145397962857
 20
92.79169719761455
 30
0.0
 11
-361.814539796285
 21
92.79169719761455
 31
0.0
  0
LINE
  5
117
330
1F
100
AcDbEntity
  8
0-0
  6
JWW_DASHED1
 62
   120
370
     5
100
AcDbLine
 10
-934.8145397962857
 20
105.7916971987142
 30
0.0
 11
-361.814539796285
 21
105.7916971987142
 31
0.0
  0
LINE
  5
118
330
1F
100
AcDbEntity
  8
0-0
  6
JWW_DASHED1
 62
   120
370
     5
100
AcDbLine
 10
-934.8145397962857
 20
106.7916971986143
 30
0.0
 11
-361.814539796285
 21
106.7916971986143
 31
0.0
  0
LINE
  5
119
330
1F
100
AcDbEntity
  8
0-0
  6
JWW_DASHED1
 62
   120
370
     5
100
AcDbLine
 10
-934.8145397962857
 20
119.791697199714
 30
0.0
 11
-361.814539796285
 21
119.791697199714
 31
0.0
  0
LINE
  5
11A
330
1F
100
AcDbEntity
  8
0-0
  6
JWW_DASHED1
 62
   120
370
     5
100
AcDbLine
 10
-934.8145397962857
 20
120.7916971996141
 30
0.0
 11
-361.814539796285
 21
120.7916971996141
 31
0.0
  0
LINE
  5
11B
330
1F
100
AcDbEntity
  8
0-0
  6
JWW_DASHED1
 62
   120
370
     5
100
AcDbLine
 10
-934.8145397962857
 20
133.7916972007137
 30
0.0
 11
-361.814539796285
 21
133.7916972007137
 31
0.0
  0
LINE
  5
11C
330
1F
100
AcDbEntity
  8
0-0
  6
JWW_DASHED1
 62
   120
370
     5
100
AcDbLine
 10
-934.8145397962857
 20
134.7916972006139
 30
0.0
 11
-361.814539796285
 21
134.7916972006139
 31
0.0
  0
LINE
  5
11D
330
1F
100
AcDbEntity
  8
0-0
  6
JWW_DASHED1
 62
   120
370
     5
100
AcDbLine
 10
-934.8145397962857
 20
147.7916972017135
 30
0.0
 11
-361.814539796285
 21
147.7916972017135
 31
0.0
  0
LINE
  5
11E
330
1F
100
AcDbEntity
  8
0-0
  6
JWW_DASHED1
 62
   120
370
     5
100
AcDbLine
 10
-934.8145397962857
 20
148.7916972016137
 30
0.0
 11
-361.814539796285
 21
148.7916972016137
 31
0.0
  0
LINE
  5
11F
330
1F
100
AcDbEntity
  8
0-0
  6
JWW_DASHED1
 62
   120
370
     5
100
AcDbLine
 10
-934.8145397962857
 20
161.7916972027133
 30
0.0
 11
-361.814539796285
 21
161.7916972027133
 31
0.0
  0
LINE
  5
120
330
1F
100
AcDbEntity
  8
0-0
  6
JWW_DASHED1
 62
   120
370
     5
100
AcDbLine
 10
-934.8145397962857
 20
162.7916972026135
 30
0.0
 11
-361.814539796285
 21
162.7916972026135
 31
0.0
  0
LINE
  5
121
330
1F
100
AcDbEntity
  8
0-0
  6
JWW_DASHED1
 62
   120
370
     5
100
AcDbLine
 10
-934.8145397962857
 20
175.7916972037131
 30
0.0
 11
-361.814539796285
 21
175.7916972037131
 31
0.0
  0
LINE
  5
122
330
1F
100
AcDbEntity
  8
0-0
  6
JWW_DASHED1
 62
   120
370
     5
100
AcDbLine
 10
-934.8145397962857
 20
176.7916972036133
 30
0.0
 11
-361.814539796285
 21
176.7916972036133
 31
0.0
  0
LINE
  5
123
330
1F
100
AcDbEntity
  8
0-0
  6
JWW_DASHED1
 62
   120
370
     5
100
AcDbLine
 10
-934.8145397962857
 20
189.7916972047129
 30
0.0
 11
-361.814539796285
 21
189.7916972047129
 31
0.0
  0
LINE
  5
124
330
1F
100
AcDbEntity
  8
0-0
  6
JWW_DASHED1
 62
   120
370
     5
100
AcDbLine
 10
-934.8145397962857
 20
190.7916972046131
 30
0.0
 11
-361.814539796285
 21
190.7916972046131
 31
0.0
  0
LINE
  5
125
330
1F
100
AcDbEntity
  8
0-0
  6
JWW_DASHED1
 62
   120
370
     5
100
AcDbLine
 10
-934.8145397962857
 20
203.7916972057127
 30
0.0
 11
-361.814539796285
 21
203.7916972057127
 31
0.0
  0
LINE
  5
126
330
1F
100
AcDbEntity
  8
0-0
  6
JWW_DASHED1
 62
   120
370
     5
100
AcDbLine
 10
-934.8145397962857
 20
204.7916972056129
 30
0.0
 11
-361.814539796285
 21
204.7916972056129
 31
0.0
  0
LINE
  5
127
330
1F
100
AcDbEntity
  8
0-0
  6
JWW_DASHED1
 62
   120
370
     5
100
AcDbLine
 10
-934.8145397962857
 20
217.7916972067125
 30
0.0
 11
-361.814539796285
 21
217.7916972067125
 31
0.0
  0
LINE
  5
128
330
1F
100
AcDbEntity
  8
0-0
  6
JWW_DASHED1
 62
   120
370
     5
100
AcDbLine
 10
-934.8145397962857
 20
218.7916972066127
 30
0.0
 11
-361.814539796285
 21
218.7916972066127
 31
0.0
  0
LINE
  5
129
330
1F
100
AcDbEntity
  8
0-0
  6
JWW_DASHED1
 62
   120
370
     5
100
AcDbLine
 10
-934.8145397962857
 20
231.7916972077123
 30
0.0
 11
-361.814539796285
 21
231.7916972077123
 31
0.0
  0
LINE
  5
12A
330
1F
100
AcDbEntity
  8
0-0
  6
JWW_DASHED1
 62
   120
370
     5
100
AcDbLine
 10
-934.8145397962857
 20
232.7916972076125
 30
0.0
 11
-361.814539796285
 21
232.7916972076125
 31
0.0
  0
LINE
  5
12B
330
1F
100
AcDbEntity
  8
0-0
  6
JWW_DASHED1
 62
   120
370
     5
100
AcDbLine
 10
-934.8145397962857
 20
245.7916972087121
 30
0.0
 11
-361.814539796285
 21
245.7916972087121
 31
0.0
  0
LINE
  5
12C
330
1F
100
AcDbEntity
  8
0-0
  6
JWW_DASHED1
 62
   120
370
     5
100
AcDbLine
 10
-934.8145397962857
 20
246.7916972086122
 30
0.0
 11
-361.814539796285
 21
246.7916972086122
 31
0.0
  0
LINE
  5
12D
330
1F
100
AcDbEntity
  8
0-0
  6
JWW_DASHED1
 62
   120
370
     5
100
AcDbLine
 10
-934.8145397962857
 20
259.7916972097119
 30
0.0
 11
-361.814539796285
 21
259.7916972097119
 31
0.0
  0
LINE
  5
12E
330
1F
100
AcDbEntity
  8
0-0
  6
JWW_DASHED1
 62
   120
370
     5
100
AcDbLine
 10
-934.8145397962857
 20
260.791697209612
 30
0.0
 11
-361.814539796285
 21
260.791697209612
 31
0.0
  0
LINE
  5
12F
330
1F
100
AcDbEntity
  8
0-0
  6
JWW_DASHED1
 62
   120
370
     5
100
AcDbLine
 10
-934.8145397962857
 20
273.7916972107114
 30
0.0
 11
-361.814539796285
 21
273.7916972107114
 31
0.0
  0
LINE
  5
130
330
1F
100
AcDbEntity
  8
0-0
  6
JWW_DASHED1
 62
   120
370
     5
100
AcDbLine
 10
-934.8145397962857
 20
274.7916972106118
 30
0.0
 11
-361.814539796285
 21
274.7916972106118
 31
0.0
  0
LINE
  5
131
330
1F
100
AcDbEntity
  8
0-0
  6
JWW_DASHED1
 62
   120
370
     5
100
AcDbLine
 10
-934.8145397962857
 20
287.7916972117114
 30
0.0
 11
-361.814539796285
 21
287.7916972117114
 31
0.0
  0
LINE
  5
132
330
1F
100
AcDbEntity
  8
0-0
  6
JWW_DASHED1
 62
   120
370
     5
100
AcDbLine
 10
-934.8145397962857
 20
288.7916972116116
 30
0.0
 11
-361.814539796285
 21
288.7916972116116
 31
0.0
  0
LINE
  5
133
330
1F
100
AcDbEntity
  8
0-0
  6
JWW_DASHED1
 62
   120
370
     5
100
AcDbLine
 10
-934.8145397962857
 20
301.7916972127113
 30
0.0
 11
-361.814539796285
 21
301.7916972127113
 31
0.0
  0
LINE
  5
134
330
1F
100
AcDbEntity
  8
0-0
  6
JWW_DASHED1
 62
   120
370
     5
100
AcDbLine
 10
-934.8145397962857
 20
302.7916972126114
 30
0.0
 11
-361.814539796285
 21
302.7916972126114
 31
0.0
  0
LINE
  5
135
330
1F
100
AcDbEntity
  8
0-0
  6
JWW_DASHED1
 62
   120
370
     5
100
AcDbLine
 10
-934.8145397962857
 20
315.791697213711
 30
0.0
 11
-361.814539796285
 21
315.791697213711
 31
0.0
  0
LINE
  5
136
330
1F
100
AcDbEntity
  8
0-0
  6
JWW_DASHED1
 62
   120
370
     5
100
AcDbLine
 10
-934.8145397962857
 20
316.7916972136112
 30
0.0
 11
-361.814539796285
 21
316.7916972136112
 31
0.0
  0
LINE
  5
137
330
1F
100
AcDbEntity
  8
0-0
  6
JWW_DASHED1
 62
   120
370
     5
100
AcDbLine
 10
-934.8145397962857
 20
329.7916972147108
 30
0.0
 11
-361.814539796285
 21
329.7916972147108
 31
0.0
  0
LINE
  5
138
330
1F
100
AcDbEntity
  8
0-0
  6
JWW_DASHED1
 62
   120
370
     5
100
AcDbLine
 10
-934.8145397962857
 20
330.791697214611
 30
0.0
 11
-361.814539796285
 21
330.791697214611
 31
0.0
  0
LINE
  5
139
330
1F
100
AcDbEntity
  8
0-0
  6
JWW_DASHED1
 62
   120
370
     5
100
AcDbLine
 10
-934.8145397962857
 20
343.7916972157106
 30
0.0
 11
-361.814539796285
 21
343.7916972157106
 31
0.0
  0
LINE
  5
13A
330
1F
100
AcDbEntity
  8
0-0
  6
JWW_DASHED1
 62
   120
370
     5
100
AcDbLine
 10
-934.8145397962857
 20
344.7916972156108
 30
0.0
 11
-361.814539796285
 21
344.7916972156108
 31
0.0
  0
LINE
  5
13B
330
1F
100
AcDbEntity
  8
0-0
  6
JWW_DASHED1
 62
   120
370
     5
100
AcDbLine
 10
-934.8145397962857
 20
357.7916972167104
 30
0.0
 11
-361.814539796285
 21
357.7916972167104
 31
0.0
  0
LINE
  5
13C
330
1F
100
AcDbEntity
  8
0-0
  6
JWW_DASHED1
 62
   120
370
     5
100
AcDbLine
 10
-934.8145397962857
 20
358.7916972166106
 30
0.0
 11
-361.814539796285
 21
358.7916972166106
 31
0.0
  0
LINE
  5
13D
330
1F
100
AcDbEntity
  8
0-0
  6
JWW_DASHED1
 62
   120
370
     5
100
AcDbLine
 10
-934.8145397962857
 20
371.7916972177102
 30
0.0
 11
-361.814539796285
 21
371.7916972177102
 31
0.0
  0
LINE
  5
13E
330
1F
100
AcDbEntity
  8
0-0
  6
JWW_DASHED1
 62
   120
370
     5
100
AcDbLine
 10
-934.8145397962857
 20
372.7916972176104
 30
0.0
 11
-361.814539796285
 21
372.7916972176104
 31
0.0
  0
LINE
  5
13F
330
1F
100
AcDbEntity
  8
0-0
  6
JWW_DASHED1
 62
   120
370
     5
100
AcDbLine
 10
-934.8145397962857
 20
385.7916972187099
 30
0.0
 11
-361.814539796285
 21
385.7916972187099
 31
0.0
  0
LINE
  5
140
330
1F
100
AcDbEntity
  8
0-0
  6
JWW_DASHED1
 62
   120
370
     5
100
AcDbLine
 10
-934.8145397962857
 20
386.79169721861
 30
0.0
 11
-361.814539796285
 21
386.79169721861
 31
0.0
  0
LINE
  5
141
330
1F
100
AcDbEntity
  8
0-0
  6
JWW_DASHED1
 62
   120
370
     5
100
AcDbLine
 10
-934.8145397962857
 20
399.7916972197098
 30
0.0
 11
-361.814539796285
 21
399.7916972197098
 31
0.0
  0
LINE
  5
142
330
1F
100
AcDbEntity
  8
0-0
  6
JWW_DASHED1
 62
   120
370
     5
100
AcDbLine
 10
-934.8145397962857
 20
400.7916972196099
 30
0.0
 11
-361.814539796285
 21
400.7916972196099
 31
0.0
  0
LINE
  5
143
330
1F
100
AcDbEntity
  8
0-0
  6
JWW_DASHED1
 62
   120
370
     5
100
AcDbLine
 10
-934.8145397962857
 20
413.7916972207096
 30
0.0
 11
-361.814539796285
 21
413.7916972207096
 31
0.0
  0
LINE
  5
144
330
1F
100
AcDbEntity
  8
0-0
  6
JWW_DASHED1
 62
   120
370
     5
100
AcDbLine
 10
-934.8145397962857
 20
414.7916972206098
 30
0.0
 11
-361.814539796285
 21
414.7916972206098
 31
0.0
  0
LINE
  5
145
330
1F
100
AcDbEntity
  8
0-0
  6
JWW_DASHED1
 62
   120
370
     5
100
AcDbLine
 10
-934.8145397962857
 20
427.7916972217093
 30
0.0
 11
-361.814539796285
 21
427.7916972217093
 31
0.0
  0
LINE
  5
146
330
1F
100
AcDbEntity
  8
0-0
  6
JWW_DASHED1
 62
   120
370
     5
100
AcDbLine
 10
-934.8145397962857
 20
428.7916972216095
 30
0.0
 11
-361.814539796285
 21
428.7916972216095
 31
0.0
  0
LINE
  5
147
330
1F
100
AcDbEntity
  8
0-0
  6
JWW_DASHED1
 62
   120
370
     5
100
AcDbLine
 10
-934.8145397962857
 20
441.7916972227091
 30
0.0
 11
-361.814539796285
 21
441.7916972227091
 31
0.0
  0
LINE
  5
148
330
1F
100
AcDbEntity
  8
0-0
  6
JWW_DASHED1
 62
   120
370
     5
100
AcDbLine
 10
-934.8145397962857
 20
442.7916972226093
 30
0.0
 11
-361.814539796285
 21
442.7916972226093
 31
0.0
  0
LINE
  5
149
330
1F
100
AcDbEntity
  8
0-0
  6
JWW_DASHED1
 62
   120
370
     5
100
AcDbLine
 10
-934.8145397962857
 20
455.7916972237089
 30
0.0
 11
-361.814539796285
 21
455.7916972237089
 31
0.0
  0
LINE
  5
14A
330
1F
100
AcDbEntity
  8
0-0
  6
JWW_DASHED1
 62
   120
370
     5
100
AcDbLine
 10
-934.8145397962857
 20
456.7916972236091
 30
0.0
 11
-361.814539796285
 21
456.7916972236091
 31
0.0
  0
LINE
  5
14B
330
1F
100
AcDbEntity
  8
0-0
  6
JWW_DASHED1
 62
   120
370
     5
100
AcDbLine
 10
-934.8145397962857
 20
469.7916972247087
 30
0.0
 11
-361.814539796285
 21
469.7916972247087
 31
0.0
  0
LINE
  5
14C
330
1F
100
AcDbEntity
  8
0-0
  6
JWW_DASHED1
 62
   120
370
     5
100
AcDbLine
 10
-934.8145397962857
 20
470.7916972246089
 30
0.0
 11
-361.814539796285
 21
470.7916972246089
 31
0.0
  0
LINE
  5
14D
330
1F
100
AcDbEntity
  8
0-0
  6
JWW_DASHED1
 62
   120
370
     5
100
AcDbLine
 10
-934.8145397962857
 20
483.7916972257085
 30
0.0
 11
-361.814539796285
 21
483.7916972257085
 31
0.0
  0
LINE
  5
14E
330
1F
100
AcDbEntity
  8
0-0
  6
JWW_DASHED1
 62
   120
370
     5
100
AcDbLine
 10
-934.8145397962857
 20
484.7916972256087
 30
0.0
 11
-361.814539796285
 21
484.7916972256087
 31
0.0
  0
LINE
  5
14F
330
1F
100
AcDbEntity
  8
0-0
  6
JWW_DASHED1
 62
   120
370
     5
100
AcDbLine
 10
-934.8145397962857
 20
497.7916972267081
 30
0.0
 11
-361.814539796285
 21
497.7916972267081
 31
0.0
  0
LINE
  5
150
330
1F
100
AcDbEntity
  8
0-0
  6
JWW_DASHED1
 62
   120
370
     5
100
AcDbLine
 10
-934.8145397962857
 20
498.7916972266084
 30
0.0
 11
-361.814539796285
 21
498.7916972266084
 31
0.0
  0
LINE
  5
151
330
1F
100
AcDbEntity
  8
0-0
  6
JWW_DASHED1
 62
   120
370
     5
100
AcDbLine
 10
-934.8145397962857
 20
511.7916972277081
 30
0.0
 11
-361.814539796285
 21
511.7916972277081
 31
0.0
  0
LINE
  5
152
330
1F
100
AcDbEntity
  8
0-0
  6
JWW_DASHED1
 62
   120
370
     5
100
AcDbLine
 10
-934.8145397962857
 20
512.7916972276082
 30
0.0
 11
-361.814539796285
 21
512.7916972276082
 31
0.0
  0
LINE
  5
153
330
1F
100
AcDbEntity
  8
0-0
  6
JWW_DASHED1
 62
   120
370
     5
100
AcDbLine
 10
-934.8145397962857
 20
525.7916972287079
 30
0.0
 11
-361.814539796285
 21
525.7916972287079
 31
0.0
  0
LINE
  5
154
330
1F
100
AcDbEntity
  8
0-0
  6
JWW_DASHED1
 62
   120
370
     5
100
AcDbLine
 10
-934.8145397962857
 20
526.7916972286081
 30
0.0
 11
-361.814539796285
 21
526.7916972286081
 31
0.0
  0
LINE
  5
155
330
1F
100
AcDbEntity
  8
0-0
  6
JWW_DASHED1
 62
   120
370
     5
100
AcDbLine
 10
-934.8145397962857
 20
539.7916972297077
 30
0.0
 11
-361.814539796285
 21
539.7916972297077
 31
0.0
  0
LINE
  5
156
330
1F
100
AcDbEntity
  8
0-0
  6
JWW_DASHED1
 62
   120
370
     5
100
AcDbLine
 10
-934.8145397962857
 20
540.7916972296078
 30
0.0
 11
-361.814539796285
 21
540.7916972296078
 31
0.0
  0
LINE
  5
157
330
1F
100
AcDbEntity
  8
0-0
  6
JWW_DASHED1
 62
   120
370
     5
100
AcDbLine
 10
-934.8145397962857
 20
553.7916972307074
 30
0.0
 11
-361.814539796285
 21
553.7916972307074
 31
0.0
  0
LINE
  5
158
330
1F
100
AcDbEntity
  8
0-0
  6
JWW_DASHED1
 62
   120
370
     5
100
AcDbLine
 10
-934.8145397962857
 20
554.7916972306076
 30
0.0
 11
-361.814539796285
 21
554.7916972306076
 31
0.0
  0
LINE
  5
159
330
1F
100
AcDbEntity
  8
0-0
  6
JWW_DASHED1
 62
   120
370
     5
100
AcDbLine
 10
-934.8145397962857
 20
567.7916972317073
 30
0.0
 11
-361.814539796285
 21
567.7916972317073
 31
0.0
  0
LINE
  5
15A
330
1F
100
AcDbEntity
  8
0-0
  6
JWW_DASHED1
 62
   120
370
     5
100
AcDbLine
 10
-934.8145397962857
 20
568.7916972316075
 30
0.0
 11
-361.814539796285
 21
568.7916972316075
 31
0.0
  0
LINE
  5
15B
330
1F
100
AcDbEntity
  8
0-0
  6
JWW_DASHED1
 62
   120
370
     5
100
AcDbLine
 10
-934.8145397962857
 20
581.7916972327071
 30
0.0
 11
-361.814539796285
 21
581.7916972327071
 31
0.0
  0
LINE
  5
15C
330
1F
100
AcDbEntity
  8
0-0
  6
JWW_DASHED1
 62
   120
370
     5
100
AcDbLine
 10
-934.8145397962857
 20
582.7916972326072
 30
0.0
 11
-361.814539796285
 21
582.7916972326072
 31
0.0
  0
LINE
  5
15D
330
1F
100
AcDbEntity
  8
0-0
  6
JWW_DASHED1
 62
   120
370
     5
100
AcDbLine
 10
-934.8145397962857
 20
595.7916972337068
 30
0.0
 11
-361.814539796285
 21
595.7916972337068
 31
0.0
  0
LINE
  5
15E
330
1F
100
AcDbEntity
  8
0-0
  6
JWW_DASHED1
 62
   120
370
     5
100
AcDbLine
 10
-934.8145397962857
 20
596.791697233607
 30
0.0
 11
-361.814539796285
 21
596.791697233607
 31
0.0
  0
LINE
  5
15F
330
1F
100
AcDbEntity
  8
0-0
  6
JWW_DASHED1
 62
   120
370
     5
100
AcDbLine
 10
-934.8145397962857
 20
609.7916972347066
 30
0.0
 11
-361.814539796285
 21
609.7916972347066
 31
0.0
  0
LINE
  5
160
330
1F
100
AcDbEntity
  8
0-0
  6
JWW_DASHED1
 62
   120
370
     5
100
AcDbLine
 10
-934.8145397962857
 20
610.7916972346065
 30
0.0
 11
-361.814539796285
 21
610.7916972346065
 31
0.0
  0
LINE
  5
161
330
1F
100
AcDbEntity
  8
0-0
  6
JWW_DASHED1
 62
   120
370
     5
100
AcDbLine
 10
-934.8145397962857
 20
623.7916972357064
 30
0.0
 11
-361.814539796285
 21
623.7916972357064
 31
0.0
  0
LINE
  5
162
330
1F
100
AcDbEntity
  8
0-0
  6
JWW_DASHED1
 62
   120
370
     5
100
AcDbLine
 10
-934.8145397962857
 20
624.7916972356065
 30
0.0
 11
-361.814539796285
 21
624.7916972356065
 31
0.0
  0
LINE
  5
163
330
1F
100
AcDbEntity
  8
0-0
  6
JWW_DASHED1
 62
   120
370
     5
100
AcDbLine
 10
-934.8145397962857
 20
637.7916972367062
 30
0.0
 11
-361.814539796285
 21
637.7916972367062
 31
0.0
  0
LINE
  5
164
330
1F
100
AcDbEntity
  8
0-0
  6
JWW_DASHED1
 62
   120
370
     5
100
AcDbLine
 10
-934.8145397962857
 20
638.7916972366064
 30
0.0
 11
-361.814539796285
 21
638.7916972366064
 31
0.0
  0
LINE
  5
165
330
1F
100
AcDbEntity
  8
0-0
  6
JWW_DASHED1
 62
   120
370
     5
100
AcDbLine
 10
-934.8145397962857
 20
651.791697237706
 30
0.0
 11
-361.814539796285
 21
651.791697237706
 31
0.0
  0
LINE
  5
166
330
1F
100
AcDbEntity
  8
0-0
  6
JWW_DASHED1
 62
   120
370
     5
100
AcDbLine
 10
-934.8145397962857
 20
652.7916972376062
 30
0.0
 11
-361.814539796285
 21
652.7916972376062
 31
0.0
  0
LINE
  5
167
330
1F
100
AcDbEntity
  8
0-0
  6
JWW_DASHED1
 62
   120
370
     5
100
AcDbLine
 10
-934.8145397962857
 20
665.7916972387058
 30
0.0
 11
-361.814539796285
 21
665.7916972387058
 31
0.0
  0
LINE
  5
168
330
1F
100
AcDbEntity
  8
0-0
  6
JWW_DASHED1
 62
   120
370
     5
100
AcDbLine
 10
-934.8145397962857
 20
666.7916972386059
 30
0.0
 11
-361.814539796285
 21
666.7916972386059
 31
0.0
  0
LINE
  5
169
330
1F
100
AcDbEntity
  8
0-0
  6
JWW_DASHED1
 62
   120
370
     5
100
AcDbLine
 10
-934.8145397962857
 20
679.7916972397056
 30
0.0
 11
-361.814539796285
 21
679.7916972397056
 31
0.0
  0
LINE
  5
16A
330
1F
100
AcDbEntity
  8
0-0
  6
JWW_DASHED1
 62
   120
370
     5
100
AcDbLine
 10
-934.8145397962857
 20
680.7916972396058
 30
0.0
 11
-361.814539796285
 21
680.7916972396058
 31
0.0
  0
LINE
  5
16B
330
1F
100
AcDbEntity
  8
0-0
  6
JWW_DASHED1
 62
   120
370
     5
100
AcDbLine
 10
-934.8145397962857
 20
693.7916972407054
 30
0.0
 11
-361.814539796285
 21
693.7916972407054
 31
0.0
  0
LINE
  5
16C
330
1F
100
AcDbEntity
  8
0-0
  6
JWW_DASHED1
 62
   120
370
     5
100
AcDbLine
 10
-934.8145397962857
 20
694.7916972406056
 30
0.0
 11
-361.814539796285
 21
694.7916972406056
 31
0.0
  0
LINE
  5
16D
330
1F
100
AcDbEntity
  8
0-0
  6
JWW_DASHED1
 62
   120
370
     5
100
AcDbLine
 10
-934.8145397962857
 20
707.7916972417049
 30
0.0
 11
-361.814539796285
 21
707.7916972417049
 31
0.0
  0
LINE
  5
16E
330
1F
100
AcDbEntity
  8
0-0
  6
JWW_DASHED1
 62
   120
370
     5
100
AcDbLine
 10
-934.8145397962857
 20
708.7916972416051
 30
0.0
 11
-361.814539796285
 21
708.7916972416051
 31
0.0
  0
LINE
  5
16F
330
1F
100
AcDbEntity
  8
0-0
  6
JWW_DASHED1
 62
   120
370
     5
100
AcDbLine
 10
-934.8145397962857
 20
721.7916972427047
 30
0.0
 11
-361.814539796285
 21
721.7916972427047
 31
0.0
  0
LINE
  5
170
330
1F
100
AcDbEntity
  8
0-0
  6
JWW_DASHED1
 62
   120
370
     5
100
AcDbLine
 10
-934.8145397962857
 20
722.7916972426051
 30
0.0
 11
-361.814539796285
 21
722.7916972426051
 31
0.0
  0
LINE
  5
171
330
1F
100
AcDbEntity
  8
0-0
  6
JWW_DASHED1
 62
   120
370
     5
100
AcDbLine
 10
-934.8145397962857
 20
735.7916972437047
 30
0.0
 11
-361.814539796285
 21
735.7916972437047
 31
0.0
  0
LINE
  5
172
330
1F
100
AcDbEntity
  8
0-0
  6
JWW_DASHED1
 62
   120
370
     5
100
AcDbLine
 10
-934.8145397962857
 20
736.7916972436049
 30
0.0
 11
-361.814539796285
 21
736.7916972436049
 31
0.0
  0
LINE
  5
173
330
1F
100
AcDbEntity
  8
0-0
  6
JWW_DASHED1
 62
   120
370
     5
100
AcDbLine
 10
-934.8145397962857
 20
749.7916972447046
 30
0.0
 11
-361.814539796285
 21
749.7916972447046
 31
0.0
  0
LINE
  5
174
330
1F
100
AcDbEntity
  8
0-0
  6
JWW_DASHED1
 62
   120
370
     5
100
AcDbLine
 10
-934.8145397962857
 20
750.7916972446047
 30
0.0
 11
-361.814539796285
 21
750.7916972446047
 31
0.0
  0
LINE
  5
175
330
1F
100
AcDbEntity
  8
0-0
  6
JWW_DASHED1
 62
   120
370
     5
100
AcDbLine
 10
-934.8145397962857
 20
763.7916972457043
 30
0.0
 11
-361.814539796285
 21
763.7916972457043
 31
0.0
  0
LINE
  5
176
330
1F
100
AcDbEntity
  8
0-0
  6
JWW_DASHED1
 62
   120
370
     5
100
AcDbLine
 10
-934.8145397962857
 20
764.7916972456045
 30
0.0
 11
-361.814539796285
 21
764.7916972456045
 31
0.0
  0
LINE
  5
177
330
1F
100
AcDbEntity
  8
0-0
  6
JWW_DASHED1
 62
   120
370
     5
100
AcDbLine
 10
-934.8145397962857
 20
777.7916972467041
 30
0.0
 11
-361.814539796285
 21
777.7916972467041
 31
0.0
  0
LINE
  5
178
330
1F
100
AcDbEntity
  8
0-0
  6
JWW_DASHED1
 62
   120
370
     5
100
AcDbLine
 10
-934.8145397962857
 20
778.7916972466043
 30
0.0
 11
-361.814539796285
 21
778.7916972466043
 31
0.0
  0
LINE
  5
179
330
1F
100
AcDbEntity
  8
0-0
  6
JWW_DASHED1
 62
   120
370
     5
100
AcDbLine
 10
-934.8145397962857
 20
791.791697247704
 30
0.0
 11
-361.814539796285
 21
791.791697247704
 31
0.0
  0
LINE
  5
17A
330
1F
100
AcDbEntity
  8
0-0
  6
JWW_DASHED1
 62
   120
370
     5
100
AcDbLine
 10
-934.8145397962857
 20
792.7916972476041
 30
0.0
 11
-361.814539796285
 21
792.7916972476041
 31
0.0
  0
LINE
  5
17B
330
1F
100
AcDbEntity
  8
0-0
  6
JWW_DASHED1
 62
   120
370
     5
100
AcDbLine
 10
-934.8145397962857
 20
805.7916972487037
 30
0.0
 11
-361.814539796285
 21
805.7916972487037
 31
0.0
  0
LINE
  5
17C
330
1F
100
AcDbEntity
  8
0-0
  6
JWW_DASHED1
 62
   120
370
     5
100
AcDbLine
 10
-934.8145397962857
 20
806.7916972486039
 30
0.0
 11
-361.814539796285
 21
806.7916972486039
 31
0.0
  0
LINE
  5
17D
330
1F
100
AcDbEntity
  8
0-0
  6
JWW_DASHED1
 62
   120
370
     5
100
AcDbLine
 10
-934.8145397962857
 20
819.7916972497032
 30
0.0
 11
-361.814539796285
 21
819.7916972497032
 31
0.0
  0
LINE
  5
17E
330
1F
100
AcDbEntity
  8
0-0
  6
JWW_DASHED1
 62
   120
370
     5
100
AcDbLine
 10
-934.8145397962857
 20
820.7916972496034
 30
0.0
 11
-361.814539796285
 21
820.7916972496034
 31
0.0
  0
LINE
  5
17F
330
1F
100
AcDbEntity
  8
0-0
  6
JWW_DASHED1
 62
   120
370
     5
100
AcDbLine
 10
-934.8145397962857
 20
833.7916972507032
 30
0.0
 11
-361.814539796285
 21
833.7916972507032
 31
0.0
  0
LINE
  5
180
330
1F
100
AcDbEntity
  8
0-0
  6
JWW_DASHED1
 62
   120
370
     5
100
AcDbLine
 10
-934.8145397962857
 20
834.7916972506032
 30
0.0
 11
-361.814539796285
 21
834.7916972506032
 31
0.0
  0
LINE
  5
181
330
1F
100
AcDbEntity
  8
0-0
  6
JWW_DASHED1
 62
   120
370
     5
100
AcDbLine
 10
-934.8145397962857
 20
847.791697251703
 30
0.0
 11
-361.814539796285
 21
847.791697251703
 31
0.0
  0
LINE
  5
182
330
1F
100
AcDbEntity
  8
0-0
  6
JWW_DASHED1
 62
   120
370
     5
100
AcDbLine
 10
-934.8145397962857
 20
848.7916972516032
 30
0.0
 11
-361.814539796285
 21
848.7916972516032
 31
0.0
  0
LINE
  5
183
330
1F
100
AcDbEntity
  8
0-0
  6
JWW_DASHED1
 62
   120
370
     5
100
AcDbLine
 10
-934.8145397962857
 20
861.7916972527029
 30
0.0
 11
-361.814539796285
 21
861.7916972527029
 31
0.0
  0
LINE
  5
184
330
1F
100
AcDbEntity
  8
0-0
  6
JWW_DASHED1
 62
   120
370
     5
100
AcDbLine
 10
-934.8145397962857
 20
862.7916972526031
 30
0.0
 11
-361.814539796285
 21
862.7916972526031
 31
0.0
  0
LINE
  5
185
330
1F
100
AcDbEntity
  8
0-0
  6
JWW_DASHED1
 62
   120
370
     5
100
AcDbLine
 10
-934.8145397962857
 20
875.7916972537026
 30
0.0
 11
-361.814539796285
 21
875.7916972537026
 31
0.0
  0
LINE
  5
186
330
1F
100
AcDbEntity
  8
0-0
  6
JWW_DASHED1
 62
   120
370
     5
100
AcDbLine
 10
-934.8145397962857
 20
876.7916972536028
 30
0.0
 11
-361.814539796285
 21
876.7916972536028
 31
0.0
  0
LINE
  5
187
330
1F
100
AcDbEntity
  8
0-0
  6
JWW_DASHED1
 62
   120
370
     5
100
AcDbLine
 10
-934.8145397962857
 20
889.7916972547024
 30
0.0
 11
-361.814539796285
 21
889.7916972547024
 31
0.0
  0
LINE
  5
188
330
1F
100
AcDbEntity
  8
0-0
  6
JWW_DASHED1
 62
   120
370
     5
100
AcDbLine
 10
-934.8145397962857
 20
890.7916972546026
 30
0.0
 11
-361.814539796285
 21
890.7916972546026
 31
0.0
  0
LINE
  5
189
330
1F
100
AcDbEntity
  8
0-0
  6
JWW_DASHED1
 62
   120
370
     5
100
AcDbLine
 10
-934.8145397962857
 20
903.7916972557023
 30
0.0
 11
-361.814539796285
 21
903.7916972557023
 31
0.0
  0
LINE
  5
18A
330
1F
100
AcDbEntity
  8
0-0
  6
JWW_DASHED1
 62
   120
370
     5
100
AcDbLine
 10
-934.8145397962857
 20
904.7916972556025
 30
0.0
 11
-361.814539796285
 21
904.7916972556025
 31
0.0
  0
LINE
  5
18B
330
1F
100
AcDbEntity
  8
0-0
  6
JWW_DASHED1
 62
   120
370
     5
100
AcDbLine
 10
-934.8145397962857
 20
917.791697256702
 30
0.0
 11
-361.814539796285
 21
917.791697256702
 31
0.0
  0
LINE
  5
18C
330
1F
100
AcDbEntity
  8
0-0
  6
JWW_DASHED1
 62
   120
370
     5
100
AcDbLine
 10
-934.8145397962857
 20
918.791697256602
 30
0.0
 11
-361.814539796285
 21
918.791697256602
 31
0.0
  0
LINE
  5
18D
330
1F
100
AcDbEntity
  8
0-0
  6
JWW_DASHED1
 62
   120
370
     5
100
AcDbLine
 10
-934.8145397962857
 20
931.7916972577016
 30
0.0
 11
-361.814539796285
 21
931.7916972577016
 31
0.0
  0
LINE
  5
18E
330
1F
100
AcDbEntity
  8
0-0
  6
JWW_DASHED1
 62
   120
370
     5
100
AcDbLine
 10
-934.8145397962857
 20
932.7916972576018
 30
0.0
 11
-361.814539796285
 21
932.7916972576018
 31
0.0
  0
LINE
  5
18F
330
1F
100
AcDbEntity
  8
0-0
  6
JWW_DASHED1
 62
   120
370
     5
100
AcDbLine
 10
-934.8145397962857
 20
945.7916972587013
 30
0.0
 11
-361.814539796285
 21
945.7916972587013
 31
0.0
  0
LINE
  5
190
330
1F
100
AcDbEntity
  8
0-0
  6
JWW_DASHED1
 62
   120
370
     5
100
AcDbLine
 10
-934.8145397962857
 20
946.7916972586017
 30
0.0
 11
-361.814539796285
 21
946.7916972586017
 31
0.0
  0
LINE
  5
191
330
1F
100
AcDbEntity
  8
0-0
  6
JWW_DASHED1
 62
   120
370
     5
100
AcDbLine
 10
-928.8145213382539
 20
-160.2081545064381
 30
0.0
 11
-928.8145213382539
 21
1014.791845493562
 31
0.0
  0
LINE
  5
192
330
1F
100
AcDbEntity
  8
0-0
  6
JWW_DASHED1
 62
   120
370
     5
100
AcDbLine
 10
-395.8145213003536
 20
-160.2081545064381
 30
0.0
 11
-395.8145213003536
 21
1014.791845493562
 31
0.0
  0
LINE
  5
193
330
1F
100
AcDbEntity
  8
0-0
  6
JWW_DASHED1
 62
   120
370
     5
100
AcDbLine
 10
-396.8145213002538
 20
-160.2081545064381
 30
0.0
 11
-396.8145213002533
 21
1014.791845493562
 31
0.0
  0
LINE
  5
194
330
1F
100
AcDbEntity
  8
0-0
  6
JWW_DASHED1
 62
   120
370
     5
100
AcDbLine
 10
-409.8145213013538
 20
-160.2081545064381
 30
0.0
 11
-409.8145213013534
 21
1014.791845493562
 31
0.0
  0
LINE
  5
195
330
1F
100
AcDbEntity
  8
0-0
  6
JWW_DASHED1
 62
   120
370
     5
100
AcDbLine
 10
-410.8145213012535
 20
-160.2081545064381
 30
0.0
 11
-410.8145213012535
 21
1014.791845493562
 31
0.0
  0
LINE
  5
196
330
1F
100
AcDbEntity
  8
0-0
  6
JWW_DASHED1
 62
   120
370
     5
100
AcDbLine
 10
-423.814521302354
 20
-160.2081545064381
 30
0.0
 11
-423.814521302354
 21
1014.791845493562
 31
0.0
  0
LINE
  5
197
330
1F
100
AcDbEntity
  8
0-0
  6
JWW_DASHED1
 62
   120
370
     5
100
AcDbLine
 10
-424.8145213022538
 20
-160.2081545064381
 30
0.0
 11
-424.8145213022538
 21
1014.791845493562
 31
0.0
  0
LINE
  5
198
330
1F
100
AcDbEntity
  8
0-0
  6
JWW_DASHED1
 62
   120
370
     5
100
AcDbLine
 10
-437.8145213033538
 20
-160.2081545064381
 30
0.0
 11
-437.8145213033538
 21
1014.791845493562
 31
0.0
  0
LINE
  5
199
330
1F
100
AcDbEntity
  8
0-0
  6
JWW_DASHED1
 62
   120
370
     5
100
AcDbLine
 10
-438.814521303254
 20
-160.2081545064381
 30
0.0
 11
-438.814521303254
 21
1014.791845493562
 31
0.0
  0
LINE
  5
19A
330
1F
100
AcDbEntity
  8
0-0
  6
JWW_DASHED1
 62
   120
370
     5
100
AcDbLine
 10
-451.814521304354
 20
-160.2081545064381
 30
0.0
 11
-451.814521304354
 21
1014.791845493562
 31
0.0
  0
LINE
  5
19B
330
1F
100
AcDbEntity
  8
0-0
  6
JWW_DASHED1
 62
   120
370
     5
100
AcDbLine
 10
-452.8145213042538
 20
-160.2081545064381
 30
0.0
 11
-452.8145213042534
 21
1014.791845493562
 31
0.0
  0
LINE
  5
19C
330
1F
100
AcDbEntity
  8
0-0
  6
JWW_DASHED1
 62
   120
370
     5
100
AcDbLine
 10
-465.8145213053538
 20
-160.2081545064381
 30
0.0
 11
-465.8145213053534
 21
1014.791845493562
 31
0.0
  0
LINE
  5
19D
330
1F
100
AcDbEntity
  8
0-0
  6
JWW_DASHED1
 62
   120
370
     5
100
AcDbLine
 10
-466.8145213052536
 20
-160.2081545064381
 30
0.0
 11
-466.8145213052536
 21
1014.791845493562
 31
0.0
  0
LINE
  5
19E
330
1F
100
AcDbEntity
  8
0-0
  6
JWW_DASHED1
 62
   120
370
     5
100
AcDbLine
 10
-479.8145213063536
 20
-160.2081545064381
 30
0.0
 11
-479.8145213063536
 21
1014.791845493562
 31
0.0
  0
LINE
  5
19F
330
1F
100
AcDbEntity
  8
0-0
  6
JWW_DASHED1
 62
   120
370
     5
100
AcDbLine
 10
-480.8145213062538
 20
-160.2081545064381
 30
0.0
 11
-480.8145213062538
 21
1014.791845493562
 31
0.0
  0
LINE
  5
1A0
330
1F
100
AcDbEntity
  8
0-0
  6
JWW_DASHED1
 62
   120
370
     5
100
AcDbLine
 10
-493.8145213073534
 20
-160.2081545064381
 30
0.0
 11
-493.8145213073534
 21
1014.791845493562
 31
0.0
  0
LINE
  5
1A1
330
1F
100
AcDbEntity
  8
0-0
  6
JWW_DASHED1
 62
   120
370
     5
100
AcDbLine
 10
-494.8145213072536
 20
-160.2081545064381
 30
0.0
 11
-494.8145213072536
 21
1014.791845493562
 31
0.0
  0
LINE
  5
1A2
330
1F
100
AcDbEntity
  8
0-0
  6
JWW_DASHED1
 62
   120
370
     5
100
AcDbLine
 10
-507.8145213083532
 20
-160.2081545064381
 30
0.0
 11
-507.8145213083532
 21
1014.791845493562
 31
0.0
  0
LINE
  5
1A3
330
1F
100
AcDbEntity
  8
0-0
  6
JWW_DASHED1
 62
   120
370
     5
100
AcDbLine
 10
-508.8145213082533
 20
-160.2081545064381
 30
0.0
 11
-508.8145213082533
 21
1014.791845493562
 31
0.0
  0
LINE
  5
1A4
330
1F
100
AcDbEntity
  8
0-0
  6
JWW_DASHED1
 62
   120
370
     5
100
AcDbLine
 10
-521.8145213093534
 20
-160.2081545064381
 30
0.0
 11
-521.8145213093534
 21
1014.791845493562
 31
0.0
  0
LINE
  5
1A5
330
1F
100
AcDbEntity
  8
0-0
  6
JWW_DASHED1
 62
   120
370
     5
100
AcDbLine
 10
-522.8145213092536
 20
-160.2081545064381
 30
0.0
 11
-522.8145213092536
 21
1014.791845493562
 31
0.0
  0
LINE
  5
1A6
330
1F
100
AcDbEntity
  8
0-0
  6
JWW_DASHED1
 62
   120
370
     5
100
AcDbLine
 10
-535.8145213103536
 20
-160.2081545064381
 30
0.0
 11
-535.8145213103536
 21
1014.791845493562
 31
0.0
  0
LINE
  5
1A7
330
1F
100
AcDbEntity
  8
0-0
  6
JWW_DASHED1
 62
   120
370
     5
100
AcDbLine
 10
-536.8145213102538
 20
-160.2081545064381
 30
0.0
 11
-536.8145213102538
 21
1014.791845493562
 31
0.0
  0
LINE
  5
1A8
330
1F
100
AcDbEntity
  8
0-0
  6
JWW_DASHED1
 62
   120
370
     5
100
AcDbLine
 10
-549.8145213113535
 20
-160.2081545064381
 30
0.0
 11
-549.8145213113535
 21
1014.791845493562
 31
0.0
  0
LINE
  5
1A9
330
1F
100
AcDbEntity
  8
0-0
  6
JWW_DASHED1
 62
   120
370
     5
100
AcDbLine
 10
-550.8145213112537
 20
-160.2081545064381
 30
0.0
 11
-550.8145213112537
 21
1014.791845493562
 31
0.0
  0
LINE
  5
1AA
330
1F
100
AcDbEntity
  8
0-0
  6
JWW_DASHED1
 62
   120
370
     5
100
AcDbLine
 10
-563.8145213123533
 20
-160.2081545064381
 30
0.0
 11
-563.8145213123533
 21
1014.791845493562
 31
0.0
  0
LINE
  5
1AB
330
1F
100
AcDbEntity
  8
0-0
  6
JWW_DASHED1
 62
   120
370
     5
100
AcDbLine
 10
-564.8145213122535
 20
-160.2081545064381
 30
0.0
 11
-564.8145213122535
 21
1014.791845493562
 31
0.0
  0
LINE
  5
1AC
330
1F
100
AcDbEntity
  8
0-0
  6
JWW_DASHED1
 62
   120
370
     5
100
AcDbLine
 10
-577.8145213133535
 20
-160.2081545064381
 30
0.0
 11
-577.8145213133535
 21
1014.791845493562
 31
0.0
  0
LINE
  5
1AD
330
1F
100
AcDbEntity
  8
0-0
  6
JWW_DASHED1
 62
   120
370
     5
100
AcDbLine
 10
-578.8145213132536
 20
-160.2081545064381
 30
0.0
 11
-578.8145213132536
 21
1014.791845493562
 31
0.0
  0
LINE
  5
1AE
330
1F
100
AcDbEntity
  8
0-0
  6
JWW_DASHED1
 62
   120
370
     5
100
AcDbLine
 10
-591.8145213143537
 20
-160.2081545064381
 30
0.0
 11
-591.8145213143537
 21
1014.791845493562
 31
0.0
  0
LINE
  5
1AF
330
1F
100
AcDbEntity
  8
0-0
  6
JWW_DASHED1
 62
   120
370
     5
100
AcDbLine
 10
-592.8145213142539
 20
-160.2081545064381
 30
0.0
 11
-592.8145213142539
 21
1014.791845493562
 31
0.0
  0
LINE
  5
1B0
330
1F
100
AcDbEntity
  8
0-0
  6
JWW_DASHED1
 62
   120
370
     5
100
AcDbLine
 10
-605.8145213153534
 20
-160.2081545064381
 30
0.0
 11
-605.8145213153534
 21
1014.791845493562
 31
0.0
  0
LINE
  5
1B1
330
1F
100
AcDbEntity
  8
0-0
  6
JWW_DASHED1
 62
   120
370
     5
100
AcDbLine
 10
-606.8145213152536
 20
-160.2081545064381
 30
0.0
 11
-606.8145213152536
 21
1014.791845493562
 31
0.0
  0
LINE
  5
1B2
330
1F
100
AcDbEntity
  8
0-0
  6
JWW_DASHED1
 62
   120
370
     5
100
AcDbLine
 10
-619.8145213163532
 20
-160.2081545064381
 30
0.0
 11
-619.8145213163532
 21
1014.791845493562
 31
0.0
  0
LINE
  5
1B3
330
1F
100
AcDbEntity
  8
0-0
  6
JWW_DASHED1
 62
   120
370
     5
100
AcDbLine
 10
-620.8145213162538
 20
-160.2081545064381
 30
0.0
 11
-620.8145213162538
 21
1014.791845493562
 31
0.0
  0
LINE
  5
1B4
330
1F
100
AcDbEntity
  8
0-0
  6
JWW_DASHED1
 62
   120
370
     5
100
AcDbLine
 10
-633.8145213173534
 20
-160.2081545064381
 30
0.0
 11
-633.8145213173534
 21
1014.791845493562
 31
0.0
  0
LINE
  5
1B5
330
1F
100
AcDbEntity
  8
0-0
  6
JWW_DASHED1
 62
   120
370
     5
100
AcDbLine
 10
-634.8145213172536
 20
-160.2081545064381
 30
0.0
 11
-634.8145213172536
 21
1014.791845493562
 31
0.0
  0
LINE
  5
1B6
330
1F
100
AcDbEntity
  8
0-0
  6
JWW_DASHED1
 62
   120
370
     5
100
AcDbLine
 10
-647.8145213183536
 20
-160.2081545064381
 30
0.0
 11
-647.8145213183536
 21
1014.791845493562
 31
0.0
  0
LINE
  5
1B7
330
1F
100
AcDbEntity
  8
0-0
  6
JWW_DASHED1
 62
   120
370
     5
100
AcDbLine
 10
-648.8145213182538
 20
-160.2081545064381
 30
0.0
 11
-648.8145213182538
 21
1014.791845493562
 31
0.0
  0
LINE
  5
1B8
330
1F
100
AcDbEntity
  8
0-0
  6
JWW_DASHED1
 62
   120
370
     5
100
AcDbLine
 10
-661.8145213193538
 20
-160.2081545064381
 30
0.0
 11
-661.8145213193538
 21
1014.791845493562
 31
0.0
  0
LINE
  5
1B9
330
1F
100
AcDbEntity
  8
0-0
  6
JWW_DASHED1
 62
   120
370
     5
100
AcDbLine
 10
-662.8145213192536
 20
-160.2081545064381
 30
0.0
 11
-662.8145213192536
 21
1014.791845493562
 31
0.0
  0
LINE
  5
1BA
330
1F
100
AcDbEntity
  8
0-0
  6
JWW_DASHED1
 62
   120
370
     5
100
AcDbLine
 10
-675.8145213203533
 20
-160.2081545064381
 30
0.0
 11
-675.8145213203533
 21
1014.791845493562
 31
0.0
  0
LINE
  5
1BB
330
1F
100
AcDbEntity
  8
0-0
  6
JWW_DASHED1
 62
   120
370
     5
100
AcDbLine
 10
-676.8145213202534
 20
-160.2081545064381
 30
0.0
 11
-676.8145213202534
 21
1014.791845493562
 31
0.0
  0
LINE
  5
1BC
330
1F
100
AcDbEntity
  8
0-0
  6
JWW_DASHED1
 62
   120
370
     5
100
AcDbLine
 10
-689.8145213213535
 20
-160.2081545064381
 30
0.0
 11
-689.8145213213535
 21
1014.791845493562
 31
0.0
  0
LINE
  5
1BD
330
1F
100
AcDbEntity
  8
0-0
  6
JWW_DASHED1
 62
   120
370
     5
100
AcDbLine
 10
-690.8145213212537
 20
-160.2081545064381
 30
0.0
 11
-690.8145213212537
 21
1014.791845493562
 31
0.0
  0
LINE
  5
1BE
330
1F
100
AcDbEntity
  8
0-0
  6
JWW_DASHED1
 62
   120
370
     5
100
AcDbLine
 10
-703.8145213223537
 20
-160.2081545064381
 30
0.0
 11
-703.8145213223537
 21
1014.791845493562
 31
0.0
  0
LINE
  5
1BF
330
1F
100
AcDbEntity
  8
0-0
  6
JWW_DASHED1
 62
   120
370
     5
100
AcDbLine
 10
-704.8145213222539
 20
-160.2081545064381
 30
0.0
 11
-704.8145213222539
 21
1014.791845493562
 31
0.0
  0
LINE
  5
1C0
330
1F
100
AcDbEntity
  8
0-0
  6
JWW_DASHED1
 62
   120
370
     5
100
AcDbLine
 10
-717.8145213233535
 20
-160.2081545064381
 30
0.0
 11
-717.8145213233535
 21
1014.791845493562
 31
0.0
  0
LINE
  5
1C1
330
1F
100
AcDbEntity
  8
0-0
  6
JWW_DASHED1
 62
   120
370
     5
100
AcDbLine
 10
-718.8145213232536
 20
-160.2081545064381
 30
0.0
 11
-718.8145213232536
 21
1014.791845493562
 31
0.0
  0
LINE
  5
1C2
330
1F
100
AcDbEntity
  8
0-0
  6
JWW_DASHED1
 62
   120
370
     5
100
AcDbLine
 10
-731.8145213243532
 20
-160.2081545064381
 30
0.0
 11
-731.8145213243532
 21
1014.791845493562
 31
0.0
  0
LINE
  5
1C3
330
1F
100
AcDbEntity
  8
0-0
  6
JWW_DASHED1
 62
   120
370
     5
100
AcDbLine
 10
-732.8145213242534
 20
-160.2081545064381
 30
0.0
 11
-732.8145213242534
 21
1014.791845493562
 31
0.0
  0
LINE
  5
1C4
330
1F
100
AcDbEntity
  8
0-0
  6
JWW_DASHED1
 62
   120
370
     5
100
AcDbLine
 10
-745.8145213253534
 20
-160.2081545064381
 30
0.0
 11
-745.8145213253534
 21
1014.791845493562
 31
0.0
  0
LINE
  5
1C5
330
1F
100
AcDbEntity
  8
0-0
  6
JWW_DASHED1
 62
   120
370
     5
100
AcDbLine
 10
-746.8145213252536
 20
-160.2081545064381
 30
0.0
 11
-746.8145213252536
 21
1014.791845493562
 31
0.0
  0
LINE
  5
1C6
330
1F
100
AcDbEntity
  8
0-0
  6
JWW_DASHED1
 62
   120
370
     5
100
AcDbLine
 10
-759.8145213263537
 20
-160.2081545064381
 30
0.0
 11
-759.8145213263537
 21
1014.791845493562
 31
0.0
  0
LINE
  5
1C7
330
1F
100
AcDbEntity
  8
0-0
  6
JWW_DASHED1
 62
   120
370
     5
100
AcDbLine
 10
-760.8145213262538
 20
-160.2081545064381
 30
0.0
 11
-760.8145213262538
 21
1014.791845493562
 31
0.0
  0
LINE
  5
1C8
330
1F
100
AcDbEntity
  8
0-0
  6
JWW_DASHED1
 62
   120
370
     5
100
AcDbLine
 10
-773.8145213273535
 20
-160.2081545064381
 30
0.0
 11
-773.8145213273535
 21
1014.791845493562
 31
0.0
  0
LINE
  5
1C9
330
1F
100
AcDbEntity
  8
0-0
  6
JWW_DASHED1
 62
   120
370
     5
100
AcDbLine
 10
-774.8145213272537
 20
-160.2081545064381
 30
0.0
 11
-774.8145213272537
 21
1014.791845493562
 31
0.0
  0
LINE
  5
1CA
330
1F
100
AcDbEntity
  8
0-0
  6
JWW_DASHED1
 62
   120
370
     5
100
AcDbLine
 10
-787.8145213283533
 20
-160.2081545064381
 30
0.0
 11
-787.8145213283533
 21
1014.791845493562
 31
0.0
  0
LINE
  5
1CB
330
1F
100
AcDbEntity
  8
0-0
  6
JWW_DASHED1
 62
   120
370
     5
100
AcDbLine
 10
-788.8145213282535
 20
-160.2081545064381
 30
0.0
 11
-788.8145213282535
 21
1014.791845493562
 31
0.0
  0
LINE
  5
1CC
330
1F
100
AcDbEntity
  8
0-0
  6
JWW_DASHED1
 62
   120
370
     5
100
AcDbLine
 10
-801.8145213293535
 20
-160.2081545064381
 30
0.0
 11
-801.8145213293535
 21
1014.791845493562
 31
0.0
  0
LINE
  5
1CD
330
1F
100
AcDbEntity
  8
0-0
  6
JWW_DASHED1
 62
   120
370
     5
100
AcDbLine
 10
-802.8145213292537
 20
-160.2081545064381
 30
0.0
 11
-802.8145213292537
 21
1014.791845493562
 31
0.0
  0
LINE
  5
1CE
330
1F
100
AcDbEntity
  8
0-0
  6
JWW_DASHED1
 62
   120
370
     5
100
AcDbLine
 10
-815.8145213303537
 20
-160.2081545064381
 30
0.0
 11
-815.8145213303537
 21
1014.791845493562
 31
0.0
  0
LINE
  5
1CF
330
1F
100
AcDbEntity
  8
0-0
  6
JWW_DASHED1
 62
   120
370
     5
100
AcDbLine
 10
-816.8145213302539
 20
-160.2081545064381
 30
0.0
 11
-816.8145213302539
 21
1014.791845493562
 31
0.0
  0
LINE
  5
1D0
330
1F
100
AcDbEntity
  8
0-0
  6
JWW_DASHED1
 62
   120
370
     5
100
AcDbLine
 10
-829.8145213313535
 20
-160.2081545064381
 30
0.0
 11
-829.8145213313535
 21
1014.791845493562
 31
0.0
  0
LINE
  5
1D1
330
1F
100
AcDbEntity
  8
0-0
  6
JWW_DASHED1
 62
   120
370
     5
100
AcDbLine
 10
-830.8145213312537
 20
-160.2081545064381
 30
0.0
 11
-830.8145213312537
 21
1014.791845493562
 31
0.0
  0
LINE
  5
1D2
330
1F
100
AcDbEntity
  8
0-0
  6
JWW_DASHED1
 62
   120
370
     5
100
AcDbLine
 10
-843.8145213323537
 20
-160.2081545064381
 30
0.0
 11
-843.8145213323537
 21
1014.791845493562
 31
0.0
  0
LINE
  5
1D3
330
1F
100
AcDbEntity
  8
0-0
  6
JWW_DASHED1
 62
   120
370
     5
100
AcDbLine
 10
-844.8145213322534
 20
-160.2081545064381
 30
0.0
 11
-844.8145213322534
 21
1014.791845493562
 31
0.0
  0
LINE
  5
1D4
330
1F
100
AcDbEntity
  8
0-0
  6
JWW_DASHED1
 62
   120
370
     5
100
AcDbLine
 10
-857.8145213333535
 20
-160.2081545064381
 30
0.0
 11
-857.8145213333535
 21
1014.791845493562
 31
0.0
  0
LINE
  5
1D5
330
1F
100
AcDbEntity
  8
0-0
  6
JWW_DASHED1
 62
   120
370
     5
100
AcDbLine
 10
-858.8145213332541
 20
-160.2081545064381
 30
0.0
 11
-858.8145213332541
 21
1014.791845493562
 31
0.0
  0
LINE
  5
1D6
330
1F
100
AcDbEntity
  8
0-0
  6
JWW_DASHED1
 62
   120
370
     5
100
AcDbLine
 10
-871.8145213343537
 20
-160.2081545064381
 30
0.0
 11
-871.8145213343537
 21
1014.791845493562
 31
0.0
  0
LINE
  5
1D7
330
1F
100
AcDbEntity
  8
0-0
  6
JWW_DASHED1
 62
   120
370
     5
100
AcDbLine
 10
-872.8145213342539
 20
-160.2081545064381
 30
0.0
 11
-872.8145213342539
 21
1014.791845493562
 31
0.0
  0
LINE
  5
1D8
330
1F
100
AcDbEntity
  8
0-0
  6
JWW_DASHED1
 62
   120
370
     5
100
AcDbLine
 10
-885.8145213353534
 20
-160.2081545064381
 30
0.0
 11
-885.8145213353534
 21
1014.791845493562
 31
0.0
  0
LINE
  5
1D9
330
1F
100
AcDbEntity
  8
0-0
  6
JWW_DASHED1
 62
   120
370
     5
100
AcDbLine
 10
-886.8145213352541
 20
-160.2081545064381
 30
0.0
 11
-886.8145213352541
 21
1014.791845493562
 31
0.0
  0
LINE
  5
1DA
330
1F
100
AcDbEntity
  8
0-0
  6
JWW_DASHED1
 62
   120
370
     5
100
AcDbLine
 10
-899.8145213363533
 20
-160.2081545064381
 30
0.0
 11
-899.8145213363533
 21
1014.791845493562
 31
0.0
  0
LINE
  5
1DB
330
1F
100
AcDbEntity
  8
0-0
  6
JWW_DASHED1
 62
   120
370
     5
100
AcDbLine
 10
-900.8145213362535
 20
-160.2081545064381
 30
0.0
 11
-900.8145213362535
 21
1014.791845493562
 31
0.0
  0
LINE
  5
1DC
330
1F
100
AcDbEntity
  8
0-0
  6
JWW_DASHED1
 62
   120
370
     5
100
AcDbLine
 10
-913.8145213373535
 20
-160.2081545064381
 30
0.0
 11
-913.8145213373535
 21
1014.791845493562
 31
0.0
  0
LINE
  5
1DD
330
1F
100
AcDbEntity
  8
0-0
  6
JWW_DASHED1
 62
   120
370
     5
100
AcDbLine
 10
-914.8145213372537
 20
-160.2081545064381
 30
0.0
 11
-914.8145213372537
 21
1014.791845493562
 31
0.0
  0
LINE
  5
1DE
330
1F
100
AcDbEntity
  8
0-0
  6
JWW_DASHED1
 62
   120
370
     5
100
AcDbLine
 10
-927.8145213383538
 20
-160.2081545064381
 30
0.0
 11
-927.8145213383538
 21
1014.791845493562
 31
0.0
  0
LINE
  5
1DF
330
1F
100
AcDbEntity
  8
0-0
  6
JWW_DASHED1
 62
   120
370
     5
100
AcDbLine
 10
-367.8145212983537
 20
-160.2081545064381
 30
0.0
 11
-367.8145212983537
 21
1014.791845493562
 31
0.0
  0
LINE
  5
1E0
330
1F
100
AcDbEntity
  8
0-0
  6
JWW_DASHED1
 62
   120
370
     5
100
AcDbLine
 10
-382.8145212992536
 20
-160.2081545064381
 30
0.0
 11
-382.8145212992536
 21
1014.791845493562
 31
0.0
  0
LINE
  5
1E1
330
1F
100
AcDbEntity
  8
0-0
  6
JWW_DASHED1
 62
   120
370
     5
100
AcDbLine
 10
-368.8145212982539
 20
-160.2081545064381
 30
0.0
 11
-368.8145212982539
 21
1014.791845493562
 31
0.0
  0
LINE
  5
1E2
330
1F
100
AcDbEntity
  8
0-0
  6
JWW_DASHED1
 62
   120
370
     5
100
AcDbLine
 10
-381.8145212993539
 20
-160.2081545064381
 30
0.0
 11
-381.8145212993539
 21
1014.791845493562
 31
0.0
  0
LINE
  5
1E3
330
1F
100
AcDbEntity
  8
0-0
  6
JWW_DASHED1
 62
   120
370
     5
100
AcDbLine
 10
-934.8145397962849
 20
1002.791697262601
 30
0.0
 11
-361.8145397962859
 21
1002.791697262601
 31
0.0
  0
LINE
  5
1E4
330
1F
100
AcDbEntity
  8
0-0
  6
JWW_DASHED1
 62
   120
370
     5
100
AcDbLine
 10
-934.8145397962849
 20
959.7916972597013
 30
0.0
 11
-361.8145397962859
 21
959.7916972597013
 31
0.0
  0
LINE
  5
1E5
330
1F
100
AcDbEntity
  8
0-0
  6
JWW_DASHED1
 62
   120
370
     5
100
AcDbLine
 10
-934.8145397962849
 20
960.7916972596015
 30
0.0
 11
-361.8145397962859
 21
960.7916972596015
 31
0.0
  0
LINE
  5
1E6
330
1F
100
AcDbEntity
  8
0-0
  6
JWW_DASHED1
 62
   120
370
     5
100
AcDbLine
 10
-934.8145397962849
 20
973.7916972607012
 30
0.0
 11
-361.8145397962859
 21
973.7916972607012
 31
0.0
  0
LINE
  5
1E7
330
1F
100
AcDbEntity
  8
0-0
  6
JWW_DASHED1
 62
   120
370
     5
100
AcDbLine
 10
-934.8145397962849
 20
974.7916972606014
 30
0.0
 11
-361.8145397962859
 21
974.7916972606014
 31
0.0
  0
LINE
  5
1E8
330
1F
100
AcDbEntity
  8
0-0
  6
JWW_DASHED1
 62
   120
370
     5
100
AcDbLine
 10
-934.8145397962849
 20
987.791697261701
 30
0.0
 11
-361.8145397962859
 21
987.791697261701
 31
0.0
  0
LINE
  5
1E9
330
1F
100
AcDbEntity
  8
0-0
  6
JWW_DASHED1
 62
   120
370
     5
100
AcDbLine
 10
-934.8145397962849
 20
988.7916972616011
 30
0.0
 11
-361.8145397962859
 21
988.7916972616011
 31
0.0
  0
LINE
  5
1EA
330
1F
100
AcDbEntity
  8
0-0
  6
JWW_DASHED1
 62
   120
370
     5
100
AcDbLine
 10
-934.8145397962849
 20
1001.791697262701
 30
0.0
 11
-361.8145397962859
 21
1001.791697262701
 31
0.0
  0
LINE
  5
1EB
330
1F
100
AcDbEntity
  8
0-0
  6
JWW_DASHED1
 62
   120
370
     5
100
AcDbLine
 10
-154.8145397962849
 20
-159.2083028203817
 30
0.0
 11
418.1854602037158
 21
-159.2083028203817
 31
0.0
  0
LINE
  5
1EC
330
1F
100
AcDbEntity
  8
0-0
  6
JWW_DASHED1
 62
   120
370
     5
100
AcDbLine
 10
-154.8145397962849
 20
-146.2083028192821
 30
0.0
 11
418.1854602037158
 21
-146.2083028192821
 31
0.0
  0
LINE
  5
1ED
330
1F
100
AcDbEntity
  8
0-0
  6
JWW_DASHED1
 62
   120
370
     5
100
AcDbLine
 10
-154.8145397962849
 20
-145.2083028193819
 30
0.0
 11
418.1854602037158
 21
-145.2083028193819
 31
0.0
  0
LINE
  5
1EE
330
1F
100
AcDbEntity
  8
0-0
  6
JWW_DASHED1
 62
   120
370
     5
100
AcDbLine
 10
-154.8145397962849
 20
-132.2083028182823
 30
0.0
 11
418.1854602037158
 21
-132.2083028182823
 31
0.0
  0
LINE
  5
1EF
330
1F
100
AcDbEntity
  8
0-0
  6
JWW_DASHED1
 62
   120
370
     5
100
AcDbLine
 10
-154.8145397962849
 20
-131.2083028183821
 30
0.0
 11
418.1854602037158
 21
-131.2083028183821
 31
0.0
  0
LINE
  5
1F0
330
1F
100
AcDbEntity
  8
0-0
  6
JWW_DASHED1
 62
   120
370
     5
100
AcDbLine
 10
-154.8145397962849
 20
-118.2083028172825
 30
0.0
 11
418.1854602037158
 21
-118.2083028172825
 31
0.0
  0
LINE
  5
1F1
330
1F
100
AcDbEntity
  8
0-0
  6
JWW_DASHED1
 62
   120
370
     5
100
AcDbLine
 10
-154.8145397962849
 20
-117.2083028173823
 30
0.0
 11
418.1854602037158
 21
-117.2083028173823
 31
0.0
  0
LINE
  5
1F2
330
1F
100
AcDbEntity
  8
0-0
  6
JWW_DASHED1
 62
   120
370
     5
100
AcDbLine
 10
-154.8145397962849
 20
-104.2083028162827
 30
0.0
 11
418.1854602037158
 21
-104.2083028162827
 31
0.0
  0
LINE
  5
1F3
330
1F
100
AcDbEntity
  8
0-0
  6
JWW_DASHED1
 62
   120
370
     5
100
AcDbLine
 10
-154.8145397962849
 20
-103.2083028163825
 30
0.0
 11
418.1854602037158
 21
-103.2083028163825
 31
0.0
  0
LINE
  5
1F4
330
1F
100
AcDbEntity
  8
0-0
  6
JWW_DASHED1
 62
   120
370
     5
100
AcDbLine
 10
-154.8145397962849
 20
-90.20830281528302
 30
0.0
 11
418.1854602037158
 21
-90.20830281528302
 31
0.0
  0
LINE
  5
1F5
330
1F
100
AcDbEntity
  8
0-0
  6
JWW_DASHED1
 62
   120
370
     5
100
AcDbLine
 10
-154.8145397962849
 20
-89.20830281538284
 30
0.0
 11
418.1854602037158
 21
-89.20830281538284
 31
0.0
  0
LINE
  5
1F6
330
1F
100
AcDbEntity
  8
0-0
  6
JWW_DASHED1
 62
   120
370
     5
100
AcDbLine
 10
-154.8145397962849
 20
-76.20830281428312
 30
0.0
 11
418.1854602037158
 21
-76.20830281428312
 31
0.0
  0
LINE
  5
1F7
330
1F
100
AcDbEntity
  8
0-0
  6
JWW_DASHED1
 62
   120
370
     5
100
AcDbLine
 10
-154.8145397962849
 20
-75.20830281438293
 30
0.0
 11
418.1854602037158
 21
-75.20830281438293
 31
0.0
  0
LINE
  5
1F8
330
1F
100
AcDbEntity
  8
0-0
  6
JWW_DASHED1
 62
   120
370
     5
100
AcDbLine
 10
-154.8145397962849
 20
-62.20830281328332
 30
0.0
 11
418.1854602037158
 21
-62.20830281328332
 31
0.0
  0
LINE
  5
1F9
330
1F
100
AcDbEntity
  8
0-0
  6
JWW_DASHED1
 62
   120
370
     5
100
AcDbLine
 10
-154.8145397962849
 20
-61.20830281338314
 30
0.0
 11
418.1854602037158
 21
-61.20830281338314
 31
0.0
  0
LINE
  5
1FA
330
1F
100
AcDbEntity
  8
0-0
  6
JWW_DASHED1
 62
   120
370
     5
100
AcDbLine
 10
-154.8145397962849
 20
-48.20830281228353
 30
0.0
 11
418.1854602037158
 21
-48.20830281228353
 31
0.0
  0
LINE
  5
1FB
330
1F
100
AcDbEntity
  8
0-0
  6
JWW_DASHED1
 62
   120
370
     5
100
AcDbLine
 10
-154.8145397962849
 20
-47.20830281238335
 30
0.0
 11
418.1854602037158
 21
-47.20830281238335
 31
0.0
  0
LINE
  5
1FC
330
1F
100
AcDbEntity
  8
0-0
  6
JWW_DASHED1
 62
   120
370
     5
100
AcDbLine
 10
-154.8145397962849
 20
-34.20830281128374
 30
0.0
 11
418.1854602037158
 21
-34.20830281128374
 31
0.0
  0
LINE
  5
1FD
330
1F
100
AcDbEntity
  8
0-0
  6
JWW_DASHED1
 62
   120
370
     5
100
AcDbLine
 10
-154.8145397962849
 20
-33.20830281138356
 30
0.0
 11
418.1854602037158
 21
-33.20830281138356
 31
0.0
  0
LINE
  5
1FE
330
1F
100
AcDbEntity
  8
0-0
  6
JWW_DASHED1
 62
   120
370
     5
100
AcDbLine
 10
-154.8145397962849
 20
-20.20830281028395
 30
0.0
 11
418.1854602037158
 21
-20.20830281028395
 31
0.0
  0
LINE
  5
1FF
330
1F
100
AcDbEntity
  8
0-0
  6
JWW_DASHED1
 62
   120
370
     5
100
AcDbLine
 10
-154.8145397962849
 20
-19.20830281038377
 30
0.0
 11
418.1854602037158
 21
-19.20830281038377
 31
0.0
  0
LINE
  5
200
330
1F
100
AcDbEntity
  8
0-0
  6
JWW_DASHED1
 62
   120
370
     5
100
AcDbLine
 10
-154.8145397962849
 20
-6.208302809284163
 30
0.0
 11
418.1854602037158
 21
-6.208302809284163
 31
0.0
  0
LINE
  5
201
330
1F
100
AcDbEntity
  8
0-0
  6
JWW_DASHED1
 62
   120
370
     5
100
AcDbLine
 10
-154.8145397962849
 20
-5.20830280938398
 30
0.0
 11
418.1854602037158
 21
-5.20830280938398
 31
0.0
  0
LINE
  5
202
330
1F
100
AcDbEntity
  8
0-0
  6
JWW_DASHED1
 62
   120
370
     5
100
AcDbLine
 10
-154.8145397962849
 20
7.791697191715627
 30
0.0
 11
418.1854602037158
 21
7.791697191715627
 31
0.0
  0
LINE
  5
203
330
1F
100
AcDbEntity
  8
0-0
  6
JWW_DASHED1
 62
   120
370
     5
100
AcDbLine
 10
-154.8145397962849
 20
8.79169719161581
 30
0.0
 11
418.1854602037158
 21
8.79169719161581
 31
0.0
  0
LINE
  5
204
330
1F
100
AcDbEntity
  8
0-0
  6
JWW_DASHED1
 62
   120
370
     5
100
AcDbLine
 10
-154.8145397962849
 20
21.79169719271531
 30
0.0
 11
418.1854602037158
 21
21.79169719271531
 31
0.0
  0
LINE
  5
205
330
1F
100
AcDbEntity
  8
0-0
  6
JWW_DASHED1
 62
   120
370
     5
100
AcDbLine
 10
-154.8145397962849
 20
22.79169719261549
 30
0.0
 11
418.1854602037158
 21
22.79169719261549
 31
0.0
  0
LINE
  5
206
330
1F
100
AcDbEntity
  8
0-0
  6
JWW_DASHED1
 62
   120
370
     5
100
AcDbLine
 10
-154.8145397962849
 20
35.79169719371521
 30
0.0
 11
418.1854602037158
 21
35.79169719371521
 31
0.0
  0
LINE
  5
207
330
1F
100
AcDbEntity
  8
0-0
  6
JWW_DASHED1
 62
   120
370
     5
100
AcDbLine
 10
-154.8145397962849
 20
36.79169719361539
 30
0.0
 11
418.1854602037158
 21
36.79169719361539
 31
0.0
  0
LINE
  5
208
330
1F
100
AcDbEntity
  8
0-0
  6
JWW_DASHED1
 62
   120
370
     5
100
AcDbLine
 10
-154.8145397962849
 20
49.791697194715
 30
0.0
 11
418.1854602037158
 21
49.791697194715
 31
0.0
  0
LINE
  5
209
330
1F
100
AcDbEntity
  8
0-0
  6
JWW_DASHED1
 62
   120
370
     5
100
AcDbLine
 10
-154.8145397962849
 20
50.79169719461518
 30
0.0
 11
418.1854602037158
 21
50.79169719461518
 31
0.0
  0
LINE
  5
20A
330
1F
100
AcDbEntity
  8
0-0
  6
JWW_DASHED1
 62
   120
370
     5
100
AcDbLine
 10
-154.8145397962849
 20
63.79169719571479
 30
0.0
 11
418.1854602037158
 21
63.79169719571479
 31
0.0
  0
LINE
  5
20B
330
1F
100
AcDbEntity
  8
0-0
  6
JWW_DASHED1
 62
   120
370
     5
100
AcDbLine
 10
-154.8145397962849
 20
64.79169719561497
 30
0.0
 11
418.1854602037158
 21
64.79169719561497
 31
0.0
  0
LINE
  5
20C
330
1F
100
AcDbEntity
  8
0-0
  6
JWW_DASHED1
 62
   120
370
     5
100
AcDbLine
 10
-154.8145397962849
 20
77.79169719671458
 30
0.0
 11
418.1854602037158
 21
77.79169719671458
 31
0.0
  0
LINE
  5
20D
330
1F
100
AcDbEntity
  8
0-0
  6
JWW_DASHED1
 62
   120
370
     5
100
AcDbLine
 10
-154.8145397962849
 20
78.79169719661476
 30
0.0
 11
418.1854602037158
 21
78.79169719661476
 31
0.0
  0
LINE
  5
20E
330
1F
100
AcDbEntity
  8
0-0
  6
JWW_DASHED1
 62
   120
370
     5
100
AcDbLine
 10
-154.8145397962849
 20
91.79169719771437
 30
0.0
 11
418.1854602037158
 21
91.79169719771437
 31
0.0
  0
LINE
  5
20F
330
1F
100
AcDbEntity
  8
0-0
  6
JWW_DASHED1
 62
   120
370
     5
100
AcDbLine
 10
-154.8145397962849
 20
92.79169719761455
 30
0.0
 11
418.1854602037158
 21
92.79169719761455
 31
0.0
  0
LINE
  5
210
330
1F
100
AcDbEntity
  8
0-0
  6
JWW_DASHED1
 62
   120
370
     5
100
AcDbLine
 10
-154.8145397962849
 20
105.7916971987142
 30
0.0
 11
418.1854602037158
 21
105.7916971987142
 31
0.0
  0
LINE
  5
211
330
1F
100
AcDbEntity
  8
0-0
  6
JWW_DASHED1
 62
   120
370
     5
100
AcDbLine
 10
-154.8145397962849
 20
106.7916971986143
 30
0.0
 11
418.1854602037158
 21
106.7916971986143
 31
0.0
  0
LINE
  5
212
330
1F
100
AcDbEntity
  8
0-0
  6
JWW_DASHED1
 62
   120
370
     5
100
AcDbLine
 10
-154.8145397962849
 20
119.791697199714
 30
0.0
 11
418.1854602037158
 21
119.791697199714
 31
0.0
  0
LINE
  5
213
330
1F
100
AcDbEntity
  8
0-0
  6
JWW_DASHED1
 62
   120
370
     5
100
AcDbLine
 10
-154.8145397962849
 20
120.7916971996141
 30
0.0
 11
418.1854602037158
 21
120.7916971996141
 31
0.0
  0
LINE
  5
214
330
1F
100
AcDbEntity
  8
0-0
  6
JWW_DASHED1
 62
   120
370
     5
100
AcDbLine
 10
-154.8145397962849
 20
133.7916972007137
 30
0.0
 11
418.1854602037158
 21
133.7916972007137
 31
0.0
  0
LINE
  5
215
330
1F
100
AcDbEntity
  8
0-0
  6
JWW_DASHED1
 62
   120
370
     5
100
AcDbLine
 10
-154.8145397962849
 20
134.7916972006139
 30
0.0
 11
418.1854602037158
 21
134.7916972006139
 31
0.0
  0
LINE
  5
216
330
1F
100
AcDbEntity
  8
0-0
  6
JWW_DASHED1
 62
   120
370
     5
100
AcDbLine
 10
-154.8145397962849
 20
147.7916972017135
 30
0.0
 11
418.1854602037158
 21
147.7916972017135
 31
0.0
  0
LINE
  5
217
330
1F
100
AcDbEntity
  8
0-0
  6
JWW_DASHED1
 62
   120
370
     5
100
AcDbLine
 10
-154.8145397962849
 20
148.7916972016137
 30
0.0
 11
418.1854602037158
 21
148.7916972016137
 31
0.0
  0
LINE
  5
218
330
1F
100
AcDbEntity
  8
0-0
  6
JWW_DASHED1
 62
   120
370
     5
100
AcDbLine
 10
-154.8145397962849
 20
161.7916972027133
 30
0.0
 11
418.1854602037158
 21
161.7916972027133
 31
0.0
  0
LINE
  5
219
330
1F
100
AcDbEntity
  8
0-0
  6
JWW_DASHED1
 62
   120
370
     5
100
AcDbLine
 10
-154.8145397962849
 20
162.7916972026135
 30
0.0
 11
418.1854602037158
 21
162.7916972026135
 31
0.0
  0
LINE
  5
21A
330
1F
100
AcDbEntity
  8
0-0
  6
JWW_DASHED1
 62
   120
370
     5
100
AcDbLine
 10
-154.8145397962849
 20
175.7916972037131
 30
0.0
 11
418.1854602037158
 21
175.7916972037131
 31
0.0
  0
LINE
  5
21B
330
1F
100
AcDbEntity
  8
0-0
  6
JWW_DASHED1
 62
   120
370
     5
100
AcDbLine
 10
-154.8145397962849
 20
176.7916972036133
 30
0.0
 11
418.1854602037158
 21
176.7916972036133
 31
0.0
  0
LINE
  5
21C
330
1F
100
AcDbEntity
  8
0-0
  6
JWW_DASHED1
 62
   120
370
     5
100
AcDbLine
 10
-154.8145397962849
 20
189.7916972047129
 30
0.0
 11
418.1854602037158
 21
189.7916972047129
 31
0.0
  0
LINE
  5
21D
330
1F
100
AcDbEntity
  8
0-0
  6
JWW_DASHED1
 62
   120
370
     5
100
AcDbLine
 10
-154.8145397962849
 20
190.7916972046131
 30
0.0
 11
418.1854602037158
 21
190.7916972046131
 31
0.0
  0
LINE
  5
21E
330
1F
100
AcDbEntity
  8
0-0
  6
JWW_DASHED1
 62
   120
370
     5
100
AcDbLine
 10
-154.8145397962849
 20
203.7916972057127
 30
0.0
 11
418.1854602037158
 21
203.7916972057127
 31
0.0
  0
LINE
  5
21F
330
1F
100
AcDbEntity
  8
0-0
  6
JWW_DASHED1
 62
   120
370
     5
100
AcDbLine
 10
-154.8145397962849
 20
204.7916972056129
 30
0.0
 11
418.1854602037158
 21
204.7916972056129
 31
0.0
  0
LINE
  5
220
330
1F
100
AcDbEntity
  8
0-0
  6
JWW_DASHED1
 62
   120
370
     5
100
AcDbLine
 10
-154.8145397962849
 20
217.7916972067125
 30
0.0
 11
418.1854602037158
 21
217.7916972067125
 31
0.0
  0
LINE
  5
221
330
1F
100
AcDbEntity
  8
0-0
  6
JWW_DASHED1
 62
   120
370
     5
100
AcDbLine
 10
-154.8145397962849
 20
218.7916972066127
 30
0.0
 11
418.1854602037158
 21
218.7916972066127
 31
0.0
  0
LINE
  5
222
330
1F
100
AcDbEntity
  8
0-0
  6
JWW_DASHED1
 62
   120
370
     5
100
AcDbLine
 10
-154.8145397962849
 20
231.7916972077123
 30
0.0
 11
418.1854602037158
 21
231.7916972077123
 31
0.0
  0
LINE
  5
223
330
1F
100
AcDbEntity
  8
0-0
  6
JWW_DASHED1
 62
   120
370
     5
100
AcDbLine
 10
-154.8145397962849
 20
232.7916972076125
 30
0.0
 11
418.1854602037158
 21
232.7916972076125
 31
0.0
  0
LINE
  5
224
330
1F
100
AcDbEntity
  8
0-0
  6
JWW_DASHED1
 62
   120
370
     5
100
AcDbLine
 10
-154.8145397962849
 20
245.7916972087121
 30
0.0
 11
418.1854602037158
 21
245.7916972087121
 31
0.0
  0
LINE
  5
225
330
1F
100
AcDbEntity
  8
0-0
  6
JWW_DASHED1
 62
   120
370
     5
100
AcDbLine
 10
-154.8145397962849
 20
246.7916972086122
 30
0.0
 11
418.1854602037158
 21
246.7916972086122
 31
0.0
  0
LINE
  5
226
330
1F
100
AcDbEntity
  8
0-0
  6
JWW_DASHED1
 62
   120
370
     5
100
AcDbLine
 10
-154.8145397962849
 20
259.7916972097119
 30
0.0
 11
418.1854602037158
 21
259.7916972097119
 31
0.0
  0
LINE
  5
227
330
1F
100
AcDbEntity
  8
0-0
  6
JWW_DASHED1
 62
   120
370
     5
100
AcDbLine
 10
-154.8145397962849
 20
260.791697209612
 30
0.0
 11
418.1854602037158
 21
260.791697209612
 31
0.0
  0
LINE
  5
228
330
1F
100
AcDbEntity
  8
0-0
  6
JWW_DASHED1
 62
   120
370
     5
100
AcDbLine
 10
-154.8145397962849
 20
273.7916972107114
 30
0.0
 11
418.1854602037158
 21
273.7916972107114
 31
0.0
  0
LINE
  5
229
330
1F
100
AcDbEntity
  8
0-0
  6
JWW_DASHED1
 62
   120
370
     5
100
AcDbLine
 10
-154.8145397962849
 20
274.7916972106118
 30
0.0
 11
418.1854602037158
 21
274.7916972106118
 31
0.0
  0
LINE
  5
22A
330
1F
100
AcDbEntity
  8
0-0
  6
JWW_DASHED1
 62
   120
370
     5
100
AcDbLine
 10
-154.8145397962849
 20
287.7916972117114
 30
0.0
 11
418.1854602037158
 21
287.7916972117114
 31
0.0
  0
LINE
  5
22B
330
1F
100
AcDbEntity
  8
0-0
  6
JWW_DASHED1
 62
   120
370
     5
100
AcDbLine
 10
-154.8145397962849
 20
288.7916972116116
 30
0.0
 11
418.1854602037158
 21
288.7916972116116
 31
0.0
  0
LINE
  5
22C
330
1F
100
AcDbEntity
  8
0-0
  6
JWW_DASHED1
 62
   120
370
     5
100
AcDbLine
 10
-154.8145397962849
 20
301.7916972127113
 30
0.0
 11
418.1854602037158
 21
301.7916972127113
 31
0.0
  0
LINE
  5
22D
330
1F
100
AcDbEntity
  8
0-0
  6
JWW_DASHED1
 62
   120
370
     5
100
AcDbLine
 10
-154.8145397962849
 20
302.7916972126114
 30
0.0
 11
418.1854602037158
 21
302.7916972126114
 31
0.0
  0
LINE
  5
22E
330
1F
100
AcDbEntity
  8
0-0
  6
JWW_DASHED1
 62
   120
370
     5
100
AcDbLine
 10
-154.8145397962849
 20
315.791697213711
 30
0.0
 11
418.1854602037158
 21
315.791697213711
 31
0.0
  0
LINE
  5
22F
330
1F
100
AcDbEntity
  8
0-0
  6
JWW_DASHED1
 62
   120
370
     5
100
AcDbLine
 10
-154.8145397962849
 20
316.7916972136112
 30
0.0
 11
418.1854602037158
 21
316.7916972136112
 31
0.0
  0
LINE
  5
230
330
1F
100
AcDbEntity
  8
0-0
  6
JWW_DASHED1
 62
   120
370
     5
100
AcDbLine
 10
-154.8145397962849
 20
329.7916972147108
 30
0.0
 11
418.1854602037158
 21
329.7916972147108
 31
0.0
  0
LINE
  5
231
330
1F
100
AcDbEntity
  8
0-0
  6
JWW_DASHED1
 62
   120
370
     5
100
AcDbLine
 10
-154.8145397962849
 20
330.791697214611
 30
0.0
 11
418.1854602037158
 21
330.791697214611
 31
0.0
  0
LINE
  5
232
330
1F
100
AcDbEntity
  8
0-0
  6
JWW_DASHED1
 62
   120
370
     5
100
AcDbLine
 10
-154.8145397962849
 20
343.7916972157106
 30
0.0
 11
418.1854602037158
 21
343.7916972157106
 31
0.0
  0
LINE
  5
233
330
1F
100
AcDbEntity
  8
0-0
  6
JWW_DASHED1
 62
   120
370
     5
100
AcDbLine
 10
-154.8145397962849
 20
344.7916972156108
 30
0.0
 11
418.1854602037158
 21
344.7916972156108
 31
0.0
  0
LINE
  5
234
330
1F
100
AcDbEntity
  8
0-0
  6
JWW_DASHED1
 62
   120
370
     5
100
AcDbLine
 10
-154.8145397962849
 20
357.7916972167104
 30
0.0
 11
418.1854602037158
 21
357.7916972167104
 31
0.0
  0
LINE
  5
235
330
1F
100
AcDbEntity
  8
0-0
  6
JWW_DASHED1
 62
   120
370
     5
100
AcDbLine
 10
-154.8145397962849
 20
358.7916972166106
 30
0.0
 11
418.1854602037158
 21
358.7916972166106
 31
0.0
  0
LINE
  5
236
330
1F
100
AcDbEntity
  8
0-0
  6
JWW_DASHED1
 62
   120
370
     5
100
AcDbLine
 10
-154.8145397962849
 20
371.7916972177102
 30
0.0
 11
418.1854602037158
 21
371.7916972177102
 31
0.0
  0
LINE
  5
237
330
1F
100
AcDbEntity
  8
0-0
  6
JWW_DASHED1
 62
   120
370
     5
100
AcDbLine
 10
-154.8145397962849
 20
372.7916972176104
 30
0.0
 11
418.1854602037158
 21
372.7916972176104
 31
0.0
  0
LINE
  5
238
330
1F
100
AcDbEntity
  8
0-0
  6
JWW_DASHED1
 62
   120
370
     5
100
AcDbLine
 10
-154.8145397962849
 20
385.7916972187099
 30
0.0
 11
418.1854602037158
 21
385.7916972187099
 31
0.0
  0
LINE
  5
239
330
1F
100
AcDbEntity
  8
0-0
  6
JWW_DASHED1
 62
   120
370
     5
100
AcDbLine
 10
-154.8145397962849
 20
386.79169721861
 30
0.0
 11
418.1854602037158
 21
386.79169721861
 31
0.0
  0
LINE
  5
23A
330
1F
100
AcDbEntity
  8
0-0
  6
JWW_DASHED1
 62
   120
370
     5
100
AcDbLine
 10
-154.8145397962849
 20
399.7916972197098
 30
0.0
 11
418.1854602037158
 21
399.7916972197098
 31
0.0
  0
LINE
  5
23B
330
1F
100
AcDbEntity
  8
0-0
  6
JWW_DASHED1
 62
   120
370
     5
100
AcDbLine
 10
-154.8145397962849
 20
400.7916972196099
 30
0.0
 11
418.1854602037158
 21
400.7916972196099
 31
0.0
  0
LINE
  5
23C
330
1F
100
AcDbEntity
  8
0-0
  6
JWW_DASHED1
 62
   120
370
     5
100
AcDbLine
 10
-154.8145397962849
 20
413.7916972207096
 30
0.0
 11
418.1854602037158
 21
413.7916972207096
 31
0.0
  0
LINE
  5
23D
330
1F
100
AcDbEntity
  8
0-0
  6
JWW_DASHED1
 62
   120
370
     5
100
AcDbLine
 10
-154.8145397962849
 20
414.7916972206098
 30
0.0
 11
418.1854602037158
 21
414.7916972206098
 31
0.0
  0
LINE
  5
23E
330
1F
100
AcDbEntity
  8
0-0
  6
JWW_DASHED1
 62
   120
370
     5
100
AcDbLine
 10
-154.8145397962849
 20
427.7916972217093
 30
0.0
 11
418.1854602037158
 21
427.7916972217093
 31
0.0
  0
LINE
  5
23F
330
1F
100
AcDbEntity
  8
0-0
  6
JWW_DASHED1
 62
   120
370
     5
100
AcDbLine
 10
-154.8145397962849
 20
428.7916972216095
 30
0.0
 11
418.1854602037158
 21
428.7916972216095
 31
0.0
  0
LINE
  5
240
330
1F
100
AcDbEntity
  8
0-0
  6
JWW_DASHED1
 62
   120
370
     5
100
AcDbLine
 10
-154.8145397962849
 20
441.7916972227091
 30
0.0
 11
418.1854602037158
 21
441.7916972227091
 31
0.0
  0
LINE
  5
241
330
1F
100
AcDbEntity
  8
0-0
  6
JWW_DASHED1
 62
   120
370
     5
100
AcDbLine
 10
-154.8145397962849
 20
442.7916972226093
 30
0.0
 11
418.1854602037158
 21
442.7916972226093
 31
0.0
  0
LINE
  5
242
330
1F
100
AcDbEntity
  8
0-0
  6
JWW_DASHED1
 62
   120
370
     5
100
AcDbLine
 10
-154.8145397962849
 20
455.7916972237089
 30
0.0
 11
418.1854602037158
 21
455.7916972237089
 31
0.0
  0
LINE
  5
243
330
1F
100
AcDbEntity
  8
0-0
  6
JWW_DASHED1
 62
   120
370
     5
100
AcDbLine
 10
-154.8145397962849
 20
456.7916972236091
 30
0.0
 11
418.1854602037158
 21
456.7916972236091
 31
0.0
  0
LINE
  5
244
330
1F
100
AcDbEntity
  8
0-0
  6
JWW_DASHED1
 62
   120
370
     5
100
AcDbLine
 10
-154.8145397962849
 20
469.7916972247087
 30
0.0
 11
418.1854602037158
 21
469.7916972247087
 31
0.0
  0
LINE
  5
245
330
1F
100
AcDbEntity
  8
0-0
  6
JWW_DASHED1
 62
   120
370
     5
100
AcDbLine
 10
-154.8145397962849
 20
470.7916972246089
 30
0.0
 11
418.1854602037158
 21
470.7916972246089
 31
0.0
  0
LINE
  5
246
330
1F
100
AcDbEntity
  8
0-0
  6
JWW_DASHED1
 62
   120
370
     5
100
AcDbLine
 10
-154.8145397962849
 20
483.7916972257085
 30
0.0
 11
418.1854602037158
 21
483.7916972257085
 31
0.0
  0
LINE
  5
247
330
1F
100
AcDbEntity
  8
0-0
  6
JWW_DASHED1
 62
   120
370
     5
100
AcDbLine
 10
-154.8145397962849
 20
484.7916972256087
 30
0.0
 11
418.1854602037158
 21
484.7916972256087
 31
0.0
  0
LINE
  5
248
330
1F
100
AcDbEntity
  8
0-0
  6
JWW_DASHED1
 62
   120
370
     5
100
AcDbLine
 10
-154.8145397962849
 20
497.7916972267081
 30
0.0
 11
418.1854602037158
 21
497.7916972267081
 31
0.0
  0
LINE
  5
249
330
1F
100
AcDbEntity
  8
0-0
  6
JWW_DASHED1
 62
   120
370
     5
100
AcDbLine
 10
-154.8145397962849
 20
498.7916972266084
 30
0.0
 11
418.1854602037158
 21
498.7916972266084
 31
0.0
  0
LINE
  5
24A
330
1F
100
AcDbEntity
  8
0-0
  6
JWW_DASHED1
 62
   120
370
     5
100
AcDbLine
 10
-154.8145397962849
 20
511.7916972277081
 30
0.0
 11
418.1854602037158
 21
511.7916972277081
 31
0.0
  0
LINE
  5
24B
330
1F
100
AcDbEntity
  8
0-0
  6
JWW_DASHED1
 62
   120
370
     5
100
AcDbLine
 10
-154.8145397962849
 20
512.7916972276082
 30
0.0
 11
418.1854602037158
 21
512.7916972276082
 31
0.0
  0
LINE
  5
24C
330
1F
100
AcDbEntity
  8
0-0
  6
JWW_DASHED1
 62
   120
370
     5
100
AcDbLine
 10
-154.8145397962849
 20
525.7916972287079
 30
0.0
 11
418.1854602037158
 21
525.7916972287079
 31
0.0
  0
LINE
  5
24D
330
1F
100
AcDbEntity
  8
0-0
  6
JWW_DASHED1
 62
   120
370
     5
100
AcDbLine
 10
-154.8145397962849
 20
526.7916972286081
 30
0.0
 11
418.1854602037158
 21
526.7916972286081
 31
0.0
  0
LINE
  5
24E
330
1F
100
AcDbEntity
  8
0-0
  6
JWW_DASHED1
 62
   120
370
     5
100
AcDbLine
 10
-154.8145397962849
 20
539.7916972297077
 30
0.0
 11
418.1854602037158
 21
539.7916972297077
 31
0.0
  0
LINE
  5
24F
330
1F
100
AcDbEntity
  8
0-0
  6
JWW_DASHED1
 62
   120
370
     5
100
AcDbLine
 10
-154.8145397962849
 20
540.7916972296078
 30
0.0
 11
418.1854602037158
 21
540.7916972296078
 31
0.0
  0
LINE
  5
250
330
1F
100
AcDbEntity
  8
0-0
  6
JWW_DASHED1
 62
   120
370
     5
100
AcDbLine
 10
-154.8145397962849
 20
553.7916972307074
 30
0.0
 11
418.1854602037158
 21
553.7916972307074
 31
0.0
  0
LINE
  5
251
330
1F
100
AcDbEntity
  8
0-0
  6
JWW_DASHED1
 62
   120
370
     5
100
AcDbLine
 10
-154.8145397962849
 20
554.7916972306076
 30
0.0
 11
418.1854602037158
 21
554.7916972306076
 31
0.0
  0
LINE
  5
252
330
1F
100
AcDbEntity
  8
0-0
  6
JWW_DASHED1
 62
   120
370
     5
100
AcDbLine
 10
-154.8145397962849
 20
567.7916972317073
 30
0.0
 11
418.1854602037158
 21
567.7916972317073
 31
0.0
  0
LINE
  5
253
330
1F
100
AcDbEntity
  8
0-0
  6
JWW_DASHED1
 62
   120
370
     5
100
AcDbLine
 10
-154.8145397962849
 20
568.7916972316075
 30
0.0
 11
418.1854602037158
 21
568.7916972316075
 31
0.0
  0
LINE
  5
254
330
1F
100
AcDbEntity
  8
0-0
  6
JWW_DASHED1
 62
   120
370
     5
100
AcDbLine
 10
-154.8145397962849
 20
581.7916972327071
 30
0.0
 11
418.1854602037158
 21
581.7916972327071
 31
0.0
  0
LINE
  5
255
330
1F
100
AcDbEntity
  8
0-0
  6
JWW_DASHED1
 62
   120
370
     5
100
AcDbLine
 10
-154.8145397962849
 20
582.7916972326072
 30
0.0
 11
418.1854602037158
 21
582.7916972326072
 31
0.0
  0
LINE
  5
256
330
1F
100
AcDbEntity
  8
0-0
  6
JWW_DASHED1
 62
   120
370
     5
100
AcDbLine
 10
-154.8145397962849
 20
595.7916972337068
 30
0.0
 11
418.1854602037158
 21
595.7916972337068
 31
0.0
  0
LINE
  5
257
330
1F
100
AcDbEntity
  8
0-0
  6
JWW_DASHED1
 62
   120
370
     5
100
AcDbLine
 10
-154.8145397962849
 20
596.791697233607
 30
0.0
 11
418.1854602037158
 21
596.791697233607
 31
0.0
  0
LINE
  5
258
330
1F
100
AcDbEntity
  8
0-0
  6
JWW_DASHED1
 62
   120
370
     5
100
AcDbLine
 10
-154.8145397962849
 20
609.7916972347066
 30
0.0
 11
418.1854602037158
 21
609.7916972347066
 31
0.0
  0
LINE
  5
259
330
1F
100
AcDbEntity
  8
0-0
  6
JWW_DASHED1
 62
   120
370
     5
100
AcDbLine
 10
-154.8145397962849
 20
610.7916972346065
 30
0.0
 11
418.1854602037158
 21
610.7916972346065
 31
0.0
  0
LINE
  5
25A
330
1F
100
AcDbEntity
  8
0-0
  6
JWW_DASHED1
 62
   120
370
     5
100
AcDbLine
 10
-154.8145397962849
 20
623.7916972357064
 30
0.0
 11
418.1854602037158
 21
623.7916972357064
 31
0.0
  0
LINE
  5
25B
330
1F
100
AcDbEntity
  8
0-0
  6
JWW_DASHED1
 62
   120
370
     5
100
AcDbLine
 10
-154.8145397962849
 20
624.7916972356065
 30
0.0
 11
418.1854602037158
 21
624.7916972356065
 31
0.0
  0
LINE
  5
25C
330
1F
100
AcDbEntity
  8
0-0
  6
JWW_DASHED1
 62
   120
370
     5
100
AcDbLine
 10
-154.8145397962849
 20
637.7916972367062
 30
0.0
 11
418.1854602037158
 21
637.7916972367062
 31
0.0
  0
LINE
  5
25D
330
1F
100
AcDbEntity
  8
0-0
  6
JWW_DASHED1
 62
   120
370
     5
100
AcDbLine
 10
-154.8145397962849
 20
638.7916972366064
 30
0.0
 11
418.1854602037158
 21
638.7916972366064
 31
0.0
  0
LINE
  5
25E
330
1F
100
AcDbEntity
  8
0-0
  6
JWW_DASHED1
 62
   120
370
     5
100
AcDbLine
 10
-154.8145397962849
 20
651.791697237706
 30
0.0
 11
418.1854602037158
 21
651.791697237706
 31
0.0
  0
LINE
  5
25F
330
1F
100
AcDbEntity
  8
0-0
  6
JWW_DASHED1
 62
   120
370
     5
100
AcDbLine
 10
-154.8145397962849
 20
652.7916972376062
 30
0.0
 11
418.1854602037158
 21
652.7916972376062
 31
0.0
  0
LINE
  5
260
330
1F
100
AcDbEntity
  8
0-0
  6
JWW_DASHED1
 62
   120
370
     5
100
AcDbLine
 10
-154.8145397962849
 20
665.7916972387058
 30
0.0
 11
418.1854602037158
 21
665.7916972387058
 31
0.0
  0
LINE
  5
261
330
1F
100
AcDbEntity
  8
0-0
  6
JWW_DASHED1
 62
   120
370
     5
100
AcDbLine
 10
-154.8145397962849
 20
666.7916972386059
 30
0.0
 11
418.1854602037158
 21
666.7916972386059
 31
0.0
  0
LINE
  5
262
330
1F
100
AcDbEntity
  8
0-0
  6
JWW_DASHED1
 62
   120
370
     5
100
AcDbLine
 10
-154.8145397962849
 20
679.7916972397056
 30
0.0
 11
418.1854602037158
 21
679.7916972397056
 31
0.0
  0
LINE
  5
263
330
1F
100
AcDbEntity
  8
0-0
  6
JWW_DASHED1
 62
   120
370
     5
100
AcDbLine
 10
-154.8145397962849
 20
680.7916972396058
 30
0.0
 11
418.1854602037158
 21
680.7916972396058
 31
0.0
  0
LINE
  5
264
330
1F
100
AcDbEntity
  8
0-0
  6
JWW_DASHED1
 62
   120
370
     5
100
AcDbLine
 10
-154.8145397962849
 20
693.7916972407054
 30
0.0
 11
418.1854602037158
 21
693.7916972407054
 31
0.0
  0
LINE
  5
265
330
1F
100
AcDbEntity
  8
0-0
  6
JWW_DASHED1
 62
   120
370
     5
100
AcDbLine
 10
-154.8145397962849
 20
694.7916972406056
 30
0.0
 11
418.1854602037158
 21
694.7916972406056
 31
0.0
  0
LINE
  5
266
330
1F
100
AcDbEntity
  8
0-0
  6
JWW_DASHED1
 62
   120
370
     5
100
AcDbLine
 10
-154.8145397962849
 20
707.7916972417049
 30
0.0
 11
418.1854602037158
 21
707.7916972417049
 31
0.0
  0
LINE
  5
267
330
1F
100
AcDbEntity
  8
0-0
  6
JWW_DASHED1
 62
   120
370
     5
100
AcDbLine
 10
-154.8145397962849
 20
708.7916972416051
 30
0.0
 11
418.1854602037158
 21
708.7916972416051
 31
0.0
  0
LINE
  5
268
330
1F
100
AcDbEntity
  8
0-0
  6
JWW_DASHED1
 62
   120
370
     5
100
AcDbLine
 10
-154.8145397962849
 20
721.7916972427047
 30
0.0
 11
418.1854602037158
 21
721.7916972427047
 31
0.0
  0
LINE
  5
269
330
1F
100
AcDbEntity
  8
0-0
  6
JWW_DASHED1
 62
   120
370
     5
100
AcDbLine
 10
-154.8145397962849
 20
722.7916972426051
 30
0.0
 11
418.1854602037158
 21
722.7916972426051
 31
0.0
  0
LINE
  5
26A
330
1F
100
AcDbEntity
  8
0-0
  6
JWW_DASHED1
 62
   120
370
     5
100
AcDbLine
 10
-154.8145397962849
 20
735.7916972437047
 30
0.0
 11
418.1854602037158
 21
735.7916972437047
 31
0.0
  0
LINE
  5
26B
330
1F
100
AcDbEntity
  8
0-0
  6
JWW_DASHED1
 62
   120
370
     5
100
AcDbLine
 10
-154.8145397962849
 20
736.7916972436049
 30
0.0
 11
418.1854602037158
 21
736.7916972436049
 31
0.0
  0
LINE
  5
26C
330
1F
100
AcDbEntity
  8
0-0
  6
JWW_DASHED1
 62
   120
370
     5
100
AcDbLine
 10
-154.8145397962849
 20
749.7916972447046
 30
0.0
 11
418.1854602037158
 21
749.7916972447046
 31
0.0
  0
LINE
  5
26D
330
1F
100
AcDbEntity
  8
0-0
  6
JWW_DASHED1
 62
   120
370
     5
100
AcDbLine
 10
-154.8145397962849
 20
750.7916972446047
 30
0.0
 11
418.1854602037158
 21
750.7916972446047
 31
0.0
  0
LINE
  5
26E
330
1F
100
AcDbEntity
  8
0-0
  6
JWW_DASHED1
 62
   120
370
     5
100
AcDbLine
 10
-154.8145397962849
 20
763.7916972457043
 30
0.0
 11
418.1854602037158
 21
763.7916972457043
 31
0.0
  0
LINE
  5
26F
330
1F
100
AcDbEntity
  8
0-0
  6
JWW_DASHED1
 62
   120
370
     5
100
AcDbLine
 10
-154.8145397962849
 20
764.7916972456045
 30
0.0
 11
418.1854602037158
 21
764.7916972456045
 31
0.0
  0
LINE
  5
270
330
1F
100
AcDbEntity
  8
0-0
  6
JWW_DASHED1
 62
   120
370
     5
100
AcDbLine
 10
-154.8145397962849
 20
777.7916972467041
 30
0.0
 11
418.1854602037158
 21
777.7916972467041
 31
0.0
  0
LINE
  5
271
330
1F
100
AcDbEntity
  8
0-0
  6
JWW_DASHED1
 62
   120
370
     5
100
AcDbLine
 10
-154.8145397962849
 20
778.7916972466043
 30
0.0
 11
418.1854602037158
 21
778.7916972466043
 31
0.0
  0
LINE
  5
272
330
1F
100
AcDbEntity
  8
0-0
  6
JWW_DASHED1
 62
   120
370
     5
100
AcDbLine
 10
-154.8145397962849
 20
791.791697247704
 30
0.0
 11
418.1854602037158
 21
791.791697247704
 31
0.0
  0
LINE
  5
273
330
1F
100
AcDbEntity
  8
0-0
  6
JWW_DASHED1
 62
   120
370
     5
100
AcDbLine
 10
-154.8145397962849
 20
792.7916972476041
 30
0.0
 11
418.1854602037158
 21
792.7916972476041
 31
0.0
  0
LINE
  5
274
330
1F
100
AcDbEntity
  8
0-0
  6
JWW_DASHED1
 62
   120
370
     5
100
AcDbLine
 10
-154.8145397962849
 20
805.7916972487037
 30
0.0
 11
418.1854602037158
 21
805.7916972487037
 31
0.0
  0
LINE
  5
275
330
1F
100
AcDbEntity
  8
0-0
  6
JWW_DASHED1
 62
   120
370
     5
100
AcDbLine
 10
-154.8145397962849
 20
806.7916972486039
 30
0.0
 11
418.1854602037158
 21
806.7916972486039
 31
0.0
  0
LINE
  5
276
330
1F
100
AcDbEntity
  8
0-0
  6
JWW_DASHED1
 62
   120
370
     5
100
AcDbLine
 10
-154.8145397962849
 20
819.7916972497032
 30
0.0
 11
418.1854602037158
 21
819.7916972497032
 31
0.0
  0
LINE
  5
277
330
1F
100
AcDbEntity
  8
0-0
  6
JWW_DASHED1
 62
   120
370
     5
100
AcDbLine
 10
-154.8145397962849
 20
820.7916972496034
 30
0.0
 11
418.1854602037158
 21
820.7916972496034
 31
0.0
  0
LINE
  5
278
330
1F
100
AcDbEntity
  8
0-0
  6
JWW_DASHED1
 62
   120
370
     5
100
AcDbLine
 10
-154.8145397962849
 20
833.7916972507032
 30
0.0
 11
418.1854602037158
 21
833.7916972507032
 31
0.0
  0
LINE
  5
279
330
1F
100
AcDbEntity
  8
0-0
  6
JWW_DASHED1
 62
   120
370
     5
100
AcDbLine
 10
-154.8145397962849
 20
834.7916972506032
 30
0.0
 11
418.1854602037158
 21
834.7916972506032
 31
0.0
  0
LINE
  5
27A
330
1F
100
AcDbEntity
  8
0-0
  6
JWW_DASHED1
 62
   120
370
     5
100
AcDbLine
 10
-154.8145397962849
 20
847.791697251703
 30
0.0
 11
418.1854602037158
 21
847.791697251703
 31
0.0
  0
LINE
  5
27B
330
1F
100
AcDbEntity
  8
0-0
  6
JWW_DASHED1
 62
   120
370
     5
100
AcDbLine
 10
-154.8145397962849
 20
848.7916972516032
 30
0.0
 11
418.1854602037158
 21
848.7916972516032
 31
0.0
  0
LINE
  5
27C
330
1F
100
AcDbEntity
  8
0-0
  6
JWW_DASHED1
 62
   120
370
     5
100
AcDbLine
 10
-154.8145397962849
 20
861.7916972527029
 30
0.0
 11
418.1854602037158
 21
861.7916972527029
 31
0.0
  0
LINE
  5
27D
330
1F
100
AcDbEntity
  8
0-0
  6
JWW_DASHED1
 62
   120
370
     5
100
AcDbLine
 10
-154.8145397962849
 20
862.7916972526031
 30
0.0
 11
418.1854602037158
 21
862.7916972526031
 31
0.0
  0
LINE
  5
27E
330
1F
100
AcDbEntity
  8
0-0
  6
JWW_DASHED1
 62
   120
370
     5
100
AcDbLine
 10
-154.8145397962849
 20
875.7916972537026
 30
0.0
 11
418.1854602037158
 21
875.7916972537026
 31
0.0
  0
LINE
  5
27F
330
1F
100
AcDbEntity
  8
0-0
  6
JWW_DASHED1
 62
   120
370
     5
100
AcDbLine
 10
-154.8145397962849
 20
876.7916972536028
 30
0.0
 11
418.1854602037158
 21
876.7916972536028
 31
0.0
  0
LINE
  5
280
330
1F
100
AcDbEntity
  8
0-0
  6
JWW_DASHED1
 62
   120
370
     5
100
AcDbLine
 10
-154.8145397962849
 20
889.7916972547024
 30
0.0
 11
418.1854602037158
 21
889.7916972547024
 31
0.0
  0
LINE
  5
281
330
1F
100
AcDbEntity
  8
0-0
  6
JWW_DASHED1
 62
   120
370
     5
100
AcDbLine
 10
-154.8145397962849
 20
890.7916972546026
 30
0.0
 11
418.1854602037158
 21
890.7916972546026
 31
0.0
  0
LINE
  5
282
330
1F
100
AcDbEntity
  8
0-0
  6
JWW_DASHED1
 62
   120
370
     5
100
AcDbLine
 10
-154.8145397962849
 20
903.7916972557023
 30
0.0
 11
418.1854602037158
 21
903.7916972557023
 31
0.0
  0
LINE
  5
283
330
1F
100
AcDbEntity
  8
0-0
  6
JWW_DASHED1
 62
   120
370
     5
100
AcDbLine
 10
-154.8145397962849
 20
904.7916972556025
 30
0.0
 11
418.1854602037158
 21
904.7916972556025
 31
0.0
  0
LINE
  5
284
330
1F
100
AcDbEntity
  8
0-0
  6
JWW_DASHED1
 62
   120
370
     5
100
AcDbLine
 10
-154.8145397962849
 20
917.791697256702
 30
0.0
 11
418.1854602037158
 21
917.791697256702
 31
0.0
  0
LINE
  5
285
330
1F
100
AcDbEntity
  8
0-0
  6
JWW_DASHED1
 62
   120
370
     5
100
AcDbLine
 10
-154.8145397962849
 20
918.791697256602
 30
0.0
 11
418.1854602037158
 21
918.791697256602
 31
0.0
  0
LINE
  5
286
330
1F
100
AcDbEntity
  8
0-0
  6
JWW_DASHED1
 62
   120
370
     5
100
AcDbLine
 10
-154.8145397962849
 20
931.7916972577016
 30
0.0
 11
418.1854602037158
 21
931.7916972577016
 31
0.0
  0
LINE
  5
287
330
1F
100
AcDbEntity
  8
0-0
  6
JWW_DASHED1
 62
   120
370
     5
100
AcDbLine
 10
-154.8145397962849
 20
932.7916972576018
 30
0.0
 11
418.1854602037158
 21
932.7916972576018
 31
0.0
  0
LINE
  5
288
330
1F
100
AcDbEntity
  8
0-0
  6
JWW_DASHED1
 62
   120
370
     5
100
AcDbLine
 10
-154.8145397962849
 20
945.7916972587013
 30
0.0
 11
418.1854602037158
 21
945.7916972587013
 31
0.0
  0
LINE
  5
289
330
1F
100
AcDbEntity
  8
0-0
  6
JWW_DASHED1
 62
   120
370
     5
100
AcDbLine
 10
-154.8145397962849
 20
946.7916972586017
 30
0.0
 11
418.1854602037158
 21
946.7916972586017
 31
0.0
  0
LINE
  5
28A
330
1F
100
AcDbEntity
  8
0-0
  6
JWW_DASHED1
 62
   120
370
     5
100
AcDbLine
 10
-148.8145213382531
 20
-160.2081545064381
 30
0.0
 11
-148.8145213382531
 21
1014.791845493562
 31
0.0
  0
LINE
  5
28B
330
1F
100
AcDbEntity
  8
0-0
  6
JWW_DASHED1
 62
   120
370
     5
100
AcDbLine
 10
384.1854786996473
 20
-160.2081545064381
 30
0.0
 11
384.1854786996473
 21
1014.791845493562
 31
0.0
  0
LINE
  5
28C
330
1F
100
AcDbEntity
  8
0-0
  6
JWW_DASHED1
 62
   120
370
     5
100
AcDbLine
 10
383.1854786997471
 20
-160.2081545064381
 30
0.0
 11
383.1854786997475
 21
1014.791845493562
 31
0.0
  0
LINE
  5
28D
330
1F
100
AcDbEntity
  8
0-0
  6
JWW_DASHED1
 62
   120
370
     5
100
AcDbLine
 10
370.185478698647
 20
-160.2081545064381
 30
0.0
 11
370.1854786986474
 21
1014.791845493562
 31
0.0
  0
LINE
  5
28E
330
1F
100
AcDbEntity
  8
0-0
  6
JWW_DASHED1
 62
   120
370
     5
100
AcDbLine
 10
369.1854786987473
 20
-160.2081545064381
 30
0.0
 11
369.1854786987473
 21
1014.791845493562
 31
0.0
  0
LINE
  5
28F
330
1F
100
AcDbEntity
  8
0-0
  6
JWW_DASHED1
 62
   120
370
     5
100
AcDbLine
 10
356.1854786976468
 20
-160.2081545064381
 30
0.0
 11
356.1854786976468
 21
1014.791845493562
 31
0.0
  0
LINE
  5
290
330
1F
100
AcDbEntity
  8
0-0
  6
JWW_DASHED1
 62
   120
370
     5
100
AcDbLine
 10
355.185478697747
 20
-160.2081545064381
 30
0.0
 11
355.185478697747
 21
1014.791845493562
 31
0.0
  0
LINE
  5
291
330
1F
100
AcDbEntity
  8
0-0
  6
JWW_DASHED1
 62
   120
370
     5
100
AcDbLine
 10
342.185478696647
 20
-160.2081545064381
 30
0.0
 11
342.185478696647
 21
1014.791845493562
 31
0.0
  0
LINE
  5
292
330
1F
100
AcDbEntity
  8
0-0
  6
JWW_DASHED1
 62
   120
370
     5
100
AcDbLine
 10
341.1854786967468
 20
-160.2081545064381
 30
0.0
 11
341.1854786967468
 21
1014.791845493562
 31
0.0
  0
LINE
  5
293
330
1F
100
AcDbEntity
  8
0-0
  6
JWW_DASHED1
 62
   120
370
     5
100
AcDbLine
 10
328.1854786956468
 20
-160.2081545064381
 30
0.0
 11
328.1854786956468
 21
1014.791845493562
 31
0.0
  0
LINE
  5
294
330
1F
100
AcDbEntity
  8
0-0
  6
JWW_DASHED1
 62
   120
370
     5
100
AcDbLine
 10
327.1854786957471
 20
-160.2081545064381
 30
0.0
 11
327.1854786957475
 21
1014.791845493562
 31
0.0
  0
LINE
  5
295
330
1F
100
AcDbEntity
  8
0-0
  6
JWW_DASHED1
 62
   120
370
     5
100
AcDbLine
 10
314.185478694647
 20
-160.2081545064381
 30
0.0
 11
314.1854786946475
 21
1014.791845493562
 31
0.0
  0
LINE
  5
296
330
1F
100
AcDbEntity
  8
0-0
  6
JWW_DASHED1
 62
   120
370
     5
100
AcDbLine
 10
313.1854786947471
 20
-160.2081545064381
 30
0.0
 11
313.1854786947471
 21
1014.791845493562
 31
0.0
  0
LINE
  5
297
330
1F
100
AcDbEntity
  8
0-0
  6
JWW_DASHED1
 62
   120
370
     5
100
AcDbLine
 10
300.185478693647
 20
-160.2081545064381
 30
0.0
 11
300.185478693647
 21
1014.791845493562
 31
0.0
  0
LINE
  5
298
330
1F
100
AcDbEntity
  8
0-0
  6
JWW_DASHED1
 62
   120
370
     5
100
AcDbLine
 10
299.1854786937471
 20
-160.2081545064381
 30
0.0
 11
299.1854786937471
 21
1014.791845493562
 31
0.0
  0
LINE
  5
299
330
1F
100
AcDbEntity
  8
0-0
  6
JWW_DASHED1
 62
   120
370
     5
100
AcDbLine
 10
286.1854786926475
 20
-160.2081545064381
 30
0.0
 11
286.1854786926475
 21
1014.791845493562
 31
0.0
  0
LINE
  5
29A
330
1F
100
AcDbEntity
  8
0-0
  6
JWW_DASHED1
 62
   120
370
     5
100
AcDbLine
 10
285.1854786927473
 20
-160.2081545064381
 30
0.0
 11
285.1854786927473
 21
1014.791845493562
 31
0.0
  0
LINE
  5
29B
330
1F
100
AcDbEntity
  8
0-0
  6
JWW_DASHED1
 62
   120
370
     5
100
AcDbLine
 10
272.1854786916476
 20
-160.2081545064381
 30
0.0
 11
272.1854786916476
 21
1014.791845493562
 31
0.0
  0
LINE
  5
29C
330
1F
100
AcDbEntity
  8
0-0
  6
JWW_DASHED1
 62
   120
370
     5
100
AcDbLine
 10
271.1854786917474
 20
-160.2081545064381
 30
0.0
 11
271.1854786917474
 21
1014.791845493562
 31
0.0
  0
LINE
  5
29D
330
1F
100
AcDbEntity
  8
0-0
  6
JWW_DASHED1
 62
   120
370
     5
100
AcDbLine
 10
258.1854786906474
 20
-160.2081545064381
 30
0.0
 11
258.1854786906474
 21
1014.791845493562
 31
0.0
  0
LINE
  5
29E
330
1F
100
AcDbEntity
  8
0-0
  6
JWW_DASHED1
 62
   120
370
     5
100
AcDbLine
 10
257.1854786907472
 20
-160.2081545064381
 30
0.0
 11
257.1854786907472
 21
1014.791845493562
 31
0.0
  0
LINE
  5
29F
330
1F
100
AcDbEntity
  8
0-0
  6
JWW_DASHED1
 62
   120
370
     5
100
AcDbLine
 10
244.1854786896472
 20
-160.2081545064381
 30
0.0
 11
244.1854786896472
 21
1014.791845493562
 31
0.0
  0
LINE
  5
2A0
330
1F
100
AcDbEntity
  8
0-0
  6
JWW_DASHED1
 62
   120
370
     5
100
AcDbLine
 10
243.185478689747
 20
-160.2081545064381
 30
0.0
 11
243.185478689747
 21
1014.791845493562
 31
0.0
  0
LINE
  5
2A1
330
1F
100
AcDbEntity
  8
0-0
  6
JWW_DASHED1
 62
   120
370
     5
100
AcDbLine
 10
230.1854786886474
 20
-160.2081545064381
 30
0.0
 11
230.1854786886474
 21
1014.791845493562
 31
0.0
  0
LINE
  5
2A2
330
1F
100
AcDbEntity
  8
0-0
  6
JWW_DASHED1
 62
   120
370
     5
100
AcDbLine
 10
229.1854786887473
 20
-160.2081545064381
 30
0.0
 11
229.1854786887473
 21
1014.791845493562
 31
0.0
  0
LINE
  5
2A3
330
1F
100
AcDbEntity
  8
0-0
  6
JWW_DASHED1
 62
   120
370
     5
100
AcDbLine
 10
216.1854786876476
 20
-160.2081545064381
 30
0.0
 11
216.1854786876476
 21
1014.791845493562
 31
0.0
  0
LINE
  5
2A4
330
1F
100
AcDbEntity
  8
0-0
  6
JWW_DASHED1
 62
   120
370
     5
100
AcDbLine
 10
215.1854786877475
 20
-160.2081545064381
 30
0.0
 11
215.1854786877475
 21
1014.791845493562
 31
0.0
  0
LINE
  5
2A5
330
1F
100
AcDbEntity
  8
0-0
  6
JWW_DASHED1
 62
   120
370
     5
100
AcDbLine
 10
202.1854786866474
 20
-160.2081545064381
 30
0.0
 11
202.1854786866474
 21
1014.791845493562
 31
0.0
  0
LINE
  5
2A6
330
1F
100
AcDbEntity
  8
0-0
  6
JWW_DASHED1
 62
   120
370
     5
100
AcDbLine
 10
201.1854786867472
 20
-160.2081545064381
 30
0.0
 11
201.1854786867472
 21
1014.791845493562
 31
0.0
  0
LINE
  5
2A7
330
1F
100
AcDbEntity
  8
0-0
  6
JWW_DASHED1
 62
   120
370
     5
100
AcDbLine
 10
188.1854786856472
 20
-160.2081545064381
 30
0.0
 11
188.1854786856472
 21
1014.791845493562
 31
0.0
  0
LINE
  5
2A8
330
1F
100
AcDbEntity
  8
0-0
  6
JWW_DASHED1
 62
   120
370
     5
100
AcDbLine
 10
187.185478685747
 20
-160.2081545064381
 30
0.0
 11
187.185478685747
 21
1014.791845493562
 31
0.0
  0
LINE
  5
2A9
330
1F
100
AcDbEntity
  8
0-0
  6
JWW_DASHED1
 62
   120
370
     5
100
AcDbLine
 10
174.1854786846474
 20
-160.2081545064381
 30
0.0
 11
174.1854786846474
 21
1014.791845493562
 31
0.0
  0
LINE
  5
2AA
330
1F
100
AcDbEntity
  8
0-0
  6
JWW_DASHED1
 62
   120
370
     5
100
AcDbLine
 10
173.1854786847472
 20
-160.2081545064381
 30
0.0
 11
173.1854786847472
 21
1014.791845493562
 31
0.0
  0
LINE
  5
2AB
330
1F
100
AcDbEntity
  8
0-0
  6
JWW_DASHED1
 62
   120
370
     5
100
AcDbLine
 10
160.1854786836476
 20
-160.2081545064381
 30
0.0
 11
160.1854786836476
 21
1014.791845493562
 31
0.0
  0
LINE
  5
2AC
330
1F
100
AcDbEntity
  8
0-0
  6
JWW_DASHED1
 62
   120
370
     5
100
AcDbLine
 10
159.185478683747
 20
-160.2081545064381
 30
0.0
 11
159.185478683747
 21
1014.791845493562
 31
0.0
  0
LINE
  5
2AD
330
1F
100
AcDbEntity
  8
0-0
  6
JWW_DASHED1
 62
   120
370
     5
100
AcDbLine
 10
146.1854786826474
 20
-160.2081545064381
 30
0.0
 11
146.1854786826474
 21
1014.791845493562
 31
0.0
  0
LINE
  5
2AE
330
1F
100
AcDbEntity
  8
0-0
  6
JWW_DASHED1
 62
   120
370
     5
100
AcDbLine
 10
145.1854786827472
 20
-160.2081545064381
 30
0.0
 11
145.1854786827472
 21
1014.791845493562
 31
0.0
  0
LINE
  5
2AF
330
1F
100
AcDbEntity
  8
0-0
  6
JWW_DASHED1
 62
   120
370
     5
100
AcDbLine
 10
132.1854786816472
 20
-160.2081545064381
 30
0.0
 11
132.1854786816472
 21
1014.791845493562
 31
0.0
  0
LINE
  5
2B0
330
1F
100
AcDbEntity
  8
0-0
  6
JWW_DASHED1
 62
   120
370
     5
100
AcDbLine
 10
131.185478681747
 20
-160.2081545064381
 30
0.0
 11
131.185478681747
 21
1014.791845493562
 31
0.0
  0
LINE
  5
2B1
330
1F
100
AcDbEntity
  8
0-0
  6
JWW_DASHED1
 62
   120
370
     5
100
AcDbLine
 10
118.185478680647
 20
-160.2081545064381
 30
0.0
 11
118.185478680647
 21
1014.791845493562
 31
0.0
  0
LINE
  5
2B2
330
1F
100
AcDbEntity
  8
0-0
  6
JWW_DASHED1
 62
   120
370
     5
100
AcDbLine
 10
117.1854786807472
 20
-160.2081545064381
 30
0.0
 11
117.1854786807472
 21
1014.791845493562
 31
0.0
  0
LINE
  5
2B3
330
1F
100
AcDbEntity
  8
0-0
  6
JWW_DASHED1
 62
   120
370
     5
100
AcDbLine
 10
104.1854786796476
 20
-160.2081545064381
 30
0.0
 11
104.1854786796476
 21
1014.791845493562
 31
0.0
  0
LINE
  5
2B4
330
1F
100
AcDbEntity
  8
0-0
  6
JWW_DASHED1
 62
   120
370
     5
100
AcDbLine
 10
103.1854786797472
 20
-160.2081545064381
 30
0.0
 11
103.1854786797472
 21
1014.791845493562
 31
0.0
  0
LINE
  5
2B5
330
1F
100
AcDbEntity
  8
0-0
  6
JWW_DASHED1
 62
   120
370
     5
100
AcDbLine
 10
90.18547867864719
 20
-160.2081545064381
 30
0.0
 11
90.18547867864719
 21
1014.791845493562
 31
0.0
  0
LINE
  5
2B6
330
1F
100
AcDbEntity
  8
0-0
  6
JWW_DASHED1
 62
   120
370
     5
100
AcDbLine
 10
89.18547867874722
 20
-160.2081545064381
 30
0.0
 11
89.18547867874722
 21
1014.791845493562
 31
0.0
  0
LINE
  5
2B7
330
1F
100
AcDbEntity
  8
0-0
  6
JWW_DASHED1
 62
   120
370
     5
100
AcDbLine
 10
76.18547867764718
 20
-160.2081545064381
 30
0.0
 11
76.18547867764718
 21
1014.791845493562
 31
0.0
  0
LINE
  5
2B8
330
1F
100
AcDbEntity
  8
0-0
  6
JWW_DASHED1
 62
   120
370
     5
100
AcDbLine
 10
75.18547867774679
 20
-160.2081545064381
 30
0.0
 11
75.18547867774679
 21
1014.791845493562
 31
0.0
  0
LINE
  5
2B9
330
1F
100
AcDbEntity
  8
0-0
  6
JWW_DASHED1
 62
   120
370
     5
100
AcDbLine
 10
62.18547867664739
 20
-160.2081545064381
 30
0.0
 11
62.18547867664739
 21
1014.791845493562
 31
0.0
  0
LINE
  5
2BA
330
1F
100
AcDbEntity
  8
0-0
  6
JWW_DASHED1
 62
   120
370
     5
100
AcDbLine
 10
61.18547867674721
 20
-160.2081545064381
 30
0.0
 11
61.18547867674721
 21
1014.791845493562
 31
0.0
  0
LINE
  5
2BB
330
1F
100
AcDbEntity
  8
0-0
  6
JWW_DASHED1
 62
   120
370
     5
100
AcDbLine
 10
48.1854786756476
 20
-160.2081545064381
 30
0.0
 11
48.1854786756476
 21
1014.791845493562
 31
0.0
  0
LINE
  5
2BC
330
1F
100
AcDbEntity
  8
0-0
  6
JWW_DASHED1
 62
   120
370
     5
100
AcDbLine
 10
47.18547867574742
 20
-160.2081545064381
 30
0.0
 11
47.18547867574742
 21
1014.791845493562
 31
0.0
  0
LINE
  5
2BD
330
1F
100
AcDbEntity
  8
0-0
  6
JWW_DASHED1
 62
   120
370
     5
100
AcDbLine
 10
34.18547867464738
 20
-160.2081545064381
 30
0.0
 11
34.18547867464738
 21
1014.791845493562
 31
0.0
  0
LINE
  5
2BE
330
1F
100
AcDbEntity
  8
0-0
  6
JWW_DASHED1
 62
   120
370
     5
100
AcDbLine
 10
33.1854786747472
 20
-160.2081545064381
 30
0.0
 11
33.1854786747472
 21
1014.791845493562
 31
0.0
  0
LINE
  5
2BF
330
1F
100
AcDbEntity
  8
0-0
  6
JWW_DASHED1
 62
   120
370
     5
100
AcDbLine
 10
20.18547867364717
 20
-160.2081545064381
 30
0.0
 11
20.18547867364717
 21
1014.791845493562
 31
0.0
  0
LINE
  5
2C0
330
1F
100
AcDbEntity
  8
0-0
  6
JWW_DASHED1
 62
   120
370
     5
100
AcDbLine
 10
19.18547867374699
 20
-160.2081545064381
 30
0.0
 11
19.18547867374699
 21
1014.791845493562
 31
0.0
  0
LINE
  5
2C1
330
1F
100
AcDbEntity
  8
0-0
  6
JWW_DASHED1
 62
   120
370
     5
100
AcDbLine
 10
6.185478672647378
 20
-160.2081545064381
 30
0.0
 11
6.185478672647378
 21
1014.791845493562
 31
0.0
  0
LINE
  5
2C2
330
1F
100
AcDbEntity
  8
0-0
  6
JWW_DASHED1
 62
   120
370
     5
100
AcDbLine
 10
5.185478672747195
 20
-160.2081545064381
 30
0.0
 11
5.185478672747195
 21
1014.791845493562
 31
0.0
  0
LINE
  5
2C3
330
1F
100
AcDbEntity
  8
0-0
  6
JWW_DASHED1
 62
   120
370
     5
100
AcDbLine
 10
-7.814521328352413
 20
-160.2081545064381
 30
0.0
 11
-7.814521328352413
 21
1014.791845493562
 31
0.0
  0
LINE
  5
2C4
330
1F
100
AcDbEntity
  8
0-0
  6
JWW_DASHED1
 62
   120
370
     5
100
AcDbLine
 10
-8.814521328252596
 20
-160.2081545064381
 30
0.0
 11
-8.814521328252596
 21
1014.791845493562
 31
0.0
  0
LINE
  5
2C5
330
1F
100
AcDbEntity
  8
0-0
  6
JWW_DASHED1
 62
   120
370
     5
100
AcDbLine
 10
-21.81452132935263
 20
-160.2081545064381
 30
0.0
 11
-21.81452132935263
 21
1014.791845493562
 31
0.0
  0
LINE
  5
2C6
330
1F
100
AcDbEntity
  8
0-0
  6
JWW_DASHED1
 62
   120
370
     5
100
AcDbLine
 10
-22.81452132925281
 20
-160.2081545064381
 30
0.0
 11
-22.81452132925281
 21
1014.791845493562
 31
0.0
  0
LINE
  5
2C7
330
1F
100
AcDbEntity
  8
0-0
  6
JWW_DASHED1
 62
   120
370
     5
100
AcDbLine
 10
-35.81452133035285
 20
-160.2081545064381
 30
0.0
 11
-35.81452133035285
 21
1014.791845493562
 31
0.0
  0
LINE
  5
2C8
330
1F
100
AcDbEntity
  8
0-0
  6
JWW_DASHED1
 62
   120
370
     5
100
AcDbLine
 10
-36.81452133025303
 20
-160.2081545064381
 30
0.0
 11
-36.81452133025303
 21
1014.791845493562
 31
0.0
  0
LINE
  5
2C9
330
1F
100
AcDbEntity
  8
0-0
  6
JWW_DASHED1
 62
   120
370
     5
100
AcDbLine
 10
-49.81452133135264
 20
-160.2081545064381
 30
0.0
 11
-49.81452133135264
 21
1014.791845493562
 31
0.0
  0
LINE
  5
2CA
330
1F
100
AcDbEntity
  8
0-0
  6
JWW_DASHED1
 62
   120
370
     5
100
AcDbLine
 10
-50.81452133125282
 20
-160.2081545064381
 30
0.0
 11
-50.81452133125282
 21
1014.791845493562
 31
0.0
  0
LINE
  5
2CB
330
1F
100
AcDbEntity
  8
0-0
  6
JWW_DASHED1
 62
   120
370
     5
100
AcDbLine
 10
-63.81452133235285
 20
-160.2081545064381
 30
0.0
 11
-63.81452133235285
 21
1014.791845493562
 31
0.0
  0
LINE
  5
2CC
330
1F
100
AcDbEntity
  8
0-0
  6
JWW_DASHED1
 62
   120
370
     5
100
AcDbLine
 10
-64.81452133225261
 20
-160.2081545064381
 30
0.0
 11
-64.81452133225261
 21
1014.791845493562
 31
0.0
  0
LINE
  5
2CD
330
1F
100
AcDbEntity
  8
0-0
  6
JWW_DASHED1
 62
   120
370
     5
100
AcDbLine
 10
-77.81452133335264
 20
-160.2081545064381
 30
0.0
 11
-77.81452133335264
 21
1014.791845493562
 31
0.0
  0
LINE
  5
2CE
330
1F
100
AcDbEntity
  8
0-0
  6
JWW_DASHED1
 62
   120
370
     5
100
AcDbLine
 10
-78.81452133325325
 20
-160.2081545064381
 30
0.0
 11
-78.81452133325325
 21
1014.791845493562
 31
0.0
  0
LINE
  5
2CF
330
1F
100
AcDbEntity
  8
0-0
  6
JWW_DASHED1
 62
   120
370
     5
100
AcDbLine
 10
-91.81452133435286
 20
-160.2081545064381
 30
0.0
 11
-91.81452133435286
 21
1014.791845493562
 31
0.0
  0
LINE
  5
2D0
330
1F
100
AcDbEntity
  8
0-0
  6
JWW_DASHED1
 62
   120
370
     5
100
AcDbLine
 10
-92.81452133425304
 20
-160.2081545064381
 30
0.0
 11
-92.81452133425304
 21
1014.791845493562
 31
0.0
  0
LINE
  5
2D1
330
1F
100
AcDbEntity
  8
0-0
  6
JWW_DASHED1
 62
   120
370
     5
100
AcDbLine
 10
-105.8145213353527
 20
-160.2081545064381
 30
0.0
 11
-105.8145213353527
 21
1014.791845493562
 31
0.0
  0
LINE
  5
2D2
330
1F
100
AcDbEntity
  8
0-0
  6
JWW_DASHED1
 62
   120
370
     5
100
AcDbLine
 10
-106.8145213352533
 20
-160.2081545064381
 30
0.0
 11
-106.8145213352533
 21
1014.791845493562
 31
0.0
  0
LINE
  5
2D3
330
1F
100
AcDbEntity
  8
0-0
  6
JWW_DASHED1
 62
   120
370
     5
100
AcDbLine
 10
-119.8145213363524
 20
-160.2081545064381
 30
0.0
 11
-119.8145213363524
 21
1014.791845493562
 31
0.0
  0
LINE
  5
2D4
330
1F
100
AcDbEntity
  8
0-0
  6
JWW_DASHED1
 62
   120
370
     5
100
AcDbLine
 10
-120.8145213362526
 20
-160.2081545064381
 30
0.0
 11
-120.8145213362526
 21
1014.791845493562
 31
0.0
  0
LINE
  5
2D5
330
1F
100
AcDbEntity
  8
0-0
  6
JWW_DASHED1
 62
   120
370
     5
100
AcDbLine
 10
-133.8145213373527
 20
-160.2081545064381
 30
0.0
 11
-133.8145213373527
 21
1014.791845493562
 31
0.0
  0
LINE
  5
2D6
330
1F
100
AcDbEntity
  8
0-0
  6
JWW_DASHED1
 62
   120
370
     5
100
AcDbLine
 10
-134.8145213372528
 20
-160.2081545064381
 30
0.0
 11
-134.8145213372528
 21
1014.791845493562
 31
0.0
  0
LINE
  5
2D7
330
1F
100
AcDbEntity
  8
0-0
  6
JWW_DASHED1
 62
   120
370
     5
100
AcDbLine
 10
-147.8145213383529
 20
-160.2081545064381
 30
0.0
 11
-147.8145213383529
 21
1014.791845493562
 31
0.0
  0
LINE
  5
2D8
330
1F
100
AcDbEntity
  8
0-0
  6
JWW_DASHED1
 62
   120
370
     5
100
AcDbLine
 10
412.1854787016473
 20
-160.2081545064381
 30
0.0
 11
412.1854787016473
 21
1014.791845493562
 31
0.0
  0
LINE
  5
2D9
330
1F
100
AcDbEntity
  8
0-0
  6
JWW_DASHED1
 62
   120
370
     5
100
AcDbLine
 10
397.1854787007473
 20
-160.2081545064381
 30
0.0
 11
397.1854787007473
 21
1014.791845493562
 31
0.0
  0
LINE
  5
2DA
330
1F
100
AcDbEntity
  8
0-0
  6
JWW_DASHED1
 62
   120
370
     5
100
AcDbLine
 10
411.1854787017471
 20
-160.2081545064381
 30
0.0
 11
411.1854787017471
 21
1014.791845493562
 31
0.0
  0
LINE
  5
2DB
330
1F
100
AcDbEntity
  8
0-0
  6
JWW_DASHED1
 62
   120
370
     5
100
AcDbLine
 10
398.1854787006471
 20
-160.2081545064381
 30
0.0
 11
398.1854787006471
 21
1014.791845493562
 31
0.0
  0
LINE
  5
2DC
330
1F
100
AcDbEntity
  8
0-0
  6
JWW_DASHED1
 62
   120
370
     5
100
AcDbLine
 10
-154.814539796284
 20
1002.791697262601
 30
0.0
 11
418.1854602037148
 21
1002.791697262601
 31
0.0
  0
LINE
  5
2DD
330
1F
100
AcDbEntity
  8
0-0
  6
JWW_DASHED1
 62
   120
370
     5
100
AcDbLine
 10
-154.814539796284
 20
959.7916972597013
 30
0.0
 11
418.1854602037148
 21
959.7916972597013
 31
0.0
  0
LINE
  5
2DE
330
1F
100
AcDbEntity
  8
0-0
  6
JWW_DASHED1
 62
   120
370
     5
100
AcDbLine
 10
-154.814539796284
 20
960.7916972596015
 30
0.0
 11
418.1854602037148
 21
960.7916972596015
 31
0.0
  0
LINE
  5
2DF
330
1F
100
AcDbEntity
  8
0-0
  6
JWW_DASHED1
 62
   120
370
     5
100
AcDbLine
 10
-154.814539796284
 20
973.7916972607012
 30
0.0
 11
418.1854602037148
 21
973.7916972607012
 31
0.0
  0
LINE
  5
2E0
330
1F
100
AcDbEntity
  8
0-0
  6
JWW_DASHED1
 62
   120
370
     5
100
AcDbLine
 10
-154.814539796284
 20
974.7916972606014
 30
0.0
 11
418.1854602037148
 21
974.7916972606014
 31
0.0
  0
LINE
  5
2E1
330
1F
100
AcDbEntity
  8
0-0
  6
JWW_DASHED1
 62
   120
370
     5
100
AcDbLine
 10
-154.814539796284
 20
987.791697261701
 30
0.0
 11
418.1854602037148
 21
987.791697261701
 31
0.0
  0
LINE
  5
2E2
330
1F
100
AcDbEntity
  8
0-0
  6
JWW_DASHED1
 62
   120
370
     5
100
AcDbLine
 10
-154.814539796284
 20
988.7916972616011
 30
0.0
 11
418.1854602037148
 21
988.7916972616011
 31
0.0
  0
LINE
  5
2E3
330
1F
100
AcDbEntity
  8
0-0
  6
JWW_DASHED1
 62
   120
370
     5
100
AcDbLine
 10
-154.814539796284
 20
1001.791697262701
 30
0.0
 11
418.1854602037148
 21
1001.791697262701
 31
0.0
  0
LINE
  5
2E4
330
1F
100
AcDbEntity
  8
0-0
  6
JWW_DASHED1
 62
   120
370
     5
100
AcDbLine
 10
625.1854602037151
 20
-159.2083028203817
 30
0.0
 11
1198.185460203716
 21
-159.2083028203817
 31
0.0
  0
LINE
  5
2E5
330
1F
100
AcDbEntity
  8
0-0
  6
JWW_DASHED1
 62
   120
370
     5
100
AcDbLine
 10
625.1854602037151
 20
-146.2083028192821
 30
0.0
 11
1198.185460203716
 21
-146.2083028192821
 31
0.0
  0
LINE
  5
2E6
330
1F
100
AcDbEntity
  8
0-0
  6
JWW_DASHED1
 62
   120
370
     5
100
AcDbLine
 10
625.1854602037151
 20
-145.2083028193819
 30
0.0
 11
1198.185460203716
 21
-145.2083028193819
 31
0.0
  0
LINE
  5
2E7
330
1F
100
AcDbEntity
  8
0-0
  6
JWW_DASHED1
 62
   120
370
     5
100
AcDbLine
 10
625.1854602037151
 20
-132.2083028182823
 30
0.0
 11
1198.185460203716
 21
-132.2083028182823
 31
0.0
  0
LINE
  5
2E8
330
1F
100
AcDbEntity
  8
0-0
  6
JWW_DASHED1
 62
   120
370
     5
100
AcDbLine
 10
625.1854602037151
 20
-131.2083028183821
 30
0.0
 11
1198.185460203716
 21
-131.2083028183821
 31
0.0
  0
LINE
  5
2E9
330
1F
100
AcDbEntity
  8
0-0
  6
JWW_DASHED1
 62
   120
370
     5
100
AcDbLine
 10
625.1854602037151
 20
-118.2083028172825
 30
0.0
 11
1198.185460203716
 21
-118.2083028172825
 31
0.0
  0
LINE
  5
2EA
330
1F
100
AcDbEntity
  8
0-0
  6
JWW_DASHED1
 62
   120
370
     5
100
AcDbLine
 10
625.1854602037151
 20
-117.2083028173823
 30
0.0
 11
1198.185460203716
 21
-117.2083028173823
 31
0.0
  0
LINE
  5
2EB
330
1F
100
AcDbEntity
  8
0-0
  6
JWW_DASHED1
 62
   120
370
     5
100
AcDbLine
 10
625.1854602037151
 20
-104.2083028162827
 30
0.0
 11
1198.185460203716
 21
-104.2083028162827
 31
0.0
  0
LINE
  5
2EC
330
1F
100
AcDbEntity
  8
0-0
  6
JWW_DASHED1
 62
   120
370
     5
100
AcDbLine
 10
625.1854602037151
 20
-103.2083028163825
 30
0.0
 11
1198.185460203716
 21
-103.2083028163825
 31
0.0
  0
LINE
  5
2ED
330
1F
100
AcDbEntity
  8
0-0
  6
JWW_DASHED1
 62
   120
370
     5
100
AcDbLine
 10
625.1854602037151
 20
-90.20830281528302
 30
0.0
 11
1198.185460203716
 21
-90.20830281528302
 31
0.0
  0
LINE
  5
2EE
330
1F
100
AcDbEntity
  8
0-0
  6
JWW_DASHED1
 62
   120
370
     5
100
AcDbLine
 10
625.1854602037151
 20
-89.20830281538284
 30
0.0
 11
1198.185460203716
 21
-89.20830281538284
 31
0.0
  0
LINE
  5
2EF
330
1F
100
AcDbEntity
  8
0-0
  6
JWW_DASHED1
 62
   120
370
     5
100
AcDbLine
 10
625.1854602037151
 20
-76.20830281428312
 30
0.0
 11
1198.185460203716
 21
-76.20830281428312
 31
0.0
  0
LINE
  5
2F0
330
1F
100
AcDbEntity
  8
0-0
  6
JWW_DASHED1
 62
   120
370
     5
100
AcDbLine
 10
625.1854602037151
 20
-75.20830281438293
 30
0.0
 11
1198.185460203716
 21
-75.20830281438293
 31
0.0
  0
LINE
  5
2F1
330
1F
100
AcDbEntity
  8
0-0
  6
JWW_DASHED1
 62
   120
370
     5
100
AcDbLine
 10
625.1854602037151
 20
-62.20830281328332
 30
0.0
 11
1198.185460203716
 21
-62.20830281328332
 31
0.0
  0
LINE
  5
2F2
330
1F
100
AcDbEntity
  8
0-0
  6
JWW_DASHED1
 62
   120
370
     5
100
AcDbLine
 10
625.1854602037151
 20
-61.20830281338314
 30
0.0
 11
1198.185460203716
 21
-61.20830281338314
 31
0.0
  0
LINE
  5
2F3
330
1F
100
AcDbEntity
  8
0-0
  6
JWW_DASHED1
 62
   120
370
     5
100
AcDbLine
 10
625.1854602037151
 20
-48.20830281228353
 30
0.0
 11
1198.185460203716
 21
-48.20830281228353
 31
0.0
  0
LINE
  5
2F4
330
1F
100
AcDbEntity
  8
0-0
  6
JWW_DASHED1
 62
   120
370
     5
100
AcDbLine
 10
625.1854602037151
 20
-47.20830281238335
 30
0.0
 11
1198.185460203716
 21
-47.20830281238335
 31
0.0
  0
LINE
  5
2F5
330
1F
100
AcDbEntity
  8
0-0
  6
JWW_DASHED1
 62
   120
370
     5
100
AcDbLine
 10
625.1854602037151
 20
-34.20830281128374
 30
0.0
 11
1198.185460203716
 21
-34.20830281128374
 31
0.0
  0
LINE
  5
2F6
330
1F
100
AcDbEntity
  8
0-0
  6
JWW_DASHED1
 62
   120
370
     5
100
AcDbLine
 10
625.1854602037151
 20
-33.20830281138356
 30
0.0
 11
1198.185460203716
 21
-33.20830281138356
 31
0.0
  0
LINE
  5
2F7
330
1F
100
AcDbEntity
  8
0-0
  6
JWW_DASHED1
 62
   120
370
     5
100
AcDbLine
 10
625.1854602037151
 20
-20.20830281028395
 30
0.0
 11
1198.185460203716
 21
-20.20830281028395
 31
0.0
  0
LINE
  5
2F8
330
1F
100
AcDbEntity
  8
0-0
  6
JWW_DASHED1
 62
   120
370
     5
100
AcDbLine
 10
625.1854602037151
 20
-19.20830281038377
 30
0.0
 11
1198.185460203716
 21
-19.20830281038377
 31
0.0
  0
LINE
  5
2F9
330
1F
100
AcDbEntity
  8
0-0
  6
JWW_DASHED1
 62
   120
370
     5
100
AcDbLine
 10
625.1854602037151
 20
-6.208302809284163
 30
0.0
 11
1198.185460203716
 21
-6.208302809284163
 31
0.0
  0
LINE
  5
2FA
330
1F
100
AcDbEntity
  8
0-0
  6
JWW_DASHED1
 62
   120
370
     5
100
AcDbLine
 10
625.1854602037151
 20
-5.20830280938398
 30
0.0
 11
1198.185460203716
 21
-5.20830280938398
 31
0.0
  0
LINE
  5
2FB
330
1F
100
AcDbEntity
  8
0-0
  6
JWW_DASHED1
 62
   120
370
     5
100
AcDbLine
 10
625.1854602037151
 20
7.791697191715627
 30
0.0
 11
1198.185460203716
 21
7.791697191715627
 31
0.0
  0
LINE
  5
2FC
330
1F
100
AcDbEntity
  8
0-0
  6
JWW_DASHED1
 62
   120
370
     5
100
AcDbLine
 10
625.1854602037151
 20
8.79169719161581
 30
0.0
 11
1198.185460203716
 21
8.79169719161581
 31
0.0
  0
LINE
  5
2FD
330
1F
100
AcDbEntity
  8
0-0
  6
JWW_DASHED1
 62
   120
370
     5
100
AcDbLine
 10
625.1854602037151
 20
21.79169719271531
 30
0.0
 11
1198.185460203716
 21
21.79169719271531
 31
0.0
  0
LINE
  5
2FE
330
1F
100
AcDbEntity
  8
0-0
  6
JWW_DASHED1
 62
   120
370
     5
100
AcDbLine
 10
625.1854602037151
 20
22.79169719261549
 30
0.0
 11
1198.185460203716
 21
22.79169719261549
 31
0.0
  0
LINE
  5
2FF
330
1F
100
AcDbEntity
  8
0-0
  6
JWW_DASHED1
 62
   120
370
     5
100
AcDbLine
 10
625.1854602037151
 20
35.79169719371521
 30
0.0
 11
1198.185460203716
 21
35.79169719371521
 31
0.0
  0
LINE
  5
300
330
1F
100
AcDbEntity
  8
0-0
  6
JWW_DASHED1
 62
   120
370
     5
100
AcDbLine
 10
625.1854602037151
 20
36.79169719361539
 30
0.0
 11
1198.185460203716
 21
36.79169719361539
 31
0.0
  0
LINE
  5
301
330
1F
100
AcDbEntity
  8
0-0
  6
JWW_DASHED1
 62
   120
370
     5
100
AcDbLine
 10
625.1854602037151
 20
49.791697194715
 30
0.0
 11
1198.185460203716
 21
49.791697194715
 31
0.0
  0
LINE
  5
302
330
1F
100
AcDbEntity
  8
0-0
  6
JWW_DASHED1
 62
   120
370
     5
100
AcDbLine
 10
625.1854602037151
 20
50.79169719461518
 30
0.0
 11
1198.185460203716
 21
50.79169719461518
 31
0.0
  0
LINE
  5
303
330
1F
100
AcDbEntity
  8
0-0
  6
JWW_DASHED1
 62
   120
370
     5
100
AcDbLine
 10
625.1854602037151
 20
63.79169719571479
 30
0.0
 11
1198.185460203716
 21
63.79169719571479
 31
0.0
  0
LINE
  5
304
330
1F
100
AcDbEntity
  8
0-0
  6
JWW_DASHED1
 62
   120
370
     5
100
AcDbLine
 10
625.1854602037151
 20
64.79169719561497
 30
0.0
 11
1198.185460203716
 21
64.79169719561497
 31
0.0
  0
LINE
  5
305
330
1F
100
AcDbEntity
  8
0-0
  6
JWW_DASHED1
 62
   120
370
     5
100
AcDbLine
 10
625.1854602037151
 20
77.79169719671458
 30
0.0
 11
1198.185460203716
 21
77.79169719671458
 31
0.0
  0
LINE
  5
306
330
1F
100
AcDbEntity
  8
0-0
  6
JWW_DASHED1
 62
   120
370
     5
100
AcDbLine
 10
625.1854602037151
 20
78.79169719661476
 30
0.0
 11
1198.185460203716
 21
78.79169719661476
 31
0.0
  0
LINE
  5
307
330
1F
100
AcDbEntity
  8
0-0
  6
JWW_DASHED1
 62
   120
370
     5
100
AcDbLine
 10
625.1854602037151
 20
91.79169719771437
 30
0.0
 11
1198.185460203716
 21
91.79169719771437
 31
0.0
  0
LINE
  5
308
330
1F
100
AcDbEntity
  8
0-0
  6
JWW_DASHED1
 62
   120
370
     5
100
AcDbLine
 10
625.1854602037151
 20
92.79169719761455
 30
0.0
 11
1198.185460203716
 21
92.79169719761455
 31
0.0
  0
LINE
  5
309
330
1F
100
AcDbEntity
  8
0-0
  6
JWW_DASHED1
 62
   120
370
     5
100
AcDbLine
 10
625.1854602037151
 20
105.7916971987142
 30
0.0
 11
1198.185460203716
 21
105.7916971987142
 31
0.0
  0
LINE
  5
30A
330
1F
100
AcDbEntity
  8
0-0
  6
JWW_DASHED1
 62
   120
370
     5
100
AcDbLine
 10
625.1854602037151
 20
106.7916971986143
 30
0.0
 11
1198.185460203716
 21
106.7916971986143
 31
0.0
  0
LINE
  5
30B
330
1F
100
AcDbEntity
  8
0-0
  6
JWW_DASHED1
 62
   120
370
     5
100
AcDbLine
 10
625.1854602037151
 20
119.791697199714
 30
0.0
 11
1198.185460203716
 21
119.791697199714
 31
0.0
  0
LINE
  5
30C
330
1F
100
AcDbEntity
  8
0-0
  6
JWW_DASHED1
 62
   120
370
     5
100
AcDbLine
 10
625.1854602037151
 20
120.7916971996141
 30
0.0
 11
1198.185460203716
 21
120.7916971996141
 31
0.0
  0
LINE
  5
30D
330
1F
100
AcDbEntity
  8
0-0
  6
JWW_DASHED1
 62
   120
370
     5
100
AcDbLine
 10
625.1854602037151
 20
133.7916972007137
 30
0.0
 11
1198.185460203716
 21
133.7916972007137
 31
0.0
  0
LINE
  5
30E
330
1F
100
AcDbEntity
  8
0-0
  6
JWW_DASHED1
 62
   120
370
     5
100
AcDbLine
 10
625.1854602037151
 20
134.7916972006139
 30
0.0
 11
1198.185460203716
 21
134.7916972006139
 31
0.0
  0
LINE
  5
30F
330
1F
100
AcDbEntity
  8
0-0
  6
JWW_DASHED1
 62
   120
370
     5
100
AcDbLine
 10
625.1854602037151
 20
147.7916972017135
 30
0.0
 11
1198.185460203716
 21
147.7916972017135
 31
0.0
  0
LINE
  5
310
330
1F
100
AcDbEntity
  8
0-0
  6
JWW_DASHED1
 62
   120
370
     5
100
AcDbLine
 10
625.1854602037151
 20
148.7916972016137
 30
0.0
 11
1198.185460203716
 21
148.7916972016137
 31
0.0
  0
LINE
  5
311
330
1F
100
AcDbEntity
  8
0-0
  6
JWW_DASHED1
 62
   120
370
     5
100
AcDbLine
 10
625.1854602037151
 20
161.7916972027133
 30
0.0
 11
1198.185460203716
 21
161.7916972027133
 31
0.0
  0
LINE
  5
312
330
1F
100
AcDbEntity
  8
0-0
  6
JWW_DASHED1
 62
   120
370
     5
100
AcDbLine
 10
625.1854602037151
 20
162.7916972026135
 30
0.0
 11
1198.185460203716
 21
162.7916972026135
 31
0.0
  0
LINE
  5
313
330
1F
100
AcDbEntity
  8
0-0
  6
JWW_DASHED1
 62
   120
370
     5
100
AcDbLine
 10
625.1854602037151
 20
175.7916972037131
 30
0.0
 11
1198.185460203716
 21
175.7916972037131
 31
0.0
  0
LINE
  5
314
330
1F
100
AcDbEntity
  8
0-0
  6
JWW_DASHED1
 62
   120
370
     5
100
AcDbLine
 10
625.1854602037151
 20
176.7916972036133
 30
0.0
 11
1198.185460203716
 21
176.7916972036133
 31
0.0
  0
LINE
  5
315
330
1F
100
AcDbEntity
  8
0-0
  6
JWW_DASHED1
 62
   120
370
     5
100
AcDbLine
 10
625.1854602037151
 20
189.7916972047129
 30
0.0
 11
1198.185460203716
 21
189.7916972047129
 31
0.0
  0
LINE
  5
316
330
1F
100
AcDbEntity
  8
0-0
  6
JWW_DASHED1
 62
   120
370
     5
100
AcDbLine
 10
625.1854602037151
 20
190.7916972046131
 30
0.0
 11
1198.185460203716
 21
190.7916972046131
 31
0.0
  0
LINE
  5
317
330
1F
100
AcDbEntity
  8
0-0
  6
JWW_DASHED1
 62
   120
370
     5
100
AcDbLine
 10
625.1854602037151
 20
203.7916972057127
 30
0.0
 11
1198.185460203716
 21
203.7916972057127
 31
0.0
  0
LINE
  5
318
330
1F
100
AcDbEntity
  8
0-0
  6
JWW_DASHED1
 62
   120
370
     5
100
AcDbLine
 10
625.1854602037151
 20
204.7916972056129
 30
0.0
 11
1198.185460203716
 21
204.7916972056129
 31
0.0
  0
LINE
  5
319
330
1F
100
AcDbEntity
  8
0-0
  6
JWW_DASHED1
 62
   120
370
     5
100
AcDbLine
 10
625.1854602037151
 20
217.7916972067125
 30
0.0
 11
1198.185460203716
 21
217.7916972067125
 31
0.0
  0
LINE
  5
31A
330
1F
100
AcDbEntity
  8
0-0
  6
JWW_DASHED1
 62
   120
370
     5
100
AcDbLine
 10
625.1854602037151
 20
218.7916972066127
 30
0.0
 11
1198.185460203716
 21
218.7916972066127
 31
0.0
  0
LINE
  5
31B
330
1F
100
AcDbEntity
  8
0-0
  6
JWW_DASHED1
 62
   120
370
     5
100
AcDbLine
 10
625.1854602037151
 20
231.7916972077123
 30
0.0
 11
1198.185460203716
 21
231.7916972077123
 31
0.0
  0
LINE
  5
31C
330
1F
100
AcDbEntity
  8
0-0
  6
JWW_DASHED1
 62
   120
370
     5
100
AcDbLine
 10
625.1854602037151
 20
232.7916972076125
 30
0.0
 11
1198.185460203716
 21
232.7916972076125
 31
0.0
  0
LINE
  5
31D
330
1F
100
AcDbEntity
  8
0-0
  6
JWW_DASHED1
 62
   120
370
     5
100
AcDbLine
 10
625.1854602037151
 20
245.7916972087121
 30
0.0
 11
1198.185460203716
 21
245.7916972087121
 31
0.0
  0
LINE
  5
31E
330
1F
100
AcDbEntity
  8
0-0
  6
JWW_DASHED1
 62
   120
370
     5
100
AcDbLine
 10
625.1854602037151
 20
246.7916972086122
 30
0.0
 11
1198.185460203716
 21
246.7916972086122
 31
0.0
  0
LINE
  5
31F
330
1F
100
AcDbEntity
  8
0-0
  6
JWW_DASHED1
 62
   120
370
     5
100
AcDbLine
 10
625.1854602037151
 20
259.7916972097119
 30
0.0
 11
1198.185460203716
 21
259.7916972097119
 31
0.0
  0
LINE
  5
320
330
1F
100
AcDbEntity
  8
0-0
  6
JWW_DASHED1
 62
   120
370
     5
100
AcDbLine
 10
625.1854602037151
 20
260.791697209612
 30
0.0
 11
1198.185460203716
 21
260.791697209612
 31
0.0
  0
LINE
  5
321
330
1F
100
AcDbEntity
  8
0-0
  6
JWW_DASHED1
 62
   120
370
     5
100
AcDbLine
 10
625.1854602037151
 20
273.7916972107114
 30
0.0
 11
1198.185460203716
 21
273.7916972107114
 31
0.0
  0
LINE
  5
322
330
1F
100
AcDbEntity
  8
0-0
  6
JWW_DASHED1
 62
   120
370
     5
100
AcDbLine
 10
625.1854602037151
 20
274.7916972106118
 30
0.0
 11
1198.185460203716
 21
274.7916972106118
 31
0.0
  0
LINE
  5
323
330
1F
100
AcDbEntity
  8
0-0
  6
JWW_DASHED1
 62
   120
370
     5
100
AcDbLine
 10
625.1854602037151
 20
287.7916972117114
 30
0.0
 11
1198.185460203716
 21
287.7916972117114
 31
0.0
  0
LINE
  5
324
330
1F
100
AcDbEntity
  8
0-0
  6
JWW_DASHED1
 62
   120
370
     5
100
AcDbLine
 10
625.1854602037151
 20
288.7916972116116
 30
0.0
 11
1198.185460203716
 21
288.7916972116116
 31
0.0
  0
LINE
  5
325
330
1F
100
AcDbEntity
  8
0-0
  6
JWW_DASHED1
 62
   120
370
     5
100
AcDbLine
 10
625.1854602037151
 20
301.7916972127113
 30
0.0
 11
1198.185460203716
 21
301.7916972127113
 31
0.0
  0
LINE
  5
326
330
1F
100
AcDbEntity
  8
0-0
  6
JWW_DASHED1
 62
   120
370
     5
100
AcDbLine
 10
625.1854602037151
 20
302.7916972126114
 30
0.0
 11
1198.185460203716
 21
302.7916972126114
 31
0.0
  0
LINE
  5
327
330
1F
100
AcDbEntity
  8
0-0
  6
JWW_DASHED1
 62
   120
370
     5
100
AcDbLine
 10
625.1854602037151
 20
315.791697213711
 30
0.0
 11
1198.185460203716
 21
315.791697213711
 31
0.0
  0
LINE
  5
328
330
1F
100
AcDbEntity
  8
0-0
  6
JWW_DASHED1
 62
   120
370
     5
100
AcDbLine
 10
625.1854602037151
 20
316.7916972136112
 30
0.0
 11
1198.185460203716
 21
316.7916972136112
 31
0.0
  0
LINE
  5
329
330
1F
100
AcDbEntity
  8
0-0
  6
JWW_DASHED1
 62
   120
370
     5
100
AcDbLine
 10
625.1854602037151
 20
329.7916972147108
 30
0.0
 11
1198.185460203716
 21
329.7916972147108
 31
0.0
  0
LINE
  5
32A
330
1F
100
AcDbEntity
  8
0-0
  6
JWW_DASHED1
 62
   120
370
     5
100
AcDbLine
 10
625.1854602037151
 20
330.791697214611
 30
0.0
 11
1198.185460203716
 21
330.791697214611
 31
0.0
  0
LINE
  5
32B
330
1F
100
AcDbEntity
  8
0-0
  6
JWW_DASHED1
 62
   120
370
     5
100
AcDbLine
 10
625.1854602037151
 20
343.7916972157106
 30
0.0
 11
1198.185460203716
 21
343.7916972157106
 31
0.0
  0
LINE
  5
32C
330
1F
100
AcDbEntity
  8
0-0
  6
JWW_DASHED1
 62
   120
370
     5
100
AcDbLine
 10
625.1854602037151
 20
344.7916972156108
 30
0.0
 11
1198.185460203716
 21
344.7916972156108
 31
0.0
  0
LINE
  5
32D
330
1F
100
AcDbEntity
  8
0-0
  6
JWW_DASHED1
 62
   120
370
     5
100
AcDbLine
 10
625.1854602037151
 20
357.7916972167104
 30
0.0
 11
1198.185460203716
 21
357.7916972167104
 31
0.0
  0
LINE
  5
32E
330
1F
100
AcDbEntity
  8
0-0
  6
JWW_DASHED1
 62
   120
370
     5
100
AcDbLine
 10
625.1854602037151
 20
358.7916972166106
 30
0.0
 11
1198.185460203716
 21
358.7916972166106
 31
0.0
  0
LINE
  5
32F
330
1F
100
AcDbEntity
  8
0-0
  6
JWW_DASHED1
 62
   120
370
     5
100
AcDbLine
 10
625.1854602037151
 20
371.7916972177102
 30
0.0
 11
1198.185460203716
 21
371.7916972177102
 31
0.0
  0
LINE
  5
330
330
1F
100
AcDbEntity
  8
0-0
  6
JWW_DASHED1
 62
   120
370
     5
100
AcDbLine
 10
625.1854602037151
 20
372.7916972176104
 30
0.0
 11
1198.185460203716
 21
372.7916972176104
 31
0.0
  0
LINE
  5
331
330
1F
100
AcDbEntity
  8
0-0
  6
JWW_DASHED1
 62
   120
370
     5
100
AcDbLine
 10
625.1854602037151
 20
385.7916972187099
 30
0.0
 11
1198.185460203716
 21
385.7916972187099
 31
0.0
  0
LINE
  5
332
330
1F
100
AcDbEntity
  8
0-0
  6
JWW_DASHED1
 62
   120
370
     5
100
AcDbLine
 10
625.1854602037151
 20
386.79169721861
 30
0.0
 11
1198.185460203716
 21
386.79169721861
 31
0.0
  0
LINE
  5
333
330
1F
100
AcDbEntity
  8
0-0
  6
JWW_DASHED1
 62
   120
370
     5
100
AcDbLine
 10
625.1854602037151
 20
399.7916972197098
 30
0.0
 11
1198.185460203716
 21
399.7916972197098
 31
0.0
  0
LINE
  5
334
330
1F
100
AcDbEntity
  8
0-0
  6
JWW_DASHED1
 62
   120
370
     5
100
AcDbLine
 10
625.1854602037151
 20
400.7916972196099
 30
0.0
 11
1198.185460203716
 21
400.7916972196099
 31
0.0
  0
LINE
  5
335
330
1F
100
AcDbEntity
  8
0-0
  6
JWW_DASHED1
 62
   120
370
     5
100
AcDbLine
 10
625.1854602037151
 20
413.7916972207096
 30
0.0
 11
1198.185460203716
 21
413.7916972207096
 31
0.0
  0
LINE
  5
336
330
1F
100
AcDbEntity
  8
0-0
  6
JWW_DASHED1
 62
   120
370
     5
100
AcDbLine
 10
625.1854602037151
 20
414.7916972206098
 30
0.0
 11
1198.185460203716
 21
414.7916972206098
 31
0.0
  0
LINE
  5
337
330
1F
100
AcDbEntity
  8
0-0
  6
JWW_DASHED1
 62
   120
370
     5
100
AcDbLine
 10
625.1854602037151
 20
427.7916972217093
 30
0.0
 11
1198.185460203716
 21
427.7916972217093
 31
0.0
  0
LINE
  5
338
330
1F
100
AcDbEntity
  8
0-0
  6
JWW_DASHED1
 62
   120
370
     5
100
AcDbLine
 10
625.1854602037151
 20
428.7916972216095
 30
0.0
 11
1198.185460203716
 21
428.7916972216095
 31
0.0
  0
LINE
  5
339
330
1F
100
AcDbEntity
  8
0-0
  6
JWW_DASHED1
 62
   120
370
     5
100
AcDbLine
 10
625.1854602037151
 20
441.7916972227091
 30
0.0
 11
1198.185460203716
 21
441.7916972227091
 31
0.0
  0
LINE
  5
33A
330
1F
100
AcDbEntity
  8
0-0
  6
JWW_DASHED1
 62
   120
370
     5
100
AcDbLine
 10
625.1854602037151
 20
442.7916972226093
 30
0.0
 11
1198.185460203716
 21
442.7916972226093
 31
0.0
  0
LINE
  5
33B
330
1F
100
AcDbEntity
  8
0-0
  6
JWW_DASHED1
 62
   120
370
     5
100
AcDbLine
 10
625.1854602037151
 20
455.7916972237089
 30
0.0
 11
1198.185460203716
 21
455.7916972237089
 31
0.0
  0
LINE
  5
33C
330
1F
100
AcDbEntity
  8
0-0
  6
JWW_DASHED1
 62
   120
370
     5
100
AcDbLine
 10
625.1854602037151
 20
456.7916972236091
 30
0.0
 11
1198.185460203716
 21
456.7916972236091
 31
0.0
  0
LINE
  5
33D
330
1F
100
AcDbEntity
  8
0-0
  6
JWW_DASHED1
 62
   120
370
     5
100
AcDbLine
 10
625.1854602037151
 20
469.7916972247087
 30
0.0
 11
1198.185460203716
 21
469.7916972247087
 31
0.0
  0
LINE
  5
33E
330
1F
100
AcDbEntity
  8
0-0
  6
JWW_DASHED1
 62
   120
370
     5
100
AcDbLine
 10
625.1854602037151
 20
470.7916972246089
 30
0.0
 11
1198.185460203716
 21
470.7916972246089
 31
0.0
  0
LINE
  5
33F
330
1F
100
AcDbEntity
  8
0-0
  6
JWW_DASHED1
 62
   120
370
     5
100
AcDbLine
 10
625.1854602037151
 20
483.7916972257085
 30
0.0
 11
1198.185460203716
 21
483.7916972257085
 31
0.0
  0
LINE
  5
340
330
1F
100
AcDbEntity
  8
0-0
  6
JWW_DASHED1
 62
   120
370
     5
100
AcDbLine
 10
625.1854602037151
 20
484.7916972256087
 30
0.0
 11
1198.185460203716
 21
484.7916972256087
 31
0.0
  0
LINE
  5
341
330
1F
100
AcDbEntity
  8
0-0
  6
JWW_DASHED1
 62
   120
370
     5
100
AcDbLine
 10
625.1854602037151
 20
497.7916972267081
 30
0.0
 11
1198.185460203716
 21
497.7916972267081
 31
0.0
  0
LINE
  5
342
330
1F
100
AcDbEntity
  8
0-0
  6
JWW_DASHED1
 62
   120
370
     5
100
AcDbLine
 10
625.1854602037151
 20
498.7916972266084
 30
0.0
 11
1198.185460203716
 21
498.7916972266084
 31
0.0
  0
LINE
  5
343
330
1F
100
AcDbEntity
  8
0-0
  6
JWW_DASHED1
 62
   120
370
     5
100
AcDbLine
 10
625.1854602037151
 20
511.7916972277081
 30
0.0
 11
1198.185460203716
 21
511.7916972277081
 31
0.0
  0
LINE
  5
344
330
1F
100
AcDbEntity
  8
0-0
  6
JWW_DASHED1
 62
   120
370
     5
100
AcDbLine
 10
625.1854602037151
 20
512.7916972276082
 30
0.0
 11
1198.185460203716
 21
512.7916972276082
 31
0.0
  0
LINE
  5
345
330
1F
100
AcDbEntity
  8
0-0
  6
JWW_DASHED1
 62
   120
370
     5
100
AcDbLine
 10
625.1854602037151
 20
525.7916972287079
 30
0.0
 11
1198.185460203716
 21
525.7916972287079
 31
0.0
  0
LINE
  5
346
330
1F
100
AcDbEntity
  8
0-0
  6
JWW_DASHED1
 62
   120
370
     5
100
AcDbLine
 10
625.1854602037151
 20
526.7916972286081
 30
0.0
 11
1198.185460203716
 21
526.7916972286081
 31
0.0
  0
LINE
  5
347
330
1F
100
AcDbEntity
  8
0-0
  6
JWW_DASHED1
 62
   120
370
     5
100
AcDbLine
 10
625.1854602037151
 20
539.7916972297077
 30
0.0
 11
1198.185460203716
 21
539.7916972297077
 31
0.0
  0
LINE
  5
348
330
1F
100
AcDbEntity
  8
0-0
  6
JWW_DASHED1
 62
   120
370
     5
100
AcDbLine
 10
625.1854602037151
 20
540.7916972296078
 30
0.0
 11
1198.185460203716
 21
540.7916972296078
 31
0.0
  0
LINE
  5
349
330
1F
100
AcDbEntity
  8
0-0
  6
JWW_DASHED1
 62
   120
370
     5
100
AcDbLine
 10
625.1854602037151
 20
553.7916972307074
 30
0.0
 11
1198.185460203716
 21
553.7916972307074
 31
0.0
  0
LINE
  5
34A
330
1F
100
AcDbEntity
  8
0-0
  6
JWW_DASHED1
 62
   120
370
     5
100
AcDbLine
 10
625.1854602037151
 20
554.7916972306076
 30
0.0
 11
1198.185460203716
 21
554.7916972306076
 31
0.0
  0
LINE
  5
34B
330
1F
100
AcDbEntity
  8
0-0
  6
JWW_DASHED1
 62
   120
370
     5
100
AcDbLine
 10
625.1854602037151
 20
567.7916972317073
 30
0.0
 11
1198.185460203716
 21
567.7916972317073
 31
0.0
  0
LINE
  5
34C
330
1F
100
AcDbEntity
  8
0-0
  6
JWW_DASHED1
 62
   120
370
     5
100
AcDbLine
 10
625.1854602037151
 20
568.7916972316075
 30
0.0
 11
1198.185460203716
 21
568.7916972316075
 31
0.0
  0
LINE
  5
34D
330
1F
100
AcDbEntity
  8
0-0
  6
JWW_DASHED1
 62
   120
370
     5
100
AcDbLine
 10
625.1854602037151
 20
581.7916972327071
 30
0.0
 11
1198.185460203716
 21
581.7916972327071
 31
0.0
  0
LINE
  5
34E
330
1F
100
AcDbEntity
  8
0-0
  6
JWW_DASHED1
 62
   120
370
     5
100
AcDbLine
 10
625.1854602037151
 20
582.7916972326072
 30
0.0
 11
1198.185460203716
 21
582.7916972326072
 31
0.0
  0
LINE
  5
34F
330
1F
100
AcDbEntity
  8
0-0
  6
JWW_DASHED1
 62
   120
370
     5
100
AcDbLine
 10
625.1854602037151
 20
595.7916972337068
 30
0.0
 11
1198.185460203716
 21
595.7916972337068
 31
0.0
  0
LINE
  5
350
330
1F
100
AcDbEntity
  8
0-0
  6
JWW_DASHED1
 62
   120
370
     5
100
AcDbLine
 10
625.1854602037151
 20
596.791697233607
 30
0.0
 11
1198.185460203716
 21
596.791697233607
 31
0.0
  0
LINE
  5
351
330
1F
100
AcDbEntity
  8
0-0
  6
JWW_DASHED1
 62
   120
370
     5
100
AcDbLine
 10
625.1854602037151
 20
609.7916972347066
 30
0.0
 11
1198.185460203716
 21
609.7916972347066
 31
0.0
  0
LINE
  5
352
330
1F
100
AcDbEntity
  8
0-0
  6
JWW_DASHED1
 62
   120
370
     5
100
AcDbLine
 10
625.1854602037151
 20
610.7916972346065
 30
0.0
 11
1198.185460203716
 21
610.7916972346065
 31
0.0
  0
LINE
  5
353
330
1F
100
AcDbEntity
  8
0-0
  6
JWW_DASHED1
 62
   120
370
     5
100
AcDbLine
 10
625.1854602037151
 20
623.7916972357064
 30
0.0
 11
1198.185460203716
 21
623.7916972357064
 31
0.0
  0
LINE
  5
354
330
1F
100
AcDbEntity
  8
0-0
  6
JWW_DASHED1
 62
   120
370
     5
100
AcDbLine
 10
625.1854602037151
 20
624.7916972356065
 30
0.0
 11
1198.185460203716
 21
624.7916972356065
 31
0.0
  0
LINE
  5
355
330
1F
100
AcDbEntity
  8
0-0
  6
JWW_DASHED1
 62
   120
370
     5
100
AcDbLine
 10
625.1854602037151
 20
637.7916972367062
 30
0.0
 11
1198.185460203716
 21
637.7916972367062
 31
0.0
  0
LINE
  5
356
330
1F
100
AcDbEntity
  8
0-0
  6
JWW_DASHED1
 62
   120
370
     5
100
AcDbLine
 10
625.1854602037151
 20
638.7916972366064
 30
0.0
 11
1198.185460203716
 21
638.7916972366064
 31
0.0
  0
LINE
  5
357
330
1F
100
AcDbEntity
  8
0-0
  6
JWW_DASHED1
 62
   120
370
     5
100
AcDbLine
 10
625.1854602037151
 20
651.791697237706
 30
0.0
 11
1198.185460203716
 21
651.791697237706
 31
0.0
  0
LINE
  5
358
330
1F
100
AcDbEntity
  8
0-0
  6
JWW_DASHED1
 62
   120
370
     5
100
AcDbLine
 10
625.1854602037151
 20
652.7916972376062
 30
0.0
 11
1198.185460203716
 21
652.7916972376062
 31
0.0
  0
LINE
  5
359
330
1F
100
AcDbEntity
  8
0-0
  6
JWW_DASHED1
 62
   120
370
     5
100
AcDbLine
 10
625.1854602037151
 20
665.7916972387058
 30
0.0
 11
1198.185460203716
 21
665.7916972387058
 31
0.0
  0
LINE
  5
35A
330
1F
100
AcDbEntity
  8
0-0
  6
JWW_DASHED1
 62
   120
370
     5
100
AcDbLine
 10
625.1854602037151
 20
666.7916972386059
 30
0.0
 11
1198.185460203716
 21
666.7916972386059
 31
0.0
  0
LINE
  5
35B
330
1F
100
AcDbEntity
  8
0-0
  6
JWW_DASHED1
 62
   120
370
     5
100
AcDbLine
 10
625.1854602037151
 20
679.7916972397056
 30
0.0
 11
1198.185460203716
 21
679.7916972397056
 31
0.0
  0
LINE
  5
35C
330
1F
100
AcDbEntity
  8
0-0
  6
JWW_DASHED1
 62
   120
370
     5
100
AcDbLine
 10
625.1854602037151
 20
680.7916972396058
 30
0.0
 11
1198.185460203716
 21
680.7916972396058
 31
0.0
  0
LINE
  5
35D
330
1F
100
AcDbEntity
  8
0-0
  6
JWW_DASHED1
 62
   120
370
     5
100
AcDbLine
 10
625.1854602037151
 20
693.7916972407054
 30
0.0
 11
1198.185460203716
 21
693.7916972407054
 31
0.0
  0
LINE
  5
35E
330
1F
100
AcDbEntity
  8
0-0
  6
JWW_DASHED1
 62
   120
370
     5
100
AcDbLine
 10
625.1854602037151
 20
694.7916972406056
 30
0.0
 11
1198.185460203716
 21
694.7916972406056
 31
0.0
  0
LINE
  5
35F
330
1F
100
AcDbEntity
  8
0-0
  6
JWW_DASHED1
 62
   120
370
     5
100
AcDbLine
 10
625.1854602037151
 20
707.7916972417049
 30
0.0
 11
1198.185460203716
 21
707.7916972417049
 31
0.0
  0
LINE
  5
360
330
1F
100
AcDbEntity
  8
0-0
  6
JWW_DASHED1
 62
   120
370
     5
100
AcDbLine
 10
625.1854602037151
 20
708.7916972416051
 30
0.0
 11
1198.185460203716
 21
708.7916972416051
 31
0.0
  0
LINE
  5
361
330
1F
100
AcDbEntity
  8
0-0
  6
JWW_DASHED1
 62
   120
370
     5
100
AcDbLine
 10
625.1854602037151
 20
721.7916972427047
 30
0.0
 11
1198.185460203716
 21
721.7916972427047
 31
0.0
  0
LINE
  5
362
330
1F
100
AcDbEntity
  8
0-0
  6
JWW_DASHED1
 62
   120
370
     5
100
AcDbLine
 10
625.1854602037151
 20
722.7916972426051
 30
0.0
 11
1198.185460203716
 21
722.7916972426051
 31
0.0
  0
LINE
  5
363
330
1F
100
AcDbEntity
  8
0-0
  6
JWW_DASHED1
 62
   120
370
     5
100
AcDbLine
 10
625.1854602037151
 20
735.7916972437047
 30
0.0
 11
1198.185460203716
 21
735.7916972437047
 31
0.0
  0
LINE
  5
364
330
1F
100
AcDbEntity
  8
0-0
  6
JWW_DASHED1
 62
   120
370
     5
100
AcDbLine
 10
625.1854602037151
 20
736.7916972436049
 30
0.0
 11
1198.185460203716
 21
736.7916972436049
 31
0.0
  0
LINE
  5
365
330
1F
100
AcDbEntity
  8
0-0
  6
JWW_DASHED1
 62
   120
370
     5
100
AcDbLine
 10
625.1854602037151
 20
749.7916972447046
 30
0.0
 11
1198.185460203716
 21
749.7916972447046
 31
0.0
  0
LINE
  5
366
330
1F
100
AcDbEntity
  8
0-0
  6
JWW_DASHED1
 62
   120
370
     5
100
AcDbLine
 10
625.1854602037151
 20
750.7916972446047
 30
0.0
 11
1198.185460203716
 21
750.7916972446047
 31
0.0
  0
LINE
  5
367
330
1F
100
AcDbEntity
  8
0-0
  6
JWW_DASHED1
 62
   120
370
     5
100
AcDbLine
 10
625.1854602037151
 20
763.7916972457043
 30
0.0
 11
1198.185460203716
 21
763.7916972457043
 31
0.0
  0
LINE
  5
368
330
1F
100
AcDbEntity
  8
0-0
  6
JWW_DASHED1
 62
   120
370
     5
100
AcDbLine
 10
625.1854602037151
 20
764.7916972456045
 30
0.0
 11
1198.185460203716
 21
764.7916972456045
 31
0.0
  0
LINE
  5
369
330
1F
100
AcDbEntity
  8
0-0
  6
JWW_DASHED1
 62
   120
370
     5
100
AcDbLine
 10
625.1854602037151
 20
777.7916972467041
 30
0.0
 11
1198.185460203716
 21
777.7916972467041
 31
0.0
  0
LINE
  5
36A
330
1F
100
AcDbEntity
  8
0-0
  6
JWW_DASHED1
 62
   120
370
     5
100
AcDbLine
 10
625.1854602037151
 20
778.7916972466043
 30
0.0
 11
1198.185460203716
 21
778.7916972466043
 31
0.0
  0
LINE
  5
36B
330
1F
100
AcDbEntity
  8
0-0
  6
JWW_DASHED1
 62
   120
370
     5
100
AcDbLine
 10
625.1854602037151
 20
791.791697247704
 30
0.0
 11
1198.185460203716
 21
791.791697247704
 31
0.0
  0
LINE
  5
36C
330
1F
100
AcDbEntity
  8
0-0
  6
JWW_DASHED1
 62
   120
370
     5
100
AcDbLine
 10
625.1854602037151
 20
792.7916972476041
 30
0.0
 11
1198.185460203716
 21
792.7916972476041
 31
0.0
  0
LINE
  5
36D
330
1F
100
AcDbEntity
  8
0-0
  6
JWW_DASHED1
 62
   120
370
     5
100
AcDbLine
 10
625.1854602037151
 20
805.7916972487037
 30
0.0
 11
1198.185460203716
 21
805.7916972487037
 31
0.0
  0
LINE
  5
36E
330
1F
100
AcDbEntity
  8
0-0
  6
JWW_DASHED1
 62
   120
370
     5
100
AcDbLine
 10
625.1854602037151
 20
806.7916972486039
 30
0.0
 11
1198.185460203716
 21
806.7916972486039
 31
0.0
  0
LINE
  5
36F
330
1F
100
AcDbEntity
  8
0-0
  6
JWW_DASHED1
 62
   120
370
     5
100
AcDbLine
 10
625.1854602037151
 20
819.7916972497032
 30
0.0
 11
1198.185460203716
 21
819.7916972497032
 31
0.0
  0
LINE
  5
370
330
1F
100
AcDbEntity
  8
0-0
  6
JWW_DASHED1
 62
   120
370
     5
100
AcDbLine
 10
625.1854602037151
 20
820.7916972496034
 30
0.0
 11
1198.185460203716
 21
820.7916972496034
 31
0.0
  0
LINE
  5
371
330
1F
100
AcDbEntity
  8
0-0
  6
JWW_DASHED1
 62
   120
370
     5
100
AcDbLine
 10
625.1854602037151
 20
833.7916972507032
 30
0.0
 11
1198.185460203716
 21
833.7916972507032
 31
0.0
  0
LINE
  5
372
330
1F
100
AcDbEntity
  8
0-0
  6
JWW_DASHED1
 62
   120
370
     5
100
AcDbLine
 10
625.1854602037151
 20
834.7916972506032
 30
0.0
 11
1198.185460203716
 21
834.7916972506032
 31
0.0
  0
LINE
  5
373
330
1F
100
AcDbEntity
  8
0-0
  6
JWW_DASHED1
 62
   120
370
     5
100
AcDbLine
 10
625.1854602037151
 20
847.791697251703
 30
0.0
 11
1198.185460203716
 21
847.791697251703
 31
0.0
  0
LINE
  5
374
330
1F
100
AcDbEntity
  8
0-0
  6
JWW_DASHED1
 62
   120
370
     5
100
AcDbLine
 10
625.1854602037151
 20
848.7916972516032
 30
0.0
 11
1198.185460203716
 21
848.7916972516032
 31
0.0
  0
LINE
  5
375
330
1F
100
AcDbEntity
  8
0-0
  6
JWW_DASHED1
 62
   120
370
     5
100
AcDbLine
 10
625.1854602037151
 20
861.7916972527029
 30
0.0
 11
1198.185460203716
 21
861.7916972527029
 31
0.0
  0
LINE
  5
376
330
1F
100
AcDbEntity
  8
0-0
  6
JWW_DASHED1
 62
   120
370
     5
100
AcDbLine
 10
625.1854602037151
 20
862.7916972526031
 30
0.0
 11
1198.185460203716
 21
862.7916972526031
 31
0.0
  0
LINE
  5
377
330
1F
100
AcDbEntity
  8
0-0
  6
JWW_DASHED1
 62
   120
370
     5
100
AcDbLine
 10
625.1854602037151
 20
875.7916972537026
 30
0.0
 11
1198.185460203716
 21
875.7916972537026
 31
0.0
  0
LINE
  5
378
330
1F
100
AcDbEntity
  8
0-0
  6
JWW_DASHED1
 62
   120
370
     5
100
AcDbLine
 10
625.1854602037151
 20
876.7916972536028
 30
0.0
 11
1198.185460203716
 21
876.7916972536028
 31
0.0
  0
LINE
  5
379
330
1F
100
AcDbEntity
  8
0-0
  6
JWW_DASHED1
 62
   120
370
     5
100
AcDbLine
 10
625.1854602037151
 20
889.7916972547024
 30
0.0
 11
1198.185460203716
 21
889.7916972547024
 31
0.0
  0
LINE
  5
37A
330
1F
100
AcDbEntity
  8
0-0
  6
JWW_DASHED1
 62
   120
370
     5
100
AcDbLine
 10
625.1854602037151
 20
890.7916972546026
 30
0.0
 11
1198.185460203716
 21
890.7916972546026
 31
0.0
  0
LINE
  5
37B
330
1F
100
AcDbEntity
  8
0-0
  6
JWW_DASHED1
 62
   120
370
     5
100
AcDbLine
 10
625.1854602037151
 20
903.7916972557023
 30
0.0
 11
1198.185460203716
 21
903.7916972557023
 31
0.0
  0
LINE
  5
37C
330
1F
100
AcDbEntity
  8
0-0
  6
JWW_DASHED1
 62
   120
370
     5
100
AcDbLine
 10
625.1854602037151
 20
904.7916972556025
 30
0.0
 11
1198.185460203716
 21
904.7916972556025
 31
0.0
  0
LINE
  5
37D
330
1F
100
AcDbEntity
  8
0-0
  6
JWW_DASHED1
 62
   120
370
     5
100
AcDbLine
 10
625.1854602037151
 20
917.791697256702
 30
0.0
 11
1198.185460203716
 21
917.791697256702
 31
0.0
  0
LINE
  5
37E
330
1F
100
AcDbEntity
  8
0-0
  6
JWW_DASHED1
 62
   120
370
     5
100
AcDbLine
 10
625.1854602037151
 20
918.791697256602
 30
0.0
 11
1198.185460203716
 21
918.791697256602
 31
0.0
  0
LINE
  5
37F
330
1F
100
AcDbEntity
  8
0-0
  6
JWW_DASHED1
 62
   120
370
     5
100
AcDbLine
 10
625.1854602037151
 20
931.7916972577016
 30
0.0
 11
1198.185460203716
 21
931.7916972577016
 31
0.0
  0
LINE
  5
380
330
1F
100
AcDbEntity
  8
0-0
  6
JWW_DASHED1
 62
   120
370
     5
100
AcDbLine
 10
625.1854602037151
 20
932.7916972576018
 30
0.0
 11
1198.185460203716
 21
932.7916972576018
 31
0.0
  0
LINE
  5
381
330
1F
100
AcDbEntity
  8
0-0
  6
JWW_DASHED1
 62
   120
370
     5
100
AcDbLine
 10
625.1854602037151
 20
945.7916972587013
 30
0.0
 11
1198.185460203716
 21
945.7916972587013
 31
0.0
  0
LINE
  5
382
330
1F
100
AcDbEntity
  8
0-0
  6
JWW_DASHED1
 62
   120
370
     5
100
AcDbLine
 10
625.1854602037151
 20
946.7916972586017
 30
0.0
 11
1198.185460203716
 21
946.7916972586017
 31
0.0
  0
LINE
  5
383
330
1F
100
AcDbEntity
  8
0-0
  6
JWW_DASHED1
 62
   120
370
     5
100
AcDbLine
 10
631.185478661747
 20
-160.2081545064381
 30
0.0
 11
631.185478661747
 21
1014.791845493562
 31
0.0
  0
LINE
  5
384
330
1F
100
AcDbEntity
  8
0-0
  6
JWW_DASHED1
 62
   120
370
     5
100
AcDbLine
 10
1164.185478699647
 20
-160.2081545064381
 30
0.0
 11
1164.185478699647
 21
1014.791845493562
 31
0.0
  0
LINE
  5
385
330
1F
100
AcDbEntity
  8
0-0
  6
JWW_DASHED1
 62
   120
370
     5
100
AcDbLine
 10
1163.185478699747
 20
-160.2081545064381
 30
0.0
 11
1163.185478699748
 21
1014.791845493562
 31
0.0
  0
LINE
  5
386
330
1F
100
AcDbEntity
  8
0-0
  6
JWW_DASHED1
 62
   120
370
     5
100
AcDbLine
 10
1150.185478698647
 20
-160.2081545064381
 30
0.0
 11
1150.185478698648
 21
1014.791845493562
 31
0.0
  0
LINE
  5
387
330
1F
100
AcDbEntity
  8
0-0
  6
JWW_DASHED1
 62
   120
370
     5
100
AcDbLine
 10
1149.185478698747
 20
-160.2081545064381
 30
0.0
 11
1149.185478698747
 21
1014.791845493562
 31
0.0
  0
LINE
  5
388
330
1F
100
AcDbEntity
  8
0-0
  6
JWW_DASHED1
 62
   120
370
     5
100
AcDbLine
 10
1136.185478697646
 20
-160.2081545064381
 30
0.0
 11
1136.185478697646
 21
1014.791845493562
 31
0.0
  0
LINE
  5
389
330
1F
100
AcDbEntity
  8
0-0
  6
JWW_DASHED1
 62
   120
370
     5
100
AcDbLine
 10
1135.185478697747
 20
-160.2081545064381
 30
0.0
 11
1135.185478697747
 21
1014.791845493562
 31
0.0
  0
LINE
  5
38A
330
1F
100
AcDbEntity
  8
0-0
  6
JWW_DASHED1
 62
   120
370
     5
100
AcDbLine
 10
1122.185478696647
 20
-160.2081545064381
 30
0.0
 11
1122.185478696647
 21
1014.791845493562
 31
0.0
  0
LINE
  5
38B
330
1F
100
AcDbEntity
  8
0-0
  6
JWW_DASHED1
 62
   120
370
     5
100
AcDbLine
 10
1121.185478696747
 20
-160.2081545064381
 30
0.0
 11
1121.185478696747
 21
1014.791845493562
 31
0.0
  0
LINE
  5
38C
330
1F
100
AcDbEntity
  8
0-0
  6
JWW_DASHED1
 62
   120
370
     5
100
AcDbLine
 10
1108.185478695647
 20
-160.2081545064381
 30
0.0
 11
1108.185478695647
 21
1014.791845493562
 31
0.0
  0
LINE
  5
38D
330
1F
100
AcDbEntity
  8
0-0
  6
JWW_DASHED1
 62
   120
370
     5
100
AcDbLine
 10
1107.185478695747
 20
-160.2081545064381
 30
0.0
 11
1107.185478695747
 21
1014.791845493562
 31
0.0
  0
LINE
  5
38E
330
1F
100
AcDbEntity
  8
0-0
  6
JWW_DASHED1
 62
   120
370
     5
100
AcDbLine
 10
1094.185478694647
 20
-160.2081545064381
 30
0.0
 11
1094.185478694647
 21
1014.791845493562
 31
0.0
  0
LINE
  5
38F
330
1F
100
AcDbEntity
  8
0-0
  6
JWW_DASHED1
 62
   120
370
     5
100
AcDbLine
 10
1093.185478694747
 20
-160.2081545064381
 30
0.0
 11
1093.185478694747
 21
1014.791845493562
 31
0.0
  0
LINE
  5
390
330
1F
100
AcDbEntity
  8
0-0
  6
JWW_DASHED1
 62
   120
370
     5
100
AcDbLine
 10
1080.185478693647
 20
-160.2081545064381
 30
0.0
 11
1080.185478693647
 21
1014.791845493562
 31
0.0
  0
LINE
  5
391
330
1F
100
AcDbEntity
  8
0-0
  6
JWW_DASHED1
 62
   120
370
     5
100
AcDbLine
 10
1079.185478693747
 20
-160.2081545064381
 30
0.0
 11
1079.185478693747
 21
1014.791845493562
 31
0.0
  0
LINE
  5
392
330
1F
100
AcDbEntity
  8
0-0
  6
JWW_DASHED1
 62
   120
370
     5
100
AcDbLine
 10
1066.185478692647
 20
-160.2081545064381
 30
0.0
 11
1066.185478692647
 21
1014.791845493562
 31
0.0
  0
LINE
  5
393
330
1F
100
AcDbEntity
  8
0-0
  6
JWW_DASHED1
 62
   120
370
     5
100
AcDbLine
 10
1065.185478692747
 20
-160.2081545064381
 30
0.0
 11
1065.185478692747
 21
1014.791845493562
 31
0.0
  0
LINE
  5
394
330
1F
100
AcDbEntity
  8
0-0
  6
JWW_DASHED1
 62
   120
370
     5
100
AcDbLine
 10
1052.185478691648
 20
-160.2081545064381
 30
0.0
 11
1052.185478691648
 21
1014.791845493562
 31
0.0
  0
LINE
  5
395
330
1F
100
AcDbEntity
  8
0-0
  6
JWW_DASHED1
 62
   120
370
     5
100
AcDbLine
 10
1051.185478691747
 20
-160.2081545064381
 30
0.0
 11
1051.185478691747
 21
1014.791845493562
 31
0.0
  0
LINE
  5
396
330
1F
100
AcDbEntity
  8
0-0
  6
JWW_DASHED1
 62
   120
370
     5
100
AcDbLine
 10
1038.185478690647
 20
-160.2081545064381
 30
0.0
 11
1038.185478690647
 21
1014.791845493562
 31
0.0
  0
LINE
  5
397
330
1F
100
AcDbEntity
  8
0-0
  6
JWW_DASHED1
 62
   120
370
     5
100
AcDbLine
 10
1037.185478690747
 20
-160.2081545064381
 30
0.0
 11
1037.185478690747
 21
1014.791845493562
 31
0.0
  0
LINE
  5
398
330
1F
100
AcDbEntity
  8
0-0
  6
JWW_DASHED1
 62
   120
370
     5
100
AcDbLine
 10
1024.185478689647
 20
-160.2081545064381
 30
0.0
 11
1024.185478689647
 21
1014.791845493562
 31
0.0
  0
LINE
  5
399
330
1F
100
AcDbEntity
  8
0-0
  6
JWW_DASHED1
 62
   120
370
     5
100
AcDbLine
 10
1023.185478689747
 20
-160.2081545064381
 30
0.0
 11
1023.185478689747
 21
1014.791845493562
 31
0.0
  0
LINE
  5
39A
330
1F
100
AcDbEntity
  8
0-0
  6
JWW_DASHED1
 62
   120
370
     5
100
AcDbLine
 10
1010.185478688647
 20
-160.2081545064381
 30
0.0
 11
1010.185478688647
 21
1014.791845493562
 31
0.0
  0
LINE
  5
39B
330
1F
100
AcDbEntity
  8
0-0
  6
JWW_DASHED1
 62
   120
370
     5
100
AcDbLine
 10
1009.185478688747
 20
-160.2081545064381
 30
0.0
 11
1009.185478688747
 21
1014.791845493562
 31
0.0
  0
LINE
  5
39C
330
1F
100
AcDbEntity
  8
0-0
  6
JWW_DASHED1
 62
   120
370
     5
100
AcDbLine
 10
996.1854786876477
 20
-160.2081545064381
 30
0.0
 11
996.1854786876477
 21
1014.791845493562
 31
0.0
  0
LINE
  5
39D
330
1F
100
AcDbEntity
  8
0-0
  6
JWW_DASHED1
 62
   120
370
     5
100
AcDbLine
 10
995.185478687747
 20
-160.2081545064381
 30
0.0
 11
995.185478687747
 21
1014.791845493562
 31
0.0
  0
LINE
  5
39E
330
1F
100
AcDbEntity
  8
0-0
  6
JWW_DASHED1
 62
   120
370
     5
100
AcDbLine
 10
982.1854786866475
 20
-160.2081545064381
 30
0.0
 11
982.1854786866475
 21
1014.791845493562
 31
0.0
  0
LINE
  5
39F
330
1F
100
AcDbEntity
  8
0-0
  6
JWW_DASHED1
 62
   120
370
     5
100
AcDbLine
 10
981.1854786867473
 20
-160.2081545064381
 30
0.0
 11
981.1854786867473
 21
1014.791845493562
 31
0.0
  0
LINE
  5
3A0
330
1F
100
AcDbEntity
  8
0-0
  6
JWW_DASHED1
 62
   120
370
     5
100
AcDbLine
 10
968.1854786856472
 20
-160.2081545064381
 30
0.0
 11
968.1854786856472
 21
1014.791845493562
 31
0.0
  0
LINE
  5
3A1
330
1F
100
AcDbEntity
  8
0-0
  6
JWW_DASHED1
 62
   120
370
     5
100
AcDbLine
 10
967.1854786857471
 20
-160.2081545064381
 30
0.0
 11
967.1854786857471
 21
1014.791845493562
 31
0.0
  0
LINE
  5
3A2
330
1F
100
AcDbEntity
  8
0-0
  6
JWW_DASHED1
 62
   120
370
     5
100
AcDbLine
 10
954.1854786846475
 20
-160.2081545064381
 30
0.0
 11
954.1854786846475
 21
1014.791845493562
 31
0.0
  0
LINE
  5
3A3
330
1F
100
AcDbEntity
  8
0-0
  6
JWW_DASHED1
 62
   120
370
     5
100
AcDbLine
 10
953.1854786847473
 20
-160.2081545064381
 30
0.0
 11
953.1854786847473
 21
1014.791845493562
 31
0.0
  0
LINE
  5
3A4
330
1F
100
AcDbEntity
  8
0-0
  6
JWW_DASHED1
 62
   120
370
     5
100
AcDbLine
 10
940.1854786836476
 20
-160.2081545064381
 30
0.0
 11
940.1854786836476
 21
1014.791845493562
 31
0.0
  0
LINE
  5
3A5
330
1F
100
AcDbEntity
  8
0-0
  6
JWW_DASHED1
 62
   120
370
     5
100
AcDbLine
 10
939.1854786837471
 20
-160.2081545064381
 30
0.0
 11
939.1854786837471
 21
1014.791845493562
 31
0.0
  0
LINE
  5
3A6
330
1F
100
AcDbEntity
  8
0-0
  6
JWW_DASHED1
 62
   120
370
     5
100
AcDbLine
 10
926.1854786826474
 20
-160.2081545064381
 30
0.0
 11
926.1854786826474
 21
1014.791845493562
 31
0.0
  0
LINE
  5
3A7
330
1F
100
AcDbEntity
  8
0-0
  6
JWW_DASHED1
 62
   120
370
     5
100
AcDbLine
 10
925.1854786827472
 20
-160.2081545064381
 30
0.0
 11
925.1854786827472
 21
1014.791845493562
 31
0.0
  0
LINE
  5
3A8
330
1F
100
AcDbEntity
  8
0-0
  6
JWW_DASHED1
 62
   120
370
     5
100
AcDbLine
 10
912.1854786816472
 20
-160.2081545064381
 30
0.0
 11
912.1854786816472
 21
1014.791845493562
 31
0.0
  0
LINE
  5
3A9
330
1F
100
AcDbEntity
  8
0-0
  6
JWW_DASHED1
 62
   120
370
     5
100
AcDbLine
 10
911.185478681747
 20
-160.2081545064381
 30
0.0
 11
911.185478681747
 21
1014.791845493562
 31
0.0
  0
LINE
  5
3AA
330
1F
100
AcDbEntity
  8
0-0
  6
JWW_DASHED1
 62
   120
370
     5
100
AcDbLine
 10
898.185478680647
 20
-160.2081545064381
 30
0.0
 11
898.185478680647
 21
1014.791845493562
 31
0.0
  0
LINE
  5
3AB
330
1F
100
AcDbEntity
  8
0-0
  6
JWW_DASHED1
 62
   120
370
     5
100
AcDbLine
 10
897.1854786807472
 20
-160.2081545064381
 30
0.0
 11
897.1854786807472
 21
1014.791845493562
 31
0.0
  0
LINE
  5
3AC
330
1F
100
AcDbEntity
  8
0-0
  6
JWW_DASHED1
 62
   120
370
     5
100
AcDbLine
 10
884.1854786796476
 20
-160.2081545064381
 30
0.0
 11
884.1854786796476
 21
1014.791845493562
 31
0.0
  0
LINE
  5
3AD
330
1F
100
AcDbEntity
  8
0-0
  6
JWW_DASHED1
 62
   120
370
     5
100
AcDbLine
 10
883.1854786797475
 20
-160.2081545064381
 30
0.0
 11
883.1854786797475
 21
1014.791845493562
 31
0.0
  0
LINE
  5
3AE
330
1F
100
AcDbEntity
  8
0-0
  6
JWW_DASHED1
 62
   120
370
     5
100
AcDbLine
 10
870.1854786786474
 20
-160.2081545064381
 30
0.0
 11
870.1854786786474
 21
1014.791845493562
 31
0.0
  0
LINE
  5
3AF
330
1F
100
AcDbEntity
  8
0-0
  6
JWW_DASHED1
 62
   120
370
     5
100
AcDbLine
 10
869.1854786787472
 20
-160.2081545064381
 30
0.0
 11
869.1854786787472
 21
1014.791845493562
 31
0.0
  0
LINE
  5
3B0
330
1F
100
AcDbEntity
  8
0-0
  6
JWW_DASHED1
 62
   120
370
     5
100
AcDbLine
 10
856.1854786776472
 20
-160.2081545064381
 30
0.0
 11
856.1854786776472
 21
1014.791845493562
 31
0.0
  0
LINE
  5
3B1
330
1F
100
AcDbEntity
  8
0-0
  6
JWW_DASHED1
 62
   120
370
     5
100
AcDbLine
 10
855.185478677747
 20
-160.2081545064381
 30
0.0
 11
855.185478677747
 21
1014.791845493562
 31
0.0
  0
LINE
  5
3B2
330
1F
100
AcDbEntity
  8
0-0
  6
JWW_DASHED1
 62
   120
370
     5
100
AcDbLine
 10
842.1854786766473
 20
-160.2081545064381
 30
0.0
 11
842.1854786766473
 21
1014.791845493562
 31
0.0
  0
LINE
  5
3B3
330
1F
100
AcDbEntity
  8
0-0
  6
JWW_DASHED1
 62
   120
370
     5
100
AcDbLine
 10
841.1854786767472
 20
-160.2081545064381
 30
0.0
 11
841.1854786767472
 21
1014.791845493562
 31
0.0
  0
LINE
  5
3B4
330
1F
100
AcDbEntity
  8
0-0
  6
JWW_DASHED1
 62
   120
370
     5
100
AcDbLine
 10
828.1854786756476
 20
-160.2081545064381
 30
0.0
 11
828.1854786756476
 21
1014.791845493562
 31
0.0
  0
LINE
  5
3B5
330
1F
100
AcDbEntity
  8
0-0
  6
JWW_DASHED1
 62
   120
370
     5
100
AcDbLine
 10
827.1854786757474
 20
-160.2081545064381
 30
0.0
 11
827.1854786757474
 21
1014.791845493562
 31
0.0
  0
LINE
  5
3B6
330
1F
100
AcDbEntity
  8
0-0
  6
JWW_DASHED1
 62
   120
370
     5
100
AcDbLine
 10
814.1854786746474
 20
-160.2081545064381
 30
0.0
 11
814.1854786746474
 21
1014.791845493562
 31
0.0
  0
LINE
  5
3B7
330
1F
100
AcDbEntity
  8
0-0
  6
JWW_DASHED1
 62
   120
370
     5
100
AcDbLine
 10
813.1854786747472
 20
-160.2081545064381
 30
0.0
 11
813.1854786747472
 21
1014.791845493562
 31
0.0
  0
LINE
  5
3B8
330
1F
100
AcDbEntity
  8
0-0
  6
JWW_DASHED1
 62
   120
370
     5
100
AcDbLine
 10
800.1854786736471
 20
-160.2081545064381
 30
0.0
 11
800.1854786736471
 21
1014.791845493562
 31
0.0
  0
LINE
  5
3B9
330
1F
100
AcDbEntity
  8
0-0
  6
JWW_DASHED1
 62
   120
370
     5
100
AcDbLine
 10
799.185478673747
 20
-160.2081545064381
 30
0.0
 11
799.185478673747
 21
1014.791845493562
 31
0.0
  0
LINE
  5
3BA
330
1F
100
AcDbEntity
  8
0-0
  6
JWW_DASHED1
 62
   120
370
     5
100
AcDbLine
 10
786.1854786726474
 20
-160.2081545064381
 30
0.0
 11
786.1854786726474
 21
1014.791845493562
 31
0.0
  0
LINE
  5
3BB
330
1F
100
AcDbEntity
  8
0-0
  6
JWW_DASHED1
 62
   120
370
     5
100
AcDbLine
 10
785.1854786727472
 20
-160.2081545064381
 30
0.0
 11
785.1854786727472
 21
1014.791845493562
 31
0.0
  0
LINE
  5
3BC
330
1F
100
AcDbEntity
  8
0-0
  6
JWW_DASHED1
 62
   120
370
     5
100
AcDbLine
 10
772.1854786716476
 20
-160.2081545064381
 30
0.0
 11
772.1854786716476
 21
1014.791845493562
 31
0.0
  0
LINE
  5
3BD
330
1F
100
AcDbEntity
  8
0-0
  6
JWW_DASHED1
 62
   120
370
     5
100
AcDbLine
 10
771.1854786717474
 20
-160.2081545064381
 30
0.0
 11
771.1854786717474
 21
1014.791845493562
 31
0.0
  0
LINE
  5
3BE
330
1F
100
AcDbEntity
  8
0-0
  6
JWW_DASHED1
 62
   120
370
     5
100
AcDbLine
 10
758.1854786706474
 20
-160.2081545064381
 30
0.0
 11
758.1854786706474
 21
1014.791845493562
 31
0.0
  0
LINE
  5
3BF
330
1F
100
AcDbEntity
  8
0-0
  6
JWW_DASHED1
 62
   120
370
     5
100
AcDbLine
 10
757.1854786707472
 20
-160.2081545064381
 30
0.0
 11
757.1854786707472
 21
1014.791845493562
 31
0.0
  0
LINE
  5
3C0
330
1F
100
AcDbEntity
  8
0-0
  6
JWW_DASHED1
 62
   120
370
     5
100
AcDbLine
 10
744.1854786696472
 20
-160.2081545064381
 30
0.0
 11
744.1854786696472
 21
1014.791845493562
 31
0.0
  0
LINE
  5
3C1
330
1F
100
AcDbEntity
  8
0-0
  6
JWW_DASHED1
 62
   120
370
     5
100
AcDbLine
 10
743.185478669747
 20
-160.2081545064381
 30
0.0
 11
743.185478669747
 21
1014.791845493562
 31
0.0
  0
LINE
  5
3C2
330
1F
100
AcDbEntity
  8
0-0
  6
JWW_DASHED1
 62
   120
370
     5
100
AcDbLine
 10
730.1854786686474
 20
-160.2081545064381
 30
0.0
 11
730.1854786686474
 21
1014.791845493562
 31
0.0
  0
LINE
  5
3C3
330
1F
100
AcDbEntity
  8
0-0
  6
JWW_DASHED1
 62
   120
370
     5
100
AcDbLine
 10
729.1854786687472
 20
-160.2081545064381
 30
0.0
 11
729.1854786687472
 21
1014.791845493562
 31
0.0
  0
LINE
  5
3C4
330
1F
100
AcDbEntity
  8
0-0
  6
JWW_DASHED1
 62
   120
370
     5
100
AcDbLine
 10
716.1854786676472
 20
-160.2081545064381
 30
0.0
 11
716.1854786676472
 21
1014.791845493562
 31
0.0
  0
LINE
  5
3C5
330
1F
100
AcDbEntity
  8
0-0
  6
JWW_DASHED1
 62
   120
370
     5
100
AcDbLine
 10
715.1854786677474
 20
-160.2081545064381
 30
0.0
 11
715.1854786677474
 21
1014.791845493562
 31
0.0
  0
LINE
  5
3C6
330
1F
100
AcDbEntity
  8
0-0
  6
JWW_DASHED1
 62
   120
370
     5
100
AcDbLine
 10
702.1854786666473
 20
-160.2081545064381
 30
0.0
 11
702.1854786666473
 21
1014.791845493562
 31
0.0
  0
LINE
  5
3C7
330
1F
100
AcDbEntity
  8
0-0
  6
JWW_DASHED1
 62
   120
370
     5
100
AcDbLine
 10
701.1854786667468
 20
-160.2081545064381
 30
0.0
 11
701.1854786667468
 21
1014.791845493562
 31
0.0
  0
LINE
  5
3C8
330
1F
100
AcDbEntity
  8
0-0
  6
JWW_DASHED1
 62
   120
370
     5
100
AcDbLine
 10
688.1854786656471
 20
-160.2081545064381
 30
0.0
 11
688.1854786656471
 21
1014.791845493562
 31
0.0
  0
LINE
  5
3C9
330
1F
100
AcDbEntity
  8
0-0
  6
JWW_DASHED1
 62
   120
370
     5
100
AcDbLine
 10
687.1854786657469
 20
-160.2081545064381
 30
0.0
 11
687.1854786657469
 21
1014.791845493562
 31
0.0
  0
LINE
  5
3CA
330
1F
100
AcDbEntity
  8
0-0
  6
JWW_DASHED1
 62
   120
370
     5
100
AcDbLine
 10
674.1854786646473
 20
-160.2081545064381
 30
0.0
 11
674.1854786646473
 21
1014.791845493562
 31
0.0
  0
LINE
  5
3CB
330
1F
100
AcDbEntity
  8
0-0
  6
JWW_DASHED1
 62
   120
370
     5
100
AcDbLine
 10
673.1854786647467
 20
-160.2081545064381
 30
0.0
 11
673.1854786647467
 21
1014.791845493562
 31
0.0
  0
LINE
  5
3CC
330
1F
100
AcDbEntity
  8
0-0
  6
JWW_DASHED1
 62
   120
370
     5
100
AcDbLine
 10
660.1854786636474
 20
-160.2081545064381
 30
0.0
 11
660.1854786636474
 21
1014.791845493562
 31
0.0
  0
LINE
  5
3CD
330
1F
100
AcDbEntity
  8
0-0
  6
JWW_DASHED1
 62
   120
370
     5
100
AcDbLine
 10
659.1854786637474
 20
-160.2081545064381
 30
0.0
 11
659.1854786637474
 21
1014.791845493562
 31
0.0
  0
LINE
  5
3CE
330
1F
100
AcDbEntity
  8
0-0
  6
JWW_DASHED1
 62
   120
370
     5
100
AcDbLine
 10
646.1854786626474
 20
-160.2081545064381
 30
0.0
 11
646.1854786626474
 21
1014.791845493562
 31
0.0
  0
LINE
  5
3CF
330
1F
100
AcDbEntity
  8
0-0
  6
JWW_DASHED1
 62
   120
370
     5
100
AcDbLine
 10
645.185478662747
 20
-160.2081545064381
 30
0.0
 11
645.185478662747
 21
1014.791845493562
 31
0.0
  0
LINE
  5
3D0
330
1F
100
AcDbEntity
  8
0-0
  6
JWW_DASHED1
 62
   120
370
     5
100
AcDbLine
 10
632.1854786616469
 20
-160.2081545064381
 30
0.0
 11
632.1854786616469
 21
1014.791845493562
 31
0.0
  0
LINE
  5
3D1
330
1F
100
AcDbEntity
  8
0-0
  6
JWW_DASHED1
 62
   120
370
     5
100
AcDbLine
 10
1192.185478701647
 20
-160.2081545064381
 30
0.0
 11
1192.185478701647
 21
1014.791845493562
 31
0.0
  0
LINE
  5
3D2
330
1F
100
AcDbEntity
  8
0-0
  6
JWW_DASHED1
 62
   120
370
     5
100
AcDbLine
 10
1177.185478700747
 20
-160.2081545064381
 30
0.0
 11
1177.185478700747
 21
1014.791845493562
 31
0.0
  0
LINE
  5
3D3
330
1F
100
AcDbEntity
  8
0-0
  6
JWW_DASHED1
 62
   120
370
     5
100
AcDbLine
 10
1191.185478701747
 20
-160.2081545064381
 30
0.0
 11
1191.185478701747
 21
1014.791845493562
 31
0.0
  0
LINE
  5
3D4
330
1F
100
AcDbEntity
  8
0-0
  6
JWW_DASHED1
 62
   120
370
     5
100
AcDbLine
 10
1178.185478700647
 20
-160.2081545064381
 30
0.0
 11
1178.185478700647
 21
1014.791845493562
 31
0.0
  0
LINE
  5
3D5
330
1F
100
AcDbEntity
  8
0-0
  6
JWW_DASHED1
 62
   120
370
     5
100
AcDbLine
 10
625.185460203716
 20
1002.791697262601
 30
0.0
 11
1198.185460203715
 21
1002.791697262601
 31
0.0
  0
LINE
  5
3D6
330
1F
100
AcDbEntity
  8
0-0
  6
JWW_DASHED1
 62
   120
370
     5
100
AcDbLine
 10
625.185460203716
 20
959.7916972597013
 30
0.0
 11
1198.185460203715
 21
959.7916972597013
 31
0.0
  0
LINE
  5
3D7
330
1F
100
AcDbEntity
  8
0-0
  6
JWW_DASHED1
 62
   120
370
     5
100
AcDbLine
 10
625.185460203716
 20
960.7916972596015
 30
0.0
 11
1198.185460203715
 21
960.7916972596015
 31
0.0
  0
LINE
  5
3D8
330
1F
100
AcDbEntity
  8
0-0
  6
JWW_DASHED1
 62
   120
370
     5
100
AcDbLine
 10
625.185460203716
 20
973.7916972607012
 30
0.0
 11
1198.185460203715
 21
973.7916972607012
 31
0.0
  0
LINE
  5
3D9
330
1F
100
AcDbEntity
  8
0-0
  6
JWW_DASHED1
 62
   120
370
     5
100
AcDbLine
 10
625.185460203716
 20
974.7916972606014
 30
0.0
 11
1198.185460203715
 21
974.7916972606014
 31
0.0
  0
LINE
  5
3DA
330
1F
100
AcDbEntity
  8
0-0
  6
JWW_DASHED1
 62
   120
370
     5
100
AcDbLine
 10
625.185460203716
 20
987.791697261701
 30
0.0
 11
1198.185460203715
 21
987.791697261701
 31
0.0
  0
LINE
  5
3DB
330
1F
100
AcDbEntity
  8
0-0
  6
JWW_DASHED1
 62
   120
370
     5
100
AcDbLine
 10
625.185460203716
 20
988.7916972616011
 30
0.0
 11
1198.185460203715
 21
988.7916972616011
 31
0.0
  0
LINE
  5
3DC
330
1F
100
AcDbEntity
  8
0-0
  6
JWW_DASHED1
 62
   120
370
     5
100
AcDbLine
 10
625.185460203716
 20
1001.791697262701
 30
0.0
 11
1198.185460203715
 21
1001.791697262701
 31
0.0
  0
ENDSEC
  0
SECTION
  2
OBJECTS
  0
DICTIONARY
  5
C
330
0
100
AcDbDictionary
281
     1
  3
ACAD_GROUP
350
D
  3
ACAD_LAYOUT
350
1A
  3
ACAD_MATERIAL
350
3B
  3
ACAD_MLEADERSTYLE
350
3DE
  3
ACAD_MLINESTYLE
350
17
  3
ACAD_PLOTSETTINGS
350
19
  3
ACAD_PLOTSTYLENAME
350
E
  3
ACAD_TABLESTYLE
350
3DD
  3
ACAD_VISUALSTYLE
350
2A
  0
DICTIONARY
  5
D
102
{ACAD_REACTORS
330
C
102
}
330
C
100
AcDbDictionary
281
     1
  0
DICTIONARY
  5
1A
102
{ACAD_REACTORS
330
C
102
}
330
C
100
AcDbDictionary
281
     1
  3
Layout1
350
1E
  3
Layout2
350
26
  3
Model
350
22
  0
DICTIONARY
  5
3B
102
{ACAD_REACTORS
330
C
102
}
330
C
100
AcDbDictionary
281
     1
  3
ByBlock
350
3D
  3
ByLayer
350
3C
  3
Global
350
3E
  0
DICTIONARY
  5
3DE
102
{ACAD_REACTORS
330
C
102
}
330
C
100
AcDbDictionary
281
     1
  0
DICTIONARY
  5
17
102
{ACAD_REACTORS
330
C
102
}
330
C
100
AcDbDictionary
281
     1
  3
Standard
350
18
  0
DICTIONARY
  5
19
102
{ACAD_REACTORS
330
C
102
}
330
C
100
AcDbDictionary
281
     1
  0
ACDBDICTIONARYWDFLT
  5
E
102
{ACAD_REACTORS
330
C
102
}
330
C
100
AcDbDictionary
281
     1
  3
Normal
350
F
100
AcDbDictionaryWithDefault
340
F
  0
DICTIONARY
  5
3DD
102
{ACAD_REACTORS
330
C
102
}
330
C
100
AcDbDictionary
281
     1
  0
DICTIONARY
  5
2A
102
{ACAD_REACTORS
330
C
102
}
330
C
100
AcDbDictionary
281
     1
  3
2dWireframe
350
2F
  3
3D Hidden
350
31
  3
3dWireframe
350
30
  3
Basic
350
32
  3
Brighten
350
36
  3
ColorChange
350
3A
  3
Conceptual
350
34
  3
Dim
350
35
  3
Facepattern
350
39
  3
Flat
350
2B
  3
FlatWithEdges
350
2C
  3
Gouraud
350
2D
  3
GouraudWithEdges
350
2E
  3
Linepattern
350
38
  3
Realistic
350
33
  3
Thicken
350
37
  0
LAYOUT
  5
1E
102
{ACAD_REACTORS
330
1A
102
}
330
1A
100
AcDbPlotSettings
  1

  2
none_device
  4

  6

 40
0.0
 41
0.0
 42
0.0
 43
0.0
 44
0.0
 45
0.0
 46
0.0
 47
0.0
 48
0.0
 49
0.0
140
0.0
141
0.0
142
1.0
143
1.0
 70
   688
 72
     0
 73
     0
 74
     5
  7

 75
    16
 76
     0
 77
     5
 78
   300
147
1.0
148
0.0
149
0.0
100
AcDbLayout
  1
Layout1
 70
     1
 71
     1
 10
0.0
 20
0.0
 11
420.0
 21
297.0
 12
0.0
 22
0.0
 32
0.0
 14
1.000000000000000E+20
 24
1.000000000000000E+20
 34
1.000000000000000E+20
 15
-1.000000000000000E+20
 25
-1.000000000000000E+20
 35
-1.000000000000000E+20
146
0.0
 13
0.0
 23
0.0
 33
0.0
 16
1.0
 26
0.0
 36
0.0
 17
0.0
 27
1.0
 37
0.0
 76
     0
330
1B
  0
LAYOUT
  5
26
102
{ACAD_REACTORS
330
1A
102
}
330
1A
100
AcDbPlotSettings
  1

  2
none_device
  4

  6

 40
0.0
 41
0.0
 42
0.0
 43
0.0
 44
0.0
 45
0.0
 46
0.0
 47
0.0
 48
0.0
 49
0.0
140
0.0
141
0.0
142
1.0
143
1.0
 70
   688
 72
     0
 73
     0
 74
     5
  7

 75
    16
 76
     0
 77
     5
 78
   300
147
1.0
148
0.0
149
0.0
100
AcDbLayout
  1
Layout2
 70
     1
 71
     2
 10
0.0
 20
0.0
 11
0.0
 21
0.0
 12
0.0
 22
0.0
 32
0.0
 14
0.0
 24
0.0
 34
0.0
 15
0.0
 25
0.0
 35
0.0
146
0.0
 13
0.0
 23
0.0
 33
0.0
 16
1.0
 26
0.0
 36
0.0
 17
0.0
 27
1.0
 37
0.0
 76
     0
330
23
  0
LAYOUT
  5
22
102
{ACAD_REACTORS
330
1A
102
}
330
1A
100
AcDbPlotSettings
  1

  2
none_device
  4

  6

 40
0.0
 41
0.0
 42
0.0
 43
0.0
 44
0.0
 45
0.0
 46
0.0
 47
0.0
 48
0.0
 49
0.0
140
0.0
141
0.0
142
1.0
143
1.0
 70
  1712
 72
     0
 73
     0
 74
     0
  7

 75
     0
 76
     0
 77
     5
 78
   300
147
1.0
148
0.0
149
0.0
100
AcDbLayout
  1
Model
 70
     1
 71
     0
 10
-4455.0
 20
-3150.0
 11
4455.0
 21
3150.0
 12
0.0
 22
0.0
 32
0.0
 14
-4455.0
 24
-3150.0
 34
0.0
 15
4455.0
 25
3150.0
 35
0.0
146
0.0
 13
0.0
 23
0.0
 33
0.0
 16
1.0
 26
0.0
 36
0.0
 17
0.0
 27
1.0
 37
0.0
 76
     0
330
1F
331
29
  0
MATERIAL
  5
3D
102
{ACAD_REACTORS
330
3B
102
}
330
3B
100
AcDbMaterial
  1
ByBlock
 72
     1
 94
      127
  0
MATERIAL
  5
3C
102
{ACAD_REACTORS
330
3B
102
}
330
3B
100
AcDbMaterial
  1
ByLayer
 72
     1
 94
      127
  0
MATERIAL
  5
3E
102
{ACAD_REACTORS
330
3B
102
}
330
3B
100
AcDbMaterial
  1
Global
 72
     1
 94
      127
  0
MLINESTYLE
  5
18
102
{ACAD_REACTORS
330
17
102
}
330
17
100
AcDbMlineStyle
  2
Standard
 70
     0
  3

 62
   256
 51
90.0
 52
90.0
 71
     2
 49
0.5
 62
   256
  6
BYLAYER
 49
-0.5
 62
   256
  6
BYLAYER
  0
ACDBPLACEHOLDER
  5
F
102
{ACAD_REACTORS
330
E
102
}
330
E
  0
VISUALSTYLE
  5
2F
102
{ACAD_REACTORS
330
2A
102
}
330
2A
100
AcDbVisualStyle
  2
2dWireframe
 70
     4
177
     2
291
     0
 71
     0
176
     1
 72
     2
176
     1
 73
     0
176
     1
 90
        0
176
     1
 40
-0.6
176
     1
 41
-30.0
176
     1
 62
     5
 63
     7
421
 16777215
176
     1
 74
     1
176
     1
 91
        4
176
     1
 64
     7
176
     1
 65
   257
176
     1
 75
     1
176
     1
175
     1
176
     1
 42
1.0
176
     1
 92
        0
176
     1
 66
   257
176
     1
 43
1.0
176
     1
 76
     1
176
     1
 77
     6
176
     1
 78
     2
176
     1
 67
     7
176
     1
 79
     5
176
     1
170
     0
176
     1
171
     0
176
     1
290
     0
176
     1
 93
        1
176
     1
 44
0.0
176
     1
173
     0
176
     1
  0
VISUALSTYLE
  5
31
102
{ACAD_REACTORS
330
2A
102
}
330
2A
100
AcDbVisualStyle
  2
3D Hidden
 70
     6
177
     2
291
     0
 71
     1
176
     1
 72
     2
176
     1
 73
     2
176
     1
 90
        0
176
     1
 40
-0.6
176
     1
 41
-30.0
176
     1
 62
     5
 63
     7
421
 16777215
176
     1
 74
     2
176
     1
 91
        2
176
     1
 64
     7
176
     1
 65
   257
176
     1
 75
     2
176
     1
175
     1
176
     1
 42
40.0
176
     1
 92
        0
176
     1
 66
   257
176
     1
 43
1.0
176
     1
 76
     1
176
     1
 77
     6
176
     1
 78
     2
176
     1
 67
     7
176
     1
 79
     3
176
     1
170
     0
176
     1
171
     0
176
     1
290
     0
176
     1
 93
        1
176
     1
 44
0.0
176
     1
173
     0
176
     1
  0
VISUALSTYLE
  5
30
102
{ACAD_REACTORS
330
2A
102
}
330
2A
100
AcDbVisualStyle
  2
3dWireframe
 70
     5
177
     2
291
     0
 71
     0
176
     1
 72
     2
176
     1
 73
     0
176
     1
 90
        0
176
     1
 40
-0.6
176
     1
 41
-30.0
176
     1
 62
     5
 63
     7
421
 16777215
176
     1
 74
     1
176
     1
 91
        4
176
     1
 64
     7
176
     1
 65
   257
176
     1
 75
     1
176
     1
175
     1
176
     1
 42
1.0
176
     1
 92
        0
176
     1
 66
   257
176
     1
 43
1.0
176
     1
 76
     1
176
     1
 77
     6
176
     1
 78
     2
176
     1
 67
     7
176
     1
 79
     5
176
     1
170
     0
176
     1
171
     0
176
     1
290
     0
176
     1
 93
        1
176
     1
 44
0.0
176
     1
173
     0
176
     1
  0
VISUALSTYLE
  5
32
102
{ACAD_REACTORS
330
2A
102
}
330
2A
100
AcDbVisualStyle
  2
Basic
 70
     7
177
     2
291
     1
 71
     1
176
     1
 72
     0
176
     1
 73
     1
176
     1
 90
        0
176
     1
 40
-0.6
176
     1
 41
-30.0
176
     1
 62
     5
 63
     7
421
 16777215
176
     1
 74
     0
176
     1
 91
        4
176
     1
 64
     7
176
     1
 65
   257
176
     1
 75
     1
176
     1
175
     1
176
     1
 42
1.0
176
     1
 92
        8
176
     1
 66
     7
176
     1
 43
1.0
176
     1
 76
     1
176
     1
 77
     6
176
     1
 78
     2
176
     1
 67
     7
176
     1
 79
     5
176
     1
170
     0
176
     1
171
     0
176
     1
290
     0
176
     1
 93
        1
176
     1
 44
0.0
176
     1
173
     0
176
     1
  0
VISUALSTYLE
  5
36
102
{ACAD_REACTORS
330
2A
102
}
330
2A
100
AcDbVisualStyle
  2
Brighten
 70
    12
177
     2
291
     1
 71
     2
176
     1
 72
     2
176
     1
 73
     0
176
     1
 90
        0
176
     1
 40
-0.6
176
     1
 41
-30.0
176
     1
 62
     5
 63
     7
421
 16777215
176
     1
 74
     1
176
     1
 91
        4
176
     1
 64
     7
176
     1
 65
   257
176
     1
 75
     1
176
     1
175
     1
176
     1
 42
1.0
176
     1
 92
        8
176
     1
 66
     7
176
     1
 43
1.0
176
     1
 76
     1
176
     1
 77
     6
176
     1
 78
     2
176
     1
 67
     7
176
     1
 79
     5
176
     1
170
     0
176
     1
171
     0
176
     1
290
     0
176
     1
 93
        1
176
     1
 44
50.0
176
     1
173
     0
176
     1
  0
VISUALSTYLE
  5
3A
102
{ACAD_REACTORS
330
2A
102
}
330
2A
100
AcDbVisualStyle
  2
ColorChange
 70
    16
177
     2
291
     1
 71
     2
176
     1
 72
     2
176
     1
 73
     3
176
     1
 90
        0
176
     1
 40
-0.6
176
     1
 41
-30.0
176
     1
 62
     5
 63
     8
421
  8421504
176
     1
 74
     1
176
     1
 91
        4
176
     1
 64
     7
176
     1
 65
   257
176
     1
 75
     1
176
     1
175
     1
176
     1
 42
1.0
176
     1
 92
        8
176
     1
 66
     8
424
  8421504
176
     1
 43
1.0
176
     1
 76
     1
176
     1
 77
     6
176
     1
 78
     2
176
     1
 67
     7
176
     1
 79
     5
176
     1
170
     0
176
     1
171
     0
176
     1
290
     0
176
     1
 93
        1
176
     1
 44
0.0
176
     1
173
     0
176
     1
  0
VISUALSTYLE
  5
34
102
{ACAD_REACTORS
330
2A
102
}
330
2A
100
AcDbVisualStyle
  2
Conceptual
 70
     9
177
     2
291
     0
 71
     3
176
     1
 72
     2
176
     1
 73
     0
176
     1
 90
        0
176
     1
 40
-0.6
176
     1
 41
-30.0
176
     1
 62
     5
 63
     7
421
 16777215
176
     1
 74
     2
176
     1
 91
        2
176
     1
 64
     7
176
     1
 65
   257
176
     1
 75
     1
176
     1
175
     1
176
     1
 42
40.0
176
     1
 92
        8
176
     1
 66
     7
176
     1
 43
1.0
176
     1
 76
     1
176
     1
 77
     6
176
     1
 78
     2
176
     1
 67
     7
176
     1
 79
     3
176
     1
170
     0
176
     1
171
     0
176
     1
290
     0
176
     1
 93
        1
176
     1
 44
0.0
176
     1
173
     0
176
     1
  0
VISUALSTYLE
  5
35
102
{ACAD_REACTORS
330
2A
102
}
330
2A
100
AcDbVisualStyle
  2
Dim
 70
    11
177
     2
291
     1
 71
     2
176
     1
 72
     2
176
     1
 73
     0
176
     1
 90
        0
176
     1
 40
-0.6
176
     1
 41
-30.0
176
     1
 62
     5
 63
     7
421
 16777215
176
     1
 74
     1
176
     1
 91
        4
176
     1
 64
     7
176
     1
 65
   257
176
     1
 75
     1
176
     1
175
     1
176
     1
 42
1.0
176
     1
 92
        8
176
     1
 66
     7
176
     1
 43
1.0
176
     1
 76
     1
176
     1
 77
     6
176
     1
 78
     2
176
     1
 67
     7
176
     1
 79
     5
176
     1
170
     0
176
     1
171
     0
176
     1
290
     0
176
     1
 93
        1
176
     1
 44
-50.0
176
     1
173
     0
176
     1
  0
VISUALSTYLE
  5
39
102
{ACAD_REACTORS
330
2A
102
}
330
2A
100
AcDbVisualStyle
  2
Facepattern
 70
    15
177
     2
291
     1
 71
     2
176
     1
 72
     2
176
     1
 73
     0
176
     1
 90
        0
176
     1
 40
-0.6
176
     1
 41
-30.0
176
     1
 62
     5
 63
     7
421
 16777215
176
     1
 74
     1
176
     1
 91
        4
176
     1
 64
     7
176
     1
 65
   257
176
     1
 75
     1
176
     1
175
     1
176
     1
 42
1.0
176
     1
 92
        8
176
     1
 66
     7
176
     1
 43
1.0
176
     1
 76
     1
176
     1
 77
     6
176
     1
 78
     2
176
     1
 67
     7
176
     1
 79
     5
176
     1
170
     0
176
     1
171
     0
176
     1
290
     0
176
     1
 93
        1
176
     1
 44
0.0
176
     1
173
     0
176
     1
  0
VISUALSTYLE
  5
2B
102
{ACAD_REACTORS
330
2A
102
}
330
2A
100
AcDbVisualStyle
  2
Flat
 70
     0
177
     2
291
     1
 71
     2
176
     1
 72
     1
176
     1
 73
     1
176
     1
 90
        2
176
     1
 40
-0.6
176
     1
 41
30.0
176
     1
 62
     5
 63
     7
421
 16777215
176
     1
 74
     0
176
     1
 91
        4
176
     1
 64
     7
176
     1
 65
   257
176
     1
 75
     1
176
     1
175
     1
176
     1
 42
1.0
176
     1
 92
        8
176
     1
 66
     7
176
     1
 43
1.0
176
     1
 76
     1
176
     1
 77
     6
176
     1
 78
     2
176
     1
 67
     7
176
     1
 79
     5
176
     1
170
     0
176
     1
171
     0
176
     1
290
     0
176
     1
 93
       13
176
     1
 44
0.0
176
     1
173
     0
176
     1
  0
VISUALSTYLE
  5
2C
102
{ACAD_REACTORS
330
2A
102
}
330
2A
100
AcDbVisualStyle
  2
FlatWithEdges
 70
     1
177
     2
291
     1
 71
     2
176
     1
 72
     1
176
     1
 73
     1
176
     1
 90
        2
176
     1
 40
-0.6
176
     1
 41
30.0
176
     1
 62
     5
 63
     7
421
 16777215
176
     1
 74
     1
176
     1
 91
        4
176
     1
 64
     7
176
     1
 65
   257
176
     1
 75
     1
176
     1
175
     1
176
     1
 42
1.0
176
     1
 92
        0
176
     1
 66
   257
176
     1
 43
1.0
176
     1
 76
     1
176
     1
 77
     6
176
     1
 78
     2
176
     1
 67
     7
176
     1
 79
     5
176
     1
170
     0
176
     1
171
     0
176
     1
290
     0
176
     1
 93
       13
176
     1
 44
0.0
176
     1
173
     0
176
     1
  0
VISUALSTYLE
  5
2D
102
{ACAD_REACTORS
330
2A
102
}
330
2A
100
AcDbVisualStyle
  2
Gouraud
 70
     2
177
     2
291
     1
 71
     2
176
     1
 72
     2
176
     1
 73
     1
176
     1
 90
        2
176
     1
 40
-0.6
176
     1
 41
30.0
176
     1
 62
     5
 63
     7
421
 16777215
176
     1
 74
     0
176
     1
 91
        4
176
     1
 64
     7
176
     1
 65
   257
176
     1
 75
     1
176
     1
175
     1
176
     1
 42
1.0
176
     1
 92
        0
176
     1
 66
     7
176
     1
 43
1.0
176
     1
 76
     1
176
     1
 77
     6
176
     1
 78
     2
176
     1
 67
     7
176
     1
 79
     5
176
     1
170
     0
176
     1
171
     0
176
     1
290
     0
176
     1
 93
       13
176
     1
 44
0.0
176
     1
173
     0
176
     1
  0
VISUALSTYLE
  5
2E
102
{ACAD_REACTORS
330
2A
102
}
330
2A
100
AcDbVisualStyle
  2
GouraudWithEdges
 70
     3
177
     2
291
     1
 71
     2
176
     1
 72
     2
176
     1
 73
     1
176
     1
 90
        2
176
     1
 40
-0.6
176
     1
 41
30.0
176
     1
 62
     5
 63
     7
421
 16777215
176
     1
 74
     1
176
     1
 91
        4
176
     1
 64
     7
176
     1
 65
   257
176
     1
 75
     1
176
     1
175
     1
176
     1
 42
1.0
176
     1
 92
        0
176
     1
 66
   257
176
     1
 43
1.0
176
     1
 76
     1
176
     1
 77
     6
176
     1
 78
     2
176
     1
 67
     7
176
     1
 79
     5
176
     1
170
     0
176
     1
171
     0
176
     1
290
     0
176
     1
 93
       13
176
     1
 44
0.0
176
     1
173
     0
176
     1
  0
VISUALSTYLE
  5
38
102
{ACAD_REACTORS
330
2A
102
}
330
2A
100
AcDbVisualStyle
  2
Linepattern
 70
    14
177
     2
291
     1
 71
     2
176
     1
 72
     2
176
     1
 73
     0
176
     1
 90
        0
176
     1
 40
-0.6
176
     1
 41
-30.0
176
     1
 62
     5
 63
     7
421
 16777215
176
     1
 74
     1
176
     1
 91
        4
176
     1
 64
     7
176
     1
 65
   257
176
     1
 75
     7
176
     1
175
     7
176
     1
 42
1.0
176
     1
 92
        8
176
     1
 66
     7
176
     1
 43
1.0
176
     1
 76
     1
176
     1
 77
     6
176
     1
 78
     2
176
     1
 67
     7
176
     1
 79
     5
176
     1
170
     0
176
     1
171
     0
176
     1
290
     0
176
     1
 93
        1
176
     1
 44
0.0
176
     1
173
     0
176
     1
  0
VISUALSTYLE
  5
33
102
{ACAD_REACTORS
330
2A
102
}
330
2A
100
AcDbVisualStyle
  2
Realistic
 70
     8
177
     2
291
     0
 71
     2
176
     1
 72
     2
176
     1
 73
     0
176
     1
 90
        0
176
     1
 40
-0.6
176
     1
 41
-30.0
176
     1
 62
     5
 63
     7
421
 16777215
176
     1
 74
     1
176
     1
 91
        0
176
     1
 64
     7
176
     1
 65
   257
176
     1
 75
     1
176
     1
175
     1
176
     1
 42
1.0
176
     1
 92
        8
176
     1
 66
     8
424
  7895160
176
     1
 43
1.0
176
     1
 76
     1
176
     1
 77
     6
176
     1
 78
     2
176
     1
 67
     7
176
     1
 79
     5
176
     1
170
     0
176
     1
171
     0
176
     1
290
     0
176
     1
 93
       13
176
     1
 44
0.0
176
     1
173
     0
176
     1
  0
VISUALSTYLE
  5
37
102
{ACAD_REACTORS
330
2A
102
}
330
2A
100
AcDbVisualStyle
  2
Thicken
 70
    13
177
     2
291
     1
 71
     2
176
     1
 72
     2
176
     1
 73
     0
176
     1
 90
        0
176
     1
 40
-0.6
176
     1
 41
-30.0
176
     1
 62
     5
 63
     7
421
 16777215
176
     1
 74
     1
176
     1
 91
        4
176
     1
 64
     7
176
     1
 65
   257
176
     1
 75
     1
176
     1
175
     1
176
     1
 42
1.0
176
     1
 92
       12
176
     1
 66
     7
176
     1
 43
1.0
176
     1
 76
     1
176
     1
 77
     6
176
     1
 78
     2
176
     1
 67
     7
176
     1
 79
     5
176
     1
170
     0
176
     1
171
     0
176
     1
290
     0
176
     1
 93
        1
176
     1
 44
0.0
176
     1
173
     0
176
     1
  0
ENDSEC
  0
EOF
