  0
SECTION
  2
HEADER
  9
$ACADVER
  1
AC1024
  9
$ACADMAINTVER
 70
     6
  9
$DWGCODEPAGE
  3
ANSI_932
  9
$INSBASE
 10
0.0
 20
0.0
 30
0.0
  9
$EXTMIN
 10
-4455.0
 20
-3150.0
 30
0.0
  9
$EXTMAX
 10
4455.0
 20
3150.0
 30
0.0
  9
$LIMMIN
 10
-4455.0
 20
-3150.0
  9
$LIMMAX
 10
4455.0
 20
3150.0
  9
$ORTHOMODE
 70
     0
  9
$REGENMODE
 70
     1
  9
$FILLMODE
 70
     1
  9
$QTEXTMODE
 70
     0
  9
$MIRRTEXT
 70
     1
  9
$LTSCALE
 40
30.0
  9
$ATTMODE
 70
     1
  9
$TEXTSIZE
 40
2.5
  9
$TRACEWID
 40
1.0
  9
$TEXTSTYLE
  7
Standard
  9
$CLAYER
  8
0
  9
$CELTYPE
  6
ByLayer
  9
$CECOLOR
 62
   256
  9
$CELTSCALE
 40
1.0
  9
$DISPSILH
 70
     0
  9
$DIMSCALE
 40
1.0
  9
$DIMASZ
 40
2.5
  9
$DIMEXO
 40
0.625
  9
$DIMDLI
 40
3.75
  9
$DIMRND
 40
0.0
  9
$DIMDLE
 40
0.0
  9
$DIMEXE
 40
1.25
  9
$DIMTP
 40
0.0
  9
$DIMTM
 40
0.0
  9
$DIMTXT
 40
2.5
  9
$DIMCEN
 40
2.5
  9
$DIMTSZ
 40
0.0
  9
$DIMTOL
 70
     0
  9
$DIMLIM
 70
     0
  9
$DIMTIH
 70
     0
  9
$DIMTOH
 70
     0
  9
$DIMSE1
 70
     0
  9
$DIMSE2
 70
     0
  9
$DIMTAD
 70
     1
  9
$DIMZIN
 70
     8
  9
$DIMBLK
  1

  9
$DIMASO
 70
     1
  9
$DIMSHO
 70
     1
  9
$DIMPOST
  1

  9
$DIMAPOST
  1

  9
$DIMALT
 70
     0
  9
$DIMALTD
 70
     3
  9
$DIMALTF
 40
0.03937007874016
  9
$DIMLFAC
 40
1.0
  9
$DIMTOFL
 70
     1
  9
$DIMTVP
 40
0.0
  9
$DIMTIX
 70
     0
  9
$DIMSOXD
 70
     0
  9
$DIMSAH
 70
     0
  9
$DIMBLK1
  1

  9
$DIMBLK2
  1

  9
$DIMSTYLE
  2
ISO-25
  9
$DIMCLRD
 70
     0
  9
$DIMCLRE
 70
     0
  9
$DIMCLRT
 70
     0
  9
$DIMTFAC
 40
1.0
  9
$DIMGAP
 40
0.625
  9
$DIMJUST
 70
     0
  9
$DIMSD1
 70
     0
  9
$DIMSD2
 70
     0
  9
$DIMTOLJ
 70
     0
  9
$DIMTZIN
 70
     8
  9
$DIMALTZ
 70
     0
  9
$DIMALTTZ
 70
     0
  9
$DIMUPT
 70
     0
  9
$DIMDEC
 70
     2
  9
$DIMTDEC
 70
     2
  9
$DIMALTU
 70
     2
  9
$DIMALTTD
 70
     3
  9
$DIMTXSTY
  7
Standard
  9
$DIMAUNIT
 70
     0
  9
$DIMADEC
 70
     0
  9
$DIMALTRND
 40
0.0
  9
$DIMAZIN
 70
     0
  9
$DIMDSEP
 70
    44
  9
$DIMATFIT
 70
     3
  9
$DIMFRAC
 70
     0
  9
$DIMLDRBLK
  1

  9
$DIMLUNIT
 70
     2
  9
$DIMLWD
 70
    -2
  9
$DIMLWE
 70
    -2
  9
$DIMTMOVE
 70
     0
  9
$DIMFXL
 40
1.0
  9
$DIMFXLON
 70
     0
  9
$DIMJOGANG
 40
0.7853981633974483
  9
$DIMTFILL
 70
     0
  9
$DIMTFILLCLR
 70
     0
  9
$DIMARCSYM
 70
     0
  9
$DIMLTYPE
  6

  9
$DIMLTEX1
  6

  9
$DIMLTEX2
  6

  9
$DIMTXTDIRECTION
 70
     0
  9
$LUNITS
 70
     2
  9
$LUPREC
 70
     4
  9
$SKETCHINC
 40
1.0
  9
$FILLETRAD
 40
10.0
  9
$AUNITS
 70
     0
  9
$AUPREC
 70
     0
  9
$MENU
  1
.
  9
$ELEVATION
 40
0.0
  9
$PELEVATION
 40
0.0
  9
$THICKNESS
 40
0.0
  9
$LIMCHECK
 70
     0
  9
$CHAMFERA
 40
10.0
  9
$CHAMFERB
 40
10.0
  9
$CHAMFERC
 40
20.0
  9
$CHAMFERD
 40
0.0
  9
$SKPOLY
 70
     0
  9
$TDCREATE
 40
2457953.401063414
  9
$TDUCREATE
 40
2457953.026063414
  9
$TDUPDATE
 40
2457953.401063426
  9
$TDUUPDATE
 40
2457953.026063426
  9
$TDINDWG
 40
0.0000000116
  9
$TDUSRTIMER
 40
0.0000000116
  9
$USRTIMER
 70
     1
  9
$ANGBASE
 50
0.0
  9
$ANGDIR
 70
     0
  9
$PDMODE
 70
     0
  9
$PDSIZE
 40
0.0
  9
$PLINEWID
 40
0.0
  9
$SPLFRAME
 70
     0
  9
$SPLINETYPE
 70
     6
  9
$SPLINESEGS
 70
     8
  9
$HANDSEED
  5
312
  9
$SURFTAB1
 70
     6
  9
$SURFTAB2
 70
     6
  9
$SURFTYPE
 70
     6
  9
$SURFU
 70
     6
  9
$SURFV
 70
     6
  9
$UCSBASE
  2

  9
$UCSNAME
  2

  9
$UCSORG
 10
0.0
 20
0.0
 30
0.0
  9
$UCSXDIR
 10
1.0
 20
0.0
 30
0.0
  9
$UCSYDIR
 10
0.0
 20
1.0
 30
0.0
  9
$UCSORTHOREF
  2

  9
$UCSORTHOVIEW
 70
     0
  9
$UCSORGTOP
 10
0.0
 20
0.0
 30
0.0
  9
$UCSORGBOTTOM
 10
0.0
 20
0.0
 30
0.0
  9
$UCSORGLEFT
 10
0.0
 20
0.0
 30
0.0
  9
$UCSORGRIGHT
 10
0.0
 20
0.0
 30
0.0
  9
$UCSORGFRONT
 10
0.0
 20
0.0
 30
0.0
  9
$UCSORGBACK
 10
0.0
 20
0.0
 30
0.0
  9
$PUCSBASE
  2

  9
$PUCSNAME
  2

  9
$PUCSORG
 10
0.0
 20
0.0
 30
0.0
  9
$PUCSXDIR
 10
1.0
 20
0.0
 30
0.0
  9
$PUCSYDIR
 10
0.0
 20
1.0
 30
0.0
  9
$PUCSORTHOREF
  2

  9
$PUCSORTHOVIEW
 70
     0
  9
$PUCSORGTOP
 10
0.0
 20
0.0
 30
0.0
  9
$PUCSORGBOTTOM
 10
0.0
 20
0.0
 30
0.0
  9
$PUCSORGLEFT
 10
0.0
 20
0.0
 30
0.0
  9
$PUCSORGRIGHT
 10
0.0
 20
0.0
 30
0.0
  9
$PUCSORGFRONT
 10
0.0
 20
0.0
 30
0.0
  9
$PUCSORGBACK
 10
0.0
 20
0.0
 30
0.0
  9
$USERI1
 70
     0
  9
$USERI2
 70
     0
  9
$USERI3
 70
     0
  9
$USERI4
 70
     0
  9
$USERI5
 70
     0
  9
$USERR1
 40
0.0
  9
$USERR2
 40
0.0
  9
$USERR3
 40
0.0
  9
$USERR4
 40
0.0
  9
$USERR5
 40
0.0
  9
$WORLDVIEW
 70
     1
  9
$SHADEDGE
 70
     3
  9
$SHADEDIF
 70
    70
  9
$TILEMODE
 70
     1
  9
$MAXACTVP
 70
    64
  9
$PINSBASE
 10
0.0
 20
0.0
 30
0.0
  9
$PLIMCHECK
 70
     0
  9
$PEXTMIN
 10
1.000000000000000E+20
 20
1.000000000000000E+20
 30
1.000000000000000E+20
  9
$PEXTMAX
 10
-1.000000000000000E+20
 20
-1.000000000000000E+20
 30
-1.000000000000000E+20
  9
$PLIMMIN
 10
0.0
 20
0.0
  9
$PLIMMAX
 10
420.0
 20
297.0
  9
$UNITMODE
 70
     0
  9
$VISRETAIN
 70
     1
  9
$PLINEGEN
 70
     0
  9
$PSLTSCALE
 70
     1
  9
$TREEDEPTH
 70
  3020
  9
$CMLSTYLE
  2
Standard
  9
$CMLJUST
 70
     0
  9
$CMLSCALE
 40
20.0
  9
$PROXYGRAPHICS
 70
     1
  9
$MEASUREMENT
 70
     1
  9
$CELWEIGHT
370
    -1
  9
$ENDCAPS
280
     0
  9
$JOINSTYLE
280
     0
  9
$LWDISPLAY
290
     0
  9
$INSUNITS
 70
     4
  9
$HYPERLINKBASE
  1

  9
$STYLESHEET
  1

  9
$XEDIT
290
     1
  9
$CEPSNTYPE
380
     0
  9
$PSTYLEMODE
290
     1
  9
$FINGERPRINTGUID
  2
{AC67683C-8929-42C8-A6DD-190D6023107B}
  9
$VERSIONGUID
  2
{FAEB1C32-E019-11D5-929B-00C0DF256EC4}
  9
$EXTNAMES
290
     1
  9
$PSVPSCALE
 40
0.0
  9
$OLESTARTUP
290
     0
  9
$SORTENTS
280
   127
  9
$INDEXCTL
280
     0
  9
$HIDETEXT
280
     1
  9
$XCLIPFRAME
280
     2
  9
$HALOGAP
280
     0
  9
$OBSCOLOR
 70
   257
  9
$OBSLTYPE
280
     0
  9
$INTERSECTIONDISPLAY
280
     0
  9
$INTERSECTIONCOLOR
 70
   257
  9
$DIMASSOC
280
     2
  9
$PROJECTNAME
  1

  9
$CAMERADISPLAY
290
     0
  9
$LENSLENGTH
 40
50.0
  9
$CAMERAHEIGHT
 40
0.0
  9
$STEPSPERSEC
 40
2.0
  9
$STEPSIZE
 40
6.0
  9
$3DDWFPREC
 40
2.0
  9
$PSOLWIDTH
 40
5.0
  9
$PSOLHEIGHT
 40
80.0
  9
$LOFTANG1
 40
1.570796326794897
  9
$LOFTANG2
 40
1.570796326794897
  9
$LOFTMAG1
 40
0.0
  9
$LOFTMAG2
 40
0.0
  9
$LOFTPARAM
 70
     7
  9
$LOFTNORMALS
280
     1
  9
$LATITUDE
 40
37.795
  9
$LONGITUDE
 40
-122.394
  9
$NORTHDIRECTION
 40
0.0
  9
$TIMEZONE
 70
 -8000
  9
$LIGHTGLYPHDISPLAY
280
     1
  9
$TILEMODELIGHTSYNCH
280
     1
  9
$SOLIDHIST
280
     1
  9
$SHOWHIST
280
     1
  9
$DWFFRAME
280
     2
  9
$DGNFRAME
280
     2
  9
$REALWORLDSCALE
290
     1
  9
$INTERFERECOLOR
 62
   256
  9
$CSHADOW
280
     0
  9
$SHADOWPLANELOCATION
 40
0.0
  0
ENDSEC
  0
SECTION
  2
CLASSES
  0
CLASS
  1
ACDBDICTIONARYWDFLT
  2
AcDbDictionaryWithDefault
  3
ObjectDBX Classes
 90
        0
 91
        4
280
     0
281
     0
  0
CLASS
  1
VISUALSTYLE
  2
AcDbVisualStyle
  3
ObjectDBX Classes
 90
     4095
 91
        4
280
     0
281
     0
  0
CLASS
  1
MATERIAL
  2
AcDbMaterial
  3
ObjectDBX Classes
 90
     1153
 91
        4
280
     0
281
     0
  0
ENDSEC
  0
SECTION
  2
TABLES
  0
TABLE
  2
VPORT
  5
8
330
0
100
AcDbSymbolTable
 70
     1
  0
VPORT
  5
29
330
8
100
AcDbSymbolTableRecord
100
AcDbViewportTableRecord
  2
*Active
 70
     0
 10
0.0
 20
0.0
 11
1.0
 21
1.0
 12
0.0
 22
0.0
 13
0.0
 23
0.0
 14
10.0
 24
10.0
 15
10.0
 25
10.0
 16
0.0
 26
0.0
 36
1.0
 17
0.0
 27
0.0
 37
0.0
 40
6930.000000000001
 41
1.414285714285714
 42
50.0
 43
0.0
 44
0.0
 50
0.0
 51
0.0
 71
     0
 72
 10000
 73
     1
 74
     3
 75
     0
 76
     0
 77
     0
 78
     0
281
     0
 65
     1
110
0.0
120
0.0
130
0.0
111
1.0
121
0.0
131
0.0
112
0.0
122
1.0
132
0.0
 79
     0
146
0.0
 60
     3
 61
     5
292
     1
282
     1
141
0.0
142
0.0
 63
   250
  0
ENDTAB
  0
TABLE
  2
LTYPE
  5
5
330
0
100
AcDbSymbolTable
 70
     2
  0
LTYPE
  5
14
330
5
100
AcDbSymbolTableRecord
100
AcDbLinetypeTableRecord
  2
ByBlock
 70
     0
  3

 72
    65
 73
     0
 40
0.0
  0
LTYPE
  5
15
330
5
100
AcDbSymbolTableRecord
100
AcDbLinetypeTableRecord
  2
ByLayer
 70
     0
  3

 72
    65
 73
     0
 40
0.0
  0
LTYPE
  5
16
330
5
100
AcDbSymbolTableRecord
100
AcDbLinetypeTableRecord
  2
Continuous
 70
     0
  3
Solid line
 72
    65
 73
     0
 40
0.0
  0
LTYPE
  5
3F
330
5
100
AcDbSymbolTableRecord
100
AcDbLinetypeTableRecord
  2
JWW_DASHED1
 70
     0
  3
-  --  --  --  --  --  --  --  -
 72
    65
 73
     2
 40
1.693333333333333
 49
0.8466666666666667
 74
     0
 49
-0.8466666666666667
 74
     0
  0
ENDTAB
  0
TABLE
  2
LAYER
  5
2
330
0
100
AcDbSymbolTable
 70
     4
  0
LAYER
  5
10
330
2
100
AcDbSymbolTableRecord
100
AcDbLayerTableRecord
  2
0
 70
     0
 62
     7
  6
Continuous
370
    -3
390
F
347
3E
  0
LAYER
  5
40
330
2
100
AcDbSymbolTableRecord
100
AcDbLayerTableRecord
  2
0-0
 70
     0
 62
     7
  6
Continuous
370
    -3
390
F
347
3E
  0
LAYER
  5
41
330
2
100
AcDbSymbolTableRecord
100
AcDbLayerTableRecord
  2
文字
 70
     0
 62
     7
  6
Continuous
370
    -3
390
F
347
3E
  0
LAYER
  5
42
330
2
100
AcDbSymbolTableRecord
100
AcDbLayerTableRecord
  2
寸法
 70
     0
 62
     7
  6
Continuous
370
    -3
390
F
347
3E
  0
ENDTAB
  0
TABLE
  2
STYLE
  5
3
330
0
100
AcDbSymbolTable
 70
     1
  0
STYLE
  5
11
330
3
100
AcDbSymbolTableRecord
100
AcDbTextStyleTableRecord
  2
Standard
 70
     0
 40
0.0
 41
1.0
 50
0.0
 71
     0
 42
2.5
  3
txt
  4

  0
ENDTAB
  0
TABLE
  2
VIEW
  5
6
330
0
100
AcDbSymbolTable
 70
     0
  0
ENDTAB
  0
TABLE
  2
UCS
  5
7
330
0
100
AcDbSymbolTable
 70
     0
  0
ENDTAB
  0
TABLE
  2
APPID
  5
9
330
0
100
AcDbSymbolTable
 70
     1
  0
APPID
  5
12
330
9
100
AcDbSymbolTableRecord
100
AcDbRegAppTableRecord
  2
ACAD
 70
     0
  0
ENDTAB
  0
TABLE
  2
DIMSTYLE
  5
A
330
0
100
AcDbSymbolTable
 70
     1
100
AcDbDimStyleTable
  0
DIMSTYLE
105
27
330
A
100
AcDbSymbolTableRecord
100
AcDbDimStyleTableRecord
  2
ISO-25
 70
     0
 41
2.5
 42
0.625
 43
3.75
 44
1.25
 73
     0
 74
     0
 77
     1
 78
     8
140
2.5
141
2.5
143
0.03937007874016
147
0.625
171
     3
172
     1
178
     0
271
     2
272
     2
274
     3
278
    44
283
     0
284
     8
340
11
  0
ENDTAB
  0
TABLE
  2
BLOCK_RECORD
  5
1
330
0
100
AcDbSymbolTable
 70
     1
  0
BLOCK_RECORD
  5
1F
330
1
100
AcDbSymbolTableRecord
100
AcDbBlockTableRecord
  2
*Model_Space
340
22
 70
     0
280
     1
281
     0
  0
BLOCK_RECORD
  5
1B
330
1
100
AcDbSymbolTableRecord
100
AcDbBlockTableRecord
  2
*Paper_Space
340
1E
 70
     0
280
     1
281
     0
  0
BLOCK_RECORD
  5
23
330
1
100
AcDbSymbolTableRecord
100
AcDbBlockTableRecord
  2
*Paper_Space0
340
26
 70
     0
280
     1
281
     0
  0
ENDTAB
  0
ENDSEC
  0
SECTION
  2
BLOCKS
  0
BLOCK
  5
20
330
1F
100
AcDbEntity
  8
0
100
AcDbBlockBegin
  2
*Model_Space
 70
     0
 10
0.0
 20
0.0
 30
0.0
  3
*Model_Space
  1

  0
ENDBLK
  5
21
330
1F
100
AcDbEntity
  8
0
100
AcDbBlockEnd
  0
BLOCK
  5
1C
330
1B
100
AcDbEntity
 67
     1
  8
0
100
AcDbBlockBegin
  2
*Paper_Space
 70
     0
 10
0.0
 20
0.0
 30
0.0
  3
*Paper_Space
  1

  0
ENDBLK
  5
1D
330
1B
100
AcDbEntity
 67
     1
  8
0
100
AcDbBlockEnd
  0
BLOCK
  5
24
330
23
100
AcDbEntity
  8
0
100
AcDbBlockBegin
  2
*Paper_Space0
 70
     0
 10
0.0
 20
0.0
 30
0.0
  3
*Paper_Space0
  1

  0
ENDBLK
  5
25
330
23
100
AcDbEntity
  8
0
100
AcDbBlockEnd
  0
ENDSEC
  0
SECTION
  2
ENTITIES
  0
LINE
  5
43
330
1F
100
AcDbEntity
  8
0-0
  6
Continuous
 62
    92
370
    13
100
AcDbLine
 10
-914.4298863251051
 20
1024.970058398322
 30
0.0
 11
1452.570113674895
 21
1024.970058398322
 31
0.0
  0
LINE
  5
44
330
1F
100
AcDbEntity
  8
0-0
  6
Continuous
 62
    92
370
    13
100
AcDbLine
 10
-944.4298863251051
 20
-978.0299416016783
 30
0.0
 11
-944.4298863251051
 21
1068.970058398321
 31
0.0
  0
LINE
  5
45
330
1F
100
AcDbEntity
  8
0-0
  6
Continuous
 62
    92
370
    13
100
AcDbLine
 10
2262.570113674895
 20
1068.970058398321
 30
0.0
 11
2262.570113674895
 21
-978.0299416016783
 31
0.0
  0
LINE
  5
46
330
1F
100
AcDbEntity
  8
0-0
  6
JWW_DASHED1
 62
   120
370
     5
100
AcDbLine
 10
1422.570113674895
 20
-963.0299416016783
 30
0.0
 11
1422.570113674895
 21
1032.970058398322
 31
0.0
  0
LINE
  5
47
330
1F
100
AcDbEntity
  8
0-0
  6
JWW_DASHED1
 62
   120
370
     5
100
AcDbLine
 10
1452.570113674895
 20
-963.0299416016783
 30
0.0
 11
1452.570113674895
 21
1032.970058398322
 31
0.0
  0
LINE
  5
48
330
1F
100
AcDbEntity
  8
0-0
  6
Continuous
 62
    92
370
    13
100
AcDbLine
 10
-914.4298863251051
 20
-978.0299416016783
 30
0.0
 11
-914.4298863251051
 21
1068.970058398321
 31
0.0
  0
LINE
  5
49
330
1F
100
AcDbEntity
  8
0-0
  6
Continuous
 62
    92
370
    13
100
AcDbLine
 10
2232.570113674895
 20
-978.0299416016783
 30
0.0
 11
2232.570113674895
 21
1068.970058398321
 31
0.0
  0
LINE
  5
4A
330
1F
100
AcDbEntity
  8
0-0
  6
Continuous
 62
    92
370
    13
100
AcDbLine
 10
-914.4298863251051
 20
1032.970058398322
 30
0.0
 11
2232.570113674895
 21
1032.970058398322
 31
0.0
  0
LINE
  5
4B
330
1F
100
AcDbEntity
  8
0-0
  6
Continuous
 62
    92
370
    13
100
AcDbLine
 10
-944.4298863251051
 20
1068.970058398321
 30
0.0
 11
2262.570113674895
 21
1068.970058398321
 31
0.0
  0
LINE
  5
4C
330
1F
100
AcDbEntity
  8
0-0
  6
Continuous
 62
    92
370
    13
100
AcDbLine
 10
2262.570113674895
 20
-978.0299416016783
 30
0.0
 11
-944.4298863251051
 21
-978.0299416016783
 31
0.0
  0
LINE
  5
4D
330
1F
100
AcDbEntity
  8
0-0
  6
Continuous
 62
    92
370
    13
100
AcDbLine
 10
2232.570113674895
 20
-963.0299416016783
 30
0.0
 11
-914.4298863251051
 21
-963.0299416016783
 31
0.0
  0
ARC
  5
4E
330
1F
100
AcDbEntity
  8
0-0
  6
Continuous
 62
    92
370
    13
100
AcDbCircle
 10
-885.9298863251038
 20
58.97005839832204
 30
0.0
 40
1.5
100
AcDbArc
 50
90.0
 51
180.0
  0
LINE
  5
4F
330
1F
100
AcDbEntity
  8
0-0
  6
Continuous
 62
    92
370
    13
100
AcDbLine
 10
-846.9298863251051
 20
60.47005839832195
 30
0.0
 11
-885.9298863251038
 21
60.47005839832195
 31
0.0
  0
ARC
  5
50
330
1F
100
AcDbEntity
  8
0-0
  6
Continuous
 62
    92
370
    13
100
AcDbCircle
 10
-846.9298863251051
 20
58.97005839832204
 30
0.0
 40
1.5
100
AcDbArc
 50
0.0
 51
90.00000000000001
  0
LINE
  5
51
330
1F
100
AcDbEntity
  8
0-0
  6
Continuous
 62
    92
370
    13
100
AcDbLine
 10
-845.4298863251048
 20
-60.02994160167844
 30
0.0
 11
-845.4298863251048
 21
58.97005839832204
 31
0.0
  0
ARC
  5
52
330
1F
100
AcDbEntity
  8
0-0
  6
Continuous
 62
    92
370
    13
100
AcDbCircle
 10
-846.9298863251051
 20
-60.02994160167844
 30
0.0
 40
1.5
100
AcDbArc
 50
270.0
 51
0.0
  0
LINE
  5
53
330
1F
100
AcDbEntity
  8
0-0
  6
Continuous
 62
    92
370
    13
100
AcDbLine
 10
-885.9298863251038
 20
-61.52994160167793
 30
0.0
 11
-846.9298863251051
 21
-61.52994160167793
 31
0.0
  0
LINE
  5
54
330
1F
100
AcDbEntity
  8
0-0
  6
Continuous
 62
    92
370
    13
100
AcDbLine
 10
-887.4298863251041
 20
-60.02994160167844
 30
0.0
 11
-887.4298863251041
 21
58.97005839832204
 31
0.0
  0
ARC
  5
55
330
1F
100
AcDbEntity
  8
0-0
  6
Continuous
 62
    92
370
    13
100
AcDbCircle
 10
-885.9298863251038
 20
-60.02994160167844
 30
0.0
 40
1.5
100
AcDbArc
 50
180.0
 51
270.0
  0
ARC
  5
56
330
1F
100
AcDbEntity
  8
0-0
  6
Continuous
 62
     7
370
     9
100
AcDbCircle
 10
-866.4298863251045
 20
-30.12994160167835
 30
0.0
 40
15.0
100
AcDbArc
 50
180.0
 51
0.0
  0
ARC
  5
57
330
1F
100
AcDbEntity
  8
0-0
  6
Continuous
 62
     7
370
     9
100
AcDbCircle
 10
-866.4298863251045
 20
29.07005839832195
 30
0.0
 40
15.0
100
AcDbArc
 50
0.0
 51
180.0
  0
LINE
  5
58
330
1F
100
AcDbEntity
  8
0-0
  6
Continuous
 62
     7
370
     9
100
AcDbLine
 10
-851.4298863251045
 20
-30.12994160167835
 30
0.0
 11
-851.4298863251045
 21
29.07005839832195
 31
0.0
  0
LINE
  5
59
330
1F
100
AcDbEntity
  8
0-0
  6
Continuous
 62
     7
370
     9
100
AcDbLine
 10
-881.4298863251045
 20
29.07005839832195
 30
0.0
 11
-881.4298863251045
 21
-30.12994160167835
 31
0.0
  0
ARC
  5
5A
330
1F
100
AcDbEntity
  8
0-0
  6
Continuous
 62
    92
370
    13
100
AcDbCircle
 10
-105.9298863251038
 20
58.97005839832204
 30
0.0
 40
1.5
100
AcDbArc
 50
90.0
 51
180.0
  0
LINE
  5
5B
330
1F
100
AcDbEntity
  8
0-0
  6
Continuous
 62
    92
370
    13
100
AcDbLine
 10
-66.92988632510517
 20
60.47005839832195
 30
0.0
 11
-105.9298863251038
 21
60.47005839832195
 31
0.0
  0
ARC
  5
5C
330
1F
100
AcDbEntity
  8
0-0
  6
Continuous
 62
    92
370
    13
100
AcDbCircle
 10
-66.92988632510517
 20
58.97005839832204
 30
0.0
 40
1.5
100
AcDbArc
 50
0.0
 51
90.00000000000001
  0
LINE
  5
5D
330
1F
100
AcDbEntity
  8
0-0
  6
Continuous
 62
    92
370
    13
100
AcDbLine
 10
-65.42988632510313
 20
-60.02994160167844
 30
0.0
 11
-65.42988632510313
 21
58.97005839832204
 31
0.0
  0
ARC
  5
5E
330
1F
100
AcDbEntity
  8
0-0
  6
Continuous
 62
    92
370
    13
100
AcDbCircle
 10
-66.92988632510517
 20
-60.02994160167844
 30
0.0
 40
1.5
100
AcDbArc
 50
270.0
 51
0.0
  0
LINE
  5
5F
330
1F
100
AcDbEntity
  8
0-0
  6
Continuous
 62
    92
370
    13
100
AcDbLine
 10
-105.9298863251038
 20
-61.52994160167793
 30
0.0
 11
-66.92988632510517
 21
-61.52994160167793
 31
0.0
  0
LINE
  5
60
330
1F
100
AcDbEntity
  8
0-0
  6
Continuous
 62
    92
370
    13
100
AcDbLine
 10
-107.4298863251041
 20
-60.02994160167844
 30
0.0
 11
-107.4298863251041
 21
58.97005839832204
 31
0.0
  0
ARC
  5
61
330
1F
100
AcDbEntity
  8
0-0
  6
Continuous
 62
    92
370
    13
100
AcDbCircle
 10
-105.9298863251038
 20
-60.02994160167844
 30
0.0
 40
1.5
100
AcDbArc
 50
180.0
 51
270.0
  0
ARC
  5
62
330
1F
100
AcDbEntity
  8
0-0
  6
Continuous
 62
     7
370
     9
100
AcDbCircle
 10
-86.42988632510449
 20
-30.12994160167835
 30
0.0
 40
15.0
100
AcDbArc
 50
180.0
 51
0.0
  0
ARC
  5
63
330
1F
100
AcDbEntity
  8
0-0
  6
Continuous
 62
     7
370
     9
100
AcDbCircle
 10
-86.42988632510449
 20
29.07005839832195
 30
0.0
 40
15.0
100
AcDbArc
 50
0.0
 51
180.0
  0
LINE
  5
64
330
1F
100
AcDbEntity
  8
0-0
  6
Continuous
 62
     7
370
     9
100
AcDbLine
 10
-71.42988632510449
 20
-30.12994160167835
 30
0.0
 11
-71.42988632510449
 21
29.07005839832195
 31
0.0
  0
LINE
  5
65
330
1F
100
AcDbEntity
  8
0-0
  6
Continuous
 62
     7
370
     9
100
AcDbLine
 10
-101.4298863251045
 20
29.07005839832195
 30
0.0
 11
-101.4298863251045
 21
-30.12994160167835
 31
0.0
  0
ARC
  5
66
330
1F
100
AcDbEntity
  8
0-0
  6
Continuous
 62
    92
370
    13
100
AcDbCircle
 10
674.0701136748962
 20
58.97005839832204
 30
0.0
 40
1.5
100
AcDbArc
 50
90.0
 51
180.0
  0
LINE
  5
67
330
1F
100
AcDbEntity
  8
0-0
  6
Continuous
 62
    92
370
    13
100
AcDbLine
 10
713.0701136748949
 20
60.47005839832195
 30
0.0
 11
674.0701136748962
 21
60.47005839832195
 31
0.0
  0
ARC
  5
68
330
1F
100
AcDbEntity
  8
0-0
  6
Continuous
 62
    92
370
    13
100
AcDbCircle
 10
713.0701136748949
 20
58.97005839832204
 30
0.0
 40
1.5
100
AcDbArc
 50
0.0
 51
90.00000000000001
  0
LINE
  5
69
330
1F
100
AcDbEntity
  8
0-0
  6
Continuous
 62
    92
370
    13
100
AcDbLine
 10
714.5701136748969
 20
-60.02994160167844
 30
0.0
 11
714.5701136748969
 21
58.97005839832204
 31
0.0
  0
ARC
  5
6A
330
1F
100
AcDbEntity
  8
0-0
  6
Continuous
 62
    92
370
    13
100
AcDbCircle
 10
713.0701136748949
 20
-60.02994160167844
 30
0.0
 40
1.5
100
AcDbArc
 50
270.0
 51
0.0
  0
LINE
  5
6B
330
1F
100
AcDbEntity
  8
0-0
  6
Continuous
 62
    92
370
    13
100
AcDbLine
 10
674.0701136748962
 20
-61.52994160167793
 30
0.0
 11
713.0701136748949
 21
-61.52994160167793
 31
0.0
  0
LINE
  5
6C
330
1F
100
AcDbEntity
  8
0-0
  6
Continuous
 62
    92
370
    13
100
AcDbLine
 10
672.5701136748959
 20
-60.02994160167844
 30
0.0
 11
672.5701136748959
 21
58.97005839832204
 31
0.0
  0
ARC
  5
6D
330
1F
100
AcDbEntity
  8
0-0
  6
Continuous
 62
    92
370
    13
100
AcDbCircle
 10
674.0701136748962
 20
-60.02994160167844
 30
0.0
 40
1.5
100
AcDbArc
 50
180.0
 51
270.0
  0
ARC
  5
6E
330
1F
100
AcDbEntity
  8
0-0
  6
Continuous
 62
     7
370
     9
100
AcDbCircle
 10
693.5701136748955
 20
-30.12994160167835
 30
0.0
 40
15.0
100
AcDbArc
 50
180.0
 51
0.0
  0
ARC
  5
6F
330
1F
100
AcDbEntity
  8
0-0
  6
Continuous
 62
     7
370
     9
100
AcDbCircle
 10
693.5701136748955
 20
29.07005839832195
 30
0.0
 40
15.0
100
AcDbArc
 50
0.0
 51
180.0
  0
LINE
  5
70
330
1F
100
AcDbEntity
  8
0-0
  6
Continuous
 62
     7
370
     9
100
AcDbLine
 10
708.5701136748955
 20
-30.12994160167835
 30
0.0
 11
708.5701136748955
 21
29.07005839832195
 31
0.0
  0
LINE
  5
71
330
1F
100
AcDbEntity
  8
0-0
  6
Continuous
 62
     7
370
     9
100
AcDbLine
 10
678.5701136748955
 20
29.07005839832195
 30
0.0
 11
678.5701136748955
 21
-30.12994160167835
 31
0.0
  0
LINE
  5
72
330
1F
100
AcDbEntity
  8
0-0
  6
JWW_DASHED1
 62
   120
370
     5
100
AcDbLine
 10
-914.4298863251051
 20
-958.0299416016777
 30
0.0
 11
-917.4298863251058
 21
-958.0299416016777
 31
0.0
  0
LINE
  5
73
330
1F
100
AcDbEntity
  8
0-0
  6
JWW_DASHED1
 62
   120
370
     5
100
AcDbLine
 10
-917.4298863251058
 20
-958.0299416016777
 30
0.0
 11
-917.4298863251058
 21
1024.970058398322
 31
0.0
  0
LINE
  5
74
330
1F
100
AcDbEntity
  8
0-0
  6
JWW_DASHED1
 62
   120
370
     5
100
AcDbLine
 10
-917.4298863251058
 20
1024.970058398322
 30
0.0
 11
-914.4298863251051
 21
1024.970058398322
 31
0.0
  0
LINE
  5
75
330
1F
100
AcDbEntity
  8
0-0
  6
JWW_DASHED1
 62
   120
370
     5
100
AcDbLine
 10
-107.429886325105
 20
-958.0299416016777
 30
0.0
 11
-107.429886325105
 21
1024.970058398322
 31
0.0
  0
LINE
  5
76
330
1F
100
AcDbEntity
  8
0-0
  6
Continuous
 62
    92
370
    13
100
AcDbLine
 10
-137.429886325105
 20
1024.970058398322
 30
0.0
 11
-137.429886325105
 21
-958.0299416016777
 31
0.0
  0
LINE
  5
77
330
1F
100
AcDbEntity
  8
0-0
  6
Continuous
 62
    92
370
    13
100
AcDbLine
 10
-914.4298863251051
 20
-958.0299416016777
 30
0.0
 11
1452.570113674895
 21
-958.0299416016777
 31
0.0
  0
LINE
  5
78
330
1F
100
AcDbEntity
  8
0-0
  6
JWW_DASHED1
 62
   120
370
     5
100
AcDbLine
 10
672.570113674895
 20
-958.0299416016777
 30
0.0
 11
672.570113674895
 21
1024.970058398322
 31
0.0
  0
LINE
  5
79
330
1F
100
AcDbEntity
  8
0-0
  6
Continuous
 62
    92
370
    13
100
AcDbLine
 10
642.570113674895
 20
1024.970058398322
 30
0.0
 11
642.570113674895
 21
-958.0299416016777
 31
0.0
  0
LINE
  5
7A
330
1F
100
AcDbEntity
  8
0-0
  6
Continuous
 62
    92
370
    13
100
AcDbLine
 10
1452.570113674895
 20
1024.970058398322
 30
0.0
 11
1452.570113674895
 21
-958.0299416016777
 31
0.0
  0
LINE
  5
7B
330
1F
100
AcDbEntity
  8
0-0
  6
Continuous
 62
    92
370
    13
100
AcDbLine
 10
-727.4298863251047
 20
-958.0299416016777
 30
0.0
 11
-727.4298863251047
 21
1024.970058398322
 31
0.0
  0
LINE
  5
7C
330
1F
100
AcDbEntity
  8
0-0
  6
Continuous
 62
     7
370
     9
100
AcDbLine
 10
-727.4298863251047
 20
1016.970058398323
 30
0.0
 11
-807.4298863251053
 21
1016.970058398323
 31
0.0
  0
LINE
  5
7D
330
1F
100
AcDbEntity
  8
0-0
  6
Continuous
 62
     7
370
     9
100
AcDbLine
 10
-727.4298863251047
 20
-950.0299416016782
 30
0.0
 11
-807.4298863251053
 21
-950.0299416016782
 31
0.0
  0
LINE
  5
7E
330
1F
100
AcDbEntity
  8
0-0
  6
Continuous
 62
    92
370
    13
100
AcDbLine
 10
-807.4298863251053
 20
-958.0299416016777
 30
0.0
 11
-807.4298863251053
 21
1024.970058398322
 31
0.0
  0
LINE
  5
7F
330
1F
100
AcDbEntity
  8
0-0
  6
JWW_DASHED1
 62
   120
370
     5
100
AcDbLine
 10
-807.4298863251053
 20
1009.158768627274
 30
0.0
 11
-799.618596554059
 21
1016.970058398321
 31
0.0
  0
LINE
  5
80
330
1F
100
AcDbEntity
  8
0-0
  6
JWW_DASHED1
 62
   120
370
     5
100
AcDbLine
 10
-807.4298863251121
 20
999.2592736920506
 30
0.0
 11
-789.7191016188375
 21
1016.970058398326
 31
0.0
  0
LINE
  5
81
330
1F
100
AcDbEntity
  8
0-0
  6
JWW_DASHED1
 62
   120
370
     5
100
AcDbLine
 10
-807.4298863251206
 20
989.3597787568265
 30
0.0
 11
-779.819606683616
 21
1016.970058398331
 31
0.0
  0
LINE
  5
82
330
1F
100
AcDbEntity
  8
0-0
  6
JWW_DASHED1
 62
   120
370
     5
100
AcDbLine
 10
-807.429886325107
 20
979.4602838216775
 30
0.0
 11
-769.9201117484611
 21
1016.970058398324
 31
0.0
  0
LINE
  5
83
330
1F
100
AcDbEntity
  8
0-0
  6
JWW_DASHED1
 62
   120
370
     5
100
AcDbLine
 10
-807.4298863250984
 20
969.5607888864697
 30
0.0
 11
-760.0206168132515
 21
1016.970058398316
 31
0.0
  0
LINE
  5
84
330
1F
100
AcDbEntity
  8
0-0
  6
JWW_DASHED1
 62
   120
370
     5
100
AcDbLine
 10
-807.4298863251223
 20
959.6612939512295
 30
0.0
 11
-750.121121878025
 21
1016.970058398328
 31
0.0
  0
LINE
  5
85
330
1F
100
AcDbEntity
  8
0-0
  6
JWW_DASHED1
 62
   120
370
     5
100
AcDbLine
 10
-807.4298863251104
 20
949.7617990160809
 30
0.0
 11
-740.2216269428632
 21
1016.970058398326
 31
0.0
  0
LINE
  5
86
330
1F
100
AcDbEntity
  8
0-0
  6
JWW_DASHED1
 62
   120
370
     5
100
AcDbLine
 10
-807.4298863251001
 20
939.8623040808731
 30
0.0
 11
-730.3221320076553
 21
1016.970058398318
 31
0.0
  0
LINE
  5
87
330
1F
100
AcDbEntity
  8
0-0
  6
JWW_DASHED1
 62
   120
370
     5
100
AcDbLine
 10
-807.429886325124
 20
929.9628091456341
 30
0.0
 11
-727.4298863251098
 21
1009.962809145648
 31
0.0
  0
LINE
  5
88
330
1F
100
AcDbEntity
  8
0-0
  6
JWW_DASHED1
 62
   120
370
     5
100
AcDbLine
 10
-807.4298863251104
 20
920.0633142104844
 30
0.0
 11
-727.4298863251132
 21
1000.063314210483
 31
0.0
  0
LINE
  5
89
330
1F
100
AcDbEntity
  8
0-0
  6
JWW_DASHED1
 62
   120
370
     5
100
AcDbLine
 10
-807.4298863251036
 20
910.1638192752761
 30
0.0
 11
-727.4298863251047
 21
990.1638192752749
 31
0.0
  0
LINE
  5
8A
330
1F
100
AcDbEntity
  8
0-0
  6
JWW_DASHED1
 62
   120
370
     5
100
AcDbLine
 10
-807.4298863251257
 20
900.2643243400371
 30
0.0
 11
-727.4298863251115
 21
980.2643243400513
 31
0.0
  0
LINE
  5
8B
330
1F
100
AcDbEntity
  8
0-0
  6
JWW_DASHED1
 62
   120
370
     5
100
AcDbLine
 10
-807.4298863251138
 20
890.3648294048877
 30
0.0
 11
-727.4298863251149
 21
970.3648294048861
 31
0.0
  0
LINE
  5
8C
330
1F
100
AcDbEntity
  8
0-0
  6
JWW_DASHED1
 62
   120
370
     5
100
AcDbLine
 10
-807.4298863251053
 20
880.4653344696794
 30
0.0
 11
-727.4298863251064
 21
960.4653344696783
 31
0.0
  0
LINE
  5
8D
330
1F
100
AcDbEntity
  8
0-0
  6
JWW_DASHED1
 62
   120
370
     5
100
AcDbLine
 10
-807.4298863250967
 20
870.5658395344716
 30
0.0
 11
-727.4298863250979
 21
950.5658395344705
 31
0.0
  0
LINE
  5
8E
330
1F
100
AcDbEntity
  8
0-0
  6
JWW_DASHED1
 62
   120
370
     5
100
AcDbLine
 10
-807.4298863251172
 20
860.6663445992906
 30
0.0
 11
-727.4298863251166
 21
940.6663445992895
 31
0.0
  0
LINE
  5
8F
330
1F
100
AcDbEntity
  8
0-0
  6
JWW_DASHED1
 62
   120
370
     5
100
AcDbLine
 10
-807.429886325107
 20
850.7668496640828
 30
0.0
 11
-727.4298863251081
 21
930.7668496640816
 31
0.0
  0
LINE
  5
90
330
1F
100
AcDbEntity
  8
0-0
  6
JWW_DASHED1
 62
   120
370
     5
100
AcDbLine
 10
-807.4298863251001
 20
840.8673547288745
 30
0.0
 11
-727.4298863251013
 21
920.8673547288734
 31
0.0
  0
LINE
  5
91
330
1F
100
AcDbEntity
  8
0-0
  6
JWW_DASHED1
 62
   120
370
     5
100
AcDbLine
 10
-807.4298863251172
 20
830.9678597936941
 30
0.0
 11
-727.429886325103
 21
910.9678597937086
 31
0.0
  0
LINE
  5
92
330
1F
100
AcDbEntity
  8
0-0
  6
JWW_DASHED1
 62
   120
370
     5
100
AcDbLine
 10
-807.4298863251104
 20
821.0683648584861
 30
0.0
 11
-727.4298863251115
 21
901.068364858485
 31
0.0
  0
LINE
  5
93
330
1F
100
AcDbEntity
  8
0-0
  6
JWW_DASHED1
 62
   120
370
     5
100
AcDbLine
 10
-807.4298863251018
 20
811.1688699232775
 30
0.0
 11
-727.429886325103
 21
891.1688699232764
 31
0.0
  0
LINE
  5
94
330
1F
100
AcDbEntity
  8
0-0
  6
JWW_DASHED1
 62
   120
370
     5
100
AcDbLine
 10
-807.4298863251206
 20
801.2693749880974
 30
0.0
 11
-727.4298863251047
 21
881.2693749881121
 31
0.0
  0
LINE
  5
95
330
1F
100
AcDbEntity
  8
0-0
  6
JWW_DASHED1
 62
   120
370
     5
100
AcDbLine
 10
-807.4298863251121
 20
791.3698800528891
 30
0.0
 11
-727.4298863251132
 21
871.369880052888
 31
0.0
  0
LINE
  5
96
330
1F
100
AcDbEntity
  8
0-0
  6
JWW_DASHED1
 62
   120
370
     5
100
AcDbLine
 10
-807.4298863251036
 20
781.4703851176813
 30
0.0
 11
-727.4298863251047
 21
861.4703851176802
 31
0.0
  0
LINE
  5
97
330
1F
100
AcDbEntity
  8
0-0
  6
JWW_DASHED1
 62
   120
370
     5
100
AcDbLine
 10
-807.4298863251223
 20
771.5708901825008
 30
0.0
 11
-727.4298863251081
 21
851.5708901825154
 31
0.0
  0
LINE
  5
98
330
1F
100
AcDbEntity
  8
0-0
  6
JWW_DASHED1
 62
   120
370
     5
100
AcDbLine
 10
-807.4298863251138
 20
761.6713952472929
 30
0.0
 11
-727.4298863251149
 21
841.6713952472913
 31
0.0
  0
LINE
  5
99
330
1F
100
AcDbEntity
  8
0-0
  6
JWW_DASHED1
 62
   120
370
     5
100
AcDbLine
 10
-807.429886325107
 20
751.7719003120847
 30
0.0
 11
-727.4298863251064
 21
831.7719003120835
 31
0.0
  0
LINE
  5
9A
330
1F
100
AcDbEntity
  8
0-0
  6
JWW_DASHED1
 62
   120
370
     5
100
AcDbLine
 10
-807.4298863251223
 20
741.8724053769063
 30
0.0
 11
-727.4298863251081
 21
821.87240537692
 31
0.0
  0
LINE
  5
9B
330
1F
100
AcDbEntity
  8
0-0
  6
JWW_DASHED1
 62
   120
370
     5
100
AcDbLine
 10
-807.4298863251172
 20
731.9729104416958
 30
0.0
 11
-727.4298863251183
 21
811.9729104416947
 31
0.0
  0
LINE
  5
9C
330
1F
100
AcDbEntity
  8
0-0
  6
JWW_DASHED1
 62
   120
370
     5
100
AcDbLine
 10
-807.4298863251053
 20
722.0734155065174
 30
0.0
 11
-727.4298863251081
 21
802.0734155065159
 31
0.0
  0
LINE
  5
9D
330
1F
100
AcDbEntity
  8
0-0
  6
JWW_DASHED1
 62
   120
370
     5
100
AcDbLine
 10
-807.4298863251104
 20
712.1739205713229
 30
0.0
 11
-727.4298863250979
 21
792.1739205713375
 31
0.0
  0
LINE
  5
9E
330
1F
100
AcDbEntity
  8
0-0
  6
JWW_DASHED1
 62
   120
370
     5
100
AcDbLine
 10
-807.4298863251172
 20
702.2744256360997
 30
0.0
 11
-727.4298863251047
 21
782.2744256361138
 31
0.0
  0
LINE
  5
9F
330
1F
100
AcDbEntity
  8
0-0
  6
JWW_DASHED1
 62
   120
370
     5
100
AcDbLine
 10
-807.429886325107
 20
692.3749307009209
 30
0.0
 11
-727.4298863251081
 21
772.3749307009198
 31
0.0
  0
LINE
  5
A0
330
1F
100
AcDbEntity
  8
0-0
  6
JWW_DASHED1
 62
   120
370
     5
100
AcDbLine
 10
-807.4298863250967
 20
682.4754357657424
 30
0.0
 11
-727.4298863250979
 21
762.4754357657409
 31
0.0
  0
LINE
  5
A1
330
1F
100
AcDbEntity
  8
0-0
  6
JWW_DASHED1
 62
   120
370
     5
100
AcDbLine
 10
-807.4298863251206
 20
672.5759408305026
 30
0.0
 11
-727.4298863251064
 21
752.5759408305169
 31
0.0
  0
LINE
  5
A2
330
1F
100
AcDbEntity
  8
0-0
  6
JWW_DASHED1
 62
   120
370
     5
100
AcDbLine
 10
-807.4298863251104
 20
662.6764458953243
 30
0.0
 11
-727.4298863251115
 21
742.6764458953227
 31
0.0
  0
LINE
  5
A3
330
1F
100
AcDbEntity
  8
0-0
  6
JWW_DASHED1
 62
   120
370
     5
100
AcDbLine
 10
-807.4298863251001
 20
652.7769509601454
 30
0.0
 11
-727.4298863251013
 21
732.7769509601443
 31
0.0
  0
LINE
  5
A4
330
1F
100
AcDbEntity
  8
0-0
  6
JWW_DASHED1
 62
   120
370
     5
100
AcDbLine
 10
-807.4298863251206
 20
642.877456024909
 30
0.0
 11
-727.4298863251064
 21
722.8774560249224
 31
0.0
  0
LINE
  5
A5
330
1F
100
AcDbEntity
  8
0-0
  6
JWW_DASHED1
 62
   120
370
     5
100
AcDbLine
 10
-807.4298863251121
 20
632.9779610897272
 30
0.0
 11
-727.4298863251149
 21
712.977961089726
 31
0.0
  0
LINE
  5
A6
330
1F
100
AcDbEntity
  8
0-0
  6
JWW_DASHED1
 62
   120
370
     5
100
AcDbLine
 10
-807.4298863251018
 20
623.0784661545488
 30
0.0
 11
-727.429886325103
 21
703.0784661545476
 31
0.0
  0
LINE
  5
A7
330
1F
100
AcDbEntity
  8
0-0
  6
JWW_DASHED1
 62
   120
370
     5
100
AcDbLine
 10
-807.4298863251104
 20
613.1789712193247
 30
0.0
 11
-727.4298863250945
 21
693.1789712193398
 31
0.0
  0
LINE
  5
A8
330
1F
100
AcDbEntity
  8
0-0
  6
JWW_DASHED1
 62
   120
370
     5
100
AcDbLine
 10
-807.4298863251121
 20
603.27947628416
 30
0.0
 11
-727.4298863251149
 21
683.2794762841588
 31
0.0
  0
LINE
  5
A9
330
1F
100
AcDbEntity
  8
0-0
  6
JWW_DASHED1
 62
   120
370
     5
100
AcDbLine
 10
-807.4298863251036
 20
593.3799813489521
 30
0.0
 11
-727.4298863251047
 21
673.3799813489507
 31
0.0
  0
LINE
  5
AA
330
1F
100
AcDbEntity
  8
0-0
  6
JWW_DASHED1
 62
   120
370
     5
100
AcDbLine
 10
-807.4298863250967
 20
583.4804864137438
 30
0.0
 11
-727.4298863250979
 21
663.4804864137427
 31
0.0
  0
LINE
  5
AB
330
1F
100
AcDbEntity
  8
0-0
  6
JWW_DASHED1
 62
   120
370
     5
100
AcDbLine
 10
-807.4298863251138
 20
573.5809914785634
 30
0.0
 11
-727.4298863251149
 21
653.5809914785623
 31
0.0
  0
LINE
  5
AC
330
1F
100
AcDbEntity
  8
0-0
  6
JWW_DASHED1
 62
   120
370
     5
100
AcDbLine
 10
-807.429886325107
 20
563.6814965433555
 30
0.0
 11
-727.4298863251081
 21
643.681496543354
 31
0.0
  0
LINE
  5
AD
330
1F
100
AcDbEntity
  8
0-0
  6
JWW_DASHED1
 62
   120
370
     5
100
AcDbLine
 10
-807.4298863250984
 20
553.7820016081473
 30
0.0
 11
-727.4298863250979
 21
633.7820016081466
 31
0.0
  0
LINE
  5
AE
330
1F
100
AcDbEntity
  8
0-0
  6
JWW_DASHED1
 62
   120
370
     5
100
AcDbLine
 10
-807.4298863251172
 20
543.8825066729668
 30
0.0
 11
-727.4298863251013
 21
623.8825066729814
 31
0.0
  0
LINE
  5
AF
330
1F
100
AcDbEntity
  8
0-0
  6
JWW_DASHED1
 62
   120
370
     5
100
AcDbLine
 10
-807.4298863251087
 20
533.9830117377589
 30
0.0
 11
-727.4298863251098
 21
613.9830117377574
 31
0.0
  0
LINE
  5
B0
330
1F
100
AcDbEntity
  8
0-0
  6
JWW_DASHED1
 62
   120
370
     5
100
AcDbLine
 10
-807.4298863251001
 20
524.0835168025507
 30
0.0
 11
-727.4298863251013
 21
604.0835168025495
 31
0.0
  0
LINE
  5
B1
330
1F
100
AcDbEntity
  8
0-0
  6
JWW_DASHED1
 62
   120
370
     5
100
AcDbLine
 10
-807.4298863251189
 20
514.1840218673701
 30
0.0
 11
-727.4298863251047
 21
594.1840218673843
 31
0.0
  0
LINE
  5
B2
330
1F
100
AcDbEntity
  8
0-0
  6
JWW_DASHED1
 62
   120
370
     5
100
AcDbLine
 10
-807.4298863251104
 20
504.2845269321618
 30
0.0
 11
-727.4298863251115
 21
584.2845269321607
 31
0.0
  0
LINE
  5
B3
330
1F
100
AcDbEntity
  8
0-0
  6
JWW_DASHED1
 62
   120
370
     5
100
AcDbLine
 10
-807.4298863251036
 20
494.385031996954
 30
0.0
 11
-727.429886325103
 21
574.3850319969529
 31
0.0
  0
LINE
  5
B4
330
1F
100
AcDbEntity
  8
0-0
  6
JWW_DASHED1
 62
   120
370
     5
100
AcDbLine
 10
-807.4298863251206
 20
484.4855370617735
 30
0.0
 11
-727.4298863251081
 21
564.4855370617877
 31
0.0
  0
LINE
  5
B5
330
1F
100
AcDbEntity
  8
0-0
  6
JWW_DASHED1
 62
   120
370
     5
100
AcDbLine
 10
-807.4298863251138
 20
474.5860421265652
 30
0.0
 11
-727.4298863251149
 21
554.586042126564
 31
0.0
  0
LINE
  5
B6
330
1F
100
AcDbEntity
  8
0-0
  6
JWW_DASHED1
 62
   120
370
     5
100
AcDbLine
 10
-807.4298863251036
 20
464.6865471913574
 30
0.0
 11
-727.4298863251047
 21
544.6865471913563
 31
0.0
  0
LINE
  5
B7
330
1F
100
AcDbEntity
  8
0-0
  6
JWW_DASHED1
 62
   120
370
     5
100
AcDbLine
 10
-807.4298863251189
 20
454.7870522561811
 30
0.0
 11
-727.4298863251047
 21
534.7870522561949
 31
0.0
  0
LINE
  5
B8
330
1F
100
AcDbEntity
  8
0-0
  6
JWW_DASHED1
 62
   120
370
     5
100
AcDbLine
 10
-807.4298863251155
 20
444.8875573209687
 30
0.0
 11
-727.4298863251013
 21
524.8875573209832
 31
0.0
  0
LINE
  5
B9
330
1F
100
AcDbEntity
  8
0-0
  6
JWW_DASHED1
 62
   120
370
     5
100
AcDbLine
 10
-807.429886325107
 20
434.9880623857604
 30
0.0
 11
-727.4298863251081
 21
514.9880623857592
 31
0.0
  0
LINE
  5
BA
330
1F
100
AcDbEntity
  8
0-0
  6
JWW_DASHED1
 62
   120
370
     5
100
AcDbLine
 10
-807.4298863250933
 20
425.0885674506114
 30
0.0
 11
-727.4298863250945
 21
505.0885674506102
 31
0.0
  0
LINE
  5
BB
330
1F
100
AcDbEntity
  8
0-0
  6
JWW_DASHED1
 62
   120
370
     5
100
AcDbLine
 10
-807.4298863251172
 20
415.189072515372
 30
0.0
 11
-727.429886325103
 21
495.1890725153867
 31
0.0
  0
LINE
  5
BC
330
1F
100
AcDbEntity
  8
0-0
  6
JWW_DASHED1
 62
   120
370
     5
100
AcDbLine
 10
-807.4298863251087
 20
405.2895775801642
 30
0.0
 11
-727.4298863251098
 21
485.2895775801626
 31
0.0
  0
LINE
  5
BD
330
1F
100
AcDbEntity
  8
0-0
  6
JWW_DASHED1
 62
   120
370
     5
100
AcDbLine
 10
-807.4298863250967
 20
395.3900826450148
 30
0.0
 11
-727.4298863250979
 21
475.3900826450136
 31
0.0
  0
LINE
  5
BE
330
1F
100
AcDbEntity
  8
0-0
  6
JWW_DASHED1
 62
   120
370
     5
100
AcDbLine
 10
-807.4298863251206
 20
385.4905877097754
 30
0.0
 11
-727.4298863251047
 21
465.49058770979
 31
0.0
  0
LINE
  5
BF
330
1F
100
AcDbEntity
  8
0-0
  6
JWW_DASHED1
 62
   120
370
     5
100
AcDbLine
 10
-807.4298863251104
 20
375.5910927745671
 30
0.0
 11
-727.4298863251115
 21
455.591092774566
 31
0.0
  0
LINE
  5
C0
330
1F
100
AcDbEntity
  8
0-0
  6
JWW_DASHED1
 62
   120
370
     5
100
AcDbLine
 10
-807.4298863250984
 20
365.6915978394181
 30
0.0
 11
-727.4298863250996
 21
445.691597839417
 31
0.0
  0
LINE
  5
C1
330
1F
100
AcDbEntity
  8
0-0
  6
JWW_DASHED1
 62
   120
370
     5
100
AcDbLine
 10
-807.4298863251172
 20
355.7921029041839
 30
0.0
 11
-727.429886325103
 21
435.7921029041977
 31
0.0
  0
LINE
  5
C2
330
1F
100
AcDbEntity
  8
0-0
  6
JWW_DASHED1
 62
   120
370
     5
100
AcDbLine
 10
-807.4298863251138
 20
345.8926079689705
 30
0.0
 11
-727.4298863251149
 21
425.8926079689694
 31
0.0
  0
LINE
  5
C3
330
1F
100
AcDbEntity
  8
0-0
  6
JWW_DASHED1
 62
   120
370
     5
100
AcDbLine
 10
-807.4298863251001
 20
335.9931130338215
 30
0.0
 11
-727.4298863251013
 21
415.9931130338208
 31
0.0
  0
LINE
  5
C4
330
1F
100
AcDbEntity
  8
0-0
  6
JWW_DASHED1
 62
   120
370
     5
100
AcDbLine
 10
-807.4298863251087
 20
326.0936180985975
 30
0.0
 11
-727.4298863250945
 21
406.0936180986121
 31
0.0
  0
LINE
  5
C5
330
1F
100
AcDbEntity
  8
0-0
  6
JWW_DASHED1
 62
   120
370
     5
100
AcDbLine
 10
-807.4298863251155
 20
316.1941231633739
 30
0.0
 11
-727.4298863251013
 21
396.1941231633886
 31
0.0
  0
LINE
  5
C6
330
1F
100
AcDbEntity
  8
0-0
  6
JWW_DASHED1
 62
   120
370
     5
100
AcDbLine
 10
-807.4298863251036
 20
306.2946282282249
 30
0.0
 11
-727.4298863251047
 21
386.2946282282238
 31
0.0
  0
LINE
  5
C7
330
1F
100
AcDbEntity
  8
0-0
  6
JWW_DASHED1
 62
   120
370
     5
100
AcDbLine
 10
-807.429886325095
 20
296.3951332930171
 30
0.0
 11
-727.4298863250962
 21
376.3951332930155
 31
0.0
  0
LINE
  5
C8
330
1F
100
AcDbEntity
  8
0-0
  6
JWW_DASHED1
 62
   120
370
     5
100
AcDbLine
 10
-807.4298863251172
 20
286.4956383577777
 30
0.0
 11
-727.429886325103
 21
366.4956383577919
 31
0.0
  0
LINE
  5
C9
330
1F
100
AcDbEntity
  8
0-0
  6
JWW_DASHED1
 62
   120
370
     5
100
AcDbLine
 10
-807.4298863251053
 20
276.5961434226278
 30
0.0
 11
-727.4298863251064
 21
356.5961434226267
 31
0.0
  0
LINE
  5
CA
330
1F
100
AcDbEntity
  8
0-0
  6
JWW_DASHED1
 62
   120
370
     5
100
AcDbLine
 10
-807.4298863250967
 20
266.69664848742
 30
0.0
 11
-727.4298863250979
 21
346.6966484874189
 31
0.0
  0
LINE
  5
CB
330
1F
100
AcDbEntity
  8
0-0
  6
JWW_DASHED1
 62
   120
370
     5
100
AcDbLine
 10
-807.4298863251206
 20
256.7971535521806
 30
0.0
 11
-727.4298863251047
 21
336.7971535521949
 31
0.0
  0
LINE
  5
CC
330
1F
100
AcDbEntity
  8
0-0
  6
JWW_DASHED1
 62
   120
370
     5
100
AcDbLine
 10
-807.429886325107
 20
246.8976586170312
 30
0.0
 11
-727.4298863251081
 21
326.8976586170305
 31
0.0
  0
LINE
  5
CD
330
1F
100
AcDbEntity
  8
0-0
  6
JWW_DASHED1
 62
   120
370
     5
100
AcDbLine
 10
-807.4298863250984
 20
236.9981636818238
 30
0.0
 11
-727.4298863251013
 21
316.9981636818222
 31
0.0
  0
LINE
  5
CE
330
1F
100
AcDbEntity
  8
0-0
  6
JWW_DASHED1
 62
   120
370
     5
100
AcDbLine
 10
-807.4298863251155
 20
227.0986687465904
 30
0.0
 11
-727.4298863251013
 21
307.0986687466038
 31
0.0
  0
LINE
  5
CF
330
1F
100
AcDbEntity
  8
0-0
  6
JWW_DASHED1
 62
   120
370
     5
100
AcDbLine
 10
-807.4298863251104
 20
217.1991738114346
 30
0.0
 11
-727.4298863251115
 21
297.1991738114335
 31
0.0
  0
LINE
  5
D0
330
1F
100
AcDbEntity
  8
0-0
  6
JWW_DASHED1
 62
   120
370
     5
100
AcDbLine
 10
-807.4298863251001
 20
207.2996788762268
 30
0.0
 11
-727.4298863251013
 21
287.2996788762256
 31
0.0
  0
LINE
  5
D1
330
1F
100
AcDbEntity
  8
0-0
  6
JWW_DASHED1
 62
   120
370
     5
100
AcDbLine
 10
-807.4298863250933
 20
197.4001839410185
 30
0.0
 11
-727.4298863250945
 21
277.4001839410174
 31
0.0
  0
LINE
  5
D2
330
1F
100
AcDbEntity
  8
0-0
  6
JWW_DASHED1
 62
   120
370
     5
100
AcDbLine
 10
-807.4298863251121
 20
187.500689005838
 30
0.0
 11
-727.4298863251132
 21
267.5006890058369
 31
0.0
  0
LINE
  5
D3
330
1F
100
AcDbEntity
  8
0-0
  6
JWW_DASHED1
 62
   120
370
     5
100
AcDbLine
 10
-807.4298863251036
 20
177.6011940706306
 30
0.0
 11
-727.4298863251047
 21
257.6011940706286
 31
0.0
  0
LINE
  5
D4
330
1F
100
AcDbEntity
  8
0-0
  6
JWW_DASHED1
 62
   120
370
     5
100
AcDbLine
 10
-807.429886325095
 20
167.7016991354219
 30
0.0
 11
-727.4298863250962
 21
247.7016991354208
 31
0.0
  0
LINE
  5
D5
330
1F
100
AcDbEntity
  8
0-0
  6
JWW_DASHED1
 62
   120
370
     5
100
AcDbLine
 10
-807.4298863251138
 20
157.8022042002414
 30
0.0
 11
-727.4298863250996
 21
237.802204200256
 31
0.0
  0
LINE
  5
D6
330
1F
100
AcDbEntity
  8
0-0
  6
JWW_DASHED1
 62
   120
370
     5
100
AcDbLine
 10
-807.4298863251053
 20
147.9027092650335
 30
0.0
 11
-727.4298863251081
 21
227.902709265032
 31
0.0
  0
LINE
  5
D7
330
1F
100
AcDbEntity
  8
0-0
  6
JWW_DASHED1
 62
   120
370
     5
100
AcDbLine
 10
-807.4298863250967
 20
138.0032143298253
 30
0.0
 11
-727.4298863250979
 21
218.0032143298246
 31
0.0
  0
LINE
  5
D8
330
1F
100
AcDbEntity
  8
0-0
  6
JWW_DASHED1
 62
   120
370
     5
100
AcDbLine
 10
-807.4298863251155
 20
128.1037193946447
 30
0.0
 11
-727.4298863251013
 21
208.1037193946594
 31
0.0
  0
LINE
  5
D9
330
1F
100
AcDbEntity
  8
0-0
  6
JWW_DASHED1
 62
   120
370
     5
100
AcDbLine
 10
-807.429886325107
 20
118.2042244594365
 30
0.0
 11
-727.4298863251081
 21
198.2042244594354
 31
0.0
  0
LINE
  5
DA
330
1F
100
AcDbEntity
  8
0-0
  6
JWW_DASHED1
 62
   120
370
     5
100
AcDbLine
 10
-807.4298863251001
 20
108.3047295242287
 30
0.0
 11
-727.4298863251013
 21
188.3047295242275
 31
0.0
  0
LINE
  5
DB
330
1F
100
AcDbEntity
  8
0-0
  6
JWW_DASHED1
 62
   120
370
     5
100
AcDbLine
 10
-807.4298863251172
 20
98.40523458904812
 30
0.0
 11
-727.4298863251047
 21
178.4052345890623
 31
0.0
  0
LINE
  5
DC
330
1F
100
AcDbEntity
  8
0-0
  6
JWW_DASHED1
 62
   120
370
     5
100
AcDbLine
 10
-807.4298863251104
 20
88.5057396538403
 30
0.0
 11
-727.4298863251115
 21
168.5057396538387
 31
0.0
  0
LINE
  5
DD
330
1F
100
AcDbEntity
  8
0-0
  6
JWW_DASHED1
 62
   120
370
     5
100
AcDbLine
 10
-807.4298863251018
 20
78.60624471863204
 30
0.0
 11
-727.429886325103
 21
158.6062447186305
 31
0.0
  0
LINE
  5
DE
330
1F
100
AcDbEntity
  8
0-0
  6
JWW_DASHED1
 62
   120
370
     5
100
AcDbLine
 10
-807.4298863251138
 20
68.70674978345875
 30
0.0
 11
-727.4298863250996
 21
148.706749783473
 31
0.0
  0
LINE
  5
DF
330
1F
100
AcDbEntity
  8
0-0
  6
JWW_DASHED1
 62
   120
370
     5
100
AcDbLine
 10
-807.4298863251121
 20
58.80725484824325
 30
0.0
 11
-727.4298863251132
 21
138.8072548482421
 31
0.0
  0
LINE
  5
E0
330
1F
100
AcDbEntity
  8
0-0
  6
JWW_DASHED1
 62
   120
370
     5
100
AcDbLine
 10
-807.4298863251001
 20
48.90775991309425
 30
0.0
 11
-727.4298863251013
 21
128.9077599130931
 31
0.0
  0
LINE
  5
E1
330
1F
100
AcDbEntity
  8
0-0
  6
JWW_DASHED1
 62
   120
370
     5
100
AcDbLine
 10
-807.429886325107
 20
39.00826497787023
 30
0.0
 11
-727.4298863250928
 21
119.0082649778849
 31
0.0
  0
LINE
  5
E2
330
1F
100
AcDbEntity
  8
0-0
  6
JWW_DASHED1
 62
   120
370
     5
100
AcDbLine
 10
-807.4298863251138
 20
29.10877004264705
 30
0.0
 11
-727.4298863250996
 21
109.1087700426613
 31
0.0
  0
LINE
  5
E3
330
1F
100
AcDbEntity
  8
0-0
  6
JWW_DASHED1
 62
   120
370
     5
100
AcDbLine
 10
-807.4298863251018
 20
19.20927510749721
 30
0.0
 11
-727.429886325103
 21
99.20927510749607
 31
0.0
  0
LINE
  5
E4
330
1F
100
AcDbEntity
  8
0-0
  6
JWW_DASHED1
 62
   120
370
     5
100
AcDbLine
 10
-807.4298863250933
 20
9.30978017228938
 30
0.0
 11
-727.4298863250945
 21
89.30978017228824
 31
0.0
  0
LINE
  5
E5
330
1F
100
AcDbEntity
  8
0-0
  6
JWW_DASHED1
 62
   120
370
     5
100
AcDbLine
 10
-807.4298863251172
 20
-0.5897147629499955
 30
0.0
 11
-727.4298863251013
 21
79.41028523706422
 31
0.0
  0
LINE
  5
E6
330
1F
100
AcDbEntity
  8
0-0
  6
JWW_DASHED1
 62
   120
370
     5
100
AcDbLine
 10
-807.4298863251036
 20
-10.48920969809942
 30
0.0
 11
-727.4298863251047
 21
69.51079030189987
 31
0.0
  0
LINE
  5
E7
330
1F
100
AcDbEntity
  8
0-0
  6
JWW_DASHED1
 62
   120
370
     5
100
AcDbLine
 10
-807.429886325095
 20
-20.38870463330682
 30
0.0
 11
-727.4298863250979
 21
59.61129536669162
 31
0.0
  0
LINE
  5
E8
330
1F
100
AcDbEntity
  8
0-0
  6
JWW_DASHED1
 62
   120
370
     5
100
AcDbLine
 10
-807.4298863251104
 20
-30.28819956853852
 30
0.0
 11
-727.4298863250979
 21
49.71180043147527
 31
0.0
  0
LINE
  5
E9
330
1F
100
AcDbEntity
  8
0-0
  6
JWW_DASHED1
 62
   120
370
     5
100
AcDbLine
 10
-807.429886325107
 20
-40.18769450369604
 30
0.0
 11
-727.4298863251081
 21
39.81230549630283
 31
0.0
  0
LINE
  5
EA
330
1F
100
AcDbEntity
  8
0-0
  6
JWW_DASHED1
 62
   120
370
     5
100
AcDbLine
 10
-807.4298863250967
 20
-50.08718943890386
 30
0.0
 11
-727.4298863250979
 21
29.912810561095
 31
0.0
  0
LINE
  5
EB
330
1F
100
AcDbEntity
  8
0-0
  6
JWW_DASHED1
 62
   120
370
     5
100
AcDbLine
 10
-807.4298863251053
 20
-59.98668437412789
 30
0.0
 11
-727.429886325091
 21
20.01331562588717
 31
0.0
  0
LINE
  5
EC
330
1F
100
AcDbEntity
  8
0-0
  6
JWW_DASHED1
 62
   120
370
     5
100
AcDbLine
 10
-807.4298863251087
 20
-69.88617930929223
 30
0.0
 11
-727.4298863251098
 21
10.11382069070621
 31
0.0
  0
LINE
  5
ED
330
1F
100
AcDbEntity
  8
0-0
  6
JWW_DASHED1
 62
   120
370
     5
100
AcDbLine
 10
-807.4298863251001
 20
-79.78567424450048
 30
0.0
 11
-727.4298863251013
 21
0.2143257554979527
 31
0.0
  0
LINE
  5
EE
330
1F
100
AcDbEntity
  8
0-0
  6
JWW_DASHED1
 62
   120
370
     5
100
AcDbLine
 10
-807.4298863250916
 20
-89.68516917970874
 30
0.0
 11
-727.4298863250928
 21
-9.685169179709874
 31
0.0
  0
LINE
  5
EF
330
1F
100
AcDbEntity
  8
0-0
  6
JWW_DASHED1
 62
   120
370
     5
100
AcDbLine
 10
-807.4298863251104
 20
-99.58466411488928
 30
0.0
 11
-727.4298863251115
 21
-19.58466411489042
 31
0.0
  0
LINE
  5
F0
330
1F
100
AcDbEntity
  8
0-0
  6
JWW_DASHED1
 62
   120
370
     5
100
AcDbLine
 10
-807.4298863251018
 20
-109.4841590500971
 30
0.0
 11
-727.429886325103
 21
-29.48415905009867
 31
0.0
  0
LINE
  5
F1
330
1F
100
AcDbEntity
  8
0-0
  6
JWW_DASHED1
 62
   120
370
     5
100
AcDbLine
 10
-807.4298863250933
 20
-119.3836539853054
 30
0.0
 11
-727.4298863250945
 21
-39.38365398530649
 31
0.0
  0
LINE
  5
F2
330
1F
100
AcDbEntity
  8
0-0
  6
JWW_DASHED1
 62
   120
370
     5
100
AcDbLine
 10
-807.4298863251138
 20
-129.2831489204863
 30
0.0
 11
-727.4298863250979
 21
-49.28314892047126
 31
0.0
  0
LINE
  5
F3
330
1F
100
AcDbEntity
  8
0-0
  6
JWW_DASHED1
 62
   120
370
     5
100
AcDbLine
 10
-807.4298863251036
 20
-139.1826438556942
 30
0.0
 11
-727.4298863251047
 21
-59.18264385569529
 31
0.0
  0
LINE
  5
F4
330
1F
100
AcDbEntity
  8
0-0
  6
JWW_DASHED1
 62
   120
370
     5
100
AcDbLine
 10
-807.4298863250967
 20
-149.082138790902
 30
0.0
 11
-727.4298863250979
 21
-69.08213879090312
 31
0.0
  0
LINE
  5
F5
330
1F
100
AcDbEntity
  8
0-0
  6
JWW_DASHED1
 62
   120
370
     5
100
AcDbLine
 10
-807.4298863251138
 20
-158.9816337260825
 30
0.0
 11
-727.4298863251013
 21
-78.98163372606831
 31
0.0
  0
LINE
  5
F6
330
1F
100
AcDbEntity
  8
0-0
  6
JWW_DASHED1
 62
   120
370
     5
100
AcDbLine
 10
-807.429886325107
 20
-168.8811286612908
 30
0.0
 11
-727.4298863251081
 21
-88.88112866129148
 31
0.0
  0
LINE
  5
F7
330
1F
100
AcDbEntity
  8
0-0
  6
JWW_DASHED1
 62
   120
370
     5
100
AcDbLine
 10
-807.4298863250984
 20
-178.7806235964986
 30
0.0
 11
-727.4298863250996
 21
-98.78062359649974
 31
0.0
  0
LINE
  5
F8
330
1F
100
AcDbEntity
  8
0-0
  6
JWW_DASHED1
 62
   120
370
     5
100
AcDbLine
 10
-807.4298863251172
 20
-188.6801185316796
 30
0.0
 11
-727.429886325103
 21
-108.6801185316649
 31
0.0
  0
LINE
  5
F9
330
1F
100
AcDbEntity
  8
0-0
  6
JWW_DASHED1
 62
   120
370
     5
100
AcDbLine
 10
-807.4298863251087
 20
-198.5796134668874
 30
0.0
 11
-727.4298863251098
 21
-118.5796134668885
 31
0.0
  0
LINE
  5
FA
330
1F
100
AcDbEntity
  8
0-0
  6
JWW_DASHED1
 62
   120
370
     5
100
AcDbLine
 10
-807.4298863251001
 20
-208.4791084020952
 30
0.0
 11
-727.4298863251013
 21
-128.4791084020964
 31
0.0
  0
LINE
  5
FB
330
1F
100
AcDbEntity
  8
0-0
  6
JWW_DASHED1
 62
   120
370
     5
100
AcDbLine
 10
-807.4298863251104
 20
-218.3786033372664
 30
0.0
 11
-727.4298863250945
 21
-138.3786033372522
 31
0.0
  0
LINE
  5
FC
330
1F
100
AcDbEntity
  8
0-0
  6
JWW_DASHED1
 62
   120
370
     5
100
AcDbLine
 10
-807.4298863251104
 20
-228.278098272484
 30
0.0
 11
-727.4298863251115
 21
-148.2780982724856
 31
0.0
  0
LINE
  5
FD
330
1F
100
AcDbEntity
  8
0-0
  6
JWW_DASHED1
 62
   120
370
     5
100
AcDbLine
 10
-807.4298863251036
 20
-238.1775932076918
 30
0.0
 11
-727.4298863251047
 21
-158.1775932076934
 31
0.0
  0
LINE
  5
FE
330
1F
100
AcDbEntity
  8
0-0
  6
JWW_DASHED1
 62
   120
370
     5
100
AcDbLine
 10
-807.4298863251053
 20
-248.0770881428566
 30
0.0
 11
-727.429886325091
 21
-168.0770881428424
 31
0.0
  0
LINE
  5
FF
330
1F
100
AcDbEntity
  8
0-0
  6
JWW_DASHED1
 62
   120
370
     5
100
AcDbLine
 10
-807.4298863251138
 20
-257.9765830780806
 30
0.0
 11
-727.4298863250979
 21
-177.976583078066
 31
0.0
  0
LINE
  5
100
330
1F
100
AcDbEntity
  8
0-0
  6
JWW_DASHED1
 62
   120
370
     5
100
AcDbLine
 10
-807.4298863251053
 20
-267.8760780132889
 30
0.0
 11
-727.4298863251064
 21
-187.8760780132896
 31
0.0
  0
LINE
  5
101
330
1F
100
AcDbEntity
  8
0-0
  6
JWW_DASHED1
 62
   120
370
     5
100
AcDbLine
 10
-807.4298863250916
 20
-277.7755729484375
 30
0.0
 11
-727.4298863250945
 21
-197.7755729484394
 31
0.0
  0
LINE
  5
102
330
1F
100
AcDbEntity
  8
0-0
  6
JWW_DASHED1
 62
   120
370
     5
100
AcDbLine
 10
-807.4298863251155
 20
-287.6750678836777
 30
0.0
 11
-727.4298863251013
 21
-207.6750678836626
 31
0.0
  0
LINE
  5
103
330
1F
100
AcDbEntity
  8
0-0
  6
JWW_DASHED1
 62
   120
370
     5
100
AcDbLine
 10
-807.429886325107
 20
-297.5745628188855
 30
0.0
 11
-727.4298863251081
 21
-217.5745628188866
 31
0.0
  0
LINE
  5
104
330
1F
100
AcDbEntity
  8
0-0
  6
JWW_DASHED1
 62
   120
370
     5
100
AcDbLine
 10
-807.429886325095
 20
-307.4740577540345
 30
0.0
 11
-727.4298863250945
 21
-227.4740577540356
 31
0.0
  0
LINE
  5
105
330
1F
100
AcDbEntity
  8
0-0
  6
JWW_DASHED1
 62
   120
370
     5
100
AcDbLine
 10
-807.429886325107
 20
-317.3735526892636
 30
0.0
 11
-727.4298863250928
 21
-237.3735526892494
 31
0.0
  0
LINE
  5
106
330
1F
100
AcDbEntity
  8
0-0
  6
JWW_DASHED1
 62
   120
370
     5
100
AcDbLine
 10
-807.4298863251104
 20
-327.2730476244822
 30
0.0
 11
-727.4298863251115
 21
-247.2730476244833
 31
0.0
  0
LINE
  5
107
330
1F
100
AcDbEntity
  8
0-0
  6
JWW_DASHED1
 62
   120
370
     5
100
AcDbLine
 10
-807.4298863250967
 20
-337.1725425596311
 30
0.0
 11
-727.4298863250979
 21
-257.1725425596327
 31
0.0
  0
LINE
  5
108
330
1F
100
AcDbEntity
  8
0-0
  6
JWW_DASHED1
 62
   120
370
     5
100
AcDbLine
 10
-807.4298863251036
 20
-347.0720374948552
 30
0.0
 11
-727.4298863250893
 21
-267.0720374948405
 31
0.0
  0
LINE
  5
109
330
1F
100
AcDbEntity
  8
0-0
  6
JWW_DASHED1
 62
   120
370
     5
100
AcDbLine
 10
-807.4298863251104
 20
-356.9715324300788
 30
0.0
 11
-727.4298863250979
 21
-276.9715324300641
 31
0.0
  0
LINE
  5
10A
330
1F
100
AcDbEntity
  8
0-0
  6
JWW_DASHED1
 62
   120
370
     5
100
AcDbLine
 10
-807.4298863250984
 20
-366.8710273652277
 30
0.0
 11
-727.4298863250996
 21
-286.8710273652289
 31
0.0
  0
LINE
  5
10B
330
1F
100
AcDbEntity
  8
0-0
  6
JWW_DASHED1
 62
   120
370
     5
100
AcDbLine
 10
-807.4298863250899
 20
-376.7705223004356
 30
0.0
 11
-727.429886325091
 21
-296.7705223004372
 31
0.0
  0
LINE
  5
10C
330
1F
100
AcDbEntity
  8
0-0
  6
JWW_DASHED1
 62
   120
370
     5
100
AcDbLine
 10
-807.4298863251138
 20
-386.6700172356758
 30
0.0
 11
-727.4298863250996
 21
-306.6700172356611
 31
0.0
  0
LINE
  5
10D
330
1F
100
AcDbEntity
  8
0-0
  6
JWW_DASHED1
 62
   120
370
     5
100
AcDbLine
 10
-807.4298863251001
 20
-396.5695121708248
 30
0.0
 11
-727.4298863251013
 21
-316.5695121708259
 31
0.0
  0
LINE
  5
10E
330
1F
100
AcDbEntity
  8
0-0
  6
JWW_DASHED1
 62
   120
370
     5
100
AcDbLine
 10
-807.4298863250933
 20
-406.4690071060326
 30
0.0
 11
-727.4298863250945
 21
-326.4690071060338
 31
0.0
  0
LINE
  5
10F
330
1F
100
AcDbEntity
  8
0-0
  6
JWW_DASHED1
 62
   120
370
     5
100
AcDbLine
 10
-807.4298863251172
 20
-416.3685020412724
 30
0.0
 11
-727.4298863251013
 21
-336.3685020412578
 31
0.0
  0
LINE
  5
110
330
1F
100
AcDbEntity
  8
0-0
  6
JWW_DASHED1
 62
   120
370
     5
100
AcDbLine
 10
-807.4298863251036
 20
-426.2679969764214
 30
0.0
 11
-727.4298863251047
 21
-346.2679969764221
 31
0.0
  0
LINE
  5
111
330
1F
100
AcDbEntity
  8
0-0
  6
JWW_DASHED1
 62
   120
370
     5
100
AcDbLine
 10
-807.429886325095
 20
-436.1674919116297
 30
0.0
 11
-727.4298863250962
 21
-356.1674919116308
 31
0.0
  0
LINE
  5
112
330
1F
100
AcDbEntity
  8
0-0
  6
JWW_DASHED1
 62
   120
370
     5
100
AcDbLine
 10
-807.429886325107
 20
-446.0669868468571
 30
0.0
 11
-727.4298863250928
 21
-366.0669868468433
 31
0.0
  0
LINE
  5
113
330
1F
100
AcDbEntity
  8
0-0
  6
JWW_DASHED1
 62
   120
370
     5
100
AcDbLine
 10
-807.4298863251053
 20
-455.966481782018
 30
0.0
 11
-727.4298863251064
 21
-375.9664817820192
 31
0.0
  0
LINE
  5
114
330
1F
100
AcDbEntity
  8
0-0
  6
JWW_DASHED1
 62
   120
370
     5
100
AcDbLine
 10
-807.4298863250967
 20
-465.8659767172259
 30
0.0
 11
-727.4298863250979
 21
-385.865976717227
 31
0.0
  0
LINE
  5
115
330
1F
100
AcDbEntity
  8
0-0
  6
JWW_DASHED1
 62
   120
370
     5
100
AcDbLine
 10
-807.4298863250882
 20
-475.7654716524337
 30
0.0
 11
-727.4298863250893
 21
-395.7654716524353
 31
0.0
  0
LINE
  5
116
330
1F
100
AcDbEntity
  8
0-0
  6
JWW_DASHED1
 62
   120
370
     5
100
AcDbLine
 10
-807.429886325107
 20
-485.6649665876147
 30
0.0
 11
-727.4298863251081
 21
-405.6649665876158
 31
0.0
  0
LINE
  5
117
330
1F
100
AcDbEntity
  8
0-0
  6
JWW_DASHED1
 62
   120
370
     5
100
AcDbLine
 10
-807.4298863251001
 20
-495.5644615228229
 30
0.0
 11
-727.4298863251013
 21
-415.564461522824
 31
0.0
  0
LINE
  5
118
330
1F
100
AcDbEntity
  8
0-0
  6
JWW_DASHED1
 62
   120
370
     5
100
AcDbLine
 10
-807.4298863250899
 20
-505.4639564580307
 30
0.0
 11
-727.429886325091
 21
-425.4639564580319
 31
0.0
  0
LINE
  5
119
330
1F
100
AcDbEntity
  8
0-0
  6
JWW_DASHED1
 62
   120
370
     5
100
AcDbLine
 10
-807.4298863251104
 20
-515.3634513932113
 30
0.0
 11
-727.4298863250945
 21
-435.3634513931971
 31
0.0
  0
LINE
  5
11A
330
1F
100
AcDbEntity
  8
0-0
  6
JWW_DASHED1
 62
   120
370
     5
100
AcDbLine
 10
-807.4298863251018
 20
-525.262946328419
 30
0.0
 11
-727.429886325103
 21
-445.2629463284202
 31
0.0
  0
LINE
  5
11B
330
1F
100
AcDbEntity
  8
0-0
  6
JWW_DASHED1
 62
   120
370
     5
100
AcDbLine
 10
-807.4298863250899
 20
-535.1624412635979
 30
0.0
 11
-727.4298863250928
 21
-455.1624412635991
 31
0.0
  0
LINE
  5
11C
330
1F
100
AcDbEntity
  8
0-0
  6
JWW_DASHED1
 62
   120
370
     5
100
AcDbLine
 10
-807.4298863251121
 20
-545.0619361988083
 30
0.0
 11
-727.4298863250979
 21
-465.0619361987933
 31
0.0
  0
LINE
  5
11D
330
1F
100
AcDbEntity
  8
0-0
  6
JWW_DASHED1
 62
   120
370
     5
100
AcDbLine
 10
-807.4298863251036
 20
-554.9614311340162
 30
0.0
 11
-727.4298863251047
 21
-474.9614311340173
 31
0.0
  0
LINE
  5
11E
330
1F
100
AcDbEntity
  8
0-0
  6
JWW_DASHED1
 62
   120
370
     5
100
AcDbLine
 10
-807.4298863250933
 20
-564.860926069195
 30
0.0
 11
-727.4298863250945
 21
-484.8609260691961
 31
0.0
  0
LINE
  5
11F
330
1F
100
AcDbEntity
  8
0-0
  6
JWW_DASHED1
 62
   120
370
     5
100
AcDbLine
 10
-807.4298863251138
 20
-574.760421004405
 30
0.0
 11
-727.4298863250996
 21
-494.7604210043903
 31
0.0
  0
LINE
  5
120
330
1F
100
AcDbEntity
  8
0-0
  6
JWW_DASHED1
 62
   120
370
     5
100
AcDbLine
 10
-807.4298863251053
 20
-584.6599159396123
 30
0.0
 11
-727.4298863251081
 21
-504.6599159396139
 31
0.0
  0
LINE
  5
121
330
1F
100
AcDbEntity
  8
0-0
  6
JWW_DASHED1
 62
   120
370
     5
100
AcDbLine
 10
-807.4298863250933
 20
-594.5594108747617
 30
0.0
 11
-727.4298863250945
 21
-514.5594108747633
 31
0.0
  0
LINE
  5
122
330
1F
100
AcDbEntity
  8
0-0
  6
JWW_DASHED1
 62
   120
370
     5
100
AcDbLine
 10
-807.4298863251036
 20
-604.4589058099888
 30
0.0
 11
-727.4298863250893
 21
-524.4589058099746
 31
0.0
  0
LINE
  5
123
330
1F
100
AcDbEntity
  8
0-0
  6
JWW_DASHED1
 62
   120
370
     5
100
AcDbLine
 10
-807.429886325107
 20
-614.3584007452093
 30
0.0
 11
-727.4298863251081
 21
-534.3584007452105
 31
0.0
  0
LINE
  5
124
330
1F
100
AcDbEntity
  8
0-0
  6
JWW_DASHED1
 62
   120
370
     5
100
AcDbLine
 10
-807.429886325095
 20
-624.2578956803584
 30
0.0
 11
-727.4298863250962
 21
-544.2578956803595
 31
0.0
  0
LINE
  5
125
330
1F
100
AcDbEntity
  8
0-0
  6
JWW_DASHED1
 62
   120
370
     5
100
AcDbLine
 10
-807.4298863251036
 20
-634.1573906155825
 30
0.0
 11
-727.4298863250876
 21
-554.1573906155678
 31
0.0
  0
LINE
  5
126
330
1F
100
AcDbEntity
  8
0-0
  6
JWW_DASHED1
 62
   120
370
     5
100
AcDbLine
 10
-807.4298863251104
 20
-644.0568855508064
 30
0.0
 11
-727.4298863250945
 21
-564.0568855507913
 31
0.0
  0
LINE
  5
127
330
1F
100
AcDbEntity
  8
0-0
  6
JWW_DASHED1
 62
   120
370
     5
100
AcDbLine
 10
-807.4298863250967
 20
-653.9563804859554
 30
0.0
 11
-727.4298863250979
 21
-573.9563804859565
 31
0.0
  0
LINE
  5
128
330
1F
100
AcDbEntity
  8
0-0
  6
JWW_DASHED1
 62
   120
370
     5
100
AcDbLine
 10
-807.4298863250899
 20
-663.8558754211633
 30
0.0
 11
-727.429886325091
 21
-583.8558754211645
 31
0.0
  0
LINE
  5
129
330
1F
100
AcDbEntity
  8
0-0
  6
JWW_DASHED1
 62
   120
370
     5
100
AcDbLine
 10
-807.4298863251121
 20
-673.7553703564026
 30
0.0
 11
-727.4298863250979
 21
-593.7553703563884
 31
0.0
  0
LINE
  5
12A
330
1F
100
AcDbEntity
  8
0-0
  6
JWW_DASHED1
 62
   120
370
     5
100
AcDbLine
 10
-807.4298863251001
 20
-683.6548652915517
 30
0.0
 11
-727.4298863251013
 21
-603.6548652915532
 31
0.0
  0
LINE
  5
12B
330
1F
100
AcDbEntity
  8
0-0
  6
JWW_DASHED1
 62
   120
370
     5
100
AcDbLine
 10
-807.4298863250916
 20
-693.5543602267599
 30
0.0
 11
-727.4298863250928
 21
-613.554360226761
 31
0.0
  0
LINE
  5
12C
330
1F
100
AcDbEntity
  8
0-0
  6
JWW_DASHED1
 62
   120
370
     5
100
AcDbLine
 10
-807.4298863251138
 20
-703.4538551619996
 30
0.0
 11
-727.4298863251013
 21
-623.4538551619846
 31
0.0
  0
LINE
  5
12D
330
1F
100
AcDbEntity
  8
0-0
  6
JWW_DASHED1
 62
   120
370
     5
100
AcDbLine
 10
-807.4298863251018
 20
-713.3533500971487
 30
0.0
 11
-727.429886325103
 21
-633.3533500971498
 31
0.0
  0
LINE
  5
12E
330
1F
100
AcDbEntity
  8
0-0
  6
JWW_DASHED1
 62
   120
370
     5
100
AcDbLine
 10
-807.4298863250933
 20
-723.2528450323565
 30
0.0
 11
-727.4298863250945
 21
-643.2528450323576
 31
0.0
  0
LINE
  5
12F
330
1F
100
AcDbEntity
  8
0-0
  6
JWW_DASHED1
 62
   120
370
     5
100
AcDbLine
 10
-807.4298863251036
 20
-733.1523399675823
 30
0.0
 11
-727.4298863250893
 21
-653.152339967568
 31
0.0
  0
LINE
  5
130
330
1F
100
AcDbEntity
  8
0-0
  6
JWW_DASHED1
 62
   120
370
     5
100
AcDbLine
 10
-807.4298863251036
 20
-743.0518349027449
 30
0.0
 11
-727.4298863251047
 21
-663.0518349027465
 31
0.0
  0
LINE
  5
131
330
1F
100
AcDbEntity
  8
0-0
  6
JWW_DASHED1
 62
   120
370
     5
100
AcDbLine
 10
-807.4298863250967
 20
-752.9513298379536
 30
0.0
 11
-727.4298863250979
 21
-672.9513298379547
 31
0.0
  0
LINE
  5
132
330
1F
100
AcDbEntity
  8
0-0
  6
JWW_DASHED1
 62
   120
370
     5
100
AcDbLine
 10
-807.4298863250865
 20
-762.8508247731613
 30
0.0
 11
-727.4298863250876
 21
-682.8508247731625
 31
0.0
  0
LINE
  5
133
330
1F
100
AcDbEntity
  8
0-0
  6
JWW_DASHED1
 62
   120
370
     5
100
AcDbLine
 10
-807.429886325107
 20
-772.750319708342
 30
0.0
 11
-727.4298863251081
 21
-692.7503197083431
 31
0.0
  0
LINE
  5
134
330
1F
100
AcDbEntity
  8
0-0
  6
JWW_DASHED1
 62
   120
370
     5
100
AcDbLine
 10
-807.4298863250984
 20
-782.6498146435497
 30
0.0
 11
-727.4298863250996
 21
-702.6498146435513
 31
0.0
  0
LINE
  5
135
330
1F
100
AcDbEntity
  8
0-0
  6
JWW_DASHED1
 62
   120
370
     5
100
AcDbLine
 10
-807.4298863250899
 20
-792.549309578758
 30
0.0
 11
-727.429886325091
 21
-712.5493095787591
 31
0.0
  0
LINE
  5
136
330
1F
100
AcDbEntity
  8
0-0
  6
JWW_DASHED1
 62
   120
370
     5
100
AcDbLine
 10
-807.4298863251087
 20
-802.448804513939
 30
0.0
 11
-727.4298863250945
 21
-722.448804513924
 31
0.0
  0
LINE
  5
137
330
1F
100
AcDbEntity
  8
0-0
  6
JWW_DASHED1
 62
   120
370
     5
100
AcDbLine
 10
-807.4298863251001
 20
-812.3482994491468
 30
0.0
 11
-727.4298863251013
 21
-732.3482994491479
 31
0.0
  0
LINE
  5
138
330
1F
100
AcDbEntity
  8
0-0
  6
JWW_DASHED1
 62
   120
370
     5
100
AcDbLine
 10
-807.4298863250916
 20
-822.2477943843546
 30
0.0
 11
-727.4298863250928
 21
-742.2477943843558
 31
0.0
  0
LINE
  5
139
330
1F
100
AcDbEntity
  8
0-0
  6
JWW_DASHED1
 62
   120
370
     5
100
AcDbLine
 10
-807.4298863251104
 20
-832.1472893195352
 30
0.0
 11
-727.4298863250962
 21
-752.147289319521
 31
0.0
  0
LINE
  5
13A
330
1F
100
AcDbEntity
  8
0-0
  6
JWW_DASHED1
 62
   120
370
     5
100
AcDbLine
 10
-807.4298863251036
 20
-842.0467842547434
 30
0.0
 11
-727.4298863251047
 21
-762.0467842547441
 31
0.0
  0
LINE
  5
13B
330
1F
100
AcDbEntity
  8
0-0
  6
JWW_DASHED1
 62
   120
370
     5
100
AcDbLine
 10
-807.4298863250933
 20
-851.9462791899513
 30
0.0
 11
-727.4298863250945
 21
-771.9462791899527
 31
0.0
  0
LINE
  5
13C
330
1F
100
AcDbEntity
  8
0-0
  6
JWW_DASHED1
 62
   120
370
     5
100
AcDbLine
 10
-807.4298863251138
 20
-861.8457741251323
 30
0.0
 11
-727.4298863250979
 21
-781.8457741251176
 31
0.0
  0
LINE
  5
13D
330
1F
100
AcDbEntity
  8
0-0
  6
JWW_DASHED1
 62
   120
370
     5
100
AcDbLine
 10
-807.4298863251036
 20
-871.74526906034
 30
0.0
 11
-727.4298863251064
 21
-791.7452690603416
 31
0.0
  0
LINE
  5
13E
330
1F
100
AcDbEntity
  8
0-0
  6
JWW_DASHED1
 62
   120
370
     5
100
AcDbLine
 10
-807.4298863250967
 20
-881.6447639955483
 30
0.0
 11
-727.4298863250979
 21
-801.644763995549
 31
0.0
  0
LINE
  5
13F
330
1F
100
AcDbEntity
  8
0-0
  6
JWW_DASHED1
 62
   120
370
     5
100
AcDbLine
 10
-807.4298863251001
 20
-891.5442589307139
 30
0.0
 11
-727.4298863250859
 21
-811.5442589306997
 31
0.0
  0
LINE
  5
140
330
1F
100
AcDbEntity
  8
0-0
  6
JWW_DASHED1
 62
   120
370
     5
100
AcDbLine
 10
-807.429886325107
 20
-901.4437538659366
 30
0.0
 11
-727.4298863251081
 21
-821.4437538659382
 31
0.0
  0
LINE
  5
141
330
1F
100
AcDbEntity
  8
0-0
  6
JWW_DASHED1
 62
   120
370
     5
100
AcDbLine
 10
-807.4298863250984
 20
-911.3432488011449
 30
0.0
 11
-727.4298863250996
 21
-831.343248801146
 31
0.0
  0
LINE
  5
142
330
1F
100
AcDbEntity
  8
0-0
  6
JWW_DASHED1
 62
   120
370
     5
100
AcDbLine
 10
-807.4298863251018
 20
-921.2427437363092
 30
0.0
 11
-727.4298863250876
 21
-841.2427437362951
 31
0.0
  0
LINE
  5
143
330
1F
100
AcDbEntity
  8
0-0
  6
JWW_DASHED1
 62
   120
370
     5
100
AcDbLine
 10
-807.4298863251087
 20
-931.1422386715333
 30
0.0
 11
-727.4298863250945
 21
-851.1422386715191
 31
0.0
  0
LINE
  5
144
330
1F
100
AcDbEntity
  8
0-0
  6
JWW_DASHED1
 62
   120
370
     5
100
AcDbLine
 10
-807.4298863251001
 20
-941.0417336067416
 30
0.0
 11
-727.4298863251013
 21
-861.0417336067427
 31
0.0
  0
LINE
  5
145
330
1F
100
AcDbEntity
  8
0-0
  6
JWW_DASHED1
 62
   120
370
     5
100
AcDbLine
 10
-806.5185993848942
 20
-950.029941601696
 30
0.0
 11
-727.4298863250893
 21
-870.9412285418921
 31
0.0
  0
LINE
  5
146
330
1F
100
AcDbEntity
  8
0-0
  6
JWW_DASHED1
 62
   120
370
     5
100
AcDbLine
 10
-796.6191044496557
 20
-950.0299416016748
 30
0.0
 11
-727.4298863250979
 21
-880.8407234771162
 31
0.0
  0
LINE
  5
147
330
1F
100
AcDbEntity
  8
0-0
  6
JWW_DASHED1
 62
   120
370
     5
100
AcDbLine
 10
-786.7196095144461
 20
-950.0299416016808
 30
0.0
 11
-727.4298863251047
 21
-890.7402184123393
 31
0.0
  0
LINE
  5
148
330
1F
100
AcDbEntity
  8
0-0
  6
JWW_DASHED1
 62
   120
370
     5
100
AcDbLine
 10
-776.8201145792963
 20
-950.0299416016935
 30
0.0
 11
-727.429886325091
 21
-900.6397133474883
 31
0.0
  0
LINE
  5
149
330
1F
100
AcDbEntity
  8
0-0
  6
JWW_DASHED1
 62
   120
370
     5
100
AcDbLine
 10
-766.9206196440816
 20
-950.0299416016944
 30
0.0
 11
-727.4298863250842
 21
-910.539208282697
 31
0.0
  0
LINE
  5
14A
330
1F
100
AcDbEntity
  8
0-0
  6
JWW_DASHED1
 62
   120
370
     5
100
AcDbLine
 10
-757.0211247088482
 20
-950.0299416016782
 30
0.0
 11
-727.4298863251064
 21
-920.4387032179363
 31
0.0
  0
LINE
  5
14B
330
1F
100
AcDbEntity
  8
0-0
  6
JWW_DASHED1
 62
   120
370
     5
100
AcDbLine
 10
-747.1216297737001
 20
-950.029941601691
 30
0.0
 11
-727.4298863250945
 21
-930.3381981530854
 31
0.0
  0
LINE
  5
14C
330
1F
100
AcDbEntity
  8
0-0
  6
JWW_DASHED1
 62
   120
370
     5
100
AcDbLine
 10
-737.2221348384888
 20
-950.0299416016969
 30
0.0
 11
-727.4298863250842
 21
-940.2376930882931
 31
0.0
  0
LINE
  5
14D
330
1F
100
AcDbEntity
  8
0-0
  6
Continuous
 62
    92
370
    13
100
AcDbLine
 10
52.57011367489529
 20
-958.0299416016777
 30
0.0
 11
52.57011367489529
 21
1024.970058398322
 31
0.0
  0
LINE
  5
14E
330
1F
100
AcDbEntity
  8
0-0
  6
Continuous
 62
     7
370
     9
100
AcDbLine
 10
52.57011367489529
 20
1016.970058398323
 30
0.0
 11
-27.42988632510357
 21
1016.970058398323
 31
0.0
  0
LINE
  5
14F
330
1F
100
AcDbEntity
  8
0-0
  6
Continuous
 62
     7
370
     9
100
AcDbLine
 10
52.57011367489529
 20
-950.0299416016782
 30
0.0
 11
-27.42988632510357
 21
-950.0299416016782
 31
0.0
  0
LINE
  5
150
330
1F
100
AcDbEntity
  8
0-0
  6
Continuous
 62
    92
370
    13
100
AcDbLine
 10
-27.42988632510357
 20
-958.0299416016777
 30
0.0
 11
-27.42988632510357
 21
1024.970058398322
 31
0.0
  0
LINE
  5
151
330
1F
100
AcDbEntity
  8
0-0
  6
JWW_DASHED1
 62
   120
370
     5
100
AcDbLine
 10
-27.42988632510357
 20
1009.158768627274
 30
0.0
 11
-19.61859655405728
 21
1016.970058398321
 31
0.0
  0
LINE
  5
152
330
1F
100
AcDbEntity
  8
0-0
  6
JWW_DASHED1
 62
   120
370
     5
100
AcDbLine
 10
-27.4298863251104
 20
999.2592736920506
 30
0.0
 11
-9.719101618835815
 21
1016.970058398326
 31
0.0
  0
LINE
  5
153
330
1F
100
AcDbEntity
  8
0-0
  6
JWW_DASHED1
 62
   120
370
     5
100
AcDbLine
 10
-27.42988632511892
 20
989.3597787568265
 30
0.0
 11
0.1803933163856541
 21
1016.970058398331
 31
0.0
  0
LINE
  5
154
330
1F
100
AcDbEntity
  8
0-0
  6
JWW_DASHED1
 62
   120
370
     5
100
AcDbLine
 10
-27.42988632510698
 20
979.4602838216775
 30
0.0
 11
10.07988825153891
 21
1016.970058398324
 31
0.0
  0
LINE
  5
155
330
1F
100
AcDbEntity
  8
0-0
  6
JWW_DASHED1
 62
   120
370
     5
100
AcDbLine
 10
-27.42988632509675
 20
969.5607888864697
 30
0.0
 11
19.97938318674844
 21
1016.970058398316
 31
0.0
  0
LINE
  5
156
330
1F
100
AcDbEntity
  8
0-0
  6
JWW_DASHED1
 62
   120
370
     5
100
AcDbLine
 10
-27.42988632512063
 20
959.6612939512295
 30
0.0
 11
29.87887812197673
 21
1016.970058398328
 31
0.0
  0
LINE
  5
157
330
1F
100
AcDbEntity
  8
0-0
  6
JWW_DASHED1
 62
   120
370
     5
100
AcDbLine
 10
-27.42988632510869
 20
949.7617990160809
 30
0.0
 11
39.77837305713681
 21
1016.970058398326
 31
0.0
  0
LINE
  5
158
330
1F
100
AcDbEntity
  8
0-0
  6
JWW_DASHED1
 62
   120
370
     5
100
AcDbLine
 10
-27.42988632510016
 20
939.8623040808731
 30
0.0
 11
49.67786799234634
 21
1016.970058398318
 31
0.0
  0
LINE
  5
159
330
1F
100
AcDbEntity
  8
0-0
  6
JWW_DASHED1
 62
   120
370
     5
100
AcDbLine
 10
-27.42988632512233
 20
929.9628091456341
 30
0.0
 11
52.57011367489188
 21
1009.962809145648
 31
0.0
  0
LINE
  5
15A
330
1F
100
AcDbEntity
  8
0-0
  6
JWW_DASHED1
 62
   120
370
     5
100
AcDbLine
 10
-27.4298863251104
 20
920.0633142104844
 30
0.0
 11
52.57011367488847
 21
1000.063314210483
 31
0.0
  0
LINE
  5
15B
330
1F
100
AcDbEntity
  8
0-0
  6
JWW_DASHED1
 62
   120
370
     5
100
AcDbLine
 10
-27.42988632510357
 20
910.1638192752761
 30
0.0
 11
52.57011367489529
 21
990.1638192752749
 31
0.0
  0
LINE
  5
15C
330
1F
100
AcDbEntity
  8
0-0
  6
JWW_DASHED1
 62
   120
370
     5
100
AcDbLine
 10
-27.42988632512404
 20
900.2643243400371
 30
0.0
 11
52.57011367488847
 21
980.2643243400513
 31
0.0
  0
LINE
  5
15D
330
1F
100
AcDbEntity
  8
0-0
  6
JWW_DASHED1
 62
   120
370
     5
100
AcDbLine
 10
-27.42988632511381
 20
890.3648294048877
 30
0.0
 11
52.57011367488506
 21
970.3648294048861
 31
0.0
  0
LINE
  5
15E
330
1F
100
AcDbEntity
  8
0-0
  6
JWW_DASHED1
 62
   120
370
     5
100
AcDbLine
 10
-27.42988632510357
 20
880.4653344696794
 30
0.0
 11
52.57011367489529
 21
960.4653344696783
 31
0.0
  0
LINE
  5
15F
330
1F
100
AcDbEntity
  8
0-0
  6
JWW_DASHED1
 62
   120
370
     5
100
AcDbLine
 10
-27.42988632509675
 20
870.5658395344716
 30
0.0
 11
52.57011367490211
 21
950.5658395344705
 31
0.0
  0
LINE
  5
160
330
1F
100
AcDbEntity
  8
0-0
  6
JWW_DASHED1
 62
   120
370
     5
100
AcDbLine
 10
-27.42988632511551
 20
860.6663445992906
 30
0.0
 11
52.57011367488506
 21
940.6663445992895
 31
0.0
  0
LINE
  5
161
330
1F
100
AcDbEntity
  8
0-0
  6
JWW_DASHED1
 62
   120
370
     5
100
AcDbLine
 10
-27.42988632510698
 20
850.7668496640828
 30
0.0
 11
52.57011367489188
 21
930.7668496640816
 31
0.0
  0
LINE
  5
162
330
1F
100
AcDbEntity
  8
0-0
  6
JWW_DASHED1
 62
   120
370
     5
100
AcDbLine
 10
-27.42988632509846
 20
840.8673547288745
 30
0.0
 11
52.5701136749004
 21
920.8673547288734
 31
0.0
  0
LINE
  5
163
330
1F
100
AcDbEntity
  8
0-0
  6
JWW_DASHED1
 62
   120
370
     5
100
AcDbLine
 10
-27.42988632511722
 20
830.9678597936941
 30
0.0
 11
52.5701136748987
 21
910.9678597937086
 31
0.0
  0
LINE
  5
164
330
1F
100
AcDbEntity
  8
0-0
  6
JWW_DASHED1
 62
   120
370
     5
100
AcDbLine
 10
-27.42988632510869
 20
821.0683648584861
 30
0.0
 11
52.57011367489017
 21
901.068364858485
 31
0.0
  0
LINE
  5
165
330
1F
100
AcDbEntity
  8
0-0
  6
JWW_DASHED1
 62
   120
370
     5
100
AcDbLine
 10
-27.42988632510016
 20
811.1688699232775
 30
0.0
 11
52.5701136748987
 21
891.1688699232764
 31
0.0
  0
LINE
  5
166
330
1F
100
AcDbEntity
  8
0-0
  6
JWW_DASHED1
 62
   120
370
     5
100
AcDbLine
 10
-27.42988632512063
 20
801.2693749880974
 30
0.0
 11
52.57011367489529
 21
881.2693749881121
 31
0.0
  0
LINE
  5
167
330
1F
100
AcDbEntity
  8
0-0
  6
JWW_DASHED1
 62
   120
370
     5
100
AcDbLine
 10
-27.4298863251104
 20
791.3698800528891
 30
0.0
 11
52.57011367488847
 21
871.369880052888
 31
0.0
  0
LINE
  5
168
330
1F
100
AcDbEntity
  8
0-0
  6
JWW_DASHED1
 62
   120
370
     5
100
AcDbLine
 10
-27.42988632510357
 20
781.4703851176813
 30
0.0
 11
52.57011367489529
 21
861.4703851176802
 31
0.0
  0
LINE
  5
169
330
1F
100
AcDbEntity
  8
0-0
  6
JWW_DASHED1
 62
   120
370
     5
100
AcDbLine
 10
-27.42988632512063
 20
771.5708901825008
 30
0.0
 11
52.57011367489188
 21
851.5708901825154
 31
0.0
  0
LINE
  5
16A
330
1F
100
AcDbEntity
  8
0-0
  6
JWW_DASHED1
 62
   120
370
     5
100
AcDbLine
 10
-27.42988632511381
 20
761.6713952472929
 30
0.0
 11
52.57011367488506
 21
841.6713952472913
 31
0.0
  0
LINE
  5
16B
330
1F
100
AcDbEntity
  8
0-0
  6
JWW_DASHED1
 62
   120
370
     5
100
AcDbLine
 10
-27.42988632510528
 20
751.7719003120847
 30
0.0
 11
52.57011367489529
 21
831.7719003120835
 31
0.0
  0
LINE
  5
16C
330
1F
100
AcDbEntity
  8
0-0
  6
JWW_DASHED1
 62
   120
370
     5
100
AcDbLine
 10
-27.42988632512063
 20
741.8724053769063
 30
0.0
 11
52.57011367489188
 21
821.87240537692
 31
0.0
  0
LINE
  5
16D
330
1F
100
AcDbEntity
  8
0-0
  6
JWW_DASHED1
 62
   120
370
     5
100
AcDbLine
 10
-27.42988632511551
 20
731.9729104416958
 30
0.0
 11
52.57011367488335
 21
811.9729104416947
 31
0.0
  0
LINE
  5
16E
330
1F
100
AcDbEntity
  8
0-0
  6
JWW_DASHED1
 62
   120
370
     5
100
AcDbLine
 10
-27.42988632510357
 20
722.0734155065174
 30
0.0
 11
52.57011367489358
 21
802.0734155065159
 31
0.0
  0
LINE
  5
16F
330
1F
100
AcDbEntity
  8
0-0
  6
JWW_DASHED1
 62
   120
370
     5
100
AcDbLine
 10
-27.4298863251104
 20
712.1739205713229
 30
0.0
 11
52.57011367490382
 21
792.1739205713375
 31
0.0
  0
LINE
  5
170
330
1F
100
AcDbEntity
  8
0-0
  6
JWW_DASHED1
 62
   120
370
     5
100
AcDbLine
 10
-27.42988632511722
 20
702.2744256360997
 30
0.0
 11
52.57011367489699
 21
782.2744256361138
 31
0.0
  0
LINE
  5
171
330
1F
100
AcDbEntity
  8
0-0
  6
JWW_DASHED1
 62
   120
370
     5
100
AcDbLine
 10
-27.42988632510698
 20
692.3749307009209
 30
0.0
 11
52.57011367489188
 21
772.3749307009198
 31
0.0
  0
LINE
  5
172
330
1F
100
AcDbEntity
  8
0-0
  6
JWW_DASHED1
 62
   120
370
     5
100
AcDbLine
 10
-27.42988632509675
 20
682.4754357657424
 30
0.0
 11
52.57011367490211
 21
762.4754357657409
 31
0.0
  0
LINE
  5
173
330
1F
100
AcDbEntity
  8
0-0
  6
JWW_DASHED1
 62
   120
370
     5
100
AcDbLine
 10
-27.42988632512063
 20
672.5759408305026
 30
0.0
 11
52.57011367489529
 21
752.5759408305169
 31
0.0
  0
LINE
  5
174
330
1F
100
AcDbEntity
  8
0-0
  6
JWW_DASHED1
 62
   120
370
     5
100
AcDbLine
 10
-27.4298863251104
 20
662.6764458953243
 30
0.0
 11
52.57011367488847
 21
742.6764458953227
 31
0.0
  0
LINE
  5
175
330
1F
100
AcDbEntity
  8
0-0
  6
JWW_DASHED1
 62
   120
370
     5
100
AcDbLine
 10
-27.42988632510016
 20
652.7769509601454
 30
0.0
 11
52.5701136748987
 21
732.7769509601443
 31
0.0
  0
LINE
  5
176
330
1F
100
AcDbEntity
  8
0-0
  6
JWW_DASHED1
 62
   120
370
     5
100
AcDbLine
 10
-27.42988632511892
 20
642.877456024909
 30
0.0
 11
52.57011367489529
 21
722.8774560249224
 31
0.0
  0
LINE
  5
177
330
1F
100
AcDbEntity
  8
0-0
  6
JWW_DASHED1
 62
   120
370
     5
100
AcDbLine
 10
-27.4298863251104
 20
632.9779610897272
 30
0.0
 11
52.57011367488676
 21
712.977961089726
 31
0.0
  0
LINE
  5
178
330
1F
100
AcDbEntity
  8
0-0
  6
JWW_DASHED1
 62
   120
370
     5
100
AcDbLine
 10
-27.42988632510016
 20
623.0784661545488
 30
0.0
 11
52.5701136748987
 21
703.0784661545476
 31
0.0
  0
LINE
  5
179
330
1F
100
AcDbEntity
  8
0-0
  6
JWW_DASHED1
 62
   120
370
     5
100
AcDbLine
 10
-27.42988632510869
 20
613.1789712193247
 30
0.0
 11
52.57011367490552
 21
693.1789712193398
 31
0.0
  0
LINE
  5
17A
330
1F
100
AcDbEntity
  8
0-0
  6
JWW_DASHED1
 62
   120
370
     5
100
AcDbLine
 10
-27.4298863251104
 20
603.27947628416
 30
0.0
 11
52.57011367488676
 21
683.2794762841588
 31
0.0
  0
LINE
  5
17B
330
1F
100
AcDbEntity
  8
0-0
  6
JWW_DASHED1
 62
   120
370
     5
100
AcDbLine
 10
-27.42988632510357
 20
593.3799813489521
 30
0.0
 11
52.57011367489529
 21
673.3799813489507
 31
0.0
  0
LINE
  5
17C
330
1F
100
AcDbEntity
  8
0-0
  6
JWW_DASHED1
 62
   120
370
     5
100
AcDbLine
 10
-27.42988632509505
 20
583.4804864137438
 30
0.0
 11
52.57011367490382
 21
663.4804864137427
 31
0.0
  0
LINE
  5
17D
330
1F
100
AcDbEntity
  8
0-0
  6
JWW_DASHED1
 62
   120
370
     5
100
AcDbLine
 10
-27.42988632511381
 20
573.5809914785634
 30
0.0
 11
52.57011367488506
 21
653.5809914785623
 31
0.0
  0
LINE
  5
17E
330
1F
100
AcDbEntity
  8
0-0
  6
JWW_DASHED1
 62
   120
370
     5
100
AcDbLine
 10
-27.42988632510528
 20
563.6814965433555
 30
0.0
 11
52.57011367489188
 21
643.681496543354
 31
0.0
  0
LINE
  5
17F
330
1F
100
AcDbEntity
  8
0-0
  6
JWW_DASHED1
 62
   120
370
     5
100
AcDbLine
 10
-27.42988632509675
 20
553.7820016081473
 30
0.0
 11
52.57011367490211
 21
633.7820016081466
 31
0.0
  0
LINE
  5
180
330
1F
100
AcDbEntity
  8
0-0
  6
JWW_DASHED1
 62
   120
370
     5
100
AcDbLine
 10
-27.42988632511722
 20
543.8825066729668
 30
0.0
 11
52.5701136748987
 21
623.8825066729814
 31
0.0
  0
LINE
  5
181
330
1F
100
AcDbEntity
  8
0-0
  6
JWW_DASHED1
 62
   120
370
     5
100
AcDbLine
 10
-27.42988632510698
 20
533.9830117377589
 30
0.0
 11
52.57011367489188
 21
613.9830117377574
 31
0.0
  0
LINE
  5
182
330
1F
100
AcDbEntity
  8
0-0
  6
JWW_DASHED1
 62
   120
370
     5
100
AcDbLine
 10
-27.42988632510016
 20
524.0835168025507
 30
0.0
 11
52.5701136748987
 21
604.0835168025495
 31
0.0
  0
LINE
  5
183
330
1F
100
AcDbEntity
  8
0-0
  6
JWW_DASHED1
 62
   120
370
     5
100
AcDbLine
 10
-27.42988632511722
 20
514.1840218673701
 30
0.0
 11
52.57011367489529
 21
594.1840218673843
 31
0.0
  0
LINE
  5
184
330
1F
100
AcDbEntity
  8
0-0
  6
JWW_DASHED1
 62
   120
370
     5
100
AcDbLine
 10
-27.4298863251104
 20
504.2845269321618
 30
0.0
 11
52.57011367488847
 21
584.2845269321607
 31
0.0
  0
LINE
  5
185
330
1F
100
AcDbEntity
  8
0-0
  6
JWW_DASHED1
 62
   120
370
     5
100
AcDbLine
 10
-27.42988632510187
 20
494.385031996954
 30
0.0
 11
52.5701136748987
 21
574.3850319969529
 31
0.0
  0
LINE
  5
186
330
1F
100
AcDbEntity
  8
0-0
  6
JWW_DASHED1
 62
   120
370
     5
100
AcDbLine
 10
-27.42988632512063
 20
484.4855370617735
 30
0.0
 11
52.57011367489358
 21
564.4855370617877
 31
0.0
  0
LINE
  5
187
330
1F
100
AcDbEntity
  8
0-0
  6
JWW_DASHED1
 62
   120
370
     5
100
AcDbLine
 10
-27.4298863251121
 20
474.5860421265652
 30
0.0
 11
52.57011367488676
 21
554.586042126564
 31
0.0
  0
LINE
  5
188
330
1F
100
AcDbEntity
  8
0-0
  6
JWW_DASHED1
 62
   120
370
     5
100
AcDbLine
 10
-27.42988632510357
 20
464.6865471913574
 30
0.0
 11
52.57011367489529
 21
544.6865471913563
 31
0.0
  0
LINE
  5
189
330
1F
100
AcDbEntity
  8
0-0
  6
JWW_DASHED1
 62
   120
370
     5
100
AcDbLine
 10
-27.42988632511722
 20
454.7870522561811
 30
0.0
 11
52.57011367489529
 21
534.7870522561949
 31
0.0
  0
LINE
  5
18A
330
1F
100
AcDbEntity
  8
0-0
  6
JWW_DASHED1
 62
   120
370
     5
100
AcDbLine
 10
-27.42988632511381
 20
444.8875573209687
 30
0.0
 11
52.5701136749004
 21
524.8875573209832
 31
0.0
  0
LINE
  5
18B
330
1F
100
AcDbEntity
  8
0-0
  6
JWW_DASHED1
 62
   120
370
     5
100
AcDbLine
 10
-27.42988632510698
 20
434.9880623857604
 30
0.0
 11
52.57011367489188
 21
514.9880623857592
 31
0.0
  0
LINE
  5
18C
330
1F
100
AcDbEntity
  8
0-0
  6
JWW_DASHED1
 62
   120
370
     5
100
AcDbLine
 10
-27.42988632509334
 20
425.0885674506114
 30
0.0
 11
52.57011367490552
 21
505.0885674506102
 31
0.0
  0
LINE
  5
18D
330
1F
100
AcDbEntity
  8
0-0
  6
JWW_DASHED1
 62
   120
370
     5
100
AcDbLine
 10
-27.42988632511722
 20
415.189072515372
 30
0.0
 11
52.5701136748987
 21
495.1890725153867
 31
0.0
  0
LINE
  5
18E
330
1F
100
AcDbEntity
  8
0-0
  6
JWW_DASHED1
 62
   120
370
     5
100
AcDbLine
 10
-27.42988632510698
 20
405.2895775801642
 30
0.0
 11
52.57011367489188
 21
485.2895775801626
 31
0.0
  0
LINE
  5
18F
330
1F
100
AcDbEntity
  8
0-0
  6
JWW_DASHED1
 62
   120
370
     5
100
AcDbLine
 10
-27.42988632509675
 20
395.3900826450148
 30
0.0
 11
52.57011367490211
 21
475.3900826450136
 31
0.0
  0
LINE
  5
190
330
1F
100
AcDbEntity
  8
0-0
  6
JWW_DASHED1
 62
   120
370
     5
100
AcDbLine
 10
-27.42988632511892
 20
385.4905877097754
 30
0.0
 11
52.57011367489529
 21
465.49058770979
 31
0.0
  0
LINE
  5
191
330
1F
100
AcDbEntity
  8
0-0
  6
JWW_DASHED1
 62
   120
370
     5
100
AcDbLine
 10
-27.4298863251104
 20
375.5910927745671
 30
0.0
 11
52.57011367488847
 21
455.591092774566
 31
0.0
  0
LINE
  5
192
330
1F
100
AcDbEntity
  8
0-0
  6
JWW_DASHED1
 62
   120
370
     5
100
AcDbLine
 10
-27.42988632509675
 20
365.6915978394181
 30
0.0
 11
52.57011367490211
 21
445.691597839417
 31
0.0
  0
LINE
  5
193
330
1F
100
AcDbEntity
  8
0-0
  6
JWW_DASHED1
 62
   120
370
     5
100
AcDbLine
 10
-27.42988632511551
 20
355.7921029041839
 30
0.0
 11
52.5701136748987
 21
435.7921029041977
 31
0.0
  0
LINE
  5
194
330
1F
100
AcDbEntity
  8
0-0
  6
JWW_DASHED1
 62
   120
370
     5
100
AcDbLine
 10
-27.42988632511381
 20
345.8926079689705
 30
0.0
 11
52.57011367488506
 21
425.8926079689694
 31
0.0
  0
LINE
  5
195
330
1F
100
AcDbEntity
  8
0-0
  6
JWW_DASHED1
 62
   120
370
     5
100
AcDbLine
 10
-27.42988632510016
 20
335.9931130338215
 30
0.0
 11
52.5701136748987
 21
415.9931130338208
 31
0.0
  0
LINE
  5
196
330
1F
100
AcDbEntity
  8
0-0
  6
JWW_DASHED1
 62
   120
370
     5
100
AcDbLine
 10
-27.42988632510698
 20
326.0936180985975
 30
0.0
 11
52.57011367490723
 21
406.0936180986121
 31
0.0
  0
LINE
  5
197
330
1F
100
AcDbEntity
  8
0-0
  6
JWW_DASHED1
 62
   120
370
     5
100
AcDbLine
 10
-27.42988632511381
 20
316.1941231633739
 30
0.0
 11
52.5701136748987
 21
396.1941231633886
 31
0.0
  0
LINE
  5
198
330
1F
100
AcDbEntity
  8
0-0
  6
JWW_DASHED1
 62
   120
370
     5
100
AcDbLine
 10
-27.42988632510187
 20
306.2946282282249
 30
0.0
 11
52.57011367489529
 21
386.2946282282238
 31
0.0
  0
LINE
  5
199
330
1F
100
AcDbEntity
  8
0-0
  6
JWW_DASHED1
 62
   120
370
     5
100
AcDbLine
 10
-27.42988632509334
 20
296.3951332930171
 30
0.0
 11
52.57011367490552
 21
376.3951332930155
 31
0.0
  0
LINE
  5
19A
330
1F
100
AcDbEntity
  8
0-0
  6
JWW_DASHED1
 62
   120
370
     5
100
AcDbLine
 10
-27.42988632511722
 20
286.4956383577777
 30
0.0
 11
52.5701136748987
 21
366.4956383577919
 31
0.0
  0
LINE
  5
19B
330
1F
100
AcDbEntity
  8
0-0
  6
JWW_DASHED1
 62
   120
370
     5
100
AcDbLine
 10
-27.42988632510357
 20
276.5961434226278
 30
0.0
 11
52.57011367489529
 21
356.5961434226267
 31
0.0
  0
LINE
  5
19C
330
1F
100
AcDbEntity
  8
0-0
  6
JWW_DASHED1
 62
   120
370
     5
100
AcDbLine
 10
-27.42988632509675
 20
266.69664848742
 30
0.0
 11
52.57011367490211
 21
346.6966484874189
 31
0.0
  0
LINE
  5
19D
330
1F
100
AcDbEntity
  8
0-0
  6
JWW_DASHED1
 62
   120
370
     5
100
AcDbLine
 10
-27.42988632511892
 20
256.7971535521806
 30
0.0
 11
52.57011367489529
 21
336.7971535521949
 31
0.0
  0
LINE
  5
19E
330
1F
100
AcDbEntity
  8
0-0
  6
JWW_DASHED1
 62
   120
370
     5
100
AcDbLine
 10
-27.42988632510698
 20
246.8976586170312
 30
0.0
 11
52.57011367489188
 21
326.8976586170305
 31
0.0
  0
LINE
  5
19F
330
1F
100
AcDbEntity
  8
0-0
  6
JWW_DASHED1
 62
   120
370
     5
100
AcDbLine
 10
-27.42988632509675
 20
236.9981636818238
 30
0.0
 11
52.5701136749004
 21
316.9981636818222
 31
0.0
  0
LINE
  5
1A0
330
1F
100
AcDbEntity
  8
0-0
  6
JWW_DASHED1
 62
   120
370
     5
100
AcDbLine
 10
-27.42988632511381
 20
227.0986687465904
 30
0.0
 11
52.5701136748987
 21
307.0986687466038
 31
0.0
  0
LINE
  5
1A1
330
1F
100
AcDbEntity
  8
0-0
  6
JWW_DASHED1
 62
   120
370
     5
100
AcDbLine
 10
-27.42988632510869
 20
217.1991738114346
 30
0.0
 11
52.57011367489017
 21
297.1991738114335
 31
0.0
  0
LINE
  5
1A2
330
1F
100
AcDbEntity
  8
0-0
  6
JWW_DASHED1
 62
   120
370
     5
100
AcDbLine
 10
-27.42988632510016
 20
207.2996788762268
 30
0.0
 11
52.5701136748987
 21
287.2996788762256
 31
0.0
  0
LINE
  5
1A3
330
1F
100
AcDbEntity
  8
0-0
  6
JWW_DASHED1
 62
   120
370
     5
100
AcDbLine
 10
-27.42988632509334
 20
197.4001839410185
 30
0.0
 11
52.57011367490552
 21
277.4001839410174
 31
0.0
  0
LINE
  5
1A4
330
1F
100
AcDbEntity
  8
0-0
  6
JWW_DASHED1
 62
   120
370
     5
100
AcDbLine
 10
-27.4298863251104
 20
187.500689005838
 30
0.0
 11
52.57011367488847
 21
267.5006890058369
 31
0.0
  0
LINE
  5
1A5
330
1F
100
AcDbEntity
  8
0-0
  6
JWW_DASHED1
 62
   120
370
     5
100
AcDbLine
 10
-27.42988632510357
 20
177.6011940706306
 30
0.0
 11
52.57011367489529
 21
257.6011940706286
 31
0.0
  0
LINE
  5
1A6
330
1F
100
AcDbEntity
  8
0-0
  6
JWW_DASHED1
 62
   120
370
     5
100
AcDbLine
 10
-27.42988632509334
 20
167.7016991354219
 30
0.0
 11
52.57011367490552
 21
247.7016991354208
 31
0.0
  0
LINE
  5
1A7
330
1F
100
AcDbEntity
  8
0-0
  6
JWW_DASHED1
 62
   120
370
     5
100
AcDbLine
 10
-27.42988632511381
 20
157.8022042002414
 30
0.0
 11
52.57011367490211
 21
237.802204200256
 31
0.0
  0
LINE
  5
1A8
330
1F
100
AcDbEntity
  8
0-0
  6
JWW_DASHED1
 62
   120
370
     5
100
AcDbLine
 10
-27.42988632510357
 20
147.9027092650335
 30
0.0
 11
52.57011367489358
 21
227.902709265032
 31
0.0
  0
LINE
  5
1A9
330
1F
100
AcDbEntity
  8
0-0
  6
JWW_DASHED1
 62
   120
370
     5
100
AcDbLine
 10
-27.42988632509675
 20
138.0032143298253
 30
0.0
 11
52.57011367490211
 21
218.0032143298246
 31
0.0
  0
LINE
  5
1AA
330
1F
100
AcDbEntity
  8
0-0
  6
JWW_DASHED1
 62
   120
370
     5
100
AcDbLine
 10
-27.42988632511381
 20
128.1037193946447
 30
0.0
 11
52.5701136748987
 21
208.1037193946594
 31
0.0
  0
LINE
  5
1AB
330
1F
100
AcDbEntity
  8
0-0
  6
JWW_DASHED1
 62
   120
370
     5
100
AcDbLine
 10
-27.42988632510698
 20
118.2042244594365
 30
0.0
 11
52.57011367489188
 21
198.2042244594354
 31
0.0
  0
LINE
  5
1AC
330
1F
100
AcDbEntity
  8
0-0
  6
JWW_DASHED1
 62
   120
370
     5
100
AcDbLine
 10
-27.42988632509846
 20
108.3047295242287
 30
0.0
 11
52.5701136749004
 21
188.3047295242275
 31
0.0
  0
LINE
  5
1AD
330
1F
100
AcDbEntity
  8
0-0
  6
JWW_DASHED1
 62
   120
370
     5
100
AcDbLine
 10
-27.42988632511722
 20
98.40523458904812
 30
0.0
 11
52.57011367489699
 21
178.4052345890623
 31
0.0
  0
LINE
  5
1AE
330
1F
100
AcDbEntity
  8
0-0
  6
JWW_DASHED1
 62
   120
370
     5
100
AcDbLine
 10
-27.4298863251104
 20
88.5057396538403
 30
0.0
 11
52.57011367488847
 21
168.5057396538387
 31
0.0
  0
LINE
  5
1AF
330
1F
100
AcDbEntity
  8
0-0
  6
JWW_DASHED1
 62
   120
370
     5
100
AcDbLine
 10
-27.42988632510016
 20
78.60624471863204
 30
0.0
 11
52.5701136748987
 21
158.6062447186305
 31
0.0
  0
LINE
  5
1B0
330
1F
100
AcDbEntity
  8
0-0
  6
JWW_DASHED1
 62
   120
370
     5
100
AcDbLine
 10
-27.4298863251121
 20
68.70674978345875
 30
0.0
 11
52.57011367490211
 21
148.706749783473
 31
0.0
  0
LINE
  5
1B1
330
1F
100
AcDbEntity
  8
0-0
  6
JWW_DASHED1
 62
   120
370
     5
100
AcDbLine
 10
-27.4298863251104
 20
58.80725484824325
 30
0.0
 11
52.57011367488847
 21
138.8072548482421
 31
0.0
  0
LINE
  5
1B2
330
1F
100
AcDbEntity
  8
0-0
  6
JWW_DASHED1
 62
   120
370
     5
100
AcDbLine
 10
-27.42988632509846
 20
48.90775991309425
 30
0.0
 11
52.5701136748987
 21
128.9077599130931
 31
0.0
  0
LINE
  5
1B3
330
1F
100
AcDbEntity
  8
0-0
  6
JWW_DASHED1
 62
   120
370
     5
100
AcDbLine
 10
-27.42988632510698
 20
39.00826497787023
 30
0.0
 11
52.57011367490893
 21
119.0082649778849
 31
0.0
  0
LINE
  5
1B4
330
1F
100
AcDbEntity
  8
0-0
  6
JWW_DASHED1
 62
   120
370
     5
100
AcDbLine
 10
-27.42988632511381
 20
29.10877004264705
 30
0.0
 11
52.57011367490211
 21
109.1087700426613
 31
0.0
  0
LINE
  5
1B5
330
1F
100
AcDbEntity
  8
0-0
  6
JWW_DASHED1
 62
   120
370
     5
100
AcDbLine
 10
-27.42988632510016
 20
19.20927510749721
 30
0.0
 11
52.5701136748987
 21
99.20927510749607
 31
0.0
  0
LINE
  5
1B6
330
1F
100
AcDbEntity
  8
0-0
  6
JWW_DASHED1
 62
   120
370
     5
100
AcDbLine
 10
-27.42988632509334
 20
9.30978017228938
 30
0.0
 11
52.57011367490552
 21
89.30978017228824
 31
0.0
  0
LINE
  5
1B7
330
1F
100
AcDbEntity
  8
0-0
  6
JWW_DASHED1
 62
   120
370
     5
100
AcDbLine
 10
-27.42988632511551
 20
-0.5897147629499955
 30
0.0
 11
52.5701136748987
 21
79.41028523706422
 31
0.0
  0
LINE
  5
1B8
330
1F
100
AcDbEntity
  8
0-0
  6
JWW_DASHED1
 62
   120
370
     5
100
AcDbLine
 10
-27.42988632510357
 20
-10.48920969809942
 30
0.0
 11
52.57011367489529
 21
69.51079030189987
 31
0.0
  0
LINE
  5
1B9
330
1F
100
AcDbEntity
  8
0-0
  6
JWW_DASHED1
 62
   120
370
     5
100
AcDbLine
 10
-27.42988632509334
 20
-20.38870463330682
 30
0.0
 11
52.57011367490382
 21
59.61129536669162
 31
0.0
  0
LINE
  5
1BA
330
1F
100
AcDbEntity
  8
0-0
  6
JWW_DASHED1
 62
   120
370
     5
100
AcDbLine
 10
-27.4298863251104
 20
-30.28819956853852
 30
0.0
 11
52.57011367490382
 21
49.71180043147527
 31
0.0
  0
LINE
  5
1BB
330
1F
100
AcDbEntity
  8
0-0
  6
JWW_DASHED1
 62
   120
370
     5
100
AcDbLine
 10
-27.42988632510528
 20
-40.18769450369604
 30
0.0
 11
52.57011367489358
 21
39.81230549630283
 31
0.0
  0
LINE
  5
1BC
330
1F
100
AcDbEntity
  8
0-0
  6
JWW_DASHED1
 62
   120
370
     5
100
AcDbLine
 10
-27.42988632509675
 20
-50.08718943890386
 30
0.0
 11
52.57011367490211
 21
29.912810561095
 31
0.0
  0
LINE
  5
1BD
330
1F
100
AcDbEntity
  8
0-0
  6
JWW_DASHED1
 62
   120
370
     5
100
AcDbLine
 10
-27.42988632510357
 20
-59.98668437412789
 30
0.0
 11
52.57011367490893
 21
20.01331562588717
 31
0.0
  0
LINE
  5
1BE
330
1F
100
AcDbEntity
  8
0-0
  6
JWW_DASHED1
 62
   120
370
     5
100
AcDbLine
 10
-27.42988632510698
 20
-69.88617930929223
 30
0.0
 11
52.57011367489188
 21
10.11382069070621
 31
0.0
  0
LINE
  5
1BF
330
1F
100
AcDbEntity
  8
0-0
  6
JWW_DASHED1
 62
   120
370
     5
100
AcDbLine
 10
-27.42988632510016
 20
-79.78567424450048
 30
0.0
 11
52.5701136748987
 21
0.2143257554979527
 31
0.0
  0
LINE
  5
1C0
330
1F
100
AcDbEntity
  8
0-0
  6
JWW_DASHED1
 62
   120
370
     5
100
AcDbLine
 10
-27.42988632508993
 20
-89.68516917970874
 30
0.0
 11
52.57011367490893
 21
-9.685169179709874
 31
0.0
  0
LINE
  5
1C1
330
1F
100
AcDbEntity
  8
0-0
  6
JWW_DASHED1
 62
   120
370
     5
100
AcDbLine
 10
-27.4298863251104
 20
-99.58466411488928
 30
0.0
 11
52.57011367488847
 21
-19.58466411489042
 31
0.0
  0
LINE
  5
1C2
330
1F
100
AcDbEntity
  8
0-0
  6
JWW_DASHED1
 62
   120
370
     5
100
AcDbLine
 10
-27.42988632510016
 20
-109.4841590500971
 30
0.0
 11
52.5701136748987
 21
-29.48415905009867
 31
0.0
  0
LINE
  5
1C3
330
1F
100
AcDbEntity
  8
0-0
  6
JWW_DASHED1
 62
   120
370
     5
100
AcDbLine
 10
-27.42988632509334
 20
-119.3836539853054
 30
0.0
 11
52.57011367490552
 21
-39.38365398530649
 31
0.0
  0
LINE
  5
1C4
330
1F
100
AcDbEntity
  8
0-0
  6
JWW_DASHED1
 62
   120
370
     5
100
AcDbLine
 10
-27.4298863251121
 20
-129.2831489204863
 30
0.0
 11
52.57011367490211
 21
-49.28314892047126
 31
0.0
  0
LINE
  5
1C5
330
1F
100
AcDbEntity
  8
0-0
  6
JWW_DASHED1
 62
   120
370
     5
100
AcDbLine
 10
-27.42988632510357
 20
-139.1826438556942
 30
0.0
 11
52.57011367489529
 21
-59.18264385569529
 31
0.0
  0
LINE
  5
1C6
330
1F
100
AcDbEntity
  8
0-0
  6
JWW_DASHED1
 62
   120
370
     5
100
AcDbLine
 10
-27.42988632509505
 20
-149.082138790902
 30
0.0
 11
52.57011367490382
 21
-69.08213879090312
 31
0.0
  0
LINE
  5
1C7
330
1F
100
AcDbEntity
  8
0-0
  6
JWW_DASHED1
 62
   120
370
     5
100
AcDbLine
 10
-27.42988632511381
 20
-158.9816337260825
 30
0.0
 11
52.5701136749004
 21
-78.98163372606831
 31
0.0
  0
LINE
  5
1C8
330
1F
100
AcDbEntity
  8
0-0
  6
JWW_DASHED1
 62
   120
370
     5
100
AcDbLine
 10
-27.42988632510698
 20
-168.8811286612908
 30
0.0
 11
52.57011367489188
 21
-88.88112866129148
 31
0.0
  0
LINE
  5
1C9
330
1F
100
AcDbEntity
  8
0-0
  6
JWW_DASHED1
 62
   120
370
     5
100
AcDbLine
 10
-27.42988632509675
 20
-178.7806235964986
 30
0.0
 11
52.57011367490211
 21
-98.78062359649974
 31
0.0
  0
LINE
  5
1CA
330
1F
100
AcDbEntity
  8
0-0
  6
JWW_DASHED1
 62
   120
370
     5
100
AcDbLine
 10
-27.42988632511722
 20
-188.6801185316796
 30
0.0
 11
52.5701136748987
 21
-108.6801185316649
 31
0.0
  0
LINE
  5
1CB
330
1F
100
AcDbEntity
  8
0-0
  6
JWW_DASHED1
 62
   120
370
     5
100
AcDbLine
 10
-27.42988632510698
 20
-198.5796134668874
 30
0.0
 11
52.57011367489188
 21
-118.5796134668885
 31
0.0
  0
LINE
  5
1CC
330
1F
100
AcDbEntity
  8
0-0
  6
JWW_DASHED1
 62
   120
370
     5
100
AcDbLine
 10
-27.42988632510016
 20
-208.4791084020952
 30
0.0
 11
52.5701136748987
 21
-128.4791084020964
 31
0.0
  0
LINE
  5
1CD
330
1F
100
AcDbEntity
  8
0-0
  6
JWW_DASHED1
 62
   120
370
     5
100
AcDbLine
 10
-27.42988632510869
 20
-218.3786033372664
 30
0.0
 11
52.57011367490552
 21
-138.3786033372522
 31
0.0
  0
LINE
  5
1CE
330
1F
100
AcDbEntity
  8
0-0
  6
JWW_DASHED1
 62
   120
370
     5
100
AcDbLine
 10
-27.4298863251104
 20
-228.278098272484
 30
0.0
 11
52.57011367488847
 21
-148.2780982724856
 31
0.0
  0
LINE
  5
1CF
330
1F
100
AcDbEntity
  8
0-0
  6
JWW_DASHED1
 62
   120
370
     5
100
AcDbLine
 10
-27.42988632510187
 20
-238.1775932076918
 30
0.0
 11
52.57011367489699
 21
-158.1775932076934
 31
0.0
  0
LINE
  5
1D0
330
1F
100
AcDbEntity
  8
0-0
  6
JWW_DASHED1
 62
   120
370
     5
100
AcDbLine
 10
-27.42988632510357
 20
-248.0770881428566
 30
0.0
 11
52.57011367490893
 21
-168.0770881428424
 31
0.0
  0
LINE
  5
1D1
330
1F
100
AcDbEntity
  8
0-0
  6
JWW_DASHED1
 62
   120
370
     5
100
AcDbLine
 10
-27.4298863251121
 20
-257.9765830780806
 30
0.0
 11
52.57011367490211
 21
-177.976583078066
 31
0.0
  0
LINE
  5
1D2
330
1F
100
AcDbEntity
  8
0-0
  6
JWW_DASHED1
 62
   120
370
     5
100
AcDbLine
 10
-27.42988632510357
 20
-267.8760780132889
 30
0.0
 11
52.57011367489529
 21
-187.8760780132896
 31
0.0
  0
LINE
  5
1D3
330
1F
100
AcDbEntity
  8
0-0
  6
JWW_DASHED1
 62
   120
370
     5
100
AcDbLine
 10
-27.42988632508993
 20
-277.7755729484375
 30
0.0
 11
52.57011367490723
 21
-197.7755729484394
 31
0.0
  0
LINE
  5
1D4
330
1F
100
AcDbEntity
  8
0-0
  6
JWW_DASHED1
 62
   120
370
     5
100
AcDbLine
 10
-27.42988632511381
 20
-287.6750678836777
 30
0.0
 11
52.5701136748987
 21
-207.6750678836626
 31
0.0
  0
LINE
  5
1D5
330
1F
100
AcDbEntity
  8
0-0
  6
JWW_DASHED1
 62
   120
370
     5
100
AcDbLine
 10
-27.42988632510698
 20
-297.5745628188855
 30
0.0
 11
52.57011367489188
 21
-217.5745628188866
 31
0.0
  0
LINE
  5
1D6
330
1F
100
AcDbEntity
  8
0-0
  6
JWW_DASHED1
 62
   120
370
     5
100
AcDbLine
 10
-27.42988632509334
 20
-307.4740577540345
 30
0.0
 11
52.57011367490552
 21
-227.4740577540356
 31
0.0
  0
LINE
  5
1D7
330
1F
100
AcDbEntity
  8
0-0
  6
JWW_DASHED1
 62
   120
370
     5
100
AcDbLine
 10
-27.42988632510698
 20
-317.3735526892636
 30
0.0
 11
52.57011367490893
 21
-237.3735526892494
 31
0.0
  0
LINE
  5
1D8
330
1F
100
AcDbEntity
  8
0-0
  6
JWW_DASHED1
 62
   120
370
     5
100
AcDbLine
 10
-27.42988632510869
 20
-327.2730476244822
 30
0.0
 11
52.57011367489017
 21
-247.2730476244833
 31
0.0
  0
LINE
  5
1D9
330
1F
100
AcDbEntity
  8
0-0
  6
JWW_DASHED1
 62
   120
370
     5
100
AcDbLine
 10
-27.42988632509675
 20
-337.1725425596311
 30
0.0
 11
52.57011367490211
 21
-257.1725425596327
 31
0.0
  0
LINE
  5
1DA
330
1F
100
AcDbEntity
  8
0-0
  6
JWW_DASHED1
 62
   120
370
     5
100
AcDbLine
 10
-27.42988632510357
 20
-347.0720374948552
 30
0.0
 11
52.57011367491234
 21
-267.0720374948405
 31
0.0
  0
LINE
  5
1DB
330
1F
100
AcDbEntity
  8
0-0
  6
JWW_DASHED1
 62
   120
370
     5
100
AcDbLine
 10
-27.4298863251104
 20
-356.9715324300788
 30
0.0
 11
52.57011367490382
 21
-276.9715324300641
 31
0.0
  0
LINE
  5
1DC
330
1F
100
AcDbEntity
  8
0-0
  6
JWW_DASHED1
 62
   120
370
     5
100
AcDbLine
 10
-27.42988632509675
 20
-366.8710273652277
 30
0.0
 11
52.57011367490211
 21
-286.8710273652289
 31
0.0
  0
LINE
  5
1DD
330
1F
100
AcDbEntity
  8
0-0
  6
JWW_DASHED1
 62
   120
370
     5
100
AcDbLine
 10
-27.42988632508993
 20
-376.7705223004356
 30
0.0
 11
52.57011367490893
 21
-296.7705223004372
 31
0.0
  0
LINE
  5
1DE
330
1F
100
AcDbEntity
  8
0-0
  6
JWW_DASHED1
 62
   120
370
     5
100
AcDbLine
 10
-27.42988632511381
 20
-386.6700172356758
 30
0.0
 11
52.57011367490211
 21
-306.6700172356611
 31
0.0
  0
LINE
  5
1DF
330
1F
100
AcDbEntity
  8
0-0
  6
JWW_DASHED1
 62
   120
370
     5
100
AcDbLine
 10
-27.42988632510016
 20
-396.5695121708248
 30
0.0
 11
52.5701136748987
 21
-316.5695121708259
 31
0.0
  0
LINE
  5
1E0
330
1F
100
AcDbEntity
  8
0-0
  6
JWW_DASHED1
 62
   120
370
     5
100
AcDbLine
 10
-27.42988632509164
 20
-406.4690071060326
 30
0.0
 11
52.57011367490552
 21
-326.4690071060338
 31
0.0
  0
LINE
  5
1E1
330
1F
100
AcDbEntity
  8
0-0
  6
JWW_DASHED1
 62
   120
370
     5
100
AcDbLine
 10
-27.42988632511551
 20
-416.3685020412724
 30
0.0
 11
52.5701136748987
 21
-336.3685020412578
 31
0.0
  0
LINE
  5
1E2
330
1F
100
AcDbEntity
  8
0-0
  6
JWW_DASHED1
 62
   120
370
     5
100
AcDbLine
 10
-27.42988632510357
 20
-426.2679969764214
 30
0.0
 11
52.57011367489529
 21
-346.2679969764221
 31
0.0
  0
LINE
  5
1E3
330
1F
100
AcDbEntity
  8
0-0
  6
JWW_DASHED1
 62
   120
370
     5
100
AcDbLine
 10
-27.42988632509334
 20
-436.1674919116297
 30
0.0
 11
52.57011367490552
 21
-356.1674919116308
 31
0.0
  0
LINE
  5
1E4
330
1F
100
AcDbEntity
  8
0-0
  6
JWW_DASHED1
 62
   120
370
     5
100
AcDbLine
 10
-27.42988632510528
 20
-446.0669868468571
 30
0.0
 11
52.57011367490893
 21
-366.0669868468433
 31
0.0
  0
LINE
  5
1E5
330
1F
100
AcDbEntity
  8
0-0
  6
JWW_DASHED1
 62
   120
370
     5
100
AcDbLine
 10
-27.42988632510357
 20
-455.966481782018
 30
0.0
 11
52.57011367489529
 21
-375.9664817820192
 31
0.0
  0
LINE
  5
1E6
330
1F
100
AcDbEntity
  8
0-0
  6
JWW_DASHED1
 62
   120
370
     5
100
AcDbLine
 10
-27.42988632509675
 20
-465.8659767172259
 30
0.0
 11
52.57011367490211
 21
-385.865976717227
 31
0.0
  0
LINE
  5
1E7
330
1F
100
AcDbEntity
  8
0-0
  6
JWW_DASHED1
 62
   120
370
     5
100
AcDbLine
 10
-27.42988632508652
 20
-475.7654716524337
 30
0.0
 11
52.57011367491234
 21
-395.7654716524353
 31
0.0
  0
LINE
  5
1E8
330
1F
100
AcDbEntity
  8
0-0
  6
JWW_DASHED1
 62
   120
370
     5
100
AcDbLine
 10
-27.42988632510698
 20
-485.6649665876147
 30
0.0
 11
52.57011367489188
 21
-405.6649665876158
 31
0.0
  0
LINE
  5
1E9
330
1F
100
AcDbEntity
  8
0-0
  6
JWW_DASHED1
 62
   120
370
     5
100
AcDbLine
 10
-27.42988632509846
 20
-495.5644615228229
 30
0.0
 11
52.5701136749004
 21
-415.564461522824
 31
0.0
  0
LINE
  5
1EA
330
1F
100
AcDbEntity
  8
0-0
  6
JWW_DASHED1
 62
   120
370
     5
100
AcDbLine
 10
-27.42988632508993
 20
-505.4639564580307
 30
0.0
 11
52.57011367490893
 21
-425.4639564580319
 31
0.0
  0
LINE
  5
1EB
330
1F
100
AcDbEntity
  8
0-0
  6
JWW_DASHED1
 62
   120
370
     5
100
AcDbLine
 10
-27.42988632510869
 20
-515.3634513932113
 30
0.0
 11
52.57011367490552
 21
-435.3634513931971
 31
0.0
  0
LINE
  5
1EC
330
1F
100
AcDbEntity
  8
0-0
  6
JWW_DASHED1
 62
   120
370
     5
100
AcDbLine
 10
-27.42988632510016
 20
-525.262946328419
 30
0.0
 11
52.5701136748987
 21
-445.2629463284202
 31
0.0
  0
LINE
  5
1ED
330
1F
100
AcDbEntity
  8
0-0
  6
JWW_DASHED1
 62
   120
370
     5
100
AcDbLine
 10
-27.42988632508993
 20
-535.1624412635979
 30
0.0
 11
52.57011367490893
 21
-455.1624412635991
 31
0.0
  0
LINE
  5
1EE
330
1F
100
AcDbEntity
  8
0-0
  6
JWW_DASHED1
 62
   120
370
     5
100
AcDbLine
 10
-27.4298863251104
 20
-545.0619361988083
 30
0.0
 11
52.57011367490211
 21
-465.0619361987933
 31
0.0
  0
LINE
  5
1EF
330
1F
100
AcDbEntity
  8
0-0
  6
JWW_DASHED1
 62
   120
370
     5
100
AcDbLine
 10
-27.42988632510357
 20
-554.9614311340162
 30
0.0
 11
52.57011367489529
 21
-474.9614311340173
 31
0.0
  0
LINE
  5
1F0
330
1F
100
AcDbEntity
  8
0-0
  6
JWW_DASHED1
 62
   120
370
     5
100
AcDbLine
 10
-27.42988632509334
 20
-564.860926069195
 30
0.0
 11
52.57011367490552
 21
-484.8609260691961
 31
0.0
  0
LINE
  5
1F1
330
1F
100
AcDbEntity
  8
0-0
  6
JWW_DASHED1
 62
   120
370
     5
100
AcDbLine
 10
-27.42988632511381
 20
-574.760421004405
 30
0.0
 11
52.57011367490211
 21
-494.7604210043903
 31
0.0
  0
LINE
  5
1F2
330
1F
100
AcDbEntity
  8
0-0
  6
JWW_DASHED1
 62
   120
370
     5
100
AcDbLine
 10
-27.42988632510357
 20
-584.6599159396123
 30
0.0
 11
52.57011367489358
 21
-504.6599159396139
 31
0.0
  0
LINE
  5
1F3
330
1F
100
AcDbEntity
  8
0-0
  6
JWW_DASHED1
 62
   120
370
     5
100
AcDbLine
 10
-27.42988632509334
 20
-594.5594108747617
 30
0.0
 11
52.57011367490552
 21
-514.5594108747633
 31
0.0
  0
LINE
  5
1F4
330
1F
100
AcDbEntity
  8
0-0
  6
JWW_DASHED1
 62
   120
370
     5
100
AcDbLine
 10
-27.42988632510357
 20
-604.4589058099888
 30
0.0
 11
52.57011367491234
 21
-524.4589058099746
 31
0.0
  0
LINE
  5
1F5
330
1F
100
AcDbEntity
  8
0-0
  6
JWW_DASHED1
 62
   120
370
     5
100
AcDbLine
 10
-27.42988632510698
 20
-614.3584007452093
 30
0.0
 11
52.57011367489188
 21
-534.3584007452105
 31
0.0
  0
LINE
  5
1F6
330
1F
100
AcDbEntity
  8
0-0
  6
JWW_DASHED1
 62
   120
370
     5
100
AcDbLine
 10
-27.42988632509334
 20
-624.2578956803584
 30
0.0
 11
52.57011367490552
 21
-544.2578956803595
 31
0.0
  0
LINE
  5
1F7
330
1F
100
AcDbEntity
  8
0-0
  6
JWW_DASHED1
 62
   120
370
     5
100
AcDbLine
 10
-27.42988632510187
 20
-634.1573906155825
 30
0.0
 11
52.57011367491234
 21
-554.1573906155678
 31
0.0
  0
LINE
  5
1F8
330
1F
100
AcDbEntity
  8
0-0
  6
JWW_DASHED1
 62
   120
370
     5
100
AcDbLine
 10
-27.4298863251104
 20
-644.0568855508064
 30
0.0
 11
52.57011367490552
 21
-564.0568855507913
 31
0.0
  0
LINE
  5
1F9
330
1F
100
AcDbEntity
  8
0-0
  6
JWW_DASHED1
 62
   120
370
     5
100
AcDbLine
 10
-27.42988632509675
 20
-653.9563804859554
 30
0.0
 11
52.57011367490211
 21
-573.9563804859565
 31
0.0
  0
LINE
  5
1FA
330
1F
100
AcDbEntity
  8
0-0
  6
JWW_DASHED1
 62
   120
370
     5
100
AcDbLine
 10
-27.42988632508823
 20
-663.8558754211633
 30
0.0
 11
52.57011367491064
 21
-583.8558754211645
 31
0.0
  0
LINE
  5
1FB
330
1F
100
AcDbEntity
  8
0-0
  6
JWW_DASHED1
 62
   120
370
     5
100
AcDbLine
 10
-27.4298863251104
 20
-673.7553703564026
 30
0.0
 11
52.57011367490211
 21
-593.7553703563884
 31
0.0
  0
LINE
  5
1FC
330
1F
100
AcDbEntity
  8
0-0
  6
JWW_DASHED1
 62
   120
370
     5
100
AcDbLine
 10
-27.42988632509846
 20
-683.6548652915517
 30
0.0
 11
52.5701136748987
 21
-603.6548652915532
 31
0.0
  0
LINE
  5
1FD
330
1F
100
AcDbEntity
  8
0-0
  6
JWW_DASHED1
 62
   120
370
     5
100
AcDbLine
 10
-27.42988632508993
 20
-693.5543602267599
 30
0.0
 11
52.57011367490893
 21
-613.554360226761
 31
0.0
  0
LINE
  5
1FE
330
1F
100
AcDbEntity
  8
0-0
  6
JWW_DASHED1
 62
   120
370
     5
100
AcDbLine
 10
-27.42988632511381
 20
-703.4538551619996
 30
0.0
 11
52.5701136749004
 21
-623.4538551619846
 31
0.0
  0
LINE
  5
1FF
330
1F
100
AcDbEntity
  8
0-0
  6
JWW_DASHED1
 62
   120
370
     5
100
AcDbLine
 10
-27.42988632510016
 20
-713.3533500971487
 30
0.0
 11
52.5701136748987
 21
-633.3533500971498
 31
0.0
  0
LINE
  5
200
330
1F
100
AcDbEntity
  8
0-0
  6
JWW_DASHED1
 62
   120
370
     5
100
AcDbLine
 10
-27.42988632509334
 20
-723.2528450323565
 30
0.0
 11
52.57011367490552
 21
-643.2528450323576
 31
0.0
  0
LINE
  5
201
330
1F
100
AcDbEntity
  8
0-0
  6
JWW_DASHED1
 62
   120
370
     5
100
AcDbLine
 10
-27.42988632510187
 20
-733.1523399675823
 30
0.0
 11
52.57011367491234
 21
-653.152339967568
 31
0.0
  0
LINE
  5
202
330
1F
100
AcDbEntity
  8
0-0
  6
JWW_DASHED1
 62
   120
370
     5
100
AcDbLine
 10
-27.42988632510357
 20
-743.0518349027449
 30
0.0
 11
52.57011367489529
 21
-663.0518349027465
 31
0.0
  0
LINE
  5
203
330
1F
100
AcDbEntity
  8
0-0
  6
JWW_DASHED1
 62
   120
370
     5
100
AcDbLine
 10
-27.42988632509505
 20
-752.9513298379536
 30
0.0
 11
52.57011367490382
 21
-672.9513298379547
 31
0.0
  0
LINE
  5
204
330
1F
100
AcDbEntity
  8
0-0
  6
JWW_DASHED1
 62
   120
370
     5
100
AcDbLine
 10
-27.42988632508652
 20
-762.8508247731613
 30
0.0
 11
52.57011367491234
 21
-682.8508247731625
 31
0.0
  0
LINE
  5
205
330
1F
100
AcDbEntity
  8
0-0
  6
JWW_DASHED1
 62
   120
370
     5
100
AcDbLine
 10
-27.42988632510528
 20
-772.750319708342
 30
0.0
 11
52.57011367489188
 21
-692.7503197083431
 31
0.0
  0
LINE
  5
206
330
1F
100
AcDbEntity
  8
0-0
  6
JWW_DASHED1
 62
   120
370
     5
100
AcDbLine
 10
-27.42988632509675
 20
-782.6498146435497
 30
0.0
 11
52.57011367490211
 21
-702.6498146435513
 31
0.0
  0
LINE
  5
207
330
1F
100
AcDbEntity
  8
0-0
  6
JWW_DASHED1
 62
   120
370
     5
100
AcDbLine
 10
-27.42988632508993
 20
-792.549309578758
 30
0.0
 11
52.57011367490893
 21
-712.5493095787591
 31
0.0
  0
LINE
  5
208
330
1F
100
AcDbEntity
  8
0-0
  6
JWW_DASHED1
 62
   120
370
     5
100
AcDbLine
 10
-27.42988632510698
 20
-802.448804513939
 30
0.0
 11
52.57011367490723
 21
-722.448804513924
 31
0.0
  0
LINE
  5
209
330
1F
100
AcDbEntity
  8
0-0
  6
JWW_DASHED1
 62
   120
370
     5
100
AcDbLine
 10
-27.42988632510016
 20
-812.3482994491468
 30
0.0
 11
52.5701136748987
 21
-732.3482994491479
 31
0.0
  0
LINE
  5
20A
330
1F
100
AcDbEntity
  8
0-0
  6
JWW_DASHED1
 62
   120
370
     5
100
AcDbLine
 10
-27.42988632508993
 20
-822.2477943843546
 30
0.0
 11
52.57011367490893
 21
-742.2477943843558
 31
0.0
  0
LINE
  5
20B
330
1F
100
AcDbEntity
  8
0-0
  6
JWW_DASHED1
 62
   120
370
     5
100
AcDbLine
 10
-27.4298863251104
 20
-832.1472893195352
 30
0.0
 11
52.57011367490552
 21
-752.147289319521
 31
0.0
  0
LINE
  5
20C
330
1F
100
AcDbEntity
  8
0-0
  6
JWW_DASHED1
 62
   120
370
     5
100
AcDbLine
 10
-27.42988632510187
 20
-842.0467842547434
 30
0.0
 11
52.57011367489699
 21
-762.0467842547441
 31
0.0
  0
LINE
  5
20D
330
1F
100
AcDbEntity
  8
0-0
  6
JWW_DASHED1
 62
   120
370
     5
100
AcDbLine
 10
-27.42988632509334
 20
-851.9462791899513
 30
0.0
 11
52.57011367490552
 21
-771.9462791899527
 31
0.0
  0
LINE
  5
20E
330
1F
100
AcDbEntity
  8
0-0
  6
JWW_DASHED1
 62
   120
370
     5
100
AcDbLine
 10
-27.4298863251121
 20
-861.8457741251323
 30
0.0
 11
52.57011367490211
 21
-781.8457741251176
 31
0.0
  0
LINE
  5
20F
330
1F
100
AcDbEntity
  8
0-0
  6
JWW_DASHED1
 62
   120
370
     5
100
AcDbLine
 10
-27.42988632510357
 20
-871.74526906034
 30
0.0
 11
52.57011367489529
 21
-791.7452690603416
 31
0.0
  0
LINE
  5
210
330
1F
100
AcDbEntity
  8
0-0
  6
JWW_DASHED1
 62
   120
370
     5
100
AcDbLine
 10
-27.42988632509675
 20
-881.6447639955483
 30
0.0
 11
52.57011367490211
 21
-801.644763995549
 31
0.0
  0
LINE
  5
211
330
1F
100
AcDbEntity
  8
0-0
  6
JWW_DASHED1
 62
   120
370
     5
100
AcDbLine
 10
-27.42988632510016
 20
-891.5442589307139
 30
0.0
 11
52.57011367491575
 21
-811.5442589306997
 31
0.0
  0
LINE
  5
212
330
1F
100
AcDbEntity
  8
0-0
  6
JWW_DASHED1
 62
   120
370
     5
100
AcDbLine
 10
-27.42988632510698
 20
-901.4437538659366
 30
0.0
 11
52.57011367489188
 21
-821.4437538659382
 31
0.0
  0
LINE
  5
213
330
1F
100
AcDbEntity
  8
0-0
  6
JWW_DASHED1
 62
   120
370
     5
100
AcDbLine
 10
-27.42988632509675
 20
-911.3432488011449
 30
0.0
 11
52.57011367490211
 21
-831.343248801146
 31
0.0
  0
LINE
  5
214
330
1F
100
AcDbEntity
  8
0-0
  6
JWW_DASHED1
 62
   120
370
     5
100
AcDbLine
 10
-27.42988632510016
 20
-921.2427437363092
 30
0.0
 11
52.57011367491405
 21
-841.2427437362951
 31
0.0
  0
LINE
  5
215
330
1F
100
AcDbEntity
  8
0-0
  6
JWW_DASHED1
 62
   120
370
     5
100
AcDbLine
 10
-27.42988632510698
 20
-931.1422386715333
 30
0.0
 11
52.57011367490552
 21
-851.1422386715191
 31
0.0
  0
LINE
  5
216
330
1F
100
AcDbEntity
  8
0-0
  6
JWW_DASHED1
 62
   120
370
     5
100
AcDbLine
 10
-27.42988632510016
 20
-941.0417336067416
 30
0.0
 11
52.5701136748987
 21
-861.0417336067427
 31
0.0
  0
LINE
  5
217
330
1F
100
AcDbEntity
  8
0-0
  6
JWW_DASHED1
 62
   120
370
     5
100
AcDbLine
 10
-26.51859938489249
 20
-950.029941601696
 30
0.0
 11
52.57011367491234
 21
-870.9412285418921
 31
0.0
  0
LINE
  5
218
330
1F
100
AcDbEntity
  8
0-0
  6
JWW_DASHED1
 62
   120
370
     5
100
AcDbLine
 10
-16.61910444965567
 20
-950.0299416016748
 30
0.0
 11
52.57011367490382
 21
-880.8407234771162
 31
0.0
  0
LINE
  5
219
330
1F
100
AcDbEntity
  8
0-0
  6
JWW_DASHED1
 62
   120
370
     5
100
AcDbLine
 10
-6.719609514446141
 20
-950.0299416016808
 30
0.0
 11
52.57011367489699
 21
-890.7402184123393
 31
0.0
  0
LINE
  5
21A
330
1F
100
AcDbEntity
  8
0-0
  6
JWW_DASHED1
 62
   120
370
     5
100
AcDbLine
 10
3.179885420705411
 20
-950.0299416016935
 30
0.0
 11
52.57011367490893
 21
-900.6397133474883
 31
0.0
  0
LINE
  5
21B
330
1F
100
AcDbEntity
  8
0-0
  6
JWW_DASHED1
 62
   120
370
     5
100
AcDbLine
 10
13.07938035592006
 20
-950.0299416016944
 30
0.0
 11
52.57011367491746
 21
-910.539208282697
 31
0.0
  0
LINE
  5
21C
330
1F
100
AcDbEntity
  8
0-0
  6
JWW_DASHED1
 62
   120
370
     5
100
AcDbLine
 10
22.97887529115176
 20
-950.0299416016782
 30
0.0
 11
52.57011367489529
 21
-920.4387032179363
 31
0.0
  0
LINE
  5
21D
330
1F
100
AcDbEntity
  8
0-0
  6
JWW_DASHED1
 62
   120
370
     5
100
AcDbLine
 10
32.8783702262999
 20
-950.029941601691
 30
0.0
 11
52.57011367490723
 21
-930.3381981530854
 31
0.0
  0
LINE
  5
21E
330
1F
100
AcDbEntity
  8
0-0
  6
JWW_DASHED1
 62
   120
370
     5
100
AcDbLine
 10
42.77786516151284
 20
-950.0299416016969
 30
0.0
 11
52.57011367491575
 21
-940.2376930882931
 31
0.0
  0
LINE
  5
21F
330
1F
100
AcDbEntity
  8
0-0
  6
Continuous
 62
    92
370
    13
100
AcDbLine
 10
832.5701136748953
 20
-958.0299416016777
 30
0.0
 11
832.5701136748953
 21
1024.970058398322
 31
0.0
  0
LINE
  5
220
330
1F
100
AcDbEntity
  8
0-0
  6
Continuous
 62
     7
370
     9
100
AcDbLine
 10
832.5701136748953
 20
1016.970058398323
 30
0.0
 11
752.5701136748964
 21
1016.970058398323
 31
0.0
  0
LINE
  5
221
330
1F
100
AcDbEntity
  8
0-0
  6
Continuous
 62
     7
370
     9
100
AcDbLine
 10
832.5701136748953
 20
-950.0299416016782
 30
0.0
 11
752.5701136748964
 21
-950.0299416016782
 31
0.0
  0
LINE
  5
222
330
1F
100
AcDbEntity
  8
0-0
  6
Continuous
 62
    92
370
    13
100
AcDbLine
 10
752.5701136748964
 20
-958.0299416016777
 30
0.0
 11
752.5701136748964
 21
1024.970058398322
 31
0.0
  0
LINE
  5
223
330
1F
100
AcDbEntity
  8
0-0
  6
JWW_DASHED1
 62
   120
370
     5
100
AcDbLine
 10
752.5701136748964
 20
1009.158768627274
 30
0.0
 11
760.3814034459427
 21
1016.970058398321
 31
0.0
  0
LINE
  5
224
330
1F
100
AcDbEntity
  8
0-0
  6
JWW_DASHED1
 62
   120
370
     5
100
AcDbLine
 10
752.5701136748896
 20
999.2592736920506
 30
0.0
 11
770.2808983811642
 21
1016.970058398326
 31
0.0
  0
LINE
  5
225
330
1F
100
AcDbEntity
  8
0-0
  6
JWW_DASHED1
 62
   120
370
     5
100
AcDbLine
 10
752.5701136748811
 20
989.3597787568265
 30
0.0
 11
780.1803933163857
 21
1016.970058398331
 31
0.0
  0
LINE
  5
226
330
1F
100
AcDbEntity
  8
0-0
  6
JWW_DASHED1
 62
   120
370
     5
100
AcDbLine
 10
752.570113674893
 20
979.4602838216775
 30
0.0
 11
790.0798882515389
 21
1016.970058398324
 31
0.0
  0
LINE
  5
227
330
1F
100
AcDbEntity
  8
0-0
  6
JWW_DASHED1
 62
   120
370
     5
100
AcDbLine
 10
752.5701136749033
 20
969.5607888864697
 30
0.0
 11
799.9793831867485
 21
1016.970058398316
 31
0.0
  0
LINE
  5
228
330
1F
100
AcDbEntity
  8
0-0
  6
JWW_DASHED1
 62
   120
370
     5
100
AcDbLine
 10
752.5701136748794
 20
959.6612939512295
 30
0.0
 11
809.8788781219768
 21
1016.970058398328
 31
0.0
  0
LINE
  5
229
330
1F
100
AcDbEntity
  8
0-0
  6
JWW_DASHED1
 62
   120
370
     5
100
AcDbLine
 10
752.5701136748913
 20
949.7617990160809
 30
0.0
 11
819.7783730571368
 21
1016.970058398326
 31
0.0
  0
LINE
  5
22A
330
1F
100
AcDbEntity
  8
0-0
  6
JWW_DASHED1
 62
   120
370
     5
100
AcDbLine
 10
752.5701136748999
 20
939.8623040808731
 30
0.0
 11
829.6778679923464
 21
1016.970058398318
 31
0.0
  0
LINE
  5
22B
330
1F
100
AcDbEntity
  8
0-0
  6
JWW_DASHED1
 62
   120
370
     5
100
AcDbLine
 10
752.5701136748777
 20
929.9628091456341
 30
0.0
 11
832.5701136748919
 21
1009.962809145648
 31
0.0
  0
LINE
  5
22C
330
1F
100
AcDbEntity
  8
0-0
  6
JWW_DASHED1
 62
   120
370
     5
100
AcDbLine
 10
752.5701136748896
 20
920.0633142104844
 30
0.0
 11
832.5701136748885
 21
1000.063314210483
 31
0.0
  0
LINE
  5
22D
330
1F
100
AcDbEntity
  8
0-0
  6
JWW_DASHED1
 62
   120
370
     5
100
AcDbLine
 10
752.5701136748964
 20
910.1638192752761
 30
0.0
 11
832.5701136748953
 21
990.1638192752749
 31
0.0
  0
LINE
  5
22E
330
1F
100
AcDbEntity
  8
0-0
  6
JWW_DASHED1
 62
   120
370
     5
100
AcDbLine
 10
752.570113674876
 20
900.2643243400371
 30
0.0
 11
832.5701136748885
 21
980.2643243400513
 31
0.0
  0
LINE
  5
22F
330
1F
100
AcDbEntity
  8
0-0
  6
JWW_DASHED1
 62
   120
370
     5
100
AcDbLine
 10
752.5701136748862
 20
890.3648294048877
 30
0.0
 11
832.5701136748851
 21
970.3648294048861
 31
0.0
  0
LINE
  5
230
330
1F
100
AcDbEntity
  8
0-0
  6
JWW_DASHED1
 62
   120
370
     5
100
AcDbLine
 10
752.5701136748964
 20
880.4653344696794
 30
0.0
 11
832.5701136748953
 21
960.4653344696783
 31
0.0
  0
LINE
  5
231
330
1F
100
AcDbEntity
  8
0-0
  6
JWW_DASHED1
 62
   120
370
     5
100
AcDbLine
 10
752.5701136749033
 20
870.5658395344716
 30
0.0
 11
832.5701136749021
 21
950.5658395344705
 31
0.0
  0
LINE
  5
232
330
1F
100
AcDbEntity
  8
0-0
  6
JWW_DASHED1
 62
   120
370
     5
100
AcDbLine
 10
752.5701136748845
 20
860.6663445992906
 30
0.0
 11
832.5701136748851
 21
940.6663445992895
 31
0.0
  0
LINE
  5
233
330
1F
100
AcDbEntity
  8
0-0
  6
JWW_DASHED1
 62
   120
370
     5
100
AcDbLine
 10
752.570113674893
 20
850.7668496640828
 30
0.0
 11
832.5701136748919
 21
930.7668496640816
 31
0.0
  0
LINE
  5
234
330
1F
100
AcDbEntity
  8
0-0
  6
JWW_DASHED1
 62
   120
370
     5
100
AcDbLine
 10
752.5701136749016
 20
840.8673547288745
 30
0.0
 11
832.5701136749004
 21
920.8673547288734
 31
0.0
  0
LINE
  5
235
330
1F
100
AcDbEntity
  8
0-0
  6
JWW_DASHED1
 62
   120
370
     5
100
AcDbLine
 10
752.5701136748828
 20
830.9678597936941
 30
0.0
 11
832.5701136748987
 21
910.9678597937086
 31
0.0
  0
LINE
  5
236
330
1F
100
AcDbEntity
  8
0-0
  6
JWW_DASHED1
 62
   120
370
     5
100
AcDbLine
 10
752.5701136748913
 20
821.0683648584861
 30
0.0
 11
832.5701136748902
 21
901.068364858485
 31
0.0
  0
LINE
  5
237
330
1F
100
AcDbEntity
  8
0-0
  6
JWW_DASHED1
 62
   120
370
     5
100
AcDbLine
 10
752.5701136748999
 20
811.1688699232775
 30
0.0
 11
832.5701136748987
 21
891.1688699232764
 31
0.0
  0
LINE
  5
238
330
1F
100
AcDbEntity
  8
0-0
  6
JWW_DASHED1
 62
   120
370
     5
100
AcDbLine
 10
752.5701136748794
 20
801.2693749880974
 30
0.0
 11
832.5701136748953
 21
881.2693749881121
 31
0.0
  0
LINE
  5
239
330
1F
100
AcDbEntity
  8
0-0
  6
JWW_DASHED1
 62
   120
370
     5
100
AcDbLine
 10
752.5701136748896
 20
791.3698800528891
 30
0.0
 11
832.5701136748885
 21
871.369880052888
 31
0.0
  0
LINE
  5
23A
330
1F
100
AcDbEntity
  8
0-0
  6
JWW_DASHED1
 62
   120
370
     5
100
AcDbLine
 10
752.5701136748964
 20
781.4703851176813
 30
0.0
 11
832.5701136748953
 21
861.4703851176802
 31
0.0
  0
LINE
  5
23B
330
1F
100
AcDbEntity
  8
0-0
  6
JWW_DASHED1
 62
   120
370
     5
100
AcDbLine
 10
752.5701136748794
 20
771.5708901825008
 30
0.0
 11
832.5701136748919
 21
851.5708901825154
 31
0.0
  0
LINE
  5
23C
330
1F
100
AcDbEntity
  8
0-0
  6
JWW_DASHED1
 62
   120
370
     5
100
AcDbLine
 10
752.5701136748862
 20
761.6713952472929
 30
0.0
 11
832.5701136748851
 21
841.6713952472913
 31
0.0
  0
LINE
  5
23D
330
1F
100
AcDbEntity
  8
0-0
  6
JWW_DASHED1
 62
   120
370
     5
100
AcDbLine
 10
752.5701136748947
 20
751.7719003120847
 30
0.0
 11
832.5701136748953
 21
831.7719003120835
 31
0.0
  0
LINE
  5
23E
330
1F
100
AcDbEntity
  8
0-0
  6
JWW_DASHED1
 62
   120
370
     5
100
AcDbLine
 10
752.5701136748794
 20
741.8724053769063
 30
0.0
 11
832.5701136748919
 21
821.87240537692
 31
0.0
  0
LINE
  5
23F
330
1F
100
AcDbEntity
  8
0-0
  6
JWW_DASHED1
 62
   120
370
     5
100
AcDbLine
 10
752.5701136748845
 20
731.9729104416958
 30
0.0
 11
832.5701136748834
 21
811.9729104416947
 31
0.0
  0
LINE
  5
240
330
1F
100
AcDbEntity
  8
0-0
  6
JWW_DASHED1
 62
   120
370
     5
100
AcDbLine
 10
752.5701136748964
 20
722.0734155065174
 30
0.0
 11
832.5701136748936
 21
802.0734155065159
 31
0.0
  0
LINE
  5
241
330
1F
100
AcDbEntity
  8
0-0
  6
JWW_DASHED1
 62
   120
370
     5
100
AcDbLine
 10
752.5701136748896
 20
712.1739205713229
 30
0.0
 11
832.5701136749038
 21
792.1739205713375
 31
0.0
  0
LINE
  5
242
330
1F
100
AcDbEntity
  8
0-0
  6
JWW_DASHED1
 62
   120
370
     5
100
AcDbLine
 10
752.5701136748828
 20
702.2744256360997
 30
0.0
 11
832.570113674897
 21
782.2744256361138
 31
0.0
  0
LINE
  5
243
330
1F
100
AcDbEntity
  8
0-0
  6
JWW_DASHED1
 62
   120
370
     5
100
AcDbLine
 10
752.570113674893
 20
692.3749307009209
 30
0.0
 11
832.5701136748919
 21
772.3749307009198
 31
0.0
  0
LINE
  5
244
330
1F
100
AcDbEntity
  8
0-0
  6
JWW_DASHED1
 62
   120
370
     5
100
AcDbLine
 10
752.5701136749033
 20
682.4754357657424
 30
0.0
 11
832.5701136749021
 21
762.4754357657409
 31
0.0
  0
LINE
  5
245
330
1F
100
AcDbEntity
  8
0-0
  6
JWW_DASHED1
 62
   120
370
     5
100
AcDbLine
 10
752.5701136748794
 20
672.5759408305026
 30
0.0
 11
832.5701136748953
 21
752.5759408305169
 31
0.0
  0
LINE
  5
246
330
1F
100
AcDbEntity
  8
0-0
  6
JWW_DASHED1
 62
   120
370
     5
100
AcDbLine
 10
752.5701136748896
 20
662.6764458953243
 30
0.0
 11
832.5701136748885
 21
742.6764458953227
 31
0.0
  0
LINE
  5
247
330
1F
100
AcDbEntity
  8
0-0
  6
JWW_DASHED1
 62
   120
370
     5
100
AcDbLine
 10
752.5701136748999
 20
652.7769509601454
 30
0.0
 11
832.5701136748987
 21
732.7769509601443
 31
0.0
  0
LINE
  5
248
330
1F
100
AcDbEntity
  8
0-0
  6
JWW_DASHED1
 62
   120
370
     5
100
AcDbLine
 10
752.5701136748811
 20
642.877456024909
 30
0.0
 11
832.5701136748953
 21
722.8774560249224
 31
0.0
  0
LINE
  5
249
330
1F
100
AcDbEntity
  8
0-0
  6
JWW_DASHED1
 62
   120
370
     5
100
AcDbLine
 10
752.5701136748896
 20
632.9779610897272
 30
0.0
 11
832.5701136748868
 21
712.977961089726
 31
0.0
  0
LINE
  5
24A
330
1F
100
AcDbEntity
  8
0-0
  6
JWW_DASHED1
 62
   120
370
     5
100
AcDbLine
 10
752.5701136748999
 20
623.0784661545488
 30
0.0
 11
832.5701136748987
 21
703.0784661545476
 31
0.0
  0
LINE
  5
24B
330
1F
100
AcDbEntity
  8
0-0
  6
JWW_DASHED1
 62
   120
370
     5
100
AcDbLine
 10
752.5701136748913
 20
613.1789712193247
 30
0.0
 11
832.5701136749055
 21
693.1789712193398
 31
0.0
  0
LINE
  5
24C
330
1F
100
AcDbEntity
  8
0-0
  6
JWW_DASHED1
 62
   120
370
     5
100
AcDbLine
 10
752.5701136748896
 20
603.27947628416
 30
0.0
 11
832.5701136748868
 21
683.2794762841588
 31
0.0
  0
LINE
  5
24D
330
1F
100
AcDbEntity
  8
0-0
  6
JWW_DASHED1
 62
   120
370
     5
100
AcDbLine
 10
752.5701136748964
 20
593.3799813489521
 30
0.0
 11
832.5701136748953
 21
673.3799813489507
 31
0.0
  0
LINE
  5
24E
330
1F
100
AcDbEntity
  8
0-0
  6
JWW_DASHED1
 62
   120
370
     5
100
AcDbLine
 10
752.570113674905
 20
583.4804864137438
 30
0.0
 11
832.5701136749038
 21
663.4804864137427
 31
0.0
  0
LINE
  5
24F
330
1F
100
AcDbEntity
  8
0-0
  6
JWW_DASHED1
 62
   120
370
     5
100
AcDbLine
 10
752.5701136748862
 20
573.5809914785634
 30
0.0
 11
832.5701136748851
 21
653.5809914785623
 31
0.0
  0
LINE
  5
250
330
1F
100
AcDbEntity
  8
0-0
  6
JWW_DASHED1
 62
   120
370
     5
100
AcDbLine
 10
752.5701136748947
 20
563.6814965433555
 30
0.0
 11
832.5701136748919
 21
643.681496543354
 31
0.0
  0
LINE
  5
251
330
1F
100
AcDbEntity
  8
0-0
  6
JWW_DASHED1
 62
   120
370
     5
100
AcDbLine
 10
752.5701136749033
 20
553.7820016081473
 30
0.0
 11
832.5701136749021
 21
633.7820016081466
 31
0.0
  0
LINE
  5
252
330
1F
100
AcDbEntity
  8
0-0
  6
JWW_DASHED1
 62
   120
370
     5
100
AcDbLine
 10
752.5701136748828
 20
543.8825066729668
 30
0.0
 11
832.5701136748987
 21
623.8825066729814
 31
0.0
  0
LINE
  5
253
330
1F
100
AcDbEntity
  8
0-0
  6
JWW_DASHED1
 62
   120
370
     5
100
AcDbLine
 10
752.570113674893
 20
533.9830117377589
 30
0.0
 11
832.5701136748919
 21
613.9830117377574
 31
0.0
  0
LINE
  5
254
330
1F
100
AcDbEntity
  8
0-0
  6
JWW_DASHED1
 62
   120
370
     5
100
AcDbLine
 10
752.5701136748999
 20
524.0835168025507
 30
0.0
 11
832.5701136748987
 21
604.0835168025495
 31
0.0
  0
LINE
  5
255
330
1F
100
AcDbEntity
  8
0-0
  6
JWW_DASHED1
 62
   120
370
     5
100
AcDbLine
 10
752.5701136748828
 20
514.1840218673701
 30
0.0
 11
832.5701136748953
 21
594.1840218673843
 31
0.0
  0
LINE
  5
256
330
1F
100
AcDbEntity
  8
0-0
  6
JWW_DASHED1
 62
   120
370
     5
100
AcDbLine
 10
752.5701136748896
 20
504.2845269321618
 30
0.0
 11
832.5701136748885
 21
584.2845269321607
 31
0.0
  0
LINE
  5
257
330
1F
100
AcDbEntity
  8
0-0
  6
JWW_DASHED1
 62
   120
370
     5
100
AcDbLine
 10
752.5701136748982
 20
494.385031996954
 30
0.0
 11
832.5701136748987
 21
574.3850319969529
 31
0.0
  0
LINE
  5
258
330
1F
100
AcDbEntity
  8
0-0
  6
JWW_DASHED1
 62
   120
370
     5
100
AcDbLine
 10
752.5701136748794
 20
484.4855370617735
 30
0.0
 11
832.5701136748936
 21
564.4855370617877
 31
0.0
  0
LINE
  5
259
330
1F
100
AcDbEntity
  8
0-0
  6
JWW_DASHED1
 62
   120
370
     5
100
AcDbLine
 10
752.5701136748879
 20
474.5860421265652
 30
0.0
 11
832.5701136748868
 21
554.586042126564
 31
0.0
  0
LINE
  5
25A
330
1F
100
AcDbEntity
  8
0-0
  6
JWW_DASHED1
 62
   120
370
     5
100
AcDbLine
 10
752.5701136748964
 20
464.6865471913574
 30
0.0
 11
832.5701136748953
 21
544.6865471913563
 31
0.0
  0
LINE
  5
25B
330
1F
100
AcDbEntity
  8
0-0
  6
JWW_DASHED1
 62
   120
370
     5
100
AcDbLine
 10
752.5701136748828
 20
454.7870522561811
 30
0.0
 11
832.5701136748953
 21
534.7870522561949
 31
0.0
  0
LINE
  5
25C
330
1F
100
AcDbEntity
  8
0-0
  6
JWW_DASHED1
 62
   120
370
     5
100
AcDbLine
 10
752.5701136748862
 20
444.8875573209687
 30
0.0
 11
832.5701136749004
 21
524.8875573209832
 31
0.0
  0
LINE
  5
25D
330
1F
100
AcDbEntity
  8
0-0
  6
JWW_DASHED1
 62
   120
370
     5
100
AcDbLine
 10
752.570113674893
 20
434.9880623857604
 30
0.0
 11
832.5701136748919
 21
514.9880623857592
 31
0.0
  0
LINE
  5
25E
330
1F
100
AcDbEntity
  8
0-0
  6
JWW_DASHED1
 62
   120
370
     5
100
AcDbLine
 10
752.5701136749067
 20
425.0885674506114
 30
0.0
 11
832.5701136749055
 21
505.0885674506102
 31
0.0
  0
LINE
  5
25F
330
1F
100
AcDbEntity
  8
0-0
  6
JWW_DASHED1
 62
   120
370
     5
100
AcDbLine
 10
752.5701136748828
 20
415.189072515372
 30
0.0
 11
832.5701136748987
 21
495.1890725153867
 31
0.0
  0
LINE
  5
260
330
1F
100
AcDbEntity
  8
0-0
  6
JWW_DASHED1
 62
   120
370
     5
100
AcDbLine
 10
752.570113674893
 20
405.2895775801642
 30
0.0
 11
832.5701136748919
 21
485.2895775801626
 31
0.0
  0
LINE
  5
261
330
1F
100
AcDbEntity
  8
0-0
  6
JWW_DASHED1
 62
   120
370
     5
100
AcDbLine
 10
752.5701136749033
 20
395.3900826450148
 30
0.0
 11
832.5701136749021
 21
475.3900826450136
 31
0.0
  0
LINE
  5
262
330
1F
100
AcDbEntity
  8
0-0
  6
JWW_DASHED1
 62
   120
370
     5
100
AcDbLine
 10
752.5701136748811
 20
385.4905877097754
 30
0.0
 11
832.5701136748953
 21
465.49058770979
 31
0.0
  0
LINE
  5
263
330
1F
100
AcDbEntity
  8
0-0
  6
JWW_DASHED1
 62
   120
370
     5
100
AcDbLine
 10
752.5701136748896
 20
375.5910927745671
 30
0.0
 11
832.5701136748885
 21
455.591092774566
 31
0.0
  0
LINE
  5
264
330
1F
100
AcDbEntity
  8
0-0
  6
JWW_DASHED1
 62
   120
370
     5
100
AcDbLine
 10
752.5701136749033
 20
365.6915978394181
 30
0.0
 11
832.5701136749021
 21
445.691597839417
 31
0.0
  0
LINE
  5
265
330
1F
100
AcDbEntity
  8
0-0
  6
JWW_DASHED1
 62
   120
370
     5
100
AcDbLine
 10
752.5701136748845
 20
355.7921029041839
 30
0.0
 11
832.5701136748987
 21
435.7921029041977
 31
0.0
  0
LINE
  5
266
330
1F
100
AcDbEntity
  8
0-0
  6
JWW_DASHED1
 62
   120
370
     5
100
AcDbLine
 10
752.5701136748862
 20
345.8926079689705
 30
0.0
 11
832.5701136748851
 21
425.8926079689694
 31
0.0
  0
LINE
  5
267
330
1F
100
AcDbEntity
  8
0-0
  6
JWW_DASHED1
 62
   120
370
     5
100
AcDbLine
 10
752.5701136748999
 20
335.9931130338215
 30
0.0
 11
832.5701136748987
 21
415.9931130338208
 31
0.0
  0
LINE
  5
268
330
1F
100
AcDbEntity
  8
0-0
  6
JWW_DASHED1
 62
   120
370
     5
100
AcDbLine
 10
752.570113674893
 20
326.0936180985975
 30
0.0
 11
832.5701136749072
 21
406.0936180986121
 31
0.0
  0
LINE
  5
269
330
1F
100
AcDbEntity
  8
0-0
  6
JWW_DASHED1
 62
   120
370
     5
100
AcDbLine
 10
752.5701136748862
 20
316.1941231633739
 30
0.0
 11
832.5701136748987
 21
396.1941231633886
 31
0.0
  0
LINE
  5
26A
330
1F
100
AcDbEntity
  8
0-0
  6
JWW_DASHED1
 62
   120
370
     5
100
AcDbLine
 10
752.5701136748982
 20
306.2946282282249
 30
0.0
 11
832.5701136748953
 21
386.2946282282238
 31
0.0
  0
LINE
  5
26B
330
1F
100
AcDbEntity
  8
0-0
  6
JWW_DASHED1
 62
   120
370
     5
100
AcDbLine
 10
752.5701136749067
 20
296.3951332930171
 30
0.0
 11
832.5701136749055
 21
376.3951332930155
 31
0.0
  0
LINE
  5
26C
330
1F
100
AcDbEntity
  8
0-0
  6
JWW_DASHED1
 62
   120
370
     5
100
AcDbLine
 10
752.5701136748828
 20
286.4956383577777
 30
0.0
 11
832.5701136748987
 21
366.4956383577919
 31
0.0
  0
LINE
  5
26D
330
1F
100
AcDbEntity
  8
0-0
  6
JWW_DASHED1
 62
   120
370
     5
100
AcDbLine
 10
752.5701136748964
 20
276.5961434226278
 30
0.0
 11
832.5701136748953
 21
356.5961434226267
 31
0.0
  0
LINE
  5
26E
330
1F
100
AcDbEntity
  8
0-0
  6
JWW_DASHED1
 62
   120
370
     5
100
AcDbLine
 10
752.5701136749033
 20
266.69664848742
 30
0.0
 11
832.5701136749021
 21
346.6966484874189
 31
0.0
  0
LINE
  5
26F
330
1F
100
AcDbEntity
  8
0-0
  6
JWW_DASHED1
 62
   120
370
     5
100
AcDbLine
 10
752.5701136748811
 20
256.7971535521806
 30
0.0
 11
832.5701136748953
 21
336.7971535521949
 31
0.0
  0
LINE
  5
270
330
1F
100
AcDbEntity
  8
0-0
  6
JWW_DASHED1
 62
   120
370
     5
100
AcDbLine
 10
752.570113674893
 20
246.8976586170312
 30
0.0
 11
832.5701136748919
 21
326.8976586170305
 31
0.0
  0
LINE
  5
271
330
1F
100
AcDbEntity
  8
0-0
  6
JWW_DASHED1
 62
   120
370
     5
100
AcDbLine
 10
752.5701136749033
 20
236.9981636818238
 30
0.0
 11
832.5701136749004
 21
316.9981636818222
 31
0.0
  0
LINE
  5
272
330
1F
100
AcDbEntity
  8
0-0
  6
JWW_DASHED1
 62
   120
370
     5
100
AcDbLine
 10
752.5701136748862
 20
227.0986687465904
 30
0.0
 11
832.5701136748987
 21
307.0986687466038
 31
0.0
  0
LINE
  5
273
330
1F
100
AcDbEntity
  8
0-0
  6
JWW_DASHED1
 62
   120
370
     5
100
AcDbLine
 10
752.5701136748913
 20
217.1991738114346
 30
0.0
 11
832.5701136748902
 21
297.1991738114335
 31
0.0
  0
LINE
  5
274
330
1F
100
AcDbEntity
  8
0-0
  6
JWW_DASHED1
 62
   120
370
     5
100
AcDbLine
 10
752.5701136748999
 20
207.2996788762268
 30
0.0
 11
832.5701136748987
 21
287.2996788762256
 31
0.0
  0
LINE
  5
275
330
1F
100
AcDbEntity
  8
0-0
  6
JWW_DASHED1
 62
   120
370
     5
100
AcDbLine
 10
752.5701136749067
 20
197.4001839410185
 30
0.0
 11
832.5701136749055
 21
277.4001839410174
 31
0.0
  0
LINE
  5
276
330
1F
100
AcDbEntity
  8
0-0
  6
JWW_DASHED1
 62
   120
370
     5
100
AcDbLine
 10
752.5701136748896
 20
187.500689005838
 30
0.0
 11
832.5701136748885
 21
267.5006890058369
 31
0.0
  0
LINE
  5
277
330
1F
100
AcDbEntity
  8
0-0
  6
JWW_DASHED1
 62
   120
370
     5
100
AcDbLine
 10
752.5701136748964
 20
177.6011940706306
 30
0.0
 11
832.5701136748953
 21
257.6011940706286
 31
0.0
  0
LINE
  5
278
330
1F
100
AcDbEntity
  8
0-0
  6
JWW_DASHED1
 62
   120
370
     5
100
AcDbLine
 10
752.5701136749067
 20
167.7016991354219
 30
0.0
 11
832.5701136749055
 21
247.7016991354208
 31
0.0
  0
LINE
  5
279
330
1F
100
AcDbEntity
  8
0-0
  6
JWW_DASHED1
 62
   120
370
     5
100
AcDbLine
 10
752.5701136748862
 20
157.8022042002414
 30
0.0
 11
832.5701136749021
 21
237.802204200256
 31
0.0
  0
LINE
  5
27A
330
1F
100
AcDbEntity
  8
0-0
  6
JWW_DASHED1
 62
   120
370
     5
100
AcDbLine
 10
752.5701136748964
 20
147.9027092650335
 30
0.0
 11
832.5701136748936
 21
227.902709265032
 31
0.0
  0
LINE
  5
27B
330
1F
100
AcDbEntity
  8
0-0
  6
JWW_DASHED1
 62
   120
370
     5
100
AcDbLine
 10
752.5701136749033
 20
138.0032143298253
 30
0.0
 11
832.5701136749021
 21
218.0032143298246
 31
0.0
  0
LINE
  5
27C
330
1F
100
AcDbEntity
  8
0-0
  6
JWW_DASHED1
 62
   120
370
     5
100
AcDbLine
 10
752.5701136748862
 20
128.1037193946447
 30
0.0
 11
832.5701136748987
 21
208.1037193946594
 31
0.0
  0
LINE
  5
27D
330
1F
100
AcDbEntity
  8
0-0
  6
JWW_DASHED1
 62
   120
370
     5
100
AcDbLine
 10
752.570113674893
 20
118.2042244594365
 30
0.0
 11
832.5701136748919
 21
198.2042244594354
 31
0.0
  0
LINE
  5
27E
330
1F
100
AcDbEntity
  8
0-0
  6
JWW_DASHED1
 62
   120
370
     5
100
AcDbLine
 10
752.5701136749016
 20
108.3047295242287
 30
0.0
 11
832.5701136749004
 21
188.3047295242275
 31
0.0
  0
LINE
  5
27F
330
1F
100
AcDbEntity
  8
0-0
  6
JWW_DASHED1
 62
   120
370
     5
100
AcDbLine
 10
752.5701136748828
 20
98.40523458904812
 30
0.0
 11
832.570113674897
 21
178.4052345890623
 31
0.0
  0
LINE
  5
280
330
1F
100
AcDbEntity
  8
0-0
  6
JWW_DASHED1
 62
   120
370
     5
100
AcDbLine
 10
752.5701136748896
 20
88.5057396538403
 30
0.0
 11
832.5701136748885
 21
168.5057396538387
 31
0.0
  0
LINE
  5
281
330
1F
100
AcDbEntity
  8
0-0
  6
JWW_DASHED1
 62
   120
370
     5
100
AcDbLine
 10
752.5701136748999
 20
78.60624471863204
 30
0.0
 11
832.5701136748987
 21
158.6062447186305
 31
0.0
  0
LINE
  5
282
330
1F
100
AcDbEntity
  8
0-0
  6
JWW_DASHED1
 62
   120
370
     5
100
AcDbLine
 10
752.5701136748879
 20
68.70674978345875
 30
0.0
 11
832.5701136749021
 21
148.706749783473
 31
0.0
  0
LINE
  5
283
330
1F
100
AcDbEntity
  8
0-0
  6
JWW_DASHED1
 62
   120
370
     5
100
AcDbLine
 10
752.5701136748896
 20
58.80725484824325
 30
0.0
 11
832.5701136748885
 21
138.8072548482421
 31
0.0
  0
LINE
  5
284
330
1F
100
AcDbEntity
  8
0-0
  6
JWW_DASHED1
 62
   120
370
     5
100
AcDbLine
 10
752.5701136749016
 20
48.90775991309425
 30
0.0
 11
832.5701136748987
 21
128.9077599130931
 31
0.0
  0
LINE
  5
285
330
1F
100
AcDbEntity
  8
0-0
  6
JWW_DASHED1
 62
   120
370
     5
100
AcDbLine
 10
752.570113674893
 20
39.00826497787023
 30
0.0
 11
832.570113674909
 21
119.0082649778849
 31
0.0
  0
LINE
  5
286
330
1F
100
AcDbEntity
  8
0-0
  6
JWW_DASHED1
 62
   120
370
     5
100
AcDbLine
 10
752.5701136748862
 20
29.10877004264705
 30
0.0
 11
832.5701136749021
 21
109.1087700426613
 31
0.0
  0
LINE
  5
287
330
1F
100
AcDbEntity
  8
0-0
  6
JWW_DASHED1
 62
   120
370
     5
100
AcDbLine
 10
752.5701136748999
 20
19.20927510749721
 30
0.0
 11
832.5701136748987
 21
99.20927510749607
 31
0.0
  0
LINE
  5
288
330
1F
100
AcDbEntity
  8
0-0
  6
JWW_DASHED1
 62
   120
370
     5
100
AcDbLine
 10
752.5701136749067
 20
9.30978017228938
 30
0.0
 11
832.5701136749055
 21
89.30978017228824
 31
0.0
  0
LINE
  5
289
330
1F
100
AcDbEntity
  8
0-0
  6
JWW_DASHED1
 62
   120
370
     5
100
AcDbLine
 10
752.5701136748845
 20
-0.5897147629499955
 30
0.0
 11
832.5701136748987
 21
79.41028523706422
 31
0.0
  0
LINE
  5
28A
330
1F
100
AcDbEntity
  8
0-0
  6
JWW_DASHED1
 62
   120
370
     5
100
AcDbLine
 10
752.5701136748964
 20
-10.48920969809942
 30
0.0
 11
832.5701136748953
 21
69.51079030189987
 31
0.0
  0
LINE
  5
28B
330
1F
100
AcDbEntity
  8
0-0
  6
JWW_DASHED1
 62
   120
370
     5
100
AcDbLine
 10
752.5701136749067
 20
-20.38870463330682
 30
0.0
 11
832.5701136749038
 21
59.61129536669162
 31
0.0
  0
LINE
  5
28C
330
1F
100
AcDbEntity
  8
0-0
  6
JWW_DASHED1
 62
   120
370
     5
100
AcDbLine
 10
752.5701136748896
 20
-30.28819956853852
 30
0.0
 11
832.5701136749038
 21
49.71180043147527
 31
0.0
  0
LINE
  5
28D
330
1F
100
AcDbEntity
  8
0-0
  6
JWW_DASHED1
 62
   120
370
     5
100
AcDbLine
 10
752.5701136748947
 20
-40.18769450369604
 30
0.0
 11
832.5701136748936
 21
39.81230549630283
 31
0.0
  0
LINE
  5
28E
330
1F
100
AcDbEntity
  8
0-0
  6
JWW_DASHED1
 62
   120
370
     5
100
AcDbLine
 10
752.5701136749033
 20
-50.08718943890386
 30
0.0
 11
832.5701136749021
 21
29.912810561095
 31
0.0
  0
LINE
  5
28F
330
1F
100
AcDbEntity
  8
0-0
  6
JWW_DASHED1
 62
   120
370
     5
100
AcDbLine
 10
752.5701136748964
 20
-59.98668437412789
 30
0.0
 11
832.570113674909
 21
20.01331562588717
 31
0.0
  0
LINE
  5
290
330
1F
100
AcDbEntity
  8
0-0
  6
JWW_DASHED1
 62
   120
370
     5
100
AcDbLine
 10
752.570113674893
 20
-69.88617930929223
 30
0.0
 11
832.5701136748919
 21
10.11382069070621
 31
0.0
  0
LINE
  5
291
330
1F
100
AcDbEntity
  8
0-0
  6
JWW_DASHED1
 62
   120
370
     5
100
AcDbLine
 10
752.5701136748999
 20
-79.78567424450048
 30
0.0
 11
832.5701136748987
 21
0.2143257554979527
 31
0.0
  0
LINE
  5
292
330
1F
100
AcDbEntity
  8
0-0
  6
JWW_DASHED1
 62
   120
370
     5
100
AcDbLine
 10
752.5701136749101
 20
-89.68516917970874
 30
0.0
 11
832.570113674909
 21
-9.685169179709874
 31
0.0
  0
LINE
  5
293
330
1F
100
AcDbEntity
  8
0-0
  6
JWW_DASHED1
 62
   120
370
     5
100
AcDbLine
 10
752.5701136748896
 20
-99.58466411488928
 30
0.0
 11
832.5701136748885
 21
-19.58466411489042
 31
0.0
  0
LINE
  5
294
330
1F
100
AcDbEntity
  8
0-0
  6
JWW_DASHED1
 62
   120
370
     5
100
AcDbLine
 10
752.5701136748999
 20
-109.4841590500971
 30
0.0
 11
832.5701136748987
 21
-29.48415905009867
 31
0.0
  0
LINE
  5
295
330
1F
100
AcDbEntity
  8
0-0
  6
JWW_DASHED1
 62
   120
370
     5
100
AcDbLine
 10
752.5701136749067
 20
-119.3836539853054
 30
0.0
 11
832.5701136749055
 21
-39.38365398530649
 31
0.0
  0
LINE
  5
296
330
1F
100
AcDbEntity
  8
0-0
  6
JWW_DASHED1
 62
   120
370
     5
100
AcDbLine
 10
752.5701136748879
 20
-129.2831489204863
 30
0.0
 11
832.5701136749021
 21
-49.28314892047126
 31
0.0
  0
LINE
  5
297
330
1F
100
AcDbEntity
  8
0-0
  6
JWW_DASHED1
 62
   120
370
     5
100
AcDbLine
 10
752.5701136748964
 20
-139.1826438556942
 30
0.0
 11
832.5701136748953
 21
-59.18264385569529
 31
0.0
  0
LINE
  5
298
330
1F
100
AcDbEntity
  8
0-0
  6
JWW_DASHED1
 62
   120
370
     5
100
AcDbLine
 10
752.570113674905
 20
-149.082138790902
 30
0.0
 11
832.5701136749038
 21
-69.08213879090312
 31
0.0
  0
LINE
  5
299
330
1F
100
AcDbEntity
  8
0-0
  6
JWW_DASHED1
 62
   120
370
     5
100
AcDbLine
 10
752.5701136748862
 20
-158.9816337260825
 30
0.0
 11
832.5701136749004
 21
-78.98163372606831
 31
0.0
  0
LINE
  5
29A
330
1F
100
AcDbEntity
  8
0-0
  6
JWW_DASHED1
 62
   120
370
     5
100
AcDbLine
 10
752.570113674893
 20
-168.8811286612908
 30
0.0
 11
832.5701136748919
 21
-88.88112866129148
 31
0.0
  0
LINE
  5
29B
330
1F
100
AcDbEntity
  8
0-0
  6
JWW_DASHED1
 62
   120
370
     5
100
AcDbLine
 10
752.5701136749033
 20
-178.7806235964986
 30
0.0
 11
832.5701136749021
 21
-98.78062359649974
 31
0.0
  0
LINE
  5
29C
330
1F
100
AcDbEntity
  8
0-0
  6
JWW_DASHED1
 62
   120
370
     5
100
AcDbLine
 10
752.5701136748828
 20
-188.6801185316796
 30
0.0
 11
832.5701136748987
 21
-108.6801185316649
 31
0.0
  0
LINE
  5
29D
330
1F
100
AcDbEntity
  8
0-0
  6
JWW_DASHED1
 62
   120
370
     5
100
AcDbLine
 10
752.570113674893
 20
-198.5796134668874
 30
0.0
 11
832.5701136748919
 21
-118.5796134668885
 31
0.0
  0
LINE
  5
29E
330
1F
100
AcDbEntity
  8
0-0
  6
JWW_DASHED1
 62
   120
370
     5
100
AcDbLine
 10
752.5701136748999
 20
-208.4791084020952
 30
0.0
 11
832.5701136748987
 21
-128.4791084020964
 31
0.0
  0
LINE
  5
29F
330
1F
100
AcDbEntity
  8
0-0
  6
JWW_DASHED1
 62
   120
370
     5
100
AcDbLine
 10
752.5701136748913
 20
-218.3786033372664
 30
0.0
 11
832.5701136749055
 21
-138.3786033372522
 31
0.0
  0
LINE
  5
2A0
330
1F
100
AcDbEntity
  8
0-0
  6
JWW_DASHED1
 62
   120
370
     5
100
AcDbLine
 10
752.5701136748896
 20
-228.278098272484
 30
0.0
 11
832.5701136748885
 21
-148.2780982724856
 31
0.0
  0
LINE
  5
2A1
330
1F
100
AcDbEntity
  8
0-0
  6
JWW_DASHED1
 62
   120
370
     5
100
AcDbLine
 10
752.5701136748982
 20
-238.1775932076918
 30
0.0
 11
832.570113674897
 21
-158.1775932076934
 31
0.0
  0
LINE
  5
2A2
330
1F
100
AcDbEntity
  8
0-0
  6
JWW_DASHED1
 62
   120
370
     5
100
AcDbLine
 10
752.5701136748964
 20
-248.0770881428566
 30
0.0
 11
832.570113674909
 21
-168.0770881428424
 31
0.0
  0
LINE
  5
2A3
330
1F
100
AcDbEntity
  8
0-0
  6
JWW_DASHED1
 62
   120
370
     5
100
AcDbLine
 10
752.5701136748879
 20
-257.9765830780806
 30
0.0
 11
832.5701136749021
 21
-177.976583078066
 31
0.0
  0
LINE
  5
2A4
330
1F
100
AcDbEntity
  8
0-0
  6
JWW_DASHED1
 62
   120
370
     5
100
AcDbLine
 10
752.5701136748964
 20
-267.8760780132889
 30
0.0
 11
832.5701136748953
 21
-187.8760780132896
 31
0.0
  0
LINE
  5
2A5
330
1F
100
AcDbEntity
  8
0-0
  6
JWW_DASHED1
 62
   120
370
     5
100
AcDbLine
 10
752.5701136749101
 20
-277.7755729484375
 30
0.0
 11
832.5701136749072
 21
-197.7755729484394
 31
0.0
  0
LINE
  5
2A6
330
1F
100
AcDbEntity
  8
0-0
  6
JWW_DASHED1
 62
   120
370
     5
100
AcDbLine
 10
752.5701136748862
 20
-287.6750678836777
 30
0.0
 11
832.5701136748987
 21
-207.6750678836626
 31
0.0
  0
LINE
  5
2A7
330
1F
100
AcDbEntity
  8
0-0
  6
JWW_DASHED1
 62
   120
370
     5
100
AcDbLine
 10
752.570113674893
 20
-297.5745628188855
 30
0.0
 11
832.5701136748919
 21
-217.5745628188866
 31
0.0
  0
LINE
  5
2A8
330
1F
100
AcDbEntity
  8
0-0
  6
JWW_DASHED1
 62
   120
370
     5
100
AcDbLine
 10
752.5701136749067
 20
-307.4740577540345
 30
0.0
 11
832.5701136749055
 21
-227.4740577540356
 31
0.0
  0
LINE
  5
2A9
330
1F
100
AcDbEntity
  8
0-0
  6
JWW_DASHED1
 62
   120
370
     5
100
AcDbLine
 10
752.570113674893
 20
-317.3735526892636
 30
0.0
 11
832.570113674909
 21
-237.3735526892494
 31
0.0
  0
LINE
  5
2AA
330
1F
100
AcDbEntity
  8
0-0
  6
JWW_DASHED1
 62
   120
370
     5
100
AcDbLine
 10
752.5701136748913
 20
-327.2730476244822
 30
0.0
 11
832.5701136748902
 21
-247.2730476244833
 31
0.0
  0
LINE
  5
2AB
330
1F
100
AcDbEntity
  8
0-0
  6
JWW_DASHED1
 62
   120
370
     5
100
AcDbLine
 10
752.5701136749033
 20
-337.1725425596311
 30
0.0
 11
832.5701136749021
 21
-257.1725425596327
 31
0.0
  0
LINE
  5
2AC
330
1F
100
AcDbEntity
  8
0-0
  6
JWW_DASHED1
 62
   120
370
     5
100
AcDbLine
 10
752.5701136748964
 20
-347.0720374948552
 30
0.0
 11
832.5701136749124
 21
-267.0720374948405
 31
0.0
  0
LINE
  5
2AD
330
1F
100
AcDbEntity
  8
0-0
  6
JWW_DASHED1
 62
   120
370
     5
100
AcDbLine
 10
752.5701136748896
 20
-356.9715324300788
 30
0.0
 11
832.5701136749038
 21
-276.9715324300641
 31
0.0
  0
LINE
  5
2AE
330
1F
100
AcDbEntity
  8
0-0
  6
JWW_DASHED1
 62
   120
370
     5
100
AcDbLine
 10
752.5701136749033
 20
-366.8710273652277
 30
0.0
 11
832.5701136749021
 21
-286.8710273652289
 31
0.0
  0
LINE
  5
2AF
330
1F
100
AcDbEntity
  8
0-0
  6
JWW_DASHED1
 62
   120
370
     5
100
AcDbLine
 10
752.5701136749101
 20
-376.7705223004356
 30
0.0
 11
832.570113674909
 21
-296.7705223004372
 31
0.0
  0
LINE
  5
2B0
330
1F
100
AcDbEntity
  8
0-0
  6
JWW_DASHED1
 62
   120
370
     5
100
AcDbLine
 10
752.5701136748862
 20
-386.6700172356758
 30
0.0
 11
832.5701136749021
 21
-306.6700172356611
 31
0.0
  0
LINE
  5
2B1
330
1F
100
AcDbEntity
  8
0-0
  6
JWW_DASHED1
 62
   120
370
     5
100
AcDbLine
 10
752.5701136748999
 20
-396.5695121708248
 30
0.0
 11
832.5701136748987
 21
-316.5695121708259
 31
0.0
  0
LINE
  5
2B2
330
1F
100
AcDbEntity
  8
0-0
  6
JWW_DASHED1
 62
   120
370
     5
100
AcDbLine
 10
752.5701136749084
 20
-406.4690071060326
 30
0.0
 11
832.5701136749055
 21
-326.4690071060338
 31
0.0
  0
LINE
  5
2B3
330
1F
100
AcDbEntity
  8
0-0
  6
JWW_DASHED1
 62
   120
370
     5
100
AcDbLine
 10
752.5701136748845
 20
-416.3685020412724
 30
0.0
 11
832.5701136748987
 21
-336.3685020412578
 31
0.0
  0
LINE
  5
2B4
330
1F
100
AcDbEntity
  8
0-0
  6
JWW_DASHED1
 62
   120
370
     5
100
AcDbLine
 10
752.5701136748964
 20
-426.2679969764214
 30
0.0
 11
832.5701136748953
 21
-346.2679969764221
 31
0.0
  0
LINE
  5
2B5
330
1F
100
AcDbEntity
  8
0-0
  6
JWW_DASHED1
 62
   120
370
     5
100
AcDbLine
 10
752.5701136749067
 20
-436.1674919116297
 30
0.0
 11
832.5701136749055
 21
-356.1674919116308
 31
0.0
  0
LINE
  5
2B6
330
1F
100
AcDbEntity
  8
0-0
  6
JWW_DASHED1
 62
   120
370
     5
100
AcDbLine
 10
752.5701136748947
 20
-446.0669868468571
 30
0.0
 11
832.570113674909
 21
-366.0669868468433
 31
0.0
  0
LINE
  5
2B7
330
1F
100
AcDbEntity
  8
0-0
  6
JWW_DASHED1
 62
   120
370
     5
100
AcDbLine
 10
752.5701136748964
 20
-455.966481782018
 30
0.0
 11
832.5701136748953
 21
-375.9664817820192
 31
0.0
  0
LINE
  5
2B8
330
1F
100
AcDbEntity
  8
0-0
  6
JWW_DASHED1
 62
   120
370
     5
100
AcDbLine
 10
752.5701136749033
 20
-465.8659767172259
 30
0.0
 11
832.5701136749021
 21
-385.865976717227
 31
0.0
  0
LINE
  5
2B9
330
1F
100
AcDbEntity
  8
0-0
  6
JWW_DASHED1
 62
   120
370
     5
100
AcDbLine
 10
752.5701136749135
 20
-475.7654716524337
 30
0.0
 11
832.5701136749124
 21
-395.7654716524353
 31
0.0
  0
LINE
  5
2BA
330
1F
100
AcDbEntity
  8
0-0
  6
JWW_DASHED1
 62
   120
370
     5
100
AcDbLine
 10
752.570113674893
 20
-485.6649665876147
 30
0.0
 11
832.5701136748919
 21
-405.6649665876158
 31
0.0
  0
LINE
  5
2BB
330
1F
100
AcDbEntity
  8
0-0
  6
JWW_DASHED1
 62
   120
370
     5
100
AcDbLine
 10
752.5701136749016
 20
-495.5644615228229
 30
0.0
 11
832.5701136749004
 21
-415.564461522824
 31
0.0
  0
LINE
  5
2BC
330
1F
100
AcDbEntity
  8
0-0
  6
JWW_DASHED1
 62
   120
370
     5
100
AcDbLine
 10
752.5701136749101
 20
-505.4639564580307
 30
0.0
 11
832.570113674909
 21
-425.4639564580319
 31
0.0
  0
LINE
  5
2BD
330
1F
100
AcDbEntity
  8
0-0
  6
JWW_DASHED1
 62
   120
370
     5
100
AcDbLine
 10
752.5701136748913
 20
-515.3634513932113
 30
0.0
 11
832.5701136749055
 21
-435.3634513931971
 31
0.0
  0
LINE
  5
2BE
330
1F
100
AcDbEntity
  8
0-0
  6
JWW_DASHED1
 62
   120
370
     5
100
AcDbLine
 10
752.5701136748999
 20
-525.262946328419
 30
0.0
 11
832.5701136748987
 21
-445.2629463284202
 31
0.0
  0
LINE
  5
2BF
330
1F
100
AcDbEntity
  8
0-0
  6
JWW_DASHED1
 62
   120
370
     5
100
AcDbLine
 10
752.5701136749101
 20
-535.1624412635979
 30
0.0
 11
832.570113674909
 21
-455.1624412635991
 31
0.0
  0
LINE
  5
2C0
330
1F
100
AcDbEntity
  8
0-0
  6
JWW_DASHED1
 62
   120
370
     5
100
AcDbLine
 10
752.5701136748896
 20
-545.0619361988083
 30
0.0
 11
832.5701136749021
 21
-465.0619361987933
 31
0.0
  0
LINE
  5
2C1
330
1F
100
AcDbEntity
  8
0-0
  6
JWW_DASHED1
 62
   120
370
     5
100
AcDbLine
 10
752.5701136748964
 20
-554.9614311340162
 30
0.0
 11
832.5701136748953
 21
-474.9614311340173
 31
0.0
  0
LINE
  5
2C2
330
1F
100
AcDbEntity
  8
0-0
  6
JWW_DASHED1
 62
   120
370
     5
100
AcDbLine
 10
752.5701136749067
 20
-564.860926069195
 30
0.0
 11
832.5701136749055
 21
-484.8609260691961
 31
0.0
  0
LINE
  5
2C3
330
1F
100
AcDbEntity
  8
0-0
  6
JWW_DASHED1
 62
   120
370
     5
100
AcDbLine
 10
752.5701136748862
 20
-574.760421004405
 30
0.0
 11
832.5701136749021
 21
-494.7604210043903
 31
0.0
  0
LINE
  5
2C4
330
1F
100
AcDbEntity
  8
0-0
  6
JWW_DASHED1
 62
   120
370
     5
100
AcDbLine
 10
752.5701136748964
 20
-584.6599159396123
 30
0.0
 11
832.5701136748936
 21
-504.6599159396139
 31
0.0
  0
LINE
  5
2C5
330
1F
100
AcDbEntity
  8
0-0
  6
JWW_DASHED1
 62
   120
370
     5
100
AcDbLine
 10
752.5701136749067
 20
-594.5594108747617
 30
0.0
 11
832.5701136749055
 21
-514.5594108747633
 31
0.0
  0
LINE
  5
2C6
330
1F
100
AcDbEntity
  8
0-0
  6
JWW_DASHED1
 62
   120
370
     5
100
AcDbLine
 10
752.5701136748964
 20
-604.4589058099888
 30
0.0
 11
832.5701136749124
 21
-524.4589058099746
 31
0.0
  0
LINE
  5
2C7
330
1F
100
AcDbEntity
  8
0-0
  6
JWW_DASHED1
 62
   120
370
     5
100
AcDbLine
 10
752.570113674893
 20
-614.3584007452093
 30
0.0
 11
832.5701136748919
 21
-534.3584007452105
 31
0.0
  0
LINE
  5
2C8
330
1F
100
AcDbEntity
  8
0-0
  6
JWW_DASHED1
 62
   120
370
     5
100
AcDbLine
 10
752.5701136749067
 20
-624.2578956803584
 30
0.0
 11
832.5701136749055
 21
-544.2578956803595
 31
0.0
  0
LINE
  5
2C9
330
1F
100
AcDbEntity
  8
0-0
  6
JWW_DASHED1
 62
   120
370
     5
100
AcDbLine
 10
752.5701136748982
 20
-634.1573906155825
 30
0.0
 11
832.5701136749124
 21
-554.1573906155678
 31
0.0
  0
LINE
  5
2CA
330
1F
100
AcDbEntity
  8
0-0
  6
JWW_DASHED1
 62
   120
370
     5
100
AcDbLine
 10
752.5701136748896
 20
-644.0568855508064
 30
0.0
 11
832.5701136749055
 21
-564.0568855507913
 31
0.0
  0
LINE
  5
2CB
330
1F
100
AcDbEntity
  8
0-0
  6
JWW_DASHED1
 62
   120
370
     5
100
AcDbLine
 10
752.5701136749033
 20
-653.9563804859554
 30
0.0
 11
832.5701136749021
 21
-573.9563804859565
 31
0.0
  0
LINE
  5
2CC
330
1F
100
AcDbEntity
  8
0-0
  6
JWW_DASHED1
 62
   120
370
     5
100
AcDbLine
 10
752.5701136749118
 20
-663.8558754211633
 30
0.0
 11
832.5701136749107
 21
-583.8558754211645
 31
0.0
  0
LINE
  5
2CD
330
1F
100
AcDbEntity
  8
0-0
  6
JWW_DASHED1
 62
   120
370
     5
100
AcDbLine
 10
752.5701136748896
 20
-673.7553703564026
 30
0.0
 11
832.5701136749021
 21
-593.7553703563884
 31
0.0
  0
LINE
  5
2CE
330
1F
100
AcDbEntity
  8
0-0
  6
JWW_DASHED1
 62
   120
370
     5
100
AcDbLine
 10
752.5701136749016
 20
-683.6548652915517
 30
0.0
 11
832.5701136748987
 21
-603.6548652915532
 31
0.0
  0
LINE
  5
2CF
330
1F
100
AcDbEntity
  8
0-0
  6
JWW_DASHED1
 62
   120
370
     5
100
AcDbLine
 10
752.5701136749101
 20
-693.5543602267599
 30
0.0
 11
832.570113674909
 21
-613.554360226761
 31
0.0
  0
LINE
  5
2D0
330
1F
100
AcDbEntity
  8
0-0
  6
JWW_DASHED1
 62
   120
370
     5
100
AcDbLine
 10
752.5701136748862
 20
-703.4538551619996
 30
0.0
 11
832.5701136749004
 21
-623.4538551619846
 31
0.0
  0
LINE
  5
2D1
330
1F
100
AcDbEntity
  8
0-0
  6
JWW_DASHED1
 62
   120
370
     5
100
AcDbLine
 10
752.5701136748999
 20
-713.3533500971487
 30
0.0
 11
832.5701136748987
 21
-633.3533500971498
 31
0.0
  0
LINE
  5
2D2
330
1F
100
AcDbEntity
  8
0-0
  6
JWW_DASHED1
 62
   120
370
     5
100
AcDbLine
 10
752.5701136749067
 20
-723.2528450323565
 30
0.0
 11
832.5701136749055
 21
-643.2528450323576
 31
0.0
  0
LINE
  5
2D3
330
1F
100
AcDbEntity
  8
0-0
  6
JWW_DASHED1
 62
   120
370
     5
100
AcDbLine
 10
752.5701136748982
 20
-733.1523399675823
 30
0.0
 11
832.5701136749124
 21
-653.152339967568
 31
0.0
  0
LINE
  5
2D4
330
1F
100
AcDbEntity
  8
0-0
  6
JWW_DASHED1
 62
   120
370
     5
100
AcDbLine
 10
752.5701136748964
 20
-743.0518349027449
 30
0.0
 11
832.5701136748953
 21
-663.0518349027465
 31
0.0
  0
LINE
  5
2D5
330
1F
100
AcDbEntity
  8
0-0
  6
JWW_DASHED1
 62
   120
370
     5
100
AcDbLine
 10
752.570113674905
 20
-752.9513298379536
 30
0.0
 11
832.5701136749038
 21
-672.9513298379547
 31
0.0
  0
LINE
  5
2D6
330
1F
100
AcDbEntity
  8
0-0
  6
JWW_DASHED1
 62
   120
370
     5
100
AcDbLine
 10
752.5701136749135
 20
-762.8508247731613
 30
0.0
 11
832.5701136749124
 21
-682.8508247731625
 31
0.0
  0
LINE
  5
2D7
330
1F
100
AcDbEntity
  8
0-0
  6
JWW_DASHED1
 62
   120
370
     5
100
AcDbLine
 10
752.5701136748947
 20
-772.750319708342
 30
0.0
 11
832.5701136748919
 21
-692.7503197083431
 31
0.0
  0
LINE
  5
2D8
330
1F
100
AcDbEntity
  8
0-0
  6
JWW_DASHED1
 62
   120
370
     5
100
AcDbLine
 10
752.5701136749033
 20
-782.6498146435497
 30
0.0
 11
832.5701136749021
 21
-702.6498146435513
 31
0.0
  0
LINE
  5
2D9
330
1F
100
AcDbEntity
  8
0-0
  6
JWW_DASHED1
 62
   120
370
     5
100
AcDbLine
 10
752.5701136749101
 20
-792.549309578758
 30
0.0
 11
832.570113674909
 21
-712.5493095787591
 31
0.0
  0
LINE
  5
2DA
330
1F
100
AcDbEntity
  8
0-0
  6
JWW_DASHED1
 62
   120
370
     5
100
AcDbLine
 10
752.570113674893
 20
-802.448804513939
 30
0.0
 11
832.5701136749072
 21
-722.448804513924
 31
0.0
  0
LINE
  5
2DB
330
1F
100
AcDbEntity
  8
0-0
  6
JWW_DASHED1
 62
   120
370
     5
100
AcDbLine
 10
752.5701136748999
 20
-812.3482994491468
 30
0.0
 11
832.5701136748987
 21
-732.3482994491479
 31
0.0
  0
LINE
  5
2DC
330
1F
100
AcDbEntity
  8
0-0
  6
JWW_DASHED1
 62
   120
370
     5
100
AcDbLine
 10
752.5701136749101
 20
-822.2477943843546
 30
0.0
 11
832.570113674909
 21
-742.2477943843558
 31
0.0
  0
LINE
  5
2DD
330
1F
100
AcDbEntity
  8
0-0
  6
JWW_DASHED1
 62
   120
370
     5
100
AcDbLine
 10
752.5701136748896
 20
-832.1472893195352
 30
0.0
 11
832.5701136749055
 21
-752.147289319521
 31
0.0
  0
LINE
  5
2DE
330
1F
100
AcDbEntity
  8
0-0
  6
JWW_DASHED1
 62
   120
370
     5
100
AcDbLine
 10
752.5701136748982
 20
-842.0467842547434
 30
0.0
 11
832.570113674897
 21
-762.0467842547441
 31
0.0
  0
LINE
  5
2DF
330
1F
100
AcDbEntity
  8
0-0
  6
JWW_DASHED1
 62
   120
370
     5
100
AcDbLine
 10
752.5701136749067
 20
-851.9462791899513
 30
0.0
 11
832.5701136749055
 21
-771.9462791899527
 31
0.0
  0
LINE
  5
2E0
330
1F
100
AcDbEntity
  8
0-0
  6
JWW_DASHED1
 62
   120
370
     5
100
AcDbLine
 10
752.5701136748879
 20
-861.8457741251323
 30
0.0
 11
832.5701136749021
 21
-781.8457741251176
 31
0.0
  0
LINE
  5
2E1
330
1F
100
AcDbEntity
  8
0-0
  6
JWW_DASHED1
 62
   120
370
     5
100
AcDbLine
 10
752.5701136748964
 20
-871.74526906034
 30
0.0
 11
832.5701136748953
 21
-791.7452690603416
 31
0.0
  0
LINE
  5
2E2
330
1F
100
AcDbEntity
  8
0-0
  6
JWW_DASHED1
 62
   120
370
     5
100
AcDbLine
 10
752.5701136749033
 20
-881.6447639955483
 30
0.0
 11
832.5701136749021
 21
-801.644763995549
 31
0.0
  0
LINE
  5
2E3
330
1F
100
AcDbEntity
  8
0-0
  6
JWW_DASHED1
 62
   120
370
     5
100
AcDbLine
 10
752.5701136748999
 20
-891.5442589307139
 30
0.0
 11
832.5701136749158
 21
-811.5442589306997
 31
0.0
  0
LINE
  5
2E4
330
1F
100
AcDbEntity
  8
0-0
  6
JWW_DASHED1
 62
   120
370
     5
100
AcDbLine
 10
752.570113674893
 20
-901.4437538659366
 30
0.0
 11
832.5701136748919
 21
-821.4437538659382
 31
0.0
  0
LINE
  5
2E5
330
1F
100
AcDbEntity
  8
0-0
  6
JWW_DASHED1
 62
   120
370
     5
100
AcDbLine
 10
752.5701136749033
 20
-911.3432488011449
 30
0.0
 11
832.5701136749021
 21
-831.343248801146
 31
0.0
  0
LINE
  5
2E6
330
1F
100
AcDbEntity
  8
0-0
  6
JWW_DASHED1
 62
   120
370
     5
100
AcDbLine
 10
752.5701136748999
 20
-921.2427437363092
 30
0.0
 11
832.5701136749141
 21
-841.2427437362951
 31
0.0
  0
LINE
  5
2E7
330
1F
100
AcDbEntity
  8
0-0
  6
JWW_DASHED1
 62
   120
370
     5
100
AcDbLine
 10
752.570113674893
 20
-931.1422386715333
 30
0.0
 11
832.5701136749055
 21
-851.1422386715191
 31
0.0
  0
LINE
  5
2E8
330
1F
100
AcDbEntity
  8
0-0
  6
JWW_DASHED1
 62
   120
370
     5
100
AcDbLine
 10
752.5701136748999
 20
-941.0417336067416
 30
0.0
 11
832.5701136748987
 21
-861.0417336067427
 31
0.0
  0
LINE
  5
2E9
330
1F
100
AcDbEntity
  8
0-0
  6
JWW_DASHED1
 62
   120
370
     5
100
AcDbLine
 10
753.4814006151075
 20
-950.029941601696
 30
0.0
 11
832.5701136749124
 21
-870.9412285418921
 31
0.0
  0
LINE
  5
2EA
330
1F
100
AcDbEntity
  8
0-0
  6
JWW_DASHED1
 62
   120
370
     5
100
AcDbLine
 10
763.3808955503443
 20
-950.0299416016748
 30
0.0
 11
832.5701136749038
 21
-880.8407234771162
 31
0.0
  0
LINE
  5
2EB
330
1F
100
AcDbEntity
  8
0-0
  6
JWW_DASHED1
 62
   120
370
     5
100
AcDbLine
 10
773.2803904855539
 20
-950.0299416016808
 30
0.0
 11
832.570113674897
 21
-890.7402184123393
 31
0.0
  0
LINE
  5
2EC
330
1F
100
AcDbEntity
  8
0-0
  6
JWW_DASHED1
 62
   120
370
     5
100
AcDbLine
 10
783.1798854207054
 20
-950.0299416016935
 30
0.0
 11
832.570113674909
 21
-900.6397133474883
 31
0.0
  0
LINE
  5
2ED
330
1F
100
AcDbEntity
  8
0-0
  6
JWW_DASHED1
 62
   120
370
     5
100
AcDbLine
 10
793.0793803559201
 20
-950.0299416016944
 30
0.0
 11
832.5701136749175
 21
-910.539208282697
 31
0.0
  0
LINE
  5
2EE
330
1F
100
AcDbEntity
  8
0-0
  6
JWW_DASHED1
 62
   120
370
     5
100
AcDbLine
 10
802.9788752911518
 20
-950.0299416016782
 30
0.0
 11
832.5701136748953
 21
-920.4387032179363
 31
0.0
  0
LINE
  5
2EF
330
1F
100
AcDbEntity
  8
0-0
  6
JWW_DASHED1
 62
   120
370
     5
100
AcDbLine
 10
812.8783702262999
 20
-950.029941601691
 30
0.0
 11
832.5701136749072
 21
-930.3381981530854
 31
0.0
  0
LINE
  5
2F0
330
1F
100
AcDbEntity
  8
0-0
  6
JWW_DASHED1
 62
   120
370
     5
100
AcDbLine
 10
822.7778651615129
 20
-950.0299416016969
 30
0.0
 11
832.5701136749158
 21
-940.2376930882931
 31
0.0
  0
MTEXT
  5
2F1
330
1F
100
AcDbEntity
  8
文字
  6
Continuous
 62
     7
370
     9
100
AcDbMText
 10
-1494.429886325106
 20
1569.953440338534
 30
0.0
 40
45.71999999999998
 41
1620.0
 46
0.0
 71
     7
 72
     1
  1
{\fＭＳ ゴシック|b0|i0|c128|p49;※ＸＭは縦木目柄、ＬＭは横木目柄のデザインとなります。}
 73
     1
 44
1.0
  0
LINE
  5
2F2
330
1F
100
AcDbEntity
  8
寸法
  6
Continuous
 62
   120
370
     5
100
AcDbLine
 10
-1394.429886325105
 20
1068.970058398321
 30
0.0
 11
-1394.429886325105
 21
-978.0299416016792
 31
0.0
  0
LINE
  5
2F3
330
1F
100
AcDbEntity
  8
寸法
  6
Continuous
 62
   120
370
     5
100
AcDbLine
 10
-1394.429886325105
 20
1068.970058398321
 30
0.0
 11
-994.4298863251039
 21
1068.970058398321
 31
0.0
  0
LINE
  5
2F4
330
1F
100
AcDbEntity
  8
寸法
  6
Continuous
 62
   120
370
     5
100
AcDbLine
 10
-1394.429886325105
 20
-978.0299416016792
 30
0.0
 11
-994.4298863251039
 21
-978.0299416016792
 31
0.0
  0
LINE
  5
2F5
330
1F
100
AcDbEntity
  8
寸法
  6
Continuous
 62
   120
370
     5
100
AcDbLine
 10
-1194.429886325106
 20
-958.0299416016785
 30
0.0
 11
-994.4298863251039
 21
-958.0299416016785
 31
0.0
  0
LWPOLYLINE
  5
2F6
330
1F
100
AcDbEntity
  8
寸法
  6
Continuous
 62
     7
370
     9
100
AcDbPolyline
 90
        4
 70
     1
 43
3.0
 10
-1392.929886325105
 20
1068.970058398321
 42
0.4142135623731
 10
-1394.429886325105
 20
1070.470058398321
 42
0.4142135623731
 10
-1395.929886325105
 20
1068.970058398321
 42
0.4142135623731
 10
-1394.429886325105
 20
1067.470058398321
 42
0.4142135623731
  0
LWPOLYLINE
  5
2F7
330
1F
100
AcDbEntity
  8
寸法
  6
Continuous
 62
     7
370
     9
100
AcDbPolyline
 90
        4
 70
     1
 43
3.0
 10
-1392.929886325105
 20
-978.0299416016792
 42
0.4142135623731
 10
-1394.429886325105
 20
-976.5299416016792
 42
0.4142135623731
 10
-1395.929886325105
 20
-978.0299416016792
 42
0.4142135623731
 10
-1394.429886325105
 20
-979.5299416016791
 42
0.4142135623731
  0
LWPOLYLINE
  5
2F8
330
1F
100
AcDbEntity
  8
寸法
  6
Continuous
 62
     7
370
     9
100
AcDbPolyline
 90
        4
 70
     1
 43
3.0
 10
-1192.929886325106
 20
-958.0299416016785
 42
0.4142135623731
 10
-1194.429886325106
 20
-956.5299416016784
 42
0.4142135623731
 10
-1195.929886325106
 20
-958.0299416016785
 42
0.4142135623731
 10
-1194.429886325106
 20
-959.5299416016785
 42
0.4142135623731
  0
LINE
  5
2F9
330
1F
100
AcDbEntity
  8
寸法
  6
Continuous
 62
   120
370
     5
100
AcDbLine
 10
-1194.429886325106
 20
1024.970058398322
 30
0.0
 11
-994.4298863251039
 21
1024.970058398322
 31
0.0
  0
LINE
  5
2FA
330
1F
100
AcDbEntity
  8
寸法
  6
Continuous
 62
   120
370
     5
100
AcDbLine
 10
-1194.429886325106
 20
1024.970058398322
 30
0.0
 11
-1194.429886325106
 21
-958.0299416016785
 31
0.0
  0
LWPOLYLINE
  5
2FB
330
1F
100
AcDbEntity
  8
寸法
  6
Continuous
 62
     7
370
     9
100
AcDbPolyline
 90
        4
 70
     1
 43
3.0
 10
-1192.929886325106
 20
1024.970058398322
 42
0.4142135623731
 10
-1194.429886325106
 20
1026.470058398322
 42
0.4142135623731
 10
-1195.929886325106
 20
1024.970058398322
 42
0.4142135623731
 10
-1194.429886325106
 20
1023.470058398322
 42
0.4142135623731
  0
LINE
  5
2FC
330
1F
100
AcDbEntity
  8
寸法
  6
Continuous
 62
   120
370
     5
100
AcDbLine
 10
-914.4298863251051
 20
-1428.029941601679
 30
0.0
 11
-914.4298863251051
 21
-1028.02994160168
 31
0.0
  0
LINE
  5
2FD
330
1F
100
AcDbEntity
  8
寸法
  6
Continuous
 62
   120
370
     5
100
AcDbLine
 10
-944.4298863251051
 20
-1628.029941601679
 30
0.0
 11
-944.4298863251051
 21
-1028.02994160168
 31
0.0
  0
LINE
  5
2FE
330
1F
100
AcDbEntity
  8
寸法
  6
Continuous
 62
   120
370
     5
100
AcDbLine
 10
-944.4298863251051
 20
-1628.029941601679
 30
0.0
 11
2262.570113674895
 21
-1628.029941601679
 31
0.0
  0
LINE
  5
2FF
330
1F
100
AcDbEntity
  8
寸法
  6
Continuous
 62
   120
370
     5
100
AcDbLine
 10
2262.570113674895
 20
-1628.029941601679
 30
0.0
 11
2262.570113674895
 21
-1028.029941601679
 31
0.0
  0
LINE
  5
300
330
1F
100
AcDbEntity
  8
寸法
  6
Continuous
 62
   120
370
     5
100
AcDbLine
 10
-917.4298863251058
 20
-1228.029941601679
 30
0.0
 11
-917.4298863251058
 21
-1028.02994160168
 31
0.0
  0
LINE
  5
301
330
1F
100
AcDbEntity
  8
寸法
  6
Continuous
 62
   120
370
     5
100
AcDbLine
 10
-917.4298863251058
 20
-1228.029941601679
 30
0.0
 11
-107.429886325105
 21
-1228.029941601679
 31
0.0
  0
LINE
  5
302
330
1F
100
AcDbEntity
  8
寸法
  6
Continuous
 62
   120
370
     5
100
AcDbLine
 10
-107.429886325105
 20
-1228.029941601679
 30
0.0
 11
-107.429886325105
 21
-1028.02994160168
 31
0.0
  0
LINE
  5
303
330
1F
100
AcDbEntity
  8
寸法
  6
Continuous
 62
   120
370
     5
100
AcDbLine
 10
-914.4298863251051
 20
-1428.029941601679
 30
0.0
 11
1422.570113674895
 21
-1428.029941601679
 31
0.0
  0
LINE
  5
304
330
1F
100
AcDbEntity
  8
寸法
  6
Continuous
 62
   120
370
     5
100
AcDbLine
 10
1422.570113674895
 20
-1428.029941601679
 30
0.0
 11
1422.570113674895
 21
-1028.029941601679
 31
0.0
  0
LWPOLYLINE
  5
305
330
1F
100
AcDbEntity
  8
寸法
  6
Continuous
 62
     7
370
     9
100
AcDbPolyline
 90
        4
 70
     1
 43
3.0
 10
-912.9298863251051
 20
-1428.029941601679
 42
0.4142135623731
 10
-914.4298863251051
 20
-1426.529941601679
 42
0.4142135623731
 10
-915.9298863251051
 20
-1428.029941601679
 42
0.4142135623731
 10
-914.4298863251051
 20
-1429.529941601679
 42
0.4142135623731
  0
LWPOLYLINE
  5
306
330
1F
100
AcDbEntity
  8
寸法
  6
Continuous
 62
     7
370
     9
100
AcDbPolyline
 90
        4
 70
     1
 43
3.0
 10
-942.9298863251051
 20
-1628.029941601679
 42
0.4142135623731
 10
-944.4298863251051
 20
-1626.529941601679
 42
0.4142135623731
 10
-945.9298863251051
 20
-1628.029941601679
 42
0.4142135623731
 10
-944.4298863251051
 20
-1629.529941601679
 42
0.4142135623731
  0
LWPOLYLINE
  5
307
330
1F
100
AcDbEntity
  8
寸法
  6
Continuous
 62
     7
370
     9
100
AcDbPolyline
 90
        4
 70
     1
 43
3.0
 10
2264.070113674895
 20
-1628.029941601679
 42
0.4142135623731
 10
2262.570113674895
 20
-1626.529941601679
 42
0.4142135623731
 10
2261.070113674895
 20
-1628.029941601679
 42
0.4142135623731
 10
2262.570113674895
 20
-1629.529941601678
 42
0.4142135623731
  0
LWPOLYLINE
  5
308
330
1F
100
AcDbEntity
  8
寸法
  6
Continuous
 62
     7
370
     9
100
AcDbPolyline
 90
        4
 70
     1
 43
3.0
 10
-915.9298863251058
 20
-1228.029941601679
 42
0.4142135623731
 10
-917.4298863251058
 20
-1226.529941601679
 42
0.4142135623731
 10
-918.9298863251058
 20
-1228.029941601679
 42
0.4142135623731
 10
-917.4298863251058
 20
-1229.529941601679
 42
0.4142135623731
  0
LWPOLYLINE
  5
309
330
1F
100
AcDbEntity
  8
寸法
  6
Continuous
 62
     7
370
     9
100
AcDbPolyline
 90
        4
 70
     1
 43
3.0
 10
-105.929886325105
 20
-1228.029941601679
 42
0.4142135623731
 10
-107.429886325105
 20
-1226.529941601679
 42
0.4142135623731
 10
-108.929886325105
 20
-1228.029941601679
 42
0.4142135623731
 10
-107.429886325105
 20
-1229.529941601679
 42
0.4142135623731
  0
LWPOLYLINE
  5
30A
330
1F
100
AcDbEntity
  8
寸法
  6
Continuous
 62
     7
370
     9
100
AcDbPolyline
 90
        4
 70
     1
 43
3.0
 10
1424.070113674895
 20
-1428.029941601679
 42
0.4142135623731
 10
1422.570113674895
 20
-1426.529941601679
 42
0.4142135623731
 10
1421.070113674895
 20
-1428.029941601679
 42
0.4142135623731
 10
1422.570113674895
 20
-1429.529941601679
 42
0.4142135623731
  0
MTEXT
  5
30B
330
1F
100
AcDbEntity
  8
寸法
  6
Continuous
 62
     7
370
    70
100
AcDbMText
 10
-1409.429886325105
 20
-169.7049416016781
 30
0.0
 40
57.14999999999999
 41
412.5
 46
0.0
 71
     7
 72
     1
  1
{\fＭＳ ゴシック|b0|i0|c128|p49;枠外＝2,047}
 11
6.123031769111886E-17
 21
1.0
 31
0.0
 73
     1
 44
1.0
  0
MTEXT
  5
30C
330
1F
100
AcDbEntity
  8
寸法
  6
Continuous
 62
     7
370
    70
100
AcDbMText
 10
-1209.429886325106
 20
-175.7049416016786
 30
0.0
 40
57.14999999999999
 41
412.5
 46
0.0
 71
     7
 72
     1
  1
{\fＭＳ ゴシック|b0|i0|c128|p49;ＤＨ＝1,983}
 11
6.123031769111886E-17
 21
1.0
 31
0.0
 73
     1
 44
1.0
  0
MTEXT
  5
30D
330
1F
100
AcDbEntity
  8
寸法
  6
Continuous
 62
     7
370
   211
100
AcDbMText
 10
-681.179886325105
 20
-1221.954941601679
 30
0.0
 40
57.15
 41
337.5
 46
0.0
 71
     7
 72
     1
  1
{\fＭＳ ゴシック|b0|i0|c128|p49;ＤＷ＝810}
 73
     1
 44
1.0
  0
MTEXT
  5
30E
330
1F
100
AcDbEntity
  8
寸法
  6
Continuous
 62
     7
370
   211
100
AcDbMText
 10
-27.17988632510764
 20
-1421.954941601679
 30
0.0
 40
57.1500000000001
 41
562.5000000000009
 46
0.0
 71
     7
 72
     1
  1
{\fＭＳ ゴシック|b0|i0|c128|p49;有効開口＝2,337}
 73
     1
 44
1.0
  0
MTEXT
  5
30F
330
1F
100
AcDbEntity
  8
寸法
  6
Continuous
 62
     7
370
   211
100
AcDbMText
 10
452.8201136748928
 20
-1621.954941601679
 30
0.0
 40
57.14999999999999
 41
412.5
 46
0.0
 71
     7
 72
     1
  1
{\fＭＳ ゴシック|b0|i0|c128|p49;枠外＝3,207}
 73
     1
 44
1.0
  0
ENDSEC
  0
SECTION
  2
OBJECTS
  0
DICTIONARY
  5
C
330
0
100
AcDbDictionary
281
     1
  3
ACAD_GROUP
350
D
  3
ACAD_LAYOUT
350
1A
  3
ACAD_MATERIAL
350
3B
  3
ACAD_MLEADERSTYLE
350
311
  3
ACAD_MLINESTYLE
350
17
  3
ACAD_PLOTSETTINGS
350
19
  3
ACAD_PLOTSTYLENAME
350
E
  3
ACAD_TABLESTYLE
350
310
  3
ACAD_VISUALSTYLE
350
2A
  0
DICTIONARY
  5
D
102
{ACAD_REACTORS
330
C
102
}
330
C
100
AcDbDictionary
281
     1
  0
DICTIONARY
  5
1A
102
{ACAD_REACTORS
330
C
102
}
330
C
100
AcDbDictionary
281
     1
  3
Layout1
350
1E
  3
Layout2
350
26
  3
Model
350
22
  0
DICTIONARY
  5
3B
102
{ACAD_REACTORS
330
C
102
}
330
C
100
AcDbDictionary
281
     1
  3
ByBlock
350
3D
  3
ByLayer
350
3C
  3
Global
350
3E
  0
DICTIONARY
  5
311
102
{ACAD_REACTORS
330
C
102
}
330
C
100
AcDbDictionary
281
     1
  0
DICTIONARY
  5
17
102
{ACAD_REACTORS
330
C
102
}
330
C
100
AcDbDictionary
281
     1
  3
Standard
350
18
  0
DICTIONARY
  5
19
102
{ACAD_REACTORS
330
C
102
}
330
C
100
AcDbDictionary
281
     1
  0
ACDBDICTIONARYWDFLT
  5
E
102
{ACAD_REACTORS
330
C
102
}
330
C
100
AcDbDictionary
281
     1
  3
Normal
350
F
100
AcDbDictionaryWithDefault
340
F
  0
DICTIONARY
  5
310
102
{ACAD_REACTORS
330
C
102
}
330
C
100
AcDbDictionary
281
     1
  0
DICTIONARY
  5
2A
102
{ACAD_REACTORS
330
C
102
}
330
C
100
AcDbDictionary
281
     1
  3
2dWireframe
350
2F
  3
3D Hidden
350
31
  3
3dWireframe
350
30
  3
Basic
350
32
  3
Brighten
350
36
  3
ColorChange
350
3A
  3
Conceptual
350
34
  3
Dim
350
35
  3
Facepattern
350
39
  3
Flat
350
2B
  3
FlatWithEdges
350
2C
  3
Gouraud
350
2D
  3
GouraudWithEdges
350
2E
  3
Linepattern
350
38
  3
Realistic
350
33
  3
Thicken
350
37
  0
LAYOUT
  5
1E
102
{ACAD_REACTORS
330
1A
102
}
330
1A
100
AcDbPlotSettings
  1

  2
none_device
  4

  6

 40
0.0
 41
0.0
 42
0.0
 43
0.0
 44
0.0
 45
0.0
 46
0.0
 47
0.0
 48
0.0
 49
0.0
140
0.0
141
0.0
142
1.0
143
1.0
 70
   688
 72
     0
 73
     0
 74
     5
  7

 75
    16
 76
     0
 77
     5
 78
   300
147
1.0
148
0.0
149
0.0
100
AcDbLayout
  1
Layout1
 70
     1
 71
     1
 10
0.0
 20
0.0
 11
420.0
 21
297.0
 12
0.0
 22
0.0
 32
0.0
 14
1.000000000000000E+20
 24
1.000000000000000E+20
 34
1.000000000000000E+20
 15
-1.000000000000000E+20
 25
-1.000000000000000E+20
 35
-1.000000000000000E+20
146
0.0
 13
0.0
 23
0.0
 33
0.0
 16
1.0
 26
0.0
 36
0.0
 17
0.0
 27
1.0
 37
0.0
 76
     0
330
1B
  0
LAYOUT
  5
26
102
{ACAD_REACTORS
330
1A
102
}
330
1A
100
AcDbPlotSettings
  1

  2
none_device
  4

  6

 40
0.0
 41
0.0
 42
0.0
 43
0.0
 44
0.0
 45
0.0
 46
0.0
 47
0.0
 48
0.0
 49
0.0
140
0.0
141
0.0
142
1.0
143
1.0
 70
   688
 72
     0
 73
     0
 74
     5
  7

 75
    16
 76
     0
 77
     5
 78
   300
147
1.0
148
0.0
149
0.0
100
AcDbLayout
  1
Layout2
 70
     1
 71
     2
 10
0.0
 20
0.0
 11
0.0
 21
0.0
 12
0.0
 22
0.0
 32
0.0
 14
0.0
 24
0.0
 34
0.0
 15
0.0
 25
0.0
 35
0.0
146
0.0
 13
0.0
 23
0.0
 33
0.0
 16
1.0
 26
0.0
 36
0.0
 17
0.0
 27
1.0
 37
0.0
 76
     0
330
23
  0
LAYOUT
  5
22
102
{ACAD_REACTORS
330
1A
102
}
330
1A
100
AcDbPlotSettings
  1

  2
none_device
  4

  6

 40
0.0
 41
0.0
 42
0.0
 43
0.0
 44
0.0
 45
0.0
 46
0.0
 47
0.0
 48
0.0
 49
0.0
140
0.0
141
0.0
142
1.0
143
1.0
 70
  1712
 72
     0
 73
     0
 74
     0
  7

 75
     0
 76
     0
 77
     5
 78
   300
147
1.0
148
0.0
149
0.0
100
AcDbLayout
  1
Model
 70
     1
 71
     0
 10
-4455.0
 20
-3150.0
 11
4455.0
 21
3150.0
 12
0.0
 22
0.0
 32
0.0
 14
-4455.0
 24
-3150.0
 34
0.0
 15
4455.0
 25
3150.0
 35
0.0
146
0.0
 13
0.0
 23
0.0
 33
0.0
 16
1.0
 26
0.0
 36
0.0
 17
0.0
 27
1.0
 37
0.0
 76
     0
330
1F
331
29
  0
MATERIAL
  5
3D
102
{ACAD_REACTORS
330
3B
102
}
330
3B
100
AcDbMaterial
  1
ByBlock
 72
     1
 94
      127
  0
MATERIAL
  5
3C
102
{ACAD_REACTORS
330
3B
102
}
330
3B
100
AcDbMaterial
  1
ByLayer
 72
     1
 94
      127
  0
MATERIAL
  5
3E
102
{ACAD_REACTORS
330
3B
102
}
330
3B
100
AcDbMaterial
  1
Global
 72
     1
 94
      127
  0
MLINESTYLE
  5
18
102
{ACAD_REACTORS
330
17
102
}
330
17
100
AcDbMlineStyle
  2
Standard
 70
     0
  3

 62
   256
 51
90.0
 52
90.0
 71
     2
 49
0.5
 62
   256
  6
BYLAYER
 49
-0.5
 62
   256
  6
BYLAYER
  0
ACDBPLACEHOLDER
  5
F
102
{ACAD_REACTORS
330
E
102
}
330
E
  0
VISUALSTYLE
  5
2F
102
{ACAD_REACTORS
330
2A
102
}
330
2A
100
AcDbVisualStyle
  2
2dWireframe
 70
     4
177
     2
291
     0
 71
     0
176
     1
 72
     2
176
     1
 73
     0
176
     1
 90
        0
176
     1
 40
-0.6
176
     1
 41
-30.0
176
     1
 62
     5
 63
     7
421
 16777215
176
     1
 74
     1
176
     1
 91
        4
176
     1
 64
     7
176
     1
 65
   257
176
     1
 75
     1
176
     1
175
     1
176
     1
 42
1.0
176
     1
 92
        0
176
     1
 66
   257
176
     1
 43
1.0
176
     1
 76
     1
176
     1
 77
     6
176
     1
 78
     2
176
     1
 67
     7
176
     1
 79
     5
176
     1
170
     0
176
     1
171
     0
176
     1
290
     0
176
     1
 93
        1
176
     1
 44
0.0
176
     1
173
     0
176
     1
  0
VISUALSTYLE
  5
31
102
{ACAD_REACTORS
330
2A
102
}
330
2A
100
AcDbVisualStyle
  2
3D Hidden
 70
     6
177
     2
291
     0
 71
     1
176
     1
 72
     2
176
     1
 73
     2
176
     1
 90
        0
176
     1
 40
-0.6
176
     1
 41
-30.0
176
     1
 62
     5
 63
     7
421
 16777215
176
     1
 74
     2
176
     1
 91
        2
176
     1
 64
     7
176
     1
 65
   257
176
     1
 75
     2
176
     1
175
     1
176
     1
 42
40.0
176
     1
 92
        0
176
     1
 66
   257
176
     1
 43
1.0
176
     1
 76
     1
176
     1
 77
     6
176
     1
 78
     2
176
     1
 67
     7
176
     1
 79
     3
176
     1
170
     0
176
     1
171
     0
176
     1
290
     0
176
     1
 93
        1
176
     1
 44
0.0
176
     1
173
     0
176
     1
  0
VISUALSTYLE
  5
30
102
{ACAD_REACTORS
330
2A
102
}
330
2A
100
AcDbVisualStyle
  2
3dWireframe
 70
     5
177
     2
291
     0
 71
     0
176
     1
 72
     2
176
     1
 73
     0
176
     1
 90
        0
176
     1
 40
-0.6
176
     1
 41
-30.0
176
     1
 62
     5
 63
     7
421
 16777215
176
     1
 74
     1
176
     1
 91
        4
176
     1
 64
     7
176
     1
 65
   257
176
     1
 75
     1
176
     1
175
     1
176
     1
 42
1.0
176
     1
 92
        0
176
     1
 66
   257
176
     1
 43
1.0
176
     1
 76
     1
176
     1
 77
     6
176
     1
 78
     2
176
     1
 67
     7
176
     1
 79
     5
176
     1
170
     0
176
     1
171
     0
176
     1
290
     0
176
     1
 93
        1
176
     1
 44
0.0
176
     1
173
     0
176
     1
  0
VISUALSTYLE
  5
32
102
{ACAD_REACTORS
330
2A
102
}
330
2A
100
AcDbVisualStyle
  2
Basic
 70
     7
177
     2
291
     1
 71
     1
176
     1
 72
     0
176
     1
 73
     1
176
     1
 90
        0
176
     1
 40
-0.6
176
     1
 41
-30.0
176
     1
 62
     5
 63
     7
421
 16777215
176
     1
 74
     0
176
     1
 91
        4
176
     1
 64
     7
176
     1
 65
   257
176
     1
 75
     1
176
     1
175
     1
176
     1
 42
1.0
176
     1
 92
        8
176
     1
 66
     7
176
     1
 43
1.0
176
     1
 76
     1
176
     1
 77
     6
176
     1
 78
     2
176
     1
 67
     7
176
     1
 79
     5
176
     1
170
     0
176
     1
171
     0
176
     1
290
     0
176
     1
 93
        1
176
     1
 44
0.0
176
     1
173
     0
176
     1
  0
VISUALSTYLE
  5
36
102
{ACAD_REACTORS
330
2A
102
}
330
2A
100
AcDbVisualStyle
  2
Brighten
 70
    12
177
     2
291
     1
 71
     2
176
     1
 72
     2
176
     1
 73
     0
176
     1
 90
        0
176
     1
 40
-0.6
176
     1
 41
-30.0
176
     1
 62
     5
 63
     7
421
 16777215
176
     1
 74
     1
176
     1
 91
        4
176
     1
 64
     7
176
     1
 65
   257
176
     1
 75
     1
176
     1
175
     1
176
     1
 42
1.0
176
     1
 92
        8
176
     1
 66
     7
176
     1
 43
1.0
176
     1
 76
     1
176
     1
 77
     6
176
     1
 78
     2
176
     1
 67
     7
176
     1
 79
     5
176
     1
170
     0
176
     1
171
     0
176
     1
290
     0
176
     1
 93
        1
176
     1
 44
50.0
176
     1
173
     0
176
     1
  0
VISUALSTYLE
  5
3A
102
{ACAD_REACTORS
330
2A
102
}
330
2A
100
AcDbVisualStyle
  2
ColorChange
 70
    16
177
     2
291
     1
 71
     2
176
     1
 72
     2
176
     1
 73
     3
176
     1
 90
        0
176
     1
 40
-0.6
176
     1
 41
-30.0
176
     1
 62
     5
 63
     8
421
  8421504
176
     1
 74
     1
176
     1
 91
        4
176
     1
 64
     7
176
     1
 65
   257
176
     1
 75
     1
176
     1
175
     1
176
     1
 42
1.0
176
     1
 92
        8
176
     1
 66
     8
424
  8421504
176
     1
 43
1.0
176
     1
 76
     1
176
     1
 77
     6
176
     1
 78
     2
176
     1
 67
     7
176
     1
 79
     5
176
     1
170
     0
176
     1
171
     0
176
     1
290
     0
176
     1
 93
        1
176
     1
 44
0.0
176
     1
173
     0
176
     1
  0
VISUALSTYLE
  5
34
102
{ACAD_REACTORS
330
2A
102
}
330
2A
100
AcDbVisualStyle
  2
Conceptual
 70
     9
177
     2
291
     0
 71
     3
176
     1
 72
     2
176
     1
 73
     0
176
     1
 90
        0
176
     1
 40
-0.6
176
     1
 41
-30.0
176
     1
 62
     5
 63
     7
421
 16777215
176
     1
 74
     2
176
     1
 91
        2
176
     1
 64
     7
176
     1
 65
   257
176
     1
 75
     1
176
     1
175
     1
176
     1
 42
40.0
176
     1
 92
        8
176
     1
 66
     7
176
     1
 43
1.0
176
     1
 76
     1
176
     1
 77
     6
176
     1
 78
     2
176
     1
 67
     7
176
     1
 79
     3
176
     1
170
     0
176
     1
171
     0
176
     1
290
     0
176
     1
 93
        1
176
     1
 44
0.0
176
     1
173
     0
176
     1
  0
VISUALSTYLE
  5
35
102
{ACAD_REACTORS
330
2A
102
}
330
2A
100
AcDbVisualStyle
  2
Dim
 70
    11
177
     2
291
     1
 71
     2
176
     1
 72
     2
176
     1
 73
     0
176
     1
 90
        0
176
     1
 40
-0.6
176
     1
 41
-30.0
176
     1
 62
     5
 63
     7
421
 16777215
176
     1
 74
     1
176
     1
 91
        4
176
     1
 64
     7
176
     1
 65
   257
176
     1
 75
     1
176
     1
175
     1
176
     1
 42
1.0
176
     1
 92
        8
176
     1
 66
     7
176
     1
 43
1.0
176
     1
 76
     1
176
     1
 77
     6
176
     1
 78
     2
176
     1
 67
     7
176
     1
 79
     5
176
     1
170
     0
176
     1
171
     0
176
     1
290
     0
176
     1
 93
        1
176
     1
 44
-50.0
176
     1
173
     0
176
     1
  0
VISUALSTYLE
  5
39
102
{ACAD_REACTORS
330
2A
102
}
330
2A
100
AcDbVisualStyle
  2
Facepattern
 70
    15
177
     2
291
     1
 71
     2
176
     1
 72
     2
176
     1
 73
     0
176
     1
 90
        0
176
     1
 40
-0.6
176
     1
 41
-30.0
176
     1
 62
     5
 63
     7
421
 16777215
176
     1
 74
     1
176
     1
 91
        4
176
     1
 64
     7
176
     1
 65
   257
176
     1
 75
     1
176
     1
175
     1
176
     1
 42
1.0
176
     1
 92
        8
176
     1
 66
     7
176
     1
 43
1.0
176
     1
 76
     1
176
     1
 77
     6
176
     1
 78
     2
176
     1
 67
     7
176
     1
 79
     5
176
     1
170
     0
176
     1
171
     0
176
     1
290
     0
176
     1
 93
        1
176
     1
 44
0.0
176
     1
173
     0
176
     1
  0
VISUALSTYLE
  5
2B
102
{ACAD_REACTORS
330
2A
102
}
330
2A
100
AcDbVisualStyle
  2
Flat
 70
     0
177
     2
291
     1
 71
     2
176
     1
 72
     1
176
     1
 73
     1
176
     1
 90
        2
176
     1
 40
-0.6
176
     1
 41
30.0
176
     1
 62
     5
 63
     7
421
 16777215
176
     1
 74
     0
176
     1
 91
        4
176
     1
 64
     7
176
     1
 65
   257
176
     1
 75
     1
176
     1
175
     1
176
     1
 42
1.0
176
     1
 92
        8
176
     1
 66
     7
176
     1
 43
1.0
176
     1
 76
     1
176
     1
 77
     6
176
     1
 78
     2
176
     1
 67
     7
176
     1
 79
     5
176
     1
170
     0
176
     1
171
     0
176
     1
290
     0
176
     1
 93
       13
176
     1
 44
0.0
176
     1
173
     0
176
     1
  0
VISUALSTYLE
  5
2C
102
{ACAD_REACTORS
330
2A
102
}
330
2A
100
AcDbVisualStyle
  2
FlatWithEdges
 70
     1
177
     2
291
     1
 71
     2
176
     1
 72
     1
176
     1
 73
     1
176
     1
 90
        2
176
     1
 40
-0.6
176
     1
 41
30.0
176
     1
 62
     5
 63
     7
421
 16777215
176
     1
 74
     1
176
     1
 91
        4
176
     1
 64
     7
176
     1
 65
   257
176
     1
 75
     1
176
     1
175
     1
176
     1
 42
1.0
176
     1
 92
        0
176
     1
 66
   257
176
     1
 43
1.0
176
     1
 76
     1
176
     1
 77
     6
176
     1
 78
     2
176
     1
 67
     7
176
     1
 79
     5
176
     1
170
     0
176
     1
171
     0
176
     1
290
     0
176
     1
 93
       13
176
     1
 44
0.0
176
     1
173
     0
176
     1
  0
VISUALSTYLE
  5
2D
102
{ACAD_REACTORS
330
2A
102
}
330
2A
100
AcDbVisualStyle
  2
Gouraud
 70
     2
177
     2
291
     1
 71
     2
176
     1
 72
     2
176
     1
 73
     1
176
     1
 90
        2
176
     1
 40
-0.6
176
     1
 41
30.0
176
     1
 62
     5
 63
     7
421
 16777215
176
     1
 74
     0
176
     1
 91
        4
176
     1
 64
     7
176
     1
 65
   257
176
     1
 75
     1
176
     1
175
     1
176
     1
 42
1.0
176
     1
 92
        0
176
     1
 66
     7
176
     1
 43
1.0
176
     1
 76
     1
176
     1
 77
     6
176
     1
 78
     2
176
     1
 67
     7
176
     1
 79
     5
176
     1
170
     0
176
     1
171
     0
176
     1
290
     0
176
     1
 93
       13
176
     1
 44
0.0
176
     1
173
     0
176
     1
  0
VISUALSTYLE
  5
2E
102
{ACAD_REACTORS
330
2A
102
}
330
2A
100
AcDbVisualStyle
  2
GouraudWithEdges
 70
     3
177
     2
291
     1
 71
     2
176
     1
 72
     2
176
     1
 73
     1
176
     1
 90
        2
176
     1
 40
-0.6
176
     1
 41
30.0
176
     1
 62
     5
 63
     7
421
 16777215
176
     1
 74
     1
176
     1
 91
        4
176
     1
 64
     7
176
     1
 65
   257
176
     1
 75
     1
176
     1
175
     1
176
     1
 42
1.0
176
     1
 92
        0
176
     1
 66
   257
176
     1
 43
1.0
176
     1
 76
     1
176
     1
 77
     6
176
     1
 78
     2
176
     1
 67
     7
176
     1
 79
     5
176
     1
170
     0
176
     1
171
     0
176
     1
290
     0
176
     1
 93
       13
176
     1
 44
0.0
176
     1
173
     0
176
     1
  0
VISUALSTYLE
  5
38
102
{ACAD_REACTORS
330
2A
102
}
330
2A
100
AcDbVisualStyle
  2
Linepattern
 70
    14
177
     2
291
     1
 71
     2
176
     1
 72
     2
176
     1
 73
     0
176
     1
 90
        0
176
     1
 40
-0.6
176
     1
 41
-30.0
176
     1
 62
     5
 63
     7
421
 16777215
176
     1
 74
     1
176
     1
 91
        4
176
     1
 64
     7
176
     1
 65
   257
176
     1
 75
     7
176
     1
175
     7
176
     1
 42
1.0
176
     1
 92
        8
176
     1
 66
     7
176
     1
 43
1.0
176
     1
 76
     1
176
     1
 77
     6
176
     1
 78
     2
176
     1
 67
     7
176
     1
 79
     5
176
     1
170
     0
176
     1
171
     0
176
     1
290
     0
176
     1
 93
        1
176
     1
 44
0.0
176
     1
173
     0
176
     1
  0
VISUALSTYLE
  5
33
102
{ACAD_REACTORS
330
2A
102
}
330
2A
100
AcDbVisualStyle
  2
Realistic
 70
     8
177
     2
291
     0
 71
     2
176
     1
 72
     2
176
     1
 73
     0
176
     1
 90
        0
176
     1
 40
-0.6
176
     1
 41
-30.0
176
     1
 62
     5
 63
     7
421
 16777215
176
     1
 74
     1
176
     1
 91
        0
176
     1
 64
     7
176
     1
 65
   257
176
     1
 75
     1
176
     1
175
     1
176
     1
 42
1.0
176
     1
 92
        8
176
     1
 66
     8
424
  7895160
176
     1
 43
1.0
176
     1
 76
     1
176
     1
 77
     6
176
     1
 78
     2
176
     1
 67
     7
176
     1
 79
     5
176
     1
170
     0
176
     1
171
     0
176
     1
290
     0
176
     1
 93
       13
176
     1
 44
0.0
176
     1
173
     0
176
     1
  0
VISUALSTYLE
  5
37
102
{ACAD_REACTORS
330
2A
102
}
330
2A
100
AcDbVisualStyle
  2
Thicken
 70
    13
177
     2
291
     1
 71
     2
176
     1
 72
     2
176
     1
 73
     0
176
     1
 90
        0
176
     1
 40
-0.6
176
     1
 41
-30.0
176
     1
 62
     5
 63
     7
421
 16777215
176
     1
 74
     1
176
     1
 91
        4
176
     1
 64
     7
176
     1
 65
   257
176
     1
 75
     1
176
     1
175
     1
176
     1
 42
1.0
176
     1
 92
       12
176
     1
 66
     7
176
     1
 43
1.0
176
     1
 76
     1
176
     1
 77
     6
176
     1
 78
     2
176
     1
 67
     7
176
     1
 79
     5
176
     1
170
     0
176
     1
171
     0
176
     1
290
     0
176
     1
 93
        1
176
     1
 44
0.0
176
     1
173
     0
176
     1
  0
ENDSEC
  0
EOF
