  0
SECTION
  2
HEADER
  9
$ACADVER
  1
AC1024
  9
$ACADMAINTVER
 70
     6
  9
$DWGCODEPAGE
  3
ANSI_932
  9
$INSBASE
 10
0.0
 20
0.0
 30
0.0
  9
$EXTMIN
 10
-4455.0
 20
-3150.0
 30
0.0
  9
$EXTMAX
 10
4455.0
 20
3150.0
 30
0.0
  9
$LIMMIN
 10
-4455.0
 20
-3150.0
  9
$LIMMAX
 10
4455.0
 20
3150.0
  9
$ORTHOMODE
 70
     0
  9
$REGENMODE
 70
     1
  9
$FILLMODE
 70
     1
  9
$QTEXTMODE
 70
     0
  9
$MIRRTEXT
 70
     1
  9
$LTSCALE
 40
30.0
  9
$ATTMODE
 70
     1
  9
$TEXTSIZE
 40
2.5
  9
$TRACEWID
 40
1.0
  9
$TEXTSTYLE
  7
Standard
  9
$CLAYER
  8
0
  9
$CELTYPE
  6
ByLayer
  9
$CECOLOR
 62
   256
  9
$CELTSCALE
 40
1.0
  9
$DISPSILH
 70
     0
  9
$DIMSCALE
 40
1.0
  9
$DIMASZ
 40
2.5
  9
$DIMEXO
 40
0.625
  9
$DIMDLI
 40
3.75
  9
$DIMRND
 40
0.0
  9
$DIMDLE
 40
0.0
  9
$DIMEXE
 40
1.25
  9
$DIMTP
 40
0.0
  9
$DIMTM
 40
0.0
  9
$DIMTXT
 40
2.5
  9
$DIMCEN
 40
2.5
  9
$DIMTSZ
 40
0.0
  9
$DIMTOL
 70
     0
  9
$DIMLIM
 70
     0
  9
$DIMTIH
 70
     0
  9
$DIMTOH
 70
     0
  9
$DIMSE1
 70
     0
  9
$DIMSE2
 70
     0
  9
$DIMTAD
 70
     1
  9
$DIMZIN
 70
     8
  9
$DIMBLK
  1

  9
$DIMASO
 70
     1
  9
$DIMSHO
 70
     1
  9
$DIMPOST
  1

  9
$DIMAPOST
  1

  9
$DIMALT
 70
     0
  9
$DIMALTD
 70
     3
  9
$DIMALTF
 40
0.03937007874016
  9
$DIMLFAC
 40
1.0
  9
$DIMTOFL
 70
     1
  9
$DIMTVP
 40
0.0
  9
$DIMTIX
 70
     0
  9
$DIMSOXD
 70
     0
  9
$DIMSAH
 70
     0
  9
$DIMBLK1
  1

  9
$DIMBLK2
  1

  9
$DIMSTYLE
  2
ISO-25
  9
$DIMCLRD
 70
     0
  9
$DIMCLRE
 70
     0
  9
$DIMCLRT
 70
     0
  9
$DIMTFAC
 40
1.0
  9
$DIMGAP
 40
0.625
  9
$DIMJUST
 70
     0
  9
$DIMSD1
 70
     0
  9
$DIMSD2
 70
     0
  9
$DIMTOLJ
 70
     0
  9
$DIMTZIN
 70
     8
  9
$DIMALTZ
 70
     0
  9
$DIMALTTZ
 70
     0
  9
$DIMUPT
 70
     0
  9
$DIMDEC
 70
     2
  9
$DIMTDEC
 70
     2
  9
$DIMALTU
 70
     2
  9
$DIMALTTD
 70
     3
  9
$DIMTXSTY
  7
Standard
  9
$DIMAUNIT
 70
     0
  9
$DIMADEC
 70
     0
  9
$DIMALTRND
 40
0.0
  9
$DIMAZIN
 70
     0
  9
$DIMDSEP
 70
    44
  9
$DIMATFIT
 70
     3
  9
$DIMFRAC
 70
     0
  9
$DIMLDRBLK
  1

  9
$DIMLUNIT
 70
     2
  9
$DIMLWD
 70
    -2
  9
$DIMLWE
 70
    -2
  9
$DIMTMOVE
 70
     0
  9
$DIMFXL
 40
1.0
  9
$DIMFXLON
 70
     0
  9
$DIMJOGANG
 40
0.7853981633974483
  9
$DIMTFILL
 70
     0
  9
$DIMTFILLCLR
 70
     0
  9
$DIMARCSYM
 70
     0
  9
$DIMLTYPE
  6

  9
$DIMLTEX1
  6

  9
$DIMLTEX2
  6

  9
$DIMTXTDIRECTION
 70
     0
  9
$LUNITS
 70
     2
  9
$LUPREC
 70
     4
  9
$SKETCHINC
 40
1.0
  9
$FILLETRAD
 40
10.0
  9
$AUNITS
 70
     0
  9
$AUPREC
 70
     0
  9
$MENU
  1
.
  9
$ELEVATION
 40
0.0
  9
$PELEVATION
 40
0.0
  9
$THICKNESS
 40
0.0
  9
$LIMCHECK
 70
     0
  9
$CHAMFERA
 40
10.0
  9
$CHAMFERB
 40
10.0
  9
$CHAMFERC
 40
20.0
  9
$CHAMFERD
 40
0.0
  9
$SKPOLY
 70
     0
  9
$TDCREATE
 40
2457953.401053113
  9
$TDUCREATE
 40
2457953.026053113
  9
$TDUPDATE
 40
2457953.401053125
  9
$TDUUPDATE
 40
2457953.026053125
  9
$TDINDWG
 40
0.0000000116
  9
$TDUSRTIMER
 40
0.0000000116
  9
$USRTIMER
 70
     1
  9
$ANGBASE
 50
0.0
  9
$ANGDIR
 70
     0
  9
$PDMODE
 70
     0
  9
$PDSIZE
 40
0.0
  9
$PLINEWID
 40
0.0
  9
$SPLFRAME
 70
     0
  9
$SPLINETYPE
 70
     6
  9
$SPLINESEGS
 70
     8
  9
$HANDSEED
  5
304
  9
$SURFTAB1
 70
     6
  9
$SURFTAB2
 70
     6
  9
$SURFTYPE
 70
     6
  9
$SURFU
 70
     6
  9
$SURFV
 70
     6
  9
$UCSBASE
  2

  9
$UCSNAME
  2

  9
$UCSORG
 10
0.0
 20
0.0
 30
0.0
  9
$UCSXDIR
 10
1.0
 20
0.0
 30
0.0
  9
$UCSYDIR
 10
0.0
 20
1.0
 30
0.0
  9
$UCSORTHOREF
  2

  9
$UCSORTHOVIEW
 70
     0
  9
$UCSORGTOP
 10
0.0
 20
0.0
 30
0.0
  9
$UCSORGBOTTOM
 10
0.0
 20
0.0
 30
0.0
  9
$UCSORGLEFT
 10
0.0
 20
0.0
 30
0.0
  9
$UCSORGRIGHT
 10
0.0
 20
0.0
 30
0.0
  9
$UCSORGFRONT
 10
0.0
 20
0.0
 30
0.0
  9
$UCSORGBACK
 10
0.0
 20
0.0
 30
0.0
  9
$PUCSBASE
  2

  9
$PUCSNAME
  2

  9
$PUCSORG
 10
0.0
 20
0.0
 30
0.0
  9
$PUCSXDIR
 10
1.0
 20
0.0
 30
0.0
  9
$PUCSYDIR
 10
0.0
 20
1.0
 30
0.0
  9
$PUCSORTHOREF
  2

  9
$PUCSORTHOVIEW
 70
     0
  9
$PUCSORGTOP
 10
0.0
 20
0.0
 30
0.0
  9
$PUCSORGBOTTOM
 10
0.0
 20
0.0
 30
0.0
  9
$PUCSORGLEFT
 10
0.0
 20
0.0
 30
0.0
  9
$PUCSORGRIGHT
 10
0.0
 20
0.0
 30
0.0
  9
$PUCSORGFRONT
 10
0.0
 20
0.0
 30
0.0
  9
$PUCSORGBACK
 10
0.0
 20
0.0
 30
0.0
  9
$USERI1
 70
     0
  9
$USERI2
 70
     0
  9
$USERI3
 70
     0
  9
$USERI4
 70
     0
  9
$USERI5
 70
     0
  9
$USERR1
 40
0.0
  9
$USERR2
 40
0.0
  9
$USERR3
 40
0.0
  9
$USERR4
 40
0.0
  9
$USERR5
 40
0.0
  9
$WORLDVIEW
 70
     1
  9
$SHADEDGE
 70
     3
  9
$SHADEDIF
 70
    70
  9
$TILEMODE
 70
     1
  9
$MAXACTVP
 70
    64
  9
$PINSBASE
 10
0.0
 20
0.0
 30
0.0
  9
$PLIMCHECK
 70
     0
  9
$PEXTMIN
 10
1.000000000000000E+20
 20
1.000000000000000E+20
 30
1.000000000000000E+20
  9
$PEXTMAX
 10
-1.000000000000000E+20
 20
-1.000000000000000E+20
 30
-1.000000000000000E+20
  9
$PLIMMIN
 10
0.0
 20
0.0
  9
$PLIMMAX
 10
420.0
 20
297.0
  9
$UNITMODE
 70
     0
  9
$VISRETAIN
 70
     1
  9
$PLINEGEN
 70
     0
  9
$PSLTSCALE
 70
     1
  9
$TREEDEPTH
 70
  3020
  9
$CMLSTYLE
  2
Standard
  9
$CMLJUST
 70
     0
  9
$CMLSCALE
 40
20.0
  9
$PROXYGRAPHICS
 70
     1
  9
$MEASUREMENT
 70
     1
  9
$CELWEIGHT
370
    -1
  9
$ENDCAPS
280
     0
  9
$JOINSTYLE
280
     0
  9
$LWDISPLAY
290
     0
  9
$INSUNITS
 70
     4
  9
$HYPERLINKBASE
  1

  9
$STYLESHEET
  1

  9
$XEDIT
290
     1
  9
$CEPSNTYPE
380
     0
  9
$PSTYLEMODE
290
     1
  9
$FINGERPRINTGUID
  2
{0BA59F6C-B3CE-4B40-A832-686130D6F268}
  9
$VERSIONGUID
  2
{FAEB1C32-E019-11D5-929B-00C0DF256EC4}
  9
$EXTNAMES
290
     1
  9
$PSVPSCALE
 40
0.0
  9
$OLESTARTUP
290
     0
  9
$SORTENTS
280
   127
  9
$INDEXCTL
280
     0
  9
$HIDETEXT
280
     1
  9
$XCLIPFRAME
280
     2
  9
$HALOGAP
280
     0
  9
$OBSCOLOR
 70
   257
  9
$OBSLTYPE
280
     0
  9
$INTERSECTIONDISPLAY
280
     0
  9
$INTERSECTIONCOLOR
 70
   257
  9
$DIMASSOC
280
     2
  9
$PROJECTNAME
  1

  9
$CAMERADISPLAY
290
     0
  9
$LENSLENGTH
 40
50.0
  9
$CAMERAHEIGHT
 40
0.0
  9
$STEPSPERSEC
 40
2.0
  9
$STEPSIZE
 40
6.0
  9
$3DDWFPREC
 40
2.0
  9
$PSOLWIDTH
 40
5.0
  9
$PSOLHEIGHT
 40
80.0
  9
$LOFTANG1
 40
1.570796326794897
  9
$LOFTANG2
 40
1.570796326794897
  9
$LOFTMAG1
 40
0.0
  9
$LOFTMAG2
 40
0.0
  9
$LOFTPARAM
 70
     7
  9
$LOFTNORMALS
280
     1
  9
$LATITUDE
 40
37.795
  9
$LONGITUDE
 40
-122.394
  9
$NORTHDIRECTION
 40
0.0
  9
$TIMEZONE
 70
 -8000
  9
$LIGHTGLYPHDISPLAY
280
     1
  9
$TILEMODELIGHTSYNCH
280
     1
  9
$SOLIDHIST
280
     1
  9
$SHOWHIST
280
     1
  9
$DWFFRAME
280
     2
  9
$DGNFRAME
280
     2
  9
$REALWORLDSCALE
290
     1
  9
$INTERFERECOLOR
 62
   256
  9
$CSHADOW
280
     0
  9
$SHADOWPLANELOCATION
 40
0.0
  0
ENDSEC
  0
SECTION
  2
CLASSES
  0
CLASS
  1
ACDBDICTIONARYWDFLT
  2
AcDbDictionaryWithDefault
  3
ObjectDBX Classes
 90
        0
 91
        4
280
     0
281
     0
  0
CLASS
  1
VISUALSTYLE
  2
AcDbVisualStyle
  3
ObjectDBX Classes
 90
     4095
 91
        4
280
     0
281
     0
  0
CLASS
  1
MATERIAL
  2
AcDbMaterial
  3
ObjectDBX Classes
 90
     1153
 91
        4
280
     0
281
     0
  0
ENDSEC
  0
SECTION
  2
TABLES
  0
TABLE
  2
VPORT
  5
8
330
0
100
AcDbSymbolTable
 70
     1
  0
VPORT
  5
29
330
8
100
AcDbSymbolTableRecord
100
AcDbViewportTableRecord
  2
*Active
 70
     0
 10
0.0
 20
0.0
 11
1.0
 21
1.0
 12
0.0
 22
0.0
 13
0.0
 23
0.0
 14
10.0
 24
10.0
 15
10.0
 25
10.0
 16
0.0
 26
0.0
 36
1.0
 17
0.0
 27
0.0
 37
0.0
 40
6930.000000000001
 41
1.414285714285714
 42
50.0
 43
0.0
 44
0.0
 50
0.0
 51
0.0
 71
     0
 72
 10000
 73
     1
 74
     3
 75
     0
 76
     0
 77
     0
 78
     0
281
     0
 65
     1
110
0.0
120
0.0
130
0.0
111
1.0
121
0.0
131
0.0
112
0.0
122
1.0
132
0.0
 79
     0
146
0.0
 60
     3
 61
     5
292
     1
282
     1
141
0.0
142
0.0
 63
   250
  0
ENDTAB
  0
TABLE
  2
LTYPE
  5
5
330
0
100
AcDbSymbolTable
 70
     2
  0
LTYPE
  5
14
330
5
100
AcDbSymbolTableRecord
100
AcDbLinetypeTableRecord
  2
ByBlock
 70
     0
  3

 72
    65
 73
     0
 40
0.0
  0
LTYPE
  5
15
330
5
100
AcDbSymbolTableRecord
100
AcDbLinetypeTableRecord
  2
ByLayer
 70
     0
  3

 72
    65
 73
     0
 40
0.0
  0
LTYPE
  5
16
330
5
100
AcDbSymbolTableRecord
100
AcDbLinetypeTableRecord
  2
Continuous
 70
     0
  3
Solid line
 72
    65
 73
     0
 40
0.0
  0
LTYPE
  5
3F
330
5
100
AcDbSymbolTableRecord
100
AcDbLinetypeTableRecord
  2
JWW_DASHED1
 70
     0
  3
-  --  --  --  --  --  --  --  -
 72
    65
 73
     2
 40
1.693333333333333
 49
0.8466666666666667
 74
     0
 49
-0.8466666666666667
 74
     0
  0
ENDTAB
  0
TABLE
  2
LAYER
  5
2
330
0
100
AcDbSymbolTable
 70
     3
  0
LAYER
  5
10
330
2
100
AcDbSymbolTableRecord
100
AcDbLayerTableRecord
  2
0
 70
     0
 62
     7
  6
Continuous
370
    -3
390
F
347
3E
  0
LAYER
  5
40
330
2
100
AcDbSymbolTableRecord
100
AcDbLayerTableRecord
  2
0-0
 70
     0
 62
     7
  6
Continuous
370
    -3
390
F
347
3E
  0
LAYER
  5
41
330
2
100
AcDbSymbolTableRecord
100
AcDbLayerTableRecord
  2
寸法
 70
     0
 62
     7
  6
Continuous
370
    -3
390
F
347
3E
  0
ENDTAB
  0
TABLE
  2
STYLE
  5
3
330
0
100
AcDbSymbolTable
 70
     1
  0
STYLE
  5
11
330
3
100
AcDbSymbolTableRecord
100
AcDbTextStyleTableRecord
  2
Standard
 70
     0
 40
0.0
 41
1.0
 50
0.0
 71
     0
 42
2.5
  3
txt
  4

  0
ENDTAB
  0
TABLE
  2
VIEW
  5
6
330
0
100
AcDbSymbolTable
 70
     0
  0
ENDTAB
  0
TABLE
  2
UCS
  5
7
330
0
100
AcDbSymbolTable
 70
     0
  0
ENDTAB
  0
TABLE
  2
APPID
  5
9
330
0
100
AcDbSymbolTable
 70
     1
  0
APPID
  5
12
330
9
100
AcDbSymbolTableRecord
100
AcDbRegAppTableRecord
  2
ACAD
 70
     0
  0
ENDTAB
  0
TABLE
  2
DIMSTYLE
  5
A
330
0
100
AcDbSymbolTable
 70
     1
100
AcDbDimStyleTable
  0
DIMSTYLE
105
27
330
A
100
AcDbSymbolTableRecord
100
AcDbDimStyleTableRecord
  2
ISO-25
 70
     0
 41
2.5
 42
0.625
 43
3.75
 44
1.25
 73
     0
 74
     0
 77
     1
 78
     8
140
2.5
141
2.5
143
0.03937007874016
147
0.625
171
     3
172
     1
178
     0
271
     2
272
     2
274
     3
278
    44
283
     0
284
     8
340
11
  0
ENDTAB
  0
TABLE
  2
BLOCK_RECORD
  5
1
330
0
100
AcDbSymbolTable
 70
     1
  0
BLOCK_RECORD
  5
1F
330
1
100
AcDbSymbolTableRecord
100
AcDbBlockTableRecord
  2
*Model_Space
340
22
 70
     0
280
     1
281
     0
  0
BLOCK_RECORD
  5
1B
330
1
100
AcDbSymbolTableRecord
100
AcDbBlockTableRecord
  2
*Paper_Space
340
1E
 70
     0
280
     1
281
     0
  0
BLOCK_RECORD
  5
23
330
1
100
AcDbSymbolTableRecord
100
AcDbBlockTableRecord
  2
*Paper_Space0
340
26
 70
     0
280
     1
281
     0
  0
ENDTAB
  0
ENDSEC
  0
SECTION
  2
BLOCKS
  0
BLOCK
  5
20
330
1F
100
AcDbEntity
  8
0
100
AcDbBlockBegin
  2
*Model_Space
 70
     0
 10
0.0
 20
0.0
 30
0.0
  3
*Model_Space
  1

  0
ENDBLK
  5
21
330
1F
100
AcDbEntity
  8
0
100
AcDbBlockEnd
  0
BLOCK
  5
1C
330
1B
100
AcDbEntity
 67
     1
  8
0
100
AcDbBlockBegin
  2
*Paper_Space
 70
     0
 10
0.0
 20
0.0
 30
0.0
  3
*Paper_Space
  1

  0
ENDBLK
  5
1D
330
1B
100
AcDbEntity
 67
     1
  8
0
100
AcDbBlockEnd
  0
BLOCK
  5
24
330
23
100
AcDbEntity
  8
0
100
AcDbBlockBegin
  2
*Paper_Space0
 70
     0
 10
0.0
 20
0.0
 30
0.0
  3
*Paper_Space0
  1

  0
ENDBLK
  5
25
330
23
100
AcDbEntity
  8
0
100
AcDbBlockEnd
  0
ENDSEC
  0
SECTION
  2
ENTITIES
  0
LINE
  5
42
330
1F
100
AcDbEntity
  8
0-0
  6
Continuous
 62
    92
370
    13
100
AcDbLine
 10
-1139.103835710872
 20
1030.391269665475
 30
0.0
 11
1227.896164289129
 21
1030.391269665475
 31
0.0
  0
LINE
  5
43
330
1F
100
AcDbEntity
  8
0-0
  6
Continuous
 62
    92
370
    13
100
AcDbLine
 10
-1169.103835710872
 20
-972.6087303345255
 30
0.0
 11
-1169.103835710872
 21
1074.391269665474
 31
0.0
  0
LINE
  5
44
330
1F
100
AcDbEntity
  8
0-0
  6
Continuous
 62
    92
370
    13
100
AcDbLine
 10
2037.896164289129
 20
1074.391269665474
 30
0.0
 11
2037.896164289129
 21
-972.6087303345255
 31
0.0
  0
LINE
  5
45
330
1F
100
AcDbEntity
  8
0-0
  6
JWW_DASHED1
 62
   120
370
     5
100
AcDbLine
 10
1197.896164289129
 20
-957.6087303345255
 30
0.0
 11
1197.896164289129
 21
1038.391269665474
 31
0.0
  0
LINE
  5
46
330
1F
100
AcDbEntity
  8
0-0
  6
JWW_DASHED1
 62
   120
370
     5
100
AcDbLine
 10
1227.896164289129
 20
-957.6087303345255
 30
0.0
 11
1227.896164289129
 21
1038.391269665474
 31
0.0
  0
LINE
  5
47
330
1F
100
AcDbEntity
  8
0-0
  6
Continuous
 62
    92
370
    13
100
AcDbLine
 10
-1139.103835710872
 20
-972.6087303345255
 30
0.0
 11
-1139.103835710872
 21
1074.391269665474
 31
0.0
  0
LINE
  5
48
330
1F
100
AcDbEntity
  8
0-0
  6
Continuous
 62
    92
370
    13
100
AcDbLine
 10
2007.896164289129
 20
-972.6087303345255
 30
0.0
 11
2007.896164289129
 21
1074.391269665474
 31
0.0
  0
LINE
  5
49
330
1F
100
AcDbEntity
  8
0-0
  6
Continuous
 62
    92
370
    13
100
AcDbLine
 10
-1139.103835710872
 20
1038.391269665474
 30
0.0
 11
2007.896164289129
 21
1038.391269665474
 31
0.0
  0
LINE
  5
4A
330
1F
100
AcDbEntity
  8
0-0
  6
Continuous
 62
    92
370
    13
100
AcDbLine
 10
-1169.103835710872
 20
1074.391269665474
 30
0.0
 11
2037.896164289129
 21
1074.391269665474
 31
0.0
  0
LINE
  5
4B
330
1F
100
AcDbEntity
  8
0-0
  6
Continuous
 62
    92
370
    13
100
AcDbLine
 10
2037.896164289129
 20
-972.6087303345255
 30
0.0
 11
-1169.103835710872
 21
-972.6087303345255
 31
0.0
  0
LINE
  5
4C
330
1F
100
AcDbEntity
  8
0-0
  6
Continuous
 62
    92
370
    13
100
AcDbLine
 10
2007.896164289129
 20
-957.6087303345255
 30
0.0
 11
-1139.103835710872
 21
-957.6087303345255
 31
0.0
  0
ARC
  5
4D
330
1F
100
AcDbEntity
  8
0-0
  6
Continuous
 62
    92
370
    13
100
AcDbCircle
 10
-1110.60383571087
 20
64.39126966547477
 30
0.0
 40
1.5
100
AcDbArc
 50
90.0
 51
180.0
  0
LINE
  5
4E
330
1F
100
AcDbEntity
  8
0-0
  6
Continuous
 62
    92
370
    13
100
AcDbLine
 10
-1071.603835710872
 20
65.89126966547468
 30
0.0
 11
-1110.60383571087
 21
65.89126966547468
 31
0.0
  0
ARC
  5
4F
330
1F
100
AcDbEntity
  8
0-0
  6
Continuous
 62
    92
370
    13
100
AcDbCircle
 10
-1071.603835710872
 20
64.39126966547477
 30
0.0
 40
1.5
100
AcDbArc
 50
0.0
 51
90.00000000000001
  0
LINE
  5
50
330
1F
100
AcDbEntity
  8
0-0
  6
Continuous
 62
    92
370
    13
100
AcDbLine
 10
-1070.103835710871
 20
-54.60873033452572
 30
0.0
 11
-1070.103835710871
 21
64.39126966547477
 31
0.0
  0
ARC
  5
51
330
1F
100
AcDbEntity
  8
0-0
  6
Continuous
 62
    92
370
    13
100
AcDbCircle
 10
-1071.603835710872
 20
-54.60873033452572
 30
0.0
 40
1.5
100
AcDbArc
 50
270.0
 51
0.0
  0
LINE
  5
52
330
1F
100
AcDbEntity
  8
0-0
  6
Continuous
 62
    92
370
    13
100
AcDbLine
 10
-1110.60383571087
 20
-56.10873033452521
 30
0.0
 11
-1071.603835710872
 21
-56.10873033452521
 31
0.0
  0
LINE
  5
53
330
1F
100
AcDbEntity
  8
0-0
  6
Continuous
 62
    92
370
    13
100
AcDbLine
 10
-1112.103835710871
 20
-54.60873033452572
 30
0.0
 11
-1112.103835710871
 21
64.39126966547477
 31
0.0
  0
ARC
  5
54
330
1F
100
AcDbEntity
  8
0-0
  6
Continuous
 62
    92
370
    13
100
AcDbCircle
 10
-1110.60383571087
 20
-54.60873033452572
 30
0.0
 40
1.5
100
AcDbArc
 50
180.0
 51
270.0
  0
ARC
  5
55
330
1F
100
AcDbEntity
  8
0-0
  6
Continuous
 62
     7
370
     9
100
AcDbCircle
 10
-1091.103835710871
 20
-24.70873033452563
 30
0.0
 40
15.0
100
AcDbArc
 50
180.0
 51
0.0
  0
ARC
  5
56
330
1F
100
AcDbEntity
  8
0-0
  6
Continuous
 62
     7
370
     9
100
AcDbCircle
 10
-1091.103835710871
 20
34.49126966547468
 30
0.0
 40
15.0
100
AcDbArc
 50
0.0
 51
180.0
  0
LINE
  5
57
330
1F
100
AcDbEntity
  8
0-0
  6
Continuous
 62
     7
370
     9
100
AcDbLine
 10
-1076.103835710871
 20
-24.70873033452563
 30
0.0
 11
-1076.103835710871
 21
34.49126966547468
 31
0.0
  0
LINE
  5
58
330
1F
100
AcDbEntity
  8
0-0
  6
Continuous
 62
     7
370
     9
100
AcDbLine
 10
-1106.103835710871
 20
34.49126966547468
 30
0.0
 11
-1106.103835710871
 21
-24.70873033452563
 31
0.0
  0
ARC
  5
59
330
1F
100
AcDbEntity
  8
0-0
  6
Continuous
 62
    92
370
    13
100
AcDbCircle
 10
-330.6038357108703
 20
64.39126966547477
 30
0.0
 40
1.5
100
AcDbArc
 50
90.0
 51
180.0
  0
LINE
  5
5A
330
1F
100
AcDbEntity
  8
0-0
  6
Continuous
 62
    92
370
    13
100
AcDbLine
 10
-291.6038357108716
 20
65.89126966547468
 30
0.0
 11
-330.6038357108703
 21
65.89126966547468
 31
0.0
  0
ARC
  5
5B
330
1F
100
AcDbEntity
  8
0-0
  6
Continuous
 62
    92
370
    13
100
AcDbCircle
 10
-291.6038357108716
 20
64.39126966547477
 30
0.0
 40
1.5
100
AcDbArc
 50
0.0
 51
90.00000000000001
  0
LINE
  5
5C
330
1F
100
AcDbEntity
  8
0-0
  6
Continuous
 62
    92
370
    13
100
AcDbLine
 10
-290.1038357108696
 20
-54.60873033452572
 30
0.0
 11
-290.1038357108696
 21
64.39126966547477
 31
0.0
  0
ARC
  5
5D
330
1F
100
AcDbEntity
  8
0-0
  6
Continuous
 62
    92
370
    13
100
AcDbCircle
 10
-291.6038357108716
 20
-54.60873033452572
 30
0.0
 40
1.5
100
AcDbArc
 50
270.0
 51
0.0
  0
LINE
  5
5E
330
1F
100
AcDbEntity
  8
0-0
  6
Continuous
 62
    92
370
    13
100
AcDbLine
 10
-330.6038357108703
 20
-56.10873033452521
 30
0.0
 11
-291.6038357108716
 21
-56.10873033452521
 31
0.0
  0
LINE
  5
5F
330
1F
100
AcDbEntity
  8
0-0
  6
Continuous
 62
    92
370
    13
100
AcDbLine
 10
-332.1038357108706
 20
-54.60873033452572
 30
0.0
 11
-332.1038357108706
 21
64.39126966547477
 31
0.0
  0
ARC
  5
60
330
1F
100
AcDbEntity
  8
0-0
  6
Continuous
 62
    92
370
    13
100
AcDbCircle
 10
-330.6038357108703
 20
-54.60873033452572
 30
0.0
 40
1.5
100
AcDbArc
 50
180.0
 51
270.0
  0
ARC
  5
61
330
1F
100
AcDbEntity
  8
0-0
  6
Continuous
 62
     7
370
     9
100
AcDbCircle
 10
-311.103835710871
 20
-24.70873033452563
 30
0.0
 40
15.0
100
AcDbArc
 50
180.0
 51
0.0
  0
ARC
  5
62
330
1F
100
AcDbEntity
  8
0-0
  6
Continuous
 62
     7
370
     9
100
AcDbCircle
 10
-311.103835710871
 20
34.49126966547468
 30
0.0
 40
15.0
100
AcDbArc
 50
0.0
 51
180.0
  0
LINE
  5
63
330
1F
100
AcDbEntity
  8
0-0
  6
Continuous
 62
     7
370
     9
100
AcDbLine
 10
-296.103835710871
 20
-24.70873033452563
 30
0.0
 11
-296.103835710871
 21
34.49126966547468
 31
0.0
  0
LINE
  5
64
330
1F
100
AcDbEntity
  8
0-0
  6
Continuous
 62
     7
370
     9
100
AcDbLine
 10
-326.103835710871
 20
34.49126966547468
 30
0.0
 11
-326.103835710871
 21
-24.70873033452563
 31
0.0
  0
ARC
  5
65
330
1F
100
AcDbEntity
  8
0-0
  6
Continuous
 62
    92
370
    13
100
AcDbCircle
 10
449.3961642891297
 20
64.39126966547477
 30
0.0
 40
1.5
100
AcDbArc
 50
90.0
 51
180.0
  0
LINE
  5
66
330
1F
100
AcDbEntity
  8
0-0
  6
Continuous
 62
    92
370
    13
100
AcDbLine
 10
488.3961642891284
 20
65.89126966547468
 30
0.0
 11
449.3961642891297
 21
65.89126966547468
 31
0.0
  0
ARC
  5
67
330
1F
100
AcDbEntity
  8
0-0
  6
Continuous
 62
    92
370
    13
100
AcDbCircle
 10
488.3961642891284
 20
64.39126966547477
 30
0.0
 40
1.5
100
AcDbArc
 50
0.0
 51
90.00000000000001
  0
LINE
  5
68
330
1F
100
AcDbEntity
  8
0-0
  6
Continuous
 62
    92
370
    13
100
AcDbLine
 10
489.8961642891304
 20
-54.60873033452572
 30
0.0
 11
489.8961642891304
 21
64.39126966547477
 31
0.0
  0
ARC
  5
69
330
1F
100
AcDbEntity
  8
0-0
  6
Continuous
 62
    92
370
    13
100
AcDbCircle
 10
488.3961642891284
 20
-54.60873033452572
 30
0.0
 40
1.5
100
AcDbArc
 50
270.0
 51
0.0
  0
LINE
  5
6A
330
1F
100
AcDbEntity
  8
0-0
  6
Continuous
 62
    92
370
    13
100
AcDbLine
 10
449.3961642891297
 20
-56.10873033452521
 30
0.0
 11
488.3961642891284
 21
-56.10873033452521
 31
0.0
  0
LINE
  5
6B
330
1F
100
AcDbEntity
  8
0-0
  6
Continuous
 62
    92
370
    13
100
AcDbLine
 10
447.8961642891293
 20
-54.60873033452572
 30
0.0
 11
447.8961642891293
 21
64.39126966547477
 31
0.0
  0
ARC
  5
6C
330
1F
100
AcDbEntity
  8
0-0
  6
Continuous
 62
    92
370
    13
100
AcDbCircle
 10
449.3961642891297
 20
-54.60873033452572
 30
0.0
 40
1.5
100
AcDbArc
 50
180.0
 51
270.0
  0
ARC
  5
6D
330
1F
100
AcDbEntity
  8
0-0
  6
Continuous
 62
     7
370
     9
100
AcDbCircle
 10
468.896164289129
 20
-24.70873033452563
 30
0.0
 40
15.0
100
AcDbArc
 50
180.0
 51
0.0
  0
ARC
  5
6E
330
1F
100
AcDbEntity
  8
0-0
  6
Continuous
 62
     7
370
     9
100
AcDbCircle
 10
468.896164289129
 20
34.49126966547468
 30
0.0
 40
15.0
100
AcDbArc
 50
0.0
 51
180.0
  0
LINE
  5
6F
330
1F
100
AcDbEntity
  8
0-0
  6
Continuous
 62
     7
370
     9
100
AcDbLine
 10
483.896164289129
 20
-24.70873033452563
 30
0.0
 11
483.896164289129
 21
34.49126966547468
 31
0.0
  0
LINE
  5
70
330
1F
100
AcDbEntity
  8
0-0
  6
Continuous
 62
     7
370
     9
100
AcDbLine
 10
453.896164289129
 20
34.49126966547468
 30
0.0
 11
453.896164289129
 21
-24.70873033452563
 31
0.0
  0
LINE
  5
71
330
1F
100
AcDbEntity
  8
0-0
  6
JWW_DASHED1
 62
   120
370
     5
100
AcDbLine
 10
-1139.103835710872
 20
-952.608730334525
 30
0.0
 11
-1142.103835710872
 21
-952.608730334525
 31
0.0
  0
LINE
  5
72
330
1F
100
AcDbEntity
  8
0-0
  6
JWW_DASHED1
 62
   120
370
     5
100
AcDbLine
 10
-1142.103835710872
 20
-952.608730334525
 30
0.0
 11
-1142.103835710872
 21
1030.391269665475
 31
0.0
  0
LINE
  5
73
330
1F
100
AcDbEntity
  8
0-0
  6
JWW_DASHED1
 62
   120
370
     5
100
AcDbLine
 10
-1142.103835710872
 20
1030.391269665475
 30
0.0
 11
-1139.103835710872
 21
1030.391269665475
 31
0.0
  0
LINE
  5
74
330
1F
100
AcDbEntity
  8
0-0
  6
JWW_DASHED1
 62
   120
370
     5
100
AcDbLine
 10
-332.1038357108715
 20
-952.608730334525
 30
0.0
 11
-332.1038357108715
 21
1030.391269665475
 31
0.0
  0
LINE
  5
75
330
1F
100
AcDbEntity
  8
0-0
  6
Continuous
 62
    92
370
    13
100
AcDbLine
 10
-362.1038357108715
 20
1030.391269665475
 30
0.0
 11
-362.1038357108715
 21
-952.608730334525
 31
0.0
  0
LINE
  5
76
330
1F
100
AcDbEntity
  8
0-0
  6
Continuous
 62
    92
370
    13
100
AcDbLine
 10
-1139.103835710872
 20
-952.608730334525
 30
0.0
 11
1227.896164289129
 21
-952.608730334525
 31
0.0
  0
LINE
  5
77
330
1F
100
AcDbEntity
  8
0-0
  6
JWW_DASHED1
 62
   120
370
     5
100
AcDbLine
 10
447.8961642891285
 20
-952.608730334525
 30
0.0
 11
447.8961642891285
 21
1030.391269665475
 31
0.0
  0
LINE
  5
78
330
1F
100
AcDbEntity
  8
0-0
  6
Continuous
 62
    92
370
    13
100
AcDbLine
 10
417.8961642891285
 20
1030.391269665475
 30
0.0
 11
417.8961642891285
 21
-952.608730334525
 31
0.0
  0
LINE
  5
79
330
1F
100
AcDbEntity
  8
0-0
  6
Continuous
 62
    92
370
    13
100
AcDbLine
 10
1227.896164289129
 20
1030.391269665475
 30
0.0
 11
1227.896164289129
 21
-952.608730334525
 31
0.0
  0
LINE
  5
7A
330
1F
100
AcDbEntity
  8
0-0
  6
Continuous
 62
     7
370
     9
100
AcDbLine
 10
-756.103835710873
 20
-944.608730334525
 30
0.0
 11
-718.1038357108725
 21
-944.608730334525
 31
0.0
  0
LINE
  5
7B
330
1F
100
AcDbEntity
  8
0-0
  6
Continuous
 62
    92
370
    13
100
AcDbLine
 10
-756.103835710873
 20
1030.391269665474
 30
0.0
 11
-756.103835710873
 21
-952.608730334525
 31
0.0
  0
LINE
  5
7C
330
1F
100
AcDbEntity
  8
0-0
  6
Continuous
 62
    92
370
    13
100
AcDbLine
 10
-718.1038357108725
 20
1030.391269665474
 30
0.0
 11
-718.1038357108725
 21
-952.608730334525
 31
0.0
  0
LINE
  5
7D
330
1F
100
AcDbEntity
  8
0-0
  6
Continuous
 62
     7
370
     9
100
AcDbLine
 10
-756.103835710873
 20
1022.391269665476
 30
0.0
 11
-718.1038357108725
 21
1022.391269665476
 31
0.0
  0
LINE
  5
7E
330
1F
100
AcDbEntity
  8
0-0
  6
JWW_DASHED1
 62
   120
370
     5
100
AcDbLine
 10
-756.103835710873
 20
-907.8114311731116
 30
0.0
 11
-718.103835710876
 21
-869.811431173112
 31
0.0
  0
LINE
  5
7F
330
1F
100
AcDbEntity
  8
0-0
  6
JWW_DASHED1
 62
   120
370
     5
100
AcDbLine
 10
-756.103835710873
 20
-897.9119362379498
 30
0.0
 11
-718.1038357108725
 21
-859.9119362379469
 31
0.0
  0
LINE
  5
80
330
1F
100
AcDbEntity
  8
0-0
  6
JWW_DASHED1
 62
   120
370
     5
100
AcDbLine
 10
-756.103835710873
 20
-888.0124413027318
 30
0.0
 11
-718.1038357108657
 21
-850.0124413027229
 31
0.0
  0
LINE
  5
81
330
1F
100
AcDbEntity
  8
0-0
  6
JWW_DASHED1
 62
   120
370
     5
100
AcDbLine
 10
-756.103835710873
 20
-878.1129463675193
 30
0.0
 11
-718.1038357108725
 21
-840.112946367515
 31
0.0
  0
LINE
  5
82
330
1F
100
AcDbEntity
  8
0-0
  6
JWW_DASHED1
 62
   120
370
     5
100
AcDbLine
 10
-756.103835710873
 20
-868.2134514323507
 30
0.0
 11
-718.1038357108691
 21
-830.2134514323498
 31
0.0
  0
LINE
  5
83
330
1F
100
AcDbEntity
  8
0-0
  6
JWW_DASHED1
 62
   120
370
     5
100
AcDbLine
 10
-756.103835710873
 20
-858.3139564971364
 30
0.0
 11
-718.1038357108794
 21
-820.313956497142
 31
0.0
  0
LINE
  5
84
330
1F
100
AcDbEntity
  8
0-0
  6
JWW_DASHED1
 62
   120
370
     5
100
AcDbLine
 10
-756.103835710873
 20
-848.4144615619184
 30
0.0
 11
-718.1038357108691
 21
-810.414461561918
 31
0.0
  0
LINE
  5
85
330
1F
100
AcDbEntity
  8
0-0
  6
JWW_DASHED1
 62
   120
370
     5
100
AcDbLine
 10
-756.103835710873
 20
-838.514966626757
 30
0.0
 11
-718.1038357108657
 21
-800.5149666267532
 31
0.0
  0
LINE
  5
86
330
1F
100
AcDbEntity
  8
0-0
  6
JWW_DASHED1
 62
   120
370
     5
100
AcDbLine
 10
-756.103835710873
 20
-828.6154716915432
 30
0.0
 11
-718.103835710876
 21
-790.6154716915449
 31
0.0
  0
LINE
  5
87
330
1F
100
AcDbEntity
  8
0-0
  6
JWW_DASHED1
 62
   120
370
     5
100
AcDbLine
 10
-756.103835710873
 20
-818.715976756326
 30
0.0
 11
-718.1038357108657
 21
-780.715976756321
 31
0.0
  0
LINE
  5
88
330
1F
100
AcDbEntity
  8
0-0
  6
JWW_DASHED1
 62
   120
370
     5
100
AcDbLine
 10
-756.103835710873
 20
-808.8164818211634
 30
0.0
 11
-718.1038357108794
 21
-770.8164818211719
 31
0.0
  0
LINE
  5
89
330
1F
100
AcDbEntity
  8
0-0
  6
JWW_DASHED1
 62
   120
370
     5
100
AcDbLine
 10
-756.103835710873
 20
-798.9169868859495
 30
0.0
 11
-718.1038357108725
 21
-760.9169868859483
 31
0.0
  0
LINE
  5
8A
330
1F
100
AcDbEntity
  8
0-0
  6
JWW_DASHED1
 62
   120
370
     5
100
AcDbLine
 10
-756.103835710873
 20
-789.0174919507358
 30
0.0
 11
-718.1038357108657
 21
-751.0174919507243
 31
0.0
  0
LINE
  5
8B
330
1F
100
AcDbEntity
  8
0-0
  6
JWW_DASHED1
 62
   120
370
     5
100
AcDbLine
 10
-756.103835710873
 20
-779.1179970155723
 30
0.0
 11
-718.1038357108794
 21
-741.1179970155753
 31
0.0
  0
LINE
  5
8C
330
1F
100
AcDbEntity
  8
0-0
  6
JWW_DASHED1
 62
   120
370
     5
100
AcDbLine
 10
-756.103835710873
 20
-769.2185020803602
 30
0.0
 11
-718.1038357108725
 21
-731.2185020803513
 31
0.0
  0
LINE
  5
8D
330
1F
100
AcDbEntity
  8
0-0
  6
JWW_DASHED1
 62
   120
370
     5
100
AcDbLine
 10
-756.103835710873
 20
-759.3190071451869
 30
0.0
 11
-718.1038357108657
 21
-721.3190071451866
 31
0.0
  0
LINE
  5
8E
330
1F
100
AcDbEntity
  8
0-0
  6
JWW_DASHED1
 62
   120
370
     5
100
AcDbLine
 10
-756.103835710873
 20
-749.4195122099718
 30
0.0
 11
-718.103835710876
 21
-711.4195122099778
 31
0.0
  0
LINE
  5
8F
330
1F
100
AcDbEntity
  8
0-0
  6
JWW_DASHED1
 62
   120
370
     5
100
AcDbLine
 10
-756.103835710873
 20
-739.5200172747598
 30
0.0
 11
-718.1038357108691
 21
-701.5200172747547
 31
0.0
  0
LINE
  5
90
330
1F
100
AcDbEntity
  8
0-0
  6
JWW_DASHED1
 62
   120
370
     5
100
AcDbLine
 10
-756.103835710873
 20
-729.620522339598
 30
0.0
 11
-718.1038357108657
 21
-691.6205223395895
 31
0.0
  0
LINE
  5
91
330
1F
100
AcDbEntity
  8
0-0
  6
JWW_DASHED1
 62
   120
370
     5
100
AcDbLine
 10
-756.103835710873
 20
-719.7210274043778
 30
0.0
 11
-718.1038357108725
 21
-681.7210274043816
 31
0.0
  0
LINE
  5
92
330
1F
100
AcDbEntity
  8
0-0
  6
JWW_DASHED1
 62
   120
370
     5
100
AcDbLine
 10
-756.103835710873
 20
-709.8215324691665
 30
0.0
 11
-718.1038357108657
 21
-671.8215324691575
 31
0.0
  0
LINE
  5
93
330
1F
100
AcDbEntity
  8
0-0
  6
JWW_DASHED1
 62
   120
370
     5
100
AcDbLine
 10
-756.103835710873
 20
-699.922037534003
 30
0.0
 11
-718.1038357108794
 21
-661.9220375340082
 31
0.0
  0
LINE
  5
94
330
1F
100
AcDbEntity
  8
0-0
  6
JWW_DASHED1
 62
   120
370
     5
100
AcDbLine
 10
-756.103835710873
 20
-690.0225425987888
 30
0.0
 11
-718.1038357108725
 21
-652.0225425987846
 31
0.0
  0
LINE
  5
95
330
1F
100
AcDbEntity
  8
0-0
  6
JWW_DASHED1
 62
   120
370
     5
100
AcDbLine
 10
-756.103835710873
 20
-680.1230476635737
 30
0.0
 11
-718.1038357108794
 21
-642.1230476635764
 31
0.0
  0
LINE
  5
96
330
1F
100
AcDbEntity
  8
0-0
  6
JWW_DASHED1
 62
   120
370
     5
100
AcDbLine
 10
-756.103835710873
 20
-670.2235527284095
 30
0.0
 11
-718.103835710876
 21
-632.2235527284115
 31
0.0
  0
LINE
  5
97
330
1F
100
AcDbEntity
  8
0-0
  6
JWW_DASHED1
 62
   120
370
     5
100
AcDbLine
 10
-756.103835710873
 20
-660.3240577931947
 30
0.0
 11
-718.1038357108691
 21
-622.3240577931875
 31
0.0
  0
LINE
  5
98
330
1F
100
AcDbEntity
  8
0-0
  6
JWW_DASHED1
 62
   120
370
     5
100
AcDbLine
 10
-756.103835710873
 20
-650.424562857978
 30
0.0
 11
-718.103835710876
 21
-612.4245628579793
 31
0.0
  0
LINE
  5
99
330
1F
100
AcDbEntity
  8
0-0
  6
JWW_DASHED1
 62
   120
370
     5
100
AcDbLine
 10
-756.103835710873
 20
-640.5250679228085
 30
0.0
 11
-718.1038357108725
 21
-602.5250679228145
 31
0.0
  0
LINE
  5
9A
330
1F
100
AcDbEntity
  8
0-0
  6
JWW_DASHED1
 62
   120
370
     5
100
AcDbLine
 10
-756.103835710873
 20
-630.625572987602
 30
0.0
 11
-718.1038357108657
 21
-592.6255729875904
 31
0.0
  0
LINE
  5
9B
330
1F
100
AcDbEntity
  8
0-0
  6
JWW_DASHED1
 62
   120
370
     5
100
AcDbLine
 10
-756.103835710873
 20
-620.726078052377
 30
0.0
 11
-718.1038357108725
 21
-582.7260780523827
 31
0.0
  0
LINE
  5
9C
330
1F
100
AcDbEntity
  8
0-0
  6
JWW_DASHED1
 62
   120
370
     5
100
AcDbLine
 10
-756.103835710873
 20
-610.8265831172191
 30
0.0
 11
-718.1038357108725
 21
-572.8265831172175
 31
0.0
  0
LINE
  5
9D
330
1F
100
AcDbEntity
  8
0-0
  6
JWW_DASHED1
 62
   120
370
     5
100
AcDbLine
 10
-756.103835710873
 20
-600.9270881820049
 30
0.0
 11
-718.1038357108657
 21
-562.9270881819934
 31
0.0
  0
LINE
  5
9E
330
1F
100
AcDbEntity
  8
0-0
  6
JWW_DASHED1
 62
   120
370
     5
100
AcDbLine
 10
-756.103835710873
 20
-591.0275932467869
 30
0.0
 11
-718.1038357108725
 21
-553.0275932467856
 31
0.0
  0
LINE
  5
9F
330
1F
100
AcDbEntity
  8
0-0
  6
JWW_DASHED1
 62
   120
370
     5
100
AcDbLine
 10
-756.103835710873
 20
-581.128098311626
 30
0.0
 11
-718.1038357108691
 21
-543.1280983116204
 31
0.0
  0
LINE
  5
A0
330
1F
100
AcDbEntity
  8
0-0
  6
JWW_DASHED1
 62
   120
370
     5
100
AcDbLine
 10
-756.103835710873
 20
-571.2286033764062
 30
0.0
 11
-718.103835710876
 21
-533.2286033764126
 31
0.0
  0
LINE
  5
A1
330
1F
100
AcDbEntity
  8
0-0
  6
JWW_DASHED1
 62
   120
370
     5
100
AcDbLine
 10
-756.103835710873
 20
-561.3291084411936
 30
0.0
 11
-718.1038357108691
 21
-523.3291084411885
 31
0.0
  0
LINE
  5
A2
330
1F
100
AcDbEntity
  8
0-0
  6
JWW_DASHED1
 62
   120
370
     5
100
AcDbLine
 10
-756.103835710873
 20
-551.4296135060323
 30
0.0
 11
-718.1038357108657
 21
-513.4296135060233
 31
0.0
  0
LINE
  5
A3
330
1F
100
AcDbEntity
  8
0-0
  6
JWW_DASHED1
 62
   120
370
     5
100
AcDbLine
 10
-756.103835710873
 20
-541.5301185708125
 30
0.0
 11
-718.1038357108725
 21
-503.5301185708155
 31
0.0
  0
LINE
  5
A4
330
1F
100
AcDbEntity
  8
0-0
  6
JWW_DASHED1
 62
   120
370
     5
100
AcDbLine
 10
-756.103835710873
 20
-531.6306236355928
 30
0.0
 11
-718.1038357108657
 21
-493.630623635592
 31
0.0
  0
LINE
  5
A5
330
1F
100
AcDbEntity
  8
0-0
  6
JWW_DASHED1
 62
   120
370
     5
100
AcDbLine
 10
-756.103835710873
 20
-521.7311287004404
 30
0.0
 11
-718.1038357108794
 21
-483.7311287004425
 31
0.0
  0
LINE
  5
A6
330
1F
100
AcDbEntity
  8
0-0
  6
JWW_DASHED1
 62
   120
370
     5
100
AcDbLine
 10
-756.103835710873
 20
-511.8316337652232
 30
0.0
 11
-718.1038357108725
 21
-473.8316337652185
 31
0.0
  0
LINE
  5
A7
330
1F
100
AcDbEntity
  8
0-0
  6
JWW_DASHED1
 62
   120
370
     5
100
AcDbLine
 10
-756.103835710873
 20
-501.9321388300034
 30
0.0
 11
-718.1038357108657
 21
-463.9321388299945
 31
0.0
  0
LINE
  5
A8
330
1F
100
AcDbEntity
  8
0-0
  6
JWW_DASHED1
 62
   120
370
     5
100
AcDbLine
 10
-756.103835710873
 20
-492.0326438948433
 30
0.0
 11
-718.1038357108794
 21
-454.0326438948455
 31
0.0
  0
LINE
  5
A9
330
1F
100
AcDbEntity
  8
0-0
  6
JWW_DASHED1
 62
   120
370
     5
100
AcDbLine
 10
-756.103835710873
 20
-482.1331489596236
 30
0.0
 11
-718.1038357108691
 21
-444.1331489596215
 31
0.0
  0
LINE
  5
AA
330
1F
100
AcDbEntity
  8
0-0
  6
JWW_DASHED1
 62
   120
370
     5
100
AcDbLine
 10
-756.103835710873
 20
-472.2336540244089
 30
0.0
 11
-718.1038357108794
 21
-434.2336540244136
 31
0.0
  0
LINE
  5
AB
330
1F
100
AcDbEntity
  8
0-0
  6
JWW_DASHED1
 62
   120
370
     5
100
AcDbLine
 10
-756.103835710873
 20
-462.3341590892433
 30
0.0
 11
-718.1038357108725
 21
-424.3341590892484
 31
0.0
  0
LINE
  5
AC
330
1F
100
AcDbEntity
  8
0-0
  6
JWW_DASHED1
 62
   120
370
     5
100
AcDbLine
 10
-756.103835710873
 20
-452.4346641540291
 30
0.0
 11
-718.1038357108657
 21
-414.4346641540253
 31
0.0
  0
LINE
  5
AD
330
1F
100
AcDbEntity
  8
0-0
  6
JWW_DASHED1
 62
   120
370
     5
100
AcDbLine
 10
-756.103835710873
 20
-442.5351692188149
 30
0.0
 11
-718.103835710876
 21
-404.535169218817
 31
0.0
  0
LINE
  5
AE
330
1F
100
AcDbEntity
  8
0-0
  6
JWW_DASHED1
 62
   120
370
     5
100
AcDbLine
 10
-756.103835710873
 20
-432.6356742836531
 30
0.0
 11
-718.1038357108725
 21
-394.6356742836518
 31
0.0
  0
LINE
  5
AF
330
1F
100
AcDbEntity
  8
0-0
  6
JWW_DASHED1
 62
   120
370
     5
100
AcDbLine
 10
-756.103835710873
 20
-422.7361793484337
 30
0.0
 11
-718.1038357108794
 21
-384.7361793484436
 31
0.0
  0
LINE
  5
B0
330
1F
100
AcDbEntity
  8
0-0
  6
JWW_DASHED1
 62
   120
370
     5
100
AcDbLine
 10
-756.103835710873
 20
-412.8366844132212
 30
0.0
 11
-718.1038357108725
 21
-374.8366844132199
 31
0.0
  0
LINE
  5
B1
330
1F
100
AcDbEntity
  8
0-0
  6
JWW_DASHED1
 62
   120
370
     5
100
AcDbLine
 10
-756.103835710873
 20
-402.937189478059
 30
0.0
 11
-718.1038357108691
 21
-364.9371894780552
 31
0.0
  0
LINE
  5
B2
330
1F
100
AcDbEntity
  8
0-0
  6
JWW_DASHED1
 62
   120
370
     5
100
AcDbLine
 10
-756.103835710873
 20
-393.0376945428457
 30
0.0
 11
-718.1038357108794
 21
-355.0376945428465
 31
0.0
  0
LINE
  5
B3
330
1F
100
AcDbEntity
  8
0-0
  6
JWW_DASHED1
 62
   120
370
     5
100
AcDbLine
 10
-756.103835710873
 20
-383.138199607625
 30
0.0
 11
-718.1038357108725
 21
-345.1381996076229
 31
0.0
  0
LINE
  5
B4
330
1F
100
AcDbEntity
  8
0-0
  6
JWW_DASHED1
 62
   120
370
     5
100
AcDbLine
 10
-756.103835710873
 20
-373.238704672459
 30
0.0
 11
-718.1038357108657
 21
-335.2387046724581
 31
0.0
  0
LINE
  5
B5
330
1F
100
AcDbEntity
  8
0-0
  6
JWW_DASHED1
 62
   120
370
     5
100
AcDbLine
 10
-756.103835710873
 20
-363.3392097372439
 30
0.0
 11
-718.103835710876
 21
-325.3392097372503
 31
0.0
  0
LINE
  5
B6
330
1F
100
AcDbEntity
  8
0-0
  6
JWW_DASHED1
 62
   120
370
     5
100
AcDbLine
 10
-756.103835710873
 20
-353.4397148020309
 30
0.0
 11
-718.1038357108691
 21
-315.4397148020263
 31
0.0
  0
LINE
  5
B7
330
1F
100
AcDbEntity
  8
0-0
  6
JWW_DASHED1
 62
   120
370
     5
100
AcDbLine
 10
-756.103835710873
 20
-343.54021986687
 30
0.0
 11
-718.1038357108657
 21
-305.5402198668611
 31
0.0
  0
LINE
  5
B8
330
1F
100
AcDbEntity
  8
0-0
  6
JWW_DASHED1
 62
   120
370
     5
100
AcDbLine
 10
-756.103835710873
 20
-333.6407249316503
 30
0.0
 11
-718.1038357108725
 21
-295.6407249316533
 31
0.0
  0
LINE
  5
B9
330
1F
100
AcDbEntity
  8
0-0
  6
JWW_DASHED1
 62
   120
370
     5
100
AcDbLine
 10
-756.103835710873
 20
-323.7412299964382
 30
0.0
 11
-718.1038357108657
 21
-285.7412299964292
 31
0.0
  0
LINE
  5
BA
330
1F
100
AcDbEntity
  8
0-0
  6
JWW_DASHED1
 62
   120
370
     5
100
AcDbLine
 10
-756.103835710873
 20
-313.8417350612704
 30
0.0
 11
-718.1038357108725
 21
-275.8417350612747
 31
0.0
  0
LINE
  5
BB
330
1F
100
AcDbEntity
  8
0-0
  6
JWW_DASHED1
 62
   120
370
     5
100
AcDbLine
 10
-756.103835710873
 20
-303.94224012606
 30
0.0
 11
-718.1038357108725
 21
-265.9422401260562
 31
0.0
  0
LINE
  5
BC
330
1F
100
AcDbEntity
  8
0-0
  6
JWW_DASHED1
 62
   120
370
     5
100
AcDbLine
 10
-756.103835710873
 20
-294.0427451908462
 30
0.0
 11
-718.1038357108794
 21
-256.042745190848
 31
0.0
  0
LINE
  5
BD
330
1F
100
AcDbEntity
  8
0-0
  6
JWW_DASHED1
 62
   120
370
     5
100
AcDbLine
 10
-756.103835710873
 20
-284.1432502556819
 30
0.0
 11
-718.103835710876
 21
-246.1432502556832
 31
0.0
  0
LINE
  5
BE
330
1F
100
AcDbEntity
  8
0-0
  6
JWW_DASHED1
 62
   120
370
     5
100
AcDbLine
 10
-756.103835710873
 20
-274.2437553204596
 30
0.0
 11
-718.1038357108691
 21
-236.2437553204592
 31
0.0
  0
LINE
  5
BF
330
1F
100
AcDbEntity
  8
0-0
  6
JWW_DASHED1
 62
   120
370
     5
100
AcDbLine
 10
-756.103835710873
 20
-264.3442603852449
 30
0.0
 11
-718.103835710876
 21
-226.3442603852513
 31
0.0
  0
LINE
  5
C0
330
1F
100
AcDbEntity
  8
0-0
  6
JWW_DASHED1
 62
   120
370
     5
100
AcDbLine
 10
-756.103835710873
 20
-254.444765450081
 30
0.0
 11
-718.1038357108725
 21
-216.4447654500862
 31
0.0
  0
LINE
  5
C1
330
1F
100
AcDbEntity
  8
0-0
  6
JWW_DASHED1
 62
   120
370
     5
100
AcDbLine
 10
-756.103835710873
 20
-244.5452705148728
 30
0.0
 11
-718.1038357108657
 21
-206.5452705148621
 31
0.0
  0
LINE
  5
C2
330
1F
100
AcDbEntity
  8
0-0
  6
JWW_DASHED1
 62
   120
370
     5
100
AcDbLine
 10
-756.103835710873
 20
-234.6457755796492
 30
0.0
 11
-718.1038357108725
 21
-196.6457755796543
 31
0.0
  0
LINE
  5
C3
330
1F
100
AcDbEntity
  8
0-0
  6
JWW_DASHED1
 62
   120
370
     5
100
AcDbLine
 10
-756.103835710873
 20
-224.7462806444912
 30
0.0
 11
-718.1038357108725
 21
-186.7462806444891
 31
0.0
  0
LINE
  5
C4
330
1F
100
AcDbEntity
  8
0-0
  6
JWW_DASHED1
 62
   120
370
     5
100
AcDbLine
 10
-756.103835710873
 20
-214.8467857092778
 30
0.0
 11
-718.1038357108657
 21
-176.8467857092651
 31
0.0
  0
LINE
  5
C5
330
1F
100
AcDbEntity
  8
0-0
  6
JWW_DASHED1
 62
   120
370
     5
100
AcDbLine
 10
-756.103835710873
 20
-204.9472907740594
 30
0.0
 11
-718.1038357108725
 21
-166.9472907740573
 31
0.0
  0
LINE
  5
C6
330
1F
100
AcDbEntity
  8
0-0
  6
JWW_DASHED1
 62
   120
370
     5
100
AcDbLine
 10
-756.103835710873
 20
-195.0477958388976
 30
0.0
 11
-718.1038357108691
 21
-157.0477958388921
 31
0.0
  0
LINE
  5
C7
330
1F
100
AcDbEntity
  8
0-0
  6
JWW_DASHED1
 62
   120
370
     5
100
AcDbLine
 10
-756.103835710873
 20
-185.1483009036778
 30
0.0
 11
-718.103835710876
 21
-147.1483009036842
 31
0.0
  0
LINE
  5
C8
330
1F
100
AcDbEntity
  8
0-0
  6
JWW_DASHED1
 62
   120
370
     5
100
AcDbLine
 10
-756.103835710873
 20
-175.2488059684939
 30
0.0
 11
-718.1038357108725
 21
-137.24880596849
 31
0.0
  0
LINE
  5
C9
330
1F
100
AcDbEntity
  8
0-0
  6
JWW_DASHED1
 62
   120
370
     5
100
AcDbLine
 10
-756.103835710873
 20
-165.3493110332963
 30
0.0
 11
-718.1038357108657
 21
-127.3493110332954
 31
0.0
  0
LINE
  5
CA
330
1F
100
AcDbEntity
  8
0-0
  6
JWW_DASHED1
 62
   120
370
     5
100
AcDbLine
 10
-756.103835710873
 20
-155.4498160980833
 30
0.0
 11
-718.1038357108725
 21
-117.4498160980876
 31
0.0
  0
LINE
  5
CB
330
1F
100
AcDbEntity
  8
0-0
  6
JWW_DASHED1
 62
   120
370
     5
100
AcDbLine
 10
-756.103835710873
 20
-145.5503211628934
 30
0.0
 11
-718.1038357108691
 21
-107.550321162893
 31
0.0
  0
LINE
  5
CC
330
1F
100
AcDbEntity
  8
0-0
  6
JWW_DASHED1
 62
   120
370
     5
100
AcDbLine
 10
-756.103835710873
 20
-135.6508262277111
 30
0.0
 11
-718.1038357108794
 21
-97.65082622771416
 31
0.0
  0
LINE
  5
CD
330
1F
100
AcDbEntity
  8
0-0
  6
JWW_DASHED1
 62
   120
370
     5
100
AcDbLine
 10
-756.103835710873
 20
-125.7513312924961
 30
0.0
 11
-718.1038357108725
 21
-87.75133129249014
 31
0.0
  0
LINE
  5
CE
330
1F
100
AcDbEntity
  8
0-0
  6
JWW_DASHED1
 62
   120
370
     5
100
AcDbLine
 10
-756.103835710873
 20
-115.8518363573262
 30
0.0
 11
-718.1038357108691
 21
-77.8518363573258
 31
0.0
  0
LINE
  5
CF
330
1F
100
AcDbEntity
  8
0-0
  6
JWW_DASHED1
 62
   120
370
     5
100
AcDbLine
 10
-756.103835710873
 20
-105.9523414221162
 30
0.0
 11
-718.1038357108794
 21
-67.95234142211712
 31
0.0
  0
LINE
  5
D0
330
1F
100
AcDbEntity
  8
0-0
  6
JWW_DASHED1
 62
   120
370
     5
100
AcDbLine
 10
-756.103835710873
 20
-96.05284648689434
 30
0.0
 11
-718.1038357108691
 21
-58.05284648689394
 31
0.0
  0
LINE
  5
D1
330
1F
100
AcDbEntity
  8
0-0
  6
JWW_DASHED1
 62
   120
370
     5
100
AcDbLine
 10
-756.103835710873
 20
-86.15335155173256
 30
0.0
 11
-718.1038357108657
 21
-48.15335155172875
 31
0.0
  0
LINE
  5
D2
330
1F
100
AcDbEntity
  8
0-0
  6
JWW_DASHED1
 62
   120
370
     5
100
AcDbLine
 10
-756.103835710873
 20
-76.25385661651791
 30
0.0
 11
-718.103835710876
 21
-38.25385661652092
 31
0.0
  0
LINE
  5
D3
330
1F
100
AcDbEntity
  8
0-0
  6
JWW_DASHED1
 62
   120
370
     5
100
AcDbLine
 10
-756.103835710873
 20
-66.3543616813007
 30
0.0
 11
-718.1038357108657
 21
-28.35436168129689
 31
0.0
  0
LINE
  5
D4
330
1F
100
AcDbEntity
  8
0-0
  6
JWW_DASHED1
 62
   120
370
     5
100
AcDbLine
 10
-756.103835710873
 20
-56.45486674614233
 30
0.0
 11
-718.1038357108657
 21
-18.4548667461317
 31
0.0
  0
LINE
  5
D5
330
1F
100
AcDbEntity
  8
0-0
  6
JWW_DASHED1
 62
   120
370
     5
100
AcDbLine
 10
-756.103835710873
 20
-46.55537181092427
 30
0.0
 11
-718.1038357108725
 21
-8.555371810923873
 31
0.0
  0
LINE
  5
D6
330
1F
100
AcDbEntity
  8
0-0
  6
JWW_DASHED1
 62
   120
370
     5
100
AcDbLine
 10
-756.103835710873
 20
-36.65587687571048
 30
0.0
 11
-718.1038357108657
 21
1.344123124300154
 31
0.0
  0
LINE
  5
D7
330
1F
100
AcDbEntity
  8
0-0
  6
JWW_DASHED1
 62
   120
370
     5
100
AcDbLine
 10
-756.103835710873
 20
-26.75638194054358
 30
0.0
 11
-718.1038357108691
 21
11.24361805945682
 31
0.0
  0
LINE
  5
D8
330
1F
100
AcDbEntity
  8
0-0
  6
JWW_DASHED1
 62
   120
370
     5
100
AcDbLine
 10
-756.103835710873
 20
-16.85688700533234
 30
0.0
 11
-718.1038357108691
 21
21.14311299467317
 31
0.0
  0
LINE
  5
D9
330
1F
100
AcDbEntity
  8
0-0
  6
JWW_DASHED1
 62
   120
370
     5
100
AcDbLine
 10
-756.103835710873
 20
-6.957392070115986
 30
0.0
 11
-718.1038357108794
 21
31.042607929881
 31
0.0
  0
LINE
  5
DA
330
1F
100
AcDbEntity
  8
0-0
  6
JWW_DASHED1
 62
   120
370
     5
100
AcDbLine
 10
-756.103835710873
 20
2.942102865052618
 30
0.0
 11
-718.103835710876
 21
40.94210286504619
 31
0.0
  0
LINE
  5
DB
330
1F
100
AcDbEntity
  8
0-0
  6
JWW_DASHED1
 62
   120
370
     5
100
AcDbLine
 10
-756.103835710873
 20
12.84159780026854
 30
0.0
 11
-718.1038357108657
 21
50.84159780027022
 31
0.0
  0
LINE
  5
DC
330
1F
100
AcDbEntity
  8
0-0
  6
JWW_DASHED1
 62
   120
370
     5
100
AcDbLine
 10
-756.103835710873
 20
22.74109273548447
 30
0.0
 11
-718.103835710876
 21
60.74109273547805
 31
0.0
  0
LINE
  5
DD
330
1F
100
AcDbEntity
  8
0-0
  6
JWW_DASHED1
 62
   120
370
     5
100
AcDbLine
 10
-756.103835710873
 20
32.64058767063815
 30
0.0
 11
-718.1038357108725
 21
70.64058767064324
 31
0.0
  0
LINE
  5
DE
330
1F
100
AcDbEntity
  8
0-0
  6
JWW_DASHED1
 62
   120
370
     5
100
AcDbLine
 10
-756.103835710873
 20
42.54008260585877
 30
0.0
 11
-718.1038357108657
 21
80.54008260586684
 31
0.0
  0
LINE
  5
DF
330
1F
100
AcDbEntity
  8
0-0
  6
JWW_DASHED1
 62
   120
370
     5
100
AcDbLine
 10
-756.103835710873
 20
52.43957754107811
 30
0.0
 11
-718.1038357108725
 21
90.4395775410751
 31
0.0
  0
LINE
  5
E0
330
1F
100
AcDbEntity
  8
0-0
  6
JWW_DASHED1
 62
   120
370
     5
100
AcDbLine
 10
-756.103835710873
 20
62.33907247623605
 30
0.0
 11
-718.1038357108725
 21
100.3390724762399
 31
0.0
  0
LINE
  5
E1
330
1F
100
AcDbEntity
  8
0-0
  6
JWW_DASHED1
 62
   120
370
     5
100
AcDbLine
 10
-756.103835710873
 20
72.23856741145241
 30
0.0
 11
-718.1038357108623
 21
110.2385674114639
 31
0.0
  0
LINE
  5
E2
330
1F
100
AcDbEntity
  8
0-0
  6
JWW_DASHED1
 62
   120
370
     5
100
AcDbLine
 10
-756.103835710873
 20
82.13806234666833
 30
0.0
 11
-718.1038357108725
 21
120.1380623466721
 31
0.0
  0
LINE
  5
E3
330
1F
100
AcDbEntity
  8
0-0
  6
JWW_DASHED1
 62
   120
370
     5
100
AcDbLine
 10
-756.103835710873
 20
92.03755728182969
 30
0.0
 11
-718.1038357108691
 21
130.0375572818369
 31
0.0
  0
LINE
  5
E4
330
1F
100
AcDbEntity
  8
0-0
  6
JWW_DASHED1
 62
   120
370
     5
100
AcDbLine
 10
-756.103835710873
 20
101.9370522170465
 30
0.0
 11
-718.103835710876
 21
139.9370522170449
 31
0.0
  0
LINE
  5
E5
330
1F
100
AcDbEntity
  8
0-0
  6
JWW_DASHED1
 62
   120
370
     5
100
AcDbLine
 10
-756.103835710873
 20
111.8365471522684
 30
0.0
 11
-718.1038357108691
 21
149.8365471522688
 31
0.0
  0
LINE
  5
E6
330
1F
100
AcDbEntity
  8
0-0
  6
JWW_DASHED1
 62
   120
370
     5
100
AcDbLine
 10
-756.103835710873
 20
121.736042087422
 30
0.0
 11
-718.1038357108657
 21
159.736042087434
 31
0.0
  0
LINE
  5
E7
330
1F
100
AcDbEntity
  8
0-0
  6
JWW_DASHED1
 62
   120
370
     5
100
AcDbLine
 10
-756.103835710873
 20
131.6355370226478
 30
0.0
 11
-718.1038357108725
 21
169.6355370226418
 31
0.0
  0
LINE
  5
E8
330
1F
100
AcDbEntity
  8
0-0
  6
JWW_DASHED1
 62
   120
370
     5
100
AcDbLine
 10
-756.103835710873
 20
141.5350319578612
 30
0.0
 11
-718.1038357108657
 21
179.5350319578658
 31
0.0
  0
LINE
  5
E9
330
1F
100
AcDbEntity
  8
0-0
  6
JWW_DASHED1
 62
   120
370
     5
100
AcDbLine
 10
-756.103835710873
 20
151.434526893017
 30
0.0
 11
-718.1038357108794
 21
189.4345268930152
 31
0.0
  0
LINE
  5
EA
330
1F
100
AcDbEntity
  8
0-0
  6
JWW_DASHED1
 62
   120
370
     5
100
AcDbLine
 10
-756.103835710873
 20
161.3340218282376
 30
0.0
 11
-718.1038357108725
 21
199.3340218282388
 31
0.0
  0
LINE
  5
EB
330
1F
100
AcDbEntity
  8
0-0
  6
JWW_DASHED1
 62
   120
370
     5
100
AcDbLine
 10
-756.103835710873
 20
171.2335167634518
 30
0.0
 11
-718.1038357108657
 21
209.2335167634624
 31
0.0
  0
LINE
  5
EC
330
1F
100
AcDbEntity
  8
0-0
  6
JWW_DASHED1
 62
   120
370
     5
100
AcDbLine
 10
-756.103835710873
 20
181.1330116986178
 30
0.0
 11
-718.103835710876
 21
219.1330116986121
 31
0.0
  0
LINE
  5
ED
330
1F
100
AcDbEntity
  8
0-0
  6
JWW_DASHED1
 62
   120
370
     5
100
AcDbLine
 10
-756.103835710873
 20
191.0325066338304
 30
0.0
 11
-718.1038357108691
 21
229.0325066338359
 31
0.0
  0
LINE
  5
EE
330
1F
100
AcDbEntity
  8
0-0
  6
JWW_DASHED1
 62
   120
370
     5
100
AcDbLine
 10
-756.103835710873
 20
200.9320015690489
 30
0.0
 11
-718.1038357108657
 21
238.9320015690535
 31
0.0
  0
LINE
  5
EF
330
1F
100
AcDbEntity
  8
0-0
  6
JWW_DASHED1
 62
   120
370
     5
100
AcDbLine
 10
-756.103835710873
 20
210.8314965042111
 30
0.0
 11
-718.1038357108725
 21
248.8314965042089
 31
0.0
  0
LINE
  5
F0
330
1F
100
AcDbEntity
  8
0-0
  6
JWW_DASHED1
 62
   120
370
     5
100
AcDbLine
 10
-756.103835710873
 20
220.7309914394317
 30
0.0
 11
-718.1038357108657
 21
258.7309914394325
 31
0.0
  0
LINE
  5
F1
330
1F
100
AcDbEntity
  8
0-0
  6
JWW_DASHED1
 62
   120
370
     5
100
AcDbLine
 10
-756.103835710873
 20
230.6304863746391
 30
0.0
 11
-718.103835710876
 21
268.6304863746408
 31
0.0
  0
LINE
  5
F2
330
1F
100
AcDbEntity
  8
0-0
  6
JWW_DASHED1
 62
   120
370
     5
100
AcDbLine
 10
-756.103835710873
 20
240.5299813098015
 30
0.0
 11
-718.1038357108725
 21
278.5299813098055
 31
0.0
  0
LINE
  5
F3
330
1F
100
AcDbEntity
  8
0-0
  6
JWW_DASHED1
 62
   120
370
     5
100
AcDbLine
 10
-756.103835710873
 20
250.4294762450236
 30
0.0
 11
-718.1038357108794
 21
288.4294762450138
 31
0.0
  0
LINE
  5
F4
330
1F
100
AcDbEntity
  8
0-0
  6
JWW_DASHED1
 62
   120
370
     5
100
AcDbLine
 10
-756.103835710873
 20
260.3289711802336
 30
0.0
 11
-718.1038357108725
 21
298.3289711802374
 31
0.0
  0
LINE
  5
F5
330
1F
100
AcDbEntity
  8
0-0
  6
JWW_DASHED1
 62
   120
370
     5
100
AcDbLine
 10
-756.103835710873
 20
270.2284661154022
 30
0.0
 11
-718.1038357108691
 21
308.2284661154023
 31
0.0
  0
LINE
  5
F6
330
1F
100
AcDbEntity
  8
0-0
  6
JWW_DASHED1
 62
   120
370
     5
100
AcDbLine
 10
-756.103835710873
 20
280.1279610506134
 30
0.0
 11
-718.1038357108794
 21
318.1279610506104
 31
0.0
  0
LINE
  5
F7
330
1F
100
AcDbEntity
  8
0-0
  6
JWW_DASHED1
 62
   120
370
     5
100
AcDbLine
 10
-756.103835710873
 20
290.027455985834
 30
0.0
 11
-718.1038357108691
 21
328.0274559858344
 31
0.0
  0
LINE
  5
F8
330
1F
100
AcDbEntity
  8
0-0
  6
JWW_DASHED1
 62
   120
370
     5
100
AcDbLine
 10
-756.103835710873
 20
299.926950920995
 30
0.0
 11
-718.1038357108657
 21
337.9269509209996
 31
0.0
  0
LINE
  5
F9
330
1F
100
AcDbEntity
  8
0-0
  6
JWW_DASHED1
 62
   120
370
     5
100
AcDbLine
 10
-756.103835710873
 20
309.8264458562096
 30
0.0
 11
-718.103835710876
 21
347.8264458562074
 31
0.0
  0
LINE
  5
FA
330
1F
100
AcDbEntity
  8
0-0
  6
JWW_DASHED1
 62
   120
370
     5
100
AcDbLine
 10
-756.103835710873
 20
319.7259407914277
 30
0.0
 11
-718.1038357108657
 21
357.7259407914315
 31
0.0
  0
LINE
  5
FB
330
1F
100
AcDbEntity
  8
0-0
  6
JWW_DASHED1
 62
   120
370
     5
100
AcDbLine
 10
-756.103835710873
 20
329.6254357265848
 30
0.0
 11
-718.1038357108657
 21
367.6254357265967
 31
0.0
  0
LINE
  5
FC
330
1F
100
AcDbEntity
  8
0-0
  6
JWW_DASHED1
 62
   120
370
     5
100
AcDbLine
 10
-756.103835710873
 20
339.5249306618024
 30
0.0
 11
-718.1038357108725
 21
377.5249306618045
 31
0.0
  0
LINE
  5
FD
330
1F
100
AcDbEntity
  8
0-0
  6
JWW_DASHED1
 62
   120
370
     5
100
AcDbLine
 10
-756.103835710873
 20
349.4244255970166
 30
0.0
 11
-718.1038357108657
 21
387.4244255970285
 31
0.0
  0
LINE
  5
FE
330
1F
100
AcDbEntity
  8
0-0
  6
JWW_DASHED1
 62
   120
370
     5
100
AcDbLine
 10
-756.103835710873
 20
359.3239205321861
 30
0.0
 11
-718.1038357108623
 21
397.3239205321933
 31
0.0
  0
LINE
  5
FF
330
1F
100
AcDbEntity
  8
0-0
  6
JWW_DASHED1
 62
   120
370
     5
100
AcDbLine
 10
-756.103835710873
 20
369.2234154673958
 30
0.0
 11
-718.1038357108691
 21
407.2234154674015
 31
0.0
  0
LINE
  5
100
330
1F
100
AcDbEntity
  8
0-0
  6
JWW_DASHED1
 62
   120
370
     5
100
AcDbLine
 10
-756.103835710873
 20
379.1229104026121
 30
0.0
 11
-718.1038357108794
 21
417.1229104026094
 31
0.0
  0
LINE
  5
101
330
1F
100
AcDbEntity
  8
0-0
  6
JWW_DASHED1
 62
   120
370
     5
100
AcDbLine
 10
-756.103835710873
 20
389.0224053377739
 30
0.0
 11
-718.103835710876
 21
427.0224053377746
 31
0.0
  0
LINE
  5
102
330
1F
100
AcDbEntity
  8
0-0
  6
JWW_DASHED1
 62
   120
370
     5
100
AcDbLine
 10
-756.103835710873
 20
398.9219002729971
 30
0.0
 11
-718.1038357108657
 21
436.9219002729982
 31
0.0
  0
LINE
  5
103
330
1F
100
AcDbEntity
  8
0-0
  6
JWW_DASHED1
 62
   120
370
     5
100
AcDbLine
 10
-756.103835710873
 20
408.8213952082128
 30
0.0
 11
-718.103835710876
 21
446.8213952082062
 31
0.0
  0
LINE
  5
104
330
1F
100
AcDbEntity
  8
0-0
  6
JWW_DASHED1
 62
   120
370
     5
100
AcDbLine
 10
-756.103835710873
 20
418.7208901433683
 30
0.0
 11
-718.1038357108725
 21
456.7208901433712
 31
0.0
  0
LINE
  5
105
330
1F
100
AcDbEntity
  8
0-0
  6
JWW_DASHED1
 62
   120
370
     5
100
AcDbLine
 10
-756.103835710873
 20
428.6203850785871
 30
0.0
 11
-718.1038357108657
 21
466.6203850785952
 31
0.0
  0
LINE
  5
106
330
1F
100
AcDbEntity
  8
0-0
  6
JWW_DASHED1
 62
   120
370
     5
100
AcDbLine
 10
-756.103835710873
 20
438.51988001378
 30
0.0
 11
-718.103835710876
 21
476.5198800137734
 31
0.0
  0
LINE
  5
107
330
1F
100
AcDbEntity
  8
0-0
  6
JWW_DASHED1
 62
   120
370
     5
100
AcDbLine
 10
-756.103835710873
 20
448.4193749489644
 30
0.0
 11
-718.1038357108725
 21
486.4193749489682
 31
0.0
  0
LINE
  5
108
330
1F
100
AcDbEntity
  8
0-0
  6
JWW_DASHED1
 62
   120
370
     5
100
AcDbLine
 10
-756.103835710873
 20
458.3188698841799
 30
0.0
 11
-718.1038357108623
 21
496.3188698841923
 31
0.0
  0
LINE
  5
109
330
1F
100
AcDbEntity
  8
0-0
  6
JWW_DASHED1
 62
   120
370
     5
100
AcDbLine
 10
-756.103835710873
 20
468.2183648193468
 30
0.0
 11
-718.103835710876
 21
506.2183648193412
 31
0.0
  0
LINE
  5
10A
330
1F
100
AcDbEntity
  8
0-0
  6
JWW_DASHED1
 62
   120
370
     5
100
AcDbLine
 10
-756.103835710873
 20
478.1178597545568
 30
0.0
 11
-718.1038357108691
 21
516.1178597545653
 31
0.0
  0
LINE
  5
10B
330
1F
100
AcDbEntity
  8
0-0
  6
JWW_DASHED1
 62
   120
370
     5
100
AcDbLine
 10
-756.103835710873
 20
488.0173546897753
 30
0.0
 11
-718.103835710876
 21
526.0173546897731
 31
0.0
  0
LINE
  5
10C
330
1F
100
AcDbEntity
  8
0-0
  6
JWW_DASHED1
 62
   120
370
     5
100
AcDbLine
 10
-756.103835710873
 20
497.9168496249434
 30
0.0
 11
-718.1038357108725
 21
535.9168496249383
 31
0.0
  0
LINE
  5
10D
330
1F
100
AcDbEntity
  8
0-0
  6
JWW_DASHED1
 62
   120
370
     5
100
AcDbLine
 10
-756.103835710873
 20
507.8163445601513
 30
0.0
 11
-718.1038357108657
 21
545.816344560162
 31
0.0
  0
LINE
  5
10E
330
1F
100
AcDbEntity
  8
0-0
  6
JWW_DASHED1
 62
   120
370
     5
100
AcDbLine
 10
-756.103835710873
 20
517.7158394953761
 30
0.0
 11
-718.1038357108725
 21
555.7158394953701
 31
0.0
  0
LINE
  5
10F
330
1F
100
AcDbEntity
  8
0-0
  6
JWW_DASHED1
 62
   120
370
     5
100
AcDbLine
 10
-756.103835710873
 20
527.6153344305264
 30
0.0
 11
-718.1038357108725
 21
565.6153344305349
 31
0.0
  0
LINE
  5
110
330
1F
100
AcDbEntity
  8
0-0
  6
JWW_DASHED1
 62
   120
370
     5
100
AcDbLine
 10
-756.103835710873
 20
537.5148293657462
 30
0.0
 11
-718.1038357108794
 21
575.5148293657431
 31
0.0
  0
LINE
  5
111
330
1F
100
AcDbEntity
  8
0-0
  6
JWW_DASHED1
 62
   120
370
     5
100
AcDbLine
 10
-756.103835710873
 20
547.4143243009655
 30
0.0
 11
-718.1038357108725
 21
585.4143243009668
 31
0.0
  0
LINE
  5
112
330
1F
100
AcDbEntity
  8
0-0
  6
JWW_DASHED1
 62
   120
370
     5
100
AcDbLine
 10
-756.103835710873
 20
557.3138192361273
 30
0.0
 11
-718.1038357108691
 21
595.313819236132
 31
0.0
  0
LINE
  5
113
330
1F
100
AcDbEntity
  8
0-0
  6
JWW_DASHED1
 62
   120
370
     5
100
AcDbLine
 10
-756.103835710873
 20
567.2133141713458
 30
0.0
 11
-718.103835710876
 21
605.2133141713402
 31
0.0
  0
LINE
  5
114
330
1F
100
AcDbEntity
  8
0-0
  6
JWW_DASHED1
 62
   120
370
     5
100
AcDbLine
 10
-756.103835710873
 20
577.1128091065583
 30
0.0
 11
-718.1038357108691
 21
615.1128091065636
 31
0.0
  0
LINE
  5
115
330
1F
100
AcDbEntity
  8
0-0
  6
JWW_DASHED1
 62
   120
370
     5
100
AcDbLine
 10
-756.103835710873
 20
587.0123040417201
 30
0.0
 11
-718.1038357108657
 21
625.0123040417291
 31
0.0
  0
LINE
  5
116
330
1F
100
AcDbEntity
  8
0-0
  6
JWW_DASHED1
 62
   120
370
     5
100
AcDbLine
 10
-756.103835710873
 20
596.9117989769398
 30
0.0
 11
-718.1038357108725
 21
634.9117989769368
 31
0.0
  0
LINE
  5
117
330
1F
100
AcDbEntity
  8
0-0
  6
JWW_DASHED1
 62
   120
370
     5
100
AcDbLine
 10
-756.103835710873
 20
606.8112939121586
 30
0.0
 11
-718.1038357108657
 21
644.8112939121609
 31
0.0
  0
LINE
  5
118
330
1F
100
AcDbEntity
  8
0-0
  6
JWW_DASHED1
 62
   120
370
     5
100
AcDbLine
 10
-756.103835710873
 20
616.7107888473104
 30
0.0
 11
-718.1038357108657
 21
654.7107888473256
 31
0.0
  0
LINE
  5
119
330
1F
100
AcDbEntity
  8
0-0
  6
JWW_DASHED1
 62
   120
370
     5
100
AcDbLine
 10
-756.103835710873
 20
626.6102837825299
 30
0.0
 11
-718.1038357108725
 21
664.6102837825339
 31
0.0
  0
LINE
  5
11A
330
1F
100
AcDbEntity
  8
0-0
  6
JWW_DASHED1
 62
   120
370
     5
100
AcDbLine
 10
-756.103835710873
 20
636.509778717749
 30
0.0
 11
-718.1038357108657
 21
674.5097787177579
 31
0.0
  0
LINE
  5
11B
330
1F
100
AcDbEntity
  8
0-0
  6
JWW_DASHED1
 62
   120
370
     5
100
AcDbLine
 10
-756.103835710873
 20
646.409273652908
 30
0.0
 11
-718.1038357108623
 21
684.4092736529205
 31
0.0
  0
LINE
  5
11C
330
1F
100
AcDbEntity
  8
0-0
  6
JWW_DASHED1
 62
   120
370
     5
100
AcDbLine
 10
-756.103835710873
 20
656.3087685881296
 30
0.0
 11
-718.1038357108691
 21
694.3087685881308
 31
0.0
  0
LINE
  5
11D
330
1F
100
AcDbEntity
  8
0-0
  6
JWW_DASHED1
 62
   120
370
     5
100
AcDbLine
 10
-756.103835710873
 20
666.2082635233418
 30
0.0
 11
-718.1038357108794
 21
704.2082635233387
 31
0.0
  0
LINE
  5
11E
330
1F
100
AcDbEntity
  8
0-0
  6
JWW_DASHED1
 62
   120
370
     5
100
AcDbLine
 10
-756.103835710873
 20
676.1077584585091
 30
0.0
 11
-718.1038357108725
 21
714.1077584585039
 31
0.0
  0
LINE
  5
11F
330
1F
100
AcDbEntity
  8
0-0
  6
JWW_DASHED1
 62
   120
370
     5
100
AcDbLine
 10
-756.103835710873
 20
686.0072533937238
 30
0.0
 11
-718.1038357108657
 21
724.0072533937275
 31
0.0
  0
LINE
  5
120
330
1F
100
AcDbEntity
  8
0-0
  6
JWW_DASHED1
 62
   120
370
     5
100
AcDbLine
 10
-756.103835710873
 20
695.9067483289352
 30
0.0
 11
-718.103835710876
 21
733.9067483289358
 31
0.0
  0
LINE
  5
121
330
1F
100
AcDbEntity
  8
0-0
  6
JWW_DASHED1
 62
   120
370
     5
100
AcDbLine
 10
-756.103835710873
 20
705.8062432640993
 30
0.0
 11
-718.1038357108725
 21
743.8062432641002
 31
0.0
  0
LINE
  5
122
330
1F
100
AcDbEntity
  8
0-0
  6
JWW_DASHED1
 62
   120
370
     5
100
AcDbLine
 10
-756.103835710873
 20
715.7057381993134
 30
0.0
 11
-718.1038357108657
 21
753.7057381993246
 31
0.0
  0
LINE
  5
123
330
1F
100
AcDbEntity
  8
0-0
  6
JWW_DASHED1
 62
   120
370
     5
100
AcDbLine
 10
-756.103835710873
 20
725.6052331345307
 30
0.0
 11
-718.1038357108725
 21
763.6052331345329
 31
0.0
  0
LINE
  5
124
330
1F
100
AcDbEntity
  8
0-0
  6
JWW_DASHED1
 62
   120
370
     5
100
AcDbLine
 10
-756.103835710873
 20
735.504728069693
 30
0.0
 11
-718.1038357108691
 21
773.5047280696976
 31
0.0
  0
LINE
  5
125
330
1F
100
AcDbEntity
  8
0-0
  6
JWW_DASHED1
 62
   120
370
     5
100
AcDbLine
 10
-756.103835710873
 20
745.404223004914
 30
0.0
 11
-718.1038357108623
 21
783.404223004921
 31
0.0
  0
LINE
  5
126
330
1F
100
AcDbEntity
  8
0-0
  6
JWW_DASHED1
 62
   120
370
     5
100
AcDbLine
 10
-756.103835710873
 20
755.303717940121
 30
0.0
 11
-718.1038357108725
 21
793.3037179401294
 31
0.0
  0
LINE
  5
127
330
1F
100
AcDbEntity
  8
0-0
  6
JWW_DASHED1
 62
   120
370
     5
100
AcDbLine
 10
-756.103835710873
 20
765.2032128752928
 30
0.0
 11
-718.1038357108657
 21
803.2032128752946
 31
0.0
  0
LINE
  5
128
330
1F
100
AcDbEntity
  8
0-0
  6
JWW_DASHED1
 62
   120
370
     5
100
AcDbLine
 10
-756.103835710873
 20
775.102707810509
 30
0.0
 11
-718.103835710876
 21
813.1027078105019
 31
0.0
  0
LINE
  5
129
330
1F
100
AcDbEntity
  8
0-0
  6
JWW_DASHED1
 62
   120
370
     5
100
AcDbLine
 10
-756.103835710873
 20
785.0022027457255
 30
0.0
 11
-718.1038357108657
 21
823.0022027457265
 31
0.0
  0
LINE
  5
12A
330
1F
100
AcDbEntity
  8
0-0
  6
JWW_DASHED1
 62
   120
370
     5
100
AcDbLine
 10
-756.103835710873
 20
794.9016976808832
 30
0.0
 11
-718.1038357108657
 21
832.9016976808913
 31
0.0
  0
LINE
  5
12B
330
1F
100
AcDbEntity
  8
0-0
  6
JWW_DASHED1
 62
   120
370
     5
100
AcDbLine
 10
-756.103835710873
 20
804.8011926161025
 30
0.0
 11
-718.1038357108725
 21
842.8011926160996
 31
0.0
  0
LINE
  5
12C
330
1F
100
AcDbEntity
  8
0-0
  6
JWW_DASHED1
 62
   120
370
     5
100
AcDbLine
 10
-756.103835710873
 20
814.700687551315
 30
0.0
 11
-718.1038357108657
 21
852.7006875513232
 31
0.0
  0
LINE
  5
12D
330
1F
100
AcDbEntity
  8
0-0
  6
JWW_DASHED1
 62
   120
370
     5
100
AcDbLine
 10
-756.103835710873
 20
824.600182486475
 30
0.0
 11
-718.1038357108794
 21
862.6001824864726
 31
0.0
  0
LINE
  5
12E
330
1F
100
AcDbEntity
  8
0-0
  6
JWW_DASHED1
 62
   120
370
     5
100
AcDbLine
 10
-756.103835710873
 20
834.4996774216913
 30
0.0
 11
-718.1038357108725
 21
872.4996774216966
 31
0.0
  0
LINE
  5
12F
330
1F
100
AcDbEntity
  8
0-0
  6
JWW_DASHED1
 62
   120
370
     5
100
AcDbLine
 10
-756.103835710873
 20
844.3991723569087
 30
0.0
 11
-718.1038357108623
 21
882.3991723569202
 31
0.0
  0
LINE
  5
130
330
1F
100
AcDbEntity
  8
0-0
  6
JWW_DASHED1
 62
   120
370
     5
100
AcDbLine
 10
-756.103835710873
 20
854.2986672920756
 30
0.0
 11
-718.103835710876
 21
892.298667292069
 31
0.0
  0
LINE
  5
131
330
1F
100
AcDbEntity
  8
0-0
  6
JWW_DASHED1
 62
   120
370
     5
100
AcDbLine
 10
-756.103835710873
 20
864.1981622272858
 30
0.0
 11
-718.1038357108691
 21
902.1981622272932
 31
0.0
  0
LINE
  5
132
330
1F
100
AcDbEntity
  8
0-0
  6
JWW_DASHED1
 62
   120
370
     5
100
AcDbLine
 10
-756.103835710873
 20
874.0976571625083
 30
0.0
 11
-718.1038357108589
 21
912.0976571625168
 31
0.0
  0
LINE
  5
133
330
1F
100
AcDbEntity
  8
0-0
  6
JWW_DASHED1
 62
   120
370
     5
100
AcDbLine
 10
-756.103835710873
 20
883.9971520976723
 30
0.0
 11
-718.1038357108725
 21
921.9971520976662
 31
0.0
  0
LINE
  5
134
330
1F
100
AcDbEntity
  8
0-0
  6
JWW_DASHED1
 62
   120
370
     5
100
AcDbLine
 10
-756.103835710873
 20
893.8966470328796
 30
0.0
 11
-718.1038357108657
 21
931.8966470328903
 31
0.0
  0
LINE
  5
135
330
1F
100
AcDbEntity
  8
0-0
  6
JWW_DASHED1
 62
   120
370
     5
100
AcDbLine
 10
-756.103835710873
 20
903.7961419681035
 30
0.0
 11
-718.1038357108725
 21
941.796141968098
 31
0.0
  0
LINE
  5
136
330
1F
100
AcDbEntity
  8
0-0
  6
JWW_DASHED1
 62
   120
370
     5
100
AcDbLine
 10
-756.103835710873
 20
923.5951318384839
 30
0.0
 11
-718.1038357108725
 21
961.5951318384728
 31
0.0
  0
LINE
  5
137
330
1F
100
AcDbEntity
  8
0-0
  6
JWW_DASHED1
 62
   120
370
     5
100
AcDbLine
 10
-756.103835710873
 20
913.6956369032653
 30
0.0
 11
-718.1038357108725
 21
951.695636903259
 31
0.0
  0
LINE
  5
138
330
1F
100
AcDbEntity
  8
0-0
  6
JWW_DASHED1
 62
   120
370
     5
100
AcDbLine
 10
-756.103835710873
 20
-917.7109261082768
 30
0.0
 11
-718.103835710876
 21
-879.7109261082765
 31
0.0
  0
LINE
  5
139
330
1F
100
AcDbEntity
  8
0-0
  6
JWW_DASHED1
 62
   120
370
     5
100
AcDbLine
 10
-756.103835710873
 20
-927.6104210434412
 30
0.0
 11
-718.103835710876
 21
-889.6104210434416
 31
0.0
  0
LINE
  5
13A
330
1F
100
AcDbEntity
  8
0-0
  6
JWW_DASHED1
 62
   120
370
     5
100
AcDbLine
 10
-756.103835710873
 20
-937.5099159786064
 30
0.0
 11
-718.103835710876
 21
-899.5099159786059
 31
0.0
  0
LINE
  5
13B
330
1F
100
AcDbEntity
  8
0-0
  6
JWW_DASHED1
 62
   120
370
     5
100
AcDbLine
 10
-753.3031551316277
 20
-944.608730334525
 30
0.0
 11
-718.103835710876
 21
-909.4094109137711
 31
0.0
  0
LINE
  5
13C
330
1F
100
AcDbEntity
  8
0-0
  6
JWW_DASHED1
 62
   120
370
     5
100
AcDbLine
 10
-723.6046703261355
 20
-944.608730334525
 30
0.0
 11
-718.103835710876
 21
-939.107895719265
 31
0.0
  0
LINE
  5
13D
330
1F
100
AcDbEntity
  8
0-0
  6
JWW_DASHED1
 62
   120
370
     5
100
AcDbLine
 10
-743.4036601964634
 20
-944.608730334525
 30
0.0
 11
-718.103835710876
 21
-919.3089058489354
 31
0.0
  0
LINE
  5
13E
330
1F
100
AcDbEntity
  8
0-0
  6
JWW_DASHED1
 62
   120
370
     5
100
AcDbLine
 10
-733.504165261299
 20
-944.608730334525
 30
0.0
 11
-718.103835710876
 21
-929.2084007841006
 31
0.0
  0
LINE
  5
13F
330
1F
100
AcDbEntity
  8
0-0
  6
JWW_DASHED1
 62
   120
370
     5
100
AcDbLine
 10
-756.103835710873
 20
933.4946267737024
 30
0.0
 11
-718.1038357108725
 21
971.4946267736913
 31
0.0
  0
LINE
  5
140
330
1F
100
AcDbEntity
  8
0-0
  6
JWW_DASHED1
 62
   120
370
     5
100
AcDbLine
 10
-756.103835710873
 20
943.3941217089209
 30
0.0
 11
-718.1038357108725
 21
981.3941217089098
 31
0.0
  0
LINE
  5
141
330
1F
100
AcDbEntity
  8
0-0
  6
JWW_DASHED1
 62
   120
370
     5
100
AcDbLine
 10
-756.103835710873
 20
953.2936166441393
 30
0.0
 11
-718.1038357108725
 21
991.2936166441283
 31
0.0
  0
LINE
  5
142
330
1F
100
AcDbEntity
  8
0-0
  6
JWW_DASHED1
 62
   120
370
     5
100
AcDbLine
 10
-756.103835710873
 20
963.1931115793575
 30
0.0
 11
-718.1038357108725
 21
1001.193111579347
 31
0.0
  0
LINE
  5
143
330
1F
100
AcDbEntity
  8
0-0
  6
JWW_DASHED1
 62
   120
370
     5
100
AcDbLine
 10
-756.103835710873
 20
973.0926065145763
 30
0.0
 11
-718.1038357108725
 21
1011.092606514565
 31
0.0
  0
LINE
  5
144
330
1F
100
AcDbEntity
  8
0-0
  6
JWW_DASHED1
 62
   120
370
     5
100
AcDbLine
 10
-756.103835710873
 20
982.9921014497949
 30
0.0
 11
-718.1038357108725
 21
1020.992101449784
 31
0.0
  0
LINE
  5
145
330
1F
100
AcDbEntity
  8
0-0
  6
JWW_DASHED1
 62
   120
370
     5
100
AcDbLine
 10
-756.103835710873
 20
1012.69058625545
 30
0.0
 11
-746.4031523008446
 21
1022.391269665476
 31
0.0
  0
LINE
  5
146
330
1F
100
AcDbEntity
  8
0-0
  6
JWW_DASHED1
 62
   120
370
     5
100
AcDbLine
 10
-756.103835710873
 20
992.8915963850134
 30
0.0
 11
-726.6041624304016
 21
1022.391269665476
 31
0.0
  0
LINE
  5
147
330
1F
100
AcDbEntity
  8
0-0
  6
JWW_DASHED1
 62
   120
370
     5
100
AcDbLine
 10
-756.103835710873
 20
1002.791091320232
 30
0.0
 11
-736.5036573656231
 21
1022.391269665476
 31
0.0
  0
LINE
  5
148
330
1F
100
AcDbEntity
  8
0-0
  6
Continuous
 62
     7
370
     9
100
AcDbLine
 10
23.89616428912783
 20
-944.608730334525
 30
0.0
 11
61.89616428912822
 21
-944.608730334525
 31
0.0
  0
LINE
  5
149
330
1F
100
AcDbEntity
  8
0-0
  6
Continuous
 62
    92
370
    13
100
AcDbLine
 10
23.89616428912783
 20
1030.391269665474
 30
0.0
 11
23.89616428912783
 21
-952.608730334525
 31
0.0
  0
LINE
  5
14A
330
1F
100
AcDbEntity
  8
0-0
  6
Continuous
 62
    92
370
    13
100
AcDbLine
 10
61.89616428912822
 20
1030.391269665474
 30
0.0
 11
61.89616428912822
 21
-952.608730334525
 31
0.0
  0
LINE
  5
14B
330
1F
100
AcDbEntity
  8
0-0
  6
Continuous
 62
     7
370
     9
100
AcDbLine
 10
23.89616428912783
 20
1022.391269665476
 30
0.0
 11
61.89616428912822
 21
1022.391269665476
 31
0.0
  0
LINE
  5
14C
330
1F
100
AcDbEntity
  8
0-0
  6
JWW_DASHED1
 62
   120
370
     5
100
AcDbLine
 10
23.89616428912783
 20
-907.8114311731116
 30
0.0
 11
61.89616428912481
 21
-869.811431173112
 31
0.0
  0
LINE
  5
14D
330
1F
100
AcDbEntity
  8
0-0
  6
JWW_DASHED1
 62
   120
370
     5
100
AcDbLine
 10
23.89616428912783
 20
-897.9119362379498
 30
0.0
 11
61.89616428912822
 21
-859.9119362379469
 31
0.0
  0
LINE
  5
14E
330
1F
100
AcDbEntity
  8
0-0
  6
JWW_DASHED1
 62
   120
370
     5
100
AcDbLine
 10
23.89616428912783
 20
-888.0124413027318
 30
0.0
 11
61.89616428913504
 21
-850.0124413027229
 31
0.0
  0
LINE
  5
14F
330
1F
100
AcDbEntity
  8
0-0
  6
JWW_DASHED1
 62
   120
370
     5
100
AcDbLine
 10
23.89616428912783
 20
-878.1129463675193
 30
0.0
 11
61.89616428912822
 21
-840.112946367515
 31
0.0
  0
LINE
  5
150
330
1F
100
AcDbEntity
  8
0-0
  6
JWW_DASHED1
 62
   120
370
     5
100
AcDbLine
 10
23.89616428912783
 20
-868.2134514323507
 30
0.0
 11
61.89616428913163
 21
-830.2134514323498
 31
0.0
  0
LINE
  5
151
330
1F
100
AcDbEntity
  8
0-0
  6
JWW_DASHED1
 62
   120
370
     5
100
AcDbLine
 10
23.89616428912783
 20
-858.3139564971364
 30
0.0
 11
61.8961642891214
 21
-820.313956497142
 31
0.0
  0
LINE
  5
152
330
1F
100
AcDbEntity
  8
0-0
  6
JWW_DASHED1
 62
   120
370
     5
100
AcDbLine
 10
23.89616428912783
 20
-848.4144615619184
 30
0.0
 11
61.89616428913163
 21
-810.414461561918
 31
0.0
  0
LINE
  5
153
330
1F
100
AcDbEntity
  8
0-0
  6
JWW_DASHED1
 62
   120
370
     5
100
AcDbLine
 10
23.89616428912783
 20
-838.514966626757
 30
0.0
 11
61.89616428913504
 21
-800.5149666267532
 31
0.0
  0
LINE
  5
154
330
1F
100
AcDbEntity
  8
0-0
  6
JWW_DASHED1
 62
   120
370
     5
100
AcDbLine
 10
23.89616428912783
 20
-828.6154716915432
 30
0.0
 11
61.89616428912481
 21
-790.6154716915449
 31
0.0
  0
LINE
  5
155
330
1F
100
AcDbEntity
  8
0-0
  6
JWW_DASHED1
 62
   120
370
     5
100
AcDbLine
 10
23.89616428912783
 20
-818.715976756326
 30
0.0
 11
61.89616428913504
 21
-780.715976756321
 31
0.0
  0
LINE
  5
156
330
1F
100
AcDbEntity
  8
0-0
  6
JWW_DASHED1
 62
   120
370
     5
100
AcDbLine
 10
23.89616428912783
 20
-808.8164818211634
 30
0.0
 11
61.8961642891214
 21
-770.8164818211719
 31
0.0
  0
LINE
  5
157
330
1F
100
AcDbEntity
  8
0-0
  6
JWW_DASHED1
 62
   120
370
     5
100
AcDbLine
 10
23.89616428912783
 20
-798.9169868859495
 30
0.0
 11
61.89616428912822
 21
-760.9169868859483
 31
0.0
  0
LINE
  5
158
330
1F
100
AcDbEntity
  8
0-0
  6
JWW_DASHED1
 62
   120
370
     5
100
AcDbLine
 10
23.89616428912783
 20
-789.0174919507358
 30
0.0
 11
61.89616428913504
 21
-751.0174919507243
 31
0.0
  0
LINE
  5
159
330
1F
100
AcDbEntity
  8
0-0
  6
JWW_DASHED1
 62
   120
370
     5
100
AcDbLine
 10
23.89616428912783
 20
-779.1179970155723
 30
0.0
 11
61.8961642891214
 21
-741.1179970155753
 31
0.0
  0
LINE
  5
15A
330
1F
100
AcDbEntity
  8
0-0
  6
JWW_DASHED1
 62
   120
370
     5
100
AcDbLine
 10
23.89616428912783
 20
-769.2185020803602
 30
0.0
 11
61.89616428912822
 21
-731.2185020803513
 31
0.0
  0
LINE
  5
15B
330
1F
100
AcDbEntity
  8
0-0
  6
JWW_DASHED1
 62
   120
370
     5
100
AcDbLine
 10
23.89616428912783
 20
-759.3190071451869
 30
0.0
 11
61.89616428913504
 21
-721.3190071451866
 31
0.0
  0
LINE
  5
15C
330
1F
100
AcDbEntity
  8
0-0
  6
JWW_DASHED1
 62
   120
370
     5
100
AcDbLine
 10
23.89616428912783
 20
-749.4195122099718
 30
0.0
 11
61.89616428912481
 21
-711.4195122099778
 31
0.0
  0
LINE
  5
15D
330
1F
100
AcDbEntity
  8
0-0
  6
JWW_DASHED1
 62
   120
370
     5
100
AcDbLine
 10
23.89616428912783
 20
-739.5200172747598
 30
0.0
 11
61.89616428913163
 21
-701.5200172747547
 31
0.0
  0
LINE
  5
15E
330
1F
100
AcDbEntity
  8
0-0
  6
JWW_DASHED1
 62
   120
370
     5
100
AcDbLine
 10
23.89616428912783
 20
-729.620522339598
 30
0.0
 11
61.89616428913504
 21
-691.6205223395895
 31
0.0
  0
LINE
  5
15F
330
1F
100
AcDbEntity
  8
0-0
  6
JWW_DASHED1
 62
   120
370
     5
100
AcDbLine
 10
23.89616428912783
 20
-719.7210274043778
 30
0.0
 11
61.89616428912822
 21
-681.7210274043816
 31
0.0
  0
LINE
  5
160
330
1F
100
AcDbEntity
  8
0-0
  6
JWW_DASHED1
 62
   120
370
     5
100
AcDbLine
 10
23.89616428912783
 20
-709.8215324691665
 30
0.0
 11
61.89616428913504
 21
-671.8215324691575
 31
0.0
  0
LINE
  5
161
330
1F
100
AcDbEntity
  8
0-0
  6
JWW_DASHED1
 62
   120
370
     5
100
AcDbLine
 10
23.89616428912783
 20
-699.922037534003
 30
0.0
 11
61.8961642891214
 21
-661.9220375340082
 31
0.0
  0
LINE
  5
162
330
1F
100
AcDbEntity
  8
0-0
  6
JWW_DASHED1
 62
   120
370
     5
100
AcDbLine
 10
23.89616428912783
 20
-690.0225425987888
 30
0.0
 11
61.89616428912822
 21
-652.0225425987846
 31
0.0
  0
LINE
  5
163
330
1F
100
AcDbEntity
  8
0-0
  6
JWW_DASHED1
 62
   120
370
     5
100
AcDbLine
 10
23.89616428912783
 20
-680.1230476635737
 30
0.0
 11
61.8961642891214
 21
-642.1230476635764
 31
0.0
  0
LINE
  5
164
330
1F
100
AcDbEntity
  8
0-0
  6
JWW_DASHED1
 62
   120
370
     5
100
AcDbLine
 10
23.89616428912783
 20
-670.2235527284095
 30
0.0
 11
61.89616428912481
 21
-632.2235527284115
 31
0.0
  0
LINE
  5
165
330
1F
100
AcDbEntity
  8
0-0
  6
JWW_DASHED1
 62
   120
370
     5
100
AcDbLine
 10
23.89616428912783
 20
-660.3240577931947
 30
0.0
 11
61.89616428913163
 21
-622.3240577931875
 31
0.0
  0
LINE
  5
166
330
1F
100
AcDbEntity
  8
0-0
  6
JWW_DASHED1
 62
   120
370
     5
100
AcDbLine
 10
23.89616428912783
 20
-650.424562857978
 30
0.0
 11
61.89616428912481
 21
-612.4245628579793
 31
0.0
  0
LINE
  5
167
330
1F
100
AcDbEntity
  8
0-0
  6
JWW_DASHED1
 62
   120
370
     5
100
AcDbLine
 10
23.89616428912783
 20
-640.5250679228085
 30
0.0
 11
61.89616428912822
 21
-602.5250679228145
 31
0.0
  0
LINE
  5
168
330
1F
100
AcDbEntity
  8
0-0
  6
JWW_DASHED1
 62
   120
370
     5
100
AcDbLine
 10
23.89616428912783
 20
-630.625572987602
 30
0.0
 11
61.89616428913504
 21
-592.6255729875904
 31
0.0
  0
LINE
  5
169
330
1F
100
AcDbEntity
  8
0-0
  6
JWW_DASHED1
 62
   120
370
     5
100
AcDbLine
 10
23.89616428912783
 20
-620.726078052377
 30
0.0
 11
61.89616428912822
 21
-582.7260780523827
 31
0.0
  0
LINE
  5
16A
330
1F
100
AcDbEntity
  8
0-0
  6
JWW_DASHED1
 62
   120
370
     5
100
AcDbLine
 10
23.89616428912783
 20
-610.8265831172191
 30
0.0
 11
61.89616428912822
 21
-572.8265831172175
 31
0.0
  0
LINE
  5
16B
330
1F
100
AcDbEntity
  8
0-0
  6
JWW_DASHED1
 62
   120
370
     5
100
AcDbLine
 10
23.89616428912783
 20
-600.9270881820049
 30
0.0
 11
61.89616428913504
 21
-562.9270881819934
 31
0.0
  0
LINE
  5
16C
330
1F
100
AcDbEntity
  8
0-0
  6
JWW_DASHED1
 62
   120
370
     5
100
AcDbLine
 10
23.89616428912783
 20
-591.0275932467869
 30
0.0
 11
61.89616428912822
 21
-553.0275932467856
 31
0.0
  0
LINE
  5
16D
330
1F
100
AcDbEntity
  8
0-0
  6
JWW_DASHED1
 62
   120
370
     5
100
AcDbLine
 10
23.89616428912783
 20
-581.128098311626
 30
0.0
 11
61.89616428913163
 21
-543.1280983116204
 31
0.0
  0
LINE
  5
16E
330
1F
100
AcDbEntity
  8
0-0
  6
JWW_DASHED1
 62
   120
370
     5
100
AcDbLine
 10
23.89616428912783
 20
-571.2286033764062
 30
0.0
 11
61.89616428912481
 21
-533.2286033764126
 31
0.0
  0
LINE
  5
16F
330
1F
100
AcDbEntity
  8
0-0
  6
JWW_DASHED1
 62
   120
370
     5
100
AcDbLine
 10
23.89616428912783
 20
-561.3291084411936
 30
0.0
 11
61.89616428913163
 21
-523.3291084411885
 31
0.0
  0
LINE
  5
170
330
1F
100
AcDbEntity
  8
0-0
  6
JWW_DASHED1
 62
   120
370
     5
100
AcDbLine
 10
23.89616428912783
 20
-551.4296135060323
 30
0.0
 11
61.89616428913504
 21
-513.4296135060233
 31
0.0
  0
LINE
  5
171
330
1F
100
AcDbEntity
  8
0-0
  6
JWW_DASHED1
 62
   120
370
     5
100
AcDbLine
 10
23.89616428912783
 20
-541.5301185708125
 30
0.0
 11
61.89616428912822
 21
-503.5301185708155
 31
0.0
  0
LINE
  5
172
330
1F
100
AcDbEntity
  8
0-0
  6
JWW_DASHED1
 62
   120
370
     5
100
AcDbLine
 10
23.89616428912783
 20
-531.6306236355928
 30
0.0
 11
61.89616428913504
 21
-493.630623635592
 31
0.0
  0
LINE
  5
173
330
1F
100
AcDbEntity
  8
0-0
  6
JWW_DASHED1
 62
   120
370
     5
100
AcDbLine
 10
23.89616428912783
 20
-521.7311287004404
 30
0.0
 11
61.8961642891214
 21
-483.7311287004425
 31
0.0
  0
LINE
  5
174
330
1F
100
AcDbEntity
  8
0-0
  6
JWW_DASHED1
 62
   120
370
     5
100
AcDbLine
 10
23.89616428912783
 20
-511.8316337652232
 30
0.0
 11
61.89616428912822
 21
-473.8316337652185
 31
0.0
  0
LINE
  5
175
330
1F
100
AcDbEntity
  8
0-0
  6
JWW_DASHED1
 62
   120
370
     5
100
AcDbLine
 10
23.89616428912783
 20
-501.9321388300034
 30
0.0
 11
61.89616428913504
 21
-463.9321388299945
 31
0.0
  0
LINE
  5
176
330
1F
100
AcDbEntity
  8
0-0
  6
JWW_DASHED1
 62
   120
370
     5
100
AcDbLine
 10
23.89616428912783
 20
-492.0326438948433
 30
0.0
 11
61.8961642891214
 21
-454.0326438948455
 31
0.0
  0
LINE
  5
177
330
1F
100
AcDbEntity
  8
0-0
  6
JWW_DASHED1
 62
   120
370
     5
100
AcDbLine
 10
23.89616428912783
 20
-482.1331489596236
 30
0.0
 11
61.89616428913163
 21
-444.1331489596215
 31
0.0
  0
LINE
  5
178
330
1F
100
AcDbEntity
  8
0-0
  6
JWW_DASHED1
 62
   120
370
     5
100
AcDbLine
 10
23.89616428912783
 20
-472.2336540244089
 30
0.0
 11
61.8961642891214
 21
-434.2336540244136
 31
0.0
  0
LINE
  5
179
330
1F
100
AcDbEntity
  8
0-0
  6
JWW_DASHED1
 62
   120
370
     5
100
AcDbLine
 10
23.89616428912783
 20
-462.3341590892433
 30
0.0
 11
61.89616428912822
 21
-424.3341590892484
 31
0.0
  0
LINE
  5
17A
330
1F
100
AcDbEntity
  8
0-0
  6
JWW_DASHED1
 62
   120
370
     5
100
AcDbLine
 10
23.89616428912783
 20
-452.4346641540291
 30
0.0
 11
61.89616428913504
 21
-414.4346641540253
 31
0.0
  0
LINE
  5
17B
330
1F
100
AcDbEntity
  8
0-0
  6
JWW_DASHED1
 62
   120
370
     5
100
AcDbLine
 10
23.89616428912783
 20
-442.5351692188149
 30
0.0
 11
61.89616428912481
 21
-404.535169218817
 31
0.0
  0
LINE
  5
17C
330
1F
100
AcDbEntity
  8
0-0
  6
JWW_DASHED1
 62
   120
370
     5
100
AcDbLine
 10
23.89616428912783
 20
-432.6356742836531
 30
0.0
 11
61.89616428912822
 21
-394.6356742836518
 31
0.0
  0
LINE
  5
17D
330
1F
100
AcDbEntity
  8
0-0
  6
JWW_DASHED1
 62
   120
370
     5
100
AcDbLine
 10
23.89616428912783
 20
-422.7361793484337
 30
0.0
 11
61.8961642891214
 21
-384.7361793484436
 31
0.0
  0
LINE
  5
17E
330
1F
100
AcDbEntity
  8
0-0
  6
JWW_DASHED1
 62
   120
370
     5
100
AcDbLine
 10
23.89616428912783
 20
-412.8366844132212
 30
0.0
 11
61.89616428912822
 21
-374.8366844132199
 31
0.0
  0
LINE
  5
17F
330
1F
100
AcDbEntity
  8
0-0
  6
JWW_DASHED1
 62
   120
370
     5
100
AcDbLine
 10
23.89616428912783
 20
-402.937189478059
 30
0.0
 11
61.89616428913163
 21
-364.9371894780552
 31
0.0
  0
LINE
  5
180
330
1F
100
AcDbEntity
  8
0-0
  6
JWW_DASHED1
 62
   120
370
     5
100
AcDbLine
 10
23.89616428912783
 20
-393.0376945428457
 30
0.0
 11
61.8961642891214
 21
-355.0376945428465
 31
0.0
  0
LINE
  5
181
330
1F
100
AcDbEntity
  8
0-0
  6
JWW_DASHED1
 62
   120
370
     5
100
AcDbLine
 10
23.89616428912783
 20
-383.138199607625
 30
0.0
 11
61.89616428912822
 21
-345.1381996076229
 31
0.0
  0
LINE
  5
182
330
1F
100
AcDbEntity
  8
0-0
  6
JWW_DASHED1
 62
   120
370
     5
100
AcDbLine
 10
23.89616428912783
 20
-373.238704672459
 30
0.0
 11
61.89616428913504
 21
-335.2387046724581
 31
0.0
  0
LINE
  5
183
330
1F
100
AcDbEntity
  8
0-0
  6
JWW_DASHED1
 62
   120
370
     5
100
AcDbLine
 10
23.89616428912783
 20
-363.3392097372439
 30
0.0
 11
61.89616428912481
 21
-325.3392097372503
 31
0.0
  0
LINE
  5
184
330
1F
100
AcDbEntity
  8
0-0
  6
JWW_DASHED1
 62
   120
370
     5
100
AcDbLine
 10
23.89616428912783
 20
-353.4397148020309
 30
0.0
 11
61.89616428913163
 21
-315.4397148020263
 31
0.0
  0
LINE
  5
185
330
1F
100
AcDbEntity
  8
0-0
  6
JWW_DASHED1
 62
   120
370
     5
100
AcDbLine
 10
23.89616428912783
 20
-343.54021986687
 30
0.0
 11
61.89616428913504
 21
-305.5402198668611
 31
0.0
  0
LINE
  5
186
330
1F
100
AcDbEntity
  8
0-0
  6
JWW_DASHED1
 62
   120
370
     5
100
AcDbLine
 10
23.89616428912783
 20
-333.6407249316503
 30
0.0
 11
61.89616428912822
 21
-295.6407249316533
 31
0.0
  0
LINE
  5
187
330
1F
100
AcDbEntity
  8
0-0
  6
JWW_DASHED1
 62
   120
370
     5
100
AcDbLine
 10
23.89616428912783
 20
-323.7412299964382
 30
0.0
 11
61.89616428913504
 21
-285.7412299964292
 31
0.0
  0
LINE
  5
188
330
1F
100
AcDbEntity
  8
0-0
  6
JWW_DASHED1
 62
   120
370
     5
100
AcDbLine
 10
23.89616428912783
 20
-313.8417350612704
 30
0.0
 11
61.89616428912822
 21
-275.8417350612747
 31
0.0
  0
LINE
  5
189
330
1F
100
AcDbEntity
  8
0-0
  6
JWW_DASHED1
 62
   120
370
     5
100
AcDbLine
 10
23.89616428912783
 20
-303.94224012606
 30
0.0
 11
61.89616428912822
 21
-265.9422401260562
 31
0.0
  0
LINE
  5
18A
330
1F
100
AcDbEntity
  8
0-0
  6
JWW_DASHED1
 62
   120
370
     5
100
AcDbLine
 10
23.89616428912783
 20
-294.0427451908462
 30
0.0
 11
61.8961642891214
 21
-256.042745190848
 31
0.0
  0
LINE
  5
18B
330
1F
100
AcDbEntity
  8
0-0
  6
JWW_DASHED1
 62
   120
370
     5
100
AcDbLine
 10
23.89616428912783
 20
-284.1432502556819
 30
0.0
 11
61.89616428912481
 21
-246.1432502556832
 31
0.0
  0
LINE
  5
18C
330
1F
100
AcDbEntity
  8
0-0
  6
JWW_DASHED1
 62
   120
370
     5
100
AcDbLine
 10
23.89616428912783
 20
-274.2437553204596
 30
0.0
 11
61.89616428913163
 21
-236.2437553204592
 31
0.0
  0
LINE
  5
18D
330
1F
100
AcDbEntity
  8
0-0
  6
JWW_DASHED1
 62
   120
370
     5
100
AcDbLine
 10
23.89616428912783
 20
-264.3442603852449
 30
0.0
 11
61.89616428912481
 21
-226.3442603852513
 31
0.0
  0
LINE
  5
18E
330
1F
100
AcDbEntity
  8
0-0
  6
JWW_DASHED1
 62
   120
370
     5
100
AcDbLine
 10
23.89616428912783
 20
-254.444765450081
 30
0.0
 11
61.89616428912822
 21
-216.4447654500862
 31
0.0
  0
LINE
  5
18F
330
1F
100
AcDbEntity
  8
0-0
  6
JWW_DASHED1
 62
   120
370
     5
100
AcDbLine
 10
23.89616428912783
 20
-244.5452705148728
 30
0.0
 11
61.89616428913504
 21
-206.5452705148621
 31
0.0
  0
LINE
  5
190
330
1F
100
AcDbEntity
  8
0-0
  6
JWW_DASHED1
 62
   120
370
     5
100
AcDbLine
 10
23.89616428912783
 20
-234.6457755796492
 30
0.0
 11
61.89616428912822
 21
-196.6457755796543
 31
0.0
  0
LINE
  5
191
330
1F
100
AcDbEntity
  8
0-0
  6
JWW_DASHED1
 62
   120
370
     5
100
AcDbLine
 10
23.89616428912783
 20
-224.7462806444912
 30
0.0
 11
61.89616428912822
 21
-186.7462806444891
 31
0.0
  0
LINE
  5
192
330
1F
100
AcDbEntity
  8
0-0
  6
JWW_DASHED1
 62
   120
370
     5
100
AcDbLine
 10
23.89616428912783
 20
-214.8467857092778
 30
0.0
 11
61.89616428913504
 21
-176.8467857092651
 31
0.0
  0
LINE
  5
193
330
1F
100
AcDbEntity
  8
0-0
  6
JWW_DASHED1
 62
   120
370
     5
100
AcDbLine
 10
23.89616428912783
 20
-204.9472907740594
 30
0.0
 11
61.89616428912822
 21
-166.9472907740573
 31
0.0
  0
LINE
  5
194
330
1F
100
AcDbEntity
  8
0-0
  6
JWW_DASHED1
 62
   120
370
     5
100
AcDbLine
 10
23.89616428912783
 20
-195.0477958388976
 30
0.0
 11
61.89616428913163
 21
-157.0477958388921
 31
0.0
  0
LINE
  5
195
330
1F
100
AcDbEntity
  8
0-0
  6
JWW_DASHED1
 62
   120
370
     5
100
AcDbLine
 10
23.89616428912783
 20
-185.1483009036778
 30
0.0
 11
61.89616428912481
 21
-147.1483009036842
 31
0.0
  0
LINE
  5
196
330
1F
100
AcDbEntity
  8
0-0
  6
JWW_DASHED1
 62
   120
370
     5
100
AcDbLine
 10
23.89616428912783
 20
-175.2488059684939
 30
0.0
 11
61.89616428912822
 21
-137.24880596849
 31
0.0
  0
LINE
  5
197
330
1F
100
AcDbEntity
  8
0-0
  6
JWW_DASHED1
 62
   120
370
     5
100
AcDbLine
 10
23.89616428912783
 20
-165.3493110332963
 30
0.0
 11
61.89616428913504
 21
-127.3493110332954
 31
0.0
  0
LINE
  5
198
330
1F
100
AcDbEntity
  8
0-0
  6
JWW_DASHED1
 62
   120
370
     5
100
AcDbLine
 10
23.89616428912783
 20
-155.4498160980833
 30
0.0
 11
61.89616428912822
 21
-117.4498160980876
 31
0.0
  0
LINE
  5
199
330
1F
100
AcDbEntity
  8
0-0
  6
JWW_DASHED1
 62
   120
370
     5
100
AcDbLine
 10
23.89616428912783
 20
-145.5503211628934
 30
0.0
 11
61.89616428913163
 21
-107.550321162893
 31
0.0
  0
LINE
  5
19A
330
1F
100
AcDbEntity
  8
0-0
  6
JWW_DASHED1
 62
   120
370
     5
100
AcDbLine
 10
23.89616428912783
 20
-135.6508262277111
 30
0.0
 11
61.8961642891214
 21
-97.65082622771416
 31
0.0
  0
LINE
  5
19B
330
1F
100
AcDbEntity
  8
0-0
  6
JWW_DASHED1
 62
   120
370
     5
100
AcDbLine
 10
23.89616428912783
 20
-125.7513312924961
 30
0.0
 11
61.89616428912822
 21
-87.75133129249014
 31
0.0
  0
LINE
  5
19C
330
1F
100
AcDbEntity
  8
0-0
  6
JWW_DASHED1
 62
   120
370
     5
100
AcDbLine
 10
23.89616428912783
 20
-115.8518363573262
 30
0.0
 11
61.89616428913163
 21
-77.8518363573258
 31
0.0
  0
LINE
  5
19D
330
1F
100
AcDbEntity
  8
0-0
  6
JWW_DASHED1
 62
   120
370
     5
100
AcDbLine
 10
23.89616428912783
 20
-105.9523414221162
 30
0.0
 11
61.8961642891214
 21
-67.95234142211712
 31
0.0
  0
LINE
  5
19E
330
1F
100
AcDbEntity
  8
0-0
  6
JWW_DASHED1
 62
   120
370
     5
100
AcDbLine
 10
23.89616428912783
 20
-96.05284648689434
 30
0.0
 11
61.89616428913163
 21
-58.05284648689394
 31
0.0
  0
LINE
  5
19F
330
1F
100
AcDbEntity
  8
0-0
  6
JWW_DASHED1
 62
   120
370
     5
100
AcDbLine
 10
23.89616428912783
 20
-86.15335155173256
 30
0.0
 11
61.89616428913504
 21
-48.15335155172875
 31
0.0
  0
LINE
  5
1A0
330
1F
100
AcDbEntity
  8
0-0
  6
JWW_DASHED1
 62
   120
370
     5
100
AcDbLine
 10
23.89616428912783
 20
-76.25385661651791
 30
0.0
 11
61.89616428912481
 21
-38.25385661652092
 31
0.0
  0
LINE
  5
1A1
330
1F
100
AcDbEntity
  8
0-0
  6
JWW_DASHED1
 62
   120
370
     5
100
AcDbLine
 10
23.89616428912783
 20
-66.3543616813007
 30
0.0
 11
61.89616428913504
 21
-28.35436168129689
 31
0.0
  0
LINE
  5
1A2
330
1F
100
AcDbEntity
  8
0-0
  6
JWW_DASHED1
 62
   120
370
     5
100
AcDbLine
 10
23.89616428912783
 20
-56.45486674614233
 30
0.0
 11
61.89616428913504
 21
-18.4548667461317
 31
0.0
  0
LINE
  5
1A3
330
1F
100
AcDbEntity
  8
0-0
  6
JWW_DASHED1
 62
   120
370
     5
100
AcDbLine
 10
23.89616428912783
 20
-46.55537181092427
 30
0.0
 11
61.89616428912822
 21
-8.555371810923873
 31
0.0
  0
LINE
  5
1A4
330
1F
100
AcDbEntity
  8
0-0
  6
JWW_DASHED1
 62
   120
370
     5
100
AcDbLine
 10
23.89616428912783
 20
-36.65587687571048
 30
0.0
 11
61.89616428913504
 21
1.344123124300154
 31
0.0
  0
LINE
  5
1A5
330
1F
100
AcDbEntity
  8
0-0
  6
JWW_DASHED1
 62
   120
370
     5
100
AcDbLine
 10
23.89616428912783
 20
-26.75638194054358
 30
0.0
 11
61.89616428913163
 21
11.24361805945682
 31
0.0
  0
LINE
  5
1A6
330
1F
100
AcDbEntity
  8
0-0
  6
JWW_DASHED1
 62
   120
370
     5
100
AcDbLine
 10
23.89616428912783
 20
-16.85688700533234
 30
0.0
 11
61.89616428913163
 21
21.14311299467317
 31
0.0
  0
LINE
  5
1A7
330
1F
100
AcDbEntity
  8
0-0
  6
JWW_DASHED1
 62
   120
370
     5
100
AcDbLine
 10
23.89616428912783
 20
-6.957392070115986
 30
0.0
 11
61.8961642891214
 21
31.042607929881
 31
0.0
  0
LINE
  5
1A8
330
1F
100
AcDbEntity
  8
0-0
  6
JWW_DASHED1
 62
   120
370
     5
100
AcDbLine
 10
23.89616428912783
 20
2.942102865052618
 30
0.0
 11
61.89616428912481
 21
40.94210286504619
 31
0.0
  0
LINE
  5
1A9
330
1F
100
AcDbEntity
  8
0-0
  6
JWW_DASHED1
 62
   120
370
     5
100
AcDbLine
 10
23.89616428912783
 20
12.84159780026854
 30
0.0
 11
61.89616428913504
 21
50.84159780027022
 31
0.0
  0
LINE
  5
1AA
330
1F
100
AcDbEntity
  8
0-0
  6
JWW_DASHED1
 62
   120
370
     5
100
AcDbLine
 10
23.89616428912783
 20
22.74109273548447
 30
0.0
 11
61.89616428912481
 21
60.74109273547805
 31
0.0
  0
LINE
  5
1AB
330
1F
100
AcDbEntity
  8
0-0
  6
JWW_DASHED1
 62
   120
370
     5
100
AcDbLine
 10
23.89616428912783
 20
32.64058767063815
 30
0.0
 11
61.89616428912822
 21
70.64058767064324
 31
0.0
  0
LINE
  5
1AC
330
1F
100
AcDbEntity
  8
0-0
  6
JWW_DASHED1
 62
   120
370
     5
100
AcDbLine
 10
23.89616428912783
 20
42.54008260585877
 30
0.0
 11
61.89616428913504
 21
80.54008260586684
 31
0.0
  0
LINE
  5
1AD
330
1F
100
AcDbEntity
  8
0-0
  6
JWW_DASHED1
 62
   120
370
     5
100
AcDbLine
 10
23.89616428912783
 20
52.43957754107811
 30
0.0
 11
61.89616428912822
 21
90.4395775410751
 31
0.0
  0
LINE
  5
1AE
330
1F
100
AcDbEntity
  8
0-0
  6
JWW_DASHED1
 62
   120
370
     5
100
AcDbLine
 10
23.89616428912783
 20
62.33907247623605
 30
0.0
 11
61.89616428912822
 21
100.3390724762399
 31
0.0
  0
LINE
  5
1AF
330
1F
100
AcDbEntity
  8
0-0
  6
JWW_DASHED1
 62
   120
370
     5
100
AcDbLine
 10
23.89616428912783
 20
72.23856741145241
 30
0.0
 11
61.89616428913845
 21
110.2385674114639
 31
0.0
  0
LINE
  5
1B0
330
1F
100
AcDbEntity
  8
0-0
  6
JWW_DASHED1
 62
   120
370
     5
100
AcDbLine
 10
23.89616428912783
 20
82.13806234666833
 30
0.0
 11
61.89616428912822
 21
120.1380623466721
 31
0.0
  0
LINE
  5
1B1
330
1F
100
AcDbEntity
  8
0-0
  6
JWW_DASHED1
 62
   120
370
     5
100
AcDbLine
 10
23.89616428912783
 20
92.03755728182969
 30
0.0
 11
61.89616428913163
 21
130.0375572818369
 31
0.0
  0
LINE
  5
1B2
330
1F
100
AcDbEntity
  8
0-0
  6
JWW_DASHED1
 62
   120
370
     5
100
AcDbLine
 10
23.89616428912783
 20
101.9370522170465
 30
0.0
 11
61.89616428912481
 21
139.9370522170449
 31
0.0
  0
LINE
  5
1B3
330
1F
100
AcDbEntity
  8
0-0
  6
JWW_DASHED1
 62
   120
370
     5
100
AcDbLine
 10
23.89616428912783
 20
111.8365471522684
 30
0.0
 11
61.89616428913163
 21
149.8365471522688
 31
0.0
  0
LINE
  5
1B4
330
1F
100
AcDbEntity
  8
0-0
  6
JWW_DASHED1
 62
   120
370
     5
100
AcDbLine
 10
23.89616428912783
 20
121.736042087422
 30
0.0
 11
61.89616428913504
 21
159.736042087434
 31
0.0
  0
LINE
  5
1B5
330
1F
100
AcDbEntity
  8
0-0
  6
JWW_DASHED1
 62
   120
370
     5
100
AcDbLine
 10
23.89616428912783
 20
131.6355370226478
 30
0.0
 11
61.89616428912822
 21
169.6355370226418
 31
0.0
  0
LINE
  5
1B6
330
1F
100
AcDbEntity
  8
0-0
  6
JWW_DASHED1
 62
   120
370
     5
100
AcDbLine
 10
23.89616428912783
 20
141.5350319578612
 30
0.0
 11
61.89616428913504
 21
179.5350319578658
 31
0.0
  0
LINE
  5
1B7
330
1F
100
AcDbEntity
  8
0-0
  6
JWW_DASHED1
 62
   120
370
     5
100
AcDbLine
 10
23.89616428912783
 20
151.434526893017
 30
0.0
 11
61.8961642891214
 21
189.4345268930152
 31
0.0
  0
LINE
  5
1B8
330
1F
100
AcDbEntity
  8
0-0
  6
JWW_DASHED1
 62
   120
370
     5
100
AcDbLine
 10
23.89616428912783
 20
161.3340218282376
 30
0.0
 11
61.89616428912822
 21
199.3340218282388
 31
0.0
  0
LINE
  5
1B9
330
1F
100
AcDbEntity
  8
0-0
  6
JWW_DASHED1
 62
   120
370
     5
100
AcDbLine
 10
23.89616428912783
 20
171.2335167634518
 30
0.0
 11
61.89616428913504
 21
209.2335167634624
 31
0.0
  0
LINE
  5
1BA
330
1F
100
AcDbEntity
  8
0-0
  6
JWW_DASHED1
 62
   120
370
     5
100
AcDbLine
 10
23.89616428912783
 20
181.1330116986178
 30
0.0
 11
61.89616428912481
 21
219.1330116986121
 31
0.0
  0
LINE
  5
1BB
330
1F
100
AcDbEntity
  8
0-0
  6
JWW_DASHED1
 62
   120
370
     5
100
AcDbLine
 10
23.89616428912783
 20
191.0325066338304
 30
0.0
 11
61.89616428913163
 21
229.0325066338359
 31
0.0
  0
LINE
  5
1BC
330
1F
100
AcDbEntity
  8
0-0
  6
JWW_DASHED1
 62
   120
370
     5
100
AcDbLine
 10
23.89616428912783
 20
200.9320015690489
 30
0.0
 11
61.89616428913504
 21
238.9320015690535
 31
0.0
  0
LINE
  5
1BD
330
1F
100
AcDbEntity
  8
0-0
  6
JWW_DASHED1
 62
   120
370
     5
100
AcDbLine
 10
23.89616428912783
 20
210.8314965042111
 30
0.0
 11
61.89616428912822
 21
248.8314965042089
 31
0.0
  0
LINE
  5
1BE
330
1F
100
AcDbEntity
  8
0-0
  6
JWW_DASHED1
 62
   120
370
     5
100
AcDbLine
 10
23.89616428912783
 20
220.7309914394317
 30
0.0
 11
61.89616428913504
 21
258.7309914394325
 31
0.0
  0
LINE
  5
1BF
330
1F
100
AcDbEntity
  8
0-0
  6
JWW_DASHED1
 62
   120
370
     5
100
AcDbLine
 10
23.89616428912783
 20
230.6304863746391
 30
0.0
 11
61.89616428912481
 21
268.6304863746408
 31
0.0
  0
LINE
  5
1C0
330
1F
100
AcDbEntity
  8
0-0
  6
JWW_DASHED1
 62
   120
370
     5
100
AcDbLine
 10
23.89616428912783
 20
240.5299813098015
 30
0.0
 11
61.89616428912822
 21
278.5299813098055
 31
0.0
  0
LINE
  5
1C1
330
1F
100
AcDbEntity
  8
0-0
  6
JWW_DASHED1
 62
   120
370
     5
100
AcDbLine
 10
23.89616428912783
 20
250.4294762450236
 30
0.0
 11
61.8961642891214
 21
288.4294762450138
 31
0.0
  0
LINE
  5
1C2
330
1F
100
AcDbEntity
  8
0-0
  6
JWW_DASHED1
 62
   120
370
     5
100
AcDbLine
 10
23.89616428912783
 20
260.3289711802336
 30
0.0
 11
61.89616428912822
 21
298.3289711802374
 31
0.0
  0
LINE
  5
1C3
330
1F
100
AcDbEntity
  8
0-0
  6
JWW_DASHED1
 62
   120
370
     5
100
AcDbLine
 10
23.89616428912783
 20
270.2284661154022
 30
0.0
 11
61.89616428913163
 21
308.2284661154023
 31
0.0
  0
LINE
  5
1C4
330
1F
100
AcDbEntity
  8
0-0
  6
JWW_DASHED1
 62
   120
370
     5
100
AcDbLine
 10
23.89616428912783
 20
280.1279610506134
 30
0.0
 11
61.8961642891214
 21
318.1279610506104
 31
0.0
  0
LINE
  5
1C5
330
1F
100
AcDbEntity
  8
0-0
  6
JWW_DASHED1
 62
   120
370
     5
100
AcDbLine
 10
23.89616428912783
 20
290.027455985834
 30
0.0
 11
61.89616428913163
 21
328.0274559858344
 31
0.0
  0
LINE
  5
1C6
330
1F
100
AcDbEntity
  8
0-0
  6
JWW_DASHED1
 62
   120
370
     5
100
AcDbLine
 10
23.89616428912783
 20
299.926950920995
 30
0.0
 11
61.89616428913504
 21
337.9269509209996
 31
0.0
  0
LINE
  5
1C7
330
1F
100
AcDbEntity
  8
0-0
  6
JWW_DASHED1
 62
   120
370
     5
100
AcDbLine
 10
23.89616428912783
 20
309.8264458562096
 30
0.0
 11
61.89616428912481
 21
347.8264458562074
 31
0.0
  0
LINE
  5
1C8
330
1F
100
AcDbEntity
  8
0-0
  6
JWW_DASHED1
 62
   120
370
     5
100
AcDbLine
 10
23.89616428912783
 20
319.7259407914277
 30
0.0
 11
61.89616428913504
 21
357.7259407914315
 31
0.0
  0
LINE
  5
1C9
330
1F
100
AcDbEntity
  8
0-0
  6
JWW_DASHED1
 62
   120
370
     5
100
AcDbLine
 10
23.89616428912783
 20
329.6254357265848
 30
0.0
 11
61.89616428913504
 21
367.6254357265967
 31
0.0
  0
LINE
  5
1CA
330
1F
100
AcDbEntity
  8
0-0
  6
JWW_DASHED1
 62
   120
370
     5
100
AcDbLine
 10
23.89616428912783
 20
339.5249306618024
 30
0.0
 11
61.89616428912822
 21
377.5249306618045
 31
0.0
  0
LINE
  5
1CB
330
1F
100
AcDbEntity
  8
0-0
  6
JWW_DASHED1
 62
   120
370
     5
100
AcDbLine
 10
23.89616428912783
 20
349.4244255970166
 30
0.0
 11
61.89616428913504
 21
387.4244255970285
 31
0.0
  0
LINE
  5
1CC
330
1F
100
AcDbEntity
  8
0-0
  6
JWW_DASHED1
 62
   120
370
     5
100
AcDbLine
 10
23.89616428912783
 20
359.3239205321861
 30
0.0
 11
61.89616428913845
 21
397.3239205321933
 31
0.0
  0
LINE
  5
1CD
330
1F
100
AcDbEntity
  8
0-0
  6
JWW_DASHED1
 62
   120
370
     5
100
AcDbLine
 10
23.89616428912783
 20
369.2234154673958
 30
0.0
 11
61.89616428913163
 21
407.2234154674015
 31
0.0
  0
LINE
  5
1CE
330
1F
100
AcDbEntity
  8
0-0
  6
JWW_DASHED1
 62
   120
370
     5
100
AcDbLine
 10
23.89616428912783
 20
379.1229104026121
 30
0.0
 11
61.8961642891214
 21
417.1229104026094
 31
0.0
  0
LINE
  5
1CF
330
1F
100
AcDbEntity
  8
0-0
  6
JWW_DASHED1
 62
   120
370
     5
100
AcDbLine
 10
23.89616428912783
 20
389.0224053377739
 30
0.0
 11
61.89616428912481
 21
427.0224053377746
 31
0.0
  0
LINE
  5
1D0
330
1F
100
AcDbEntity
  8
0-0
  6
JWW_DASHED1
 62
   120
370
     5
100
AcDbLine
 10
23.89616428912783
 20
398.9219002729971
 30
0.0
 11
61.89616428913504
 21
436.9219002729982
 31
0.0
  0
LINE
  5
1D1
330
1F
100
AcDbEntity
  8
0-0
  6
JWW_DASHED1
 62
   120
370
     5
100
AcDbLine
 10
23.89616428912783
 20
408.8213952082128
 30
0.0
 11
61.89616428912481
 21
446.8213952082062
 31
0.0
  0
LINE
  5
1D2
330
1F
100
AcDbEntity
  8
0-0
  6
JWW_DASHED1
 62
   120
370
     5
100
AcDbLine
 10
23.89616428912783
 20
418.7208901433683
 30
0.0
 11
61.89616428912822
 21
456.7208901433712
 31
0.0
  0
LINE
  5
1D3
330
1F
100
AcDbEntity
  8
0-0
  6
JWW_DASHED1
 62
   120
370
     5
100
AcDbLine
 10
23.89616428912783
 20
428.6203850785871
 30
0.0
 11
61.89616428913504
 21
466.6203850785952
 31
0.0
  0
LINE
  5
1D4
330
1F
100
AcDbEntity
  8
0-0
  6
JWW_DASHED1
 62
   120
370
     5
100
AcDbLine
 10
23.89616428912783
 20
438.51988001378
 30
0.0
 11
61.89616428912481
 21
476.5198800137734
 31
0.0
  0
LINE
  5
1D5
330
1F
100
AcDbEntity
  8
0-0
  6
JWW_DASHED1
 62
   120
370
     5
100
AcDbLine
 10
23.89616428912783
 20
448.4193749489644
 30
0.0
 11
61.89616428912822
 21
486.4193749489682
 31
0.0
  0
LINE
  5
1D6
330
1F
100
AcDbEntity
  8
0-0
  6
JWW_DASHED1
 62
   120
370
     5
100
AcDbLine
 10
23.89616428912783
 20
458.3188698841799
 30
0.0
 11
61.89616428913845
 21
496.3188698841923
 31
0.0
  0
LINE
  5
1D7
330
1F
100
AcDbEntity
  8
0-0
  6
JWW_DASHED1
 62
   120
370
     5
100
AcDbLine
 10
23.89616428912783
 20
468.2183648193468
 30
0.0
 11
61.89616428912481
 21
506.2183648193412
 31
0.0
  0
LINE
  5
1D8
330
1F
100
AcDbEntity
  8
0-0
  6
JWW_DASHED1
 62
   120
370
     5
100
AcDbLine
 10
23.89616428912783
 20
478.1178597545568
 30
0.0
 11
61.89616428913163
 21
516.1178597545653
 31
0.0
  0
LINE
  5
1D9
330
1F
100
AcDbEntity
  8
0-0
  6
JWW_DASHED1
 62
   120
370
     5
100
AcDbLine
 10
23.89616428912783
 20
488.0173546897753
 30
0.0
 11
61.89616428912481
 21
526.0173546897731
 31
0.0
  0
LINE
  5
1DA
330
1F
100
AcDbEntity
  8
0-0
  6
JWW_DASHED1
 62
   120
370
     5
100
AcDbLine
 10
23.89616428912783
 20
497.9168496249434
 30
0.0
 11
61.89616428912822
 21
535.9168496249383
 31
0.0
  0
LINE
  5
1DB
330
1F
100
AcDbEntity
  8
0-0
  6
JWW_DASHED1
 62
   120
370
     5
100
AcDbLine
 10
23.89616428912783
 20
507.8163445601513
 30
0.0
 11
61.89616428913504
 21
545.816344560162
 31
0.0
  0
LINE
  5
1DC
330
1F
100
AcDbEntity
  8
0-0
  6
JWW_DASHED1
 62
   120
370
     5
100
AcDbLine
 10
23.89616428912783
 20
517.7158394953761
 30
0.0
 11
61.89616428912822
 21
555.7158394953701
 31
0.0
  0
LINE
  5
1DD
330
1F
100
AcDbEntity
  8
0-0
  6
JWW_DASHED1
 62
   120
370
     5
100
AcDbLine
 10
23.89616428912783
 20
527.6153344305264
 30
0.0
 11
61.89616428912822
 21
565.6153344305349
 31
0.0
  0
LINE
  5
1DE
330
1F
100
AcDbEntity
  8
0-0
  6
JWW_DASHED1
 62
   120
370
     5
100
AcDbLine
 10
23.89616428912783
 20
537.5148293657462
 30
0.0
 11
61.8961642891214
 21
575.5148293657431
 31
0.0
  0
LINE
  5
1DF
330
1F
100
AcDbEntity
  8
0-0
  6
JWW_DASHED1
 62
   120
370
     5
100
AcDbLine
 10
23.89616428912783
 20
547.4143243009655
 30
0.0
 11
61.89616428912822
 21
585.4143243009668
 31
0.0
  0
LINE
  5
1E0
330
1F
100
AcDbEntity
  8
0-0
  6
JWW_DASHED1
 62
   120
370
     5
100
AcDbLine
 10
23.89616428912783
 20
557.3138192361273
 30
0.0
 11
61.89616428913163
 21
595.313819236132
 31
0.0
  0
LINE
  5
1E1
330
1F
100
AcDbEntity
  8
0-0
  6
JWW_DASHED1
 62
   120
370
     5
100
AcDbLine
 10
23.89616428912783
 20
567.2133141713458
 30
0.0
 11
61.89616428912481
 21
605.2133141713402
 31
0.0
  0
LINE
  5
1E2
330
1F
100
AcDbEntity
  8
0-0
  6
JWW_DASHED1
 62
   120
370
     5
100
AcDbLine
 10
23.89616428912783
 20
577.1128091065583
 30
0.0
 11
61.89616428913163
 21
615.1128091065636
 31
0.0
  0
LINE
  5
1E3
330
1F
100
AcDbEntity
  8
0-0
  6
JWW_DASHED1
 62
   120
370
     5
100
AcDbLine
 10
23.89616428912783
 20
587.0123040417201
 30
0.0
 11
61.89616428913504
 21
625.0123040417291
 31
0.0
  0
LINE
  5
1E4
330
1F
100
AcDbEntity
  8
0-0
  6
JWW_DASHED1
 62
   120
370
     5
100
AcDbLine
 10
23.89616428912783
 20
596.9117989769398
 30
0.0
 11
61.89616428912822
 21
634.9117989769368
 31
0.0
  0
LINE
  5
1E5
330
1F
100
AcDbEntity
  8
0-0
  6
JWW_DASHED1
 62
   120
370
     5
100
AcDbLine
 10
23.89616428912783
 20
606.8112939121586
 30
0.0
 11
61.89616428913504
 21
644.8112939121609
 31
0.0
  0
LINE
  5
1E6
330
1F
100
AcDbEntity
  8
0-0
  6
JWW_DASHED1
 62
   120
370
     5
100
AcDbLine
 10
23.89616428912783
 20
616.7107888473104
 30
0.0
 11
61.89616428913504
 21
654.7107888473256
 31
0.0
  0
LINE
  5
1E7
330
1F
100
AcDbEntity
  8
0-0
  6
JWW_DASHED1
 62
   120
370
     5
100
AcDbLine
 10
23.89616428912783
 20
626.6102837825299
 30
0.0
 11
61.89616428912822
 21
664.6102837825339
 31
0.0
  0
LINE
  5
1E8
330
1F
100
AcDbEntity
  8
0-0
  6
JWW_DASHED1
 62
   120
370
     5
100
AcDbLine
 10
23.89616428912783
 20
636.509778717749
 30
0.0
 11
61.89616428913504
 21
674.5097787177579
 31
0.0
  0
LINE
  5
1E9
330
1F
100
AcDbEntity
  8
0-0
  6
JWW_DASHED1
 62
   120
370
     5
100
AcDbLine
 10
23.89616428912783
 20
646.409273652908
 30
0.0
 11
61.89616428913845
 21
684.4092736529205
 31
0.0
  0
LINE
  5
1EA
330
1F
100
AcDbEntity
  8
0-0
  6
JWW_DASHED1
 62
   120
370
     5
100
AcDbLine
 10
23.89616428912783
 20
656.3087685881296
 30
0.0
 11
61.89616428913163
 21
694.3087685881308
 31
0.0
  0
LINE
  5
1EB
330
1F
100
AcDbEntity
  8
0-0
  6
JWW_DASHED1
 62
   120
370
     5
100
AcDbLine
 10
23.89616428912783
 20
666.2082635233418
 30
0.0
 11
61.8961642891214
 21
704.2082635233387
 31
0.0
  0
LINE
  5
1EC
330
1F
100
AcDbEntity
  8
0-0
  6
JWW_DASHED1
 62
   120
370
     5
100
AcDbLine
 10
23.89616428912783
 20
676.1077584585091
 30
0.0
 11
61.89616428912822
 21
714.1077584585039
 31
0.0
  0
LINE
  5
1ED
330
1F
100
AcDbEntity
  8
0-0
  6
JWW_DASHED1
 62
   120
370
     5
100
AcDbLine
 10
23.89616428912783
 20
686.0072533937238
 30
0.0
 11
61.89616428913504
 21
724.0072533937275
 31
0.0
  0
LINE
  5
1EE
330
1F
100
AcDbEntity
  8
0-0
  6
JWW_DASHED1
 62
   120
370
     5
100
AcDbLine
 10
23.89616428912783
 20
695.9067483289352
 30
0.0
 11
61.89616428912481
 21
733.9067483289358
 31
0.0
  0
LINE
  5
1EF
330
1F
100
AcDbEntity
  8
0-0
  6
JWW_DASHED1
 62
   120
370
     5
100
AcDbLine
 10
23.89616428912783
 20
705.8062432640993
 30
0.0
 11
61.89616428912822
 21
743.8062432641002
 31
0.0
  0
LINE
  5
1F0
330
1F
100
AcDbEntity
  8
0-0
  6
JWW_DASHED1
 62
   120
370
     5
100
AcDbLine
 10
23.89616428912783
 20
715.7057381993134
 30
0.0
 11
61.89616428913504
 21
753.7057381993246
 31
0.0
  0
LINE
  5
1F1
330
1F
100
AcDbEntity
  8
0-0
  6
JWW_DASHED1
 62
   120
370
     5
100
AcDbLine
 10
23.89616428912783
 20
725.6052331345307
 30
0.0
 11
61.89616428912822
 21
763.6052331345329
 31
0.0
  0
LINE
  5
1F2
330
1F
100
AcDbEntity
  8
0-0
  6
JWW_DASHED1
 62
   120
370
     5
100
AcDbLine
 10
23.89616428912783
 20
735.504728069693
 30
0.0
 11
61.89616428913163
 21
773.5047280696976
 31
0.0
  0
LINE
  5
1F3
330
1F
100
AcDbEntity
  8
0-0
  6
JWW_DASHED1
 62
   120
370
     5
100
AcDbLine
 10
23.89616428912783
 20
745.404223004914
 30
0.0
 11
61.89616428913845
 21
783.404223004921
 31
0.0
  0
LINE
  5
1F4
330
1F
100
AcDbEntity
  8
0-0
  6
JWW_DASHED1
 62
   120
370
     5
100
AcDbLine
 10
23.89616428912783
 20
755.303717940121
 30
0.0
 11
61.89616428912822
 21
793.3037179401294
 31
0.0
  0
LINE
  5
1F5
330
1F
100
AcDbEntity
  8
0-0
  6
JWW_DASHED1
 62
   120
370
     5
100
AcDbLine
 10
23.89616428912783
 20
765.2032128752928
 30
0.0
 11
61.89616428913504
 21
803.2032128752946
 31
0.0
  0
LINE
  5
1F6
330
1F
100
AcDbEntity
  8
0-0
  6
JWW_DASHED1
 62
   120
370
     5
100
AcDbLine
 10
23.89616428912783
 20
775.102707810509
 30
0.0
 11
61.89616428912481
 21
813.1027078105019
 31
0.0
  0
LINE
  5
1F7
330
1F
100
AcDbEntity
  8
0-0
  6
JWW_DASHED1
 62
   120
370
     5
100
AcDbLine
 10
23.89616428912783
 20
785.0022027457255
 30
0.0
 11
61.89616428913504
 21
823.0022027457265
 31
0.0
  0
LINE
  5
1F8
330
1F
100
AcDbEntity
  8
0-0
  6
JWW_DASHED1
 62
   120
370
     5
100
AcDbLine
 10
23.89616428912783
 20
794.9016976808832
 30
0.0
 11
61.89616428913504
 21
832.9016976808913
 31
0.0
  0
LINE
  5
1F9
330
1F
100
AcDbEntity
  8
0-0
  6
JWW_DASHED1
 62
   120
370
     5
100
AcDbLine
 10
23.89616428912783
 20
804.8011926161025
 30
0.0
 11
61.89616428912822
 21
842.8011926160996
 31
0.0
  0
LINE
  5
1FA
330
1F
100
AcDbEntity
  8
0-0
  6
JWW_DASHED1
 62
   120
370
     5
100
AcDbLine
 10
23.89616428912783
 20
814.700687551315
 30
0.0
 11
61.89616428913504
 21
852.7006875513232
 31
0.0
  0
LINE
  5
1FB
330
1F
100
AcDbEntity
  8
0-0
  6
JWW_DASHED1
 62
   120
370
     5
100
AcDbLine
 10
23.89616428912783
 20
824.600182486475
 30
0.0
 11
61.8961642891214
 21
862.6001824864726
 31
0.0
  0
LINE
  5
1FC
330
1F
100
AcDbEntity
  8
0-0
  6
JWW_DASHED1
 62
   120
370
     5
100
AcDbLine
 10
23.89616428912783
 20
834.4996774216913
 30
0.0
 11
61.89616428912822
 21
872.4996774216966
 31
0.0
  0
LINE
  5
1FD
330
1F
100
AcDbEntity
  8
0-0
  6
JWW_DASHED1
 62
   120
370
     5
100
AcDbLine
 10
23.89616428912783
 20
844.3991723569087
 30
0.0
 11
61.89616428913845
 21
882.3991723569202
 31
0.0
  0
LINE
  5
1FE
330
1F
100
AcDbEntity
  8
0-0
  6
JWW_DASHED1
 62
   120
370
     5
100
AcDbLine
 10
23.89616428912783
 20
854.2986672920756
 30
0.0
 11
61.89616428912481
 21
892.298667292069
 31
0.0
  0
LINE
  5
1FF
330
1F
100
AcDbEntity
  8
0-0
  6
JWW_DASHED1
 62
   120
370
     5
100
AcDbLine
 10
23.89616428912783
 20
864.1981622272858
 30
0.0
 11
61.89616428913163
 21
902.1981622272932
 31
0.0
  0
LINE
  5
200
330
1F
100
AcDbEntity
  8
0-0
  6
JWW_DASHED1
 62
   120
370
     5
100
AcDbLine
 10
23.89616428912783
 20
874.0976571625083
 30
0.0
 11
61.89616428914186
 21
912.0976571625168
 31
0.0
  0
LINE
  5
201
330
1F
100
AcDbEntity
  8
0-0
  6
JWW_DASHED1
 62
   120
370
     5
100
AcDbLine
 10
23.89616428912783
 20
883.9971520976723
 30
0.0
 11
61.89616428912822
 21
921.9971520976662
 31
0.0
  0
LINE
  5
202
330
1F
100
AcDbEntity
  8
0-0
  6
JWW_DASHED1
 62
   120
370
     5
100
AcDbLine
 10
23.89616428912783
 20
893.8966470328796
 30
0.0
 11
61.89616428913504
 21
931.8966470328903
 31
0.0
  0
LINE
  5
203
330
1F
100
AcDbEntity
  8
0-0
  6
JWW_DASHED1
 62
   120
370
     5
100
AcDbLine
 10
23.89616428912783
 20
903.7961419681035
 30
0.0
 11
61.89616428912822
 21
941.796141968098
 31
0.0
  0
LINE
  5
204
330
1F
100
AcDbEntity
  8
0-0
  6
JWW_DASHED1
 62
   120
370
     5
100
AcDbLine
 10
23.89616428912783
 20
923.5951318384839
 30
0.0
 11
61.89616428912822
 21
961.5951318384728
 31
0.0
  0
LINE
  5
205
330
1F
100
AcDbEntity
  8
0-0
  6
JWW_DASHED1
 62
   120
370
     5
100
AcDbLine
 10
23.89616428912783
 20
913.6956369032653
 30
0.0
 11
61.89616428912822
 21
951.695636903259
 31
0.0
  0
LINE
  5
206
330
1F
100
AcDbEntity
  8
0-0
  6
JWW_DASHED1
 62
   120
370
     5
100
AcDbLine
 10
23.89616428912783
 20
-917.7109261082768
 30
0.0
 11
61.89616428912481
 21
-879.7109261082765
 31
0.0
  0
LINE
  5
207
330
1F
100
AcDbEntity
  8
0-0
  6
JWW_DASHED1
 62
   120
370
     5
100
AcDbLine
 10
23.89616428912783
 20
-927.6104210434412
 30
0.0
 11
61.89616428912481
 21
-889.6104210434416
 31
0.0
  0
LINE
  5
208
330
1F
100
AcDbEntity
  8
0-0
  6
JWW_DASHED1
 62
   120
370
     5
100
AcDbLine
 10
23.89616428912783
 20
-937.5099159786064
 30
0.0
 11
61.89616428912481
 21
-899.5099159786059
 31
0.0
  0
LINE
  5
209
330
1F
100
AcDbEntity
  8
0-0
  6
JWW_DASHED1
 62
   120
370
     5
100
AcDbLine
 10
26.69684486837307
 20
-944.608730334525
 30
0.0
 11
61.89616428912481
 21
-909.4094109137711
 31
0.0
  0
LINE
  5
20A
330
1F
100
AcDbEntity
  8
0-0
  6
JWW_DASHED1
 62
   120
370
     5
100
AcDbLine
 10
56.39532967386523
 20
-944.608730334525
 30
0.0
 11
61.89616428912481
 21
-939.107895719265
 31
0.0
  0
LINE
  5
20B
330
1F
100
AcDbEntity
  8
0-0
  6
JWW_DASHED1
 62
   120
370
     5
100
AcDbLine
 10
36.5963398035374
 20
-944.608730334525
 30
0.0
 11
61.89616428912481
 21
-919.3089058489354
 31
0.0
  0
LINE
  5
20C
330
1F
100
AcDbEntity
  8
0-0
  6
JWW_DASHED1
 62
   120
370
     5
100
AcDbLine
 10
46.49583473870175
 20
-944.608730334525
 30
0.0
 11
61.89616428912481
 21
-929.2084007841006
 31
0.0
  0
LINE
  5
20D
330
1F
100
AcDbEntity
  8
0-0
  6
JWW_DASHED1
 62
   120
370
     5
100
AcDbLine
 10
23.89616428912783
 20
933.4946267737024
 30
0.0
 11
61.89616428912822
 21
971.4946267736913
 31
0.0
  0
LINE
  5
20E
330
1F
100
AcDbEntity
  8
0-0
  6
JWW_DASHED1
 62
   120
370
     5
100
AcDbLine
 10
23.89616428912783
 20
943.3941217089209
 30
0.0
 11
61.89616428912822
 21
981.3941217089098
 31
0.0
  0
LINE
  5
20F
330
1F
100
AcDbEntity
  8
0-0
  6
JWW_DASHED1
 62
   120
370
     5
100
AcDbLine
 10
23.89616428912783
 20
953.2936166441393
 30
0.0
 11
61.89616428912822
 21
991.2936166441283
 31
0.0
  0
LINE
  5
210
330
1F
100
AcDbEntity
  8
0-0
  6
JWW_DASHED1
 62
   120
370
     5
100
AcDbLine
 10
23.89616428912783
 20
963.1931115793575
 30
0.0
 11
61.89616428912822
 21
1001.193111579347
 31
0.0
  0
LINE
  5
211
330
1F
100
AcDbEntity
  8
0-0
  6
JWW_DASHED1
 62
   120
370
     5
100
AcDbLine
 10
23.89616428912783
 20
973.0926065145763
 30
0.0
 11
61.89616428912822
 21
1011.092606514565
 31
0.0
  0
LINE
  5
212
330
1F
100
AcDbEntity
  8
0-0
  6
JWW_DASHED1
 62
   120
370
     5
100
AcDbLine
 10
23.89616428912783
 20
982.9921014497949
 30
0.0
 11
61.89616428912822
 21
1020.992101449784
 31
0.0
  0
LINE
  5
213
330
1F
100
AcDbEntity
  8
0-0
  6
JWW_DASHED1
 62
   120
370
     5
100
AcDbLine
 10
23.89616428912783
 20
1012.69058625545
 30
0.0
 11
33.59684769915626
 21
1022.391269665476
 31
0.0
  0
LINE
  5
214
330
1F
100
AcDbEntity
  8
0-0
  6
JWW_DASHED1
 62
   120
370
     5
100
AcDbLine
 10
23.89616428912783
 20
992.8915963850134
 30
0.0
 11
53.39583756959919
 21
1022.391269665476
 31
0.0
  0
LINE
  5
215
330
1F
100
AcDbEntity
  8
0-0
  6
JWW_DASHED1
 62
   120
370
     5
100
AcDbLine
 10
23.89616428912783
 20
1002.791091320232
 30
0.0
 11
43.49634263437773
 21
1022.391269665476
 31
0.0
  0
LINE
  5
216
330
1F
100
AcDbEntity
  8
0-0
  6
Continuous
 62
     7
370
     9
100
AcDbLine
 10
803.8961642891279
 20
-944.608730334525
 30
0.0
 11
841.8961642891283
 21
-944.608730334525
 31
0.0
  0
LINE
  5
217
330
1F
100
AcDbEntity
  8
0-0
  6
Continuous
 62
    92
370
    13
100
AcDbLine
 10
803.8961642891279
 20
1030.391269665474
 30
0.0
 11
803.8961642891279
 21
-952.608730334525
 31
0.0
  0
LINE
  5
218
330
1F
100
AcDbEntity
  8
0-0
  6
Continuous
 62
    92
370
    13
100
AcDbLine
 10
841.8961642891283
 20
1030.391269665474
 30
0.0
 11
841.8961642891283
 21
-952.608730334525
 31
0.0
  0
LINE
  5
219
330
1F
100
AcDbEntity
  8
0-0
  6
Continuous
 62
     7
370
     9
100
AcDbLine
 10
803.8961642891279
 20
1022.391269665476
 30
0.0
 11
841.8961642891283
 21
1022.391269665476
 31
0.0
  0
LINE
  5
21A
330
1F
100
AcDbEntity
  8
0-0
  6
JWW_DASHED1
 62
   120
370
     5
100
AcDbLine
 10
803.8961642891279
 20
-907.8114311731116
 30
0.0
 11
841.8961642891248
 21
-869.811431173112
 31
0.0
  0
LINE
  5
21B
330
1F
100
AcDbEntity
  8
0-0
  6
JWW_DASHED1
 62
   120
370
     5
100
AcDbLine
 10
803.8961642891279
 20
-897.9119362379498
 30
0.0
 11
841.8961642891283
 21
-859.9119362379469
 31
0.0
  0
LINE
  5
21C
330
1F
100
AcDbEntity
  8
0-0
  6
JWW_DASHED1
 62
   120
370
     5
100
AcDbLine
 10
803.8961642891279
 20
-888.0124413027318
 30
0.0
 11
841.8961642891351
 21
-850.0124413027229
 31
0.0
  0
LINE
  5
21D
330
1F
100
AcDbEntity
  8
0-0
  6
JWW_DASHED1
 62
   120
370
     5
100
AcDbLine
 10
803.8961642891279
 20
-878.1129463675193
 30
0.0
 11
841.8961642891283
 21
-840.112946367515
 31
0.0
  0
LINE
  5
21E
330
1F
100
AcDbEntity
  8
0-0
  6
JWW_DASHED1
 62
   120
370
     5
100
AcDbLine
 10
803.8961642891279
 20
-868.2134514323507
 30
0.0
 11
841.8961642891317
 21
-830.2134514323498
 31
0.0
  0
LINE
  5
21F
330
1F
100
AcDbEntity
  8
0-0
  6
JWW_DASHED1
 62
   120
370
     5
100
AcDbLine
 10
803.8961642891279
 20
-858.3139564971364
 30
0.0
 11
841.8961642891214
 21
-820.313956497142
 31
0.0
  0
LINE
  5
220
330
1F
100
AcDbEntity
  8
0-0
  6
JWW_DASHED1
 62
   120
370
     5
100
AcDbLine
 10
803.8961642891279
 20
-848.4144615619184
 30
0.0
 11
841.8961642891317
 21
-810.414461561918
 31
0.0
  0
LINE
  5
221
330
1F
100
AcDbEntity
  8
0-0
  6
JWW_DASHED1
 62
   120
370
     5
100
AcDbLine
 10
803.8961642891279
 20
-838.514966626757
 30
0.0
 11
841.8961642891351
 21
-800.5149666267532
 31
0.0
  0
LINE
  5
222
330
1F
100
AcDbEntity
  8
0-0
  6
JWW_DASHED1
 62
   120
370
     5
100
AcDbLine
 10
803.8961642891279
 20
-828.6154716915432
 30
0.0
 11
841.8961642891248
 21
-790.6154716915449
 31
0.0
  0
LINE
  5
223
330
1F
100
AcDbEntity
  8
0-0
  6
JWW_DASHED1
 62
   120
370
     5
100
AcDbLine
 10
803.8961642891279
 20
-818.715976756326
 30
0.0
 11
841.8961642891351
 21
-780.715976756321
 31
0.0
  0
LINE
  5
224
330
1F
100
AcDbEntity
  8
0-0
  6
JWW_DASHED1
 62
   120
370
     5
100
AcDbLine
 10
803.8961642891279
 20
-808.8164818211634
 30
0.0
 11
841.8961642891214
 21
-770.8164818211719
 31
0.0
  0
LINE
  5
225
330
1F
100
AcDbEntity
  8
0-0
  6
JWW_DASHED1
 62
   120
370
     5
100
AcDbLine
 10
803.8961642891279
 20
-798.9169868859495
 30
0.0
 11
841.8961642891283
 21
-760.9169868859483
 31
0.0
  0
LINE
  5
226
330
1F
100
AcDbEntity
  8
0-0
  6
JWW_DASHED1
 62
   120
370
     5
100
AcDbLine
 10
803.8961642891279
 20
-789.0174919507358
 30
0.0
 11
841.8961642891351
 21
-751.0174919507243
 31
0.0
  0
LINE
  5
227
330
1F
100
AcDbEntity
  8
0-0
  6
JWW_DASHED1
 62
   120
370
     5
100
AcDbLine
 10
803.8961642891279
 20
-779.1179970155723
 30
0.0
 11
841.8961642891214
 21
-741.1179970155753
 31
0.0
  0
LINE
  5
228
330
1F
100
AcDbEntity
  8
0-0
  6
JWW_DASHED1
 62
   120
370
     5
100
AcDbLine
 10
803.8961642891279
 20
-769.2185020803602
 30
0.0
 11
841.8961642891283
 21
-731.2185020803513
 31
0.0
  0
LINE
  5
229
330
1F
100
AcDbEntity
  8
0-0
  6
JWW_DASHED1
 62
   120
370
     5
100
AcDbLine
 10
803.8961642891279
 20
-759.3190071451869
 30
0.0
 11
841.8961642891351
 21
-721.3190071451866
 31
0.0
  0
LINE
  5
22A
330
1F
100
AcDbEntity
  8
0-0
  6
JWW_DASHED1
 62
   120
370
     5
100
AcDbLine
 10
803.8961642891279
 20
-749.4195122099718
 30
0.0
 11
841.8961642891248
 21
-711.4195122099778
 31
0.0
  0
LINE
  5
22B
330
1F
100
AcDbEntity
  8
0-0
  6
JWW_DASHED1
 62
   120
370
     5
100
AcDbLine
 10
803.8961642891279
 20
-739.5200172747598
 30
0.0
 11
841.8961642891317
 21
-701.5200172747547
 31
0.0
  0
LINE
  5
22C
330
1F
100
AcDbEntity
  8
0-0
  6
JWW_DASHED1
 62
   120
370
     5
100
AcDbLine
 10
803.8961642891279
 20
-729.620522339598
 30
0.0
 11
841.8961642891351
 21
-691.6205223395895
 31
0.0
  0
LINE
  5
22D
330
1F
100
AcDbEntity
  8
0-0
  6
JWW_DASHED1
 62
   120
370
     5
100
AcDbLine
 10
803.8961642891279
 20
-719.7210274043778
 30
0.0
 11
841.8961642891283
 21
-681.7210274043816
 31
0.0
  0
LINE
  5
22E
330
1F
100
AcDbEntity
  8
0-0
  6
JWW_DASHED1
 62
   120
370
     5
100
AcDbLine
 10
803.8961642891279
 20
-709.8215324691665
 30
0.0
 11
841.8961642891351
 21
-671.8215324691575
 31
0.0
  0
LINE
  5
22F
330
1F
100
AcDbEntity
  8
0-0
  6
JWW_DASHED1
 62
   120
370
     5
100
AcDbLine
 10
803.8961642891279
 20
-699.922037534003
 30
0.0
 11
841.8961642891214
 21
-661.9220375340082
 31
0.0
  0
LINE
  5
230
330
1F
100
AcDbEntity
  8
0-0
  6
JWW_DASHED1
 62
   120
370
     5
100
AcDbLine
 10
803.8961642891279
 20
-690.0225425987888
 30
0.0
 11
841.8961642891283
 21
-652.0225425987846
 31
0.0
  0
LINE
  5
231
330
1F
100
AcDbEntity
  8
0-0
  6
JWW_DASHED1
 62
   120
370
     5
100
AcDbLine
 10
803.8961642891279
 20
-680.1230476635737
 30
0.0
 11
841.8961642891214
 21
-642.1230476635764
 31
0.0
  0
LINE
  5
232
330
1F
100
AcDbEntity
  8
0-0
  6
JWW_DASHED1
 62
   120
370
     5
100
AcDbLine
 10
803.8961642891279
 20
-670.2235527284095
 30
0.0
 11
841.8961642891248
 21
-632.2235527284115
 31
0.0
  0
LINE
  5
233
330
1F
100
AcDbEntity
  8
0-0
  6
JWW_DASHED1
 62
   120
370
     5
100
AcDbLine
 10
803.8961642891279
 20
-660.3240577931947
 30
0.0
 11
841.8961642891317
 21
-622.3240577931875
 31
0.0
  0
LINE
  5
234
330
1F
100
AcDbEntity
  8
0-0
  6
JWW_DASHED1
 62
   120
370
     5
100
AcDbLine
 10
803.8961642891279
 20
-650.424562857978
 30
0.0
 11
841.8961642891248
 21
-612.4245628579793
 31
0.0
  0
LINE
  5
235
330
1F
100
AcDbEntity
  8
0-0
  6
JWW_DASHED1
 62
   120
370
     5
100
AcDbLine
 10
803.8961642891279
 20
-640.5250679228085
 30
0.0
 11
841.8961642891283
 21
-602.5250679228145
 31
0.0
  0
LINE
  5
236
330
1F
100
AcDbEntity
  8
0-0
  6
JWW_DASHED1
 62
   120
370
     5
100
AcDbLine
 10
803.8961642891279
 20
-630.625572987602
 30
0.0
 11
841.8961642891351
 21
-592.6255729875904
 31
0.0
  0
LINE
  5
237
330
1F
100
AcDbEntity
  8
0-0
  6
JWW_DASHED1
 62
   120
370
     5
100
AcDbLine
 10
803.8961642891279
 20
-620.726078052377
 30
0.0
 11
841.8961642891283
 21
-582.7260780523827
 31
0.0
  0
LINE
  5
238
330
1F
100
AcDbEntity
  8
0-0
  6
JWW_DASHED1
 62
   120
370
     5
100
AcDbLine
 10
803.8961642891279
 20
-610.8265831172191
 30
0.0
 11
841.8961642891283
 21
-572.8265831172175
 31
0.0
  0
LINE
  5
239
330
1F
100
AcDbEntity
  8
0-0
  6
JWW_DASHED1
 62
   120
370
     5
100
AcDbLine
 10
803.8961642891279
 20
-600.9270881820049
 30
0.0
 11
841.8961642891351
 21
-562.9270881819934
 31
0.0
  0
LINE
  5
23A
330
1F
100
AcDbEntity
  8
0-0
  6
JWW_DASHED1
 62
   120
370
     5
100
AcDbLine
 10
803.8961642891279
 20
-591.0275932467869
 30
0.0
 11
841.8961642891283
 21
-553.0275932467856
 31
0.0
  0
LINE
  5
23B
330
1F
100
AcDbEntity
  8
0-0
  6
JWW_DASHED1
 62
   120
370
     5
100
AcDbLine
 10
803.8961642891279
 20
-581.128098311626
 30
0.0
 11
841.8961642891317
 21
-543.1280983116204
 31
0.0
  0
LINE
  5
23C
330
1F
100
AcDbEntity
  8
0-0
  6
JWW_DASHED1
 62
   120
370
     5
100
AcDbLine
 10
803.8961642891279
 20
-571.2286033764062
 30
0.0
 11
841.8961642891248
 21
-533.2286033764126
 31
0.0
  0
LINE
  5
23D
330
1F
100
AcDbEntity
  8
0-0
  6
JWW_DASHED1
 62
   120
370
     5
100
AcDbLine
 10
803.8961642891279
 20
-561.3291084411936
 30
0.0
 11
841.8961642891317
 21
-523.3291084411885
 31
0.0
  0
LINE
  5
23E
330
1F
100
AcDbEntity
  8
0-0
  6
JWW_DASHED1
 62
   120
370
     5
100
AcDbLine
 10
803.8961642891279
 20
-551.4296135060323
 30
0.0
 11
841.8961642891351
 21
-513.4296135060233
 31
0.0
  0
LINE
  5
23F
330
1F
100
AcDbEntity
  8
0-0
  6
JWW_DASHED1
 62
   120
370
     5
100
AcDbLine
 10
803.8961642891279
 20
-541.5301185708125
 30
0.0
 11
841.8961642891283
 21
-503.5301185708155
 31
0.0
  0
LINE
  5
240
330
1F
100
AcDbEntity
  8
0-0
  6
JWW_DASHED1
 62
   120
370
     5
100
AcDbLine
 10
803.8961642891279
 20
-531.6306236355928
 30
0.0
 11
841.8961642891351
 21
-493.630623635592
 31
0.0
  0
LINE
  5
241
330
1F
100
AcDbEntity
  8
0-0
  6
JWW_DASHED1
 62
   120
370
     5
100
AcDbLine
 10
803.8961642891279
 20
-521.7311287004404
 30
0.0
 11
841.8961642891214
 21
-483.7311287004425
 31
0.0
  0
LINE
  5
242
330
1F
100
AcDbEntity
  8
0-0
  6
JWW_DASHED1
 62
   120
370
     5
100
AcDbLine
 10
803.8961642891279
 20
-511.8316337652232
 30
0.0
 11
841.8961642891283
 21
-473.8316337652185
 31
0.0
  0
LINE
  5
243
330
1F
100
AcDbEntity
  8
0-0
  6
JWW_DASHED1
 62
   120
370
     5
100
AcDbLine
 10
803.8961642891279
 20
-501.9321388300034
 30
0.0
 11
841.8961642891351
 21
-463.9321388299945
 31
0.0
  0
LINE
  5
244
330
1F
100
AcDbEntity
  8
0-0
  6
JWW_DASHED1
 62
   120
370
     5
100
AcDbLine
 10
803.8961642891279
 20
-492.0326438948433
 30
0.0
 11
841.8961642891214
 21
-454.0326438948455
 31
0.0
  0
LINE
  5
245
330
1F
100
AcDbEntity
  8
0-0
  6
JWW_DASHED1
 62
   120
370
     5
100
AcDbLine
 10
803.8961642891279
 20
-482.1331489596236
 30
0.0
 11
841.8961642891317
 21
-444.1331489596215
 31
0.0
  0
LINE
  5
246
330
1F
100
AcDbEntity
  8
0-0
  6
JWW_DASHED1
 62
   120
370
     5
100
AcDbLine
 10
803.8961642891279
 20
-472.2336540244089
 30
0.0
 11
841.8961642891214
 21
-434.2336540244136
 31
0.0
  0
LINE
  5
247
330
1F
100
AcDbEntity
  8
0-0
  6
JWW_DASHED1
 62
   120
370
     5
100
AcDbLine
 10
803.8961642891279
 20
-462.3341590892433
 30
0.0
 11
841.8961642891283
 21
-424.3341590892484
 31
0.0
  0
LINE
  5
248
330
1F
100
AcDbEntity
  8
0-0
  6
JWW_DASHED1
 62
   120
370
     5
100
AcDbLine
 10
803.8961642891279
 20
-452.4346641540291
 30
0.0
 11
841.8961642891351
 21
-414.4346641540253
 31
0.0
  0
LINE
  5
249
330
1F
100
AcDbEntity
  8
0-0
  6
JWW_DASHED1
 62
   120
370
     5
100
AcDbLine
 10
803.8961642891279
 20
-442.5351692188149
 30
0.0
 11
841.8961642891248
 21
-404.535169218817
 31
0.0
  0
LINE
  5
24A
330
1F
100
AcDbEntity
  8
0-0
  6
JWW_DASHED1
 62
   120
370
     5
100
AcDbLine
 10
803.8961642891279
 20
-432.6356742836531
 30
0.0
 11
841.8961642891283
 21
-394.6356742836518
 31
0.0
  0
LINE
  5
24B
330
1F
100
AcDbEntity
  8
0-0
  6
JWW_DASHED1
 62
   120
370
     5
100
AcDbLine
 10
803.8961642891279
 20
-422.7361793484337
 30
0.0
 11
841.8961642891214
 21
-384.7361793484436
 31
0.0
  0
LINE
  5
24C
330
1F
100
AcDbEntity
  8
0-0
  6
JWW_DASHED1
 62
   120
370
     5
100
AcDbLine
 10
803.8961642891279
 20
-412.8366844132212
 30
0.0
 11
841.8961642891283
 21
-374.8366844132199
 31
0.0
  0
LINE
  5
24D
330
1F
100
AcDbEntity
  8
0-0
  6
JWW_DASHED1
 62
   120
370
     5
100
AcDbLine
 10
803.8961642891279
 20
-402.937189478059
 30
0.0
 11
841.8961642891317
 21
-364.9371894780552
 31
0.0
  0
LINE
  5
24E
330
1F
100
AcDbEntity
  8
0-0
  6
JWW_DASHED1
 62
   120
370
     5
100
AcDbLine
 10
803.8961642891279
 20
-393.0376945428457
 30
0.0
 11
841.8961642891214
 21
-355.0376945428465
 31
0.0
  0
LINE
  5
24F
330
1F
100
AcDbEntity
  8
0-0
  6
JWW_DASHED1
 62
   120
370
     5
100
AcDbLine
 10
803.8961642891279
 20
-383.138199607625
 30
0.0
 11
841.8961642891283
 21
-345.1381996076229
 31
0.0
  0
LINE
  5
250
330
1F
100
AcDbEntity
  8
0-0
  6
JWW_DASHED1
 62
   120
370
     5
100
AcDbLine
 10
803.8961642891279
 20
-373.238704672459
 30
0.0
 11
841.8961642891351
 21
-335.2387046724581
 31
0.0
  0
LINE
  5
251
330
1F
100
AcDbEntity
  8
0-0
  6
JWW_DASHED1
 62
   120
370
     5
100
AcDbLine
 10
803.8961642891279
 20
-363.3392097372439
 30
0.0
 11
841.8961642891248
 21
-325.3392097372503
 31
0.0
  0
LINE
  5
252
330
1F
100
AcDbEntity
  8
0-0
  6
JWW_DASHED1
 62
   120
370
     5
100
AcDbLine
 10
803.8961642891279
 20
-353.4397148020309
 30
0.0
 11
841.8961642891317
 21
-315.4397148020263
 31
0.0
  0
LINE
  5
253
330
1F
100
AcDbEntity
  8
0-0
  6
JWW_DASHED1
 62
   120
370
     5
100
AcDbLine
 10
803.8961642891279
 20
-343.54021986687
 30
0.0
 11
841.8961642891351
 21
-305.5402198668611
 31
0.0
  0
LINE
  5
254
330
1F
100
AcDbEntity
  8
0-0
  6
JWW_DASHED1
 62
   120
370
     5
100
AcDbLine
 10
803.8961642891279
 20
-333.6407249316503
 30
0.0
 11
841.8961642891283
 21
-295.6407249316533
 31
0.0
  0
LINE
  5
255
330
1F
100
AcDbEntity
  8
0-0
  6
JWW_DASHED1
 62
   120
370
     5
100
AcDbLine
 10
803.8961642891279
 20
-323.7412299964382
 30
0.0
 11
841.8961642891351
 21
-285.7412299964292
 31
0.0
  0
LINE
  5
256
330
1F
100
AcDbEntity
  8
0-0
  6
JWW_DASHED1
 62
   120
370
     5
100
AcDbLine
 10
803.8961642891279
 20
-313.8417350612704
 30
0.0
 11
841.8961642891283
 21
-275.8417350612747
 31
0.0
  0
LINE
  5
257
330
1F
100
AcDbEntity
  8
0-0
  6
JWW_DASHED1
 62
   120
370
     5
100
AcDbLine
 10
803.8961642891279
 20
-303.94224012606
 30
0.0
 11
841.8961642891283
 21
-265.9422401260562
 31
0.0
  0
LINE
  5
258
330
1F
100
AcDbEntity
  8
0-0
  6
JWW_DASHED1
 62
   120
370
     5
100
AcDbLine
 10
803.8961642891279
 20
-294.0427451908462
 30
0.0
 11
841.8961642891214
 21
-256.042745190848
 31
0.0
  0
LINE
  5
259
330
1F
100
AcDbEntity
  8
0-0
  6
JWW_DASHED1
 62
   120
370
     5
100
AcDbLine
 10
803.8961642891279
 20
-284.1432502556819
 30
0.0
 11
841.8961642891248
 21
-246.1432502556832
 31
0.0
  0
LINE
  5
25A
330
1F
100
AcDbEntity
  8
0-0
  6
JWW_DASHED1
 62
   120
370
     5
100
AcDbLine
 10
803.8961642891279
 20
-274.2437553204596
 30
0.0
 11
841.8961642891317
 21
-236.2437553204592
 31
0.0
  0
LINE
  5
25B
330
1F
100
AcDbEntity
  8
0-0
  6
JWW_DASHED1
 62
   120
370
     5
100
AcDbLine
 10
803.8961642891279
 20
-264.3442603852449
 30
0.0
 11
841.8961642891248
 21
-226.3442603852513
 31
0.0
  0
LINE
  5
25C
330
1F
100
AcDbEntity
  8
0-0
  6
JWW_DASHED1
 62
   120
370
     5
100
AcDbLine
 10
803.8961642891279
 20
-254.444765450081
 30
0.0
 11
841.8961642891283
 21
-216.4447654500862
 31
0.0
  0
LINE
  5
25D
330
1F
100
AcDbEntity
  8
0-0
  6
JWW_DASHED1
 62
   120
370
     5
100
AcDbLine
 10
803.8961642891279
 20
-244.5452705148728
 30
0.0
 11
841.8961642891351
 21
-206.5452705148621
 31
0.0
  0
LINE
  5
25E
330
1F
100
AcDbEntity
  8
0-0
  6
JWW_DASHED1
 62
   120
370
     5
100
AcDbLine
 10
803.8961642891279
 20
-234.6457755796492
 30
0.0
 11
841.8961642891283
 21
-196.6457755796543
 31
0.0
  0
LINE
  5
25F
330
1F
100
AcDbEntity
  8
0-0
  6
JWW_DASHED1
 62
   120
370
     5
100
AcDbLine
 10
803.8961642891279
 20
-224.7462806444912
 30
0.0
 11
841.8961642891283
 21
-186.7462806444891
 31
0.0
  0
LINE
  5
260
330
1F
100
AcDbEntity
  8
0-0
  6
JWW_DASHED1
 62
   120
370
     5
100
AcDbLine
 10
803.8961642891279
 20
-214.8467857092778
 30
0.0
 11
841.8961642891351
 21
-176.8467857092651
 31
0.0
  0
LINE
  5
261
330
1F
100
AcDbEntity
  8
0-0
  6
JWW_DASHED1
 62
   120
370
     5
100
AcDbLine
 10
803.8961642891279
 20
-204.9472907740594
 30
0.0
 11
841.8961642891283
 21
-166.9472907740573
 31
0.0
  0
LINE
  5
262
330
1F
100
AcDbEntity
  8
0-0
  6
JWW_DASHED1
 62
   120
370
     5
100
AcDbLine
 10
803.8961642891279
 20
-195.0477958388976
 30
0.0
 11
841.8961642891317
 21
-157.0477958388921
 31
0.0
  0
LINE
  5
263
330
1F
100
AcDbEntity
  8
0-0
  6
JWW_DASHED1
 62
   120
370
     5
100
AcDbLine
 10
803.8961642891279
 20
-185.1483009036778
 30
0.0
 11
841.8961642891248
 21
-147.1483009036842
 31
0.0
  0
LINE
  5
264
330
1F
100
AcDbEntity
  8
0-0
  6
JWW_DASHED1
 62
   120
370
     5
100
AcDbLine
 10
803.8961642891279
 20
-175.2488059684939
 30
0.0
 11
841.8961642891283
 21
-137.24880596849
 31
0.0
  0
LINE
  5
265
330
1F
100
AcDbEntity
  8
0-0
  6
JWW_DASHED1
 62
   120
370
     5
100
AcDbLine
 10
803.8961642891279
 20
-165.3493110332963
 30
0.0
 11
841.8961642891351
 21
-127.3493110332954
 31
0.0
  0
LINE
  5
266
330
1F
100
AcDbEntity
  8
0-0
  6
JWW_DASHED1
 62
   120
370
     5
100
AcDbLine
 10
803.8961642891279
 20
-155.4498160980833
 30
0.0
 11
841.8961642891283
 21
-117.4498160980876
 31
0.0
  0
LINE
  5
267
330
1F
100
AcDbEntity
  8
0-0
  6
JWW_DASHED1
 62
   120
370
     5
100
AcDbLine
 10
803.8961642891279
 20
-145.5503211628934
 30
0.0
 11
841.8961642891317
 21
-107.550321162893
 31
0.0
  0
LINE
  5
268
330
1F
100
AcDbEntity
  8
0-0
  6
JWW_DASHED1
 62
   120
370
     5
100
AcDbLine
 10
803.8961642891279
 20
-135.6508262277111
 30
0.0
 11
841.8961642891214
 21
-97.65082622771416
 31
0.0
  0
LINE
  5
269
330
1F
100
AcDbEntity
  8
0-0
  6
JWW_DASHED1
 62
   120
370
     5
100
AcDbLine
 10
803.8961642891279
 20
-125.7513312924961
 30
0.0
 11
841.8961642891283
 21
-87.75133129249014
 31
0.0
  0
LINE
  5
26A
330
1F
100
AcDbEntity
  8
0-0
  6
JWW_DASHED1
 62
   120
370
     5
100
AcDbLine
 10
803.8961642891279
 20
-115.8518363573262
 30
0.0
 11
841.8961642891317
 21
-77.8518363573258
 31
0.0
  0
LINE
  5
26B
330
1F
100
AcDbEntity
  8
0-0
  6
JWW_DASHED1
 62
   120
370
     5
100
AcDbLine
 10
803.8961642891279
 20
-105.9523414221162
 30
0.0
 11
841.8961642891214
 21
-67.95234142211712
 31
0.0
  0
LINE
  5
26C
330
1F
100
AcDbEntity
  8
0-0
  6
JWW_DASHED1
 62
   120
370
     5
100
AcDbLine
 10
803.8961642891279
 20
-96.05284648689434
 30
0.0
 11
841.8961642891317
 21
-58.05284648689394
 31
0.0
  0
LINE
  5
26D
330
1F
100
AcDbEntity
  8
0-0
  6
JWW_DASHED1
 62
   120
370
     5
100
AcDbLine
 10
803.8961642891279
 20
-86.15335155173256
 30
0.0
 11
841.8961642891351
 21
-48.15335155172875
 31
0.0
  0
LINE
  5
26E
330
1F
100
AcDbEntity
  8
0-0
  6
JWW_DASHED1
 62
   120
370
     5
100
AcDbLine
 10
803.8961642891279
 20
-76.25385661651791
 30
0.0
 11
841.8961642891248
 21
-38.25385661652092
 31
0.0
  0
LINE
  5
26F
330
1F
100
AcDbEntity
  8
0-0
  6
JWW_DASHED1
 62
   120
370
     5
100
AcDbLine
 10
803.8961642891279
 20
-66.3543616813007
 30
0.0
 11
841.8961642891351
 21
-28.35436168129689
 31
0.0
  0
LINE
  5
270
330
1F
100
AcDbEntity
  8
0-0
  6
JWW_DASHED1
 62
   120
370
     5
100
AcDbLine
 10
803.8961642891279
 20
-56.45486674614233
 30
0.0
 11
841.8961642891351
 21
-18.4548667461317
 31
0.0
  0
LINE
  5
271
330
1F
100
AcDbEntity
  8
0-0
  6
JWW_DASHED1
 62
   120
370
     5
100
AcDbLine
 10
803.8961642891279
 20
-46.55537181092427
 30
0.0
 11
841.8961642891283
 21
-8.555371810923873
 31
0.0
  0
LINE
  5
272
330
1F
100
AcDbEntity
  8
0-0
  6
JWW_DASHED1
 62
   120
370
     5
100
AcDbLine
 10
803.8961642891279
 20
-36.65587687571048
 30
0.0
 11
841.8961642891351
 21
1.344123124300154
 31
0.0
  0
LINE
  5
273
330
1F
100
AcDbEntity
  8
0-0
  6
JWW_DASHED1
 62
   120
370
     5
100
AcDbLine
 10
803.8961642891279
 20
-26.75638194054358
 30
0.0
 11
841.8961642891317
 21
11.24361805945682
 31
0.0
  0
LINE
  5
274
330
1F
100
AcDbEntity
  8
0-0
  6
JWW_DASHED1
 62
   120
370
     5
100
AcDbLine
 10
803.8961642891279
 20
-16.85688700533234
 30
0.0
 11
841.8961642891317
 21
21.14311299467317
 31
0.0
  0
LINE
  5
275
330
1F
100
AcDbEntity
  8
0-0
  6
JWW_DASHED1
 62
   120
370
     5
100
AcDbLine
 10
803.8961642891279
 20
-6.957392070115986
 30
0.0
 11
841.8961642891214
 21
31.042607929881
 31
0.0
  0
LINE
  5
276
330
1F
100
AcDbEntity
  8
0-0
  6
JWW_DASHED1
 62
   120
370
     5
100
AcDbLine
 10
803.8961642891279
 20
2.942102865052618
 30
0.0
 11
841.8961642891248
 21
40.94210286504619
 31
0.0
  0
LINE
  5
277
330
1F
100
AcDbEntity
  8
0-0
  6
JWW_DASHED1
 62
   120
370
     5
100
AcDbLine
 10
803.8961642891279
 20
12.84159780026854
 30
0.0
 11
841.8961642891351
 21
50.84159780027022
 31
0.0
  0
LINE
  5
278
330
1F
100
AcDbEntity
  8
0-0
  6
JWW_DASHED1
 62
   120
370
     5
100
AcDbLine
 10
803.8961642891279
 20
22.74109273548447
 30
0.0
 11
841.8961642891248
 21
60.74109273547805
 31
0.0
  0
LINE
  5
279
330
1F
100
AcDbEntity
  8
0-0
  6
JWW_DASHED1
 62
   120
370
     5
100
AcDbLine
 10
803.8961642891279
 20
32.64058767063815
 30
0.0
 11
841.8961642891283
 21
70.64058767064324
 31
0.0
  0
LINE
  5
27A
330
1F
100
AcDbEntity
  8
0-0
  6
JWW_DASHED1
 62
   120
370
     5
100
AcDbLine
 10
803.8961642891279
 20
42.54008260585877
 30
0.0
 11
841.8961642891351
 21
80.54008260586684
 31
0.0
  0
LINE
  5
27B
330
1F
100
AcDbEntity
  8
0-0
  6
JWW_DASHED1
 62
   120
370
     5
100
AcDbLine
 10
803.8961642891279
 20
52.43957754107811
 30
0.0
 11
841.8961642891283
 21
90.4395775410751
 31
0.0
  0
LINE
  5
27C
330
1F
100
AcDbEntity
  8
0-0
  6
JWW_DASHED1
 62
   120
370
     5
100
AcDbLine
 10
803.8961642891279
 20
62.33907247623605
 30
0.0
 11
841.8961642891283
 21
100.3390724762399
 31
0.0
  0
LINE
  5
27D
330
1F
100
AcDbEntity
  8
0-0
  6
JWW_DASHED1
 62
   120
370
     5
100
AcDbLine
 10
803.8961642891279
 20
72.23856741145241
 30
0.0
 11
841.8961642891385
 21
110.2385674114639
 31
0.0
  0
LINE
  5
27E
330
1F
100
AcDbEntity
  8
0-0
  6
JWW_DASHED1
 62
   120
370
     5
100
AcDbLine
 10
803.8961642891279
 20
82.13806234666833
 30
0.0
 11
841.8961642891283
 21
120.1380623466721
 31
0.0
  0
LINE
  5
27F
330
1F
100
AcDbEntity
  8
0-0
  6
JWW_DASHED1
 62
   120
370
     5
100
AcDbLine
 10
803.8961642891279
 20
92.03755728182969
 30
0.0
 11
841.8961642891317
 21
130.0375572818369
 31
0.0
  0
LINE
  5
280
330
1F
100
AcDbEntity
  8
0-0
  6
JWW_DASHED1
 62
   120
370
     5
100
AcDbLine
 10
803.8961642891279
 20
101.9370522170465
 30
0.0
 11
841.8961642891248
 21
139.9370522170449
 31
0.0
  0
LINE
  5
281
330
1F
100
AcDbEntity
  8
0-0
  6
JWW_DASHED1
 62
   120
370
     5
100
AcDbLine
 10
803.8961642891279
 20
111.8365471522684
 30
0.0
 11
841.8961642891317
 21
149.8365471522688
 31
0.0
  0
LINE
  5
282
330
1F
100
AcDbEntity
  8
0-0
  6
JWW_DASHED1
 62
   120
370
     5
100
AcDbLine
 10
803.8961642891279
 20
121.736042087422
 30
0.0
 11
841.8961642891351
 21
159.736042087434
 31
0.0
  0
LINE
  5
283
330
1F
100
AcDbEntity
  8
0-0
  6
JWW_DASHED1
 62
   120
370
     5
100
AcDbLine
 10
803.8961642891279
 20
131.6355370226478
 30
0.0
 11
841.8961642891283
 21
169.6355370226418
 31
0.0
  0
LINE
  5
284
330
1F
100
AcDbEntity
  8
0-0
  6
JWW_DASHED1
 62
   120
370
     5
100
AcDbLine
 10
803.8961642891279
 20
141.5350319578612
 30
0.0
 11
841.8961642891351
 21
179.5350319578658
 31
0.0
  0
LINE
  5
285
330
1F
100
AcDbEntity
  8
0-0
  6
JWW_DASHED1
 62
   120
370
     5
100
AcDbLine
 10
803.8961642891279
 20
151.434526893017
 30
0.0
 11
841.8961642891214
 21
189.4345268930152
 31
0.0
  0
LINE
  5
286
330
1F
100
AcDbEntity
  8
0-0
  6
JWW_DASHED1
 62
   120
370
     5
100
AcDbLine
 10
803.8961642891279
 20
161.3340218282376
 30
0.0
 11
841.8961642891283
 21
199.3340218282388
 31
0.0
  0
LINE
  5
287
330
1F
100
AcDbEntity
  8
0-0
  6
JWW_DASHED1
 62
   120
370
     5
100
AcDbLine
 10
803.8961642891279
 20
171.2335167634518
 30
0.0
 11
841.8961642891351
 21
209.2335167634624
 31
0.0
  0
LINE
  5
288
330
1F
100
AcDbEntity
  8
0-0
  6
JWW_DASHED1
 62
   120
370
     5
100
AcDbLine
 10
803.8961642891279
 20
181.1330116986178
 30
0.0
 11
841.8961642891248
 21
219.1330116986121
 31
0.0
  0
LINE
  5
289
330
1F
100
AcDbEntity
  8
0-0
  6
JWW_DASHED1
 62
   120
370
     5
100
AcDbLine
 10
803.8961642891279
 20
191.0325066338304
 30
0.0
 11
841.8961642891317
 21
229.0325066338359
 31
0.0
  0
LINE
  5
28A
330
1F
100
AcDbEntity
  8
0-0
  6
JWW_DASHED1
 62
   120
370
     5
100
AcDbLine
 10
803.8961642891279
 20
200.9320015690489
 30
0.0
 11
841.8961642891351
 21
238.9320015690535
 31
0.0
  0
LINE
  5
28B
330
1F
100
AcDbEntity
  8
0-0
  6
JWW_DASHED1
 62
   120
370
     5
100
AcDbLine
 10
803.8961642891279
 20
210.8314965042111
 30
0.0
 11
841.8961642891283
 21
248.8314965042089
 31
0.0
  0
LINE
  5
28C
330
1F
100
AcDbEntity
  8
0-0
  6
JWW_DASHED1
 62
   120
370
     5
100
AcDbLine
 10
803.8961642891279
 20
220.7309914394317
 30
0.0
 11
841.8961642891351
 21
258.7309914394325
 31
0.0
  0
LINE
  5
28D
330
1F
100
AcDbEntity
  8
0-0
  6
JWW_DASHED1
 62
   120
370
     5
100
AcDbLine
 10
803.8961642891279
 20
230.6304863746391
 30
0.0
 11
841.8961642891248
 21
268.6304863746408
 31
0.0
  0
LINE
  5
28E
330
1F
100
AcDbEntity
  8
0-0
  6
JWW_DASHED1
 62
   120
370
     5
100
AcDbLine
 10
803.8961642891279
 20
240.5299813098015
 30
0.0
 11
841.8961642891283
 21
278.5299813098055
 31
0.0
  0
LINE
  5
28F
330
1F
100
AcDbEntity
  8
0-0
  6
JWW_DASHED1
 62
   120
370
     5
100
AcDbLine
 10
803.8961642891279
 20
250.4294762450236
 30
0.0
 11
841.8961642891214
 21
288.4294762450138
 31
0.0
  0
LINE
  5
290
330
1F
100
AcDbEntity
  8
0-0
  6
JWW_DASHED1
 62
   120
370
     5
100
AcDbLine
 10
803.8961642891279
 20
260.3289711802336
 30
0.0
 11
841.8961642891283
 21
298.3289711802374
 31
0.0
  0
LINE
  5
291
330
1F
100
AcDbEntity
  8
0-0
  6
JWW_DASHED1
 62
   120
370
     5
100
AcDbLine
 10
803.8961642891279
 20
270.2284661154022
 30
0.0
 11
841.8961642891317
 21
308.2284661154023
 31
0.0
  0
LINE
  5
292
330
1F
100
AcDbEntity
  8
0-0
  6
JWW_DASHED1
 62
   120
370
     5
100
AcDbLine
 10
803.8961642891279
 20
280.1279610506134
 30
0.0
 11
841.8961642891214
 21
318.1279610506104
 31
0.0
  0
LINE
  5
293
330
1F
100
AcDbEntity
  8
0-0
  6
JWW_DASHED1
 62
   120
370
     5
100
AcDbLine
 10
803.8961642891279
 20
290.027455985834
 30
0.0
 11
841.8961642891317
 21
328.0274559858344
 31
0.0
  0
LINE
  5
294
330
1F
100
AcDbEntity
  8
0-0
  6
JWW_DASHED1
 62
   120
370
     5
100
AcDbLine
 10
803.8961642891279
 20
299.926950920995
 30
0.0
 11
841.8961642891351
 21
337.9269509209996
 31
0.0
  0
LINE
  5
295
330
1F
100
AcDbEntity
  8
0-0
  6
JWW_DASHED1
 62
   120
370
     5
100
AcDbLine
 10
803.8961642891279
 20
309.8264458562096
 30
0.0
 11
841.8961642891248
 21
347.8264458562074
 31
0.0
  0
LINE
  5
296
330
1F
100
AcDbEntity
  8
0-0
  6
JWW_DASHED1
 62
   120
370
     5
100
AcDbLine
 10
803.8961642891279
 20
319.7259407914277
 30
0.0
 11
841.8961642891351
 21
357.7259407914315
 31
0.0
  0
LINE
  5
297
330
1F
100
AcDbEntity
  8
0-0
  6
JWW_DASHED1
 62
   120
370
     5
100
AcDbLine
 10
803.8961642891279
 20
329.6254357265848
 30
0.0
 11
841.8961642891351
 21
367.6254357265967
 31
0.0
  0
LINE
  5
298
330
1F
100
AcDbEntity
  8
0-0
  6
JWW_DASHED1
 62
   120
370
     5
100
AcDbLine
 10
803.8961642891279
 20
339.5249306618024
 30
0.0
 11
841.8961642891283
 21
377.5249306618045
 31
0.0
  0
LINE
  5
299
330
1F
100
AcDbEntity
  8
0-0
  6
JWW_DASHED1
 62
   120
370
     5
100
AcDbLine
 10
803.8961642891279
 20
349.4244255970166
 30
0.0
 11
841.8961642891351
 21
387.4244255970285
 31
0.0
  0
LINE
  5
29A
330
1F
100
AcDbEntity
  8
0-0
  6
JWW_DASHED1
 62
   120
370
     5
100
AcDbLine
 10
803.8961642891279
 20
359.3239205321861
 30
0.0
 11
841.8961642891385
 21
397.3239205321933
 31
0.0
  0
LINE
  5
29B
330
1F
100
AcDbEntity
  8
0-0
  6
JWW_DASHED1
 62
   120
370
     5
100
AcDbLine
 10
803.8961642891279
 20
369.2234154673958
 30
0.0
 11
841.8961642891317
 21
407.2234154674015
 31
0.0
  0
LINE
  5
29C
330
1F
100
AcDbEntity
  8
0-0
  6
JWW_DASHED1
 62
   120
370
     5
100
AcDbLine
 10
803.8961642891279
 20
379.1229104026121
 30
0.0
 11
841.8961642891214
 21
417.1229104026094
 31
0.0
  0
LINE
  5
29D
330
1F
100
AcDbEntity
  8
0-0
  6
JWW_DASHED1
 62
   120
370
     5
100
AcDbLine
 10
803.8961642891279
 20
389.0224053377739
 30
0.0
 11
841.8961642891248
 21
427.0224053377746
 31
0.0
  0
LINE
  5
29E
330
1F
100
AcDbEntity
  8
0-0
  6
JWW_DASHED1
 62
   120
370
     5
100
AcDbLine
 10
803.8961642891279
 20
398.9219002729971
 30
0.0
 11
841.8961642891351
 21
436.9219002729982
 31
0.0
  0
LINE
  5
29F
330
1F
100
AcDbEntity
  8
0-0
  6
JWW_DASHED1
 62
   120
370
     5
100
AcDbLine
 10
803.8961642891279
 20
408.8213952082128
 30
0.0
 11
841.8961642891248
 21
446.8213952082062
 31
0.0
  0
LINE
  5
2A0
330
1F
100
AcDbEntity
  8
0-0
  6
JWW_DASHED1
 62
   120
370
     5
100
AcDbLine
 10
803.8961642891279
 20
418.7208901433683
 30
0.0
 11
841.8961642891283
 21
456.7208901433712
 31
0.0
  0
LINE
  5
2A1
330
1F
100
AcDbEntity
  8
0-0
  6
JWW_DASHED1
 62
   120
370
     5
100
AcDbLine
 10
803.8961642891279
 20
428.6203850785871
 30
0.0
 11
841.8961642891351
 21
466.6203850785952
 31
0.0
  0
LINE
  5
2A2
330
1F
100
AcDbEntity
  8
0-0
  6
JWW_DASHED1
 62
   120
370
     5
100
AcDbLine
 10
803.8961642891279
 20
438.51988001378
 30
0.0
 11
841.8961642891248
 21
476.5198800137734
 31
0.0
  0
LINE
  5
2A3
330
1F
100
AcDbEntity
  8
0-0
  6
JWW_DASHED1
 62
   120
370
     5
100
AcDbLine
 10
803.8961642891279
 20
448.4193749489644
 30
0.0
 11
841.8961642891283
 21
486.4193749489682
 31
0.0
  0
LINE
  5
2A4
330
1F
100
AcDbEntity
  8
0-0
  6
JWW_DASHED1
 62
   120
370
     5
100
AcDbLine
 10
803.8961642891279
 20
458.3188698841799
 30
0.0
 11
841.8961642891385
 21
496.3188698841923
 31
0.0
  0
LINE
  5
2A5
330
1F
100
AcDbEntity
  8
0-0
  6
JWW_DASHED1
 62
   120
370
     5
100
AcDbLine
 10
803.8961642891279
 20
468.2183648193468
 30
0.0
 11
841.8961642891248
 21
506.2183648193412
 31
0.0
  0
LINE
  5
2A6
330
1F
100
AcDbEntity
  8
0-0
  6
JWW_DASHED1
 62
   120
370
     5
100
AcDbLine
 10
803.8961642891279
 20
478.1178597545568
 30
0.0
 11
841.8961642891317
 21
516.1178597545653
 31
0.0
  0
LINE
  5
2A7
330
1F
100
AcDbEntity
  8
0-0
  6
JWW_DASHED1
 62
   120
370
     5
100
AcDbLine
 10
803.8961642891279
 20
488.0173546897753
 30
0.0
 11
841.8961642891248
 21
526.0173546897731
 31
0.0
  0
LINE
  5
2A8
330
1F
100
AcDbEntity
  8
0-0
  6
JWW_DASHED1
 62
   120
370
     5
100
AcDbLine
 10
803.8961642891279
 20
497.9168496249434
 30
0.0
 11
841.8961642891283
 21
535.9168496249383
 31
0.0
  0
LINE
  5
2A9
330
1F
100
AcDbEntity
  8
0-0
  6
JWW_DASHED1
 62
   120
370
     5
100
AcDbLine
 10
803.8961642891279
 20
507.8163445601513
 30
0.0
 11
841.8961642891351
 21
545.816344560162
 31
0.0
  0
LINE
  5
2AA
330
1F
100
AcDbEntity
  8
0-0
  6
JWW_DASHED1
 62
   120
370
     5
100
AcDbLine
 10
803.8961642891279
 20
517.7158394953761
 30
0.0
 11
841.8961642891283
 21
555.7158394953701
 31
0.0
  0
LINE
  5
2AB
330
1F
100
AcDbEntity
  8
0-0
  6
JWW_DASHED1
 62
   120
370
     5
100
AcDbLine
 10
803.8961642891279
 20
527.6153344305264
 30
0.0
 11
841.8961642891283
 21
565.6153344305349
 31
0.0
  0
LINE
  5
2AC
330
1F
100
AcDbEntity
  8
0-0
  6
JWW_DASHED1
 62
   120
370
     5
100
AcDbLine
 10
803.8961642891279
 20
537.5148293657462
 30
0.0
 11
841.8961642891214
 21
575.5148293657431
 31
0.0
  0
LINE
  5
2AD
330
1F
100
AcDbEntity
  8
0-0
  6
JWW_DASHED1
 62
   120
370
     5
100
AcDbLine
 10
803.8961642891279
 20
547.4143243009655
 30
0.0
 11
841.8961642891283
 21
585.4143243009668
 31
0.0
  0
LINE
  5
2AE
330
1F
100
AcDbEntity
  8
0-0
  6
JWW_DASHED1
 62
   120
370
     5
100
AcDbLine
 10
803.8961642891279
 20
557.3138192361273
 30
0.0
 11
841.8961642891317
 21
595.313819236132
 31
0.0
  0
LINE
  5
2AF
330
1F
100
AcDbEntity
  8
0-0
  6
JWW_DASHED1
 62
   120
370
     5
100
AcDbLine
 10
803.8961642891279
 20
567.2133141713458
 30
0.0
 11
841.8961642891248
 21
605.2133141713402
 31
0.0
  0
LINE
  5
2B0
330
1F
100
AcDbEntity
  8
0-0
  6
JWW_DASHED1
 62
   120
370
     5
100
AcDbLine
 10
803.8961642891279
 20
577.1128091065583
 30
0.0
 11
841.8961642891317
 21
615.1128091065636
 31
0.0
  0
LINE
  5
2B1
330
1F
100
AcDbEntity
  8
0-0
  6
JWW_DASHED1
 62
   120
370
     5
100
AcDbLine
 10
803.8961642891279
 20
587.0123040417201
 30
0.0
 11
841.8961642891351
 21
625.0123040417291
 31
0.0
  0
LINE
  5
2B2
330
1F
100
AcDbEntity
  8
0-0
  6
JWW_DASHED1
 62
   120
370
     5
100
AcDbLine
 10
803.8961642891279
 20
596.9117989769398
 30
0.0
 11
841.8961642891283
 21
634.9117989769368
 31
0.0
  0
LINE
  5
2B3
330
1F
100
AcDbEntity
  8
0-0
  6
JWW_DASHED1
 62
   120
370
     5
100
AcDbLine
 10
803.8961642891279
 20
606.8112939121586
 30
0.0
 11
841.8961642891351
 21
644.8112939121609
 31
0.0
  0
LINE
  5
2B4
330
1F
100
AcDbEntity
  8
0-0
  6
JWW_DASHED1
 62
   120
370
     5
100
AcDbLine
 10
803.8961642891279
 20
616.7107888473104
 30
0.0
 11
841.8961642891351
 21
654.7107888473256
 31
0.0
  0
LINE
  5
2B5
330
1F
100
AcDbEntity
  8
0-0
  6
JWW_DASHED1
 62
   120
370
     5
100
AcDbLine
 10
803.8961642891279
 20
626.6102837825299
 30
0.0
 11
841.8961642891283
 21
664.6102837825339
 31
0.0
  0
LINE
  5
2B6
330
1F
100
AcDbEntity
  8
0-0
  6
JWW_DASHED1
 62
   120
370
     5
100
AcDbLine
 10
803.8961642891279
 20
636.509778717749
 30
0.0
 11
841.8961642891351
 21
674.5097787177579
 31
0.0
  0
LINE
  5
2B7
330
1F
100
AcDbEntity
  8
0-0
  6
JWW_DASHED1
 62
   120
370
     5
100
AcDbLine
 10
803.8961642891279
 20
646.409273652908
 30
0.0
 11
841.8961642891385
 21
684.4092736529205
 31
0.0
  0
LINE
  5
2B8
330
1F
100
AcDbEntity
  8
0-0
  6
JWW_DASHED1
 62
   120
370
     5
100
AcDbLine
 10
803.8961642891279
 20
656.3087685881296
 30
0.0
 11
841.8961642891317
 21
694.3087685881308
 31
0.0
  0
LINE
  5
2B9
330
1F
100
AcDbEntity
  8
0-0
  6
JWW_DASHED1
 62
   120
370
     5
100
AcDbLine
 10
803.8961642891279
 20
666.2082635233418
 30
0.0
 11
841.8961642891214
 21
704.2082635233387
 31
0.0
  0
LINE
  5
2BA
330
1F
100
AcDbEntity
  8
0-0
  6
JWW_DASHED1
 62
   120
370
     5
100
AcDbLine
 10
803.8961642891279
 20
676.1077584585091
 30
0.0
 11
841.8961642891283
 21
714.1077584585039
 31
0.0
  0
LINE
  5
2BB
330
1F
100
AcDbEntity
  8
0-0
  6
JWW_DASHED1
 62
   120
370
     5
100
AcDbLine
 10
803.8961642891279
 20
686.0072533937238
 30
0.0
 11
841.8961642891351
 21
724.0072533937275
 31
0.0
  0
LINE
  5
2BC
330
1F
100
AcDbEntity
  8
0-0
  6
JWW_DASHED1
 62
   120
370
     5
100
AcDbLine
 10
803.8961642891279
 20
695.9067483289352
 30
0.0
 11
841.8961642891248
 21
733.9067483289358
 31
0.0
  0
LINE
  5
2BD
330
1F
100
AcDbEntity
  8
0-0
  6
JWW_DASHED1
 62
   120
370
     5
100
AcDbLine
 10
803.8961642891279
 20
705.8062432640993
 30
0.0
 11
841.8961642891283
 21
743.8062432641002
 31
0.0
  0
LINE
  5
2BE
330
1F
100
AcDbEntity
  8
0-0
  6
JWW_DASHED1
 62
   120
370
     5
100
AcDbLine
 10
803.8961642891279
 20
715.7057381993134
 30
0.0
 11
841.8961642891351
 21
753.7057381993246
 31
0.0
  0
LINE
  5
2BF
330
1F
100
AcDbEntity
  8
0-0
  6
JWW_DASHED1
 62
   120
370
     5
100
AcDbLine
 10
803.8961642891279
 20
725.6052331345307
 30
0.0
 11
841.8961642891283
 21
763.6052331345329
 31
0.0
  0
LINE
  5
2C0
330
1F
100
AcDbEntity
  8
0-0
  6
JWW_DASHED1
 62
   120
370
     5
100
AcDbLine
 10
803.8961642891279
 20
735.504728069693
 30
0.0
 11
841.8961642891317
 21
773.5047280696976
 31
0.0
  0
LINE
  5
2C1
330
1F
100
AcDbEntity
  8
0-0
  6
JWW_DASHED1
 62
   120
370
     5
100
AcDbLine
 10
803.8961642891279
 20
745.404223004914
 30
0.0
 11
841.8961642891385
 21
783.404223004921
 31
0.0
  0
LINE
  5
2C2
330
1F
100
AcDbEntity
  8
0-0
  6
JWW_DASHED1
 62
   120
370
     5
100
AcDbLine
 10
803.8961642891279
 20
755.303717940121
 30
0.0
 11
841.8961642891283
 21
793.3037179401294
 31
0.0
  0
LINE
  5
2C3
330
1F
100
AcDbEntity
  8
0-0
  6
JWW_DASHED1
 62
   120
370
     5
100
AcDbLine
 10
803.8961642891279
 20
765.2032128752928
 30
0.0
 11
841.8961642891351
 21
803.2032128752946
 31
0.0
  0
LINE
  5
2C4
330
1F
100
AcDbEntity
  8
0-0
  6
JWW_DASHED1
 62
   120
370
     5
100
AcDbLine
 10
803.8961642891279
 20
775.102707810509
 30
0.0
 11
841.8961642891248
 21
813.1027078105019
 31
0.0
  0
LINE
  5
2C5
330
1F
100
AcDbEntity
  8
0-0
  6
JWW_DASHED1
 62
   120
370
     5
100
AcDbLine
 10
803.8961642891279
 20
785.0022027457255
 30
0.0
 11
841.8961642891351
 21
823.0022027457265
 31
0.0
  0
LINE
  5
2C6
330
1F
100
AcDbEntity
  8
0-0
  6
JWW_DASHED1
 62
   120
370
     5
100
AcDbLine
 10
803.8961642891279
 20
794.9016976808832
 30
0.0
 11
841.8961642891351
 21
832.9016976808913
 31
0.0
  0
LINE
  5
2C7
330
1F
100
AcDbEntity
  8
0-0
  6
JWW_DASHED1
 62
   120
370
     5
100
AcDbLine
 10
803.8961642891279
 20
804.8011926161025
 30
0.0
 11
841.8961642891283
 21
842.8011926160996
 31
0.0
  0
LINE
  5
2C8
330
1F
100
AcDbEntity
  8
0-0
  6
JWW_DASHED1
 62
   120
370
     5
100
AcDbLine
 10
803.8961642891279
 20
814.700687551315
 30
0.0
 11
841.8961642891351
 21
852.7006875513232
 31
0.0
  0
LINE
  5
2C9
330
1F
100
AcDbEntity
  8
0-0
  6
JWW_DASHED1
 62
   120
370
     5
100
AcDbLine
 10
803.8961642891279
 20
824.600182486475
 30
0.0
 11
841.8961642891214
 21
862.6001824864726
 31
0.0
  0
LINE
  5
2CA
330
1F
100
AcDbEntity
  8
0-0
  6
JWW_DASHED1
 62
   120
370
     5
100
AcDbLine
 10
803.8961642891279
 20
834.4996774216913
 30
0.0
 11
841.8961642891283
 21
872.4996774216966
 31
0.0
  0
LINE
  5
2CB
330
1F
100
AcDbEntity
  8
0-0
  6
JWW_DASHED1
 62
   120
370
     5
100
AcDbLine
 10
803.8961642891279
 20
844.3991723569087
 30
0.0
 11
841.8961642891385
 21
882.3991723569202
 31
0.0
  0
LINE
  5
2CC
330
1F
100
AcDbEntity
  8
0-0
  6
JWW_DASHED1
 62
   120
370
     5
100
AcDbLine
 10
803.8961642891279
 20
854.2986672920756
 30
0.0
 11
841.8961642891248
 21
892.298667292069
 31
0.0
  0
LINE
  5
2CD
330
1F
100
AcDbEntity
  8
0-0
  6
JWW_DASHED1
 62
   120
370
     5
100
AcDbLine
 10
803.8961642891279
 20
864.1981622272858
 30
0.0
 11
841.8961642891317
 21
902.1981622272932
 31
0.0
  0
LINE
  5
2CE
330
1F
100
AcDbEntity
  8
0-0
  6
JWW_DASHED1
 62
   120
370
     5
100
AcDbLine
 10
803.8961642891279
 20
874.0976571625083
 30
0.0
 11
841.8961642891419
 21
912.0976571625168
 31
0.0
  0
LINE
  5
2CF
330
1F
100
AcDbEntity
  8
0-0
  6
JWW_DASHED1
 62
   120
370
     5
100
AcDbLine
 10
803.8961642891279
 20
883.9971520976723
 30
0.0
 11
841.8961642891283
 21
921.9971520976662
 31
0.0
  0
LINE
  5
2D0
330
1F
100
AcDbEntity
  8
0-0
  6
JWW_DASHED1
 62
   120
370
     5
100
AcDbLine
 10
803.8961642891279
 20
893.8966470328796
 30
0.0
 11
841.8961642891351
 21
931.8966470328903
 31
0.0
  0
LINE
  5
2D1
330
1F
100
AcDbEntity
  8
0-0
  6
JWW_DASHED1
 62
   120
370
     5
100
AcDbLine
 10
803.8961642891279
 20
903.7961419681035
 30
0.0
 11
841.8961642891283
 21
941.796141968098
 31
0.0
  0
LINE
  5
2D2
330
1F
100
AcDbEntity
  8
0-0
  6
JWW_DASHED1
 62
   120
370
     5
100
AcDbLine
 10
803.8961642891279
 20
923.5951318384839
 30
0.0
 11
841.8961642891283
 21
961.5951318384728
 31
0.0
  0
LINE
  5
2D3
330
1F
100
AcDbEntity
  8
0-0
  6
JWW_DASHED1
 62
   120
370
     5
100
AcDbLine
 10
803.8961642891279
 20
913.6956369032653
 30
0.0
 11
841.8961642891283
 21
951.695636903259
 31
0.0
  0
LINE
  5
2D4
330
1F
100
AcDbEntity
  8
0-0
  6
JWW_DASHED1
 62
   120
370
     5
100
AcDbLine
 10
803.8961642891279
 20
-917.7109261082768
 30
0.0
 11
841.8961642891248
 21
-879.7109261082765
 31
0.0
  0
LINE
  5
2D5
330
1F
100
AcDbEntity
  8
0-0
  6
JWW_DASHED1
 62
   120
370
     5
100
AcDbLine
 10
803.8961642891279
 20
-927.6104210434412
 30
0.0
 11
841.8961642891248
 21
-889.6104210434416
 31
0.0
  0
LINE
  5
2D6
330
1F
100
AcDbEntity
  8
0-0
  6
JWW_DASHED1
 62
   120
370
     5
100
AcDbLine
 10
803.8961642891279
 20
-937.5099159786064
 30
0.0
 11
841.8961642891248
 21
-899.5099159786059
 31
0.0
  0
LINE
  5
2D7
330
1F
100
AcDbEntity
  8
0-0
  6
JWW_DASHED1
 62
   120
370
     5
100
AcDbLine
 10
806.6968448683731
 20
-944.608730334525
 30
0.0
 11
841.8961642891248
 21
-909.4094109137711
 31
0.0
  0
LINE
  5
2D8
330
1F
100
AcDbEntity
  8
0-0
  6
JWW_DASHED1
 62
   120
370
     5
100
AcDbLine
 10
836.3953296738653
 20
-944.608730334525
 30
0.0
 11
841.8961642891248
 21
-939.107895719265
 31
0.0
  0
LINE
  5
2D9
330
1F
100
AcDbEntity
  8
0-0
  6
JWW_DASHED1
 62
   120
370
     5
100
AcDbLine
 10
816.5963398035375
 20
-944.608730334525
 30
0.0
 11
841.8961642891248
 21
-919.3089058489354
 31
0.0
  0
LINE
  5
2DA
330
1F
100
AcDbEntity
  8
0-0
  6
JWW_DASHED1
 62
   120
370
     5
100
AcDbLine
 10
826.4958347387018
 20
-944.608730334525
 30
0.0
 11
841.8961642891248
 21
-929.2084007841006
 31
0.0
  0
LINE
  5
2DB
330
1F
100
AcDbEntity
  8
0-0
  6
JWW_DASHED1
 62
   120
370
     5
100
AcDbLine
 10
803.8961642891279
 20
933.4946267737024
 30
0.0
 11
841.8961642891283
 21
971.4946267736913
 31
0.0
  0
LINE
  5
2DC
330
1F
100
AcDbEntity
  8
0-0
  6
JWW_DASHED1
 62
   120
370
     5
100
AcDbLine
 10
803.8961642891279
 20
943.3941217089209
 30
0.0
 11
841.8961642891283
 21
981.3941217089098
 31
0.0
  0
LINE
  5
2DD
330
1F
100
AcDbEntity
  8
0-0
  6
JWW_DASHED1
 62
   120
370
     5
100
AcDbLine
 10
803.8961642891279
 20
953.2936166441393
 30
0.0
 11
841.8961642891283
 21
991.2936166441283
 31
0.0
  0
LINE
  5
2DE
330
1F
100
AcDbEntity
  8
0-0
  6
JWW_DASHED1
 62
   120
370
     5
100
AcDbLine
 10
803.8961642891279
 20
963.1931115793575
 30
0.0
 11
841.8961642891283
 21
1001.193111579347
 31
0.0
  0
LINE
  5
2DF
330
1F
100
AcDbEntity
  8
0-0
  6
JWW_DASHED1
 62
   120
370
     5
100
AcDbLine
 10
803.8961642891279
 20
973.0926065145763
 30
0.0
 11
841.8961642891283
 21
1011.092606514565
 31
0.0
  0
LINE
  5
2E0
330
1F
100
AcDbEntity
  8
0-0
  6
JWW_DASHED1
 62
   120
370
     5
100
AcDbLine
 10
803.8961642891279
 20
982.9921014497949
 30
0.0
 11
841.8961642891283
 21
1020.992101449784
 31
0.0
  0
LINE
  5
2E1
330
1F
100
AcDbEntity
  8
0-0
  6
JWW_DASHED1
 62
   120
370
     5
100
AcDbLine
 10
803.8961642891279
 20
1012.69058625545
 30
0.0
 11
813.5968476991563
 21
1022.391269665476
 31
0.0
  0
LINE
  5
2E2
330
1F
100
AcDbEntity
  8
0-0
  6
JWW_DASHED1
 62
   120
370
     5
100
AcDbLine
 10
803.8961642891279
 20
992.8915963850134
 30
0.0
 11
833.3958375695993
 21
1022.391269665476
 31
0.0
  0
LINE
  5
2E3
330
1F
100
AcDbEntity
  8
0-0
  6
JWW_DASHED1
 62
   120
370
     5
100
AcDbLine
 10
803.8961642891279
 20
1002.791091320232
 30
0.0
 11
823.4963426343778
 21
1022.391269665476
 31
0.0
  0
LINE
  5
2E4
330
1F
100
AcDbEntity
  8
寸法
  6
Continuous
 62
   120
370
     5
100
AcDbLine
 10
-1619.103835710872
 20
1074.391269665474
 30
0.0
 11
-1619.103835710872
 21
-972.6087303345264
 31
0.0
  0
LINE
  5
2E5
330
1F
100
AcDbEntity
  8
寸法
  6
Continuous
 62
   120
370
     5
100
AcDbLine
 10
-1619.103835710872
 20
1074.391269665474
 30
0.0
 11
-1219.10383571087
 21
1074.391269665474
 31
0.0
  0
LINE
  5
2E6
330
1F
100
AcDbEntity
  8
寸法
  6
Continuous
 62
   120
370
     5
100
AcDbLine
 10
-1619.103835710872
 20
-972.6087303345264
 30
0.0
 11
-1219.10383571087
 21
-972.6087303345264
 31
0.0
  0
LINE
  5
2E7
330
1F
100
AcDbEntity
  8
寸法
  6
Continuous
 62
   120
370
     5
100
AcDbLine
 10
-1419.103835710873
 20
-952.6087303345258
 30
0.0
 11
-1219.10383571087
 21
-952.6087303345258
 31
0.0
  0
LWPOLYLINE
  5
2E8
330
1F
100
AcDbEntity
  8
寸法
  6
Continuous
 62
     7
370
     9
100
AcDbPolyline
 90
        4
 70
     1
 43
3.0
 10
-1617.603835710872
 20
1074.391269665474
 42
0.4142135623731
 10
-1619.103835710872
 20
1075.891269665474
 42
0.4142135623731
 10
-1620.603835710872
 20
1074.391269665474
 42
0.4142135623731
 10
-1619.103835710872
 20
1072.891269665474
 42
0.4142135623731
  0
LWPOLYLINE
  5
2E9
330
1F
100
AcDbEntity
  8
寸法
  6
Continuous
 62
     7
370
     9
100
AcDbPolyline
 90
        4
 70
     1
 43
3.0
 10
-1617.603835710872
 20
-972.6087303345264
 42
0.4142135623731
 10
-1619.103835710872
 20
-971.1087303345265
 42
0.4142135623731
 10
-1620.603835710872
 20
-972.6087303345264
 42
0.4142135623731
 10
-1619.103835710872
 20
-974.1087303345263
 42
0.4142135623731
  0
LWPOLYLINE
  5
2EA
330
1F
100
AcDbEntity
  8
寸法
  6
Continuous
 62
     7
370
     9
100
AcDbPolyline
 90
        4
 70
     1
 43
3.0
 10
-1417.603835710873
 20
-952.6087303345258
 42
0.4142135623731
 10
-1419.103835710873
 20
-951.1087303345258
 42
0.4142135623731
 10
-1420.603835710873
 20
-952.6087303345258
 42
0.4142135623731
 10
-1419.103835710873
 20
-954.1087303345258
 42
0.4142135623731
  0
LINE
  5
2EB
330
1F
100
AcDbEntity
  8
寸法
  6
Continuous
 62
   120
370
     5
100
AcDbLine
 10
-1419.103835710873
 20
1030.391269665475
 30
0.0
 11
-1219.10383571087
 21
1030.391269665475
 31
0.0
  0
LINE
  5
2EC
330
1F
100
AcDbEntity
  8
寸法
  6
Continuous
 62
   120
370
     5
100
AcDbLine
 10
-1419.103835710873
 20
1030.391269665475
 30
0.0
 11
-1419.103835710873
 21
-952.6087303345258
 31
0.0
  0
LWPOLYLINE
  5
2ED
330
1F
100
AcDbEntity
  8
寸法
  6
Continuous
 62
     7
370
     9
100
AcDbPolyline
 90
        4
 70
     1
 43
3.0
 10
-1417.603835710873
 20
1030.391269665475
 42
0.4142135623731
 10
-1419.103835710873
 20
1031.891269665475
 42
0.4142135623731
 10
-1420.603835710873
 20
1030.391269665475
 42
0.4142135623731
 10
-1419.103835710873
 20
1028.891269665475
 42
0.4142135623731
  0
LINE
  5
2EE
330
1F
100
AcDbEntity
  8
寸法
  6
Continuous
 62
   120
370
     5
100
AcDbLine
 10
-1139.103835710872
 20
-1422.608730334526
 30
0.0
 11
-1139.103835710872
 21
-1022.608730334527
 31
0.0
  0
LINE
  5
2EF
330
1F
100
AcDbEntity
  8
寸法
  6
Continuous
 62
   120
370
     5
100
AcDbLine
 10
-1169.103835710872
 20
-1622.608730334526
 30
0.0
 11
-1169.103835710872
 21
-1022.608730334527
 31
0.0
  0
LINE
  5
2F0
330
1F
100
AcDbEntity
  8
寸法
  6
Continuous
 62
   120
370
     5
100
AcDbLine
 10
-1169.103835710872
 20
-1622.608730334526
 30
0.0
 11
2037.896164289129
 21
-1622.608730334526
 31
0.0
  0
LINE
  5
2F1
330
1F
100
AcDbEntity
  8
寸法
  6
Continuous
 62
   120
370
     5
100
AcDbLine
 10
2037.896164289129
 20
-1622.608730334526
 30
0.0
 11
2037.896164289129
 21
-1022.608730334526
 31
0.0
  0
LINE
  5
2F2
330
1F
100
AcDbEntity
  8
寸法
  6
Continuous
 62
   120
370
     5
100
AcDbLine
 10
-1142.103835710872
 20
-1222.608730334526
 30
0.0
 11
-1142.103835710872
 21
-1022.608730334527
 31
0.0
  0
LINE
  5
2F3
330
1F
100
AcDbEntity
  8
寸法
  6
Continuous
 62
   120
370
     5
100
AcDbLine
 10
-1142.103835710872
 20
-1222.608730334526
 30
0.0
 11
-332.1038357108715
 21
-1222.608730334526
 31
0.0
  0
LINE
  5
2F4
330
1F
100
AcDbEntity
  8
寸法
  6
Continuous
 62
   120
370
     5
100
AcDbLine
 10
-332.1038357108715
 20
-1222.608730334526
 30
0.0
 11
-332.1038357108715
 21
-1022.608730334527
 31
0.0
  0
LINE
  5
2F5
330
1F
100
AcDbEntity
  8
寸法
  6
Continuous
 62
   120
370
     5
100
AcDbLine
 10
-1139.103835710872
 20
-1422.608730334526
 30
0.0
 11
1197.896164289129
 21
-1422.608730334526
 31
0.0
  0
LINE
  5
2F6
330
1F
100
AcDbEntity
  8
寸法
  6
Continuous
 62
   120
370
     5
100
AcDbLine
 10
1197.896164289129
 20
-1422.608730334526
 30
0.0
 11
1197.896164289129
 21
-1022.608730334526
 31
0.0
  0
LWPOLYLINE
  5
2F7
330
1F
100
AcDbEntity
  8
寸法
  6
Continuous
 62
     7
370
     9
100
AcDbPolyline
 90
        4
 70
     1
 43
3.0
 10
-1137.603835710872
 20
-1422.608730334526
 42
0.4142135623731
 10
-1139.103835710872
 20
-1421.108730334526
 42
0.4142135623731
 10
-1140.603835710872
 20
-1422.608730334526
 42
0.4142135623731
 10
-1139.103835710872
 20
-1424.108730334526
 42
0.4142135623731
  0
LWPOLYLINE
  5
2F8
330
1F
100
AcDbEntity
  8
寸法
  6
Continuous
 62
     7
370
     9
100
AcDbPolyline
 90
        4
 70
     1
 43
3.0
 10
-1167.603835710872
 20
-1622.608730334526
 42
0.4142135623731
 10
-1169.103835710872
 20
-1621.108730334526
 42
0.4142135623731
 10
-1170.603835710872
 20
-1622.608730334526
 42
0.4142135623731
 10
-1169.103835710872
 20
-1624.108730334526
 42
0.4142135623731
  0
LWPOLYLINE
  5
2F9
330
1F
100
AcDbEntity
  8
寸法
  6
Continuous
 62
     7
370
     9
100
AcDbPolyline
 90
        4
 70
     1
 43
3.0
 10
2039.396164289128
 20
-1622.608730334526
 42
0.4142135623731
 10
2037.896164289129
 20
-1621.108730334526
 42
0.4142135623731
 10
2036.396164289129
 20
-1622.608730334526
 42
0.4142135623731
 10
2037.896164289129
 20
-1624.108730334526
 42
0.4142135623731
  0
LWPOLYLINE
  5
2FA
330
1F
100
AcDbEntity
  8
寸法
  6
Continuous
 62
     7
370
     9
100
AcDbPolyline
 90
        4
 70
     1
 43
3.0
 10
-1140.603835710872
 20
-1222.608730334526
 42
0.4142135623731
 10
-1142.103835710872
 20
-1221.108730334526
 42
0.4142135623731
 10
-1143.603835710872
 20
-1222.608730334526
 42
0.4142135623731
 10
-1142.103835710872
 20
-1224.108730334526
 42
0.4142135623731
  0
LWPOLYLINE
  5
2FB
330
1F
100
AcDbEntity
  8
寸法
  6
Continuous
 62
     7
370
     9
100
AcDbPolyline
 90
        4
 70
     1
 43
3.0
 10
-330.6038357108715
 20
-1222.608730334526
 42
0.4142135623731
 10
-332.1038357108715
 20
-1221.108730334526
 42
0.4142135623731
 10
-333.6038357108715
 20
-1222.608730334526
 42
0.4142135623731
 10
-332.1038357108715
 20
-1224.108730334526
 42
0.4142135623731
  0
LWPOLYLINE
  5
2FC
330
1F
100
AcDbEntity
  8
寸法
  6
Continuous
 62
     7
370
     9
100
AcDbPolyline
 90
        4
 70
     1
 43
3.0
 10
1199.396164289128
 20
-1422.608730334526
 42
0.4142135623731
 10
1197.896164289129
 20
-1421.108730334526
 42
0.4142135623731
 10
1196.396164289129
 20
-1422.608730334526
 42
0.4142135623731
 10
1197.896164289129
 20
-1424.108730334526
 42
0.4142135623731
  0
MTEXT
  5
2FD
330
1F
100
AcDbEntity
  8
寸法
  6
Continuous
 62
     7
370
    70
100
AcDbMText
 10
-1634.103835710872
 20
-164.2837303345253
 30
0.0
 40
57.14999999999999
 41
412.5
 46
0.0
 71
     7
 72
     1
  1
{\fＭＳ ゴシック|b0|i0|c128|p49;枠外＝2,047}
 11
6.123031769111886E-17
 21
1.0
 31
0.0
 73
     1
 44
1.0
  0
MTEXT
  5
2FE
330
1F
100
AcDbEntity
  8
寸法
  6
Continuous
 62
     7
370
    70
100
AcDbMText
 10
-1434.103835710873
 20
-170.2837303345258
 30
0.0
 40
57.14999999999999
 41
412.5
 46
0.0
 71
     7
 72
     1
  1
{\fＭＳ ゴシック|b0|i0|c128|p49;ＤＨ＝1,983}
 11
6.123031769111886E-17
 21
1.0
 31
0.0
 73
     1
 44
1.0
  0
MTEXT
  5
2FF
330
1F
100
AcDbEntity
  8
寸法
  6
Continuous
 62
     7
370
   211
100
AcDbMText
 10
-905.8538357108715
 20
-1216.533730334526
 30
0.0
 40
57.15
 41
337.5
 46
0.0
 71
     7
 72
     1
  1
{\fＭＳ ゴシック|b0|i0|c128|p49;ＤＷ＝810}
 73
     1
 44
1.0
  0
MTEXT
  5
300
330
1F
100
AcDbEntity
  8
寸法
  6
Continuous
 62
     7
370
   211
100
AcDbMText
 10
-251.8538357108738
 20
-1416.533730334526
 30
0.0
 40
57.15000000000001
 41
562.5
 46
0.0
 71
     7
 72
     1
  1
{\fＭＳ ゴシック|b0|i0|c128|p49;有効開口＝2,337}
 73
     1
 44
1.0
  0
MTEXT
  5
301
330
1F
100
AcDbEntity
  8
寸法
  6
Continuous
 62
     7
370
   211
100
AcDbMText
 10
228.1461642891263
 20
-1616.533730334526
 30
0.0
 40
57.14999999999999
 41
412.5
 46
0.0
 71
     7
 72
     1
  1
{\fＭＳ ゴシック|b0|i0|c128|p49;枠外＝3,207}
 73
     1
 44
1.0
  0
ENDSEC
  0
SECTION
  2
OBJECTS
  0
DICTIONARY
  5
C
330
0
100
AcDbDictionary
281
     1
  3
ACAD_GROUP
350
D
  3
ACAD_LAYOUT
350
1A
  3
ACAD_MATERIAL
350
3B
  3
ACAD_MLEADERSTYLE
350
303
  3
ACAD_MLINESTYLE
350
17
  3
ACAD_PLOTSETTINGS
350
19
  3
ACAD_PLOTSTYLENAME
350
E
  3
ACAD_TABLESTYLE
350
302
  3
ACAD_VISUALSTYLE
350
2A
  0
DICTIONARY
  5
D
102
{ACAD_REACTORS
330
C
102
}
330
C
100
AcDbDictionary
281
     1
  0
DICTIONARY
  5
1A
102
{ACAD_REACTORS
330
C
102
}
330
C
100
AcDbDictionary
281
     1
  3
Layout1
350
1E
  3
Layout2
350
26
  3
Model
350
22
  0
DICTIONARY
  5
3B
102
{ACAD_REACTORS
330
C
102
}
330
C
100
AcDbDictionary
281
     1
  3
ByBlock
350
3D
  3
ByLayer
350
3C
  3
Global
350
3E
  0
DICTIONARY
  5
303
102
{ACAD_REACTORS
330
C
102
}
330
C
100
AcDbDictionary
281
     1
  0
DICTIONARY
  5
17
102
{ACAD_REACTORS
330
C
102
}
330
C
100
AcDbDictionary
281
     1
  3
Standard
350
18
  0
DICTIONARY
  5
19
102
{ACAD_REACTORS
330
C
102
}
330
C
100
AcDbDictionary
281
     1
  0
ACDBDICTIONARYWDFLT
  5
E
102
{ACAD_REACTORS
330
C
102
}
330
C
100
AcDbDictionary
281
     1
  3
Normal
350
F
100
AcDbDictionaryWithDefault
340
F
  0
DICTIONARY
  5
302
102
{ACAD_REACTORS
330
C
102
}
330
C
100
AcDbDictionary
281
     1
  0
DICTIONARY
  5
2A
102
{ACAD_REACTORS
330
C
102
}
330
C
100
AcDbDictionary
281
     1
  3
2dWireframe
350
2F
  3
3D Hidden
350
31
  3
3dWireframe
350
30
  3
Basic
350
32
  3
Brighten
350
36
  3
ColorChange
350
3A
  3
Conceptual
350
34
  3
Dim
350
35
  3
Facepattern
350
39
  3
Flat
350
2B
  3
FlatWithEdges
350
2C
  3
Gouraud
350
2D
  3
GouraudWithEdges
350
2E
  3
Linepattern
350
38
  3
Realistic
350
33
  3
Thicken
350
37
  0
LAYOUT
  5
1E
102
{ACAD_REACTORS
330
1A
102
}
330
1A
100
AcDbPlotSettings
  1

  2
none_device
  4

  6

 40
0.0
 41
0.0
 42
0.0
 43
0.0
 44
0.0
 45
0.0
 46
0.0
 47
0.0
 48
0.0
 49
0.0
140
0.0
141
0.0
142
1.0
143
1.0
 70
   688
 72
     0
 73
     0
 74
     5
  7

 75
    16
 76
     0
 77
     5
 78
   300
147
1.0
148
0.0
149
0.0
100
AcDbLayout
  1
Layout1
 70
     1
 71
     1
 10
0.0
 20
0.0
 11
420.0
 21
297.0
 12
0.0
 22
0.0
 32
0.0
 14
1.000000000000000E+20
 24
1.000000000000000E+20
 34
1.000000000000000E+20
 15
-1.000000000000000E+20
 25
-1.000000000000000E+20
 35
-1.000000000000000E+20
146
0.0
 13
0.0
 23
0.0
 33
0.0
 16
1.0
 26
0.0
 36
0.0
 17
0.0
 27
1.0
 37
0.0
 76
     0
330
1B
  0
LAYOUT
  5
26
102
{ACAD_REACTORS
330
1A
102
}
330
1A
100
AcDbPlotSettings
  1

  2
none_device
  4

  6

 40
0.0
 41
0.0
 42
0.0
 43
0.0
 44
0.0
 45
0.0
 46
0.0
 47
0.0
 48
0.0
 49
0.0
140
0.0
141
0.0
142
1.0
143
1.0
 70
   688
 72
     0
 73
     0
 74
     5
  7

 75
    16
 76
     0
 77
     5
 78
   300
147
1.0
148
0.0
149
0.0
100
AcDbLayout
  1
Layout2
 70
     1
 71
     2
 10
0.0
 20
0.0
 11
0.0
 21
0.0
 12
0.0
 22
0.0
 32
0.0
 14
0.0
 24
0.0
 34
0.0
 15
0.0
 25
0.0
 35
0.0
146
0.0
 13
0.0
 23
0.0
 33
0.0
 16
1.0
 26
0.0
 36
0.0
 17
0.0
 27
1.0
 37
0.0
 76
     0
330
23
  0
LAYOUT
  5
22
102
{ACAD_REACTORS
330
1A
102
}
330
1A
100
AcDbPlotSettings
  1

  2
none_device
  4

  6

 40
0.0
 41
0.0
 42
0.0
 43
0.0
 44
0.0
 45
0.0
 46
0.0
 47
0.0
 48
0.0
 49
0.0
140
0.0
141
0.0
142
1.0
143
1.0
 70
  1712
 72
     0
 73
     0
 74
     0
  7

 75
     0
 76
     0
 77
     5
 78
   300
147
1.0
148
0.0
149
0.0
100
AcDbLayout
  1
Model
 70
     1
 71
     0
 10
-4455.0
 20
-3150.0
 11
4455.0
 21
3150.0
 12
0.0
 22
0.0
 32
0.0
 14
-4455.0
 24
-3150.0
 34
0.0
 15
4455.0
 25
3150.0
 35
0.0
146
0.0
 13
0.0
 23
0.0
 33
0.0
 16
1.0
 26
0.0
 36
0.0
 17
0.0
 27
1.0
 37
0.0
 76
     0
330
1F
331
29
  0
MATERIAL
  5
3D
102
{ACAD_REACTORS
330
3B
102
}
330
3B
100
AcDbMaterial
  1
ByBlock
 72
     1
 94
      127
  0
MATERIAL
  5
3C
102
{ACAD_REACTORS
330
3B
102
}
330
3B
100
AcDbMaterial
  1
ByLayer
 72
     1
 94
      127
  0
MATERIAL
  5
3E
102
{ACAD_REACTORS
330
3B
102
}
330
3B
100
AcDbMaterial
  1
Global
 72
     1
 94
      127
  0
MLINESTYLE
  5
18
102
{ACAD_REACTORS
330
17
102
}
330
17
100
AcDbMlineStyle
  2
Standard
 70
     0
  3

 62
   256
 51
90.0
 52
90.0
 71
     2
 49
0.5
 62
   256
  6
BYLAYER
 49
-0.5
 62
   256
  6
BYLAYER
  0
ACDBPLACEHOLDER
  5
F
102
{ACAD_REACTORS
330
E
102
}
330
E
  0
VISUALSTYLE
  5
2F
102
{ACAD_REACTORS
330
2A
102
}
330
2A
100
AcDbVisualStyle
  2
2dWireframe
 70
     4
177
     2
291
     0
 71
     0
176
     1
 72
     2
176
     1
 73
     0
176
     1
 90
        0
176
     1
 40
-0.6
176
     1
 41
-30.0
176
     1
 62
     5
 63
     7
421
 16777215
176
     1
 74
     1
176
     1
 91
        4
176
     1
 64
     7
176
     1
 65
   257
176
     1
 75
     1
176
     1
175
     1
176
     1
 42
1.0
176
     1
 92
        0
176
     1
 66
   257
176
     1
 43
1.0
176
     1
 76
     1
176
     1
 77
     6
176
     1
 78
     2
176
     1
 67
     7
176
     1
 79
     5
176
     1
170
     0
176
     1
171
     0
176
     1
290
     0
176
     1
 93
        1
176
     1
 44
0.0
176
     1
173
     0
176
     1
  0
VISUALSTYLE
  5
31
102
{ACAD_REACTORS
330
2A
102
}
330
2A
100
AcDbVisualStyle
  2
3D Hidden
 70
     6
177
     2
291
     0
 71
     1
176
     1
 72
     2
176
     1
 73
     2
176
     1
 90
        0
176
     1
 40
-0.6
176
     1
 41
-30.0
176
     1
 62
     5
 63
     7
421
 16777215
176
     1
 74
     2
176
     1
 91
        2
176
     1
 64
     7
176
     1
 65
   257
176
     1
 75
     2
176
     1
175
     1
176
     1
 42
40.0
176
     1
 92
        0
176
     1
 66
   257
176
     1
 43
1.0
176
     1
 76
     1
176
     1
 77
     6
176
     1
 78
     2
176
     1
 67
     7
176
     1
 79
     3
176
     1
170
     0
176
     1
171
     0
176
     1
290
     0
176
     1
 93
        1
176
     1
 44
0.0
176
     1
173
     0
176
     1
  0
VISUALSTYLE
  5
30
102
{ACAD_REACTORS
330
2A
102
}
330
2A
100
AcDbVisualStyle
  2
3dWireframe
 70
     5
177
     2
291
     0
 71
     0
176
     1
 72
     2
176
     1
 73
     0
176
     1
 90
        0
176
     1
 40
-0.6
176
     1
 41
-30.0
176
     1
 62
     5
 63
     7
421
 16777215
176
     1
 74
     1
176
     1
 91
        4
176
     1
 64
     7
176
     1
 65
   257
176
     1
 75
     1
176
     1
175
     1
176
     1
 42
1.0
176
     1
 92
        0
176
     1
 66
   257
176
     1
 43
1.0
176
     1
 76
     1
176
     1
 77
     6
176
     1
 78
     2
176
     1
 67
     7
176
     1
 79
     5
176
     1
170
     0
176
     1
171
     0
176
     1
290
     0
176
     1
 93
        1
176
     1
 44
0.0
176
     1
173
     0
176
     1
  0
VISUALSTYLE
  5
32
102
{ACAD_REACTORS
330
2A
102
}
330
2A
100
AcDbVisualStyle
  2
Basic
 70
     7
177
     2
291
     1
 71
     1
176
     1
 72
     0
176
     1
 73
     1
176
     1
 90
        0
176
     1
 40
-0.6
176
     1
 41
-30.0
176
     1
 62
     5
 63
     7
421
 16777215
176
     1
 74
     0
176
     1
 91
        4
176
     1
 64
     7
176
     1
 65
   257
176
     1
 75
     1
176
     1
175
     1
176
     1
 42
1.0
176
     1
 92
        8
176
     1
 66
     7
176
     1
 43
1.0
176
     1
 76
     1
176
     1
 77
     6
176
     1
 78
     2
176
     1
 67
     7
176
     1
 79
     5
176
     1
170
     0
176
     1
171
     0
176
     1
290
     0
176
     1
 93
        1
176
     1
 44
0.0
176
     1
173
     0
176
     1
  0
VISUALSTYLE
  5
36
102
{ACAD_REACTORS
330
2A
102
}
330
2A
100
AcDbVisualStyle
  2
Brighten
 70
    12
177
     2
291
     1
 71
     2
176
     1
 72
     2
176
     1
 73
     0
176
     1
 90
        0
176
     1
 40
-0.6
176
     1
 41
-30.0
176
     1
 62
     5
 63
     7
421
 16777215
176
     1
 74
     1
176
     1
 91
        4
176
     1
 64
     7
176
     1
 65
   257
176
     1
 75
     1
176
     1
175
     1
176
     1
 42
1.0
176
     1
 92
        8
176
     1
 66
     7
176
     1
 43
1.0
176
     1
 76
     1
176
     1
 77
     6
176
     1
 78
     2
176
     1
 67
     7
176
     1
 79
     5
176
     1
170
     0
176
     1
171
     0
176
     1
290
     0
176
     1
 93
        1
176
     1
 44
50.0
176
     1
173
     0
176
     1
  0
VISUALSTYLE
  5
3A
102
{ACAD_REACTORS
330
2A
102
}
330
2A
100
AcDbVisualStyle
  2
ColorChange
 70
    16
177
     2
291
     1
 71
     2
176
     1
 72
     2
176
     1
 73
     3
176
     1
 90
        0
176
     1
 40
-0.6
176
     1
 41
-30.0
176
     1
 62
     5
 63
     8
421
  8421504
176
     1
 74
     1
176
     1
 91
        4
176
     1
 64
     7
176
     1
 65
   257
176
     1
 75
     1
176
     1
175
     1
176
     1
 42
1.0
176
     1
 92
        8
176
     1
 66
     8
424
  8421504
176
     1
 43
1.0
176
     1
 76
     1
176
     1
 77
     6
176
     1
 78
     2
176
     1
 67
     7
176
     1
 79
     5
176
     1
170
     0
176
     1
171
     0
176
     1
290
     0
176
     1
 93
        1
176
     1
 44
0.0
176
     1
173
     0
176
     1
  0
VISUALSTYLE
  5
34
102
{ACAD_REACTORS
330
2A
102
}
330
2A
100
AcDbVisualStyle
  2
Conceptual
 70
     9
177
     2
291
     0
 71
     3
176
     1
 72
     2
176
     1
 73
     0
176
     1
 90
        0
176
     1
 40
-0.6
176
     1
 41
-30.0
176
     1
 62
     5
 63
     7
421
 16777215
176
     1
 74
     2
176
     1
 91
        2
176
     1
 64
     7
176
     1
 65
   257
176
     1
 75
     1
176
     1
175
     1
176
     1
 42
40.0
176
     1
 92
        8
176
     1
 66
     7
176
     1
 43
1.0
176
     1
 76
     1
176
     1
 77
     6
176
     1
 78
     2
176
     1
 67
     7
176
     1
 79
     3
176
     1
170
     0
176
     1
171
     0
176
     1
290
     0
176
     1
 93
        1
176
     1
 44
0.0
176
     1
173
     0
176
     1
  0
VISUALSTYLE
  5
35
102
{ACAD_REACTORS
330
2A
102
}
330
2A
100
AcDbVisualStyle
  2
Dim
 70
    11
177
     2
291
     1
 71
     2
176
     1
 72
     2
176
     1
 73
     0
176
     1
 90
        0
176
     1
 40
-0.6
176
     1
 41
-30.0
176
     1
 62
     5
 63
     7
421
 16777215
176
     1
 74
     1
176
     1
 91
        4
176
     1
 64
     7
176
     1
 65
   257
176
     1
 75
     1
176
     1
175
     1
176
     1
 42
1.0
176
     1
 92
        8
176
     1
 66
     7
176
     1
 43
1.0
176
     1
 76
     1
176
     1
 77
     6
176
     1
 78
     2
176
     1
 67
     7
176
     1
 79
     5
176
     1
170
     0
176
     1
171
     0
176
     1
290
     0
176
     1
 93
        1
176
     1
 44
-50.0
176
     1
173
     0
176
     1
  0
VISUALSTYLE
  5
39
102
{ACAD_REACTORS
330
2A
102
}
330
2A
100
AcDbVisualStyle
  2
Facepattern
 70
    15
177
     2
291
     1
 71
     2
176
     1
 72
     2
176
     1
 73
     0
176
     1
 90
        0
176
     1
 40
-0.6
176
     1
 41
-30.0
176
     1
 62
     5
 63
     7
421
 16777215
176
     1
 74
     1
176
     1
 91
        4
176
     1
 64
     7
176
     1
 65
   257
176
     1
 75
     1
176
     1
175
     1
176
     1
 42
1.0
176
     1
 92
        8
176
     1
 66
     7
176
     1
 43
1.0
176
     1
 76
     1
176
     1
 77
     6
176
     1
 78
     2
176
     1
 67
     7
176
     1
 79
     5
176
     1
170
     0
176
     1
171
     0
176
     1
290
     0
176
     1
 93
        1
176
     1
 44
0.0
176
     1
173
     0
176
     1
  0
VISUALSTYLE
  5
2B
102
{ACAD_REACTORS
330
2A
102
}
330
2A
100
AcDbVisualStyle
  2
Flat
 70
     0
177
     2
291
     1
 71
     2
176
     1
 72
     1
176
     1
 73
     1
176
     1
 90
        2
176
     1
 40
-0.6
176
     1
 41
30.0
176
     1
 62
     5
 63
     7
421
 16777215
176
     1
 74
     0
176
     1
 91
        4
176
     1
 64
     7
176
     1
 65
   257
176
     1
 75
     1
176
     1
175
     1
176
     1
 42
1.0
176
     1
 92
        8
176
     1
 66
     7
176
     1
 43
1.0
176
     1
 76
     1
176
     1
 77
     6
176
     1
 78
     2
176
     1
 67
     7
176
     1
 79
     5
176
     1
170
     0
176
     1
171
     0
176
     1
290
     0
176
     1
 93
       13
176
     1
 44
0.0
176
     1
173
     0
176
     1
  0
VISUALSTYLE
  5
2C
102
{ACAD_REACTORS
330
2A
102
}
330
2A
100
AcDbVisualStyle
  2
FlatWithEdges
 70
     1
177
     2
291
     1
 71
     2
176
     1
 72
     1
176
     1
 73
     1
176
     1
 90
        2
176
     1
 40
-0.6
176
     1
 41
30.0
176
     1
 62
     5
 63
     7
421
 16777215
176
     1
 74
     1
176
     1
 91
        4
176
     1
 64
     7
176
     1
 65
   257
176
     1
 75
     1
176
     1
175
     1
176
     1
 42
1.0
176
     1
 92
        0
176
     1
 66
   257
176
     1
 43
1.0
176
     1
 76
     1
176
     1
 77
     6
176
     1
 78
     2
176
     1
 67
     7
176
     1
 79
     5
176
     1
170
     0
176
     1
171
     0
176
     1
290
     0
176
     1
 93
       13
176
     1
 44
0.0
176
     1
173
     0
176
     1
  0
VISUALSTYLE
  5
2D
102
{ACAD_REACTORS
330
2A
102
}
330
2A
100
AcDbVisualStyle
  2
Gouraud
 70
     2
177
     2
291
     1
 71
     2
176
     1
 72
     2
176
     1
 73
     1
176
     1
 90
        2
176
     1
 40
-0.6
176
     1
 41
30.0
176
     1
 62
     5
 63
     7
421
 16777215
176
     1
 74
     0
176
     1
 91
        4
176
     1
 64
     7
176
     1
 65
   257
176
     1
 75
     1
176
     1
175
     1
176
     1
 42
1.0
176
     1
 92
        0
176
     1
 66
     7
176
     1
 43
1.0
176
     1
 76
     1
176
     1
 77
     6
176
     1
 78
     2
176
     1
 67
     7
176
     1
 79
     5
176
     1
170
     0
176
     1
171
     0
176
     1
290
     0
176
     1
 93
       13
176
     1
 44
0.0
176
     1
173
     0
176
     1
  0
VISUALSTYLE
  5
2E
102
{ACAD_REACTORS
330
2A
102
}
330
2A
100
AcDbVisualStyle
  2
GouraudWithEdges
 70
     3
177
     2
291
     1
 71
     2
176
     1
 72
     2
176
     1
 73
     1
176
     1
 90
        2
176
     1
 40
-0.6
176
     1
 41
30.0
176
     1
 62
     5
 63
     7
421
 16777215
176
     1
 74
     1
176
     1
 91
        4
176
     1
 64
     7
176
     1
 65
   257
176
     1
 75
     1
176
     1
175
     1
176
     1
 42
1.0
176
     1
 92
        0
176
     1
 66
   257
176
     1
 43
1.0
176
     1
 76
     1
176
     1
 77
     6
176
     1
 78
     2
176
     1
 67
     7
176
     1
 79
     5
176
     1
170
     0
176
     1
171
     0
176
     1
290
     0
176
     1
 93
       13
176
     1
 44
0.0
176
     1
173
     0
176
     1
  0
VISUALSTYLE
  5
38
102
{ACAD_REACTORS
330
2A
102
}
330
2A
100
AcDbVisualStyle
  2
Linepattern
 70
    14
177
     2
291
     1
 71
     2
176
     1
 72
     2
176
     1
 73
     0
176
     1
 90
        0
176
     1
 40
-0.6
176
     1
 41
-30.0
176
     1
 62
     5
 63
     7
421
 16777215
176
     1
 74
     1
176
     1
 91
        4
176
     1
 64
     7
176
     1
 65
   257
176
     1
 75
     7
176
     1
175
     7
176
     1
 42
1.0
176
     1
 92
        8
176
     1
 66
     7
176
     1
 43
1.0
176
     1
 76
     1
176
     1
 77
     6
176
     1
 78
     2
176
     1
 67
     7
176
     1
 79
     5
176
     1
170
     0
176
     1
171
     0
176
     1
290
     0
176
     1
 93
        1
176
     1
 44
0.0
176
     1
173
     0
176
     1
  0
VISUALSTYLE
  5
33
102
{ACAD_REACTORS
330
2A
102
}
330
2A
100
AcDbVisualStyle
  2
Realistic
 70
     8
177
     2
291
     0
 71
     2
176
     1
 72
     2
176
     1
 73
     0
176
     1
 90
        0
176
     1
 40
-0.6
176
     1
 41
-30.0
176
     1
 62
     5
 63
     7
421
 16777215
176
     1
 74
     1
176
     1
 91
        0
176
     1
 64
     7
176
     1
 65
   257
176
     1
 75
     1
176
     1
175
     1
176
     1
 42
1.0
176
     1
 92
        8
176
     1
 66
     8
424
  7895160
176
     1
 43
1.0
176
     1
 76
     1
176
     1
 77
     6
176
     1
 78
     2
176
     1
 67
     7
176
     1
 79
     5
176
     1
170
     0
176
     1
171
     0
176
     1
290
     0
176
     1
 93
       13
176
     1
 44
0.0
176
     1
173
     0
176
     1
  0
VISUALSTYLE
  5
37
102
{ACAD_REACTORS
330
2A
102
}
330
2A
100
AcDbVisualStyle
  2
Thicken
 70
    13
177
     2
291
     1
 71
     2
176
     1
 72
     2
176
     1
 73
     0
176
     1
 90
        0
176
     1
 40
-0.6
176
     1
 41
-30.0
176
     1
 62
     5
 63
     7
421
 16777215
176
     1
 74
     1
176
     1
 91
        4
176
     1
 64
     7
176
     1
 65
   257
176
     1
 75
     1
176
     1
175
     1
176
     1
 42
1.0
176
     1
 92
       12
176
     1
 66
     7
176
     1
 43
1.0
176
     1
 76
     1
176
     1
 77
     6
176
     1
 78
     2
176
     1
 67
     7
176
     1
 79
     5
176
     1
170
     0
176
     1
171
     0
176
     1
290
     0
176
     1
 93
        1
176
     1
 44
0.0
176
     1
173
     0
176
     1
  0
ENDSEC
  0
EOF
