  0
SECTION
  2
HEADER
  9
$ACADVER
  1
AC1024
  9
$ACADMAINTVER
 70
     6
  9
$DWGCODEPAGE
  3
ANSI_932
  9
$INSBASE
 10
0.0
 20
0.0
 30
0.0
  9
$EXTMIN
 10
-4455.0
 20
-3150.0
 30
0.0
  9
$EXTMAX
 10
4455.0
 20
3150.0
 30
0.0
  9
$LIMMIN
 10
-4455.0
 20
-3150.0
  9
$LIMMAX
 10
4455.0
 20
3150.0
  9
$ORTHOMODE
 70
     0
  9
$REGENMODE
 70
     1
  9
$FILLMODE
 70
     1
  9
$QTEXTMODE
 70
     0
  9
$MIRRTEXT
 70
     1
  9
$LTSCALE
 40
30.0
  9
$ATTMODE
 70
     1
  9
$TEXTSIZE
 40
2.5
  9
$TRACEWID
 40
1.0
  9
$TEXTSTYLE
  7
Standard
  9
$CLAYER
  8
0
  9
$CELTYPE
  6
ByLayer
  9
$CECOLOR
 62
   256
  9
$CELTSCALE
 40
1.0
  9
$DISPSILH
 70
     0
  9
$DIMSCALE
 40
1.0
  9
$DIMASZ
 40
2.5
  9
$DIMEXO
 40
0.625
  9
$DIMDLI
 40
3.75
  9
$DIMRND
 40
0.0
  9
$DIMDLE
 40
0.0
  9
$DIMEXE
 40
1.25
  9
$DIMTP
 40
0.0
  9
$DIMTM
 40
0.0
  9
$DIMTXT
 40
2.5
  9
$DIMCEN
 40
2.5
  9
$DIMTSZ
 40
0.0
  9
$DIMTOL
 70
     0
  9
$DIMLIM
 70
     0
  9
$DIMTIH
 70
     0
  9
$DIMTOH
 70
     0
  9
$DIMSE1
 70
     0
  9
$DIMSE2
 70
     0
  9
$DIMTAD
 70
     1
  9
$DIMZIN
 70
     8
  9
$DIMBLK
  1

  9
$DIMASO
 70
     1
  9
$DIMSHO
 70
     1
  9
$DIMPOST
  1

  9
$DIMAPOST
  1

  9
$DIMALT
 70
     0
  9
$DIMALTD
 70
     3
  9
$DIMALTF
 40
0.03937007874016
  9
$DIMLFAC
 40
1.0
  9
$DIMTOFL
 70
     1
  9
$DIMTVP
 40
0.0
  9
$DIMTIX
 70
     0
  9
$DIMSOXD
 70
     0
  9
$DIMSAH
 70
     0
  9
$DIMBLK1
  1

  9
$DIMBLK2
  1

  9
$DIMSTYLE
  2
ISO-25
  9
$DIMCLRD
 70
     0
  9
$DIMCLRE
 70
     0
  9
$DIMCLRT
 70
     0
  9
$DIMTFAC
 40
1.0
  9
$DIMGAP
 40
0.625
  9
$DIMJUST
 70
     0
  9
$DIMSD1
 70
     0
  9
$DIMSD2
 70
     0
  9
$DIMTOLJ
 70
     0
  9
$DIMTZIN
 70
     8
  9
$DIMALTZ
 70
     0
  9
$DIMALTTZ
 70
     0
  9
$DIMUPT
 70
     0
  9
$DIMDEC
 70
     2
  9
$DIMTDEC
 70
     2
  9
$DIMALTU
 70
     2
  9
$DIMALTTD
 70
     3
  9
$DIMTXSTY
  7
Standard
  9
$DIMAUNIT
 70
     0
  9
$DIMADEC
 70
     0
  9
$DIMALTRND
 40
0.0
  9
$DIMAZIN
 70
     0
  9
$DIMDSEP
 70
    44
  9
$DIMATFIT
 70
     3
  9
$DIMFRAC
 70
     0
  9
$DIMLDRBLK
  1

  9
$DIMLUNIT
 70
     2
  9
$DIMLWD
 70
    -2
  9
$DIMLWE
 70
    -2
  9
$DIMTMOVE
 70
     0
  9
$DIMFXL
 40
1.0
  9
$DIMFXLON
 70
     0
  9
$DIMJOGANG
 40
0.7853981633974483
  9
$DIMTFILL
 70
     0
  9
$DIMTFILLCLR
 70
     0
  9
$DIMARCSYM
 70
     0
  9
$DIMLTYPE
  6

  9
$DIMLTEX1
  6

  9
$DIMLTEX2
  6

  9
$DIMTXTDIRECTION
 70
     0
  9
$LUNITS
 70
     2
  9
$LUPREC
 70
     4
  9
$SKETCHINC
 40
1.0
  9
$FILLETRAD
 40
10.0
  9
$AUNITS
 70
     0
  9
$AUPREC
 70
     0
  9
$MENU
  1
.
  9
$ELEVATION
 40
0.0
  9
$PELEVATION
 40
0.0
  9
$THICKNESS
 40
0.0
  9
$LIMCHECK
 70
     0
  9
$CHAMFERA
 40
10.0
  9
$CHAMFERB
 40
10.0
  9
$CHAMFERC
 40
20.0
  9
$CHAMFERD
 40
0.0
  9
$SKPOLY
 70
     0
  9
$TDCREATE
 40
2457953.401044977
  9
$TDUCREATE
 40
2457953.026044977
  9
$TDUPDATE
 40
2457953.401044989
  9
$TDUUPDATE
 40
2457953.026044989
  9
$TDINDWG
 40
0.0000000116
  9
$TDUSRTIMER
 40
0.0000000116
  9
$USRTIMER
 70
     1
  9
$ANGBASE
 50
0.0
  9
$ANGDIR
 70
     0
  9
$PDMODE
 70
     0
  9
$PDSIZE
 40
0.0
  9
$PLINEWID
 40
0.0
  9
$SPLFRAME
 70
     0
  9
$SPLINETYPE
 70
     6
  9
$SPLINESEGS
 70
     8
  9
$HANDSEED
  5
3F7
  9
$SURFTAB1
 70
     6
  9
$SURFTAB2
 70
     6
  9
$SURFTYPE
 70
     6
  9
$SURFU
 70
     6
  9
$SURFV
 70
     6
  9
$UCSBASE
  2

  9
$UCSNAME
  2

  9
$UCSORG
 10
0.0
 20
0.0
 30
0.0
  9
$UCSXDIR
 10
1.0
 20
0.0
 30
0.0
  9
$UCSYDIR
 10
0.0
 20
1.0
 30
0.0
  9
$UCSORTHOREF
  2

  9
$UCSORTHOVIEW
 70
     0
  9
$UCSORGTOP
 10
0.0
 20
0.0
 30
0.0
  9
$UCSORGBOTTOM
 10
0.0
 20
0.0
 30
0.0
  9
$UCSORGLEFT
 10
0.0
 20
0.0
 30
0.0
  9
$UCSORGRIGHT
 10
0.0
 20
0.0
 30
0.0
  9
$UCSORGFRONT
 10
0.0
 20
0.0
 30
0.0
  9
$UCSORGBACK
 10
0.0
 20
0.0
 30
0.0
  9
$PUCSBASE
  2

  9
$PUCSNAME
  2

  9
$PUCSORG
 10
0.0
 20
0.0
 30
0.0
  9
$PUCSXDIR
 10
1.0
 20
0.0
 30
0.0
  9
$PUCSYDIR
 10
0.0
 20
1.0
 30
0.0
  9
$PUCSORTHOREF
  2

  9
$PUCSORTHOVIEW
 70
     0
  9
$PUCSORGTOP
 10
0.0
 20
0.0
 30
0.0
  9
$PUCSORGBOTTOM
 10
0.0
 20
0.0
 30
0.0
  9
$PUCSORGLEFT
 10
0.0
 20
0.0
 30
0.0
  9
$PUCSORGRIGHT
 10
0.0
 20
0.0
 30
0.0
  9
$PUCSORGFRONT
 10
0.0
 20
0.0
 30
0.0
  9
$PUCSORGBACK
 10
0.0
 20
0.0
 30
0.0
  9
$USERI1
 70
     0
  9
$USERI2
 70
     0
  9
$USERI3
 70
     0
  9
$USERI4
 70
     0
  9
$USERI5
 70
     0
  9
$USERR1
 40
0.0
  9
$USERR2
 40
0.0
  9
$USERR3
 40
0.0
  9
$USERR4
 40
0.0
  9
$USERR5
 40
0.0
  9
$WORLDVIEW
 70
     1
  9
$SHADEDGE
 70
     3
  9
$SHADEDIF
 70
    70
  9
$TILEMODE
 70
     1
  9
$MAXACTVP
 70
    64
  9
$PINSBASE
 10
0.0
 20
0.0
 30
0.0
  9
$PLIMCHECK
 70
     0
  9
$PEXTMIN
 10
1.000000000000000E+20
 20
1.000000000000000E+20
 30
1.000000000000000E+20
  9
$PEXTMAX
 10
-1.000000000000000E+20
 20
-1.000000000000000E+20
 30
-1.000000000000000E+20
  9
$PLIMMIN
 10
0.0
 20
0.0
  9
$PLIMMAX
 10
420.0
 20
297.0
  9
$UNITMODE
 70
     0
  9
$VISRETAIN
 70
     1
  9
$PLINEGEN
 70
     0
  9
$PSLTSCALE
 70
     1
  9
$TREEDEPTH
 70
  3020
  9
$CMLSTYLE
  2
Standard
  9
$CMLJUST
 70
     0
  9
$CMLSCALE
 40
20.0
  9
$PROXYGRAPHICS
 70
     1
  9
$MEASUREMENT
 70
     1
  9
$CELWEIGHT
370
    -1
  9
$ENDCAPS
280
     0
  9
$JOINSTYLE
280
     0
  9
$LWDISPLAY
290
     0
  9
$INSUNITS
 70
     4
  9
$HYPERLINKBASE
  1

  9
$STYLESHEET
  1

  9
$XEDIT
290
     1
  9
$CEPSNTYPE
380
     0
  9
$PSTYLEMODE
290
     1
  9
$FINGERPRINTGUID
  2
{FA6CC4E7-E010-4D4A-A1EC-AE4EA967F63B}
  9
$VERSIONGUID
  2
{FAEB1C32-E019-11D5-929B-00C0DF256EC4}
  9
$EXTNAMES
290
     1
  9
$PSVPSCALE
 40
0.0
  9
$OLESTARTUP
290
     0
  9
$SORTENTS
280
   127
  9
$INDEXCTL
280
     0
  9
$HIDETEXT
280
     1
  9
$XCLIPFRAME
280
     2
  9
$HALOGAP
280
     0
  9
$OBSCOLOR
 70
   257
  9
$OBSLTYPE
280
     0
  9
$INTERSECTIONDISPLAY
280
     0
  9
$INTERSECTIONCOLOR
 70
   257
  9
$DIMASSOC
280
     2
  9
$PROJECTNAME
  1

  9
$CAMERADISPLAY
290
     0
  9
$LENSLENGTH
 40
50.0
  9
$CAMERAHEIGHT
 40
0.0
  9
$STEPSPERSEC
 40
2.0
  9
$STEPSIZE
 40
6.0
  9
$3DDWFPREC
 40
2.0
  9
$PSOLWIDTH
 40
5.0
  9
$PSOLHEIGHT
 40
80.0
  9
$LOFTANG1
 40
1.570796326794897
  9
$LOFTANG2
 40
1.570796326794897
  9
$LOFTMAG1
 40
0.0
  9
$LOFTMAG2
 40
0.0
  9
$LOFTPARAM
 70
     7
  9
$LOFTNORMALS
280
     1
  9
$LATITUDE
 40
37.795
  9
$LONGITUDE
 40
-122.394
  9
$NORTHDIRECTION
 40
0.0
  9
$TIMEZONE
 70
 -8000
  9
$LIGHTGLYPHDISPLAY
280
     1
  9
$TILEMODELIGHTSYNCH
280
     1
  9
$SOLIDHIST
280
     1
  9
$SHOWHIST
280
     1
  9
$DWFFRAME
280
     2
  9
$DGNFRAME
280
     2
  9
$REALWORLDSCALE
290
     1
  9
$INTERFERECOLOR
 62
   256
  9
$CSHADOW
280
     0
  9
$SHADOWPLANELOCATION
 40
0.0
  0
ENDSEC
  0
SECTION
  2
CLASSES
  0
CLASS
  1
ACDBDICTIONARYWDFLT
  2
AcDbDictionaryWithDefault
  3
ObjectDBX Classes
 90
        0
 91
        4
280
     0
281
     0
  0
CLASS
  1
VISUALSTYLE
  2
AcDbVisualStyle
  3
ObjectDBX Classes
 90
     4095
 91
        4
280
     0
281
     0
  0
CLASS
  1
MATERIAL
  2
AcDbMaterial
  3
ObjectDBX Classes
 90
     1153
 91
        4
280
     0
281
     0
  0
ENDSEC
  0
SECTION
  2
TABLES
  0
TABLE
  2
VPORT
  5
8
330
0
100
AcDbSymbolTable
 70
     1
  0
VPORT
  5
29
330
8
100
AcDbSymbolTableRecord
100
AcDbViewportTableRecord
  2
*Active
 70
     0
 10
0.0
 20
0.0
 11
1.0
 21
1.0
 12
0.0
 22
0.0
 13
0.0
 23
0.0
 14
10.0
 24
10.0
 15
10.0
 25
10.0
 16
0.0
 26
0.0
 36
1.0
 17
0.0
 27
0.0
 37
0.0
 40
6930.000000000001
 41
1.414285714285714
 42
50.0
 43
0.0
 44
0.0
 50
0.0
 51
0.0
 71
     0
 72
 10000
 73
     1
 74
     3
 75
     0
 76
     0
 77
     0
 78
     0
281
     0
 65
     1
110
0.0
120
0.0
130
0.0
111
1.0
121
0.0
131
0.0
112
0.0
122
1.0
132
0.0
 79
     0
146
0.0
 60
     3
 61
     5
292
     1
282
     1
141
0.0
142
0.0
 63
   250
  0
ENDTAB
  0
TABLE
  2
LTYPE
  5
5
330
0
100
AcDbSymbolTable
 70
     2
  0
LTYPE
  5
14
330
5
100
AcDbSymbolTableRecord
100
AcDbLinetypeTableRecord
  2
ByBlock
 70
     0
  3

 72
    65
 73
     0
 40
0.0
  0
LTYPE
  5
15
330
5
100
AcDbSymbolTableRecord
100
AcDbLinetypeTableRecord
  2
ByLayer
 70
     0
  3

 72
    65
 73
     0
 40
0.0
  0
LTYPE
  5
16
330
5
100
AcDbSymbolTableRecord
100
AcDbLinetypeTableRecord
  2
Continuous
 70
     0
  3
Solid line
 72
    65
 73
     0
 40
0.0
  0
LTYPE
  5
3F
330
5
100
AcDbSymbolTableRecord
100
AcDbLinetypeTableRecord
  2
JWW_DASHED1
 70
     0
  3
-  --  --  --  --  --  --  --  -
 72
    65
 73
     2
 40
1.693333333333333
 49
0.8466666666666667
 74
     0
 49
-0.8466666666666667
 74
     0
  0
ENDTAB
  0
TABLE
  2
LAYER
  5
2
330
0
100
AcDbSymbolTable
 70
     3
  0
LAYER
  5
10
330
2
100
AcDbSymbolTableRecord
100
AcDbLayerTableRecord
  2
0
 70
     0
 62
     7
  6
Continuous
370
    -3
390
F
347
3E
  0
LAYER
  5
40
330
2
100
AcDbSymbolTableRecord
100
AcDbLayerTableRecord
  2
寸法
 70
     0
 62
     7
  6
Continuous
370
    -3
390
F
347
3E
  0
LAYER
  5
41
330
2
100
AcDbSymbolTableRecord
100
AcDbLayerTableRecord
  2
0-0
 70
     0
 62
     7
  6
Continuous
370
    -3
390
F
347
3E
  0
ENDTAB
  0
TABLE
  2
STYLE
  5
3
330
0
100
AcDbSymbolTable
 70
     1
  0
STYLE
  5
11
330
3
100
AcDbSymbolTableRecord
100
AcDbTextStyleTableRecord
  2
Standard
 70
     0
 40
0.0
 41
1.0
 50
0.0
 71
     0
 42
2.5
  3
txt
  4

  0
ENDTAB
  0
TABLE
  2
VIEW
  5
6
330
0
100
AcDbSymbolTable
 70
     0
  0
ENDTAB
  0
TABLE
  2
UCS
  5
7
330
0
100
AcDbSymbolTable
 70
     0
  0
ENDTAB
  0
TABLE
  2
APPID
  5
9
330
0
100
AcDbSymbolTable
 70
     1
  0
APPID
  5
12
330
9
100
AcDbSymbolTableRecord
100
AcDbRegAppTableRecord
  2
ACAD
 70
     0
  0
ENDTAB
  0
TABLE
  2
DIMSTYLE
  5
A
330
0
100
AcDbSymbolTable
 70
     1
100
AcDbDimStyleTable
  0
DIMSTYLE
105
27
330
A
100
AcDbSymbolTableRecord
100
AcDbDimStyleTableRecord
  2
ISO-25
 70
     0
 41
2.5
 42
0.625
 43
3.75
 44
1.25
 73
     0
 74
     0
 77
     1
 78
     8
140
2.5
141
2.5
143
0.03937007874016
147
0.625
171
     3
172
     1
178
     0
271
     2
272
     2
274
     3
278
    44
283
     0
284
     8
340
11
  0
ENDTAB
  0
TABLE
  2
BLOCK_RECORD
  5
1
330
0
100
AcDbSymbolTable
 70
     1
  0
BLOCK_RECORD
  5
1F
330
1
100
AcDbSymbolTableRecord
100
AcDbBlockTableRecord
  2
*Model_Space
340
22
 70
     0
280
     1
281
     0
  0
BLOCK_RECORD
  5
1B
330
1
100
AcDbSymbolTableRecord
100
AcDbBlockTableRecord
  2
*Paper_Space
340
1E
 70
     0
280
     1
281
     0
  0
BLOCK_RECORD
  5
23
330
1
100
AcDbSymbolTableRecord
100
AcDbBlockTableRecord
  2
*Paper_Space0
340
26
 70
     0
280
     1
281
     0
  0
ENDTAB
  0
ENDSEC
  0
SECTION
  2
BLOCKS
  0
BLOCK
  5
20
330
1F
100
AcDbEntity
  8
0
100
AcDbBlockBegin
  2
*Model_Space
 70
     0
 10
0.0
 20
0.0
 30
0.0
  3
*Model_Space
  1

  0
ENDBLK
  5
21
330
1F
100
AcDbEntity
  8
0
100
AcDbBlockEnd
  0
BLOCK
  5
1C
330
1B
100
AcDbEntity
 67
     1
  8
0
100
AcDbBlockBegin
  2
*Paper_Space
 70
     0
 10
0.0
 20
0.0
 30
0.0
  3
*Paper_Space
  1

  0
ENDBLK
  5
1D
330
1B
100
AcDbEntity
 67
     1
  8
0
100
AcDbBlockEnd
  0
BLOCK
  5
24
330
23
100
AcDbEntity
  8
0
100
AcDbBlockBegin
  2
*Paper_Space0
 70
     0
 10
0.0
 20
0.0
 30
0.0
  3
*Paper_Space0
  1

  0
ENDBLK
  5
25
330
23
100
AcDbEntity
  8
0
100
AcDbBlockEnd
  0
ENDSEC
  0
SECTION
  2
ENTITIES
  0
MTEXT
  5
42
330
1F
100
AcDbEntity
  8
寸法
  6
Continuous
 62
     7
370
   211
100
AcDbMText
 10
217.1634065979637
 20
-1826.373725295574
 30
0.0
 40
57.14999999999999
 41
412.5
 46
0.0
 71
     7
 72
     1
  1
{\fＭＳ ゴシック|b0|i0|c128|p49;枠外＝3,207}
 73
     1
 44
1.0
  0
MTEXT
  5
43
330
1F
100
AcDbEntity
  8
寸法
  6
Continuous
 62
     7
370
   211
100
AcDbMText
 10
-262.8365934020363
 20
-1626.373725295575
 30
0.0
 40
57.15000000000001
 41
562.5
 46
0.0
 71
     7
 72
     1
  1
{\fＭＳ ゴシック|b0|i0|c128|p49;有効開口＝2,337}
 73
     1
 44
1.0
  0
MTEXT
  5
44
330
1F
100
AcDbEntity
  8
寸法
  6
Continuous
 62
     7
370
   211
100
AcDbMText
 10
-916.836593402034
 20
-1426.373725295575
 30
0.0
 40
57.15
 41
337.5
 46
0.0
 71
     7
 72
     1
  1
{\fＭＳ ゴシック|b0|i0|c128|p49;ＤＷ＝810}
 73
     1
 44
1.0
  0
MTEXT
  5
45
330
1F
100
AcDbEntity
  8
寸法
  6
Continuous
 62
     7
370
    70
100
AcDbMText
 10
-1445.086593402035
 20
-380.1237252955744
 30
0.0
 40
57.14999999999999
 41
412.5
 46
0.0
 71
     7
 72
     1
  1
{\fＭＳ ゴシック|b0|i0|c128|p49;ＤＨ＝1,983}
 11
6.123031769111886E-17
 21
1.0
 31
0.0
 73
     1
 44
1.0
  0
MTEXT
  5
46
330
1F
100
AcDbEntity
  8
寸法
  6
Continuous
 62
     7
370
    70
100
AcDbMText
 10
-1645.086593402034
 20
-374.1237252955739
 30
0.0
 40
57.14999999999999
 41
412.5
 46
0.0
 71
     7
 72
     1
  1
{\fＭＳ ゴシック|b0|i0|c128|p49;枠外＝2,047}
 11
6.123031769111886E-17
 21
1.0
 31
0.0
 73
     1
 44
1.0
  0
LWPOLYLINE
  5
47
330
1F
100
AcDbEntity
  8
寸法
  6
Continuous
 62
     7
370
     9
100
AcDbPolyline
 90
        4
 70
     1
 43
3.0
 10
1188.413406597966
 20
-1632.448725295575
 42
0.4142135623731
 10
1186.913406597966
 20
-1630.948725295575
 42
0.4142135623731
 10
1185.413406597966
 20
-1632.448725295575
 42
0.4142135623731
 10
1186.913406597966
 20
-1633.948725295574
 42
0.4142135623731
  0
LWPOLYLINE
  5
48
330
1F
100
AcDbEntity
  8
寸法
  6
Continuous
 62
     7
370
     9
100
AcDbPolyline
 90
        4
 70
     1
 43
3.0
 10
-341.5865934020341
 20
-1432.448725295575
 42
0.4142135623731
 10
-343.0865934020341
 20
-1430.948725295575
 42
0.4142135623731
 10
-344.5865934020341
 20
-1432.448725295575
 42
0.4142135623731
 10
-343.0865934020341
 20
-1433.948725295575
 42
0.4142135623731
  0
LWPOLYLINE
  5
49
330
1F
100
AcDbEntity
  8
寸法
  6
Continuous
 62
     7
370
     9
100
AcDbPolyline
 90
        4
 70
     1
 43
3.0
 10
-1151.586593402035
 20
-1432.448725295575
 42
0.4142135623731
 10
-1153.086593402035
 20
-1430.948725295575
 42
0.4142135623731
 10
-1154.586593402035
 20
-1432.448725295575
 42
0.4142135623731
 10
-1153.086593402035
 20
-1433.948725295575
 42
0.4142135623731
  0
LWPOLYLINE
  5
4A
330
1F
100
AcDbEntity
  8
寸法
  6
Continuous
 62
     7
370
     9
100
AcDbPolyline
 90
        4
 70
     1
 43
3.0
 10
2028.413406597966
 20
-1832.448725295574
 42
0.4142135623731
 10
2026.913406597966
 20
-1830.948725295574
 42
0.4142135623731
 10
2025.413406597966
 20
-1832.448725295574
 42
0.4142135623731
 10
2026.913406597966
 20
-1833.948725295574
 42
0.4142135623731
  0
LWPOLYLINE
  5
4B
330
1F
100
AcDbEntity
  8
寸法
  6
Continuous
 62
     7
370
     9
100
AcDbPolyline
 90
        4
 70
     1
 43
3.0
 10
-1178.586593402034
 20
-1832.448725295574
 42
0.4142135623731
 10
-1180.086593402034
 20
-1830.948725295575
 42
0.4142135623731
 10
-1181.586593402034
 20
-1832.448725295574
 42
0.4142135623731
 10
-1180.086593402034
 20
-1833.948725295574
 42
0.4142135623731
  0
LWPOLYLINE
  5
4C
330
1F
100
AcDbEntity
  8
寸法
  6
Continuous
 62
     7
370
     9
100
AcDbPolyline
 90
        4
 70
     1
 43
3.0
 10
-1148.586593402034
 20
-1632.448725295575
 42
0.4142135623731
 10
-1150.086593402034
 20
-1630.948725295575
 42
0.4142135623731
 10
-1151.586593402034
 20
-1632.448725295575
 42
0.4142135623731
 10
-1150.086593402034
 20
-1633.948725295575
 42
0.4142135623731
  0
LINE
  5
4D
330
1F
100
AcDbEntity
  8
寸法
  6
Continuous
 62
   120
370
     5
100
AcDbLine
 10
1186.913406597966
 20
-1632.448725295575
 30
0.0
 11
1186.913406597966
 21
-1232.448725295575
 31
0.0
  0
LINE
  5
4E
330
1F
100
AcDbEntity
  8
寸法
  6
Continuous
 62
   120
370
     5
100
AcDbLine
 10
-1150.086593402034
 20
-1632.448725295575
 30
0.0
 11
1186.913406597966
 21
-1632.448725295575
 31
0.0
  0
LINE
  5
4F
330
1F
100
AcDbEntity
  8
寸法
  6
Continuous
 62
   120
370
     5
100
AcDbLine
 10
-343.0865934020341
 20
-1432.448725295575
 30
0.0
 11
-343.0865934020341
 21
-1232.448725295576
 31
0.0
  0
LINE
  5
50
330
1F
100
AcDbEntity
  8
寸法
  6
Continuous
 62
   120
370
     5
100
AcDbLine
 10
-1153.086593402035
 20
-1432.448725295575
 30
0.0
 11
-343.0865934020341
 21
-1432.448725295575
 31
0.0
  0
LINE
  5
51
330
1F
100
AcDbEntity
  8
寸法
  6
Continuous
 62
   120
370
     5
100
AcDbLine
 10
-1153.086593402035
 20
-1432.448725295575
 30
0.0
 11
-1153.086593402035
 21
-1232.448725295576
 31
0.0
  0
LINE
  5
52
330
1F
100
AcDbEntity
  8
寸法
  6
Continuous
 62
   120
370
     5
100
AcDbLine
 10
2026.913406597966
 20
-1832.448725295574
 30
0.0
 11
2026.913406597966
 21
-1232.448725295575
 31
0.0
  0
LINE
  5
53
330
1F
100
AcDbEntity
  8
寸法
  6
Continuous
 62
   120
370
     5
100
AcDbLine
 10
-1180.086593402034
 20
-1832.448725295574
 30
0.0
 11
2026.913406597966
 21
-1832.448725295574
 31
0.0
  0
LINE
  5
54
330
1F
100
AcDbEntity
  8
寸法
  6
Continuous
 62
   120
370
     5
100
AcDbLine
 10
-1180.086593402034
 20
-1832.448725295574
 30
0.0
 11
-1180.086593402034
 21
-1232.448725295576
 31
0.0
  0
LINE
  5
55
330
1F
100
AcDbEntity
  8
寸法
  6
Continuous
 62
   120
370
     5
100
AcDbLine
 10
-1150.086593402034
 20
-1632.448725295575
 30
0.0
 11
-1150.086593402034
 21
-1232.448725295576
 31
0.0
  0
LWPOLYLINE
  5
56
330
1F
100
AcDbEntity
  8
寸法
  6
Continuous
 62
     7
370
     9
100
AcDbPolyline
 90
        4
 70
     1
 43
3.0
 10
-1428.586593402036
 20
820.5512747044263
 42
0.4142135623731
 10
-1430.086593402035
 20
822.0512747044263
 42
0.4142135623731
 10
-1431.586593402035
 20
820.5512747044263
 42
0.4142135623731
 10
-1430.086593402035
 20
819.0512747044263
 42
0.4142135623731
  0
LINE
  5
57
330
1F
100
AcDbEntity
  8
寸法
  6
Continuous
 62
   120
370
     5
100
AcDbLine
 10
-1430.086593402035
 20
820.5512747044263
 30
0.0
 11
-1430.086593402035
 21
-1162.448725295574
 31
0.0
  0
LINE
  5
58
330
1F
100
AcDbEntity
  8
寸法
  6
Continuous
 62
   120
370
     5
100
AcDbLine
 10
-1430.086593402035
 20
820.5512747044263
 30
0.0
 11
-1230.086593402033
 21
820.5512747044263
 31
0.0
  0
LWPOLYLINE
  5
59
330
1F
100
AcDbEntity
  8
寸法
  6
Continuous
 62
     7
370
     9
100
AcDbPolyline
 90
        4
 70
     1
 43
3.0
 10
-1428.586593402036
 20
-1162.448725295574
 42
0.4142135623731
 10
-1430.086593402035
 20
-1160.948725295575
 42
0.4142135623731
 10
-1431.586593402035
 20
-1162.448725295574
 42
0.4142135623731
 10
-1430.086593402035
 20
-1163.948725295574
 42
0.4142135623731
  0
LWPOLYLINE
  5
5A
330
1F
100
AcDbEntity
  8
寸法
  6
Continuous
 62
     7
370
     9
100
AcDbPolyline
 90
        4
 70
     1
 43
3.0
 10
-1628.586593402034
 20
-1182.448725295575
 42
0.4142135623731
 10
-1630.086593402034
 20
-1180.948725295575
 42
0.4142135623731
 10
-1631.586593402034
 20
-1182.448725295575
 42
0.4142135623731
 10
-1630.086593402034
 20
-1183.948725295575
 42
0.4142135623731
  0
LWPOLYLINE
  5
5B
330
1F
100
AcDbEntity
  8
寸法
  6
Continuous
 62
     7
370
     9
100
AcDbPolyline
 90
        4
 70
     1
 43
3.0
 10
-1628.586593402034
 20
864.5512747044255
 42
0.4142135623731
 10
-1630.086593402034
 20
866.0512747044255
 42
0.4142135623731
 10
-1631.586593402034
 20
864.5512747044255
 42
0.4142135623731
 10
-1630.086593402034
 20
863.0512747044255
 42
0.4142135623731
  0
LINE
  5
5C
330
1F
100
AcDbEntity
  8
寸法
  6
Continuous
 62
   120
370
     5
100
AcDbLine
 10
-1430.086593402035
 20
-1162.448725295574
 30
0.0
 11
-1230.086593402033
 21
-1162.448725295574
 31
0.0
  0
LINE
  5
5D
330
1F
100
AcDbEntity
  8
寸法
  6
Continuous
 62
   120
370
     5
100
AcDbLine
 10
-1630.086593402034
 20
-1182.448725295575
 30
0.0
 11
-1230.086593402033
 21
-1182.448725295575
 31
0.0
  0
LINE
  5
5E
330
1F
100
AcDbEntity
  8
寸法
  6
Continuous
 62
   120
370
     5
100
AcDbLine
 10
-1630.086593402034
 20
864.5512747044255
 30
0.0
 11
-1230.086593402033
 21
864.5512747044255
 31
0.0
  0
LINE
  5
5F
330
1F
100
AcDbEntity
  8
寸法
  6
Continuous
 62
   120
370
     5
100
AcDbLine
 10
-1630.086593402034
 20
864.5512747044255
 30
0.0
 11
-1630.086593402034
 21
-1182.448725295575
 31
0.0
  0
LINE
  5
60
330
1F
100
AcDbEntity
  8
0-0
  6
JWW_DASHED1
 62
   120
370
     5
100
AcDbLine
 10
531.4134250559975
 20
-489.4487252955735
 30
0.0
 11
531.4134250559975
 21
625.551007160118
 31
0.0
  0
LINE
  5
61
330
1F
100
AcDbEntity
  8
0-0
  6
JWW_DASHED1
 62
   120
370
     5
100
AcDbLine
 10
532.4134250558977
 20
-489.4487252955735
 30
0.0
 11
532.4134250558977
 21
625.551007160118
 31
0.0
  0
LINE
  5
62
330
1F
100
AcDbEntity
  8
0-0
  6
JWW_DASHED1
 62
   120
370
     5
100
AcDbLine
 10
545.4134250569975
 20
-489.4487252955735
 30
0.0
 11
545.4134250569975
 21
625.551007160118
 31
0.0
  0
LINE
  5
63
330
1F
100
AcDbEntity
  8
0-0
  6
JWW_DASHED1
 62
   120
370
     5
100
AcDbLine
 10
546.4134250568977
 20
-489.4487252955735
 30
0.0
 11
546.4134250568977
 21
625.551007160118
 31
0.0
  0
LINE
  5
64
330
1F
100
AcDbEntity
  8
0-0
  6
JWW_DASHED1
 62
   120
370
     5
100
AcDbLine
 10
559.4134250579976
 20
-489.4487252955735
 30
0.0
 11
559.4134250579976
 21
625.551007160118
 31
0.0
  0
LINE
  5
65
330
1F
100
AcDbEntity
  8
0-0
  6
JWW_DASHED1
 62
   120
370
     5
100
AcDbLine
 10
560.4134250578978
 20
-489.4487252955735
 30
0.0
 11
560.4134250578978
 21
625.551007160118
 31
0.0
  0
LINE
  5
66
330
1F
100
AcDbEntity
  8
0-0
  6
JWW_DASHED1
 62
   120
370
     5
100
AcDbLine
 10
573.4134250589976
 20
-489.4487252955735
 30
0.0
 11
573.4134250589976
 21
625.551007160118
 31
0.0
  0
LINE
  5
67
330
1F
100
AcDbEntity
  8
0-0
  6
JWW_DASHED1
 62
   120
370
     5
100
AcDbLine
 10
574.4134250588978
 20
-489.4487252955735
 30
0.0
 11
574.4134250588978
 21
625.551007160118
 31
0.0
  0
LINE
  5
68
330
1F
100
AcDbEntity
  8
0-0
  6
JWW_DASHED1
 62
   120
370
     5
100
AcDbLine
 10
587.4134250599976
 20
-489.4487252955735
 30
0.0
 11
587.4134250599976
 21
626.1143028770836
 31
0.0
  0
LINE
  5
69
330
1F
100
AcDbEntity
  8
0-0
  6
JWW_DASHED1
 62
   120
370
     5
100
AcDbLine
 10
588.4134250598978
 20
-489.4487252955735
 30
0.0
 11
588.4134250598978
 21
626.2045847885544
 31
0.0
  0
LINE
  5
6A
330
1F
100
AcDbEntity
  8
0-0
  6
JWW_DASHED1
 62
   120
370
     5
100
AcDbLine
 10
601.4134250609976
 20
-489.4487252955735
 30
0.0
 11
601.4134250609976
 21
627.9987024611706
 31
0.0
  0
LINE
  5
6B
330
1F
100
AcDbEntity
  8
0-0
  6
JWW_DASHED1
 62
   120
370
     5
100
AcDbLine
 10
602.4134250608978
 20
-489.4487252955735
 30
0.0
 11
602.4134250608978
 21
628.1851091029217
 31
0.0
  0
LINE
  5
6C
330
1F
100
AcDbEntity
  8
0-0
  6
JWW_DASHED1
 62
   120
370
     5
100
AcDbLine
 10
615.4134250619976
 20
-489.4487252955735
 30
0.0
 11
615.4134250619976
 21
631.2595082527674
 31
0.0
  0
LINE
  5
6D
330
1F
100
AcDbEntity
  8
0-0
  6
JWW_DASHED1
 62
   120
370
     5
100
AcDbLine
 10
616.4134250618978
 20
-489.4487252955735
 30
0.0
 11
616.4134250618978
 21
631.547319897743
 31
0.0
  0
LINE
  5
6E
330
1F
100
AcDbEntity
  8
0-0
  6
JWW_DASHED1
 62
   120
370
     5
100
AcDbLine
 10
629.4134250629976
 20
-489.4487252955735
 30
0.0
 11
629.4134250629976
 21
635.9931672089784
 31
0.0
  0
LINE
  5
6F
330
1F
100
AcDbEntity
  8
0-0
  6
JWW_DASHED1
 62
   120
370
     5
100
AcDbLine
 10
630.4134250628978
 20
-489.4487252955735
 30
0.0
 11
630.4134250628978
 21
636.3913291637779
 31
0.0
  0
LINE
  5
70
330
1F
100
AcDbEntity
  8
0-0
  6
JWW_DASHED1
 62
   120
370
     5
100
AcDbLine
 10
643.4134250639976
 20
-489.4487252955735
 30
0.0
 11
643.4134250639976
 21
642.3566201662812
 31
0.0
  0
LINE
  5
71
330
1F
100
AcDbEntity
  8
0-0
  6
JWW_DASHED1
 62
   120
370
     5
100
AcDbLine
 10
644.4134250638978
 20
-489.4487252955735
 30
0.0
 11
644.4134250638978
 21
642.8793447189652
 31
0.0
  0
LINE
  5
72
330
1F
100
AcDbEntity
  8
0-0
  6
JWW_DASHED1
 62
   120
370
     5
100
AcDbLine
 10
657.4134250649977
 20
-489.4487252955735
 30
0.0
 11
657.4134250649977
 21
649.6050212293046
 31
0.0
  0
LINE
  5
73
330
1F
100
AcDbEntity
  8
0-0
  6
JWW_DASHED1
 62
   120
370
     5
100
AcDbLine
 10
658.4134250648979
 20
-489.4487252955735
 30
0.0
 11
658.4134250648979
 21
650.0950008687466
 31
0.0
  0
LINE
  5
74
330
1F
100
AcDbEntity
  8
0-0
  6
JWW_DASHED1
 62
   120
370
     5
100
AcDbLine
 10
671.4134250659976
 20
-489.4487252955735
 30
0.0
 11
671.4134250659976
 21
656.1128993408199
 31
0.0
  0
LINE
  5
75
330
1F
100
AcDbEntity
  8
0-0
  6
JWW_DASHED1
 62
   120
370
     5
100
AcDbLine
 10
672.4134250658977
 20
-489.4487252955735
 30
0.0
 11
672.4134250658977
 21
656.5493356838631
 31
0.0
  0
LINE
  5
76
330
1F
100
AcDbEntity
  8
0-0
  6
JWW_DASHED1
 62
   120
370
     5
100
AcDbLine
 10
685.4134250669977
 20
-489.4487252955735
 30
0.0
 11
685.4134250669977
 21
661.8912119978229
 31
0.0
  0
LINE
  5
77
330
1F
100
AcDbEntity
  8
0-0
  6
JWW_DASHED1
 62
   120
370
     5
100
AcDbLine
 10
686.4134250668978
 20
-489.4487252955735
 30
0.0
 11
686.4134250668978
 21
662.2770842691132
 31
0.0
  0
LINE
  5
78
330
1F
100
AcDbEntity
  8
0-0
  6
JWW_DASHED1
 62
   120
370
     5
100
AcDbLine
 10
699.4134250679977
 20
-489.4487252955735
 30
0.0
 11
699.4134250679977
 21
666.9781205630131
 31
0.0
  0
LINE
  5
79
330
1F
100
AcDbEntity
  8
0-0
  6
JWW_DASHED1
 62
   120
370
     5
100
AcDbLine
 10
700.4134250678978
 20
-489.4487252955735
 30
0.0
 11
700.4134250678978
 21
667.3158811934225
 31
0.0
  0
LINE
  5
7A
330
1F
100
AcDbEntity
  8
0-0
  6
JWW_DASHED1
 62
   120
370
     5
100
AcDbLine
 10
713.4134250689976
 20
-489.4487252955735
 30
0.0
 11
713.4134250689976
 21
671.4050429411288
 31
0.0
  0
LINE
  5
7B
330
1F
100
AcDbEntity
  8
0-0
  6
JWW_DASHED1
 62
   120
370
     5
100
AcDbLine
 10
714.4134250688978
 20
-489.4487252955735
 30
0.0
 11
714.4134250688978
 21
671.6967098985112
 31
0.0
  0
LINE
  5
7C
330
1F
100
AcDbEntity
  8
0-0
  6
JWW_DASHED1
 62
   120
370
     5
100
AcDbLine
 10
727.4134250699976
 20
-489.4487252955735
 30
0.0
 11
727.4134250699976
 21
675.1977867162129
 31
0.0
  0
LINE
  5
7D
330
1F
100
AcDbEntity
  8
0-0
  6
JWW_DASHED1
 62
   120
370
     5
100
AcDbLine
 10
728.4134250698978
 20
-489.4487252955735
 30
0.0
 11
728.4134250698978
 21
675.4450126355875
 31
0.0
  0
LINE
  5
7E
330
1F
100
AcDbEntity
  8
0-0
  6
JWW_DASHED1
 62
   120
370
     5
100
AcDbLine
 10
741.4134250709976
 20
-489.4487252955735
 30
0.0
 11
741.4134250709976
 21
678.3774006118581
 31
0.0
  0
LINE
  5
7F
330
1F
100
AcDbEntity
  8
0-0
  6
JWW_DASHED1
 62
   120
370
     5
100
AcDbLine
 10
742.4134250708978
 20
-489.4487252955735
 30
0.0
 11
742.4134250708978
 21
678.5815249269724
 31
0.0
  0
LINE
  5
80
330
1F
100
AcDbEntity
  8
0-0
  6
JWW_DASHED1
 62
   120
370
     5
100
AcDbLine
 10
755.4134250719976
 20
-489.4487252955735
 30
0.0
 11
755.4134250719976
 21
680.9608172587066
 31
0.0
  0
LINE
  5
81
330
1F
100
AcDbEntity
  8
0-0
  6
JWW_DASHED1
 62
   120
370
     5
100
AcDbLine
 10
756.4134250718978
 20
-489.4487252955735
 30
0.0
 11
756.4134250718978
 21
681.1229055577458
 31
0.0
  0
LINE
  5
82
330
1F
100
AcDbEntity
  8
0-0
  6
JWW_DASHED1
 62
   120
370
     5
100
AcDbLine
 10
769.4134250729976
 20
-489.4487252955735
 30
0.0
 11
769.4134250729976
 21
682.9613372679121
 31
0.0
  0
LINE
  5
83
330
1F
100
AcDbEntity
  8
0-0
  6
JWW_DASHED1
 62
   120
370
     5
100
AcDbLine
 10
770.4134250728978
 20
-489.4487252955735
 30
0.0
 11
770.4134250728978
 21
683.0822107855199
 31
0.0
  0
LINE
  5
84
330
1F
100
AcDbEntity
  8
0-0
  6
JWW_DASHED1
 62
   120
370
     5
100
AcDbLine
 10
783.4134250739977
 20
-489.4487252955735
 30
0.0
 11
783.4134250739977
 21
684.3889891980286
 31
0.0
  0
LINE
  5
85
330
1F
100
AcDbEntity
  8
0-0
  6
JWW_DASHED1
 62
   120
370
     5
100
AcDbLine
 10
784.4134250738979
 20
-489.4487252955735
 30
0.0
 11
784.4134250738979
 21
684.4692464631005
 31
0.0
  0
LINE
  5
86
330
1F
100
AcDbEntity
  8
0-0
  6
JWW_DASHED1
 62
   120
370
     5
100
AcDbLine
 10
797.4134250749977
 20
-489.4487252955735
 30
0.0
 11
797.4134250749977
 21
685.2507893392756
 31
0.0
  0
LINE
  5
87
330
1F
100
AcDbEntity
  8
0-0
  6
JWW_DASHED1
 62
   120
370
     5
100
AcDbLine
 10
798.4134250748979
 20
-489.4487252955735
 30
0.0
 11
798.4134250748979
 21
685.290821365739
 31
0.0
  0
LINE
  5
88
330
1F
100
AcDbEntity
  8
0-0
  6
JWW_DASHED1
 62
   120
370
     5
100
AcDbLine
 10
811.4134250759977
 20
-489.4487252955735
 30
0.0
 11
811.4134250759977
 21
685.550917587803
 31
0.0
  0
LINE
  5
89
330
1F
100
AcDbEntity
  8
0-0
  6
JWW_DASHED1
 62
   120
370
     5
100
AcDbLine
 10
812.4134250758979
 20
-489.4487252955735
 30
0.0
 11
812.4134250758979
 21
685.5509175349796
 31
0.0
  0
LINE
  5
8A
330
1F
100
AcDbEntity
  8
0-0
  6
JWW_DASHED1
 62
   120
370
     5
100
AcDbLine
 10
825.4134250769977
 20
-489.4487252955735
 30
0.0
 11
825.4134250769977
 21
685.290819939233
 31
0.0
  0
LINE
  5
8B
330
1F
100
AcDbEntity
  8
0-0
  6
JWW_DASHED1
 62
   120
370
     5
100
AcDbLine
 10
826.4134250768979
 20
-489.4487252955735
 30
0.0
 11
826.4134250768979
 21
685.2507878069043
 31
0.0
  0
LINE
  5
8C
330
1F
100
AcDbEntity
  8
0-0
  6
JWW_DASHED1
 62
   120
370
     5
100
AcDbLine
 10
839.4134250779977
 20
-489.4487252955735
 30
0.0
 11
839.4134250779977
 21
684.4692435503891
 31
0.0
  0
LINE
  5
8D
330
1F
100
AcDbEntity
  8
0-0
  6
JWW_DASHED1
 62
   120
370
     5
100
AcDbLine
 10
840.4134250778978
 20
-489.4487252955735
 30
0.0
 11
840.4134250778978
 21
684.3889861787427
 31
0.0
  0
LINE
  5
8E
330
1F
100
AcDbEntity
  8
0-0
  6
JWW_DASHED1
 62
   120
370
     5
100
AcDbLine
 10
853.4134250789975
 20
-489.4487252955735
 30
0.0
 11
853.4134250789975
 21
683.0822063724697
 31
0.0
  0
LINE
  5
8F
330
1F
100
AcDbEntity
  8
0-0
  6
JWW_DASHED1
 62
   120
370
     5
100
AcDbLine
 10
854.4134250788977
 20
-489.4487252955735
 30
0.0
 11
854.4134250788977
 21
682.9613327469776
 31
0.0
  0
LINE
  5
90
330
1F
100
AcDbEntity
  8
0-0
  6
JWW_DASHED1
 62
   120
370
     5
100
AcDbLine
 10
867.4134250799975
 20
-489.4487252955735
 30
0.0
 11
867.4134250799975
 21
681.1228996224743
 31
0.0
  0
LINE
  5
91
330
1F
100
AcDbEntity
  8
0-0
  6
JWW_DASHED1
 62
   120
370
     5
100
AcDbLine
 10
868.4134250798977
 20
-489.4487252955735
 30
0.0
 11
868.4134250798977
 21
680.9608112136955
 31
0.0
  0
LINE
  5
92
330
1F
100
AcDbEntity
  8
0-0
  6
JWW_DASHED1
 62
   120
370
     5
100
AcDbLine
 10
881.4134250809977
 20
-489.4487252955735
 30
0.0
 11
881.4134250809977
 21
678.5815174394663
 31
0.0
  0
LINE
  5
93
330
1F
100
AcDbEntity
  8
0-0
  6
JWW_DASHED1
 62
   120
370
     5
100
AcDbLine
 10
882.4134250808979
 20
-489.4487252955735
 30
0.0
 11
882.4134250808979
 21
678.3773930121022
 31
0.0
  0
LINE
  5
94
330
1F
100
AcDbEntity
  8
0-0
  6
JWW_DASHED1
 62
   120
370
     5
100
AcDbLine
 10
895.4134250819977
 20
-489.4487252955735
 30
0.0
 11
895.4134250819977
 21
675.445003556775
 31
0.0
  0
LINE
  5
95
330
1F
100
AcDbEntity
  8
0-0
  6
JWW_DASHED1
 62
   120
370
     5
100
AcDbLine
 10
896.4134250818979
 20
-489.4487252955735
 30
0.0
 11
896.4134250818979
 21
675.1977775219855
 31
0.0
  0
LINE
  5
96
330
1F
100
AcDbEntity
  8
0-0
  6
JWW_DASHED1
 62
   120
370
     5
100
AcDbLine
 10
909.4134250829977
 20
-489.4487252955735
 30
0.0
 11
909.4134250829977
 21
671.696699179334
 31
0.0
  0
LINE
  5
97
330
1F
100
AcDbEntity
  8
0-0
  6
JWW_DASHED1
 62
   120
370
     5
100
AcDbLine
 10
910.4134250828979
 20
-489.4487252955735
 30
0.0
 11
910.4134250828979
 21
671.4050321026077
 31
0.0
  0
LINE
  5
98
330
1F
100
AcDbEntity
  8
0-0
  6
JWW_DASHED1
 62
   120
370
     5
100
AcDbLine
 10
923.4134250839977
 20
-489.4487252955735
 30
0.0
 11
923.4134250839977
 21
667.3158687731991
 31
0.0
  0
LINE
  5
99
330
1F
100
AcDbEntity
  8
0-0
  6
JWW_DASHED1
 62
   120
370
     5
100
AcDbLine
 10
924.4134250838979
 20
-489.4487252955735
 30
0.0
 11
924.4134250838979
 21
666.9781080185892
 31
0.0
  0
LINE
  5
9A
330
1F
100
AcDbEntity
  8
0-0
  6
JWW_DASHED1
 62
   120
370
     5
100
AcDbLine
 10
937.4134250849977
 20
-489.4487252955735
 30
0.0
 11
937.4134250849977
 21
662.2770700737926
 31
0.0
  0
LINE
  5
9B
330
1F
100
AcDbEntity
  8
0-0
  6
JWW_DASHED1
 62
   120
370
     5
100
AcDbLine
 10
938.4134250848979
 20
-489.4487252955735
 30
0.0
 11
938.4134250848979
 21
661.8911976725174
 31
0.0
  0
LINE
  5
9C
330
1F
100
AcDbEntity
  8
0-0
  6
JWW_DASHED1
 62
   120
370
     5
100
AcDbLine
 10
951.4134250859977
 20
-489.4487252955735
 30
0.0
 11
951.4134250859977
 21
656.54931962346
 31
0.0
  0
LINE
  5
9D
330
1F
100
AcDbEntity
  8
0-0
  6
JWW_DASHED1
 62
   120
370
     5
100
AcDbLine
 10
952.4134250858979
 20
-489.4487252955735
 30
0.0
 11
952.4134250858979
 21
656.1128831432832
 31
0.0
  0
LINE
  5
9E
330
1F
100
AcDbEntity
  8
0-0
  6
JWW_DASHED1
 62
   120
370
     5
100
AcDbLine
 10
965.4134250869977
 20
-489.4487252955735
 30
0.0
 11
965.4134250869977
 21
650.0949828339578
 31
0.0
  0
LINE
  5
9F
330
1F
100
AcDbEntity
  8
0-0
  6
JWW_DASHED1
 62
   120
370
     5
100
AcDbLine
 10
966.4134250868979
 20
-489.4487252955735
 30
0.0
 11
966.4134250868979
 21
649.605003048651
 31
0.0
  0
LINE
  5
A0
330
1F
100
AcDbEntity
  8
0-0
  6
JWW_DASHED1
 62
   120
370
     5
100
AcDbLine
 10
979.4134250879974
 20
-489.4487252955735
 30
0.0
 11
979.4134250879977
 21
642.8793252238917
 31
0.0
  0
LINE
  5
A1
330
1F
100
AcDbEntity
  8
0-0
  6
JWW_DASHED1
 62
   120
370
     5
100
AcDbLine
 10
980.4134250878975
 20
-489.4487252955735
 30
0.0
 11
980.4134250878976
 21
642.3566010250921
 31
0.0
  0
LINE
  5
A2
330
1F
100
AcDbEntity
  8
0-0
  6
JWW_DASHED1
 62
   120
370
     5
100
AcDbLine
 10
993.4134250889975
 20
-489.4487252955735
 30
0.0
 11
993.4134250889977
 21
636.3913142954494
 31
0.0
  0
LINE
  5
A3
330
1F
100
AcDbEntity
  8
0-0
  6
JWW_DASHED1
 62
   120
370
     5
100
AcDbLine
 10
994.4134250888975
 20
-489.4487252955735
 30
0.0
 11
994.4134250888977
 21
635.9931526479319
 31
0.0
  0
LINE
  5
A4
330
1F
100
AcDbEntity
  8
0-0
  6
JWW_DASHED1
 62
   120
370
     5
100
AcDbLine
 10
1007.413425089998
 20
-489.4487252955735
 30
0.0
 11
1007.413425089998
 21
631.5473091224682
 31
0.0
  0
LINE
  5
A5
330
1F
100
AcDbEntity
  8
0-0
  6
JWW_DASHED1
 62
   120
370
     5
100
AcDbLine
 10
1008.413425089897
 20
-489.4487252955735
 30
0.0
 11
1008.413425089898
 21
631.2594977550885
 31
0.0
  0
LINE
  5
A6
330
1F
100
AcDbEntity
  8
0-0
  6
JWW_DASHED1
 62
   120
370
     5
100
AcDbLine
 10
1021.413425090998
 20
-489.4487252955735
 30
0.0
 11
1021.413425090998
 21
628.1851020843329
 31
0.0
  0
LINE
  5
A7
330
1F
100
AcDbEntity
  8
0-0
  6
JWW_DASHED1
 62
   120
370
     5
100
AcDbLine
 10
1022.413425090897
 20
-489.4487252955735
 30
0.0
 11
1022.413425090898
 21
627.998695701897
 31
0.0
  0
LINE
  5
A8
330
1F
100
AcDbEntity
  8
0-0
  6
JWW_DASHED1
 62
   120
370
     5
100
AcDbLine
 10
1035.413425091997
 20
-489.4487252955735
 30
0.0
 11
1035.413425091997
 21
626.2045813273631
 31
0.0
  0
LINE
  5
A9
330
1F
100
AcDbEntity
  8
0-0
  6
JWW_DASHED1
 62
   120
370
     5
100
AcDbLine
 10
1036.413425091898
 20
-489.4487252955735
 30
0.0
 11
1036.413425091898
 21
626.1142996653303
 31
0.0
  0
LINE
  5
AA
330
1F
100
AcDbEntity
  8
0-0
  6
JWW_DASHED1
 62
   120
370
     5
100
AcDbLine
 10
1049.413425092998
 20
-489.4487252955735
 30
0.0
 11
1049.413425092998
 21
625.551007160118
 31
0.0
  0
LINE
  5
AB
330
1F
100
AcDbEntity
  8
0-0
  6
JWW_DASHED1
 62
   120
370
     5
100
AcDbLine
 10
1050.413425092898
 20
-489.4487252955735
 30
0.0
 11
1050.413425092898
 21
625.551007160118
 31
0.0
  0
LINE
  5
AC
330
1F
100
AcDbEntity
  8
0-0
  6
JWW_DASHED1
 62
   120
370
     5
100
AcDbLine
 10
1063.413425093998
 20
-489.4487252955735
 30
0.0
 11
1063.413425093998
 21
625.551007160118
 31
0.0
  0
LINE
  5
AD
330
1F
100
AcDbEntity
  8
0-0
  6
JWW_DASHED1
 62
   120
370
     5
100
AcDbLine
 10
1064.413425093898
 20
-489.4487252955735
 30
0.0
 11
1064.413425093898
 21
625.551007160118
 31
0.0
  0
LINE
  5
AE
330
1F
100
AcDbEntity
  8
0-0
  6
JWW_DASHED1
 62
   120
370
     5
100
AcDbLine
 10
1077.413425094998
 20
-489.4487252955735
 30
0.0
 11
1077.413425094998
 21
625.551007160118
 31
0.0
  0
LINE
  5
AF
330
1F
100
AcDbEntity
  8
0-0
  6
JWW_DASHED1
 62
   120
370
     5
100
AcDbLine
 10
1078.413425094898
 20
-489.4487252955735
 30
0.0
 11
1078.413425094898
 21
625.551007160118
 31
0.0
  0
LINE
  5
B0
330
1F
100
AcDbEntity
  8
0-0
  6
JWW_DASHED1
 62
   120
370
     5
100
AcDbLine
 10
1091.413425095998
 20
-489.4487252955735
 30
0.0
 11
1091.413425095998
 21
625.551007160118
 31
0.0
  0
LINE
  5
B1
330
1F
100
AcDbEntity
  8
0-0
  6
JWW_DASHED1
 62
   120
370
     5
100
AcDbLine
 10
1092.413425095898
 20
-489.4487252955735
 30
0.0
 11
1092.413425095898
 21
625.551007160118
 31
0.0
  0
LINE
  5
B2
330
1F
100
AcDbEntity
  8
0-0
  6
JWW_DASHED1
 62
   120
370
     5
100
AcDbLine
 10
721.0503216618475
 20
673.5511264734656
 30
0.0
 11
902.7764915340833
 21
673.5511264734656
 31
0.0
  0
LINE
  5
B3
330
1F
100
AcDbEntity
  8
0-0
  6
JWW_DASHED1
 62
   120
370
     5
100
AcDbLine
 10
717.4089098394746
 20
672.5511264735654
 30
0.0
 11
906.4179033564562
 21
672.5511264735654
 31
0.0
  0
LINE
  5
B4
330
1F
100
AcDbEntity
  8
0-0
  6
JWW_DASHED1
 62
   120
370
     5
100
AcDbLine
 10
679.5347978491067
 20
659.5511264724657
 30
0.0
 11
944.2920153468243
 21
659.5511264724657
 31
0.0
  0
LINE
  5
B5
330
1F
100
AcDbEntity
  8
0-0
  6
JWW_DASHED1
 62
   120
370
     5
100
AcDbLine
 10
677.1131997815304
 20
658.5511264725656
 30
0.0
 11
946.7136134144006
 21
658.5511264725656
 31
0.0
  0
LINE
  5
B6
330
1F
100
AcDbEntity
  8
0-0
  6
JWW_DASHED1
 62
   120
370
     5
100
AcDbLine
 10
649.4323556892108
 20
645.551126471466
 30
0.0
 11
974.3944575067202
 21
645.551126471466
 31
0.0
  0
LINE
  5
B7
330
1F
100
AcDbEntity
  8
0-0
  6
JWW_DASHED1
 62
   120
370
     5
100
AcDbLine
 10
647.5385556995446
 20
644.5511264715658
 30
0.0
 11
976.2882574963863
 21
644.5511264715658
 31
0.0
  0
LINE
  5
B8
330
1F
100
AcDbEntity
  8
0-0
  6
JWW_DASHED1
 62
   120
370
     5
100
AcDbLine
 10
616.4264782312888
 20
631.5511264704662
 30
0.0
 11
1007.400334964642
 21
631.5511264704662
 31
0.0
  0
LINE
  5
B9
330
1F
100
AcDbEntity
  8
0-0
  6
JWW_DASHED1
 62
   120
370
     5
100
AcDbLine
 10
612.8322483599289
 20
630.551126470566
 30
0.0
 11
1010.994564836002
 21
630.551126470566
 31
0.0
  0
LINE
  5
BA
330
1F
100
AcDbEntity
  8
0-0
  6
JWW_DASHED1
 62
   120
370
     5
100
AcDbLine
 10
525.4134065979656
 20
617.5511264694665
 30
0.0
 11
1098.413406597966
 21
617.5511264694665
 31
0.0
  0
LINE
  5
BB
330
1F
100
AcDbEntity
  8
0-0
  6
JWW_DASHED1
 62
   120
370
     5
100
AcDbLine
 10
525.4134065979656
 20
616.5511264695663
 30
0.0
 11
1098.413406597966
 21
616.5511264695663
 31
0.0
  0
LINE
  5
BC
330
1F
100
AcDbEntity
  8
0-0
  6
JWW_DASHED1
 62
   120
370
     5
100
AcDbLine
 10
525.4134065979656
 20
603.5511264684667
 30
0.0
 11
1098.413406597966
 21
603.5511264684667
 31
0.0
  0
LINE
  5
BD
330
1F
100
AcDbEntity
  8
0-0
  6
JWW_DASHED1
 62
   120
370
     5
100
AcDbLine
 10
525.4134065979656
 20
602.5511264685665
 30
0.0
 11
1098.413406597966
 21
602.5511264685665
 31
0.0
  0
LINE
  5
BE
330
1F
100
AcDbEntity
  8
0-0
  6
JWW_DASHED1
 62
   120
370
     5
100
AcDbLine
 10
525.4134065979656
 20
589.5511264674666
 30
0.0
 11
1098.413406597966
 21
589.5511264674666
 31
0.0
  0
LINE
  5
BF
330
1F
100
AcDbEntity
  8
0-0
  6
JWW_DASHED1
 62
   120
370
     5
100
AcDbLine
 10
525.4134065979656
 20
588.5511264675666
 30
0.0
 11
1098.413406597966
 21
588.5511264675666
 31
0.0
  0
LINE
  5
C0
330
1F
100
AcDbEntity
  8
0-0
  6
JWW_DASHED1
 62
   120
370
     5
100
AcDbLine
 10
525.4134065979656
 20
575.551126466467
 30
0.0
 11
1098.413406597966
 21
575.551126466467
 31
0.0
  0
LINE
  5
C1
330
1F
100
AcDbEntity
  8
0-0
  6
JWW_DASHED1
 62
   120
370
     5
100
AcDbLine
 10
525.4134065979656
 20
574.5511264665669
 30
0.0
 11
1098.413406597966
 21
574.5511264665669
 31
0.0
  0
LINE
  5
C2
330
1F
100
AcDbEntity
  8
0-0
  6
JWW_DASHED1
 62
   120
370
     5
100
AcDbLine
 10
525.4134065979656
 20
561.5511264654673
 30
0.0
 11
1098.413406597966
 21
561.5511264654673
 31
0.0
  0
LINE
  5
C3
330
1F
100
AcDbEntity
  8
0-0
  6
JWW_DASHED1
 62
   120
370
     5
100
AcDbLine
 10
525.4134065979656
 20
560.5511264655671
 30
0.0
 11
1098.413406597966
 21
560.5511264655671
 31
0.0
  0
LINE
  5
C4
330
1F
100
AcDbEntity
  8
0-0
  6
JWW_DASHED1
 62
   120
370
     5
100
AcDbLine
 10
525.4134065979656
 20
547.5511264644674
 30
0.0
 11
1098.413406597966
 21
547.5511264644674
 31
0.0
  0
LINE
  5
C5
330
1F
100
AcDbEntity
  8
0-0
  6
JWW_DASHED1
 62
   120
370
     5
100
AcDbLine
 10
525.4134065979656
 20
546.5511264645672
 30
0.0
 11
1098.413406597966
 21
546.5511264645672
 31
0.0
  0
LINE
  5
C6
330
1F
100
AcDbEntity
  8
0-0
  6
JWW_DASHED1
 62
   120
370
     5
100
AcDbLine
 10
525.4134065979656
 20
533.5511264634677
 30
0.0
 11
1098.413406597966
 21
533.5511264634677
 31
0.0
  0
LINE
  5
C7
330
1F
100
AcDbEntity
  8
0-0
  6
JWW_DASHED1
 62
   120
370
     5
100
AcDbLine
 10
525.4134065979656
 20
532.5511264635675
 30
0.0
 11
1098.413406597966
 21
532.5511264635675
 31
0.0
  0
LINE
  5
C8
330
1F
100
AcDbEntity
  8
0-0
  6
JWW_DASHED1
 62
   120
370
     5
100
AcDbLine
 10
525.4134065979656
 20
519.5511264624679
 30
0.0
 11
1098.413406597966
 21
519.5511264624679
 31
0.0
  0
LINE
  5
C9
330
1F
100
AcDbEntity
  8
0-0
  6
JWW_DASHED1
 62
   120
370
     5
100
AcDbLine
 10
525.4134065979656
 20
518.5511264625677
 30
0.0
 11
1098.413406597966
 21
518.5511264625677
 31
0.0
  0
LINE
  5
CA
330
1F
100
AcDbEntity
  8
0-0
  6
JWW_DASHED1
 62
   120
370
     5
100
AcDbLine
 10
525.4134065979656
 20
505.5511264614681
 30
0.0
 11
1098.413406597966
 21
505.5511264614681
 31
0.0
  0
LINE
  5
CB
330
1F
100
AcDbEntity
  8
0-0
  6
JWW_DASHED1
 62
   120
370
     5
100
AcDbLine
 10
525.4134065979656
 20
504.5511264615679
 30
0.0
 11
1098.413406597966
 21
504.5511264615679
 31
0.0
  0
LINE
  5
CC
330
1F
100
AcDbEntity
  8
0-0
  6
JWW_DASHED1
 62
   120
370
     5
100
AcDbLine
 10
525.4134065979656
 20
491.5511264604683
 30
0.0
 11
1098.413406597966
 21
491.5511264604683
 31
0.0
  0
LINE
  5
CD
330
1F
100
AcDbEntity
  8
0-0
  6
JWW_DASHED1
 62
   120
370
     5
100
AcDbLine
 10
525.4134065979656
 20
490.5511264605681
 30
0.0
 11
1098.413406597966
 21
490.5511264605681
 31
0.0
  0
LINE
  5
CE
330
1F
100
AcDbEntity
  8
0-0
  6
JWW_DASHED1
 62
   120
370
     5
100
AcDbLine
 10
525.4134065979656
 20
477.5511264594685
 30
0.0
 11
1098.413406597966
 21
477.5511264594685
 31
0.0
  0
LINE
  5
CF
330
1F
100
AcDbEntity
  8
0-0
  6
JWW_DASHED1
 62
   120
370
     5
100
AcDbLine
 10
525.4134065979656
 20
476.5511264595683
 30
0.0
 11
1098.413406597966
 21
476.5511264595683
 31
0.0
  0
LINE
  5
D0
330
1F
100
AcDbEntity
  8
0-0
  6
JWW_DASHED1
 62
   120
370
     5
100
AcDbLine
 10
525.4134065979656
 20
463.5511264584687
 30
0.0
 11
1098.413406597966
 21
463.5511264584687
 31
0.0
  0
LINE
  5
D1
330
1F
100
AcDbEntity
  8
0-0
  6
JWW_DASHED1
 62
   120
370
     5
100
AcDbLine
 10
525.4134065979656
 20
462.5511264585685
 30
0.0
 11
1098.413406597966
 21
462.5511264585685
 31
0.0
  0
LINE
  5
D2
330
1F
100
AcDbEntity
  8
0-0
  6
JWW_DASHED1
 62
   120
370
     5
100
AcDbLine
 10
525.4134065979656
 20
449.551126457469
 30
0.0
 11
1098.413406597966
 21
449.551126457469
 31
0.0
  0
LINE
  5
D3
330
1F
100
AcDbEntity
  8
0-0
  6
JWW_DASHED1
 62
   120
370
     5
100
AcDbLine
 10
525.4134065979656
 20
448.5511264575688
 30
0.0
 11
1098.413406597966
 21
448.5511264575688
 31
0.0
  0
LINE
  5
D4
330
1F
100
AcDbEntity
  8
0-0
  6
JWW_DASHED1
 62
   120
370
     5
100
AcDbLine
 10
525.4134065979656
 20
435.5511264564691
 30
0.0
 11
1098.413406597966
 21
435.5511264564691
 31
0.0
  0
LINE
  5
D5
330
1F
100
AcDbEntity
  8
0-0
  6
JWW_DASHED1
 62
   120
370
     5
100
AcDbLine
 10
525.4134065979656
 20
434.551126456569
 30
0.0
 11
1098.413406597966
 21
434.551126456569
 31
0.0
  0
LINE
  5
D6
330
1F
100
AcDbEntity
  8
0-0
  6
JWW_DASHED1
 62
   120
370
     5
100
AcDbLine
 10
525.4134065979656
 20
421.5511264554693
 30
0.0
 11
1098.413406597966
 21
421.5511264554693
 31
0.0
  0
LINE
  5
D7
330
1F
100
AcDbEntity
  8
0-0
  6
JWW_DASHED1
 62
   120
370
     5
100
AcDbLine
 10
525.4134065979656
 20
420.5511264555691
 30
0.0
 11
1098.413406597966
 21
420.5511264555691
 31
0.0
  0
LINE
  5
D8
330
1F
100
AcDbEntity
  8
0-0
  6
JWW_DASHED1
 62
   120
370
     5
100
AcDbLine
 10
525.4134065979656
 20
407.5511264544696
 30
0.0
 11
1098.413406597966
 21
407.5511264544696
 31
0.0
  0
LINE
  5
D9
330
1F
100
AcDbEntity
  8
0-0
  6
JWW_DASHED1
 62
   120
370
     5
100
AcDbLine
 10
525.4134065979656
 20
406.5511264545694
 30
0.0
 11
1098.413406597966
 21
406.5511264545694
 31
0.0
  0
LINE
  5
DA
330
1F
100
AcDbEntity
  8
0-0
  6
JWW_DASHED1
 62
   120
370
     5
100
AcDbLine
 10
525.4134065979656
 20
393.5511264534698
 30
0.0
 11
1098.413406597966
 21
393.5511264534698
 31
0.0
  0
LINE
  5
DB
330
1F
100
AcDbEntity
  8
0-0
  6
JWW_DASHED1
 62
   120
370
     5
100
AcDbLine
 10
525.4134065979656
 20
392.5511264535696
 30
0.0
 11
1098.413406597966
 21
392.5511264535696
 31
0.0
  0
LINE
  5
DC
330
1F
100
AcDbEntity
  8
0-0
  6
JWW_DASHED1
 62
   120
370
     5
100
AcDbLine
 10
525.4134065979656
 20
379.55112645247
 30
0.0
 11
1098.413406597966
 21
379.55112645247
 31
0.0
  0
LINE
  5
DD
330
1F
100
AcDbEntity
  8
0-0
  6
JWW_DASHED1
 62
   120
370
     5
100
AcDbLine
 10
525.4134065979656
 20
378.5511264525698
 30
0.0
 11
1098.413406597966
 21
378.5511264525698
 31
0.0
  0
LINE
  5
DE
330
1F
100
AcDbEntity
  8
0-0
  6
JWW_DASHED1
 62
   120
370
     5
100
AcDbLine
 10
525.4134065979656
 20
365.5511264514702
 30
0.0
 11
1098.413406597966
 21
365.5511264514702
 31
0.0
  0
LINE
  5
DF
330
1F
100
AcDbEntity
  8
0-0
  6
JWW_DASHED1
 62
   120
370
     5
100
AcDbLine
 10
525.4134065979656
 20
364.55112645157
 30
0.0
 11
1098.413406597966
 21
364.55112645157
 31
0.0
  0
LINE
  5
E0
330
1F
100
AcDbEntity
  8
0-0
  6
JWW_DASHED1
 62
   120
370
     5
100
AcDbLine
 10
525.4134065979656
 20
351.5511264504704
 30
0.0
 11
1098.413406597966
 21
351.5511264504704
 31
0.0
  0
LINE
  5
E1
330
1F
100
AcDbEntity
  8
0-0
  6
JWW_DASHED1
 62
   120
370
     5
100
AcDbLine
 10
525.4134065979656
 20
350.5511264505702
 30
0.0
 11
1098.413406597966
 21
350.5511264505702
 31
0.0
  0
LINE
  5
E2
330
1F
100
AcDbEntity
  8
0-0
  6
JWW_DASHED1
 62
   120
370
     5
100
AcDbLine
 10
525.4134065979656
 20
337.5511264494706
 30
0.0
 11
1098.413406597966
 21
337.5511264494706
 31
0.0
  0
LINE
  5
E3
330
1F
100
AcDbEntity
  8
0-0
  6
JWW_DASHED1
 62
   120
370
     5
100
AcDbLine
 10
525.4134065979656
 20
336.5511264495705
 30
0.0
 11
1098.413406597966
 21
336.5511264495705
 31
0.0
  0
LINE
  5
E4
330
1F
100
AcDbEntity
  8
0-0
  6
JWW_DASHED1
 62
   120
370
     5
100
AcDbLine
 10
525.4134065979656
 20
323.5511264484708
 30
0.0
 11
1098.413406597966
 21
323.5511264484708
 31
0.0
  0
LINE
  5
E5
330
1F
100
AcDbEntity
  8
0-0
  6
JWW_DASHED1
 62
   120
370
     5
100
AcDbLine
 10
525.4134065979656
 20
322.5511264485706
 30
0.0
 11
1098.413406597966
 21
322.5511264485706
 31
0.0
  0
LINE
  5
E6
330
1F
100
AcDbEntity
  8
0-0
  6
JWW_DASHED1
 62
   120
370
     5
100
AcDbLine
 10
525.4134065979656
 20
309.551126447471
 30
0.0
 11
1098.413406597966
 21
309.551126447471
 31
0.0
  0
LINE
  5
E7
330
1F
100
AcDbEntity
  8
0-0
  6
JWW_DASHED1
 62
   120
370
     5
100
AcDbLine
 10
525.4134065979656
 20
308.5511264475708
 30
0.0
 11
1098.413406597966
 21
308.5511264475708
 31
0.0
  0
LINE
  5
E8
330
1F
100
AcDbEntity
  8
0-0
  6
JWW_DASHED1
 62
   120
370
     5
100
AcDbLine
 10
525.4134065979656
 20
295.5511264464712
 30
0.0
 11
1098.413406597966
 21
295.5511264464712
 31
0.0
  0
LINE
  5
E9
330
1F
100
AcDbEntity
  8
0-0
  6
JWW_DASHED1
 62
   120
370
     5
100
AcDbLine
 10
525.4134065979656
 20
294.5511264465711
 30
0.0
 11
1098.413406597966
 21
294.5511264465711
 31
0.0
  0
LINE
  5
EA
330
1F
100
AcDbEntity
  8
0-0
  6
JWW_DASHED1
 62
   120
370
     5
100
AcDbLine
 10
525.4134065979656
 20
281.5511264454715
 30
0.0
 11
1098.413406597966
 21
281.5511264454715
 31
0.0
  0
LINE
  5
EB
330
1F
100
AcDbEntity
  8
0-0
  6
JWW_DASHED1
 62
   120
370
     5
100
AcDbLine
 10
525.4134065979656
 20
280.5511264455713
 30
0.0
 11
1098.413406597966
 21
280.5511264455713
 31
0.0
  0
LINE
  5
EC
330
1F
100
AcDbEntity
  8
0-0
  6
JWW_DASHED1
 62
   120
370
     5
100
AcDbLine
 10
525.4134065979656
 20
267.5511264444717
 30
0.0
 11
1098.413406597966
 21
267.5511264444717
 31
0.0
  0
LINE
  5
ED
330
1F
100
AcDbEntity
  8
0-0
  6
JWW_DASHED1
 62
   120
370
     5
100
AcDbLine
 10
525.4134065979656
 20
266.5511264445715
 30
0.0
 11
1098.413406597966
 21
266.5511264445715
 31
0.0
  0
LINE
  5
EE
330
1F
100
AcDbEntity
  8
0-0
  6
JWW_DASHED1
 62
   120
370
     5
100
AcDbLine
 10
525.4134065979656
 20
253.5511264434719
 30
0.0
 11
1098.413406597966
 21
253.5511264434719
 31
0.0
  0
LINE
  5
EF
330
1F
100
AcDbEntity
  8
0-0
  6
JWW_DASHED1
 62
   120
370
     5
100
AcDbLine
 10
525.4134065979656
 20
252.5511264435717
 30
0.0
 11
1098.413406597966
 21
252.5511264435717
 31
0.0
  0
LINE
  5
F0
330
1F
100
AcDbEntity
  8
0-0
  6
JWW_DASHED1
 62
   120
370
     5
100
AcDbLine
 10
525.4134065979656
 20
239.5511264424721
 30
0.0
 11
1098.413406597966
 21
239.5511264424721
 31
0.0
  0
LINE
  5
F1
330
1F
100
AcDbEntity
  8
0-0
  6
JWW_DASHED1
 62
   120
370
     5
100
AcDbLine
 10
525.4134065979656
 20
238.5511264425719
 30
0.0
 11
1098.413406597966
 21
238.5511264425719
 31
0.0
  0
LINE
  5
F2
330
1F
100
AcDbEntity
  8
0-0
  6
JWW_DASHED1
 62
   120
370
     5
100
AcDbLine
 10
525.4134065979656
 20
225.5511264414723
 30
0.0
 11
1098.413406597966
 21
225.5511264414723
 31
0.0
  0
LINE
  5
F3
330
1F
100
AcDbEntity
  8
0-0
  6
JWW_DASHED1
 62
   120
370
     5
100
AcDbLine
 10
525.4134065979656
 20
224.5511264415721
 30
0.0
 11
1098.413406597966
 21
224.5511264415721
 31
0.0
  0
LINE
  5
F4
330
1F
100
AcDbEntity
  8
0-0
  6
JWW_DASHED1
 62
   120
370
     5
100
AcDbLine
 10
525.4134065979656
 20
211.5511264404725
 30
0.0
 11
1098.413406597966
 21
211.5511264404725
 31
0.0
  0
LINE
  5
F5
330
1F
100
AcDbEntity
  8
0-0
  6
JWW_DASHED1
 62
   120
370
     5
100
AcDbLine
 10
525.4134065979656
 20
210.5511264405723
 30
0.0
 11
1098.413406597966
 21
210.5511264405723
 31
0.0
  0
LINE
  5
F6
330
1F
100
AcDbEntity
  8
0-0
  6
JWW_DASHED1
 62
   120
370
     5
100
AcDbLine
 10
525.4134065979656
 20
197.5511264394727
 30
0.0
 11
1098.413406597966
 21
197.5511264394727
 31
0.0
  0
LINE
  5
F7
330
1F
100
AcDbEntity
  8
0-0
  6
JWW_DASHED1
 62
   120
370
     5
100
AcDbLine
 10
525.4134065979656
 20
196.5511264395725
 30
0.0
 11
1098.413406597966
 21
196.5511264395725
 31
0.0
  0
LINE
  5
F8
330
1F
100
AcDbEntity
  8
0-0
  6
JWW_DASHED1
 62
   120
370
     5
100
AcDbLine
 10
525.4134065979656
 20
183.5511264384729
 30
0.0
 11
1098.413406597966
 21
183.5511264384729
 31
0.0
  0
LINE
  5
F9
330
1F
100
AcDbEntity
  8
0-0
  6
JWW_DASHED1
 62
   120
370
     5
100
AcDbLine
 10
525.4134065979656
 20
182.5511264385727
 30
0.0
 11
1098.413406597966
 21
182.5511264385727
 31
0.0
  0
LINE
  5
FA
330
1F
100
AcDbEntity
  8
0-0
  6
JWW_DASHED1
 62
   120
370
     5
100
AcDbLine
 10
525.4134065979656
 20
169.5511264374731
 30
0.0
 11
1098.413406597966
 21
169.5511264374731
 31
0.0
  0
LINE
  5
FB
330
1F
100
AcDbEntity
  8
0-0
  6
JWW_DASHED1
 62
   120
370
     5
100
AcDbLine
 10
525.4134065979656
 20
168.5511264375729
 30
0.0
 11
1098.413406597966
 21
168.5511264375729
 31
0.0
  0
LINE
  5
FC
330
1F
100
AcDbEntity
  8
0-0
  6
JWW_DASHED1
 62
   120
370
     5
100
AcDbLine
 10
525.4134065979656
 20
155.5511264364733
 30
0.0
 11
1098.413406597966
 21
155.5511264364733
 31
0.0
  0
LINE
  5
FD
330
1F
100
AcDbEntity
  8
0-0
  6
JWW_DASHED1
 62
   120
370
     5
100
AcDbLine
 10
525.4134065979656
 20
154.5511264365732
 30
0.0
 11
1098.413406597966
 21
154.5511264365732
 31
0.0
  0
LINE
  5
FE
330
1F
100
AcDbEntity
  8
0-0
  6
JWW_DASHED1
 62
   120
370
     5
100
AcDbLine
 10
525.4134065979656
 20
141.5511264354735
 30
0.0
 11
1098.413406597966
 21
141.5511264354735
 31
0.0
  0
LINE
  5
FF
330
1F
100
AcDbEntity
  8
0-0
  6
JWW_DASHED1
 62
   120
370
     5
100
AcDbLine
 10
525.4134065979656
 20
140.5511264355734
 30
0.0
 11
1098.413406597966
 21
140.5511264355734
 31
0.0
  0
LINE
  5
100
330
1F
100
AcDbEntity
  8
0-0
  6
JWW_DASHED1
 62
   120
370
     5
100
AcDbLine
 10
525.4134065979656
 20
127.5511264344738
 30
0.0
 11
1098.413406597966
 21
127.5511264344738
 31
0.0
  0
LINE
  5
101
330
1F
100
AcDbEntity
  8
0-0
  6
JWW_DASHED1
 62
   120
370
     5
100
AcDbLine
 10
525.4134065979656
 20
126.5511264345736
 30
0.0
 11
1098.413406597966
 21
126.5511264345736
 31
0.0
  0
LINE
  5
102
330
1F
100
AcDbEntity
  8
0-0
  6
JWW_DASHED1
 62
   120
370
     5
100
AcDbLine
 10
525.4134065979656
 20
113.551126433474
 30
0.0
 11
1098.413406597966
 21
113.551126433474
 31
0.0
  0
LINE
  5
103
330
1F
100
AcDbEntity
  8
0-0
  6
JWW_DASHED1
 62
   120
370
     5
100
AcDbLine
 10
525.4134065979656
 20
112.5511264335738
 30
0.0
 11
1098.413406597966
 21
112.5511264335738
 31
0.0
  0
LINE
  5
104
330
1F
100
AcDbEntity
  8
0-0
  6
JWW_DASHED1
 62
   120
370
     5
100
AcDbLine
 10
525.4134065979656
 20
99.55112643247418
 30
0.0
 11
1098.413406597966
 21
99.55112643247418
 31
0.0
  0
LINE
  5
105
330
1F
100
AcDbEntity
  8
0-0
  6
JWW_DASHED1
 62
   120
370
     5
100
AcDbLine
 10
525.4134065979656
 20
98.551126432574
 30
0.0
 11
1098.413406597966
 21
98.551126432574
 31
0.0
  0
LINE
  5
106
330
1F
100
AcDbEntity
  8
0-0
  6
JWW_DASHED1
 62
   120
370
     5
100
AcDbLine
 10
525.4134065979656
 20
85.55112643147439
 30
0.0
 11
1098.413406597966
 21
85.55112643147439
 31
0.0
  0
LINE
  5
107
330
1F
100
AcDbEntity
  8
0-0
  6
JWW_DASHED1
 62
   120
370
     5
100
AcDbLine
 10
525.4134065979656
 20
84.5511264315742
 30
0.0
 11
1098.413406597966
 21
84.5511264315742
 31
0.0
  0
LINE
  5
108
330
1F
100
AcDbEntity
  8
0-0
  6
JWW_DASHED1
 62
   120
370
     5
100
AcDbLine
 10
525.4134065979656
 20
71.5511264304746
 30
0.0
 11
1098.413406597966
 21
71.5511264304746
 31
0.0
  0
LINE
  5
109
330
1F
100
AcDbEntity
  8
0-0
  6
JWW_DASHED1
 62
   120
370
     5
100
AcDbLine
 10
525.4134065979656
 20
70.55112643057441
 30
0.0
 11
1098.413406597966
 21
70.55112643057441
 31
0.0
  0
LINE
  5
10A
330
1F
100
AcDbEntity
  8
0-0
  6
JWW_DASHED1
 62
   120
370
     5
100
AcDbLine
 10
525.4134065979656
 20
57.55112642947481
 30
0.0
 11
1098.413406597966
 21
57.55112642947481
 31
0.0
  0
LINE
  5
10B
330
1F
100
AcDbEntity
  8
0-0
  6
JWW_DASHED1
 62
   120
370
     5
100
AcDbLine
 10
525.4134065979656
 20
56.55112642957462
 30
0.0
 11
1098.413406597966
 21
56.55112642957462
 31
0.0
  0
LINE
  5
10C
330
1F
100
AcDbEntity
  8
0-0
  6
JWW_DASHED1
 62
   120
370
     5
100
AcDbLine
 10
525.4134065979656
 20
43.55112642847502
 30
0.0
 11
1098.413406597966
 21
43.55112642847502
 31
0.0
  0
LINE
  5
10D
330
1F
100
AcDbEntity
  8
0-0
  6
JWW_DASHED1
 62
   120
370
     5
100
AcDbLine
 10
525.4134065979656
 20
42.55112642857483
 30
0.0
 11
1098.413406597966
 21
42.55112642857483
 31
0.0
  0
LINE
  5
10E
330
1F
100
AcDbEntity
  8
0-0
  6
JWW_DASHED1
 62
   120
370
     5
100
AcDbLine
 10
525.4134065979656
 20
29.55112642747523
 30
0.0
 11
1098.413406597966
 21
29.55112642747523
 31
0.0
  0
LINE
  5
10F
330
1F
100
AcDbEntity
  8
0-0
  6
JWW_DASHED1
 62
   120
370
     5
100
AcDbLine
 10
525.4134065979656
 20
28.55112642757504
 30
0.0
 11
1098.413406597966
 21
28.55112642757504
 31
0.0
  0
LINE
  5
110
330
1F
100
AcDbEntity
  8
0-0
  6
JWW_DASHED1
 62
   120
370
     5
100
AcDbLine
 10
525.4134065979656
 20
15.55112642647543
 30
0.0
 11
1098.413406597966
 21
15.55112642647543
 31
0.0
  0
LINE
  5
111
330
1F
100
AcDbEntity
  8
0-0
  6
JWW_DASHED1
 62
   120
370
     5
100
AcDbLine
 10
525.4134065979656
 20
14.55112642657525
 30
0.0
 11
1098.413406597966
 21
14.55112642657525
 31
0.0
  0
LINE
  5
112
330
1F
100
AcDbEntity
  8
0-0
  6
JWW_DASHED1
 62
   120
370
     5
100
AcDbLine
 10
525.4134065979656
 20
1.551126425475644
 30
0.0
 11
1098.413406597966
 21
1.551126425475644
 31
0.0
  0
LINE
  5
113
330
1F
100
AcDbEntity
  8
0-0
  6
JWW_DASHED1
 62
   120
370
     5
100
AcDbLine
 10
525.4134065979656
 20
0.5511264255754611
 30
0.0
 11
1098.413406597966
 21
0.5511264255754611
 31
0.0
  0
LINE
  5
114
330
1F
100
AcDbEntity
  8
0-0
  6
JWW_DASHED1
 62
   120
370
     5
100
AcDbLine
 10
525.4134065979656
 20
-12.44887357552415
 30
0.0
 11
1098.413406597966
 21
-12.44887357552415
 31
0.0
  0
LINE
  5
115
330
1F
100
AcDbEntity
  8
0-0
  6
JWW_DASHED1
 62
   120
370
     5
100
AcDbLine
 10
525.4134065979656
 20
-13.44887357542433
 30
0.0
 11
1098.413406597966
 21
-13.44887357542433
 31
0.0
  0
LINE
  5
116
330
1F
100
AcDbEntity
  8
0-0
  6
JWW_DASHED1
 62
   120
370
     5
100
AcDbLine
 10
525.4134065979656
 20
-26.44887357652394
 30
0.0
 11
1098.413406597966
 21
-26.44887357652394
 31
0.0
  0
LINE
  5
117
330
1F
100
AcDbEntity
  8
0-0
  6
JWW_DASHED1
 62
   120
370
     5
100
AcDbLine
 10
525.4134065979656
 20
-27.44887357642412
 30
0.0
 11
1098.413406597966
 21
-27.44887357642412
 31
0.0
  0
LINE
  5
118
330
1F
100
AcDbEntity
  8
0-0
  6
JWW_DASHED1
 62
   120
370
     5
100
AcDbLine
 10
525.4134065979656
 20
-40.44887357752373
 30
0.0
 11
1098.413406597966
 21
-40.44887357752373
 31
0.0
  0
LINE
  5
119
330
1F
100
AcDbEntity
  8
0-0
  6
JWW_DASHED1
 62
   120
370
     5
100
AcDbLine
 10
525.4134065979656
 20
-41.44887357742391
 30
0.0
 11
1098.413406597966
 21
-41.44887357742391
 31
0.0
  0
LINE
  5
11A
330
1F
100
AcDbEntity
  8
0-0
  6
JWW_DASHED1
 62
   120
370
     5
100
AcDbLine
 10
525.4134065979656
 20
-54.44887357852352
 30
0.0
 11
1098.413406597966
 21
-54.44887357852352
 31
0.0
  0
LINE
  5
11B
330
1F
100
AcDbEntity
  8
0-0
  6
JWW_DASHED1
 62
   120
370
     5
100
AcDbLine
 10
525.4134065979656
 20
-55.4488735784237
 30
0.0
 11
1098.413406597966
 21
-55.4488735784237
 31
0.0
  0
LINE
  5
11C
330
1F
100
AcDbEntity
  8
0-0
  6
JWW_DASHED1
 62
   120
370
     5
100
AcDbLine
 10
525.4134065979656
 20
-68.44887357952331
 30
0.0
 11
1098.413406597966
 21
-68.44887357952331
 31
0.0
  0
LINE
  5
11D
330
1F
100
AcDbEntity
  8
0-0
  6
JWW_DASHED1
 62
   120
370
     5
100
AcDbLine
 10
525.4134065979656
 20
-69.44887357942349
 30
0.0
 11
1098.413406597966
 21
-69.44887357942349
 31
0.0
  0
LINE
  5
11E
330
1F
100
AcDbEntity
  8
0-0
  6
JWW_DASHED1
 62
   120
370
     5
100
AcDbLine
 10
525.4134065979656
 20
-82.4488735805231
 30
0.0
 11
1098.413406597966
 21
-82.4488735805231
 31
0.0
  0
LINE
  5
11F
330
1F
100
AcDbEntity
  8
0-0
  6
JWW_DASHED1
 62
   120
370
     5
100
AcDbLine
 10
525.4134065979656
 20
-83.44887358042328
 30
0.0
 11
1098.413406597966
 21
-83.44887358042328
 31
0.0
  0
LINE
  5
120
330
1F
100
AcDbEntity
  8
0-0
  6
JWW_DASHED1
 62
   120
370
     5
100
AcDbLine
 10
525.4134065979656
 20
-96.44887358152289
 30
0.0
 11
1098.413406597966
 21
-96.44887358152289
 31
0.0
  0
LINE
  5
121
330
1F
100
AcDbEntity
  8
0-0
  6
JWW_DASHED1
 62
   120
370
     5
100
AcDbLine
 10
525.4134065979656
 20
-97.44887358142307
 30
0.0
 11
1098.413406597966
 21
-97.44887358142307
 31
0.0
  0
LINE
  5
122
330
1F
100
AcDbEntity
  8
0-0
  6
JWW_DASHED1
 62
   120
370
     5
100
AcDbLine
 10
525.4134065979656
 20
-110.4488735825227
 30
0.0
 11
1098.413406597966
 21
-110.4488735825227
 31
0.0
  0
LINE
  5
123
330
1F
100
AcDbEntity
  8
0-0
  6
JWW_DASHED1
 62
   120
370
     5
100
AcDbLine
 10
525.4134065979656
 20
-111.4488735824229
 30
0.0
 11
1098.413406597966
 21
-111.4488735824229
 31
0.0
  0
LINE
  5
124
330
1F
100
AcDbEntity
  8
0-0
  6
JWW_DASHED1
 62
   120
370
     5
100
AcDbLine
 10
525.4134065979656
 20
-124.4488735835225
 30
0.0
 11
1098.413406597966
 21
-124.4488735835225
 31
0.0
  0
LINE
  5
125
330
1F
100
AcDbEntity
  8
0-0
  6
JWW_DASHED1
 62
   120
370
     5
100
AcDbLine
 10
525.4134065979656
 20
-125.4488735834227
 30
0.0
 11
1098.413406597966
 21
-125.4488735834227
 31
0.0
  0
LINE
  5
126
330
1F
100
AcDbEntity
  8
0-0
  6
JWW_DASHED1
 62
   120
370
     5
100
AcDbLine
 10
525.4134065979656
 20
-138.4488735845223
 30
0.0
 11
1098.413406597966
 21
-138.4488735845223
 31
0.0
  0
LINE
  5
127
330
1F
100
AcDbEntity
  8
0-0
  6
JWW_DASHED1
 62
   120
370
     5
100
AcDbLine
 10
525.4134065979656
 20
-139.4488735844224
 30
0.0
 11
1098.413406597966
 21
-139.4488735844224
 31
0.0
  0
LINE
  5
128
330
1F
100
AcDbEntity
  8
0-0
  6
JWW_DASHED1
 62
   120
370
     5
100
AcDbLine
 10
525.4134065979656
 20
-152.4488735855221
 30
0.0
 11
1098.413406597966
 21
-152.4488735855221
 31
0.0
  0
LINE
  5
129
330
1F
100
AcDbEntity
  8
0-0
  6
JWW_DASHED1
 62
   120
370
     5
100
AcDbLine
 10
525.4134065979656
 20
-153.4488735854222
 30
0.0
 11
1098.413406597966
 21
-153.4488735854222
 31
0.0
  0
LINE
  5
12A
330
1F
100
AcDbEntity
  8
0-0
  6
JWW_DASHED1
 62
   120
370
     5
100
AcDbLine
 10
525.4134065979656
 20
-166.4488735865218
 30
0.0
 11
1098.413406597966
 21
-166.4488735865218
 31
0.0
  0
LINE
  5
12B
330
1F
100
AcDbEntity
  8
0-0
  6
JWW_DASHED1
 62
   120
370
     5
100
AcDbLine
 10
525.4134065979656
 20
-167.448873586422
 30
0.0
 11
1098.413406597966
 21
-167.448873586422
 31
0.0
  0
LINE
  5
12C
330
1F
100
AcDbEntity
  8
0-0
  6
JWW_DASHED1
 62
   120
370
     5
100
AcDbLine
 10
525.4134065979656
 20
-180.4488735875216
 30
0.0
 11
1098.413406597966
 21
-180.4488735875216
 31
0.0
  0
LINE
  5
12D
330
1F
100
AcDbEntity
  8
0-0
  6
JWW_DASHED1
 62
   120
370
     5
100
AcDbLine
 10
525.4134065979656
 20
-181.4488735874218
 30
0.0
 11
1098.413406597966
 21
-181.4488735874218
 31
0.0
  0
LINE
  5
12E
330
1F
100
AcDbEntity
  8
0-0
  6
JWW_DASHED1
 62
   120
370
     5
100
AcDbLine
 10
525.4134065979656
 20
-194.4488735885214
 30
0.0
 11
1098.413406597966
 21
-194.4488735885214
 31
0.0
  0
LINE
  5
12F
330
1F
100
AcDbEntity
  8
0-0
  6
JWW_DASHED1
 62
   120
370
     5
100
AcDbLine
 10
525.4134065979656
 20
-195.4488735884216
 30
0.0
 11
1098.413406597966
 21
-195.4488735884216
 31
0.0
  0
LINE
  5
130
330
1F
100
AcDbEntity
  8
0-0
  6
JWW_DASHED1
 62
   120
370
     5
100
AcDbLine
 10
525.4134065979656
 20
-208.4488735895212
 30
0.0
 11
1098.413406597966
 21
-208.4488735895212
 31
0.0
  0
LINE
  5
131
330
1F
100
AcDbEntity
  8
0-0
  6
JWW_DASHED1
 62
   120
370
     5
100
AcDbLine
 10
525.4134065979656
 20
-209.4488735894214
 30
0.0
 11
1098.413406597966
 21
-209.4488735894214
 31
0.0
  0
LINE
  5
132
330
1F
100
AcDbEntity
  8
0-0
  6
JWW_DASHED1
 62
   120
370
     5
100
AcDbLine
 10
525.4134065979656
 20
-222.448873590521
 30
0.0
 11
1098.413406597966
 21
-222.448873590521
 31
0.0
  0
LINE
  5
133
330
1F
100
AcDbEntity
  8
0-0
  6
JWW_DASHED1
 62
   120
370
     5
100
AcDbLine
 10
525.4134065979656
 20
-223.4488735904212
 30
0.0
 11
1098.413406597966
 21
-223.4488735904212
 31
0.0
  0
LINE
  5
134
330
1F
100
AcDbEntity
  8
0-0
  6
JWW_DASHED1
 62
   120
370
     5
100
AcDbLine
 10
525.4134065979656
 20
-236.4488735915208
 30
0.0
 11
1098.413406597966
 21
-236.4488735915208
 31
0.0
  0
LINE
  5
135
330
1F
100
AcDbEntity
  8
0-0
  6
JWW_DASHED1
 62
   120
370
     5
100
AcDbLine
 10
525.4134065979656
 20
-237.448873591421
 30
0.0
 11
1098.413406597966
 21
-237.448873591421
 31
0.0
  0
LINE
  5
136
330
1F
100
AcDbEntity
  8
0-0
  6
JWW_DASHED1
 62
   120
370
     5
100
AcDbLine
 10
525.4134065979656
 20
-250.4488735925206
 30
0.0
 11
1098.413406597966
 21
-250.4488735925206
 31
0.0
  0
LINE
  5
137
330
1F
100
AcDbEntity
  8
0-0
  6
JWW_DASHED1
 62
   120
370
     5
100
AcDbLine
 10
525.4134065979656
 20
-251.4488735924208
 30
0.0
 11
1098.413406597966
 21
-251.4488735924208
 31
0.0
  0
LINE
  5
138
330
1F
100
AcDbEntity
  8
0-0
  6
JWW_DASHED1
 62
   120
370
     5
100
AcDbLine
 10
525.4134065979656
 20
-264.4488735935204
 30
0.0
 11
1098.413406597966
 21
-264.4488735935204
 31
0.0
  0
LINE
  5
139
330
1F
100
AcDbEntity
  8
0-0
  6
JWW_DASHED1
 62
   120
370
     5
100
AcDbLine
 10
525.4134065979656
 20
-265.4488735934206
 30
0.0
 11
1098.413406597966
 21
-265.4488735934206
 31
0.0
  0
LINE
  5
13A
330
1F
100
AcDbEntity
  8
0-0
  6
JWW_DASHED1
 62
   120
370
     5
100
AcDbLine
 10
525.4134065979656
 20
-278.4488735945201
 30
0.0
 11
1098.413406597966
 21
-278.4488735945201
 31
0.0
  0
LINE
  5
13B
330
1F
100
AcDbEntity
  8
0-0
  6
JWW_DASHED1
 62
   120
370
     5
100
AcDbLine
 10
525.4134065979656
 20
-279.4488735944203
 30
0.0
 11
1098.413406597966
 21
-279.4488735944203
 31
0.0
  0
LINE
  5
13C
330
1F
100
AcDbEntity
  8
0-0
  6
JWW_DASHED1
 62
   120
370
     5
100
AcDbLine
 10
525.4134065979656
 20
-292.44887359552
 30
0.0
 11
1098.413406597966
 21
-292.44887359552
 31
0.0
  0
LINE
  5
13D
330
1F
100
AcDbEntity
  8
0-0
  6
JWW_DASHED1
 62
   120
370
     5
100
AcDbLine
 10
525.4134065979656
 20
-293.4488735954201
 30
0.0
 11
1098.413406597966
 21
-293.4488735954201
 31
0.0
  0
LINE
  5
13E
330
1F
100
AcDbEntity
  8
0-0
  6
JWW_DASHED1
 62
   120
370
     5
100
AcDbLine
 10
525.4134065979656
 20
-306.4488735965198
 30
0.0
 11
1098.413406597966
 21
-306.4488735965198
 31
0.0
  0
LINE
  5
13F
330
1F
100
AcDbEntity
  8
0-0
  6
JWW_DASHED1
 62
   120
370
     5
100
AcDbLine
 10
525.4134065979656
 20
-307.44887359642
 30
0.0
 11
1098.413406597966
 21
-307.44887359642
 31
0.0
  0
LINE
  5
140
330
1F
100
AcDbEntity
  8
0-0
  6
JWW_DASHED1
 62
   120
370
     5
100
AcDbLine
 10
525.4134065979656
 20
-320.4488735975195
 30
0.0
 11
1098.413406597966
 21
-320.4488735975195
 31
0.0
  0
LINE
  5
141
330
1F
100
AcDbEntity
  8
0-0
  6
JWW_DASHED1
 62
   120
370
     5
100
AcDbLine
 10
525.4134065979656
 20
-321.4488735974197
 30
0.0
 11
1098.413406597966
 21
-321.4488735974197
 31
0.0
  0
LINE
  5
142
330
1F
100
AcDbEntity
  8
0-0
  6
JWW_DASHED1
 62
   120
370
     5
100
AcDbLine
 10
525.4134065979656
 20
-334.4488735985193
 30
0.0
 11
1098.413406597966
 21
-334.4488735985193
 31
0.0
  0
LINE
  5
143
330
1F
100
AcDbEntity
  8
0-0
  6
JWW_DASHED1
 62
   120
370
     5
100
AcDbLine
 10
525.4134065979656
 20
-335.4488735984195
 30
0.0
 11
1098.413406597966
 21
-335.4488735984195
 31
0.0
  0
LINE
  5
144
330
1F
100
AcDbEntity
  8
0-0
  6
JWW_DASHED1
 62
   120
370
     5
100
AcDbLine
 10
525.4134065979656
 20
-348.4488735995191
 30
0.0
 11
1098.413406597966
 21
-348.4488735995191
 31
0.0
  0
LINE
  5
145
330
1F
100
AcDbEntity
  8
0-0
  6
JWW_DASHED1
 62
   120
370
     5
100
AcDbLine
 10
525.4134065979656
 20
-349.4488735994193
 30
0.0
 11
1098.413406597966
 21
-349.4488735994193
 31
0.0
  0
LINE
  5
146
330
1F
100
AcDbEntity
  8
0-0
  6
JWW_DASHED1
 62
   120
370
     5
100
AcDbLine
 10
525.4134065979656
 20
-362.4488736005189
 30
0.0
 11
1098.413406597966
 21
-362.4488736005189
 31
0.0
  0
LINE
  5
147
330
1F
100
AcDbEntity
  8
0-0
  6
JWW_DASHED1
 62
   120
370
     5
100
AcDbLine
 10
525.4134065979656
 20
-363.4488736004191
 30
0.0
 11
1098.413406597966
 21
-363.4488736004191
 31
0.0
  0
LINE
  5
148
330
1F
100
AcDbEntity
  8
0-0
  6
JWW_DASHED1
 62
   120
370
     5
100
AcDbLine
 10
525.4134065979656
 20
-376.4488736015187
 30
0.0
 11
1098.413406597966
 21
-376.4488736015187
 31
0.0
  0
LINE
  5
149
330
1F
100
AcDbEntity
  8
0-0
  6
JWW_DASHED1
 62
   120
370
     5
100
AcDbLine
 10
525.4134065979656
 20
-377.4488736014189
 30
0.0
 11
1098.413406597966
 21
-377.4488736014189
 31
0.0
  0
LINE
  5
14A
330
1F
100
AcDbEntity
  8
0-0
  6
JWW_DASHED1
 62
   120
370
     5
100
AcDbLine
 10
525.4134065979656
 20
-390.4488736025185
 30
0.0
 11
1098.413406597966
 21
-390.4488736025185
 31
0.0
  0
LINE
  5
14B
330
1F
100
AcDbEntity
  8
0-0
  6
JWW_DASHED1
 62
   120
370
     5
100
AcDbLine
 10
525.4134065979656
 20
-391.4488736024186
 30
0.0
 11
1098.413406597966
 21
-391.4488736024186
 31
0.0
  0
LINE
  5
14C
330
1F
100
AcDbEntity
  8
0-0
  6
JWW_DASHED1
 62
   120
370
     5
100
AcDbLine
 10
525.4134065979656
 20
-404.4488736035183
 30
0.0
 11
1098.413406597966
 21
-404.4488736035183
 31
0.0
  0
LINE
  5
14D
330
1F
100
AcDbEntity
  8
0-0
  6
JWW_DASHED1
 62
   120
370
     5
100
AcDbLine
 10
525.4134065979656
 20
-405.4488736034185
 30
0.0
 11
1098.413406597966
 21
-405.4488736034185
 31
0.0
  0
LINE
  5
14E
330
1F
100
AcDbEntity
  8
0-0
  6
JWW_DASHED1
 62
   120
370
     5
100
AcDbLine
 10
525.4134065979656
 20
-418.4488736045181
 30
0.0
 11
1098.413406597966
 21
-418.4488736045181
 31
0.0
  0
LINE
  5
14F
330
1F
100
AcDbEntity
  8
0-0
  6
JWW_DASHED1
 62
   120
370
     5
100
AcDbLine
 10
525.4134065979656
 20
-419.4488736044183
 30
0.0
 11
1098.413406597966
 21
-419.4488736044183
 31
0.0
  0
LINE
  5
150
330
1F
100
AcDbEntity
  8
0-0
  6
JWW_DASHED1
 62
   120
370
     5
100
AcDbLine
 10
525.4134065979656
 20
-432.4488736055179
 30
0.0
 11
1098.413406597966
 21
-432.4488736055179
 31
0.0
  0
LINE
  5
151
330
1F
100
AcDbEntity
  8
0-0
  6
JWW_DASHED1
 62
   120
370
     5
100
AcDbLine
 10
525.4134065979656
 20
-433.448873605418
 30
0.0
 11
1098.413406597966
 21
-433.448873605418
 31
0.0
  0
LINE
  5
152
330
1F
100
AcDbEntity
  8
0-0
  6
JWW_DASHED1
 62
   120
370
     5
100
AcDbLine
 10
525.4134065979656
 20
-446.4488736065176
 30
0.0
 11
1098.413406597966
 21
-446.4488736065176
 31
0.0
  0
LINE
  5
153
330
1F
100
AcDbEntity
  8
0-0
  6
JWW_DASHED1
 62
   120
370
     5
100
AcDbLine
 10
525.4134065979656
 20
-447.4488736064178
 30
0.0
 11
1098.413406597966
 21
-447.4488736064178
 31
0.0
  0
LINE
  5
154
330
1F
100
AcDbEntity
  8
0-0
  6
JWW_DASHED1
 62
   120
370
     5
100
AcDbLine
 10
525.4134065979656
 20
-460.4488736075174
 30
0.0
 11
1098.413406597966
 21
-460.4488736075174
 31
0.0
  0
LINE
  5
155
330
1F
100
AcDbEntity
  8
0-0
  6
JWW_DASHED1
 62
   120
370
     5
100
AcDbLine
 10
525.4134065979656
 20
-461.4488736074176
 30
0.0
 11
1098.413406597966
 21
-461.4488736074176
 31
0.0
  0
LINE
  5
156
330
1F
100
AcDbEntity
  8
0-0
  6
JWW_DASHED1
 62
   120
370
     5
100
AcDbLine
 10
525.4134065979656
 20
-474.4488736085173
 30
0.0
 11
1098.413406597966
 21
-474.4488736085173
 31
0.0
  0
LINE
  5
157
330
1F
100
AcDbEntity
  8
0-0
  6
JWW_DASHED1
 62
   120
370
     5
100
AcDbLine
 10
525.4134065979656
 20
-475.4488736084174
 30
0.0
 11
1098.413406597966
 21
-475.4488736084174
 31
0.0
  0
LINE
  5
158
330
1F
100
AcDbEntity
  8
0-0
  6
JWW_DASHED1
 62
   120
370
     5
100
AcDbLine
 10
525.4134065979656
 20
-488.448873609517
 30
0.0
 11
1098.413406597966
 21
-488.448873609517
 31
0.0
  0
LINE
  5
159
330
1F
100
AcDbEntity
  8
0-0
  6
JWW_DASHED1
 62
   120
370
     5
100
AcDbLine
 10
-248.5865749440025
 20
-489.4487252955735
 30
0.0
 11
-248.5865749440025
 21
625.551007160118
 31
0.0
  0
LINE
  5
15A
330
1F
100
AcDbEntity
  8
0-0
  6
JWW_DASHED1
 62
   120
370
     5
100
AcDbLine
 10
-247.5865749441023
 20
-489.4487252955735
 30
0.0
 11
-247.5865749441023
 21
625.551007160118
 31
0.0
  0
LINE
  5
15B
330
1F
100
AcDbEntity
  8
0-0
  6
JWW_DASHED1
 62
   120
370
     5
100
AcDbLine
 10
-234.5865749430025
 20
-489.4487252955735
 30
0.0
 11
-234.5865749430025
 21
625.551007160118
 31
0.0
  0
LINE
  5
15C
330
1F
100
AcDbEntity
  8
0-0
  6
JWW_DASHED1
 62
   120
370
     5
100
AcDbLine
 10
-233.5865749431023
 20
-489.4487252955735
 30
0.0
 11
-233.5865749431023
 21
625.551007160118
 31
0.0
  0
LINE
  5
15D
330
1F
100
AcDbEntity
  8
0-0
  6
JWW_DASHED1
 62
   120
370
     5
100
AcDbLine
 10
-220.5865749420024
 20
-489.4487252955735
 30
0.0
 11
-220.5865749420024
 21
625.551007160118
 31
0.0
  0
LINE
  5
15E
330
1F
100
AcDbEntity
  8
0-0
  6
JWW_DASHED1
 62
   120
370
     5
100
AcDbLine
 10
-219.5865749421022
 20
-489.4487252955735
 30
0.0
 11
-219.5865749421022
 21
625.551007160118
 31
0.0
  0
LINE
  5
15F
330
1F
100
AcDbEntity
  8
0-0
  6
JWW_DASHED1
 62
   120
370
     5
100
AcDbLine
 10
-206.5865749410025
 20
-489.4487252955735
 30
0.0
 11
-206.5865749410025
 21
625.551007160118
 31
0.0
  0
LINE
  5
160
330
1F
100
AcDbEntity
  8
0-0
  6
JWW_DASHED1
 62
   120
370
     5
100
AcDbLine
 10
-205.5865749411023
 20
-489.4487252955735
 30
0.0
 11
-205.5865749411023
 21
625.551007160118
 31
0.0
  0
LINE
  5
161
330
1F
100
AcDbEntity
  8
0-0
  6
JWW_DASHED1
 62
   120
370
     5
100
AcDbLine
 10
-192.5865749400024
 20
-489.4487252955735
 30
0.0
 11
-192.5865749400024
 21
626.1143028770836
 31
0.0
  0
LINE
  5
162
330
1F
100
AcDbEntity
  8
0-0
  6
JWW_DASHED1
 62
   120
370
     5
100
AcDbLine
 10
-191.5865749401023
 20
-489.4487252955735
 30
0.0
 11
-191.5865749401023
 21
626.2045847885544
 31
0.0
  0
LINE
  5
163
330
1F
100
AcDbEntity
  8
0-0
  6
JWW_DASHED1
 62
   120
370
     5
100
AcDbLine
 10
-178.5865749390024
 20
-489.4487252955735
 30
0.0
 11
-178.5865749390024
 21
627.9987024611706
 31
0.0
  0
LINE
  5
164
330
1F
100
AcDbEntity
  8
0-0
  6
JWW_DASHED1
 62
   120
370
     5
100
AcDbLine
 10
-177.5865749391023
 20
-489.4487252955735
 30
0.0
 11
-177.5865749391023
 21
628.1851091029217
 31
0.0
  0
LINE
  5
165
330
1F
100
AcDbEntity
  8
0-0
  6
JWW_DASHED1
 62
   120
370
     5
100
AcDbLine
 10
-164.5865749380024
 20
-489.4487252955735
 30
0.0
 11
-164.5865749380024
 21
631.2595082527674
 31
0.0
  0
LINE
  5
166
330
1F
100
AcDbEntity
  8
0-0
  6
JWW_DASHED1
 62
   120
370
     5
100
AcDbLine
 10
-163.5865749381022
 20
-489.4487252955735
 30
0.0
 11
-163.5865749381022
 21
631.547319897743
 31
0.0
  0
LINE
  5
167
330
1F
100
AcDbEntity
  8
0-0
  6
JWW_DASHED1
 62
   120
370
     5
100
AcDbLine
 10
-150.5865749370024
 20
-489.4487252955735
 30
0.0
 11
-150.5865749370024
 21
635.9931672089784
 31
0.0
  0
LINE
  5
168
330
1F
100
AcDbEntity
  8
0-0
  6
JWW_DASHED1
 62
   120
370
     5
100
AcDbLine
 10
-149.5865749371023
 20
-489.4487252955735
 30
0.0
 11
-149.5865749371023
 21
636.3913291637779
 31
0.0
  0
LINE
  5
169
330
1F
100
AcDbEntity
  8
0-0
  6
JWW_DASHED1
 62
   120
370
     5
100
AcDbLine
 10
-136.5865749360024
 20
-489.4487252955735
 30
0.0
 11
-136.5865749360024
 21
642.3566201662812
 31
0.0
  0
LINE
  5
16A
330
1F
100
AcDbEntity
  8
0-0
  6
JWW_DASHED1
 62
   120
370
     5
100
AcDbLine
 10
-135.5865749361022
 20
-489.4487252955735
 30
0.0
 11
-135.5865749361022
 21
642.8793447189652
 31
0.0
  0
LINE
  5
16B
330
1F
100
AcDbEntity
  8
0-0
  6
JWW_DASHED1
 62
   120
370
     5
100
AcDbLine
 10
-122.5865749350024
 20
-489.4487252955735
 30
0.0
 11
-122.5865749350024
 21
649.6050212293046
 31
0.0
  0
LINE
  5
16C
330
1F
100
AcDbEntity
  8
0-0
  6
JWW_DASHED1
 62
   120
370
     5
100
AcDbLine
 10
-121.5865749351022
 20
-489.4487252955735
 30
0.0
 11
-121.5865749351022
 21
650.0950008687466
 31
0.0
  0
LINE
  5
16D
330
1F
100
AcDbEntity
  8
0-0
  6
JWW_DASHED1
 62
   120
370
     5
100
AcDbLine
 10
-108.5865749340024
 20
-489.4487252955735
 30
0.0
 11
-108.5865749340024
 21
656.1128993408199
 31
0.0
  0
LINE
  5
16E
330
1F
100
AcDbEntity
  8
0-0
  6
JWW_DASHED1
 62
   120
370
     5
100
AcDbLine
 10
-107.5865749341022
 20
-489.4487252955735
 30
0.0
 11
-107.5865749341022
 21
656.5493356838631
 31
0.0
  0
LINE
  5
16F
330
1F
100
AcDbEntity
  8
0-0
  6
JWW_DASHED1
 62
   120
370
     5
100
AcDbLine
 10
-94.58657493300242
 20
-489.4487252955735
 30
0.0
 11
-94.58657493300242
 21
661.8912119978229
 31
0.0
  0
LINE
  5
170
330
1F
100
AcDbEntity
  8
0-0
  6
JWW_DASHED1
 62
   120
370
     5
100
AcDbLine
 10
-93.58657493310224
 20
-489.4487252955735
 30
0.0
 11
-93.58657493310224
 21
662.2770842691132
 31
0.0
  0
LINE
  5
171
330
1F
100
AcDbEntity
  8
0-0
  6
JWW_DASHED1
 62
   120
370
     5
100
AcDbLine
 10
-80.58657493200242
 20
-489.4487252955735
 30
0.0
 11
-80.58657493200242
 21
666.9781205630131
 31
0.0
  0
LINE
  5
172
330
1F
100
AcDbEntity
  8
0-0
  6
JWW_DASHED1
 62
   120
370
     5
100
AcDbLine
 10
-79.58657493210224
 20
-489.4487252955735
 30
0.0
 11
-79.58657493210224
 21
667.3158811934225
 31
0.0
  0
LINE
  5
173
330
1F
100
AcDbEntity
  8
0-0
  6
JWW_DASHED1
 62
   120
370
     5
100
AcDbLine
 10
-66.58657493100242
 20
-489.4487252955735
 30
0.0
 11
-66.58657493100242
 21
671.4050429411288
 31
0.0
  0
LINE
  5
174
330
1F
100
AcDbEntity
  8
0-0
  6
JWW_DASHED1
 62
   120
370
     5
100
AcDbLine
 10
-65.58657493110223
 20
-489.4487252955735
 30
0.0
 11
-65.58657493110223
 21
671.6967098985112
 31
0.0
  0
LINE
  5
175
330
1F
100
AcDbEntity
  8
0-0
  6
JWW_DASHED1
 62
   120
370
     5
100
AcDbLine
 10
-52.58657493000241
 20
-489.4487252955735
 30
0.0
 11
-52.58657493000241
 21
675.1977867162129
 31
0.0
  0
LINE
  5
176
330
1F
100
AcDbEntity
  8
0-0
  6
JWW_DASHED1
 62
   120
370
     5
100
AcDbLine
 10
-51.58657493010223
 20
-489.4487252955735
 30
0.0
 11
-51.58657493010223
 21
675.4450126355875
 31
0.0
  0
LINE
  5
177
330
1F
100
AcDbEntity
  8
0-0
  6
JWW_DASHED1
 62
   120
370
     5
100
AcDbLine
 10
-38.58657492900241
 20
-489.4487252955735
 30
0.0
 11
-38.58657492900241
 21
678.3774006118581
 31
0.0
  0
LINE
  5
178
330
1F
100
AcDbEntity
  8
0-0
  6
JWW_DASHED1
 62
   120
370
     5
100
AcDbLine
 10
-37.58657492910223
 20
-489.4487252955735
 30
0.0
 11
-37.58657492910223
 21
678.5815249269724
 31
0.0
  0
LINE
  5
179
330
1F
100
AcDbEntity
  8
0-0
  6
JWW_DASHED1
 62
   120
370
     5
100
AcDbLine
 10
-24.5865749280024
 20
-489.4487252955735
 30
0.0
 11
-24.5865749280024
 21
680.9608172587066
 31
0.0
  0
LINE
  5
17A
330
1F
100
AcDbEntity
  8
0-0
  6
JWW_DASHED1
 62
   120
370
     5
100
AcDbLine
 10
-23.58657492810222
 20
-489.4487252955735
 30
0.0
 11
-23.58657492810222
 21
681.1229055577458
 31
0.0
  0
LINE
  5
17B
330
1F
100
AcDbEntity
  8
0-0
  6
JWW_DASHED1
 62
   120
370
     5
100
AcDbLine
 10
-10.5865749270024
 20
-489.4487252955735
 30
0.0
 11
-10.5865749270024
 21
682.9613372679121
 31
0.0
  0
LINE
  5
17C
330
1F
100
AcDbEntity
  8
0-0
  6
JWW_DASHED1
 62
   120
370
     5
100
AcDbLine
 10
-9.586574927102216
 20
-489.4487252955735
 30
0.0
 11
-9.586574927102216
 21
683.0822107855199
 31
0.0
  0
LINE
  5
17D
330
1F
100
AcDbEntity
  8
0-0
  6
JWW_DASHED1
 62
   120
370
     5
100
AcDbLine
 10
3.413425073997605
 20
-489.4487252955735
 30
0.0
 11
3.413425073997605
 21
684.3889891980286
 31
0.0
  0
LINE
  5
17E
330
1F
100
AcDbEntity
  8
0-0
  6
JWW_DASHED1
 62
   120
370
     5
100
AcDbLine
 10
4.413425073897788
 20
-489.4487252955735
 30
0.0
 11
4.413425073897788
 21
684.4692464631005
 31
0.0
  0
LINE
  5
17F
330
1F
100
AcDbEntity
  8
0-0
  6
JWW_DASHED1
 62
   120
370
     5
100
AcDbLine
 10
17.41342507499761
 20
-489.4487252955735
 30
0.0
 11
17.41342507499761
 21
685.2507893392756
 31
0.0
  0
LINE
  5
180
330
1F
100
AcDbEntity
  8
0-0
  6
JWW_DASHED1
 62
   120
370
     5
100
AcDbLine
 10
18.41342507489779
 20
-489.4487252955735
 30
0.0
 11
18.41342507489779
 21
685.290821365739
 31
0.0
  0
LINE
  5
181
330
1F
100
AcDbEntity
  8
0-0
  6
JWW_DASHED1
 62
   120
370
     5
100
AcDbLine
 10
31.41342507599761
 20
-489.4487252955735
 30
0.0
 11
31.41342507599761
 21
685.550917587803
 31
0.0
  0
LINE
  5
182
330
1F
100
AcDbEntity
  8
0-0
  6
JWW_DASHED1
 62
   120
370
     5
100
AcDbLine
 10
32.41342507589779
 20
-489.4487252955735
 30
0.0
 11
32.41342507589779
 21
685.5509175349796
 31
0.0
  0
LINE
  5
183
330
1F
100
AcDbEntity
  8
0-0
  6
JWW_DASHED1
 62
   120
370
     5
100
AcDbLine
 10
45.41342507699761
 20
-489.4487252955735
 30
0.0
 11
45.41342507699761
 21
685.290819939233
 31
0.0
  0
LINE
  5
184
330
1F
100
AcDbEntity
  8
0-0
  6
JWW_DASHED1
 62
   120
370
     5
100
AcDbLine
 10
46.41342507689779
 20
-489.4487252955735
 30
0.0
 11
46.41342507689779
 21
685.2507878069043
 31
0.0
  0
LINE
  5
185
330
1F
100
AcDbEntity
  8
0-0
  6
JWW_DASHED1
 62
   120
370
     5
100
AcDbLine
 10
59.41342507799762
 20
-489.4487252955735
 30
0.0
 11
59.41342507799762
 21
684.4692435503891
 31
0.0
  0
LINE
  5
186
330
1F
100
AcDbEntity
  8
0-0
  6
JWW_DASHED1
 62
   120
370
     5
100
AcDbLine
 10
60.4134250778978
 20
-489.4487252955735
 30
0.0
 11
60.4134250778978
 21
684.3889861787427
 31
0.0
  0
LINE
  5
187
330
1F
100
AcDbEntity
  8
0-0
  6
JWW_DASHED1
 62
   120
370
     5
100
AcDbLine
 10
73.41342507899756
 20
-489.4487252955735
 30
0.0
 11
73.41342507899756
 21
683.0822063724697
 31
0.0
  0
LINE
  5
188
330
1F
100
AcDbEntity
  8
0-0
  6
JWW_DASHED1
 62
   120
370
     5
100
AcDbLine
 10
74.41342507889775
 20
-489.4487252955735
 30
0.0
 11
74.41342507889775
 21
682.9613327469776
 31
0.0
  0
LINE
  5
189
330
1F
100
AcDbEntity
  8
0-0
  6
JWW_DASHED1
 62
   120
370
     5
100
AcDbLine
 10
87.41342507999762
 20
-489.4487252955735
 30
0.0
 11
87.41342507999762
 21
681.1228996224743
 31
0.0
  0
LINE
  5
18A
330
1F
100
AcDbEntity
  8
0-0
  6
JWW_DASHED1
 62
   120
370
     5
100
AcDbLine
 10
88.4134250798978
 20
-489.4487252955735
 30
0.0
 11
88.4134250798978
 21
680.9608112136955
 31
0.0
  0
LINE
  5
18B
330
1F
100
AcDbEntity
  8
0-0
  6
JWW_DASHED1
 62
   120
370
     5
100
AcDbLine
 10
101.4134250809976
 20
-489.4487252955735
 30
0.0
 11
101.4134250809976
 21
678.5815174394663
 31
0.0
  0
LINE
  5
18C
330
1F
100
AcDbEntity
  8
0-0
  6
JWW_DASHED1
 62
   120
370
     5
100
AcDbLine
 10
102.4134250808978
 20
-489.4487252955735
 30
0.0
 11
102.4134250808978
 21
678.3773930121022
 31
0.0
  0
LINE
  5
18D
330
1F
100
AcDbEntity
  8
0-0
  6
JWW_DASHED1
 62
   120
370
     5
100
AcDbLine
 10
115.4134250819976
 20
-489.4487252955735
 30
0.0
 11
115.4134250819976
 21
675.445003556775
 31
0.0
  0
LINE
  5
18E
330
1F
100
AcDbEntity
  8
0-0
  6
JWW_DASHED1
 62
   120
370
     5
100
AcDbLine
 10
116.4134250818978
 20
-489.4487252955735
 30
0.0
 11
116.4134250818978
 21
675.1977775219855
 31
0.0
  0
LINE
  5
18F
330
1F
100
AcDbEntity
  8
0-0
  6
JWW_DASHED1
 62
   120
370
     5
100
AcDbLine
 10
129.4134250829976
 20
-489.4487252955735
 30
0.0
 11
129.4134250829976
 21
671.696699179334
 31
0.0
  0
LINE
  5
190
330
1F
100
AcDbEntity
  8
0-0
  6
JWW_DASHED1
 62
   120
370
     5
100
AcDbLine
 10
130.4134250828978
 20
-489.4487252955735
 30
0.0
 11
130.4134250828978
 21
671.4050321026077
 31
0.0
  0
LINE
  5
191
330
1F
100
AcDbEntity
  8
0-0
  6
JWW_DASHED1
 62
   120
370
     5
100
AcDbLine
 10
143.4134250839977
 20
-489.4487252955735
 30
0.0
 11
143.4134250839977
 21
667.3158687731991
 31
0.0
  0
LINE
  5
192
330
1F
100
AcDbEntity
  8
0-0
  6
JWW_DASHED1
 62
   120
370
     5
100
AcDbLine
 10
144.4134250838978
 20
-489.4487252955735
 30
0.0
 11
144.4134250838978
 21
666.9781080185892
 31
0.0
  0
LINE
  5
193
330
1F
100
AcDbEntity
  8
0-0
  6
JWW_DASHED1
 62
   120
370
     5
100
AcDbLine
 10
157.4134250849976
 20
-489.4487252955735
 30
0.0
 11
157.4134250849976
 21
662.2770700737926
 31
0.0
  0
LINE
  5
194
330
1F
100
AcDbEntity
  8
0-0
  6
JWW_DASHED1
 62
   120
370
     5
100
AcDbLine
 10
158.4134250848978
 20
-489.4487252955735
 30
0.0
 11
158.4134250848978
 21
661.8911976725174
 31
0.0
  0
LINE
  5
195
330
1F
100
AcDbEntity
  8
0-0
  6
JWW_DASHED1
 62
   120
370
     5
100
AcDbLine
 10
171.4134250859977
 20
-489.4487252955735
 30
0.0
 11
171.4134250859977
 21
656.54931962346
 31
0.0
  0
LINE
  5
196
330
1F
100
AcDbEntity
  8
0-0
  6
JWW_DASHED1
 62
   120
370
     5
100
AcDbLine
 10
172.4134250858978
 20
-489.4487252955735
 30
0.0
 11
172.4134250858978
 21
656.1128831432832
 31
0.0
  0
LINE
  5
197
330
1F
100
AcDbEntity
  8
0-0
  6
JWW_DASHED1
 62
   120
370
     5
100
AcDbLine
 10
185.4134250869976
 20
-489.4487252955735
 30
0.0
 11
185.4134250869976
 21
650.0949828339578
 31
0.0
  0
LINE
  5
198
330
1F
100
AcDbEntity
  8
0-0
  6
JWW_DASHED1
 62
   120
370
     5
100
AcDbLine
 10
186.4134250868978
 20
-489.4487252955735
 30
0.0
 11
186.4134250868978
 21
649.605003048651
 31
0.0
  0
LINE
  5
199
330
1F
100
AcDbEntity
  8
0-0
  6
JWW_DASHED1
 62
   120
370
     5
100
AcDbLine
 10
199.4134250879976
 20
-489.4487252955735
 30
0.0
 11
199.4134250879977
 21
642.8793252238917
 31
0.0
  0
LINE
  5
19A
330
1F
100
AcDbEntity
  8
0-0
  6
JWW_DASHED1
 62
   120
370
     5
100
AcDbLine
 10
200.4134250878975
 20
-489.4487252955735
 30
0.0
 11
200.4134250878976
 21
642.3566010250921
 31
0.0
  0
LINE
  5
19B
330
1F
100
AcDbEntity
  8
0-0
  6
JWW_DASHED1
 62
   120
370
     5
100
AcDbLine
 10
213.4134250889975
 20
-489.4487252955735
 30
0.0
 11
213.4134250889977
 21
636.3913142954494
 31
0.0
  0
LINE
  5
19C
330
1F
100
AcDbEntity
  8
0-0
  6
JWW_DASHED1
 62
   120
370
     5
100
AcDbLine
 10
214.4134250888974
 20
-489.4487252955735
 30
0.0
 11
214.4134250888976
 21
635.9931526479319
 31
0.0
  0
LINE
  5
19D
330
1F
100
AcDbEntity
  8
0-0
  6
JWW_DASHED1
 62
   120
370
     5
100
AcDbLine
 10
227.4134250899976
 20
-489.4487252955735
 30
0.0
 11
227.4134250899977
 21
631.5473091224682
 31
0.0
  0
LINE
  5
19E
330
1F
100
AcDbEntity
  8
0-0
  6
JWW_DASHED1
 62
   120
370
     5
100
AcDbLine
 10
228.4134250898975
 20
-489.4487252955735
 30
0.0
 11
228.4134250898976
 21
631.2594977550885
 31
0.0
  0
LINE
  5
19F
330
1F
100
AcDbEntity
  8
0-0
  6
JWW_DASHED1
 62
   120
370
     5
100
AcDbLine
 10
241.4134250909975
 20
-489.4487252955735
 30
0.0
 11
241.4134250909977
 21
628.1851020843329
 31
0.0
  0
LINE
  5
1A0
330
1F
100
AcDbEntity
  8
0-0
  6
JWW_DASHED1
 62
   120
370
     5
100
AcDbLine
 10
242.4134250908975
 20
-489.4487252955735
 30
0.0
 11
242.4134250908976
 21
627.998695701897
 31
0.0
  0
LINE
  5
1A1
330
1F
100
AcDbEntity
  8
0-0
  6
JWW_DASHED1
 62
   120
370
     5
100
AcDbLine
 10
255.4134250919976
 20
-489.4487252955735
 30
0.0
 11
255.4134250919977
 21
626.2045813273631
 31
0.0
  0
LINE
  5
1A2
330
1F
100
AcDbEntity
  8
0-0
  6
JWW_DASHED1
 62
   120
370
     5
100
AcDbLine
 10
256.4134250918975
 20
-489.4487252955735
 30
0.0
 11
256.4134250918976
 21
626.1142996653303
 31
0.0
  0
LINE
  5
1A3
330
1F
100
AcDbEntity
  8
0-0
  6
JWW_DASHED1
 62
   120
370
     5
100
AcDbLine
 10
269.4134250929976
 20
-489.4487252955735
 30
0.0
 11
269.4134250929977
 21
625.551007160118
 31
0.0
  0
LINE
  5
1A4
330
1F
100
AcDbEntity
  8
0-0
  6
JWW_DASHED1
 62
   120
370
     5
100
AcDbLine
 10
270.4134250928975
 20
-489.4487252955735
 30
0.0
 11
270.4134250928976
 21
625.551007160118
 31
0.0
  0
LINE
  5
1A5
330
1F
100
AcDbEntity
  8
0-0
  6
JWW_DASHED1
 62
   120
370
     5
100
AcDbLine
 10
283.4134250939975
 20
-489.4487252955735
 30
0.0
 11
283.4134250939977
 21
625.551007160118
 31
0.0
  0
LINE
  5
1A6
330
1F
100
AcDbEntity
  8
0-0
  6
JWW_DASHED1
 62
   120
370
     5
100
AcDbLine
 10
284.4134250938976
 20
-489.4487252955735
 30
0.0
 11
284.4134250938977
 21
625.551007160118
 31
0.0
  0
LINE
  5
1A7
330
1F
100
AcDbEntity
  8
0-0
  6
JWW_DASHED1
 62
   120
370
     5
100
AcDbLine
 10
297.4134250949976
 20
-489.4487252955735
 30
0.0
 11
297.4134250949977
 21
625.551007160118
 31
0.0
  0
LINE
  5
1A8
330
1F
100
AcDbEntity
  8
0-0
  6
JWW_DASHED1
 62
   120
370
     5
100
AcDbLine
 10
298.4134250948974
 20
-489.4487252955735
 30
0.0
 11
298.4134250948977
 21
625.551007160118
 31
0.0
  0
LINE
  5
1A9
330
1F
100
AcDbEntity
  8
0-0
  6
JWW_DASHED1
 62
   120
370
     5
100
AcDbLine
 10
311.4134250959975
 20
-489.4487252955735
 30
0.0
 11
311.4134250959977
 21
625.551007160118
 31
0.0
  0
LINE
  5
1AA
330
1F
100
AcDbEntity
  8
0-0
  6
JWW_DASHED1
 62
   120
370
     5
100
AcDbLine
 10
312.4134250958975
 20
-489.4487252955735
 30
0.0
 11
312.4134250958977
 21
625.551007160118
 31
0.0
  0
LINE
  5
1AB
330
1F
100
AcDbEntity
  8
0-0
  6
JWW_DASHED1
 62
   120
370
     5
100
AcDbLine
 10
-58.94967833815249
 20
673.5511264734656
 30
0.0
 11
122.7764915340834
 21
673.5511264734656
 31
0.0
  0
LINE
  5
1AC
330
1F
100
AcDbEntity
  8
0-0
  6
JWW_DASHED1
 62
   120
370
     5
100
AcDbLine
 10
-62.5910901605254
 20
672.5511264735654
 30
0.0
 11
126.4179033564563
 21
672.5511264735654
 31
0.0
  0
LINE
  5
1AD
330
1F
100
AcDbEntity
  8
0-0
  6
JWW_DASHED1
 62
   120
370
     5
100
AcDbLine
 10
-100.4652021508934
 20
659.5511264724657
 30
0.0
 11
164.2920153468242
 21
659.5511264724657
 31
0.0
  0
LINE
  5
1AE
330
1F
100
AcDbEntity
  8
0-0
  6
JWW_DASHED1
 62
   120
370
     5
100
AcDbLine
 10
-102.8868002184696
 20
658.5511264725656
 30
0.0
 11
166.7136134144005
 21
658.5511264725656
 31
0.0
  0
LINE
  5
1AF
330
1F
100
AcDbEntity
  8
0-0
  6
JWW_DASHED1
 62
   120
370
     5
100
AcDbLine
 10
-130.5676443107892
 20
645.551126471466
 30
0.0
 11
194.3944575067201
 21
645.551126471466
 31
0.0
  0
LINE
  5
1B0
330
1F
100
AcDbEntity
  8
0-0
  6
JWW_DASHED1
 62
   120
370
     5
100
AcDbLine
 10
-132.4614443004554
 20
644.5511264715658
 30
0.0
 11
196.2882574963863
 21
644.5511264715658
 31
0.0
  0
LINE
  5
1B1
330
1F
100
AcDbEntity
  8
0-0
  6
JWW_DASHED1
 62
   120
370
     5
100
AcDbLine
 10
-163.5735217687112
 20
631.5511264704662
 30
0.0
 11
227.4003349646422
 21
631.5511264704662
 31
0.0
  0
LINE
  5
1B2
330
1F
100
AcDbEntity
  8
0-0
  6
JWW_DASHED1
 62
   120
370
     5
100
AcDbLine
 10
-167.1677516400711
 20
630.551126470566
 30
0.0
 11
230.994564836002
 21
630.551126470566
 31
0.0
  0
LINE
  5
1B3
330
1F
100
AcDbEntity
  8
0-0
  6
JWW_DASHED1
 62
   120
370
     5
100
AcDbLine
 10
-254.5865934020345
 20
617.5511264694665
 30
0.0
 11
318.4134065979662
 21
617.5511264694665
 31
0.0
  0
LINE
  5
1B4
330
1F
100
AcDbEntity
  8
0-0
  6
JWW_DASHED1
 62
   120
370
     5
100
AcDbLine
 10
-254.5865934020345
 20
616.5511264695663
 30
0.0
 11
318.4134065979662
 21
616.5511264695663
 31
0.0
  0
LINE
  5
1B5
330
1F
100
AcDbEntity
  8
0-0
  6
JWW_DASHED1
 62
   120
370
     5
100
AcDbLine
 10
-254.5865934020345
 20
603.5511264684667
 30
0.0
 11
318.4134065979662
 21
603.5511264684667
 31
0.0
  0
LINE
  5
1B6
330
1F
100
AcDbEntity
  8
0-0
  6
JWW_DASHED1
 62
   120
370
     5
100
AcDbLine
 10
-254.5865934020345
 20
602.5511264685665
 30
0.0
 11
318.4134065979662
 21
602.5511264685665
 31
0.0
  0
LINE
  5
1B7
330
1F
100
AcDbEntity
  8
0-0
  6
JWW_DASHED1
 62
   120
370
     5
100
AcDbLine
 10
-254.5865934020345
 20
589.5511264674666
 30
0.0
 11
318.4134065979662
 21
589.5511264674666
 31
0.0
  0
LINE
  5
1B8
330
1F
100
AcDbEntity
  8
0-0
  6
JWW_DASHED1
 62
   120
370
     5
100
AcDbLine
 10
-254.5865934020345
 20
588.5511264675666
 30
0.0
 11
318.4134065979662
 21
588.5511264675666
 31
0.0
  0
LINE
  5
1B9
330
1F
100
AcDbEntity
  8
0-0
  6
JWW_DASHED1
 62
   120
370
     5
100
AcDbLine
 10
-254.5865934020345
 20
575.551126466467
 30
0.0
 11
318.4134065979662
 21
575.551126466467
 31
0.0
  0
LINE
  5
1BA
330
1F
100
AcDbEntity
  8
0-0
  6
JWW_DASHED1
 62
   120
370
     5
100
AcDbLine
 10
-254.5865934020345
 20
574.5511264665669
 30
0.0
 11
318.4134065979662
 21
574.5511264665669
 31
0.0
  0
LINE
  5
1BB
330
1F
100
AcDbEntity
  8
0-0
  6
JWW_DASHED1
 62
   120
370
     5
100
AcDbLine
 10
-254.5865934020345
 20
561.5511264654673
 30
0.0
 11
318.4134065979662
 21
561.5511264654673
 31
0.0
  0
LINE
  5
1BC
330
1F
100
AcDbEntity
  8
0-0
  6
JWW_DASHED1
 62
   120
370
     5
100
AcDbLine
 10
-254.5865934020345
 20
560.5511264655671
 30
0.0
 11
318.4134065979662
 21
560.5511264655671
 31
0.0
  0
LINE
  5
1BD
330
1F
100
AcDbEntity
  8
0-0
  6
JWW_DASHED1
 62
   120
370
     5
100
AcDbLine
 10
-254.5865934020345
 20
547.5511264644674
 30
0.0
 11
318.4134065979662
 21
547.5511264644674
 31
0.0
  0
LINE
  5
1BE
330
1F
100
AcDbEntity
  8
0-0
  6
JWW_DASHED1
 62
   120
370
     5
100
AcDbLine
 10
-254.5865934020345
 20
546.5511264645672
 30
0.0
 11
318.4134065979662
 21
546.5511264645672
 31
0.0
  0
LINE
  5
1BF
330
1F
100
AcDbEntity
  8
0-0
  6
JWW_DASHED1
 62
   120
370
     5
100
AcDbLine
 10
-254.5865934020345
 20
533.5511264634677
 30
0.0
 11
318.4134065979662
 21
533.5511264634677
 31
0.0
  0
LINE
  5
1C0
330
1F
100
AcDbEntity
  8
0-0
  6
JWW_DASHED1
 62
   120
370
     5
100
AcDbLine
 10
-254.5865934020345
 20
532.5511264635675
 30
0.0
 11
318.4134065979662
 21
532.5511264635675
 31
0.0
  0
LINE
  5
1C1
330
1F
100
AcDbEntity
  8
0-0
  6
JWW_DASHED1
 62
   120
370
     5
100
AcDbLine
 10
-254.5865934020345
 20
519.5511264624679
 30
0.0
 11
318.4134065979662
 21
519.5511264624679
 31
0.0
  0
LINE
  5
1C2
330
1F
100
AcDbEntity
  8
0-0
  6
JWW_DASHED1
 62
   120
370
     5
100
AcDbLine
 10
-254.5865934020345
 20
518.5511264625677
 30
0.0
 11
318.4134065979662
 21
518.5511264625677
 31
0.0
  0
LINE
  5
1C3
330
1F
100
AcDbEntity
  8
0-0
  6
JWW_DASHED1
 62
   120
370
     5
100
AcDbLine
 10
-254.5865934020345
 20
505.5511264614681
 30
0.0
 11
318.4134065979662
 21
505.5511264614681
 31
0.0
  0
LINE
  5
1C4
330
1F
100
AcDbEntity
  8
0-0
  6
JWW_DASHED1
 62
   120
370
     5
100
AcDbLine
 10
-254.5865934020345
 20
504.5511264615679
 30
0.0
 11
318.4134065979662
 21
504.5511264615679
 31
0.0
  0
LINE
  5
1C5
330
1F
100
AcDbEntity
  8
0-0
  6
JWW_DASHED1
 62
   120
370
     5
100
AcDbLine
 10
-254.5865934020345
 20
491.5511264604683
 30
0.0
 11
318.4134065979662
 21
491.5511264604683
 31
0.0
  0
LINE
  5
1C6
330
1F
100
AcDbEntity
  8
0-0
  6
JWW_DASHED1
 62
   120
370
     5
100
AcDbLine
 10
-254.5865934020345
 20
490.5511264605681
 30
0.0
 11
318.4134065979662
 21
490.5511264605681
 31
0.0
  0
LINE
  5
1C7
330
1F
100
AcDbEntity
  8
0-0
  6
JWW_DASHED1
 62
   120
370
     5
100
AcDbLine
 10
-254.5865934020345
 20
477.5511264594685
 30
0.0
 11
318.4134065979662
 21
477.5511264594685
 31
0.0
  0
LINE
  5
1C8
330
1F
100
AcDbEntity
  8
0-0
  6
JWW_DASHED1
 62
   120
370
     5
100
AcDbLine
 10
-254.5865934020345
 20
476.5511264595683
 30
0.0
 11
318.4134065979662
 21
476.5511264595683
 31
0.0
  0
LINE
  5
1C9
330
1F
100
AcDbEntity
  8
0-0
  6
JWW_DASHED1
 62
   120
370
     5
100
AcDbLine
 10
-254.5865934020345
 20
463.5511264584687
 30
0.0
 11
318.4134065979662
 21
463.5511264584687
 31
0.0
  0
LINE
  5
1CA
330
1F
100
AcDbEntity
  8
0-0
  6
JWW_DASHED1
 62
   120
370
     5
100
AcDbLine
 10
-254.5865934020345
 20
462.5511264585685
 30
0.0
 11
318.4134065979662
 21
462.5511264585685
 31
0.0
  0
LINE
  5
1CB
330
1F
100
AcDbEntity
  8
0-0
  6
JWW_DASHED1
 62
   120
370
     5
100
AcDbLine
 10
-254.5865934020345
 20
449.551126457469
 30
0.0
 11
318.4134065979662
 21
449.551126457469
 31
0.0
  0
LINE
  5
1CC
330
1F
100
AcDbEntity
  8
0-0
  6
JWW_DASHED1
 62
   120
370
     5
100
AcDbLine
 10
-254.5865934020345
 20
448.5511264575688
 30
0.0
 11
318.4134065979662
 21
448.5511264575688
 31
0.0
  0
LINE
  5
1CD
330
1F
100
AcDbEntity
  8
0-0
  6
JWW_DASHED1
 62
   120
370
     5
100
AcDbLine
 10
-254.5865934020345
 20
435.5511264564691
 30
0.0
 11
318.4134065979662
 21
435.5511264564691
 31
0.0
  0
LINE
  5
1CE
330
1F
100
AcDbEntity
  8
0-0
  6
JWW_DASHED1
 62
   120
370
     5
100
AcDbLine
 10
-254.5865934020345
 20
434.551126456569
 30
0.0
 11
318.4134065979662
 21
434.551126456569
 31
0.0
  0
LINE
  5
1CF
330
1F
100
AcDbEntity
  8
0-0
  6
JWW_DASHED1
 62
   120
370
     5
100
AcDbLine
 10
-254.5865934020345
 20
421.5511264554693
 30
0.0
 11
318.4134065979662
 21
421.5511264554693
 31
0.0
  0
LINE
  5
1D0
330
1F
100
AcDbEntity
  8
0-0
  6
JWW_DASHED1
 62
   120
370
     5
100
AcDbLine
 10
-254.5865934020345
 20
420.5511264555691
 30
0.0
 11
318.4134065979662
 21
420.5511264555691
 31
0.0
  0
LINE
  5
1D1
330
1F
100
AcDbEntity
  8
0-0
  6
JWW_DASHED1
 62
   120
370
     5
100
AcDbLine
 10
-254.5865934020345
 20
407.5511264544696
 30
0.0
 11
318.4134065979662
 21
407.5511264544696
 31
0.0
  0
LINE
  5
1D2
330
1F
100
AcDbEntity
  8
0-0
  6
JWW_DASHED1
 62
   120
370
     5
100
AcDbLine
 10
-254.5865934020345
 20
406.5511264545694
 30
0.0
 11
318.4134065979662
 21
406.5511264545694
 31
0.0
  0
LINE
  5
1D3
330
1F
100
AcDbEntity
  8
0-0
  6
JWW_DASHED1
 62
   120
370
     5
100
AcDbLine
 10
-254.5865934020345
 20
393.5511264534698
 30
0.0
 11
318.4134065979662
 21
393.5511264534698
 31
0.0
  0
LINE
  5
1D4
330
1F
100
AcDbEntity
  8
0-0
  6
JWW_DASHED1
 62
   120
370
     5
100
AcDbLine
 10
-254.5865934020345
 20
392.5511264535696
 30
0.0
 11
318.4134065979662
 21
392.5511264535696
 31
0.0
  0
LINE
  5
1D5
330
1F
100
AcDbEntity
  8
0-0
  6
JWW_DASHED1
 62
   120
370
     5
100
AcDbLine
 10
-254.5865934020345
 20
379.55112645247
 30
0.0
 11
318.4134065979662
 21
379.55112645247
 31
0.0
  0
LINE
  5
1D6
330
1F
100
AcDbEntity
  8
0-0
  6
JWW_DASHED1
 62
   120
370
     5
100
AcDbLine
 10
-254.5865934020345
 20
378.5511264525698
 30
0.0
 11
318.4134065979662
 21
378.5511264525698
 31
0.0
  0
LINE
  5
1D7
330
1F
100
AcDbEntity
  8
0-0
  6
JWW_DASHED1
 62
   120
370
     5
100
AcDbLine
 10
-254.5865934020345
 20
365.5511264514702
 30
0.0
 11
318.4134065979662
 21
365.5511264514702
 31
0.0
  0
LINE
  5
1D8
330
1F
100
AcDbEntity
  8
0-0
  6
JWW_DASHED1
 62
   120
370
     5
100
AcDbLine
 10
-254.5865934020345
 20
364.55112645157
 30
0.0
 11
318.4134065979662
 21
364.55112645157
 31
0.0
  0
LINE
  5
1D9
330
1F
100
AcDbEntity
  8
0-0
  6
JWW_DASHED1
 62
   120
370
     5
100
AcDbLine
 10
-254.5865934020345
 20
351.5511264504704
 30
0.0
 11
318.4134065979662
 21
351.5511264504704
 31
0.0
  0
LINE
  5
1DA
330
1F
100
AcDbEntity
  8
0-0
  6
JWW_DASHED1
 62
   120
370
     5
100
AcDbLine
 10
-254.5865934020345
 20
350.5511264505702
 30
0.0
 11
318.4134065979662
 21
350.5511264505702
 31
0.0
  0
LINE
  5
1DB
330
1F
100
AcDbEntity
  8
0-0
  6
JWW_DASHED1
 62
   120
370
     5
100
AcDbLine
 10
-254.5865934020345
 20
337.5511264494706
 30
0.0
 11
318.4134065979662
 21
337.5511264494706
 31
0.0
  0
LINE
  5
1DC
330
1F
100
AcDbEntity
  8
0-0
  6
JWW_DASHED1
 62
   120
370
     5
100
AcDbLine
 10
-254.5865934020345
 20
336.5511264495705
 30
0.0
 11
318.4134065979662
 21
336.5511264495705
 31
0.0
  0
LINE
  5
1DD
330
1F
100
AcDbEntity
  8
0-0
  6
JWW_DASHED1
 62
   120
370
     5
100
AcDbLine
 10
-254.5865934020345
 20
323.5511264484708
 30
0.0
 11
318.4134065979662
 21
323.5511264484708
 31
0.0
  0
LINE
  5
1DE
330
1F
100
AcDbEntity
  8
0-0
  6
JWW_DASHED1
 62
   120
370
     5
100
AcDbLine
 10
-254.5865934020345
 20
322.5511264485706
 30
0.0
 11
318.4134065979662
 21
322.5511264485706
 31
0.0
  0
LINE
  5
1DF
330
1F
100
AcDbEntity
  8
0-0
  6
JWW_DASHED1
 62
   120
370
     5
100
AcDbLine
 10
-254.5865934020345
 20
309.551126447471
 30
0.0
 11
318.4134065979662
 21
309.551126447471
 31
0.0
  0
LINE
  5
1E0
330
1F
100
AcDbEntity
  8
0-0
  6
JWW_DASHED1
 62
   120
370
     5
100
AcDbLine
 10
-254.5865934020345
 20
308.5511264475708
 30
0.0
 11
318.4134065979662
 21
308.5511264475708
 31
0.0
  0
LINE
  5
1E1
330
1F
100
AcDbEntity
  8
0-0
  6
JWW_DASHED1
 62
   120
370
     5
100
AcDbLine
 10
-254.5865934020345
 20
295.5511264464712
 30
0.0
 11
318.4134065979662
 21
295.5511264464712
 31
0.0
  0
LINE
  5
1E2
330
1F
100
AcDbEntity
  8
0-0
  6
JWW_DASHED1
 62
   120
370
     5
100
AcDbLine
 10
-254.5865934020345
 20
294.5511264465711
 30
0.0
 11
318.4134065979662
 21
294.5511264465711
 31
0.0
  0
LINE
  5
1E3
330
1F
100
AcDbEntity
  8
0-0
  6
JWW_DASHED1
 62
   120
370
     5
100
AcDbLine
 10
-254.5865934020345
 20
281.5511264454715
 30
0.0
 11
318.4134065979662
 21
281.5511264454715
 31
0.0
  0
LINE
  5
1E4
330
1F
100
AcDbEntity
  8
0-0
  6
JWW_DASHED1
 62
   120
370
     5
100
AcDbLine
 10
-254.5865934020345
 20
280.5511264455713
 30
0.0
 11
318.4134065979662
 21
280.5511264455713
 31
0.0
  0
LINE
  5
1E5
330
1F
100
AcDbEntity
  8
0-0
  6
JWW_DASHED1
 62
   120
370
     5
100
AcDbLine
 10
-254.5865934020345
 20
267.5511264444717
 30
0.0
 11
318.4134065979662
 21
267.5511264444717
 31
0.0
  0
LINE
  5
1E6
330
1F
100
AcDbEntity
  8
0-0
  6
JWW_DASHED1
 62
   120
370
     5
100
AcDbLine
 10
-254.5865934020345
 20
266.5511264445715
 30
0.0
 11
318.4134065979662
 21
266.5511264445715
 31
0.0
  0
LINE
  5
1E7
330
1F
100
AcDbEntity
  8
0-0
  6
JWW_DASHED1
 62
   120
370
     5
100
AcDbLine
 10
-254.5865934020345
 20
253.5511264434719
 30
0.0
 11
318.4134065979662
 21
253.5511264434719
 31
0.0
  0
LINE
  5
1E8
330
1F
100
AcDbEntity
  8
0-0
  6
JWW_DASHED1
 62
   120
370
     5
100
AcDbLine
 10
-254.5865934020345
 20
252.5511264435717
 30
0.0
 11
318.4134065979662
 21
252.5511264435717
 31
0.0
  0
LINE
  5
1E9
330
1F
100
AcDbEntity
  8
0-0
  6
JWW_DASHED1
 62
   120
370
     5
100
AcDbLine
 10
-254.5865934020345
 20
239.5511264424721
 30
0.0
 11
318.4134065979662
 21
239.5511264424721
 31
0.0
  0
LINE
  5
1EA
330
1F
100
AcDbEntity
  8
0-0
  6
JWW_DASHED1
 62
   120
370
     5
100
AcDbLine
 10
-254.5865934020345
 20
238.5511264425719
 30
0.0
 11
318.4134065979662
 21
238.5511264425719
 31
0.0
  0
LINE
  5
1EB
330
1F
100
AcDbEntity
  8
0-0
  6
JWW_DASHED1
 62
   120
370
     5
100
AcDbLine
 10
-254.5865934020345
 20
225.5511264414723
 30
0.0
 11
318.4134065979662
 21
225.5511264414723
 31
0.0
  0
LINE
  5
1EC
330
1F
100
AcDbEntity
  8
0-0
  6
JWW_DASHED1
 62
   120
370
     5
100
AcDbLine
 10
-254.5865934020345
 20
224.5511264415721
 30
0.0
 11
318.4134065979662
 21
224.5511264415721
 31
0.0
  0
LINE
  5
1ED
330
1F
100
AcDbEntity
  8
0-0
  6
JWW_DASHED1
 62
   120
370
     5
100
AcDbLine
 10
-254.5865934020345
 20
211.5511264404725
 30
0.0
 11
318.4134065979662
 21
211.5511264404725
 31
0.0
  0
LINE
  5
1EE
330
1F
100
AcDbEntity
  8
0-0
  6
JWW_DASHED1
 62
   120
370
     5
100
AcDbLine
 10
-254.5865934020345
 20
210.5511264405723
 30
0.0
 11
318.4134065979662
 21
210.5511264405723
 31
0.0
  0
LINE
  5
1EF
330
1F
100
AcDbEntity
  8
0-0
  6
JWW_DASHED1
 62
   120
370
     5
100
AcDbLine
 10
-254.5865934020345
 20
197.5511264394727
 30
0.0
 11
318.4134065979662
 21
197.5511264394727
 31
0.0
  0
LINE
  5
1F0
330
1F
100
AcDbEntity
  8
0-0
  6
JWW_DASHED1
 62
   120
370
     5
100
AcDbLine
 10
-254.5865934020345
 20
196.5511264395725
 30
0.0
 11
318.4134065979662
 21
196.5511264395725
 31
0.0
  0
LINE
  5
1F1
330
1F
100
AcDbEntity
  8
0-0
  6
JWW_DASHED1
 62
   120
370
     5
100
AcDbLine
 10
-254.5865934020345
 20
183.5511264384729
 30
0.0
 11
318.4134065979662
 21
183.5511264384729
 31
0.0
  0
LINE
  5
1F2
330
1F
100
AcDbEntity
  8
0-0
  6
JWW_DASHED1
 62
   120
370
     5
100
AcDbLine
 10
-254.5865934020345
 20
182.5511264385727
 30
0.0
 11
318.4134065979662
 21
182.5511264385727
 31
0.0
  0
LINE
  5
1F3
330
1F
100
AcDbEntity
  8
0-0
  6
JWW_DASHED1
 62
   120
370
     5
100
AcDbLine
 10
-254.5865934020345
 20
169.5511264374731
 30
0.0
 11
318.4134065979662
 21
169.5511264374731
 31
0.0
  0
LINE
  5
1F4
330
1F
100
AcDbEntity
  8
0-0
  6
JWW_DASHED1
 62
   120
370
     5
100
AcDbLine
 10
-254.5865934020345
 20
168.5511264375729
 30
0.0
 11
318.4134065979662
 21
168.5511264375729
 31
0.0
  0
LINE
  5
1F5
330
1F
100
AcDbEntity
  8
0-0
  6
JWW_DASHED1
 62
   120
370
     5
100
AcDbLine
 10
-254.5865934020345
 20
155.5511264364733
 30
0.0
 11
318.4134065979662
 21
155.5511264364733
 31
0.0
  0
LINE
  5
1F6
330
1F
100
AcDbEntity
  8
0-0
  6
JWW_DASHED1
 62
   120
370
     5
100
AcDbLine
 10
-254.5865934020345
 20
154.5511264365732
 30
0.0
 11
318.4134065979662
 21
154.5511264365732
 31
0.0
  0
LINE
  5
1F7
330
1F
100
AcDbEntity
  8
0-0
  6
JWW_DASHED1
 62
   120
370
     5
100
AcDbLine
 10
-254.5865934020345
 20
141.5511264354735
 30
0.0
 11
318.4134065979662
 21
141.5511264354735
 31
0.0
  0
LINE
  5
1F8
330
1F
100
AcDbEntity
  8
0-0
  6
JWW_DASHED1
 62
   120
370
     5
100
AcDbLine
 10
-254.5865934020345
 20
140.5511264355734
 30
0.0
 11
318.4134065979662
 21
140.5511264355734
 31
0.0
  0
LINE
  5
1F9
330
1F
100
AcDbEntity
  8
0-0
  6
JWW_DASHED1
 62
   120
370
     5
100
AcDbLine
 10
-254.5865934020345
 20
127.5511264344738
 30
0.0
 11
318.4134065979662
 21
127.5511264344738
 31
0.0
  0
LINE
  5
1FA
330
1F
100
AcDbEntity
  8
0-0
  6
JWW_DASHED1
 62
   120
370
     5
100
AcDbLine
 10
-254.5865934020345
 20
126.5511264345736
 30
0.0
 11
318.4134065979662
 21
126.5511264345736
 31
0.0
  0
LINE
  5
1FB
330
1F
100
AcDbEntity
  8
0-0
  6
JWW_DASHED1
 62
   120
370
     5
100
AcDbLine
 10
-254.5865934020345
 20
113.551126433474
 30
0.0
 11
318.4134065979662
 21
113.551126433474
 31
0.0
  0
LINE
  5
1FC
330
1F
100
AcDbEntity
  8
0-0
  6
JWW_DASHED1
 62
   120
370
     5
100
AcDbLine
 10
-254.5865934020345
 20
112.5511264335738
 30
0.0
 11
318.4134065979662
 21
112.5511264335738
 31
0.0
  0
LINE
  5
1FD
330
1F
100
AcDbEntity
  8
0-0
  6
JWW_DASHED1
 62
   120
370
     5
100
AcDbLine
 10
-254.5865934020345
 20
99.55112643247418
 30
0.0
 11
318.4134065979662
 21
99.55112643247418
 31
0.0
  0
LINE
  5
1FE
330
1F
100
AcDbEntity
  8
0-0
  6
JWW_DASHED1
 62
   120
370
     5
100
AcDbLine
 10
-254.5865934020345
 20
98.551126432574
 30
0.0
 11
318.4134065979662
 21
98.551126432574
 31
0.0
  0
LINE
  5
1FF
330
1F
100
AcDbEntity
  8
0-0
  6
JWW_DASHED1
 62
   120
370
     5
100
AcDbLine
 10
-254.5865934020345
 20
85.55112643147439
 30
0.0
 11
318.4134065979662
 21
85.55112643147439
 31
0.0
  0
LINE
  5
200
330
1F
100
AcDbEntity
  8
0-0
  6
JWW_DASHED1
 62
   120
370
     5
100
AcDbLine
 10
-254.5865934020345
 20
84.5511264315742
 30
0.0
 11
318.4134065979662
 21
84.5511264315742
 31
0.0
  0
LINE
  5
201
330
1F
100
AcDbEntity
  8
0-0
  6
JWW_DASHED1
 62
   120
370
     5
100
AcDbLine
 10
-254.5865934020345
 20
71.5511264304746
 30
0.0
 11
318.4134065979662
 21
71.5511264304746
 31
0.0
  0
LINE
  5
202
330
1F
100
AcDbEntity
  8
0-0
  6
JWW_DASHED1
 62
   120
370
     5
100
AcDbLine
 10
-254.5865934020345
 20
70.55112643057441
 30
0.0
 11
318.4134065979662
 21
70.55112643057441
 31
0.0
  0
LINE
  5
203
330
1F
100
AcDbEntity
  8
0-0
  6
JWW_DASHED1
 62
   120
370
     5
100
AcDbLine
 10
-254.5865934020345
 20
57.55112642947481
 30
0.0
 11
318.4134065979662
 21
57.55112642947481
 31
0.0
  0
LINE
  5
204
330
1F
100
AcDbEntity
  8
0-0
  6
JWW_DASHED1
 62
   120
370
     5
100
AcDbLine
 10
-254.5865934020345
 20
56.55112642957462
 30
0.0
 11
318.4134065979662
 21
56.55112642957462
 31
0.0
  0
LINE
  5
205
330
1F
100
AcDbEntity
  8
0-0
  6
JWW_DASHED1
 62
   120
370
     5
100
AcDbLine
 10
-254.5865934020345
 20
43.55112642847502
 30
0.0
 11
318.4134065979662
 21
43.55112642847502
 31
0.0
  0
LINE
  5
206
330
1F
100
AcDbEntity
  8
0-0
  6
JWW_DASHED1
 62
   120
370
     5
100
AcDbLine
 10
-254.5865934020345
 20
42.55112642857483
 30
0.0
 11
318.4134065979662
 21
42.55112642857483
 31
0.0
  0
LINE
  5
207
330
1F
100
AcDbEntity
  8
0-0
  6
JWW_DASHED1
 62
   120
370
     5
100
AcDbLine
 10
-254.5865934020345
 20
29.55112642747523
 30
0.0
 11
318.4134065979662
 21
29.55112642747523
 31
0.0
  0
LINE
  5
208
330
1F
100
AcDbEntity
  8
0-0
  6
JWW_DASHED1
 62
   120
370
     5
100
AcDbLine
 10
-254.5865934020345
 20
28.55112642757504
 30
0.0
 11
318.4134065979662
 21
28.55112642757504
 31
0.0
  0
LINE
  5
209
330
1F
100
AcDbEntity
  8
0-0
  6
JWW_DASHED1
 62
   120
370
     5
100
AcDbLine
 10
-254.5865934020345
 20
15.55112642647543
 30
0.0
 11
318.4134065979662
 21
15.55112642647543
 31
0.0
  0
LINE
  5
20A
330
1F
100
AcDbEntity
  8
0-0
  6
JWW_DASHED1
 62
   120
370
     5
100
AcDbLine
 10
-254.5865934020345
 20
14.55112642657525
 30
0.0
 11
318.4134065979662
 21
14.55112642657525
 31
0.0
  0
LINE
  5
20B
330
1F
100
AcDbEntity
  8
0-0
  6
JWW_DASHED1
 62
   120
370
     5
100
AcDbLine
 10
-254.5865934020345
 20
1.551126425475644
 30
0.0
 11
318.4134065979662
 21
1.551126425475644
 31
0.0
  0
LINE
  5
20C
330
1F
100
AcDbEntity
  8
0-0
  6
JWW_DASHED1
 62
   120
370
     5
100
AcDbLine
 10
-254.5865934020345
 20
0.5511264255754611
 30
0.0
 11
318.4134065979662
 21
0.5511264255754611
 31
0.0
  0
LINE
  5
20D
330
1F
100
AcDbEntity
  8
0-0
  6
JWW_DASHED1
 62
   120
370
     5
100
AcDbLine
 10
-254.5865934020345
 20
-12.44887357552415
 30
0.0
 11
318.4134065979662
 21
-12.44887357552415
 31
0.0
  0
LINE
  5
20E
330
1F
100
AcDbEntity
  8
0-0
  6
JWW_DASHED1
 62
   120
370
     5
100
AcDbLine
 10
-254.5865934020345
 20
-13.44887357542433
 30
0.0
 11
318.4134065979662
 21
-13.44887357542433
 31
0.0
  0
LINE
  5
20F
330
1F
100
AcDbEntity
  8
0-0
  6
JWW_DASHED1
 62
   120
370
     5
100
AcDbLine
 10
-254.5865934020345
 20
-26.44887357652394
 30
0.0
 11
318.4134065979662
 21
-26.44887357652394
 31
0.0
  0
LINE
  5
210
330
1F
100
AcDbEntity
  8
0-0
  6
JWW_DASHED1
 62
   120
370
     5
100
AcDbLine
 10
-254.5865934020345
 20
-27.44887357642412
 30
0.0
 11
318.4134065979662
 21
-27.44887357642412
 31
0.0
  0
LINE
  5
211
330
1F
100
AcDbEntity
  8
0-0
  6
JWW_DASHED1
 62
   120
370
     5
100
AcDbLine
 10
-254.5865934020345
 20
-40.44887357752373
 30
0.0
 11
318.4134065979662
 21
-40.44887357752373
 31
0.0
  0
LINE
  5
212
330
1F
100
AcDbEntity
  8
0-0
  6
JWW_DASHED1
 62
   120
370
     5
100
AcDbLine
 10
-254.5865934020345
 20
-41.44887357742391
 30
0.0
 11
318.4134065979662
 21
-41.44887357742391
 31
0.0
  0
LINE
  5
213
330
1F
100
AcDbEntity
  8
0-0
  6
JWW_DASHED1
 62
   120
370
     5
100
AcDbLine
 10
-254.5865934020345
 20
-54.44887357852352
 30
0.0
 11
318.4134065979662
 21
-54.44887357852352
 31
0.0
  0
LINE
  5
214
330
1F
100
AcDbEntity
  8
0-0
  6
JWW_DASHED1
 62
   120
370
     5
100
AcDbLine
 10
-254.5865934020345
 20
-55.4488735784237
 30
0.0
 11
318.4134065979662
 21
-55.4488735784237
 31
0.0
  0
LINE
  5
215
330
1F
100
AcDbEntity
  8
0-0
  6
JWW_DASHED1
 62
   120
370
     5
100
AcDbLine
 10
-254.5865934020345
 20
-68.44887357952331
 30
0.0
 11
318.4134065979662
 21
-68.44887357952331
 31
0.0
  0
LINE
  5
216
330
1F
100
AcDbEntity
  8
0-0
  6
JWW_DASHED1
 62
   120
370
     5
100
AcDbLine
 10
-254.5865934020345
 20
-69.44887357942349
 30
0.0
 11
318.4134065979662
 21
-69.44887357942349
 31
0.0
  0
LINE
  5
217
330
1F
100
AcDbEntity
  8
0-0
  6
JWW_DASHED1
 62
   120
370
     5
100
AcDbLine
 10
-254.5865934020345
 20
-82.4488735805231
 30
0.0
 11
318.4134065979662
 21
-82.4488735805231
 31
0.0
  0
LINE
  5
218
330
1F
100
AcDbEntity
  8
0-0
  6
JWW_DASHED1
 62
   120
370
     5
100
AcDbLine
 10
-254.5865934020345
 20
-83.44887358042328
 30
0.0
 11
318.4134065979662
 21
-83.44887358042328
 31
0.0
  0
LINE
  5
219
330
1F
100
AcDbEntity
  8
0-0
  6
JWW_DASHED1
 62
   120
370
     5
100
AcDbLine
 10
-254.5865934020345
 20
-96.44887358152289
 30
0.0
 11
318.4134065979662
 21
-96.44887358152289
 31
0.0
  0
LINE
  5
21A
330
1F
100
AcDbEntity
  8
0-0
  6
JWW_DASHED1
 62
   120
370
     5
100
AcDbLine
 10
-254.5865934020345
 20
-97.44887358142307
 30
0.0
 11
318.4134065979662
 21
-97.44887358142307
 31
0.0
  0
LINE
  5
21B
330
1F
100
AcDbEntity
  8
0-0
  6
JWW_DASHED1
 62
   120
370
     5
100
AcDbLine
 10
-254.5865934020345
 20
-110.4488735825227
 30
0.0
 11
318.4134065979662
 21
-110.4488735825227
 31
0.0
  0
LINE
  5
21C
330
1F
100
AcDbEntity
  8
0-0
  6
JWW_DASHED1
 62
   120
370
     5
100
AcDbLine
 10
-254.5865934020345
 20
-111.4488735824229
 30
0.0
 11
318.4134065979662
 21
-111.4488735824229
 31
0.0
  0
LINE
  5
21D
330
1F
100
AcDbEntity
  8
0-0
  6
JWW_DASHED1
 62
   120
370
     5
100
AcDbLine
 10
-254.5865934020345
 20
-124.4488735835225
 30
0.0
 11
318.4134065979662
 21
-124.4488735835225
 31
0.0
  0
LINE
  5
21E
330
1F
100
AcDbEntity
  8
0-0
  6
JWW_DASHED1
 62
   120
370
     5
100
AcDbLine
 10
-254.5865934020345
 20
-125.4488735834227
 30
0.0
 11
318.4134065979662
 21
-125.4488735834227
 31
0.0
  0
LINE
  5
21F
330
1F
100
AcDbEntity
  8
0-0
  6
JWW_DASHED1
 62
   120
370
     5
100
AcDbLine
 10
-254.5865934020345
 20
-138.4488735845223
 30
0.0
 11
318.4134065979662
 21
-138.4488735845223
 31
0.0
  0
LINE
  5
220
330
1F
100
AcDbEntity
  8
0-0
  6
JWW_DASHED1
 62
   120
370
     5
100
AcDbLine
 10
-254.5865934020345
 20
-139.4488735844224
 30
0.0
 11
318.4134065979662
 21
-139.4488735844224
 31
0.0
  0
LINE
  5
221
330
1F
100
AcDbEntity
  8
0-0
  6
JWW_DASHED1
 62
   120
370
     5
100
AcDbLine
 10
-254.5865934020345
 20
-152.4488735855221
 30
0.0
 11
318.4134065979662
 21
-152.4488735855221
 31
0.0
  0
LINE
  5
222
330
1F
100
AcDbEntity
  8
0-0
  6
JWW_DASHED1
 62
   120
370
     5
100
AcDbLine
 10
-254.5865934020345
 20
-153.4488735854222
 30
0.0
 11
318.4134065979662
 21
-153.4488735854222
 31
0.0
  0
LINE
  5
223
330
1F
100
AcDbEntity
  8
0-0
  6
JWW_DASHED1
 62
   120
370
     5
100
AcDbLine
 10
-254.5865934020345
 20
-166.4488735865218
 30
0.0
 11
318.4134065979662
 21
-166.4488735865218
 31
0.0
  0
LINE
  5
224
330
1F
100
AcDbEntity
  8
0-0
  6
JWW_DASHED1
 62
   120
370
     5
100
AcDbLine
 10
-254.5865934020345
 20
-167.448873586422
 30
0.0
 11
318.4134065979662
 21
-167.448873586422
 31
0.0
  0
LINE
  5
225
330
1F
100
AcDbEntity
  8
0-0
  6
JWW_DASHED1
 62
   120
370
     5
100
AcDbLine
 10
-254.5865934020345
 20
-180.4488735875216
 30
0.0
 11
318.4134065979662
 21
-180.4488735875216
 31
0.0
  0
LINE
  5
226
330
1F
100
AcDbEntity
  8
0-0
  6
JWW_DASHED1
 62
   120
370
     5
100
AcDbLine
 10
-254.5865934020345
 20
-181.4488735874218
 30
0.0
 11
318.4134065979662
 21
-181.4488735874218
 31
0.0
  0
LINE
  5
227
330
1F
100
AcDbEntity
  8
0-0
  6
JWW_DASHED1
 62
   120
370
     5
100
AcDbLine
 10
-254.5865934020345
 20
-194.4488735885214
 30
0.0
 11
318.4134065979662
 21
-194.4488735885214
 31
0.0
  0
LINE
  5
228
330
1F
100
AcDbEntity
  8
0-0
  6
JWW_DASHED1
 62
   120
370
     5
100
AcDbLine
 10
-254.5865934020345
 20
-195.4488735884216
 30
0.0
 11
318.4134065979662
 21
-195.4488735884216
 31
0.0
  0
LINE
  5
229
330
1F
100
AcDbEntity
  8
0-0
  6
JWW_DASHED1
 62
   120
370
     5
100
AcDbLine
 10
-254.5865934020345
 20
-208.4488735895212
 30
0.0
 11
318.4134065979662
 21
-208.4488735895212
 31
0.0
  0
LINE
  5
22A
330
1F
100
AcDbEntity
  8
0-0
  6
JWW_DASHED1
 62
   120
370
     5
100
AcDbLine
 10
-254.5865934020345
 20
-209.4488735894214
 30
0.0
 11
318.4134065979662
 21
-209.4488735894214
 31
0.0
  0
LINE
  5
22B
330
1F
100
AcDbEntity
  8
0-0
  6
JWW_DASHED1
 62
   120
370
     5
100
AcDbLine
 10
-254.5865934020345
 20
-222.448873590521
 30
0.0
 11
318.4134065979662
 21
-222.448873590521
 31
0.0
  0
LINE
  5
22C
330
1F
100
AcDbEntity
  8
0-0
  6
JWW_DASHED1
 62
   120
370
     5
100
AcDbLine
 10
-254.5865934020345
 20
-223.4488735904212
 30
0.0
 11
318.4134065979662
 21
-223.4488735904212
 31
0.0
  0
LINE
  5
22D
330
1F
100
AcDbEntity
  8
0-0
  6
JWW_DASHED1
 62
   120
370
     5
100
AcDbLine
 10
-254.5865934020345
 20
-236.4488735915208
 30
0.0
 11
318.4134065979662
 21
-236.4488735915208
 31
0.0
  0
LINE
  5
22E
330
1F
100
AcDbEntity
  8
0-0
  6
JWW_DASHED1
 62
   120
370
     5
100
AcDbLine
 10
-254.5865934020345
 20
-237.448873591421
 30
0.0
 11
318.4134065979662
 21
-237.448873591421
 31
0.0
  0
LINE
  5
22F
330
1F
100
AcDbEntity
  8
0-0
  6
JWW_DASHED1
 62
   120
370
     5
100
AcDbLine
 10
-254.5865934020345
 20
-250.4488735925206
 30
0.0
 11
318.4134065979662
 21
-250.4488735925206
 31
0.0
  0
LINE
  5
230
330
1F
100
AcDbEntity
  8
0-0
  6
JWW_DASHED1
 62
   120
370
     5
100
AcDbLine
 10
-254.5865934020345
 20
-251.4488735924208
 30
0.0
 11
318.4134065979662
 21
-251.4488735924208
 31
0.0
  0
LINE
  5
231
330
1F
100
AcDbEntity
  8
0-0
  6
JWW_DASHED1
 62
   120
370
     5
100
AcDbLine
 10
-254.5865934020345
 20
-264.4488735935204
 30
0.0
 11
318.4134065979662
 21
-264.4488735935204
 31
0.0
  0
LINE
  5
232
330
1F
100
AcDbEntity
  8
0-0
  6
JWW_DASHED1
 62
   120
370
     5
100
AcDbLine
 10
-254.5865934020345
 20
-265.4488735934206
 30
0.0
 11
318.4134065979662
 21
-265.4488735934206
 31
0.0
  0
LINE
  5
233
330
1F
100
AcDbEntity
  8
0-0
  6
JWW_DASHED1
 62
   120
370
     5
100
AcDbLine
 10
-254.5865934020345
 20
-278.4488735945201
 30
0.0
 11
318.4134065979662
 21
-278.4488735945201
 31
0.0
  0
LINE
  5
234
330
1F
100
AcDbEntity
  8
0-0
  6
JWW_DASHED1
 62
   120
370
     5
100
AcDbLine
 10
-254.5865934020345
 20
-279.4488735944203
 30
0.0
 11
318.4134065979662
 21
-279.4488735944203
 31
0.0
  0
LINE
  5
235
330
1F
100
AcDbEntity
  8
0-0
  6
JWW_DASHED1
 62
   120
370
     5
100
AcDbLine
 10
-254.5865934020345
 20
-292.44887359552
 30
0.0
 11
318.4134065979662
 21
-292.44887359552
 31
0.0
  0
LINE
  5
236
330
1F
100
AcDbEntity
  8
0-0
  6
JWW_DASHED1
 62
   120
370
     5
100
AcDbLine
 10
-254.5865934020345
 20
-293.4488735954201
 30
0.0
 11
318.4134065979662
 21
-293.4488735954201
 31
0.0
  0
LINE
  5
237
330
1F
100
AcDbEntity
  8
0-0
  6
JWW_DASHED1
 62
   120
370
     5
100
AcDbLine
 10
-254.5865934020345
 20
-306.4488735965198
 30
0.0
 11
318.4134065979662
 21
-306.4488735965198
 31
0.0
  0
LINE
  5
238
330
1F
100
AcDbEntity
  8
0-0
  6
JWW_DASHED1
 62
   120
370
     5
100
AcDbLine
 10
-254.5865934020345
 20
-307.44887359642
 30
0.0
 11
318.4134065979662
 21
-307.44887359642
 31
0.0
  0
LINE
  5
239
330
1F
100
AcDbEntity
  8
0-0
  6
JWW_DASHED1
 62
   120
370
     5
100
AcDbLine
 10
-254.5865934020345
 20
-320.4488735975195
 30
0.0
 11
318.4134065979662
 21
-320.4488735975195
 31
0.0
  0
LINE
  5
23A
330
1F
100
AcDbEntity
  8
0-0
  6
JWW_DASHED1
 62
   120
370
     5
100
AcDbLine
 10
-254.5865934020345
 20
-321.4488735974197
 30
0.0
 11
318.4134065979662
 21
-321.4488735974197
 31
0.0
  0
LINE
  5
23B
330
1F
100
AcDbEntity
  8
0-0
  6
JWW_DASHED1
 62
   120
370
     5
100
AcDbLine
 10
-254.5865934020345
 20
-334.4488735985193
 30
0.0
 11
318.4134065979662
 21
-334.4488735985193
 31
0.0
  0
LINE
  5
23C
330
1F
100
AcDbEntity
  8
0-0
  6
JWW_DASHED1
 62
   120
370
     5
100
AcDbLine
 10
-254.5865934020345
 20
-335.4488735984195
 30
0.0
 11
318.4134065979662
 21
-335.4488735984195
 31
0.0
  0
LINE
  5
23D
330
1F
100
AcDbEntity
  8
0-0
  6
JWW_DASHED1
 62
   120
370
     5
100
AcDbLine
 10
-254.5865934020345
 20
-348.4488735995191
 30
0.0
 11
318.4134065979662
 21
-348.4488735995191
 31
0.0
  0
LINE
  5
23E
330
1F
100
AcDbEntity
  8
0-0
  6
JWW_DASHED1
 62
   120
370
     5
100
AcDbLine
 10
-254.5865934020345
 20
-349.4488735994193
 30
0.0
 11
318.4134065979662
 21
-349.4488735994193
 31
0.0
  0
LINE
  5
23F
330
1F
100
AcDbEntity
  8
0-0
  6
JWW_DASHED1
 62
   120
370
     5
100
AcDbLine
 10
-254.5865934020345
 20
-362.4488736005189
 30
0.0
 11
318.4134065979662
 21
-362.4488736005189
 31
0.0
  0
LINE
  5
240
330
1F
100
AcDbEntity
  8
0-0
  6
JWW_DASHED1
 62
   120
370
     5
100
AcDbLine
 10
-254.5865934020345
 20
-363.4488736004191
 30
0.0
 11
318.4134065979662
 21
-363.4488736004191
 31
0.0
  0
LINE
  5
241
330
1F
100
AcDbEntity
  8
0-0
  6
JWW_DASHED1
 62
   120
370
     5
100
AcDbLine
 10
-254.5865934020345
 20
-376.4488736015187
 30
0.0
 11
318.4134065979662
 21
-376.4488736015187
 31
0.0
  0
LINE
  5
242
330
1F
100
AcDbEntity
  8
0-0
  6
JWW_DASHED1
 62
   120
370
     5
100
AcDbLine
 10
-254.5865934020345
 20
-377.4488736014189
 30
0.0
 11
318.4134065979662
 21
-377.4488736014189
 31
0.0
  0
LINE
  5
243
330
1F
100
AcDbEntity
  8
0-0
  6
JWW_DASHED1
 62
   120
370
     5
100
AcDbLine
 10
-254.5865934020345
 20
-390.4488736025185
 30
0.0
 11
318.4134065979662
 21
-390.4488736025185
 31
0.0
  0
LINE
  5
244
330
1F
100
AcDbEntity
  8
0-0
  6
JWW_DASHED1
 62
   120
370
     5
100
AcDbLine
 10
-254.5865934020345
 20
-391.4488736024186
 30
0.0
 11
318.4134065979662
 21
-391.4488736024186
 31
0.0
  0
LINE
  5
245
330
1F
100
AcDbEntity
  8
0-0
  6
JWW_DASHED1
 62
   120
370
     5
100
AcDbLine
 10
-254.5865934020345
 20
-404.4488736035183
 30
0.0
 11
318.4134065979662
 21
-404.4488736035183
 31
0.0
  0
LINE
  5
246
330
1F
100
AcDbEntity
  8
0-0
  6
JWW_DASHED1
 62
   120
370
     5
100
AcDbLine
 10
-254.5865934020345
 20
-405.4488736034185
 30
0.0
 11
318.4134065979662
 21
-405.4488736034185
 31
0.0
  0
LINE
  5
247
330
1F
100
AcDbEntity
  8
0-0
  6
JWW_DASHED1
 62
   120
370
     5
100
AcDbLine
 10
-254.5865934020345
 20
-418.4488736045181
 30
0.0
 11
318.4134065979662
 21
-418.4488736045181
 31
0.0
  0
LINE
  5
248
330
1F
100
AcDbEntity
  8
0-0
  6
JWW_DASHED1
 62
   120
370
     5
100
AcDbLine
 10
-254.5865934020345
 20
-419.4488736044183
 30
0.0
 11
318.4134065979662
 21
-419.4488736044183
 31
0.0
  0
LINE
  5
249
330
1F
100
AcDbEntity
  8
0-0
  6
JWW_DASHED1
 62
   120
370
     5
100
AcDbLine
 10
-254.5865934020345
 20
-432.4488736055179
 30
0.0
 11
318.4134065979662
 21
-432.4488736055179
 31
0.0
  0
LINE
  5
24A
330
1F
100
AcDbEntity
  8
0-0
  6
JWW_DASHED1
 62
   120
370
     5
100
AcDbLine
 10
-254.5865934020345
 20
-433.448873605418
 30
0.0
 11
318.4134065979662
 21
-433.448873605418
 31
0.0
  0
LINE
  5
24B
330
1F
100
AcDbEntity
  8
0-0
  6
JWW_DASHED1
 62
   120
370
     5
100
AcDbLine
 10
-254.5865934020345
 20
-446.4488736065176
 30
0.0
 11
318.4134065979662
 21
-446.4488736065176
 31
0.0
  0
LINE
  5
24C
330
1F
100
AcDbEntity
  8
0-0
  6
JWW_DASHED1
 62
   120
370
     5
100
AcDbLine
 10
-254.5865934020345
 20
-447.4488736064178
 30
0.0
 11
318.4134065979662
 21
-447.4488736064178
 31
0.0
  0
LINE
  5
24D
330
1F
100
AcDbEntity
  8
0-0
  6
JWW_DASHED1
 62
   120
370
     5
100
AcDbLine
 10
-254.5865934020345
 20
-460.4488736075174
 30
0.0
 11
318.4134065979662
 21
-460.4488736075174
 31
0.0
  0
LINE
  5
24E
330
1F
100
AcDbEntity
  8
0-0
  6
JWW_DASHED1
 62
   120
370
     5
100
AcDbLine
 10
-254.5865934020345
 20
-461.4488736074176
 30
0.0
 11
318.4134065979662
 21
-461.4488736074176
 31
0.0
  0
LINE
  5
24F
330
1F
100
AcDbEntity
  8
0-0
  6
JWW_DASHED1
 62
   120
370
     5
100
AcDbLine
 10
-254.5865934020345
 20
-474.4488736085173
 30
0.0
 11
318.4134065979662
 21
-474.4488736085173
 31
0.0
  0
LINE
  5
250
330
1F
100
AcDbEntity
  8
0-0
  6
JWW_DASHED1
 62
   120
370
     5
100
AcDbLine
 10
-254.5865934020345
 20
-475.4488736084174
 30
0.0
 11
318.4134065979662
 21
-475.4488736084174
 31
0.0
  0
LINE
  5
251
330
1F
100
AcDbEntity
  8
0-0
  6
JWW_DASHED1
 62
   120
370
     5
100
AcDbLine
 10
-254.5865934020345
 20
-488.448873609517
 30
0.0
 11
318.4134065979662
 21
-488.448873609517
 31
0.0
  0
LINE
  5
252
330
1F
100
AcDbEntity
  8
0-0
  6
JWW_DASHED1
 62
   120
370
     5
100
AcDbLine
 10
-1028.586574944003
 20
-489.4487252955735
 30
0.0
 11
-1028.586574944003
 21
625.551007160118
 31
0.0
  0
LINE
  5
253
330
1F
100
AcDbEntity
  8
0-0
  6
JWW_DASHED1
 62
   120
370
     5
100
AcDbLine
 10
-1027.586574944103
 20
-489.4487252955735
 30
0.0
 11
-1027.586574944103
 21
625.551007160118
 31
0.0
  0
LINE
  5
254
330
1F
100
AcDbEntity
  8
0-0
  6
JWW_DASHED1
 62
   120
370
     5
100
AcDbLine
 10
-1014.586574943003
 20
-489.4487252955735
 30
0.0
 11
-1014.586574943003
 21
625.551007160118
 31
0.0
  0
LINE
  5
255
330
1F
100
AcDbEntity
  8
0-0
  6
JWW_DASHED1
 62
   120
370
     5
100
AcDbLine
 10
-1013.586574943103
 20
-489.4487252955735
 30
0.0
 11
-1013.586574943103
 21
625.551007160118
 31
0.0
  0
LINE
  5
256
330
1F
100
AcDbEntity
  8
0-0
  6
JWW_DASHED1
 62
   120
370
     5
100
AcDbLine
 10
-1000.586574942003
 20
-489.4487252955735
 30
0.0
 11
-1000.586574942003
 21
625.551007160118
 31
0.0
  0
LINE
  5
257
330
1F
100
AcDbEntity
  8
0-0
  6
JWW_DASHED1
 62
   120
370
     5
100
AcDbLine
 10
-999.5865749421031
 20
-489.4487252955735
 30
0.0
 11
-999.5865749421031
 21
625.551007160118
 31
0.0
  0
LINE
  5
258
330
1F
100
AcDbEntity
  8
0-0
  6
JWW_DASHED1
 62
   120
370
     5
100
AcDbLine
 10
-986.5865749410033
 20
-489.4487252955735
 30
0.0
 11
-986.5865749410033
 21
625.551007160118
 31
0.0
  0
LINE
  5
259
330
1F
100
AcDbEntity
  8
0-0
  6
JWW_DASHED1
 62
   120
370
     5
100
AcDbLine
 10
-985.5865749411031
 20
-489.4487252955735
 30
0.0
 11
-985.5865749411031
 21
625.551007160118
 31
0.0
  0
LINE
  5
25A
330
1F
100
AcDbEntity
  8
0-0
  6
JWW_DASHED1
 62
   120
370
     5
100
AcDbLine
 10
-972.5865749400033
 20
-489.4487252955735
 30
0.0
 11
-972.5865749400033
 21
626.1143028770836
 31
0.0
  0
LINE
  5
25B
330
1F
100
AcDbEntity
  8
0-0
  6
JWW_DASHED1
 62
   120
370
     5
100
AcDbLine
 10
-971.5865749401031
 20
-489.4487252955735
 30
0.0
 11
-971.5865749401031
 21
626.2045847885544
 31
0.0
  0
LINE
  5
25C
330
1F
100
AcDbEntity
  8
0-0
  6
JWW_DASHED1
 62
   120
370
     5
100
AcDbLine
 10
-958.5865749390032
 20
-489.4487252955735
 30
0.0
 11
-958.5865749390032
 21
627.9987024611706
 31
0.0
  0
LINE
  5
25D
330
1F
100
AcDbEntity
  8
0-0
  6
JWW_DASHED1
 62
   120
370
     5
100
AcDbLine
 10
-957.586574939103
 20
-489.4487252955735
 30
0.0
 11
-957.586574939103
 21
628.1851091029217
 31
0.0
  0
LINE
  5
25E
330
1F
100
AcDbEntity
  8
0-0
  6
JWW_DASHED1
 62
   120
370
     5
100
AcDbLine
 10
-944.5865749380031
 20
-489.4487252955735
 30
0.0
 11
-944.5865749380031
 21
631.2595082527674
 31
0.0
  0
LINE
  5
25F
330
1F
100
AcDbEntity
  8
0-0
  6
JWW_DASHED1
 62
   120
370
     5
100
AcDbLine
 10
-943.5865749381029
 20
-489.4487252955735
 30
0.0
 11
-943.5865749381029
 21
631.547319897743
 31
0.0
  0
LINE
  5
260
330
1F
100
AcDbEntity
  8
0-0
  6
JWW_DASHED1
 62
   120
370
     5
100
AcDbLine
 10
-930.5865749370032
 20
-489.4487252955735
 30
0.0
 11
-930.5865749370032
 21
635.9931672089784
 31
0.0
  0
LINE
  5
261
330
1F
100
AcDbEntity
  8
0-0
  6
JWW_DASHED1
 62
   120
370
     5
100
AcDbLine
 10
-929.586574937103
 20
-489.4487252955735
 30
0.0
 11
-929.586574937103
 21
636.3913291637779
 31
0.0
  0
LINE
  5
262
330
1F
100
AcDbEntity
  8
0-0
  6
JWW_DASHED1
 62
   120
370
     5
100
AcDbLine
 10
-916.5865749360032
 20
-489.4487252955735
 30
0.0
 11
-916.5865749360032
 21
642.3566201662812
 31
0.0
  0
LINE
  5
263
330
1F
100
AcDbEntity
  8
0-0
  6
JWW_DASHED1
 62
   120
370
     5
100
AcDbLine
 10
-915.586574936103
 20
-489.4487252955735
 30
0.0
 11
-915.586574936103
 21
642.8793447189652
 31
0.0
  0
LINE
  5
264
330
1F
100
AcDbEntity
  8
0-0
  6
JWW_DASHED1
 62
   120
370
     5
100
AcDbLine
 10
-902.5865749350032
 20
-489.4487252955735
 30
0.0
 11
-902.5865749350032
 21
649.6050212293046
 31
0.0
  0
LINE
  5
265
330
1F
100
AcDbEntity
  8
0-0
  6
JWW_DASHED1
 62
   120
370
     5
100
AcDbLine
 10
-901.586574935103
 20
-489.4487252955735
 30
0.0
 11
-901.586574935103
 21
650.0950008687466
 31
0.0
  0
LINE
  5
266
330
1F
100
AcDbEntity
  8
0-0
  6
JWW_DASHED1
 62
   120
370
     5
100
AcDbLine
 10
-888.5865749340032
 20
-489.4487252955735
 30
0.0
 11
-888.5865749340032
 21
656.1128993408199
 31
0.0
  0
LINE
  5
267
330
1F
100
AcDbEntity
  8
0-0
  6
JWW_DASHED1
 62
   120
370
     5
100
AcDbLine
 10
-887.586574934103
 20
-489.4487252955735
 30
0.0
 11
-887.586574934103
 21
656.5493356838631
 31
0.0
  0
LINE
  5
268
330
1F
100
AcDbEntity
  8
0-0
  6
JWW_DASHED1
 62
   120
370
     5
100
AcDbLine
 10
-874.5865749330032
 20
-489.4487252955735
 30
0.0
 11
-874.5865749330032
 21
661.8912119978229
 31
0.0
  0
LINE
  5
269
330
1F
100
AcDbEntity
  8
0-0
  6
JWW_DASHED1
 62
   120
370
     5
100
AcDbLine
 10
-873.5865749331031
 20
-489.4487252955735
 30
0.0
 11
-873.5865749331031
 21
662.2770842691132
 31
0.0
  0
LINE
  5
26A
330
1F
100
AcDbEntity
  8
0-0
  6
JWW_DASHED1
 62
   120
370
     5
100
AcDbLine
 10
-860.5865749320033
 20
-489.4487252955735
 30
0.0
 11
-860.5865749320033
 21
666.9781205630131
 31
0.0
  0
LINE
  5
26B
330
1F
100
AcDbEntity
  8
0-0
  6
JWW_DASHED1
 62
   120
370
     5
100
AcDbLine
 10
-859.5865749321031
 20
-489.4487252955735
 30
0.0
 11
-859.5865749321031
 21
667.3158811934225
 31
0.0
  0
LINE
  5
26C
330
1F
100
AcDbEntity
  8
0-0
  6
JWW_DASHED1
 62
   120
370
     5
100
AcDbLine
 10
-846.5865749310033
 20
-489.4487252955735
 30
0.0
 11
-846.5865749310033
 21
671.4050429411288
 31
0.0
  0
LINE
  5
26D
330
1F
100
AcDbEntity
  8
0-0
  6
JWW_DASHED1
 62
   120
370
     5
100
AcDbLine
 10
-845.5865749311031
 20
-489.4487252955735
 30
0.0
 11
-845.5865749311031
 21
671.6967098985112
 31
0.0
  0
LINE
  5
26E
330
1F
100
AcDbEntity
  8
0-0
  6
JWW_DASHED1
 62
   120
370
     5
100
AcDbLine
 10
-832.586574930003
 20
-489.4487252955735
 30
0.0
 11
-832.586574930003
 21
675.1977867162129
 31
0.0
  0
LINE
  5
26F
330
1F
100
AcDbEntity
  8
0-0
  6
JWW_DASHED1
 62
   120
370
     5
100
AcDbLine
 10
-831.5865749301029
 20
-489.4487252955735
 30
0.0
 11
-831.5865749301029
 21
675.4450126355875
 31
0.0
  0
LINE
  5
270
330
1F
100
AcDbEntity
  8
0-0
  6
JWW_DASHED1
 62
   120
370
     5
100
AcDbLine
 10
-818.5865749290032
 20
-489.4487252955735
 30
0.0
 11
-818.5865749290032
 21
678.3774006118581
 31
0.0
  0
LINE
  5
271
330
1F
100
AcDbEntity
  8
0-0
  6
JWW_DASHED1
 62
   120
370
     5
100
AcDbLine
 10
-817.586574929103
 20
-489.4487252955735
 30
0.0
 11
-817.586574929103
 21
678.5815249269724
 31
0.0
  0
LINE
  5
272
330
1F
100
AcDbEntity
  8
0-0
  6
JWW_DASHED1
 62
   120
370
     5
100
AcDbLine
 10
-804.5865749280032
 20
-489.4487252955735
 30
0.0
 11
-804.5865749280032
 21
680.9608172587066
 31
0.0
  0
LINE
  5
273
330
1F
100
AcDbEntity
  8
0-0
  6
JWW_DASHED1
 62
   120
370
     5
100
AcDbLine
 10
-803.586574928103
 20
-489.4487252955735
 30
0.0
 11
-803.586574928103
 21
681.1229055577458
 31
0.0
  0
LINE
  5
274
330
1F
100
AcDbEntity
  8
0-0
  6
JWW_DASHED1
 62
   120
370
     5
100
AcDbLine
 10
-790.5865749270032
 20
-489.4487252955735
 30
0.0
 11
-790.5865749270032
 21
682.9613372679121
 31
0.0
  0
LINE
  5
275
330
1F
100
AcDbEntity
  8
0-0
  6
JWW_DASHED1
 62
   120
370
     5
100
AcDbLine
 10
-789.586574927103
 20
-489.4487252955735
 30
0.0
 11
-789.586574927103
 21
683.0822107855199
 31
0.0
  0
LINE
  5
276
330
1F
100
AcDbEntity
  8
0-0
  6
JWW_DASHED1
 62
   120
370
     5
100
AcDbLine
 10
-776.5865749260032
 20
-489.4487252955735
 30
0.0
 11
-776.5865749260032
 21
684.3889891980286
 31
0.0
  0
LINE
  5
277
330
1F
100
AcDbEntity
  8
0-0
  6
JWW_DASHED1
 62
   120
370
     5
100
AcDbLine
 10
-775.586574926103
 20
-489.4487252955735
 30
0.0
 11
-775.586574926103
 21
684.4692464631005
 31
0.0
  0
LINE
  5
278
330
1F
100
AcDbEntity
  8
0-0
  6
JWW_DASHED1
 62
   120
370
     5
100
AcDbLine
 10
-762.5865749250032
 20
-489.4487252955735
 30
0.0
 11
-762.5865749250032
 21
685.2507893392756
 31
0.0
  0
LINE
  5
279
330
1F
100
AcDbEntity
  8
0-0
  6
JWW_DASHED1
 62
   120
370
     5
100
AcDbLine
 10
-761.586574925103
 20
-489.4487252955735
 30
0.0
 11
-761.586574925103
 21
685.290821365739
 31
0.0
  0
LINE
  5
27A
330
1F
100
AcDbEntity
  8
0-0
  6
JWW_DASHED1
 62
   120
370
     5
100
AcDbLine
 10
-748.5865749240032
 20
-489.4487252955735
 30
0.0
 11
-748.5865749240032
 21
685.550917587803
 31
0.0
  0
LINE
  5
27B
330
1F
100
AcDbEntity
  8
0-0
  6
JWW_DASHED1
 62
   120
370
     5
100
AcDbLine
 10
-747.586574924103
 20
-489.4487252955735
 30
0.0
 11
-747.586574924103
 21
685.5509175349796
 31
0.0
  0
LINE
  5
27C
330
1F
100
AcDbEntity
  8
0-0
  6
JWW_DASHED1
 62
   120
370
     5
100
AcDbLine
 10
-734.5865749230031
 20
-489.4487252955735
 30
0.0
 11
-734.5865749230031
 21
685.290819939233
 31
0.0
  0
LINE
  5
27D
330
1F
100
AcDbEntity
  8
0-0
  6
JWW_DASHED1
 62
   120
370
     5
100
AcDbLine
 10
-733.586574923103
 20
-489.4487252955735
 30
0.0
 11
-733.586574923103
 21
685.2507878069043
 31
0.0
  0
LINE
  5
27E
330
1F
100
AcDbEntity
  8
0-0
  6
JWW_DASHED1
 62
   120
370
     5
100
AcDbLine
 10
-720.5865749220031
 20
-489.4487252955735
 30
0.0
 11
-720.5865749220031
 21
684.4692435503891
 31
0.0
  0
LINE
  5
27F
330
1F
100
AcDbEntity
  8
0-0
  6
JWW_DASHED1
 62
   120
370
     5
100
AcDbLine
 10
-719.586574922103
 20
-489.4487252955735
 30
0.0
 11
-719.586574922103
 21
684.3889861787427
 31
0.0
  0
LINE
  5
280
330
1F
100
AcDbEntity
  8
0-0
  6
JWW_DASHED1
 62
   120
370
     5
100
AcDbLine
 10
-706.5865749210031
 20
-489.4487252955735
 30
0.0
 11
-706.5865749210031
 21
683.0822063724697
 31
0.0
  0
LINE
  5
281
330
1F
100
AcDbEntity
  8
0-0
  6
JWW_DASHED1
 62
   120
370
     5
100
AcDbLine
 10
-705.586574921103
 20
-489.4487252955735
 30
0.0
 11
-705.586574921103
 21
682.9613327469776
 31
0.0
  0
LINE
  5
282
330
1F
100
AcDbEntity
  8
0-0
  6
JWW_DASHED1
 62
   120
370
     5
100
AcDbLine
 10
-692.5865749200032
 20
-489.4487252955735
 30
0.0
 11
-692.5865749200032
 21
681.1228996224743
 31
0.0
  0
LINE
  5
283
330
1F
100
AcDbEntity
  8
0-0
  6
JWW_DASHED1
 62
   120
370
     5
100
AcDbLine
 10
-691.586574920103
 20
-489.4487252955735
 30
0.0
 11
-691.586574920103
 21
680.9608112136955
 31
0.0
  0
LINE
  5
284
330
1F
100
AcDbEntity
  8
0-0
  6
JWW_DASHED1
 62
   120
370
     5
100
AcDbLine
 10
-678.5865749190032
 20
-489.4487252955735
 30
0.0
 11
-678.5865749190032
 21
678.5815174394663
 31
0.0
  0
LINE
  5
285
330
1F
100
AcDbEntity
  8
0-0
  6
JWW_DASHED1
 62
   120
370
     5
100
AcDbLine
 10
-677.586574919103
 20
-489.4487252955735
 30
0.0
 11
-677.586574919103
 21
678.3773930121022
 31
0.0
  0
LINE
  5
286
330
1F
100
AcDbEntity
  8
0-0
  6
JWW_DASHED1
 62
   120
370
     5
100
AcDbLine
 10
-664.5865749180032
 20
-489.4487252955735
 30
0.0
 11
-664.5865749180032
 21
675.445003556775
 31
0.0
  0
LINE
  5
287
330
1F
100
AcDbEntity
  8
0-0
  6
JWW_DASHED1
 62
   120
370
     5
100
AcDbLine
 10
-663.586574918103
 20
-489.4487252955735
 30
0.0
 11
-663.586574918103
 21
675.1977775219855
 31
0.0
  0
LINE
  5
288
330
1F
100
AcDbEntity
  8
0-0
  6
JWW_DASHED1
 62
   120
370
     5
100
AcDbLine
 10
-650.5865749170032
 20
-489.4487252955735
 30
0.0
 11
-650.5865749170032
 21
671.696699179334
 31
0.0
  0
LINE
  5
289
330
1F
100
AcDbEntity
  8
0-0
  6
JWW_DASHED1
 62
   120
370
     5
100
AcDbLine
 10
-649.586574917103
 20
-489.4487252955735
 30
0.0
 11
-649.586574917103
 21
671.4050321026077
 31
0.0
  0
LINE
  5
28A
330
1F
100
AcDbEntity
  8
0-0
  6
JWW_DASHED1
 62
   120
370
     5
100
AcDbLine
 10
-636.5865749160032
 20
-489.4487252955735
 30
0.0
 11
-636.5865749160032
 21
667.3158687731991
 31
0.0
  0
LINE
  5
28B
330
1F
100
AcDbEntity
  8
0-0
  6
JWW_DASHED1
 62
   120
370
     5
100
AcDbLine
 10
-635.586574916103
 20
-489.4487252955735
 30
0.0
 11
-635.586574916103
 21
666.9781080185892
 31
0.0
  0
LINE
  5
28C
330
1F
100
AcDbEntity
  8
0-0
  6
JWW_DASHED1
 62
   120
370
     5
100
AcDbLine
 10
-622.5865749150032
 20
-489.4487252955735
 30
0.0
 11
-622.5865749150032
 21
662.2770700737926
 31
0.0
  0
LINE
  5
28D
330
1F
100
AcDbEntity
  8
0-0
  6
JWW_DASHED1
 62
   120
370
     5
100
AcDbLine
 10
-621.586574915103
 20
-489.4487252955735
 30
0.0
 11
-621.586574915103
 21
661.8911976725174
 31
0.0
  0
LINE
  5
28E
330
1F
100
AcDbEntity
  8
0-0
  6
JWW_DASHED1
 62
   120
370
     5
100
AcDbLine
 10
-608.5865749140031
 20
-489.4487252955735
 30
0.0
 11
-608.5865749140031
 21
656.54931962346
 31
0.0
  0
LINE
  5
28F
330
1F
100
AcDbEntity
  8
0-0
  6
JWW_DASHED1
 62
   120
370
     5
100
AcDbLine
 10
-607.5865749141029
 20
-489.4487252955735
 30
0.0
 11
-607.5865749141029
 21
656.1128831432832
 31
0.0
  0
LINE
  5
290
330
1F
100
AcDbEntity
  8
0-0
  6
JWW_DASHED1
 62
   120
370
     5
100
AcDbLine
 10
-594.5865749130031
 20
-489.4487252955735
 30
0.0
 11
-594.5865749130031
 21
650.0949828339578
 31
0.0
  0
LINE
  5
291
330
1F
100
AcDbEntity
  8
0-0
  6
JWW_DASHED1
 62
   120
370
     5
100
AcDbLine
 10
-593.5865749131029
 20
-489.4487252955735
 30
0.0
 11
-593.5865749131029
 21
649.605003048651
 31
0.0
  0
LINE
  5
292
330
1F
100
AcDbEntity
  8
0-0
  6
JWW_DASHED1
 62
   120
370
     5
100
AcDbLine
 10
-580.5865749120034
 20
-489.4487252955735
 30
0.0
 11
-580.5865749120031
 21
642.8793252238917
 31
0.0
  0
LINE
  5
293
330
1F
100
AcDbEntity
  8
0-0
  6
JWW_DASHED1
 62
   120
370
     5
100
AcDbLine
 10
-579.5865749121032
 20
-489.4487252955735
 30
0.0
 11
-579.5865749121032
 21
642.3566010250921
 31
0.0
  0
LINE
  5
294
330
1F
100
AcDbEntity
  8
0-0
  6
JWW_DASHED1
 62
   120
370
     5
100
AcDbLine
 10
-566.5865749110031
 20
-489.4487252955735
 30
0.0
 11
-566.5865749110031
 21
636.3913142954494
 31
0.0
  0
LINE
  5
295
330
1F
100
AcDbEntity
  8
0-0
  6
JWW_DASHED1
 62
   120
370
     5
100
AcDbLine
 10
-565.5865749111034
 20
-489.4487252955735
 30
0.0
 11
-565.5865749111032
 21
635.9931526479319
 31
0.0
  0
LINE
  5
296
330
1F
100
AcDbEntity
  8
0-0
  6
JWW_DASHED1
 62
   120
370
     5
100
AcDbLine
 10
-552.5865749100034
 20
-489.4487252955735
 30
0.0
 11
-552.5865749100032
 21
631.5473091224682
 31
0.0
  0
LINE
  5
297
330
1F
100
AcDbEntity
  8
0-0
  6
JWW_DASHED1
 62
   120
370
     5
100
AcDbLine
 10
-551.5865749101032
 20
-489.4487252955735
 30
0.0
 11
-551.5865749101032
 21
631.2594977550885
 31
0.0
  0
LINE
  5
298
330
1F
100
AcDbEntity
  8
0-0
  6
JWW_DASHED1
 62
   120
370
     5
100
AcDbLine
 10
-538.5865749090032
 20
-489.4487252955735
 30
0.0
 11
-538.5865749090032
 21
628.1851020843329
 31
0.0
  0
LINE
  5
299
330
1F
100
AcDbEntity
  8
0-0
  6
JWW_DASHED1
 62
   120
370
     5
100
AcDbLine
 10
-537.5865749091033
 20
-489.4487252955735
 30
0.0
 11
-537.5865749091032
 21
627.998695701897
 31
0.0
  0
LINE
  5
29A
330
1F
100
AcDbEntity
  8
0-0
  6
JWW_DASHED1
 62
   120
370
     5
100
AcDbLine
 10
-524.5865749080033
 20
-489.4487252955735
 30
0.0
 11
-524.5865749080032
 21
626.2045813273631
 31
0.0
  0
LINE
  5
29B
330
1F
100
AcDbEntity
  8
0-0
  6
JWW_DASHED1
 62
   120
370
     5
100
AcDbLine
 10
-523.5865749081033
 20
-489.4487252955735
 30
0.0
 11
-523.5865749081031
 21
626.1142996653303
 31
0.0
  0
LINE
  5
29C
330
1F
100
AcDbEntity
  8
0-0
  6
JWW_DASHED1
 62
   120
370
     5
100
AcDbLine
 10
-510.5865749070034
 20
-489.4487252955735
 30
0.0
 11
-510.5865749070031
 21
625.551007160118
 31
0.0
  0
LINE
  5
29D
330
1F
100
AcDbEntity
  8
0-0
  6
JWW_DASHED1
 62
   120
370
     5
100
AcDbLine
 10
-509.5865749071033
 20
-489.4487252955735
 30
0.0
 11
-509.5865749071032
 21
625.551007160118
 31
0.0
  0
LINE
  5
29E
330
1F
100
AcDbEntity
  8
0-0
  6
JWW_DASHED1
 62
   120
370
     5
100
AcDbLine
 10
-496.5865749060033
 20
-489.4487252955735
 30
0.0
 11
-496.5865749060031
 21
625.551007160118
 31
0.0
  0
LINE
  5
29F
330
1F
100
AcDbEntity
  8
0-0
  6
JWW_DASHED1
 62
   120
370
     5
100
AcDbLine
 10
-495.5865749061034
 20
-489.4487252955735
 30
0.0
 11
-495.5865749061031
 21
625.551007160118
 31
0.0
  0
LINE
  5
2A0
330
1F
100
AcDbEntity
  8
0-0
  6
JWW_DASHED1
 62
   120
370
     5
100
AcDbLine
 10
-482.5865749050033
 20
-489.4487252955735
 30
0.0
 11
-482.5865749050031
 21
625.551007160118
 31
0.0
  0
LINE
  5
2A1
330
1F
100
AcDbEntity
  8
0-0
  6
JWW_DASHED1
 62
   120
370
     5
100
AcDbLine
 10
-481.5865749051034
 20
-489.4487252955735
 30
0.0
 11
-481.5865749051031
 21
625.551007160118
 31
0.0
  0
LINE
  5
2A2
330
1F
100
AcDbEntity
  8
0-0
  6
JWW_DASHED1
 62
   120
370
     5
100
AcDbLine
 10
-468.5865749040034
 20
-489.4487252955735
 30
0.0
 11
-468.5865749040032
 21
625.551007160118
 31
0.0
  0
LINE
  5
2A3
330
1F
100
AcDbEntity
  8
0-0
  6
JWW_DASHED1
 62
   120
370
     5
100
AcDbLine
 10
-467.5865749041033
 20
-489.4487252955735
 30
0.0
 11
-467.5865749041032
 21
625.551007160118
 31
0.0
  0
LINE
  5
2A4
330
1F
100
AcDbEntity
  8
0-0
  6
JWW_DASHED1
 62
   120
370
     5
100
AcDbLine
 10
-838.9496783381533
 20
673.5511264734656
 30
0.0
 11
-657.2235084659173
 21
673.5511264734656
 31
0.0
  0
LINE
  5
2A5
330
1F
100
AcDbEntity
  8
0-0
  6
JWW_DASHED1
 62
   120
370
     5
100
AcDbLine
 10
-842.5910901605262
 20
672.5511264735654
 30
0.0
 11
-653.5820966435444
 21
672.5511264735654
 31
0.0
  0
LINE
  5
2A6
330
1F
100
AcDbEntity
  8
0-0
  6
JWW_DASHED1
 62
   120
370
     5
100
AcDbLine
 10
-880.4652021508941
 20
659.5511264724657
 30
0.0
 11
-615.7079846531765
 21
659.5511264724657
 31
0.0
  0
LINE
  5
2A7
330
1F
100
AcDbEntity
  8
0-0
  6
JWW_DASHED1
 62
   120
370
     5
100
AcDbLine
 10
-882.8868002184704
 20
658.5511264725656
 30
0.0
 11
-613.2863865856002
 21
658.5511264725656
 31
0.0
  0
LINE
  5
2A8
330
1F
100
AcDbEntity
  8
0-0
  6
JWW_DASHED1
 62
   120
370
     5
100
AcDbLine
 10
-910.56764431079
 20
645.551126471466
 30
0.0
 11
-585.6055424932806
 21
645.551126471466
 31
0.0
  0
LINE
  5
2A9
330
1F
100
AcDbEntity
  8
0-0
  6
JWW_DASHED1
 62
   120
370
     5
100
AcDbLine
 10
-912.4614443004562
 20
644.5511264715658
 30
0.0
 11
-583.7117425036145
 21
644.5511264715658
 31
0.0
  0
LINE
  5
2AA
330
1F
100
AcDbEntity
  8
0-0
  6
JWW_DASHED1
 62
   120
370
     5
100
AcDbLine
 10
-943.573521768712
 20
631.5511264704662
 30
0.0
 11
-552.5996650353586
 21
631.5511264704662
 31
0.0
  0
LINE
  5
2AB
330
1F
100
AcDbEntity
  8
0-0
  6
JWW_DASHED1
 62
   120
370
     5
100
AcDbLine
 10
-947.1677516400719
 20
630.551126470566
 30
0.0
 11
-549.0054351639988
 21
630.551126470566
 31
0.0
  0
LINE
  5
2AC
330
1F
100
AcDbEntity
  8
0-0
  6
JWW_DASHED1
 62
   120
370
     5
100
AcDbLine
 10
-1034.586593402035
 20
617.5511264694665
 30
0.0
 11
-461.5865934020346
 21
617.5511264694665
 31
0.0
  0
LINE
  5
2AD
330
1F
100
AcDbEntity
  8
0-0
  6
JWW_DASHED1
 62
   120
370
     5
100
AcDbLine
 10
-1034.586593402035
 20
616.5511264695663
 30
0.0
 11
-461.5865934020346
 21
616.5511264695663
 31
0.0
  0
LINE
  5
2AE
330
1F
100
AcDbEntity
  8
0-0
  6
JWW_DASHED1
 62
   120
370
     5
100
AcDbLine
 10
-1034.586593402035
 20
603.5511264684667
 30
0.0
 11
-461.5865934020346
 21
603.5511264684667
 31
0.0
  0
LINE
  5
2AF
330
1F
100
AcDbEntity
  8
0-0
  6
JWW_DASHED1
 62
   120
370
     5
100
AcDbLine
 10
-1034.586593402035
 20
602.5511264685665
 30
0.0
 11
-461.5865934020346
 21
602.5511264685665
 31
0.0
  0
LINE
  5
2B0
330
1F
100
AcDbEntity
  8
0-0
  6
JWW_DASHED1
 62
   120
370
     5
100
AcDbLine
 10
-1034.586593402035
 20
589.5511264674666
 30
0.0
 11
-461.5865934020346
 21
589.5511264674666
 31
0.0
  0
LINE
  5
2B1
330
1F
100
AcDbEntity
  8
0-0
  6
JWW_DASHED1
 62
   120
370
     5
100
AcDbLine
 10
-1034.586593402035
 20
588.5511264675666
 30
0.0
 11
-461.5865934020346
 21
588.5511264675666
 31
0.0
  0
LINE
  5
2B2
330
1F
100
AcDbEntity
  8
0-0
  6
JWW_DASHED1
 62
   120
370
     5
100
AcDbLine
 10
-1034.586593402035
 20
575.551126466467
 30
0.0
 11
-461.5865934020346
 21
575.551126466467
 31
0.0
  0
LINE
  5
2B3
330
1F
100
AcDbEntity
  8
0-0
  6
JWW_DASHED1
 62
   120
370
     5
100
AcDbLine
 10
-1034.586593402035
 20
574.5511264665669
 30
0.0
 11
-461.5865934020346
 21
574.5511264665669
 31
0.0
  0
LINE
  5
2B4
330
1F
100
AcDbEntity
  8
0-0
  6
JWW_DASHED1
 62
   120
370
     5
100
AcDbLine
 10
-1034.586593402035
 20
561.5511264654673
 30
0.0
 11
-461.5865934020346
 21
561.5511264654673
 31
0.0
  0
LINE
  5
2B5
330
1F
100
AcDbEntity
  8
0-0
  6
JWW_DASHED1
 62
   120
370
     5
100
AcDbLine
 10
-1034.586593402035
 20
560.5511264655671
 30
0.0
 11
-461.5865934020346
 21
560.5511264655671
 31
0.0
  0
LINE
  5
2B6
330
1F
100
AcDbEntity
  8
0-0
  6
JWW_DASHED1
 62
   120
370
     5
100
AcDbLine
 10
-1034.586593402035
 20
547.5511264644674
 30
0.0
 11
-461.5865934020346
 21
547.5511264644674
 31
0.0
  0
LINE
  5
2B7
330
1F
100
AcDbEntity
  8
0-0
  6
JWW_DASHED1
 62
   120
370
     5
100
AcDbLine
 10
-1034.586593402035
 20
546.5511264645672
 30
0.0
 11
-461.5865934020346
 21
546.5511264645672
 31
0.0
  0
LINE
  5
2B8
330
1F
100
AcDbEntity
  8
0-0
  6
JWW_DASHED1
 62
   120
370
     5
100
AcDbLine
 10
-1034.586593402035
 20
533.5511264634677
 30
0.0
 11
-461.5865934020346
 21
533.5511264634677
 31
0.0
  0
LINE
  5
2B9
330
1F
100
AcDbEntity
  8
0-0
  6
JWW_DASHED1
 62
   120
370
     5
100
AcDbLine
 10
-1034.586593402035
 20
532.5511264635675
 30
0.0
 11
-461.5865934020346
 21
532.5511264635675
 31
0.0
  0
LINE
  5
2BA
330
1F
100
AcDbEntity
  8
0-0
  6
JWW_DASHED1
 62
   120
370
     5
100
AcDbLine
 10
-1034.586593402035
 20
519.5511264624679
 30
0.0
 11
-461.5865934020346
 21
519.5511264624679
 31
0.0
  0
LINE
  5
2BB
330
1F
100
AcDbEntity
  8
0-0
  6
JWW_DASHED1
 62
   120
370
     5
100
AcDbLine
 10
-1034.586593402035
 20
518.5511264625677
 30
0.0
 11
-461.5865934020346
 21
518.5511264625677
 31
0.0
  0
LINE
  5
2BC
330
1F
100
AcDbEntity
  8
0-0
  6
JWW_DASHED1
 62
   120
370
     5
100
AcDbLine
 10
-1034.586593402035
 20
505.5511264614681
 30
0.0
 11
-461.5865934020346
 21
505.5511264614681
 31
0.0
  0
LINE
  5
2BD
330
1F
100
AcDbEntity
  8
0-0
  6
JWW_DASHED1
 62
   120
370
     5
100
AcDbLine
 10
-1034.586593402035
 20
504.5511264615679
 30
0.0
 11
-461.5865934020346
 21
504.5511264615679
 31
0.0
  0
LINE
  5
2BE
330
1F
100
AcDbEntity
  8
0-0
  6
JWW_DASHED1
 62
   120
370
     5
100
AcDbLine
 10
-1034.586593402035
 20
491.5511264604683
 30
0.0
 11
-461.5865934020346
 21
491.5511264604683
 31
0.0
  0
LINE
  5
2BF
330
1F
100
AcDbEntity
  8
0-0
  6
JWW_DASHED1
 62
   120
370
     5
100
AcDbLine
 10
-1034.586593402035
 20
490.5511264605681
 30
0.0
 11
-461.5865934020346
 21
490.5511264605681
 31
0.0
  0
LINE
  5
2C0
330
1F
100
AcDbEntity
  8
0-0
  6
JWW_DASHED1
 62
   120
370
     5
100
AcDbLine
 10
-1034.586593402035
 20
477.5511264594685
 30
0.0
 11
-461.5865934020346
 21
477.5511264594685
 31
0.0
  0
LINE
  5
2C1
330
1F
100
AcDbEntity
  8
0-0
  6
JWW_DASHED1
 62
   120
370
     5
100
AcDbLine
 10
-1034.586593402035
 20
476.5511264595683
 30
0.0
 11
-461.5865934020346
 21
476.5511264595683
 31
0.0
  0
LINE
  5
2C2
330
1F
100
AcDbEntity
  8
0-0
  6
JWW_DASHED1
 62
   120
370
     5
100
AcDbLine
 10
-1034.586593402035
 20
463.5511264584687
 30
0.0
 11
-461.5865934020346
 21
463.5511264584687
 31
0.0
  0
LINE
  5
2C3
330
1F
100
AcDbEntity
  8
0-0
  6
JWW_DASHED1
 62
   120
370
     5
100
AcDbLine
 10
-1034.586593402035
 20
462.5511264585685
 30
0.0
 11
-461.5865934020346
 21
462.5511264585685
 31
0.0
  0
LINE
  5
2C4
330
1F
100
AcDbEntity
  8
0-0
  6
JWW_DASHED1
 62
   120
370
     5
100
AcDbLine
 10
-1034.586593402035
 20
449.551126457469
 30
0.0
 11
-461.5865934020346
 21
449.551126457469
 31
0.0
  0
LINE
  5
2C5
330
1F
100
AcDbEntity
  8
0-0
  6
JWW_DASHED1
 62
   120
370
     5
100
AcDbLine
 10
-1034.586593402035
 20
448.5511264575688
 30
0.0
 11
-461.5865934020346
 21
448.5511264575688
 31
0.0
  0
LINE
  5
2C6
330
1F
100
AcDbEntity
  8
0-0
  6
JWW_DASHED1
 62
   120
370
     5
100
AcDbLine
 10
-1034.586593402035
 20
435.5511264564691
 30
0.0
 11
-461.5865934020346
 21
435.5511264564691
 31
0.0
  0
LINE
  5
2C7
330
1F
100
AcDbEntity
  8
0-0
  6
JWW_DASHED1
 62
   120
370
     5
100
AcDbLine
 10
-1034.586593402035
 20
434.551126456569
 30
0.0
 11
-461.5865934020346
 21
434.551126456569
 31
0.0
  0
LINE
  5
2C8
330
1F
100
AcDbEntity
  8
0-0
  6
JWW_DASHED1
 62
   120
370
     5
100
AcDbLine
 10
-1034.586593402035
 20
421.5511264554693
 30
0.0
 11
-461.5865934020346
 21
421.5511264554693
 31
0.0
  0
LINE
  5
2C9
330
1F
100
AcDbEntity
  8
0-0
  6
JWW_DASHED1
 62
   120
370
     5
100
AcDbLine
 10
-1034.586593402035
 20
420.5511264555691
 30
0.0
 11
-461.5865934020346
 21
420.5511264555691
 31
0.0
  0
LINE
  5
2CA
330
1F
100
AcDbEntity
  8
0-0
  6
JWW_DASHED1
 62
   120
370
     5
100
AcDbLine
 10
-1034.586593402035
 20
407.5511264544696
 30
0.0
 11
-461.5865934020346
 21
407.5511264544696
 31
0.0
  0
LINE
  5
2CB
330
1F
100
AcDbEntity
  8
0-0
  6
JWW_DASHED1
 62
   120
370
     5
100
AcDbLine
 10
-1034.586593402035
 20
406.5511264545694
 30
0.0
 11
-461.5865934020346
 21
406.5511264545694
 31
0.0
  0
LINE
  5
2CC
330
1F
100
AcDbEntity
  8
0-0
  6
JWW_DASHED1
 62
   120
370
     5
100
AcDbLine
 10
-1034.586593402035
 20
393.5511264534698
 30
0.0
 11
-461.5865934020346
 21
393.5511264534698
 31
0.0
  0
LINE
  5
2CD
330
1F
100
AcDbEntity
  8
0-0
  6
JWW_DASHED1
 62
   120
370
     5
100
AcDbLine
 10
-1034.586593402035
 20
392.5511264535696
 30
0.0
 11
-461.5865934020346
 21
392.5511264535696
 31
0.0
  0
LINE
  5
2CE
330
1F
100
AcDbEntity
  8
0-0
  6
JWW_DASHED1
 62
   120
370
     5
100
AcDbLine
 10
-1034.586593402035
 20
379.55112645247
 30
0.0
 11
-461.5865934020346
 21
379.55112645247
 31
0.0
  0
LINE
  5
2CF
330
1F
100
AcDbEntity
  8
0-0
  6
JWW_DASHED1
 62
   120
370
     5
100
AcDbLine
 10
-1034.586593402035
 20
378.5511264525698
 30
0.0
 11
-461.5865934020346
 21
378.5511264525698
 31
0.0
  0
LINE
  5
2D0
330
1F
100
AcDbEntity
  8
0-0
  6
JWW_DASHED1
 62
   120
370
     5
100
AcDbLine
 10
-1034.586593402035
 20
365.5511264514702
 30
0.0
 11
-461.5865934020346
 21
365.5511264514702
 31
0.0
  0
LINE
  5
2D1
330
1F
100
AcDbEntity
  8
0-0
  6
JWW_DASHED1
 62
   120
370
     5
100
AcDbLine
 10
-1034.586593402035
 20
364.55112645157
 30
0.0
 11
-461.5865934020346
 21
364.55112645157
 31
0.0
  0
LINE
  5
2D2
330
1F
100
AcDbEntity
  8
0-0
  6
JWW_DASHED1
 62
   120
370
     5
100
AcDbLine
 10
-1034.586593402035
 20
351.5511264504704
 30
0.0
 11
-461.5865934020346
 21
351.5511264504704
 31
0.0
  0
LINE
  5
2D3
330
1F
100
AcDbEntity
  8
0-0
  6
JWW_DASHED1
 62
   120
370
     5
100
AcDbLine
 10
-1034.586593402035
 20
350.5511264505702
 30
0.0
 11
-461.5865934020346
 21
350.5511264505702
 31
0.0
  0
LINE
  5
2D4
330
1F
100
AcDbEntity
  8
0-0
  6
JWW_DASHED1
 62
   120
370
     5
100
AcDbLine
 10
-1034.586593402035
 20
337.5511264494706
 30
0.0
 11
-461.5865934020346
 21
337.5511264494706
 31
0.0
  0
LINE
  5
2D5
330
1F
100
AcDbEntity
  8
0-0
  6
JWW_DASHED1
 62
   120
370
     5
100
AcDbLine
 10
-1034.586593402035
 20
336.5511264495705
 30
0.0
 11
-461.5865934020346
 21
336.5511264495705
 31
0.0
  0
LINE
  5
2D6
330
1F
100
AcDbEntity
  8
0-0
  6
JWW_DASHED1
 62
   120
370
     5
100
AcDbLine
 10
-1034.586593402035
 20
323.5511264484708
 30
0.0
 11
-461.5865934020346
 21
323.5511264484708
 31
0.0
  0
LINE
  5
2D7
330
1F
100
AcDbEntity
  8
0-0
  6
JWW_DASHED1
 62
   120
370
     5
100
AcDbLine
 10
-1034.586593402035
 20
322.5511264485706
 30
0.0
 11
-461.5865934020346
 21
322.5511264485706
 31
0.0
  0
LINE
  5
2D8
330
1F
100
AcDbEntity
  8
0-0
  6
JWW_DASHED1
 62
   120
370
     5
100
AcDbLine
 10
-1034.586593402035
 20
309.551126447471
 30
0.0
 11
-461.5865934020346
 21
309.551126447471
 31
0.0
  0
LINE
  5
2D9
330
1F
100
AcDbEntity
  8
0-0
  6
JWW_DASHED1
 62
   120
370
     5
100
AcDbLine
 10
-1034.586593402035
 20
308.5511264475708
 30
0.0
 11
-461.5865934020346
 21
308.5511264475708
 31
0.0
  0
LINE
  5
2DA
330
1F
100
AcDbEntity
  8
0-0
  6
JWW_DASHED1
 62
   120
370
     5
100
AcDbLine
 10
-1034.586593402035
 20
295.5511264464712
 30
0.0
 11
-461.5865934020346
 21
295.5511264464712
 31
0.0
  0
LINE
  5
2DB
330
1F
100
AcDbEntity
  8
0-0
  6
JWW_DASHED1
 62
   120
370
     5
100
AcDbLine
 10
-1034.586593402035
 20
294.5511264465711
 30
0.0
 11
-461.5865934020346
 21
294.5511264465711
 31
0.0
  0
LINE
  5
2DC
330
1F
100
AcDbEntity
  8
0-0
  6
JWW_DASHED1
 62
   120
370
     5
100
AcDbLine
 10
-1034.586593402035
 20
281.5511264454715
 30
0.0
 11
-461.5865934020346
 21
281.5511264454715
 31
0.0
  0
LINE
  5
2DD
330
1F
100
AcDbEntity
  8
0-0
  6
JWW_DASHED1
 62
   120
370
     5
100
AcDbLine
 10
-1034.586593402035
 20
280.5511264455713
 30
0.0
 11
-461.5865934020346
 21
280.5511264455713
 31
0.0
  0
LINE
  5
2DE
330
1F
100
AcDbEntity
  8
0-0
  6
JWW_DASHED1
 62
   120
370
     5
100
AcDbLine
 10
-1034.586593402035
 20
267.5511264444717
 30
0.0
 11
-461.5865934020346
 21
267.5511264444717
 31
0.0
  0
LINE
  5
2DF
330
1F
100
AcDbEntity
  8
0-0
  6
JWW_DASHED1
 62
   120
370
     5
100
AcDbLine
 10
-1034.586593402035
 20
266.5511264445715
 30
0.0
 11
-461.5865934020346
 21
266.5511264445715
 31
0.0
  0
LINE
  5
2E0
330
1F
100
AcDbEntity
  8
0-0
  6
JWW_DASHED1
 62
   120
370
     5
100
AcDbLine
 10
-1034.586593402035
 20
253.5511264434719
 30
0.0
 11
-461.5865934020346
 21
253.5511264434719
 31
0.0
  0
LINE
  5
2E1
330
1F
100
AcDbEntity
  8
0-0
  6
JWW_DASHED1
 62
   120
370
     5
100
AcDbLine
 10
-1034.586593402035
 20
252.5511264435717
 30
0.0
 11
-461.5865934020346
 21
252.5511264435717
 31
0.0
  0
LINE
  5
2E2
330
1F
100
AcDbEntity
  8
0-0
  6
JWW_DASHED1
 62
   120
370
     5
100
AcDbLine
 10
-1034.586593402035
 20
239.5511264424721
 30
0.0
 11
-461.5865934020346
 21
239.5511264424721
 31
0.0
  0
LINE
  5
2E3
330
1F
100
AcDbEntity
  8
0-0
  6
JWW_DASHED1
 62
   120
370
     5
100
AcDbLine
 10
-1034.586593402035
 20
238.5511264425719
 30
0.0
 11
-461.5865934020346
 21
238.5511264425719
 31
0.0
  0
LINE
  5
2E4
330
1F
100
AcDbEntity
  8
0-0
  6
JWW_DASHED1
 62
   120
370
     5
100
AcDbLine
 10
-1034.586593402035
 20
225.5511264414723
 30
0.0
 11
-461.5865934020346
 21
225.5511264414723
 31
0.0
  0
LINE
  5
2E5
330
1F
100
AcDbEntity
  8
0-0
  6
JWW_DASHED1
 62
   120
370
     5
100
AcDbLine
 10
-1034.586593402035
 20
224.5511264415721
 30
0.0
 11
-461.5865934020346
 21
224.5511264415721
 31
0.0
  0
LINE
  5
2E6
330
1F
100
AcDbEntity
  8
0-0
  6
JWW_DASHED1
 62
   120
370
     5
100
AcDbLine
 10
-1034.586593402035
 20
211.5511264404725
 30
0.0
 11
-461.5865934020346
 21
211.5511264404725
 31
0.0
  0
LINE
  5
2E7
330
1F
100
AcDbEntity
  8
0-0
  6
JWW_DASHED1
 62
   120
370
     5
100
AcDbLine
 10
-1034.586593402035
 20
210.5511264405723
 30
0.0
 11
-461.5865934020346
 21
210.5511264405723
 31
0.0
  0
LINE
  5
2E8
330
1F
100
AcDbEntity
  8
0-0
  6
JWW_DASHED1
 62
   120
370
     5
100
AcDbLine
 10
-1034.586593402035
 20
197.5511264394727
 30
0.0
 11
-461.5865934020346
 21
197.5511264394727
 31
0.0
  0
LINE
  5
2E9
330
1F
100
AcDbEntity
  8
0-0
  6
JWW_DASHED1
 62
   120
370
     5
100
AcDbLine
 10
-1034.586593402035
 20
196.5511264395725
 30
0.0
 11
-461.5865934020346
 21
196.5511264395725
 31
0.0
  0
LINE
  5
2EA
330
1F
100
AcDbEntity
  8
0-0
  6
JWW_DASHED1
 62
   120
370
     5
100
AcDbLine
 10
-1034.586593402035
 20
183.5511264384729
 30
0.0
 11
-461.5865934020346
 21
183.5511264384729
 31
0.0
  0
LINE
  5
2EB
330
1F
100
AcDbEntity
  8
0-0
  6
JWW_DASHED1
 62
   120
370
     5
100
AcDbLine
 10
-1034.586593402035
 20
182.5511264385727
 30
0.0
 11
-461.5865934020346
 21
182.5511264385727
 31
0.0
  0
LINE
  5
2EC
330
1F
100
AcDbEntity
  8
0-0
  6
JWW_DASHED1
 62
   120
370
     5
100
AcDbLine
 10
-1034.586593402035
 20
169.5511264374731
 30
0.0
 11
-461.5865934020346
 21
169.5511264374731
 31
0.0
  0
LINE
  5
2ED
330
1F
100
AcDbEntity
  8
0-0
  6
JWW_DASHED1
 62
   120
370
     5
100
AcDbLine
 10
-1034.586593402035
 20
168.5511264375729
 30
0.0
 11
-461.5865934020346
 21
168.5511264375729
 31
0.0
  0
LINE
  5
2EE
330
1F
100
AcDbEntity
  8
0-0
  6
JWW_DASHED1
 62
   120
370
     5
100
AcDbLine
 10
-1034.586593402035
 20
155.5511264364733
 30
0.0
 11
-461.5865934020346
 21
155.5511264364733
 31
0.0
  0
LINE
  5
2EF
330
1F
100
AcDbEntity
  8
0-0
  6
JWW_DASHED1
 62
   120
370
     5
100
AcDbLine
 10
-1034.586593402035
 20
154.5511264365732
 30
0.0
 11
-461.5865934020346
 21
154.5511264365732
 31
0.0
  0
LINE
  5
2F0
330
1F
100
AcDbEntity
  8
0-0
  6
JWW_DASHED1
 62
   120
370
     5
100
AcDbLine
 10
-1034.586593402035
 20
141.5511264354735
 30
0.0
 11
-461.5865934020346
 21
141.5511264354735
 31
0.0
  0
LINE
  5
2F1
330
1F
100
AcDbEntity
  8
0-0
  6
JWW_DASHED1
 62
   120
370
     5
100
AcDbLine
 10
-1034.586593402035
 20
140.5511264355734
 30
0.0
 11
-461.5865934020346
 21
140.5511264355734
 31
0.0
  0
LINE
  5
2F2
330
1F
100
AcDbEntity
  8
0-0
  6
JWW_DASHED1
 62
   120
370
     5
100
AcDbLine
 10
-1034.586593402035
 20
127.5511264344738
 30
0.0
 11
-461.5865934020346
 21
127.5511264344738
 31
0.0
  0
LINE
  5
2F3
330
1F
100
AcDbEntity
  8
0-0
  6
JWW_DASHED1
 62
   120
370
     5
100
AcDbLine
 10
-1034.586593402035
 20
126.5511264345736
 30
0.0
 11
-461.5865934020346
 21
126.5511264345736
 31
0.0
  0
LINE
  5
2F4
330
1F
100
AcDbEntity
  8
0-0
  6
JWW_DASHED1
 62
   120
370
     5
100
AcDbLine
 10
-1034.586593402035
 20
113.551126433474
 30
0.0
 11
-461.5865934020346
 21
113.551126433474
 31
0.0
  0
LINE
  5
2F5
330
1F
100
AcDbEntity
  8
0-0
  6
JWW_DASHED1
 62
   120
370
     5
100
AcDbLine
 10
-1034.586593402035
 20
112.5511264335738
 30
0.0
 11
-461.5865934020346
 21
112.5511264335738
 31
0.0
  0
LINE
  5
2F6
330
1F
100
AcDbEntity
  8
0-0
  6
JWW_DASHED1
 62
   120
370
     5
100
AcDbLine
 10
-1034.586593402035
 20
99.55112643247418
 30
0.0
 11
-461.5865934020346
 21
99.55112643247418
 31
0.0
  0
LINE
  5
2F7
330
1F
100
AcDbEntity
  8
0-0
  6
JWW_DASHED1
 62
   120
370
     5
100
AcDbLine
 10
-1034.586593402035
 20
98.551126432574
 30
0.0
 11
-461.5865934020346
 21
98.551126432574
 31
0.0
  0
LINE
  5
2F8
330
1F
100
AcDbEntity
  8
0-0
  6
JWW_DASHED1
 62
   120
370
     5
100
AcDbLine
 10
-1034.586593402035
 20
85.55112643147439
 30
0.0
 11
-461.5865934020346
 21
85.55112643147439
 31
0.0
  0
LINE
  5
2F9
330
1F
100
AcDbEntity
  8
0-0
  6
JWW_DASHED1
 62
   120
370
     5
100
AcDbLine
 10
-1034.586593402035
 20
84.5511264315742
 30
0.0
 11
-461.5865934020346
 21
84.5511264315742
 31
0.0
  0
LINE
  5
2FA
330
1F
100
AcDbEntity
  8
0-0
  6
JWW_DASHED1
 62
   120
370
     5
100
AcDbLine
 10
-1034.586593402035
 20
71.5511264304746
 30
0.0
 11
-461.5865934020346
 21
71.5511264304746
 31
0.0
  0
LINE
  5
2FB
330
1F
100
AcDbEntity
  8
0-0
  6
JWW_DASHED1
 62
   120
370
     5
100
AcDbLine
 10
-1034.586593402035
 20
70.55112643057441
 30
0.0
 11
-461.5865934020346
 21
70.55112643057441
 31
0.0
  0
LINE
  5
2FC
330
1F
100
AcDbEntity
  8
0-0
  6
JWW_DASHED1
 62
   120
370
     5
100
AcDbLine
 10
-1034.586593402035
 20
57.55112642947481
 30
0.0
 11
-461.5865934020346
 21
57.55112642947481
 31
0.0
  0
LINE
  5
2FD
330
1F
100
AcDbEntity
  8
0-0
  6
JWW_DASHED1
 62
   120
370
     5
100
AcDbLine
 10
-1034.586593402035
 20
56.55112642957462
 30
0.0
 11
-461.5865934020346
 21
56.55112642957462
 31
0.0
  0
LINE
  5
2FE
330
1F
100
AcDbEntity
  8
0-0
  6
JWW_DASHED1
 62
   120
370
     5
100
AcDbLine
 10
-1034.586593402035
 20
43.55112642847502
 30
0.0
 11
-461.5865934020346
 21
43.55112642847502
 31
0.0
  0
LINE
  5
2FF
330
1F
100
AcDbEntity
  8
0-0
  6
JWW_DASHED1
 62
   120
370
     5
100
AcDbLine
 10
-1034.586593402035
 20
42.55112642857483
 30
0.0
 11
-461.5865934020346
 21
42.55112642857483
 31
0.0
  0
LINE
  5
300
330
1F
100
AcDbEntity
  8
0-0
  6
JWW_DASHED1
 62
   120
370
     5
100
AcDbLine
 10
-1034.586593402035
 20
29.55112642747523
 30
0.0
 11
-461.5865934020346
 21
29.55112642747523
 31
0.0
  0
LINE
  5
301
330
1F
100
AcDbEntity
  8
0-0
  6
JWW_DASHED1
 62
   120
370
     5
100
AcDbLine
 10
-1034.586593402035
 20
28.55112642757504
 30
0.0
 11
-461.5865934020346
 21
28.55112642757504
 31
0.0
  0
LINE
  5
302
330
1F
100
AcDbEntity
  8
0-0
  6
JWW_DASHED1
 62
   120
370
     5
100
AcDbLine
 10
-1034.586593402035
 20
15.55112642647543
 30
0.0
 11
-461.5865934020346
 21
15.55112642647543
 31
0.0
  0
LINE
  5
303
330
1F
100
AcDbEntity
  8
0-0
  6
JWW_DASHED1
 62
   120
370
     5
100
AcDbLine
 10
-1034.586593402035
 20
14.55112642657525
 30
0.0
 11
-461.5865934020346
 21
14.55112642657525
 31
0.0
  0
LINE
  5
304
330
1F
100
AcDbEntity
  8
0-0
  6
JWW_DASHED1
 62
   120
370
     5
100
AcDbLine
 10
-1034.586593402035
 20
1.551126425475644
 30
0.0
 11
-461.5865934020346
 21
1.551126425475644
 31
0.0
  0
LINE
  5
305
330
1F
100
AcDbEntity
  8
0-0
  6
JWW_DASHED1
 62
   120
370
     5
100
AcDbLine
 10
-1034.586593402035
 20
0.5511264255754611
 30
0.0
 11
-461.5865934020346
 21
0.5511264255754611
 31
0.0
  0
LINE
  5
306
330
1F
100
AcDbEntity
  8
0-0
  6
JWW_DASHED1
 62
   120
370
     5
100
AcDbLine
 10
-1034.586593402035
 20
-12.44887357552415
 30
0.0
 11
-461.5865934020346
 21
-12.44887357552415
 31
0.0
  0
LINE
  5
307
330
1F
100
AcDbEntity
  8
0-0
  6
JWW_DASHED1
 62
   120
370
     5
100
AcDbLine
 10
-1034.586593402035
 20
-13.44887357542433
 30
0.0
 11
-461.5865934020346
 21
-13.44887357542433
 31
0.0
  0
LINE
  5
308
330
1F
100
AcDbEntity
  8
0-0
  6
JWW_DASHED1
 62
   120
370
     5
100
AcDbLine
 10
-1034.586593402035
 20
-26.44887357652394
 30
0.0
 11
-461.5865934020346
 21
-26.44887357652394
 31
0.0
  0
LINE
  5
309
330
1F
100
AcDbEntity
  8
0-0
  6
JWW_DASHED1
 62
   120
370
     5
100
AcDbLine
 10
-1034.586593402035
 20
-27.44887357642412
 30
0.0
 11
-461.5865934020346
 21
-27.44887357642412
 31
0.0
  0
LINE
  5
30A
330
1F
100
AcDbEntity
  8
0-0
  6
JWW_DASHED1
 62
   120
370
     5
100
AcDbLine
 10
-1034.586593402035
 20
-40.44887357752373
 30
0.0
 11
-461.5865934020346
 21
-40.44887357752373
 31
0.0
  0
LINE
  5
30B
330
1F
100
AcDbEntity
  8
0-0
  6
JWW_DASHED1
 62
   120
370
     5
100
AcDbLine
 10
-1034.586593402035
 20
-41.44887357742391
 30
0.0
 11
-461.5865934020346
 21
-41.44887357742391
 31
0.0
  0
LINE
  5
30C
330
1F
100
AcDbEntity
  8
0-0
  6
JWW_DASHED1
 62
   120
370
     5
100
AcDbLine
 10
-1034.586593402035
 20
-54.44887357852352
 30
0.0
 11
-461.5865934020346
 21
-54.44887357852352
 31
0.0
  0
LINE
  5
30D
330
1F
100
AcDbEntity
  8
0-0
  6
JWW_DASHED1
 62
   120
370
     5
100
AcDbLine
 10
-1034.586593402035
 20
-55.4488735784237
 30
0.0
 11
-461.5865934020346
 21
-55.4488735784237
 31
0.0
  0
LINE
  5
30E
330
1F
100
AcDbEntity
  8
0-0
  6
JWW_DASHED1
 62
   120
370
     5
100
AcDbLine
 10
-1034.586593402035
 20
-68.44887357952331
 30
0.0
 11
-461.5865934020346
 21
-68.44887357952331
 31
0.0
  0
LINE
  5
30F
330
1F
100
AcDbEntity
  8
0-0
  6
JWW_DASHED1
 62
   120
370
     5
100
AcDbLine
 10
-1034.586593402035
 20
-69.44887357942349
 30
0.0
 11
-461.5865934020346
 21
-69.44887357942349
 31
0.0
  0
LINE
  5
310
330
1F
100
AcDbEntity
  8
0-0
  6
JWW_DASHED1
 62
   120
370
     5
100
AcDbLine
 10
-1034.586593402035
 20
-82.4488735805231
 30
0.0
 11
-461.5865934020346
 21
-82.4488735805231
 31
0.0
  0
LINE
  5
311
330
1F
100
AcDbEntity
  8
0-0
  6
JWW_DASHED1
 62
   120
370
     5
100
AcDbLine
 10
-1034.586593402035
 20
-83.44887358042328
 30
0.0
 11
-461.5865934020346
 21
-83.44887358042328
 31
0.0
  0
LINE
  5
312
330
1F
100
AcDbEntity
  8
0-0
  6
JWW_DASHED1
 62
   120
370
     5
100
AcDbLine
 10
-1034.586593402035
 20
-96.44887358152289
 30
0.0
 11
-461.5865934020346
 21
-96.44887358152289
 31
0.0
  0
LINE
  5
313
330
1F
100
AcDbEntity
  8
0-0
  6
JWW_DASHED1
 62
   120
370
     5
100
AcDbLine
 10
-1034.586593402035
 20
-97.44887358142307
 30
0.0
 11
-461.5865934020346
 21
-97.44887358142307
 31
0.0
  0
LINE
  5
314
330
1F
100
AcDbEntity
  8
0-0
  6
JWW_DASHED1
 62
   120
370
     5
100
AcDbLine
 10
-1034.586593402035
 20
-110.4488735825227
 30
0.0
 11
-461.5865934020346
 21
-110.4488735825227
 31
0.0
  0
LINE
  5
315
330
1F
100
AcDbEntity
  8
0-0
  6
JWW_DASHED1
 62
   120
370
     5
100
AcDbLine
 10
-1034.586593402035
 20
-111.4488735824229
 30
0.0
 11
-461.5865934020346
 21
-111.4488735824229
 31
0.0
  0
LINE
  5
316
330
1F
100
AcDbEntity
  8
0-0
  6
JWW_DASHED1
 62
   120
370
     5
100
AcDbLine
 10
-1034.586593402035
 20
-124.4488735835225
 30
0.0
 11
-461.5865934020346
 21
-124.4488735835225
 31
0.0
  0
LINE
  5
317
330
1F
100
AcDbEntity
  8
0-0
  6
JWW_DASHED1
 62
   120
370
     5
100
AcDbLine
 10
-1034.586593402035
 20
-125.4488735834227
 30
0.0
 11
-461.5865934020346
 21
-125.4488735834227
 31
0.0
  0
LINE
  5
318
330
1F
100
AcDbEntity
  8
0-0
  6
JWW_DASHED1
 62
   120
370
     5
100
AcDbLine
 10
-1034.586593402035
 20
-138.4488735845223
 30
0.0
 11
-461.5865934020346
 21
-138.4488735845223
 31
0.0
  0
LINE
  5
319
330
1F
100
AcDbEntity
  8
0-0
  6
JWW_DASHED1
 62
   120
370
     5
100
AcDbLine
 10
-1034.586593402035
 20
-139.4488735844224
 30
0.0
 11
-461.5865934020346
 21
-139.4488735844224
 31
0.0
  0
LINE
  5
31A
330
1F
100
AcDbEntity
  8
0-0
  6
JWW_DASHED1
 62
   120
370
     5
100
AcDbLine
 10
-1034.586593402035
 20
-152.4488735855221
 30
0.0
 11
-461.5865934020346
 21
-152.4488735855221
 31
0.0
  0
LINE
  5
31B
330
1F
100
AcDbEntity
  8
0-0
  6
JWW_DASHED1
 62
   120
370
     5
100
AcDbLine
 10
-1034.586593402035
 20
-153.4488735854222
 30
0.0
 11
-461.5865934020346
 21
-153.4488735854222
 31
0.0
  0
LINE
  5
31C
330
1F
100
AcDbEntity
  8
0-0
  6
JWW_DASHED1
 62
   120
370
     5
100
AcDbLine
 10
-1034.586593402035
 20
-166.4488735865218
 30
0.0
 11
-461.5865934020346
 21
-166.4488735865218
 31
0.0
  0
LINE
  5
31D
330
1F
100
AcDbEntity
  8
0-0
  6
JWW_DASHED1
 62
   120
370
     5
100
AcDbLine
 10
-1034.586593402035
 20
-167.448873586422
 30
0.0
 11
-461.5865934020346
 21
-167.448873586422
 31
0.0
  0
LINE
  5
31E
330
1F
100
AcDbEntity
  8
0-0
  6
JWW_DASHED1
 62
   120
370
     5
100
AcDbLine
 10
-1034.586593402035
 20
-180.4488735875216
 30
0.0
 11
-461.5865934020346
 21
-180.4488735875216
 31
0.0
  0
LINE
  5
31F
330
1F
100
AcDbEntity
  8
0-0
  6
JWW_DASHED1
 62
   120
370
     5
100
AcDbLine
 10
-1034.586593402035
 20
-181.4488735874218
 30
0.0
 11
-461.5865934020346
 21
-181.4488735874218
 31
0.0
  0
LINE
  5
320
330
1F
100
AcDbEntity
  8
0-0
  6
JWW_DASHED1
 62
   120
370
     5
100
AcDbLine
 10
-1034.586593402035
 20
-194.4488735885214
 30
0.0
 11
-461.5865934020346
 21
-194.4488735885214
 31
0.0
  0
LINE
  5
321
330
1F
100
AcDbEntity
  8
0-0
  6
JWW_DASHED1
 62
   120
370
     5
100
AcDbLine
 10
-1034.586593402035
 20
-195.4488735884216
 30
0.0
 11
-461.5865934020346
 21
-195.4488735884216
 31
0.0
  0
LINE
  5
322
330
1F
100
AcDbEntity
  8
0-0
  6
JWW_DASHED1
 62
   120
370
     5
100
AcDbLine
 10
-1034.586593402035
 20
-208.4488735895212
 30
0.0
 11
-461.5865934020346
 21
-208.4488735895212
 31
0.0
  0
LINE
  5
323
330
1F
100
AcDbEntity
  8
0-0
  6
JWW_DASHED1
 62
   120
370
     5
100
AcDbLine
 10
-1034.586593402035
 20
-209.4488735894214
 30
0.0
 11
-461.5865934020346
 21
-209.4488735894214
 31
0.0
  0
LINE
  5
324
330
1F
100
AcDbEntity
  8
0-0
  6
JWW_DASHED1
 62
   120
370
     5
100
AcDbLine
 10
-1034.586593402035
 20
-222.448873590521
 30
0.0
 11
-461.5865934020346
 21
-222.448873590521
 31
0.0
  0
LINE
  5
325
330
1F
100
AcDbEntity
  8
0-0
  6
JWW_DASHED1
 62
   120
370
     5
100
AcDbLine
 10
-1034.586593402035
 20
-223.4488735904212
 30
0.0
 11
-461.5865934020346
 21
-223.4488735904212
 31
0.0
  0
LINE
  5
326
330
1F
100
AcDbEntity
  8
0-0
  6
JWW_DASHED1
 62
   120
370
     5
100
AcDbLine
 10
-1034.586593402035
 20
-236.4488735915208
 30
0.0
 11
-461.5865934020346
 21
-236.4488735915208
 31
0.0
  0
LINE
  5
327
330
1F
100
AcDbEntity
  8
0-0
  6
JWW_DASHED1
 62
   120
370
     5
100
AcDbLine
 10
-1034.586593402035
 20
-237.448873591421
 30
0.0
 11
-461.5865934020346
 21
-237.448873591421
 31
0.0
  0
LINE
  5
328
330
1F
100
AcDbEntity
  8
0-0
  6
JWW_DASHED1
 62
   120
370
     5
100
AcDbLine
 10
-1034.586593402035
 20
-250.4488735925206
 30
0.0
 11
-461.5865934020346
 21
-250.4488735925206
 31
0.0
  0
LINE
  5
329
330
1F
100
AcDbEntity
  8
0-0
  6
JWW_DASHED1
 62
   120
370
     5
100
AcDbLine
 10
-1034.586593402035
 20
-251.4488735924208
 30
0.0
 11
-461.5865934020346
 21
-251.4488735924208
 31
0.0
  0
LINE
  5
32A
330
1F
100
AcDbEntity
  8
0-0
  6
JWW_DASHED1
 62
   120
370
     5
100
AcDbLine
 10
-1034.586593402035
 20
-264.4488735935204
 30
0.0
 11
-461.5865934020346
 21
-264.4488735935204
 31
0.0
  0
LINE
  5
32B
330
1F
100
AcDbEntity
  8
0-0
  6
JWW_DASHED1
 62
   120
370
     5
100
AcDbLine
 10
-1034.586593402035
 20
-265.4488735934206
 30
0.0
 11
-461.5865934020346
 21
-265.4488735934206
 31
0.0
  0
LINE
  5
32C
330
1F
100
AcDbEntity
  8
0-0
  6
JWW_DASHED1
 62
   120
370
     5
100
AcDbLine
 10
-1034.586593402035
 20
-278.4488735945201
 30
0.0
 11
-461.5865934020346
 21
-278.4488735945201
 31
0.0
  0
LINE
  5
32D
330
1F
100
AcDbEntity
  8
0-0
  6
JWW_DASHED1
 62
   120
370
     5
100
AcDbLine
 10
-1034.586593402035
 20
-279.4488735944203
 30
0.0
 11
-461.5865934020346
 21
-279.4488735944203
 31
0.0
  0
LINE
  5
32E
330
1F
100
AcDbEntity
  8
0-0
  6
JWW_DASHED1
 62
   120
370
     5
100
AcDbLine
 10
-1034.586593402035
 20
-292.44887359552
 30
0.0
 11
-461.5865934020346
 21
-292.44887359552
 31
0.0
  0
LINE
  5
32F
330
1F
100
AcDbEntity
  8
0-0
  6
JWW_DASHED1
 62
   120
370
     5
100
AcDbLine
 10
-1034.586593402035
 20
-293.4488735954201
 30
0.0
 11
-461.5865934020346
 21
-293.4488735954201
 31
0.0
  0
LINE
  5
330
330
1F
100
AcDbEntity
  8
0-0
  6
JWW_DASHED1
 62
   120
370
     5
100
AcDbLine
 10
-1034.586593402035
 20
-306.4488735965198
 30
0.0
 11
-461.5865934020346
 21
-306.4488735965198
 31
0.0
  0
LINE
  5
331
330
1F
100
AcDbEntity
  8
0-0
  6
JWW_DASHED1
 62
   120
370
     5
100
AcDbLine
 10
-1034.586593402035
 20
-307.44887359642
 30
0.0
 11
-461.5865934020346
 21
-307.44887359642
 31
0.0
  0
LINE
  5
332
330
1F
100
AcDbEntity
  8
0-0
  6
JWW_DASHED1
 62
   120
370
     5
100
AcDbLine
 10
-1034.586593402035
 20
-320.4488735975195
 30
0.0
 11
-461.5865934020346
 21
-320.4488735975195
 31
0.0
  0
LINE
  5
333
330
1F
100
AcDbEntity
  8
0-0
  6
JWW_DASHED1
 62
   120
370
     5
100
AcDbLine
 10
-1034.586593402035
 20
-321.4488735974197
 30
0.0
 11
-461.5865934020346
 21
-321.4488735974197
 31
0.0
  0
LINE
  5
334
330
1F
100
AcDbEntity
  8
0-0
  6
JWW_DASHED1
 62
   120
370
     5
100
AcDbLine
 10
-1034.586593402035
 20
-334.4488735985193
 30
0.0
 11
-461.5865934020346
 21
-334.4488735985193
 31
0.0
  0
LINE
  5
335
330
1F
100
AcDbEntity
  8
0-0
  6
JWW_DASHED1
 62
   120
370
     5
100
AcDbLine
 10
-1034.586593402035
 20
-335.4488735984195
 30
0.0
 11
-461.5865934020346
 21
-335.4488735984195
 31
0.0
  0
LINE
  5
336
330
1F
100
AcDbEntity
  8
0-0
  6
JWW_DASHED1
 62
   120
370
     5
100
AcDbLine
 10
-1034.586593402035
 20
-348.4488735995191
 30
0.0
 11
-461.5865934020346
 21
-348.4488735995191
 31
0.0
  0
LINE
  5
337
330
1F
100
AcDbEntity
  8
0-0
  6
JWW_DASHED1
 62
   120
370
     5
100
AcDbLine
 10
-1034.586593402035
 20
-349.4488735994193
 30
0.0
 11
-461.5865934020346
 21
-349.4488735994193
 31
0.0
  0
LINE
  5
338
330
1F
100
AcDbEntity
  8
0-0
  6
JWW_DASHED1
 62
   120
370
     5
100
AcDbLine
 10
-1034.586593402035
 20
-362.4488736005189
 30
0.0
 11
-461.5865934020346
 21
-362.4488736005189
 31
0.0
  0
LINE
  5
339
330
1F
100
AcDbEntity
  8
0-0
  6
JWW_DASHED1
 62
   120
370
     5
100
AcDbLine
 10
-1034.586593402035
 20
-363.4488736004191
 30
0.0
 11
-461.5865934020346
 21
-363.4488736004191
 31
0.0
  0
LINE
  5
33A
330
1F
100
AcDbEntity
  8
0-0
  6
JWW_DASHED1
 62
   120
370
     5
100
AcDbLine
 10
-1034.586593402035
 20
-376.4488736015187
 30
0.0
 11
-461.5865934020346
 21
-376.4488736015187
 31
0.0
  0
LINE
  5
33B
330
1F
100
AcDbEntity
  8
0-0
  6
JWW_DASHED1
 62
   120
370
     5
100
AcDbLine
 10
-1034.586593402035
 20
-377.4488736014189
 30
0.0
 11
-461.5865934020346
 21
-377.4488736014189
 31
0.0
  0
LINE
  5
33C
330
1F
100
AcDbEntity
  8
0-0
  6
JWW_DASHED1
 62
   120
370
     5
100
AcDbLine
 10
-1034.586593402035
 20
-390.4488736025185
 30
0.0
 11
-461.5865934020346
 21
-390.4488736025185
 31
0.0
  0
LINE
  5
33D
330
1F
100
AcDbEntity
  8
0-0
  6
JWW_DASHED1
 62
   120
370
     5
100
AcDbLine
 10
-1034.586593402035
 20
-391.4488736024186
 30
0.0
 11
-461.5865934020346
 21
-391.4488736024186
 31
0.0
  0
LINE
  5
33E
330
1F
100
AcDbEntity
  8
0-0
  6
JWW_DASHED1
 62
   120
370
     5
100
AcDbLine
 10
-1034.586593402035
 20
-404.4488736035183
 30
0.0
 11
-461.5865934020346
 21
-404.4488736035183
 31
0.0
  0
LINE
  5
33F
330
1F
100
AcDbEntity
  8
0-0
  6
JWW_DASHED1
 62
   120
370
     5
100
AcDbLine
 10
-1034.586593402035
 20
-405.4488736034185
 30
0.0
 11
-461.5865934020346
 21
-405.4488736034185
 31
0.0
  0
LINE
  5
340
330
1F
100
AcDbEntity
  8
0-0
  6
JWW_DASHED1
 62
   120
370
     5
100
AcDbLine
 10
-1034.586593402035
 20
-418.4488736045181
 30
0.0
 11
-461.5865934020346
 21
-418.4488736045181
 31
0.0
  0
LINE
  5
341
330
1F
100
AcDbEntity
  8
0-0
  6
JWW_DASHED1
 62
   120
370
     5
100
AcDbLine
 10
-1034.586593402035
 20
-419.4488736044183
 30
0.0
 11
-461.5865934020346
 21
-419.4488736044183
 31
0.0
  0
LINE
  5
342
330
1F
100
AcDbEntity
  8
0-0
  6
JWW_DASHED1
 62
   120
370
     5
100
AcDbLine
 10
-1034.586593402035
 20
-432.4488736055179
 30
0.0
 11
-461.5865934020346
 21
-432.4488736055179
 31
0.0
  0
LINE
  5
343
330
1F
100
AcDbEntity
  8
0-0
  6
JWW_DASHED1
 62
   120
370
     5
100
AcDbLine
 10
-1034.586593402035
 20
-433.448873605418
 30
0.0
 11
-461.5865934020346
 21
-433.448873605418
 31
0.0
  0
LINE
  5
344
330
1F
100
AcDbEntity
  8
0-0
  6
JWW_DASHED1
 62
   120
370
     5
100
AcDbLine
 10
-1034.586593402035
 20
-446.4488736065176
 30
0.0
 11
-461.5865934020346
 21
-446.4488736065176
 31
0.0
  0
LINE
  5
345
330
1F
100
AcDbEntity
  8
0-0
  6
JWW_DASHED1
 62
   120
370
     5
100
AcDbLine
 10
-1034.586593402035
 20
-447.4488736064178
 30
0.0
 11
-461.5865934020346
 21
-447.4488736064178
 31
0.0
  0
LINE
  5
346
330
1F
100
AcDbEntity
  8
0-0
  6
JWW_DASHED1
 62
   120
370
     5
100
AcDbLine
 10
-1034.586593402035
 20
-460.4488736075174
 30
0.0
 11
-461.5865934020346
 21
-460.4488736075174
 31
0.0
  0
LINE
  5
347
330
1F
100
AcDbEntity
  8
0-0
  6
JWW_DASHED1
 62
   120
370
     5
100
AcDbLine
 10
-1034.586593402035
 20
-461.4488736074176
 30
0.0
 11
-461.5865934020346
 21
-461.4488736074176
 31
0.0
  0
LINE
  5
348
330
1F
100
AcDbEntity
  8
0-0
  6
JWW_DASHED1
 62
   120
370
     5
100
AcDbLine
 10
-1034.586593402035
 20
-474.4488736085173
 30
0.0
 11
-461.5865934020346
 21
-474.4488736085173
 31
0.0
  0
LINE
  5
349
330
1F
100
AcDbEntity
  8
0-0
  6
JWW_DASHED1
 62
   120
370
     5
100
AcDbLine
 10
-1034.586593402035
 20
-475.4488736084174
 30
0.0
 11
-461.5865934020346
 21
-475.4488736084174
 31
0.0
  0
LINE
  5
34A
330
1F
100
AcDbEntity
  8
0-0
  6
JWW_DASHED1
 62
   120
370
     5
100
AcDbLine
 10
-1034.586593402035
 20
-488.448873609517
 30
0.0
 11
-461.5865934020346
 21
-488.448873609517
 31
0.0
  0
LINE
  5
34B
330
1F
100
AcDbEntity
  8
0-0
  6
Continuous
 62
    92
370
    13
100
AcDbLine
 10
1098.413406597966
 20
-489.4487252955735
 30
0.0
 11
1098.413406597966
 21
625.551007160118
 31
0.0
  0
LINE
  5
34C
330
1F
100
AcDbEntity
  8
0-0
  6
Continuous
 62
    92
370
    13
100
AcDbLine
 10
525.4134065979656
 20
-489.4487252955735
 30
0.0
 11
1098.413406597966
 21
-489.4487252955735
 31
0.0
  0
LINE
  5
34D
330
1F
100
AcDbEntity
  8
0-0
  6
Continuous
 62
    92
370
    13
100
AcDbLine
 10
525.4134065979656
 20
-489.4487252955735
 30
0.0
 11
525.4134065979656
 21
625.551007160118
 31
0.0
  0
LINE
  5
34E
330
1F
100
AcDbEntity
  8
0-0
  6
Continuous
 62
    92
370
    13
100
AcDbLine
 10
525.4134065979639
 20
625.551007160118
 30
0.0
 11
574.4260691693779
 21
625.551007160118
 31
0.0
  0
ARC
  5
34F
330
1F
100
AcDbEntity
  8
0-0
  6
Continuous
 62
    92
370
    13
100
AcDbCircle
 10
574.4260691693779
 20
775.551007160118
 30
0.0
 40
150.0
100
AcDbArc
 50
270.0
 51
298.3577011236671
  0
ARC
  5
350
330
1F
100
AcDbEntity
  8
0-0
  6
Continuous
 62
    92
370
    13
100
AcDbCircle
 10
811.913406597966
 20
335.5512747044264
 30
0.0
 40
350.0
100
AcDbArc
 50
61.64229887633292
 51
118.3577011236671
  0
ARC
  5
351
330
1F
100
AcDbEntity
  8
0-0
  6
Continuous
 62
    92
370
    13
100
AcDbCircle
 10
1049.400744026554
 20
775.551007160118
 30
0.0
 40
150.0
100
AcDbArc
 50
241.6422988763328
 51
270.0
  0
LINE
  5
352
330
1F
100
AcDbEntity
  8
0-0
  6
Continuous
 62
    92
370
    13
100
AcDbLine
 10
1098.413406597966
 20
625.551007160118
 30
0.0
 11
1049.400744026554
 21
625.551007160118
 31
0.0
  0
LINE
  5
353
330
1F
100
AcDbEntity
  8
0-0
  6
Continuous
 62
    92
370
    13
100
AcDbLine
 10
1098.413406597966
 20
-1012.448725295574
 30
0.0
 11
1098.413406597966
 21
-594.4487252955735
 31
0.0
  0
LINE
  5
354
330
1F
100
AcDbEntity
  8
0-0
  6
Continuous
 62
    92
370
    13
100
AcDbLine
 10
525.4134065979656
 20
-1012.448725295574
 30
0.0
 11
525.4134065979656
 21
-594.4487252955735
 31
0.0
  0
LINE
  5
355
330
1F
100
AcDbEntity
  8
0-0
  6
Continuous
 62
    92
370
    13
100
AcDbLine
 10
525.4134065979656
 20
-594.4487252955735
 30
0.0
 11
1098.413406597966
 21
-594.4487252955735
 31
0.0
  0
LINE
  5
356
330
1F
100
AcDbEntity
  8
0-0
  6
Continuous
 62
    92
370
    13
100
AcDbLine
 10
525.4134065979656
 20
-1012.448725295574
 30
0.0
 11
1098.413406597966
 21
-1012.448725295574
 31
0.0
  0
LINE
  5
357
330
1F
100
AcDbEntity
  8
0-0
  6
Continuous
 62
     7
370
     9
100
AcDbLine
 10
1113.413456085932
 20
640.5510566480823
 30
0.0
 11
1049.400744026554
 21
640.5510566480823
 31
0.0
  0
LINE
  5
358
330
1F
100
AcDbEntity
  8
0-0
  6
Continuous
 62
     7
370
     9
100
AcDbLine
 10
510.4133571099965
 20
640.5510566480823
 30
0.0
 11
574.4260691693779
 21
640.5510566480823
 31
0.0
  0
ARC
  5
359
330
1F
100
AcDbEntity
  8
0-0
  6
Continuous
 62
     7
370
     9
100
AcDbCircle
 10
811.913406597966
 20
335.5512747044264
 30
0.0
 40
365.0
100
AcDbArc
 50
61.64229887633292
 51
118.3577011236671
  0
ARC
  5
35A
330
1F
100
AcDbEntity
  8
0-0
  6
Continuous
 62
     7
370
     9
100
AcDbCircle
 10
1049.400744026554
 20
775.551007160118
 30
0.0
 40
135.0
100
AcDbArc
 50
241.6422988763328
 51
270.0
  0
ARC
  5
35B
330
1F
100
AcDbEntity
  8
0-0
  6
Continuous
 62
     7
370
     9
100
AcDbCircle
 10
574.4260691693779
 20
775.551007160118
 30
0.0
 40
135.0
100
AcDbArc
 50
270.0
 51
298.3577011236671
  0
LINE
  5
35C
330
1F
100
AcDbEntity
  8
0-0
  6
Continuous
 62
     7
370
     9
100
AcDbLine
 10
1098.413406597966
 20
625.551007160118
 30
0.0
 11
1113.413406597966
 21
640.551007160118
 31
0.0
  0
LINE
  5
35D
330
1F
100
AcDbEntity
  8
0-0
  6
Continuous
 62
     7
370
     9
100
AcDbLine
 10
525.4134065979639
 20
625.551007160118
 30
0.0
 11
510.4130106890199
 21
640.5514030690591
 31
0.0
  0
LINE
  5
35E
330
1F
100
AcDbEntity
  8
0-0
  6
Continuous
 62
     7
370
     9
100
AcDbLine
 10
555.4134065979656
 20
-982.4487252955736
 30
0.0
 11
1068.413406597966
 21
-982.4487252955736
 31
0.0
  0
LINE
  5
35F
330
1F
100
AcDbEntity
  8
0-0
  6
Continuous
 62
     7
370
     9
100
AcDbLine
 10
1068.413406597966
 20
-982.4487252955736
 30
0.0
 11
1068.413406597966
 21
-624.4487252955735
 31
0.0
  0
LINE
  5
360
330
1F
100
AcDbEntity
  8
0-0
  6
Continuous
 62
     7
370
     9
100
AcDbLine
 10
555.4134065979656
 20
-624.4487252955735
 30
0.0
 11
1068.413406597966
 21
-624.4487252955735
 31
0.0
  0
LINE
  5
361
330
1F
100
AcDbEntity
  8
0-0
  6
Continuous
 62
     7
370
     9
100
AcDbLine
 10
1083.413406597966
 20
-609.4487252955735
 30
0.0
 11
1068.413406597966
 21
-624.4487252955735
 31
0.0
  0
LINE
  5
362
330
1F
100
AcDbEntity
  8
0-0
  6
Continuous
 62
     7
370
     9
100
AcDbLine
 10
1068.413406597966
 20
-982.4487252955736
 30
0.0
 11
1083.413406597966
 21
-997.4487252955736
 31
0.0
  0
LINE
  5
363
330
1F
100
AcDbEntity
  8
0-0
  6
Continuous
 62
     7
370
     9
100
AcDbLine
 10
540.4134065979656
 20
-609.4487252955735
 30
0.0
 11
555.4134065979656
 21
-624.4487252955735
 31
0.0
  0
LINE
  5
364
330
1F
100
AcDbEntity
  8
0-0
  6
Continuous
 62
     7
370
     9
100
AcDbLine
 10
555.4134065979656
 20
-982.4487252955736
 30
0.0
 11
540.4134065979656
 21
-997.4487252955736
 31
0.0
  0
LINE
  5
365
330
1F
100
AcDbEntity
  8
0-0
  6
Continuous
 62
     7
370
     9
100
AcDbLine
 10
555.4134065979656
 20
-982.4487252955736
 30
0.0
 11
555.4134065979656
 21
-624.4487252955735
 31
0.0
  0
LINE
  5
366
330
1F
100
AcDbEntity
  8
0-0
  6
Continuous
 62
     7
370
     9
100
AcDbLine
 10
510.4134065979656
 20
-579.4487252955735
 30
0.0
 11
1113.413406597966
 21
-579.4487252955735
 31
0.0
  0
LINE
  5
367
330
1F
100
AcDbEntity
  8
0-0
  6
Continuous
 62
     7
370
     9
100
AcDbLine
 10
510.4134065979656
 20
-504.4487252955735
 30
0.0
 11
1113.413406597966
 21
-504.4487252955735
 31
0.0
  0
LINE
  5
368
330
1F
100
AcDbEntity
  8
0-0
  6
Continuous
 62
     7
370
     9
100
AcDbLine
 10
1113.413406597966
 20
-579.4487252955735
 30
0.0
 11
1098.413406597966
 21
-594.4487252955735
 31
0.0
  0
LINE
  5
369
330
1F
100
AcDbEntity
  8
0-0
  6
Continuous
 62
     7
370
     9
100
AcDbLine
 10
1098.413406597966
 20
-489.4487252955735
 30
0.0
 11
1113.413406597966
 21
-504.4487252955735
 31
0.0
  0
LINE
  5
36A
330
1F
100
AcDbEntity
  8
0-0
  6
Continuous
 62
     7
370
     9
100
AcDbLine
 10
510.4134065979656
 20
-579.4487252955735
 30
0.0
 11
525.4134065979656
 21
-594.4487252955735
 31
0.0
  0
LINE
  5
36B
330
1F
100
AcDbEntity
  8
0-0
  6
Continuous
 62
     7
370
     9
100
AcDbLine
 10
525.4134065979656
 20
-489.4487252955735
 30
0.0
 11
510.4134065979656
 21
-504.4487252955735
 31
0.0
  0
LINE
  5
36C
330
1F
100
AcDbEntity
  8
0-0
  6
Continuous
 62
     7
370
     9
100
AcDbLine
 10
510.4134065979656
 20
-1027.448725295574
 30
0.0
 11
1113.413406597966
 21
-1027.448725295574
 31
0.0
  0
LINE
  5
36D
330
1F
100
AcDbEntity
  8
0-0
  6
Continuous
 62
     7
370
     9
100
AcDbLine
 10
1113.413406597966
 20
-1162.448725295573
 30
0.0
 11
1113.413406597966
 21
820.5512747044263
 31
0.0
  0
LINE
  5
36E
330
1F
100
AcDbEntity
  8
0-0
  6
Continuous
 62
     7
370
     9
100
AcDbLine
 10
1098.413406597966
 20
-1012.448725295574
 30
0.0
 11
1113.413406597966
 21
-1027.448725295574
 31
0.0
  0
LINE
  5
36F
330
1F
100
AcDbEntity
  8
0-0
  6
Continuous
 62
     7
370
     9
100
AcDbLine
 10
510.4134065979656
 20
-1162.448725295573
 30
0.0
 11
510.4134065979656
 21
820.5512747044263
 31
0.0
  0
LINE
  5
370
330
1F
100
AcDbEntity
  8
0-0
  6
Continuous
 62
     7
370
     9
100
AcDbLine
 10
525.4134065979656
 20
-1012.448725295574
 30
0.0
 11
510.4134065979656
 21
-1027.448725295574
 31
0.0
  0
LINE
  5
371
330
1F
100
AcDbEntity
  8
0-0
  6
Continuous
 62
    92
370
    13
100
AcDbLine
 10
318.4134065979662
 20
-489.4487252955735
 30
0.0
 11
318.4134065979662
 21
625.551007160118
 31
0.0
  0
LINE
  5
372
330
1F
100
AcDbEntity
  8
0-0
  6
Continuous
 62
    92
370
    13
100
AcDbLine
 10
-254.5865934020345
 20
-489.4487252955735
 30
0.0
 11
318.4134065979662
 21
-489.4487252955735
 31
0.0
  0
LINE
  5
373
330
1F
100
AcDbEntity
  8
0-0
  6
Continuous
 62
    92
370
    13
100
AcDbLine
 10
-254.5865934020345
 20
-489.4487252955735
 30
0.0
 11
-254.5865934020345
 21
625.551007160118
 31
0.0
  0
LINE
  5
374
330
1F
100
AcDbEntity
  8
0-0
  6
Continuous
 62
    92
370
    13
100
AcDbLine
 10
-254.5865934020362
 20
625.551007160118
 30
0.0
 11
-205.5739308306221
 21
625.551007160118
 31
0.0
  0
ARC
  5
375
330
1F
100
AcDbEntity
  8
0-0
  6
Continuous
 62
    92
370
    13
100
AcDbCircle
 10
-205.5739308306221
 20
775.551007160118
 30
0.0
 40
150.0
100
AcDbArc
 50
270.0
 51
298.3577011236671
  0
ARC
  5
376
330
1F
100
AcDbEntity
  8
0-0
  6
Continuous
 62
    92
370
    13
100
AcDbCircle
 10
31.91340659796589
 20
335.5512747044264
 30
0.0
 40
350.0
100
AcDbArc
 50
61.64229887633292
 51
118.3577011236671
  0
ARC
  5
377
330
1F
100
AcDbEntity
  8
0-0
  6
Continuous
 62
    92
370
    13
100
AcDbCircle
 10
269.4007440265539
 20
775.551007160118
 30
0.0
 40
150.0
100
AcDbArc
 50
241.6422988763328
 51
270.0
  0
LINE
  5
378
330
1F
100
AcDbEntity
  8
0-0
  6
Continuous
 62
    92
370
    13
100
AcDbLine
 10
318.4134065979662
 20
625.551007160118
 30
0.0
 11
269.4007440265539
 21
625.551007160118
 31
0.0
  0
LINE
  5
379
330
1F
100
AcDbEntity
  8
0-0
  6
Continuous
 62
    92
370
    13
100
AcDbLine
 10
318.4134065979662
 20
-1012.448725295574
 30
0.0
 11
318.4134065979662
 21
-594.4487252955735
 31
0.0
  0
LINE
  5
37A
330
1F
100
AcDbEntity
  8
0-0
  6
Continuous
 62
    92
370
    13
100
AcDbLine
 10
-254.5865934020345
 20
-1012.448725295574
 30
0.0
 11
-254.5865934020345
 21
-594.4487252955735
 31
0.0
  0
LINE
  5
37B
330
1F
100
AcDbEntity
  8
0-0
  6
Continuous
 62
    92
370
    13
100
AcDbLine
 10
-254.5865934020345
 20
-594.4487252955735
 30
0.0
 11
318.4134065979662
 21
-594.4487252955735
 31
0.0
  0
LINE
  5
37C
330
1F
100
AcDbEntity
  8
0-0
  6
Continuous
 62
    92
370
    13
100
AcDbLine
 10
-254.5865934020345
 20
-1012.448725295574
 30
0.0
 11
318.4134065979662
 21
-1012.448725295574
 31
0.0
  0
LINE
  5
37D
330
1F
100
AcDbEntity
  8
0-0
  6
Continuous
 62
     7
370
     9
100
AcDbLine
 10
333.413456085932
 20
640.5510566480823
 30
0.0
 11
269.4007440265539
 21
640.5510566480823
 31
0.0
  0
LINE
  5
37E
330
1F
100
AcDbEntity
  8
0-0
  6
Continuous
 62
     7
370
     9
100
AcDbLine
 10
-269.5866428900036
 20
640.5510566480823
 30
0.0
 11
-205.5739308306221
 21
640.5510566480823
 31
0.0
  0
ARC
  5
37F
330
1F
100
AcDbEntity
  8
0-0
  6
Continuous
 62
     7
370
     9
100
AcDbCircle
 10
31.91340659796589
 20
335.5512747044264
 30
0.0
 40
365.0
100
AcDbArc
 50
61.64229887633292
 51
118.3577011236671
  0
ARC
  5
380
330
1F
100
AcDbEntity
  8
0-0
  6
Continuous
 62
     7
370
     9
100
AcDbCircle
 10
269.4007440265539
 20
775.551007160118
 30
0.0
 40
135.0
100
AcDbArc
 50
241.6422988763328
 51
270.0
  0
ARC
  5
381
330
1F
100
AcDbEntity
  8
0-0
  6
Continuous
 62
     7
370
     9
100
AcDbCircle
 10
-205.5739308306221
 20
775.551007160118
 30
0.0
 40
135.0
100
AcDbArc
 50
270.0
 51
298.3577011236671
  0
LINE
  5
382
330
1F
100
AcDbEntity
  8
0-0
  6
Continuous
 62
     7
370
     9
100
AcDbLine
 10
318.4134065979662
 20
625.551007160118
 30
0.0
 11
333.4134065979662
 21
640.551007160118
 31
0.0
  0
LINE
  5
383
330
1F
100
AcDbEntity
  8
0-0
  6
Continuous
 62
     7
370
     9
100
AcDbLine
 10
-254.5865934020362
 20
625.551007160118
 30
0.0
 11
-269.5869893109802
 21
640.5514030690591
 31
0.0
  0
LINE
  5
384
330
1F
100
AcDbEntity
  8
0-0
  6
Continuous
 62
     7
370
     9
100
AcDbLine
 10
-224.5865934020345
 20
-982.4487252955736
 30
0.0
 11
288.4134065979662
 21
-982.4487252955736
 31
0.0
  0
LINE
  5
385
330
1F
100
AcDbEntity
  8
0-0
  6
Continuous
 62
     7
370
     9
100
AcDbLine
 10
288.4134065979662
 20
-982.4487252955736
 30
0.0
 11
288.4134065979662
 21
-624.4487252955735
 31
0.0
  0
LINE
  5
386
330
1F
100
AcDbEntity
  8
0-0
  6
Continuous
 62
     7
370
     9
100
AcDbLine
 10
-224.5865934020345
 20
-624.4487252955735
 30
0.0
 11
288.4134065979662
 21
-624.4487252955735
 31
0.0
  0
LINE
  5
387
330
1F
100
AcDbEntity
  8
0-0
  6
Continuous
 62
     7
370
     9
100
AcDbLine
 10
303.4134065979662
 20
-609.4487252955735
 30
0.0
 11
288.4134065979662
 21
-624.4487252955735
 31
0.0
  0
LINE
  5
388
330
1F
100
AcDbEntity
  8
0-0
  6
Continuous
 62
     7
370
     9
100
AcDbLine
 10
288.4134065979662
 20
-982.4487252955736
 30
0.0
 11
303.4134065979662
 21
-997.4487252955736
 31
0.0
  0
LINE
  5
389
330
1F
100
AcDbEntity
  8
0-0
  6
Continuous
 62
     7
370
     9
100
AcDbLine
 10
-239.5865934020345
 20
-609.4487252955735
 30
0.0
 11
-224.5865934020345
 21
-624.4487252955735
 31
0.0
  0
LINE
  5
38A
330
1F
100
AcDbEntity
  8
0-0
  6
Continuous
 62
     7
370
     9
100
AcDbLine
 10
-224.5865934020345
 20
-982.4487252955736
 30
0.0
 11
-239.5865934020345
 21
-997.4487252955736
 31
0.0
  0
LINE
  5
38B
330
1F
100
AcDbEntity
  8
0-0
  6
Continuous
 62
     7
370
     9
100
AcDbLine
 10
-224.5865934020345
 20
-982.4487252955736
 30
0.0
 11
-224.5865934020345
 21
-624.4487252955735
 31
0.0
  0
LINE
  5
38C
330
1F
100
AcDbEntity
  8
0-0
  6
Continuous
 62
     7
370
     9
100
AcDbLine
 10
-269.5865934020345
 20
-579.4487252955735
 30
0.0
 11
333.4134065979662
 21
-579.4487252955735
 31
0.0
  0
LINE
  5
38D
330
1F
100
AcDbEntity
  8
0-0
  6
Continuous
 62
     7
370
     9
100
AcDbLine
 10
-269.5865934020345
 20
-504.4487252955735
 30
0.0
 11
333.4134065979662
 21
-504.4487252955735
 31
0.0
  0
LINE
  5
38E
330
1F
100
AcDbEntity
  8
0-0
  6
Continuous
 62
     7
370
     9
100
AcDbLine
 10
333.4134065979662
 20
-579.4487252955735
 30
0.0
 11
318.4134065979662
 21
-594.4487252955735
 31
0.0
  0
LINE
  5
38F
330
1F
100
AcDbEntity
  8
0-0
  6
Continuous
 62
     7
370
     9
100
AcDbLine
 10
318.4134065979662
 20
-489.4487252955735
 30
0.0
 11
333.4134065979662
 21
-504.4487252955735
 31
0.0
  0
LINE
  5
390
330
1F
100
AcDbEntity
  8
0-0
  6
Continuous
 62
     7
370
     9
100
AcDbLine
 10
-269.5865934020345
 20
-579.4487252955735
 30
0.0
 11
-254.5865934020345
 21
-594.4487252955735
 31
0.0
  0
LINE
  5
391
330
1F
100
AcDbEntity
  8
0-0
  6
Continuous
 62
     7
370
     9
100
AcDbLine
 10
-254.5865934020345
 20
-489.4487252955735
 30
0.0
 11
-269.5865934020345
 21
-504.4487252955735
 31
0.0
  0
LINE
  5
392
330
1F
100
AcDbEntity
  8
0-0
  6
Continuous
 62
     7
370
     9
100
AcDbLine
 10
-269.5865934020345
 20
-1027.448725295574
 30
0.0
 11
333.4134065979662
 21
-1027.448725295574
 31
0.0
  0
LINE
  5
393
330
1F
100
AcDbEntity
  8
0-0
  6
Continuous
 62
     7
370
     9
100
AcDbLine
 10
333.4134065979662
 20
-1162.448725295573
 30
0.0
 11
333.4134065979662
 21
820.5512747044263
 31
0.0
  0
LINE
  5
394
330
1F
100
AcDbEntity
  8
0-0
  6
Continuous
 62
     7
370
     9
100
AcDbLine
 10
318.4134065979662
 20
-1012.448725295574
 30
0.0
 11
333.4134065979662
 21
-1027.448725295574
 31
0.0
  0
LINE
  5
395
330
1F
100
AcDbEntity
  8
0-0
  6
Continuous
 62
     7
370
     9
100
AcDbLine
 10
-269.5865934020345
 20
-1162.448725295573
 30
0.0
 11
-269.5865934020345
 21
820.5512747044263
 31
0.0
  0
LINE
  5
396
330
1F
100
AcDbEntity
  8
0-0
  6
Continuous
 62
     7
370
     9
100
AcDbLine
 10
-254.5865934020345
 20
-1012.448725295574
 30
0.0
 11
-269.5865934020345
 21
-1027.448725295574
 31
0.0
  0
LINE
  5
397
330
1F
100
AcDbEntity
  8
0-0
  6
Continuous
 62
    92
370
    13
100
AcDbLine
 10
-461.5865934020346
 20
-489.4487252955735
 30
0.0
 11
-461.5865934020346
 21
625.551007160118
 31
0.0
  0
LINE
  5
398
330
1F
100
AcDbEntity
  8
0-0
  6
Continuous
 62
    92
370
    13
100
AcDbLine
 10
-1034.586593402035
 20
-489.4487252955735
 30
0.0
 11
-461.5865934020346
 21
-489.4487252955735
 31
0.0
  0
LINE
  5
399
330
1F
100
AcDbEntity
  8
0-0
  6
Continuous
 62
    92
370
    13
100
AcDbLine
 10
-1034.586593402035
 20
-489.4487252955735
 30
0.0
 11
-1034.586593402035
 21
625.551007160118
 31
0.0
  0
LINE
  5
39A
330
1F
100
AcDbEntity
  8
0-0
  6
Continuous
 62
    92
370
    13
100
AcDbLine
 10
-1034.586593402037
 20
625.551007160118
 30
0.0
 11
-985.5739308306229
 21
625.551007160118
 31
0.0
  0
ARC
  5
39B
330
1F
100
AcDbEntity
  8
0-0
  6
Continuous
 62
    92
370
    13
100
AcDbCircle
 10
-985.5739308306229
 20
775.551007160118
 30
0.0
 40
150.0
100
AcDbArc
 50
270.0
 51
298.3577011236671
  0
ARC
  5
39C
330
1F
100
AcDbEntity
  8
0-0
  6
Continuous
 62
    92
370
    13
100
AcDbCircle
 10
-748.0865934020349
 20
335.5512747044264
 30
0.0
 40
350.0
100
AcDbArc
 50
61.64229887633292
 51
118.3577011236671
  0
ARC
  5
39D
330
1F
100
AcDbEntity
  8
0-0
  6
Continuous
 62
    92
370
    13
100
AcDbCircle
 10
-510.5992559734469
 20
775.551007160118
 30
0.0
 40
150.0
100
AcDbArc
 50
241.6422988763328
 51
270.0
  0
LINE
  5
39E
330
1F
100
AcDbEntity
  8
0-0
  6
Continuous
 62
    92
370
    13
100
AcDbLine
 10
-461.5865934020346
 20
625.551007160118
 30
0.0
 11
-510.5992559734469
 21
625.551007160118
 31
0.0
  0
LINE
  5
39F
330
1F
100
AcDbEntity
  8
0-0
  6
Continuous
 62
    92
370
    13
100
AcDbLine
 10
-461.5865934020346
 20
-1012.448725295574
 30
0.0
 11
-461.5865934020346
 21
-594.4487252955735
 31
0.0
  0
LINE
  5
3A0
330
1F
100
AcDbEntity
  8
0-0
  6
Continuous
 62
    92
370
    13
100
AcDbLine
 10
-1034.586593402035
 20
-1012.448725295574
 30
0.0
 11
-1034.586593402035
 21
-594.4487252955735
 31
0.0
  0
LINE
  5
3A1
330
1F
100
AcDbEntity
  8
0-0
  6
Continuous
 62
    92
370
    13
100
AcDbLine
 10
-1034.586593402035
 20
-594.4487252955735
 30
0.0
 11
-461.5865934020346
 21
-594.4487252955735
 31
0.0
  0
LINE
  5
3A2
330
1F
100
AcDbEntity
  8
0-0
  6
Continuous
 62
    92
370
    13
100
AcDbLine
 10
-1034.586593402035
 20
-1012.448725295574
 30
0.0
 11
-461.5865934020346
 21
-1012.448725295574
 31
0.0
  0
LINE
  5
3A3
330
1F
100
AcDbEntity
  8
0-0
  6
Continuous
 62
     7
370
     9
100
AcDbLine
 10
-446.5865439140689
 20
640.5510566480823
 30
0.0
 11
-510.5992559734469
 21
640.5510566480823
 31
0.0
  0
LINE
  5
3A4
330
1F
100
AcDbEntity
  8
0-0
  6
Continuous
 62
     7
370
     9
100
AcDbLine
 10
-1049.586642890004
 20
640.5510566480823
 30
0.0
 11
-985.5739308306229
 21
640.5510566480823
 31
0.0
  0
ARC
  5
3A5
330
1F
100
AcDbEntity
  8
0-0
  6
Continuous
 62
     7
370
     9
100
AcDbCircle
 10
-748.0865934020349
 20
335.5512747044264
 30
0.0
 40
365.0
100
AcDbArc
 50
61.64229887633292
 51
118.3577011236671
  0
ARC
  5
3A6
330
1F
100
AcDbEntity
  8
0-0
  6
Continuous
 62
     7
370
     9
100
AcDbCircle
 10
-510.5992559734469
 20
775.551007160118
 30
0.0
 40
135.0
100
AcDbArc
 50
241.6422988763328
 51
270.0
  0
ARC
  5
3A7
330
1F
100
AcDbEntity
  8
0-0
  6
Continuous
 62
     7
370
     9
100
AcDbCircle
 10
-985.5739308306229
 20
775.551007160118
 30
0.0
 40
135.0
100
AcDbArc
 50
270.0
 51
298.3577011236671
  0
LINE
  5
3A8
330
1F
100
AcDbEntity
  8
0-0
  6
Continuous
 62
     7
370
     9
100
AcDbLine
 10
-461.5865934020346
 20
625.551007160118
 30
0.0
 11
-446.5865934020346
 21
640.551007160118
 31
0.0
  0
LINE
  5
3A9
330
1F
100
AcDbEntity
  8
0-0
  6
Continuous
 62
     7
370
     9
100
AcDbLine
 10
-1034.586593402037
 20
625.551007160118
 30
0.0
 11
-1049.586989310981
 21
640.5514030690591
 31
0.0
  0
LINE
  5
3AA
330
1F
100
AcDbEntity
  8
0-0
  6
Continuous
 62
     7
370
     9
100
AcDbLine
 10
-1004.586593402035
 20
-982.4487252955736
 30
0.0
 11
-491.5865934020346
 21
-982.4487252955736
 31
0.0
  0
LINE
  5
3AB
330
1F
100
AcDbEntity
  8
0-0
  6
Continuous
 62
     7
370
     9
100
AcDbLine
 10
-491.5865934020346
 20
-982.4487252955736
 30
0.0
 11
-491.5865934020346
 21
-624.4487252955735
 31
0.0
  0
LINE
  5
3AC
330
1F
100
AcDbEntity
  8
0-0
  6
Continuous
 62
     7
370
     9
100
AcDbLine
 10
-1004.586593402035
 20
-624.4487252955735
 30
0.0
 11
-491.5865934020346
 21
-624.4487252955735
 31
0.0
  0
LINE
  5
3AD
330
1F
100
AcDbEntity
  8
0-0
  6
Continuous
 62
     7
370
     9
100
AcDbLine
 10
-476.5865934020346
 20
-609.4487252955735
 30
0.0
 11
-491.5865934020346
 21
-624.4487252955735
 31
0.0
  0
LINE
  5
3AE
330
1F
100
AcDbEntity
  8
0-0
  6
Continuous
 62
     7
370
     9
100
AcDbLine
 10
-491.5865934020346
 20
-982.4487252955736
 30
0.0
 11
-476.5865934020346
 21
-997.4487252955736
 31
0.0
  0
LINE
  5
3AF
330
1F
100
AcDbEntity
  8
0-0
  6
Continuous
 62
     7
370
     9
100
AcDbLine
 10
-1019.586593402035
 20
-609.4487252955735
 30
0.0
 11
-1004.586593402035
 21
-624.4487252955735
 31
0.0
  0
LINE
  5
3B0
330
1F
100
AcDbEntity
  8
0-0
  6
Continuous
 62
     7
370
     9
100
AcDbLine
 10
-1004.586593402035
 20
-982.4487252955736
 30
0.0
 11
-1019.586593402035
 21
-997.4487252955736
 31
0.0
  0
LINE
  5
3B1
330
1F
100
AcDbEntity
  8
0-0
  6
Continuous
 62
     7
370
     9
100
AcDbLine
 10
-1004.586593402035
 20
-982.4487252955736
 30
0.0
 11
-1004.586593402035
 21
-624.4487252955735
 31
0.0
  0
LINE
  5
3B2
330
1F
100
AcDbEntity
  8
0-0
  6
Continuous
 62
     7
370
     9
100
AcDbLine
 10
-1049.586593402035
 20
-579.4487252955735
 30
0.0
 11
-446.5865934020346
 21
-579.4487252955735
 31
0.0
  0
LINE
  5
3B3
330
1F
100
AcDbEntity
  8
0-0
  6
Continuous
 62
     7
370
     9
100
AcDbLine
 10
-1049.586593402035
 20
-504.4487252955735
 30
0.0
 11
-446.5865934020346
 21
-504.4487252955735
 31
0.0
  0
LINE
  5
3B4
330
1F
100
AcDbEntity
  8
0-0
  6
Continuous
 62
     7
370
     9
100
AcDbLine
 10
-446.5865934020346
 20
-579.4487252955735
 30
0.0
 11
-461.5865934020346
 21
-594.4487252955735
 31
0.0
  0
LINE
  5
3B5
330
1F
100
AcDbEntity
  8
0-0
  6
Continuous
 62
     7
370
     9
100
AcDbLine
 10
-461.5865934020346
 20
-489.4487252955735
 30
0.0
 11
-446.5865934020346
 21
-504.4487252955735
 31
0.0
  0
LINE
  5
3B6
330
1F
100
AcDbEntity
  8
0-0
  6
Continuous
 62
     7
370
     9
100
AcDbLine
 10
-1049.586593402035
 20
-579.4487252955735
 30
0.0
 11
-1034.586593402035
 21
-594.4487252955735
 31
0.0
  0
LINE
  5
3B7
330
1F
100
AcDbEntity
  8
0-0
  6
Continuous
 62
     7
370
     9
100
AcDbLine
 10
-1034.586593402035
 20
-489.4487252955735
 30
0.0
 11
-1049.586593402035
 21
-504.4487252955735
 31
0.0
  0
LINE
  5
3B8
330
1F
100
AcDbEntity
  8
0-0
  6
Continuous
 62
     7
370
     9
100
AcDbLine
 10
-1049.586593402035
 20
-1027.448725295574
 30
0.0
 11
-446.5865934020346
 21
-1027.448725295574
 31
0.0
  0
LINE
  5
3B9
330
1F
100
AcDbEntity
  8
0-0
  6
Continuous
 62
     7
370
     9
100
AcDbLine
 10
-446.5865934020346
 20
-1162.448725295573
 30
0.0
 11
-446.5865934020346
 21
820.5512747044263
 31
0.0
  0
LINE
  5
3BA
330
1F
100
AcDbEntity
  8
0-0
  6
Continuous
 62
     7
370
     9
100
AcDbLine
 10
-461.5865934020346
 20
-1012.448725295574
 30
0.0
 11
-446.5865934020346
 21
-1027.448725295574
 31
0.0
  0
LINE
  5
3BB
330
1F
100
AcDbEntity
  8
0-0
  6
Continuous
 62
     7
370
     9
100
AcDbLine
 10
-1049.586593402035
 20
-1162.448725295573
 30
0.0
 11
-1049.586593402035
 21
820.5512747044263
 31
0.0
  0
LINE
  5
3BC
330
1F
100
AcDbEntity
  8
0-0
  6
Continuous
 62
     7
370
     9
100
AcDbLine
 10
-1034.586593402035
 20
-1012.448725295574
 30
0.0
 11
-1049.586593402035
 21
-1027.448725295574
 31
0.0
  0
LINE
  5
3BD
330
1F
100
AcDbEntity
  8
0-0
  6
Continuous
 62
    92
370
    13
100
AcDbLine
 10
1216.913406597966
 20
820.5512747044263
 30
0.0
 11
1216.913406597966
 21
-1162.448725295573
 31
0.0
  0
LINE
  5
3BE
330
1F
100
AcDbEntity
  8
0-0
  6
Continuous
 62
    92
370
    13
100
AcDbLine
 10
406.9134065979659
 20
820.5512747044263
 30
0.0
 11
406.9134065979659
 21
-1162.448725295573
 31
0.0
  0
LINE
  5
3BF
330
1F
100
AcDbEntity
  8
0-0
  6
JWW_DASHED1
 62
   120
370
     5
100
AcDbLine
 10
436.9134065979659
 20
-1162.448725295573
 30
0.0
 11
436.9134065979659
 21
820.5512747044263
 31
0.0
  0
LINE
  5
3C0
330
1F
100
AcDbEntity
  8
0-0
  6
Continuous
 62
    92
370
    13
100
AcDbLine
 10
-1150.086593402034
 20
-1162.448725295573
 30
0.0
 11
1216.913406597966
 21
-1162.448725295573
 31
0.0
  0
LINE
  5
3C1
330
1F
100
AcDbEntity
  8
0-0
  6
Continuous
 62
    92
370
    13
100
AcDbLine
 10
-373.0865934020341
 20
820.5512747044263
 30
0.0
 11
-373.0865934020341
 21
-1162.448725295573
 31
0.0
  0
LINE
  5
3C2
330
1F
100
AcDbEntity
  8
0-0
  6
JWW_DASHED1
 62
   120
370
     5
100
AcDbLine
 10
-343.0865934020341
 20
-1162.448725295573
 30
0.0
 11
-343.0865934020341
 21
820.5512747044263
 31
0.0
  0
LINE
  5
3C3
330
1F
100
AcDbEntity
  8
0-0
  6
JWW_DASHED1
 62
   120
370
     5
100
AcDbLine
 10
-1153.086593402035
 20
820.5512747044263
 30
0.0
 11
-1150.086593402034
 21
820.5512747044263
 31
0.0
  0
LINE
  5
3C4
330
1F
100
AcDbEntity
  8
0-0
  6
JWW_DASHED1
 62
   120
370
     5
100
AcDbLine
 10
-1153.086593402035
 20
-1162.448725295573
 30
0.0
 11
-1153.086593402035
 21
820.5512747044263
 31
0.0
  0
LINE
  5
3C5
330
1F
100
AcDbEntity
  8
0-0
  6
JWW_DASHED1
 62
   120
370
     5
100
AcDbLine
 10
-1150.086593402034
 20
-1162.448725295573
 30
0.0
 11
-1153.086593402035
 21
-1162.448725295573
 31
0.0
  0
LINE
  5
3C6
330
1F
100
AcDbEntity
  8
0-0
  6
Continuous
 62
     7
370
     9
100
AcDbLine
 10
442.9134065979664
 20
-175.3487252955739
 30
0.0
 11
442.9134065979664
 21
-234.5487252955742
 31
0.0
  0
LINE
  5
3C7
330
1F
100
AcDbEntity
  8
0-0
  6
Continuous
 62
     7
370
     9
100
AcDbLine
 10
472.9134065979664
 20
-234.5487252955742
 30
0.0
 11
472.9134065979664
 21
-175.3487252955739
 31
0.0
  0
ARC
  5
3C8
330
1F
100
AcDbEntity
  8
0-0
  6
Continuous
 62
     7
370
     9
100
AcDbCircle
 10
457.9134065979664
 20
-175.3487252955739
 30
0.0
 40
15.0
100
AcDbArc
 50
0.0
 51
180.0
  0
ARC
  5
3C9
330
1F
100
AcDbEntity
  8
0-0
  6
Continuous
 62
     7
370
     9
100
AcDbCircle
 10
457.9134065979664
 20
-234.5487252955742
 30
0.0
 40
15.0
100
AcDbArc
 50
180.0
 51
0.0
  0
ARC
  5
3CA
330
1F
100
AcDbEntity
  8
0-0
  6
Continuous
 62
    92
370
    13
100
AcDbCircle
 10
438.4134065979671
 20
-264.4487252955743
 30
0.0
 40
1.5
100
AcDbArc
 50
180.0
 51
270.0
  0
LINE
  5
3CB
330
1F
100
AcDbEntity
  8
0-0
  6
Continuous
 62
    92
370
    13
100
AcDbLine
 10
436.9134065979667
 20
-264.4487252955743
 30
0.0
 11
436.9134065979667
 21
-145.4487252955738
 31
0.0
  0
LINE
  5
3CC
330
1F
100
AcDbEntity
  8
0-0
  6
Continuous
 62
    92
370
    13
100
AcDbLine
 10
438.4134065979671
 20
-265.9487252955738
 30
0.0
 11
477.4134065979657
 21
-265.9487252955738
 31
0.0
  0
ARC
  5
3CD
330
1F
100
AcDbEntity
  8
0-0
  6
Continuous
 62
    92
370
    13
100
AcDbCircle
 10
477.4134065979657
 20
-264.4487252955743
 30
0.0
 40
1.5
100
AcDbArc
 50
270.0
 51
0.0
  0
LINE
  5
3CE
330
1F
100
AcDbEntity
  8
0-0
  6
Continuous
 62
    92
370
    13
100
AcDbLine
 10
478.9134065979678
 20
-264.4487252955743
 30
0.0
 11
478.9134065979678
 21
-145.4487252955738
 31
0.0
  0
ARC
  5
3CF
330
1F
100
AcDbEntity
  8
0-0
  6
Continuous
 62
    92
370
    13
100
AcDbCircle
 10
477.4134065979657
 20
-145.4487252955738
 30
0.0
 40
1.5
100
AcDbArc
 50
0.0
 51
90.00000000000001
  0
LINE
  5
3D0
330
1F
100
AcDbEntity
  8
0-0
  6
Continuous
 62
    92
370
    13
100
AcDbLine
 10
477.4134065979657
 20
-143.9487252955739
 30
0.0
 11
438.4134065979671
 21
-143.9487252955739
 31
0.0
  0
ARC
  5
3D1
330
1F
100
AcDbEntity
  8
0-0
  6
Continuous
 62
    92
370
    13
100
AcDbCircle
 10
438.4134065979671
 20
-145.4487252955738
 30
0.0
 40
1.5
100
AcDbArc
 50
90.0
 51
180.0
  0
LINE
  5
3D2
330
1F
100
AcDbEntity
  8
0-0
  6
Continuous
 62
     7
370
     9
100
AcDbLine
 10
-337.0865934020336
 20
-175.3487252955739
 30
0.0
 11
-337.0865934020336
 21
-234.5487252955742
 31
0.0
  0
LINE
  5
3D3
330
1F
100
AcDbEntity
  8
0-0
  6
Continuous
 62
     7
370
     9
100
AcDbLine
 10
-307.0865934020336
 20
-234.5487252955742
 30
0.0
 11
-307.0865934020336
 21
-175.3487252955739
 31
0.0
  0
ARC
  5
3D4
330
1F
100
AcDbEntity
  8
0-0
  6
Continuous
 62
     7
370
     9
100
AcDbCircle
 10
-322.0865934020336
 20
-175.3487252955739
 30
0.0
 40
15.0
100
AcDbArc
 50
0.0
 51
180.0
  0
ARC
  5
3D5
330
1F
100
AcDbEntity
  8
0-0
  6
Continuous
 62
     7
370
     9
100
AcDbCircle
 10
-322.0865934020336
 20
-234.5487252955742
 30
0.0
 40
15.0
100
AcDbArc
 50
180.0
 51
0.0
  0
ARC
  5
3D6
330
1F
100
AcDbEntity
  8
0-0
  6
Continuous
 62
    92
370
    13
100
AcDbCircle
 10
-341.5865934020329
 20
-264.4487252955743
 30
0.0
 40
1.5
100
AcDbArc
 50
180.0
 51
270.0
  0
LINE
  5
3D7
330
1F
100
AcDbEntity
  8
0-0
  6
Continuous
 62
    92
370
    13
100
AcDbLine
 10
-343.0865934020333
 20
-264.4487252955743
 30
0.0
 11
-343.0865934020333
 21
-145.4487252955738
 31
0.0
  0
LINE
  5
3D8
330
1F
100
AcDbEntity
  8
0-0
  6
Continuous
 62
    92
370
    13
100
AcDbLine
 10
-341.5865934020329
 20
-265.9487252955738
 30
0.0
 11
-302.5865934020343
 21
-265.9487252955738
 31
0.0
  0
ARC
  5
3D9
330
1F
100
AcDbEntity
  8
0-0
  6
Continuous
 62
    92
370
    13
100
AcDbCircle
 10
-302.5865934020343
 20
-264.4487252955743
 30
0.0
 40
1.5
100
AcDbArc
 50
270.0
 51
0.0
  0
LINE
  5
3DA
330
1F
100
AcDbEntity
  8
0-0
  6
Continuous
 62
    92
370
    13
100
AcDbLine
 10
-301.0865934020322
 20
-264.4487252955743
 30
0.0
 11
-301.0865934020322
 21
-145.4487252955738
 31
0.0
  0
ARC
  5
3DB
330
1F
100
AcDbEntity
  8
0-0
  6
Continuous
 62
    92
370
    13
100
AcDbCircle
 10
-302.5865934020343
 20
-145.4487252955738
 30
0.0
 40
1.5
100
AcDbArc
 50
0.0
 51
90.00000000000001
  0
LINE
  5
3DC
330
1F
100
AcDbEntity
  8
0-0
  6
Continuous
 62
    92
370
    13
100
AcDbLine
 10
-302.5865934020343
 20
-143.9487252955739
 30
0.0
 11
-341.5865934020329
 21
-143.9487252955739
 31
0.0
  0
ARC
  5
3DD
330
1F
100
AcDbEntity
  8
0-0
  6
Continuous
 62
    92
370
    13
100
AcDbCircle
 10
-341.5865934020329
 20
-145.4487252955738
 30
0.0
 40
1.5
100
AcDbArc
 50
90.0
 51
180.0
  0
LINE
  5
3DE
330
1F
100
AcDbEntity
  8
0-0
  6
Continuous
 62
     7
370
     9
100
AcDbLine
 10
-1117.086593402033
 20
-175.3487252955739
 30
0.0
 11
-1117.086593402033
 21
-234.5487252955742
 31
0.0
  0
LINE
  5
3DF
330
1F
100
AcDbEntity
  8
0-0
  6
Continuous
 62
     7
370
     9
100
AcDbLine
 10
-1087.086593402033
 20
-234.5487252955742
 30
0.0
 11
-1087.086593402033
 21
-175.3487252955739
 31
0.0
  0
ARC
  5
3E0
330
1F
100
AcDbEntity
  8
0-0
  6
Continuous
 62
     7
370
     9
100
AcDbCircle
 10
-1102.086593402033
 20
-175.3487252955739
 30
0.0
 40
15.0
100
AcDbArc
 50
0.0
 51
180.0
  0
ARC
  5
3E1
330
1F
100
AcDbEntity
  8
0-0
  6
Continuous
 62
     7
370
     9
100
AcDbCircle
 10
-1102.086593402033
 20
-234.5487252955742
 30
0.0
 40
15.0
100
AcDbArc
 50
180.0
 51
0.0
  0
ARC
  5
3E2
330
1F
100
AcDbEntity
  8
0-0
  6
Continuous
 62
    92
370
    13
100
AcDbCircle
 10
-1121.586593402033
 20
-264.4487252955743
 30
0.0
 40
1.5
100
AcDbArc
 50
180.0
 51
270.0
  0
LINE
  5
3E3
330
1F
100
AcDbEntity
  8
0-0
  6
Continuous
 62
    92
370
    13
100
AcDbLine
 10
-1123.086593402033
 20
-264.4487252955743
 30
0.0
 11
-1123.086593402033
 21
-145.4487252955738
 31
0.0
  0
LINE
  5
3E4
330
1F
100
AcDbEntity
  8
0-0
  6
Continuous
 62
    92
370
    13
100
AcDbLine
 10
-1121.586593402033
 20
-265.9487252955738
 30
0.0
 11
-1082.586593402034
 21
-265.9487252955738
 31
0.0
  0
ARC
  5
3E5
330
1F
100
AcDbEntity
  8
0-0
  6
Continuous
 62
    92
370
    13
100
AcDbCircle
 10
-1082.586593402034
 20
-264.4487252955743
 30
0.0
 40
1.5
100
AcDbArc
 50
270.0
 51
0.0
  0
LINE
  5
3E6
330
1F
100
AcDbEntity
  8
0-0
  6
Continuous
 62
    92
370
    13
100
AcDbLine
 10
-1081.086593402034
 20
-264.4487252955743
 30
0.0
 11
-1081.086593402034
 21
-145.4487252955738
 31
0.0
  0
ARC
  5
3E7
330
1F
100
AcDbEntity
  8
0-0
  6
Continuous
 62
    92
370
    13
100
AcDbCircle
 10
-1082.586593402034
 20
-145.4487252955738
 30
0.0
 40
1.5
100
AcDbArc
 50
0.0
 51
90.00000000000001
  0
LINE
  5
3E8
330
1F
100
AcDbEntity
  8
0-0
  6
Continuous
 62
    92
370
    13
100
AcDbLine
 10
-1082.586593402034
 20
-143.9487252955739
 30
0.0
 11
-1121.586593402033
 21
-143.9487252955739
 31
0.0
  0
ARC
  5
3E9
330
1F
100
AcDbEntity
  8
0-0
  6
Continuous
 62
    92
370
    13
100
AcDbCircle
 10
-1121.586593402033
 20
-145.4487252955738
 30
0.0
 40
1.5
100
AcDbArc
 50
90.0
 51
180.0
  0
LINE
  5
3EA
330
1F
100
AcDbEntity
  8
0-0
  6
Continuous
 62
    92
370
    13
100
AcDbLine
 10
1996.913406597966
 20
-1167.448725295574
 30
0.0
 11
-1150.086593402034
 21
-1167.448725295574
 31
0.0
  0
LINE
  5
3EB
330
1F
100
AcDbEntity
  8
0-0
  6
Continuous
 62
    92
370
    13
100
AcDbLine
 10
2026.913406597966
 20
-1182.448725295574
 30
0.0
 11
-1180.086593402034
 21
-1182.448725295574
 31
0.0
  0
LINE
  5
3EC
330
1F
100
AcDbEntity
  8
0-0
  6
Continuous
 62
    92
370
    13
100
AcDbLine
 10
-1180.086593402034
 20
864.5512747044255
 30
0.0
 11
2026.913406597966
 21
864.5512747044255
 31
0.0
  0
LINE
  5
3ED
330
1F
100
AcDbEntity
  8
0-0
  6
Continuous
 62
    92
370
    13
100
AcDbLine
 10
-1150.086593402034
 20
828.5512747044259
 30
0.0
 11
1996.913406597966
 21
828.5512747044259
 31
0.0
  0
LINE
  5
3EE
330
1F
100
AcDbEntity
  8
0-0
  6
Continuous
 62
    92
370
    13
100
AcDbLine
 10
1996.913406597966
 20
-1182.448725295574
 30
0.0
 11
1996.913406597966
 21
864.5512747044255
 31
0.0
  0
LINE
  5
3EF
330
1F
100
AcDbEntity
  8
0-0
  6
Continuous
 62
    92
370
    13
100
AcDbLine
 10
-1150.086593402034
 20
-1182.448725295574
 30
0.0
 11
-1150.086593402034
 21
864.5512747044255
 31
0.0
  0
LINE
  5
3F0
330
1F
100
AcDbEntity
  8
0-0
  6
JWW_DASHED1
 62
   120
370
     5
100
AcDbLine
 10
1216.913406597966
 20
-1167.448725295574
 30
0.0
 11
1216.913406597966
 21
828.5512747044259
 31
0.0
  0
LINE
  5
3F1
330
1F
100
AcDbEntity
  8
0-0
  6
JWW_DASHED1
 62
   120
370
     5
100
AcDbLine
 10
1186.913406597966
 20
-1167.448725295574
 30
0.0
 11
1186.913406597966
 21
828.5512747044259
 31
0.0
  0
LINE
  5
3F2
330
1F
100
AcDbEntity
  8
0-0
  6
Continuous
 62
    92
370
    13
100
AcDbLine
 10
2026.913406597966
 20
864.5512747044255
 30
0.0
 11
2026.913406597966
 21
-1182.448725295574
 31
0.0
  0
LINE
  5
3F3
330
1F
100
AcDbEntity
  8
0-0
  6
Continuous
 62
    92
370
    13
100
AcDbLine
 10
-1180.086593402034
 20
-1182.448725295574
 30
0.0
 11
-1180.086593402034
 21
864.5512747044255
 31
0.0
  0
LINE
  5
3F4
330
1F
100
AcDbEntity
  8
0-0
  6
Continuous
 62
    92
370
    13
100
AcDbLine
 10
-1150.086593402034
 20
820.5512747044263
 30
0.0
 11
1216.913406597966
 21
820.5512747044263
 31
0.0
  0
ENDSEC
  0
SECTION
  2
OBJECTS
  0
DICTIONARY
  5
C
330
0
100
AcDbDictionary
281
     1
  3
ACAD_GROUP
350
D
  3
ACAD_LAYOUT
350
1A
  3
ACAD_MATERIAL
350
3B
  3
ACAD_MLEADERSTYLE
350
3F6
  3
ACAD_MLINESTYLE
350
17
  3
ACAD_PLOTSETTINGS
350
19
  3
ACAD_PLOTSTYLENAME
350
E
  3
ACAD_TABLESTYLE
350
3F5
  3
ACAD_VISUALSTYLE
350
2A
  0
DICTIONARY
  5
D
102
{ACAD_REACTORS
330
C
102
}
330
C
100
AcDbDictionary
281
     1
  0
DICTIONARY
  5
1A
102
{ACAD_REACTORS
330
C
102
}
330
C
100
AcDbDictionary
281
     1
  3
Layout1
350
1E
  3
Layout2
350
26
  3
Model
350
22
  0
DICTIONARY
  5
3B
102
{ACAD_REACTORS
330
C
102
}
330
C
100
AcDbDictionary
281
     1
  3
ByBlock
350
3D
  3
ByLayer
350
3C
  3
Global
350
3E
  0
DICTIONARY
  5
3F6
102
{ACAD_REACTORS
330
C
102
}
330
C
100
AcDbDictionary
281
     1
  0
DICTIONARY
  5
17
102
{ACAD_REACTORS
330
C
102
}
330
C
100
AcDbDictionary
281
     1
  3
Standard
350
18
  0
DICTIONARY
  5
19
102
{ACAD_REACTORS
330
C
102
}
330
C
100
AcDbDictionary
281
     1
  0
ACDBDICTIONARYWDFLT
  5
E
102
{ACAD_REACTORS
330
C
102
}
330
C
100
AcDbDictionary
281
     1
  3
Normal
350
F
100
AcDbDictionaryWithDefault
340
F
  0
DICTIONARY
  5
3F5
102
{ACAD_REACTORS
330
C
102
}
330
C
100
AcDbDictionary
281
     1
  0
DICTIONARY
  5
2A
102
{ACAD_REACTORS
330
C
102
}
330
C
100
AcDbDictionary
281
     1
  3
2dWireframe
350
2F
  3
3D Hidden
350
31
  3
3dWireframe
350
30
  3
Basic
350
32
  3
Brighten
350
36
  3
ColorChange
350
3A
  3
Conceptual
350
34
  3
Dim
350
35
  3
Facepattern
350
39
  3
Flat
350
2B
  3
FlatWithEdges
350
2C
  3
Gouraud
350
2D
  3
GouraudWithEdges
350
2E
  3
Linepattern
350
38
  3
Realistic
350
33
  3
Thicken
350
37
  0
LAYOUT
  5
1E
102
{ACAD_REACTORS
330
1A
102
}
330
1A
100
AcDbPlotSettings
  1

  2
none_device
  4

  6

 40
0.0
 41
0.0
 42
0.0
 43
0.0
 44
0.0
 45
0.0
 46
0.0
 47
0.0
 48
0.0
 49
0.0
140
0.0
141
0.0
142
1.0
143
1.0
 70
   688
 72
     0
 73
     0
 74
     5
  7

 75
    16
 76
     0
 77
     5
 78
   300
147
1.0
148
0.0
149
0.0
100
AcDbLayout
  1
Layout1
 70
     1
 71
     1
 10
0.0
 20
0.0
 11
420.0
 21
297.0
 12
0.0
 22
0.0
 32
0.0
 14
1.000000000000000E+20
 24
1.000000000000000E+20
 34
1.000000000000000E+20
 15
-1.000000000000000E+20
 25
-1.000000000000000E+20
 35
-1.000000000000000E+20
146
0.0
 13
0.0
 23
0.0
 33
0.0
 16
1.0
 26
0.0
 36
0.0
 17
0.0
 27
1.0
 37
0.0
 76
     0
330
1B
  0
LAYOUT
  5
26
102
{ACAD_REACTORS
330
1A
102
}
330
1A
100
AcDbPlotSettings
  1

  2
none_device
  4

  6

 40
0.0
 41
0.0
 42
0.0
 43
0.0
 44
0.0
 45
0.0
 46
0.0
 47
0.0
 48
0.0
 49
0.0
140
0.0
141
0.0
142
1.0
143
1.0
 70
   688
 72
     0
 73
     0
 74
     5
  7

 75
    16
 76
     0
 77
     5
 78
   300
147
1.0
148
0.0
149
0.0
100
AcDbLayout
  1
Layout2
 70
     1
 71
     2
 10
0.0
 20
0.0
 11
0.0
 21
0.0
 12
0.0
 22
0.0
 32
0.0
 14
0.0
 24
0.0
 34
0.0
 15
0.0
 25
0.0
 35
0.0
146
0.0
 13
0.0
 23
0.0
 33
0.0
 16
1.0
 26
0.0
 36
0.0
 17
0.0
 27
1.0
 37
0.0
 76
     0
330
23
  0
LAYOUT
  5
22
102
{ACAD_REACTORS
330
1A
102
}
330
1A
100
AcDbPlotSettings
  1

  2
none_device
  4

  6

 40
0.0
 41
0.0
 42
0.0
 43
0.0
 44
0.0
 45
0.0
 46
0.0
 47
0.0
 48
0.0
 49
0.0
140
0.0
141
0.0
142
1.0
143
1.0
 70
  1712
 72
     0
 73
     0
 74
     0
  7

 75
     0
 76
     0
 77
     5
 78
   300
147
1.0
148
0.0
149
0.0
100
AcDbLayout
  1
Model
 70
     1
 71
     0
 10
-4455.0
 20
-3150.0
 11
4455.0
 21
3150.0
 12
0.0
 22
0.0
 32
0.0
 14
-4455.0
 24
-3150.0
 34
0.0
 15
4455.0
 25
3150.0
 35
0.0
146
0.0
 13
0.0
 23
0.0
 33
0.0
 16
1.0
 26
0.0
 36
0.0
 17
0.0
 27
1.0
 37
0.0
 76
     0
330
1F
331
29
  0
MATERIAL
  5
3D
102
{ACAD_REACTORS
330
3B
102
}
330
3B
100
AcDbMaterial
  1
ByBlock
 72
     1
 94
      127
  0
MATERIAL
  5
3C
102
{ACAD_REACTORS
330
3B
102
}
330
3B
100
AcDbMaterial
  1
ByLayer
 72
     1
 94
      127
  0
MATERIAL
  5
3E
102
{ACAD_REACTORS
330
3B
102
}
330
3B
100
AcDbMaterial
  1
Global
 72
     1
 94
      127
  0
MLINESTYLE
  5
18
102
{ACAD_REACTORS
330
17
102
}
330
17
100
AcDbMlineStyle
  2
Standard
 70
     0
  3

 62
   256
 51
90.0
 52
90.0
 71
     2
 49
0.5
 62
   256
  6
BYLAYER
 49
-0.5
 62
   256
  6
BYLAYER
  0
ACDBPLACEHOLDER
  5
F
102
{ACAD_REACTORS
330
E
102
}
330
E
  0
VISUALSTYLE
  5
2F
102
{ACAD_REACTORS
330
2A
102
}
330
2A
100
AcDbVisualStyle
  2
2dWireframe
 70
     4
177
     2
291
     0
 71
     0
176
     1
 72
     2
176
     1
 73
     0
176
     1
 90
        0
176
     1
 40
-0.6
176
     1
 41
-30.0
176
     1
 62
     5
 63
     7
421
 16777215
176
     1
 74
     1
176
     1
 91
        4
176
     1
 64
     7
176
     1
 65
   257
176
     1
 75
     1
176
     1
175
     1
176
     1
 42
1.0
176
     1
 92
        0
176
     1
 66
   257
176
     1
 43
1.0
176
     1
 76
     1
176
     1
 77
     6
176
     1
 78
     2
176
     1
 67
     7
176
     1
 79
     5
176
     1
170
     0
176
     1
171
     0
176
     1
290
     0
176
     1
 93
        1
176
     1
 44
0.0
176
     1
173
     0
176
     1
  0
VISUALSTYLE
  5
31
102
{ACAD_REACTORS
330
2A
102
}
330
2A
100
AcDbVisualStyle
  2
3D Hidden
 70
     6
177
     2
291
     0
 71
     1
176
     1
 72
     2
176
     1
 73
     2
176
     1
 90
        0
176
     1
 40
-0.6
176
     1
 41
-30.0
176
     1
 62
     5
 63
     7
421
 16777215
176
     1
 74
     2
176
     1
 91
        2
176
     1
 64
     7
176
     1
 65
   257
176
     1
 75
     2
176
     1
175
     1
176
     1
 42
40.0
176
     1
 92
        0
176
     1
 66
   257
176
     1
 43
1.0
176
     1
 76
     1
176
     1
 77
     6
176
     1
 78
     2
176
     1
 67
     7
176
     1
 79
     3
176
     1
170
     0
176
     1
171
     0
176
     1
290
     0
176
     1
 93
        1
176
     1
 44
0.0
176
     1
173
     0
176
     1
  0
VISUALSTYLE
  5
30
102
{ACAD_REACTORS
330
2A
102
}
330
2A
100
AcDbVisualStyle
  2
3dWireframe
 70
     5
177
     2
291
     0
 71
     0
176
     1
 72
     2
176
     1
 73
     0
176
     1
 90
        0
176
     1
 40
-0.6
176
     1
 41
-30.0
176
     1
 62
     5
 63
     7
421
 16777215
176
     1
 74
     1
176
     1
 91
        4
176
     1
 64
     7
176
     1
 65
   257
176
     1
 75
     1
176
     1
175
     1
176
     1
 42
1.0
176
     1
 92
        0
176
     1
 66
   257
176
     1
 43
1.0
176
     1
 76
     1
176
     1
 77
     6
176
     1
 78
     2
176
     1
 67
     7
176
     1
 79
     5
176
     1
170
     0
176
     1
171
     0
176
     1
290
     0
176
     1
 93
        1
176
     1
 44
0.0
176
     1
173
     0
176
     1
  0
VISUALSTYLE
  5
32
102
{ACAD_REACTORS
330
2A
102
}
330
2A
100
AcDbVisualStyle
  2
Basic
 70
     7
177
     2
291
     1
 71
     1
176
     1
 72
     0
176
     1
 73
     1
176
     1
 90
        0
176
     1
 40
-0.6
176
     1
 41
-30.0
176
     1
 62
     5
 63
     7
421
 16777215
176
     1
 74
     0
176
     1
 91
        4
176
     1
 64
     7
176
     1
 65
   257
176
     1
 75
     1
176
     1
175
     1
176
     1
 42
1.0
176
     1
 92
        8
176
     1
 66
     7
176
     1
 43
1.0
176
     1
 76
     1
176
     1
 77
     6
176
     1
 78
     2
176
     1
 67
     7
176
     1
 79
     5
176
     1
170
     0
176
     1
171
     0
176
     1
290
     0
176
     1
 93
        1
176
     1
 44
0.0
176
     1
173
     0
176
     1
  0
VISUALSTYLE
  5
36
102
{ACAD_REACTORS
330
2A
102
}
330
2A
100
AcDbVisualStyle
  2
Brighten
 70
    12
177
     2
291
     1
 71
     2
176
     1
 72
     2
176
     1
 73
     0
176
     1
 90
        0
176
     1
 40
-0.6
176
     1
 41
-30.0
176
     1
 62
     5
 63
     7
421
 16777215
176
     1
 74
     1
176
     1
 91
        4
176
     1
 64
     7
176
     1
 65
   257
176
     1
 75
     1
176
     1
175
     1
176
     1
 42
1.0
176
     1
 92
        8
176
     1
 66
     7
176
     1
 43
1.0
176
     1
 76
     1
176
     1
 77
     6
176
     1
 78
     2
176
     1
 67
     7
176
     1
 79
     5
176
     1
170
     0
176
     1
171
     0
176
     1
290
     0
176
     1
 93
        1
176
     1
 44
50.0
176
     1
173
     0
176
     1
  0
VISUALSTYLE
  5
3A
102
{ACAD_REACTORS
330
2A
102
}
330
2A
100
AcDbVisualStyle
  2
ColorChange
 70
    16
177
     2
291
     1
 71
     2
176
     1
 72
     2
176
     1
 73
     3
176
     1
 90
        0
176
     1
 40
-0.6
176
     1
 41
-30.0
176
     1
 62
     5
 63
     8
421
  8421504
176
     1
 74
     1
176
     1
 91
        4
176
     1
 64
     7
176
     1
 65
   257
176
     1
 75
     1
176
     1
175
     1
176
     1
 42
1.0
176
     1
 92
        8
176
     1
 66
     8
424
  8421504
176
     1
 43
1.0
176
     1
 76
     1
176
     1
 77
     6
176
     1
 78
     2
176
     1
 67
     7
176
     1
 79
     5
176
     1
170
     0
176
     1
171
     0
176
     1
290
     0
176
     1
 93
        1
176
     1
 44
0.0
176
     1
173
     0
176
     1
  0
VISUALSTYLE
  5
34
102
{ACAD_REACTORS
330
2A
102
}
330
2A
100
AcDbVisualStyle
  2
Conceptual
 70
     9
177
     2
291
     0
 71
     3
176
     1
 72
     2
176
     1
 73
     0
176
     1
 90
        0
176
     1
 40
-0.6
176
     1
 41
-30.0
176
     1
 62
     5
 63
     7
421
 16777215
176
     1
 74
     2
176
     1
 91
        2
176
     1
 64
     7
176
     1
 65
   257
176
     1
 75
     1
176
     1
175
     1
176
     1
 42
40.0
176
     1
 92
        8
176
     1
 66
     7
176
     1
 43
1.0
176
     1
 76
     1
176
     1
 77
     6
176
     1
 78
     2
176
     1
 67
     7
176
     1
 79
     3
176
     1
170
     0
176
     1
171
     0
176
     1
290
     0
176
     1
 93
        1
176
     1
 44
0.0
176
     1
173
     0
176
     1
  0
VISUALSTYLE
  5
35
102
{ACAD_REACTORS
330
2A
102
}
330
2A
100
AcDbVisualStyle
  2
Dim
 70
    11
177
     2
291
     1
 71
     2
176
     1
 72
     2
176
     1
 73
     0
176
     1
 90
        0
176
     1
 40
-0.6
176
     1
 41
-30.0
176
     1
 62
     5
 63
     7
421
 16777215
176
     1
 74
     1
176
     1
 91
        4
176
     1
 64
     7
176
     1
 65
   257
176
     1
 75
     1
176
     1
175
     1
176
     1
 42
1.0
176
     1
 92
        8
176
     1
 66
     7
176
     1
 43
1.0
176
     1
 76
     1
176
     1
 77
     6
176
     1
 78
     2
176
     1
 67
     7
176
     1
 79
     5
176
     1
170
     0
176
     1
171
     0
176
     1
290
     0
176
     1
 93
        1
176
     1
 44
-50.0
176
     1
173
     0
176
     1
  0
VISUALSTYLE
  5
39
102
{ACAD_REACTORS
330
2A
102
}
330
2A
100
AcDbVisualStyle
  2
Facepattern
 70
    15
177
     2
291
     1
 71
     2
176
     1
 72
     2
176
     1
 73
     0
176
     1
 90
        0
176
     1
 40
-0.6
176
     1
 41
-30.0
176
     1
 62
     5
 63
     7
421
 16777215
176
     1
 74
     1
176
     1
 91
        4
176
     1
 64
     7
176
     1
 65
   257
176
     1
 75
     1
176
     1
175
     1
176
     1
 42
1.0
176
     1
 92
        8
176
     1
 66
     7
176
     1
 43
1.0
176
     1
 76
     1
176
     1
 77
     6
176
     1
 78
     2
176
     1
 67
     7
176
     1
 79
     5
176
     1
170
     0
176
     1
171
     0
176
     1
290
     0
176
     1
 93
        1
176
     1
 44
0.0
176
     1
173
     0
176
     1
  0
VISUALSTYLE
  5
2B
102
{ACAD_REACTORS
330
2A
102
}
330
2A
100
AcDbVisualStyle
  2
Flat
 70
     0
177
     2
291
     1
 71
     2
176
     1
 72
     1
176
     1
 73
     1
176
     1
 90
        2
176
     1
 40
-0.6
176
     1
 41
30.0
176
     1
 62
     5
 63
     7
421
 16777215
176
     1
 74
     0
176
     1
 91
        4
176
     1
 64
     7
176
     1
 65
   257
176
     1
 75
     1
176
     1
175
     1
176
     1
 42
1.0
176
     1
 92
        8
176
     1
 66
     7
176
     1
 43
1.0
176
     1
 76
     1
176
     1
 77
     6
176
     1
 78
     2
176
     1
 67
     7
176
     1
 79
     5
176
     1
170
     0
176
     1
171
     0
176
     1
290
     0
176
     1
 93
       13
176
     1
 44
0.0
176
     1
173
     0
176
     1
  0
VISUALSTYLE
  5
2C
102
{ACAD_REACTORS
330
2A
102
}
330
2A
100
AcDbVisualStyle
  2
FlatWithEdges
 70
     1
177
     2
291
     1
 71
     2
176
     1
 72
     1
176
     1
 73
     1
176
     1
 90
        2
176
     1
 40
-0.6
176
     1
 41
30.0
176
     1
 62
     5
 63
     7
421
 16777215
176
     1
 74
     1
176
     1
 91
        4
176
     1
 64
     7
176
     1
 65
   257
176
     1
 75
     1
176
     1
175
     1
176
     1
 42
1.0
176
     1
 92
        0
176
     1
 66
   257
176
     1
 43
1.0
176
     1
 76
     1
176
     1
 77
     6
176
     1
 78
     2
176
     1
 67
     7
176
     1
 79
     5
176
     1
170
     0
176
     1
171
     0
176
     1
290
     0
176
     1
 93
       13
176
     1
 44
0.0
176
     1
173
     0
176
     1
  0
VISUALSTYLE
  5
2D
102
{ACAD_REACTORS
330
2A
102
}
330
2A
100
AcDbVisualStyle
  2
Gouraud
 70
     2
177
     2
291
     1
 71
     2
176
     1
 72
     2
176
     1
 73
     1
176
     1
 90
        2
176
     1
 40
-0.6
176
     1
 41
30.0
176
     1
 62
     5
 63
     7
421
 16777215
176
     1
 74
     0
176
     1
 91
        4
176
     1
 64
     7
176
     1
 65
   257
176
     1
 75
     1
176
     1
175
     1
176
     1
 42
1.0
176
     1
 92
        0
176
     1
 66
     7
176
     1
 43
1.0
176
     1
 76
     1
176
     1
 77
     6
176
     1
 78
     2
176
     1
 67
     7
176
     1
 79
     5
176
     1
170
     0
176
     1
171
     0
176
     1
290
     0
176
     1
 93
       13
176
     1
 44
0.0
176
     1
173
     0
176
     1
  0
VISUALSTYLE
  5
2E
102
{ACAD_REACTORS
330
2A
102
}
330
2A
100
AcDbVisualStyle
  2
GouraudWithEdges
 70
     3
177
     2
291
     1
 71
     2
176
     1
 72
     2
176
     1
 73
     1
176
     1
 90
        2
176
     1
 40
-0.6
176
     1
 41
30.0
176
     1
 62
     5
 63
     7
421
 16777215
176
     1
 74
     1
176
     1
 91
        4
176
     1
 64
     7
176
     1
 65
   257
176
     1
 75
     1
176
     1
175
     1
176
     1
 42
1.0
176
     1
 92
        0
176
     1
 66
   257
176
     1
 43
1.0
176
     1
 76
     1
176
     1
 77
     6
176
     1
 78
     2
176
     1
 67
     7
176
     1
 79
     5
176
     1
170
     0
176
     1
171
     0
176
     1
290
     0
176
     1
 93
       13
176
     1
 44
0.0
176
     1
173
     0
176
     1
  0
VISUALSTYLE
  5
38
102
{ACAD_REACTORS
330
2A
102
}
330
2A
100
AcDbVisualStyle
  2
Linepattern
 70
    14
177
     2
291
     1
 71
     2
176
     1
 72
     2
176
     1
 73
     0
176
     1
 90
        0
176
     1
 40
-0.6
176
     1
 41
-30.0
176
     1
 62
     5
 63
     7
421
 16777215
176
     1
 74
     1
176
     1
 91
        4
176
     1
 64
     7
176
     1
 65
   257
176
     1
 75
     7
176
     1
175
     7
176
     1
 42
1.0
176
     1
 92
        8
176
     1
 66
     7
176
     1
 43
1.0
176
     1
 76
     1
176
     1
 77
     6
176
     1
 78
     2
176
     1
 67
     7
176
     1
 79
     5
176
     1
170
     0
176
     1
171
     0
176
     1
290
     0
176
     1
 93
        1
176
     1
 44
0.0
176
     1
173
     0
176
     1
  0
VISUALSTYLE
  5
33
102
{ACAD_REACTORS
330
2A
102
}
330
2A
100
AcDbVisualStyle
  2
Realistic
 70
     8
177
     2
291
     0
 71
     2
176
     1
 72
     2
176
     1
 73
     0
176
     1
 90
        0
176
     1
 40
-0.6
176
     1
 41
-30.0
176
     1
 62
     5
 63
     7
421
 16777215
176
     1
 74
     1
176
     1
 91
        0
176
     1
 64
     7
176
     1
 65
   257
176
     1
 75
     1
176
     1
175
     1
176
     1
 42
1.0
176
     1
 92
        8
176
     1
 66
     8
424
  7895160
176
     1
 43
1.0
176
     1
 76
     1
176
     1
 77
     6
176
     1
 78
     2
176
     1
 67
     7
176
     1
 79
     5
176
     1
170
     0
176
     1
171
     0
176
     1
290
     0
176
     1
 93
       13
176
     1
 44
0.0
176
     1
173
     0
176
     1
  0
VISUALSTYLE
  5
37
102
{ACAD_REACTORS
330
2A
102
}
330
2A
100
AcDbVisualStyle
  2
Thicken
 70
    13
177
     2
291
     1
 71
     2
176
     1
 72
     2
176
     1
 73
     0
176
     1
 90
        0
176
     1
 40
-0.6
176
     1
 41
-30.0
176
     1
 62
     5
 63
     7
421
 16777215
176
     1
 74
     1
176
     1
 91
        4
176
     1
 64
     7
176
     1
 65
   257
176
     1
 75
     1
176
     1
175
     1
176
     1
 42
1.0
176
     1
 92
       12
176
     1
 66
     7
176
     1
 43
1.0
176
     1
 76
     1
176
     1
 77
     6
176
     1
 78
     2
176
     1
 67
     7
176
     1
 79
     5
176
     1
170
     0
176
     1
171
     0
176
     1
290
     0
176
     1
 93
        1
176
     1
 44
0.0
176
     1
173
     0
176
     1
  0
ENDSEC
  0
EOF
