  0
SECTION
  2
HEADER
  9
$ACADVER
  1
AC1024
  9
$ACADMAINTVER
 70
     6
  9
$DWGCODEPAGE
  3
ANSI_932
  9
$INSBASE
 10
0.0
 20
0.0
 30
0.0
  9
$EXTMIN
 10
-4455.0
 20
-3150.0
 30
0.0
  9
$EXTMAX
 10
4455.0
 20
3150.0
 30
0.0
  9
$LIMMIN
 10
-4455.0
 20
-3150.0
  9
$LIMMAX
 10
4455.0
 20
3150.0
  9
$ORTHOMODE
 70
     0
  9
$REGENMODE
 70
     1
  9
$FILLMODE
 70
     1
  9
$QTEXTMODE
 70
     0
  9
$MIRRTEXT
 70
     1
  9
$LTSCALE
 40
30.0
  9
$ATTMODE
 70
     1
  9
$TEXTSIZE
 40
2.5
  9
$TRACEWID
 40
1.0
  9
$TEXTSTYLE
  7
Standard
  9
$CLAYER
  8
0
  9
$CELTYPE
  6
ByLayer
  9
$CECOLOR
 62
   256
  9
$CELTSCALE
 40
1.0
  9
$DISPSILH
 70
     0
  9
$DIMSCALE
 40
1.0
  9
$DIMASZ
 40
2.5
  9
$DIMEXO
 40
0.625
  9
$DIMDLI
 40
3.75
  9
$DIMRND
 40
0.0
  9
$DIMDLE
 40
0.0
  9
$DIMEXE
 40
1.25
  9
$DIMTP
 40
0.0
  9
$DIMTM
 40
0.0
  9
$DIMTXT
 40
2.5
  9
$DIMCEN
 40
2.5
  9
$DIMTSZ
 40
0.0
  9
$DIMTOL
 70
     0
  9
$DIMLIM
 70
     0
  9
$DIMTIH
 70
     0
  9
$DIMTOH
 70
     0
  9
$DIMSE1
 70
     0
  9
$DIMSE2
 70
     0
  9
$DIMTAD
 70
     1
  9
$DIMZIN
 70
     8
  9
$DIMBLK
  1

  9
$DIMASO
 70
     1
  9
$DIMSHO
 70
     1
  9
$DIMPOST
  1

  9
$DIMAPOST
  1

  9
$DIMALT
 70
     0
  9
$DIMALTD
 70
     3
  9
$DIMALTF
 40
0.03937007874016
  9
$DIMLFAC
 40
1.0
  9
$DIMTOFL
 70
     1
  9
$DIMTVP
 40
0.0
  9
$DIMTIX
 70
     0
  9
$DIMSOXD
 70
     0
  9
$DIMSAH
 70
     0
  9
$DIMBLK1
  1

  9
$DIMBLK2
  1

  9
$DIMSTYLE
  2
ISO-25
  9
$DIMCLRD
 70
     0
  9
$DIMCLRE
 70
     0
  9
$DIMCLRT
 70
     0
  9
$DIMTFAC
 40
1.0
  9
$DIMGAP
 40
0.625
  9
$DIMJUST
 70
     0
  9
$DIMSD1
 70
     0
  9
$DIMSD2
 70
     0
  9
$DIMTOLJ
 70
     0
  9
$DIMTZIN
 70
     8
  9
$DIMALTZ
 70
     0
  9
$DIMALTTZ
 70
     0
  9
$DIMUPT
 70
     0
  9
$DIMDEC
 70
     2
  9
$DIMTDEC
 70
     2
  9
$DIMALTU
 70
     2
  9
$DIMALTTD
 70
     3
  9
$DIMTXSTY
  7
Standard
  9
$DIMAUNIT
 70
     0
  9
$DIMADEC
 70
     0
  9
$DIMALTRND
 40
0.0
  9
$DIMAZIN
 70
     0
  9
$DIMDSEP
 70
    44
  9
$DIMATFIT
 70
     3
  9
$DIMFRAC
 70
     0
  9
$DIMLDRBLK
  1

  9
$DIMLUNIT
 70
     2
  9
$DIMLWD
 70
    -2
  9
$DIMLWE
 70
    -2
  9
$DIMTMOVE
 70
     0
  9
$DIMFXL
 40
1.0
  9
$DIMFXLON
 70
     0
  9
$DIMJOGANG
 40
0.7853981633974483
  9
$DIMTFILL
 70
     0
  9
$DIMTFILLCLR
 70
     0
  9
$DIMARCSYM
 70
     0
  9
$DIMLTYPE
  6

  9
$DIMLTEX1
  6

  9
$DIMLTEX2
  6

  9
$DIMTXTDIRECTION
 70
     0
  9
$LUNITS
 70
     2
  9
$LUPREC
 70
     4
  9
$SKETCHINC
 40
1.0
  9
$FILLETRAD
 40
10.0
  9
$AUNITS
 70
     0
  9
$AUPREC
 70
     0
  9
$MENU
  1
.
  9
$ELEVATION
 40
0.0
  9
$PELEVATION
 40
0.0
  9
$THICKNESS
 40
0.0
  9
$LIMCHECK
 70
     0
  9
$CHAMFERA
 40
10.0
  9
$CHAMFERB
 40
10.0
  9
$CHAMFERC
 40
20.0
  9
$CHAMFERD
 40
0.0
  9
$SKPOLY
 70
     0
  9
$TDCREATE
 40
2457953.401025266
  9
$TDUCREATE
 40
2457953.026025266
  9
$TDUPDATE
 40
2457953.401025278
  9
$TDUUPDATE
 40
2457953.026025278
  9
$TDINDWG
 40
0.0000000116
  9
$TDUSRTIMER
 40
0.0000000116
  9
$USRTIMER
 70
     1
  9
$ANGBASE
 50
0.0
  9
$ANGDIR
 70
     0
  9
$PDMODE
 70
     0
  9
$PDSIZE
 40
0.0
  9
$PLINEWID
 40
0.0
  9
$SPLFRAME
 70
     0
  9
$SPLINETYPE
 70
     6
  9
$SPLINESEGS
 70
     8
  9
$HANDSEED
  5
35B
  9
$SURFTAB1
 70
     6
  9
$SURFTAB2
 70
     6
  9
$SURFTYPE
 70
     6
  9
$SURFU
 70
     6
  9
$SURFV
 70
     6
  9
$UCSBASE
  2

  9
$UCSNAME
  2

  9
$UCSORG
 10
0.0
 20
0.0
 30
0.0
  9
$UCSXDIR
 10
1.0
 20
0.0
 30
0.0
  9
$UCSYDIR
 10
0.0
 20
1.0
 30
0.0
  9
$UCSORTHOREF
  2

  9
$UCSORTHOVIEW
 70
     0
  9
$UCSORGTOP
 10
0.0
 20
0.0
 30
0.0
  9
$UCSORGBOTTOM
 10
0.0
 20
0.0
 30
0.0
  9
$UCSORGLEFT
 10
0.0
 20
0.0
 30
0.0
  9
$UCSORGRIGHT
 10
0.0
 20
0.0
 30
0.0
  9
$UCSORGFRONT
 10
0.0
 20
0.0
 30
0.0
  9
$UCSORGBACK
 10
0.0
 20
0.0
 30
0.0
  9
$PUCSBASE
  2

  9
$PUCSNAME
  2

  9
$PUCSORG
 10
0.0
 20
0.0
 30
0.0
  9
$PUCSXDIR
 10
1.0
 20
0.0
 30
0.0
  9
$PUCSYDIR
 10
0.0
 20
1.0
 30
0.0
  9
$PUCSORTHOREF
  2

  9
$PUCSORTHOVIEW
 70
     0
  9
$PUCSORGTOP
 10
0.0
 20
0.0
 30
0.0
  9
$PUCSORGBOTTOM
 10
0.0
 20
0.0
 30
0.0
  9
$PUCSORGLEFT
 10
0.0
 20
0.0
 30
0.0
  9
$PUCSORGRIGHT
 10
0.0
 20
0.0
 30
0.0
  9
$PUCSORGFRONT
 10
0.0
 20
0.0
 30
0.0
  9
$PUCSORGBACK
 10
0.0
 20
0.0
 30
0.0
  9
$USERI1
 70
     0
  9
$USERI2
 70
     0
  9
$USERI3
 70
     0
  9
$USERI4
 70
     0
  9
$USERI5
 70
     0
  9
$USERR1
 40
0.0
  9
$USERR2
 40
0.0
  9
$USERR3
 40
0.0
  9
$USERR4
 40
0.0
  9
$USERR5
 40
0.0
  9
$WORLDVIEW
 70
     1
  9
$SHADEDGE
 70
     3
  9
$SHADEDIF
 70
    70
  9
$TILEMODE
 70
     1
  9
$MAXACTVP
 70
    64
  9
$PINSBASE
 10
0.0
 20
0.0
 30
0.0
  9
$PLIMCHECK
 70
     0
  9
$PEXTMIN
 10
1.000000000000000E+20
 20
1.000000000000000E+20
 30
1.000000000000000E+20
  9
$PEXTMAX
 10
-1.000000000000000E+20
 20
-1.000000000000000E+20
 30
-1.000000000000000E+20
  9
$PLIMMIN
 10
0.0
 20
0.0
  9
$PLIMMAX
 10
420.0
 20
297.0
  9
$UNITMODE
 70
     0
  9
$VISRETAIN
 70
     1
  9
$PLINEGEN
 70
     0
  9
$PSLTSCALE
 70
     1
  9
$TREEDEPTH
 70
  3020
  9
$CMLSTYLE
  2
Standard
  9
$CMLJUST
 70
     0
  9
$CMLSCALE
 40
20.0
  9
$PROXYGRAPHICS
 70
     1
  9
$MEASUREMENT
 70
     1
  9
$CELWEIGHT
370
    -1
  9
$ENDCAPS
280
     0
  9
$JOINSTYLE
280
     0
  9
$LWDISPLAY
290
     0
  9
$INSUNITS
 70
     4
  9
$HYPERLINKBASE
  1

  9
$STYLESHEET
  1

  9
$XEDIT
290
     1
  9
$CEPSNTYPE
380
     0
  9
$PSTYLEMODE
290
     1
  9
$FINGERPRINTGUID
  2
{29944A3E-0DCE-4D1D-9E10-6578A411185A}
  9
$VERSIONGUID
  2
{FAEB1C32-E019-11D5-929B-00C0DF256EC4}
  9
$EXTNAMES
290
     1
  9
$PSVPSCALE
 40
0.0
  9
$OLESTARTUP
290
     0
  9
$SORTENTS
280
   127
  9
$INDEXCTL
280
     0
  9
$HIDETEXT
280
     1
  9
$XCLIPFRAME
280
     2
  9
$HALOGAP
280
     0
  9
$OBSCOLOR
 70
   257
  9
$OBSLTYPE
280
     0
  9
$INTERSECTIONDISPLAY
280
     0
  9
$INTERSECTIONCOLOR
 70
   257
  9
$DIMASSOC
280
     2
  9
$PROJECTNAME
  1

  9
$CAMERADISPLAY
290
     0
  9
$LENSLENGTH
 40
50.0
  9
$CAMERAHEIGHT
 40
0.0
  9
$STEPSPERSEC
 40
2.0
  9
$STEPSIZE
 40
6.0
  9
$3DDWFPREC
 40
2.0
  9
$PSOLWIDTH
 40
5.0
  9
$PSOLHEIGHT
 40
80.0
  9
$LOFTANG1
 40
1.570796326794897
  9
$LOFTANG2
 40
1.570796326794897
  9
$LOFTMAG1
 40
0.0
  9
$LOFTMAG2
 40
0.0
  9
$LOFTPARAM
 70
     7
  9
$LOFTNORMALS
280
     1
  9
$LATITUDE
 40
37.795
  9
$LONGITUDE
 40
-122.394
  9
$NORTHDIRECTION
 40
0.0
  9
$TIMEZONE
 70
 -8000
  9
$LIGHTGLYPHDISPLAY
280
     1
  9
$TILEMODELIGHTSYNCH
280
     1
  9
$SOLIDHIST
280
     1
  9
$SHOWHIST
280
     1
  9
$DWFFRAME
280
     2
  9
$DGNFRAME
280
     2
  9
$REALWORLDSCALE
290
     1
  9
$INTERFERECOLOR
 62
   256
  9
$CSHADOW
280
     0
  9
$SHADOWPLANELOCATION
 40
0.0
  0
ENDSEC
  0
SECTION
  2
CLASSES
  0
CLASS
  1
ACDBDICTIONARYWDFLT
  2
AcDbDictionaryWithDefault
  3
ObjectDBX Classes
 90
        0
 91
        4
280
     0
281
     0
  0
CLASS
  1
VISUALSTYLE
  2
AcDbVisualStyle
  3
ObjectDBX Classes
 90
     4095
 91
        4
280
     0
281
     0
  0
CLASS
  1
MATERIAL
  2
AcDbMaterial
  3
ObjectDBX Classes
 90
     1153
 91
        4
280
     0
281
     0
  0
ENDSEC
  0
SECTION
  2
TABLES
  0
TABLE
  2
VPORT
  5
8
330
0
100
AcDbSymbolTable
 70
     1
  0
VPORT
  5
29
330
8
100
AcDbSymbolTableRecord
100
AcDbViewportTableRecord
  2
*Active
 70
     0
 10
0.0
 20
0.0
 11
1.0
 21
1.0
 12
0.0
 22
0.0
 13
0.0
 23
0.0
 14
10.0
 24
10.0
 15
10.0
 25
10.0
 16
0.0
 26
0.0
 36
1.0
 17
0.0
 27
0.0
 37
0.0
 40
6930.000000000001
 41
1.414285714285714
 42
50.0
 43
0.0
 44
0.0
 50
0.0
 51
0.0
 71
     0
 72
 10000
 73
     1
 74
     3
 75
     0
 76
     0
 77
     0
 78
     0
281
     0
 65
     1
110
0.0
120
0.0
130
0.0
111
1.0
121
0.0
131
0.0
112
0.0
122
1.0
132
0.0
 79
     0
146
0.0
 60
     3
 61
     5
292
     1
282
     1
141
0.0
142
0.0
 63
   250
  0
ENDTAB
  0
TABLE
  2
LTYPE
  5
5
330
0
100
AcDbSymbolTable
 70
     2
  0
LTYPE
  5
14
330
5
100
AcDbSymbolTableRecord
100
AcDbLinetypeTableRecord
  2
ByBlock
 70
     0
  3

 72
    65
 73
     0
 40
0.0
  0
LTYPE
  5
15
330
5
100
AcDbSymbolTableRecord
100
AcDbLinetypeTableRecord
  2
ByLayer
 70
     0
  3

 72
    65
 73
     0
 40
0.0
  0
LTYPE
  5
16
330
5
100
AcDbSymbolTableRecord
100
AcDbLinetypeTableRecord
  2
Continuous
 70
     0
  3
Solid line
 72
    65
 73
     0
 40
0.0
  0
LTYPE
  5
3F
330
5
100
AcDbSymbolTableRecord
100
AcDbLinetypeTableRecord
  2
JWW_DASHED1
 70
     0
  3
-  --  --  --  --  --  --  --  -
 72
    65
 73
     2
 40
1.693333333333333
 49
0.8466666666666667
 74
     0
 49
-0.8466666666666667
 74
     0
  0
ENDTAB
  0
TABLE
  2
LAYER
  5
2
330
0
100
AcDbSymbolTable
 70
     3
  0
LAYER
  5
10
330
2
100
AcDbSymbolTableRecord
100
AcDbLayerTableRecord
  2
0
 70
     0
 62
     7
  6
Continuous
370
    -3
390
F
347
3E
  0
LAYER
  5
40
330
2
100
AcDbSymbolTableRecord
100
AcDbLayerTableRecord
  2
0-0
 70
     0
 62
     7
  6
Continuous
370
    -3
390
F
347
3E
  0
LAYER
  5
41
330
2
100
AcDbSymbolTableRecord
100
AcDbLayerTableRecord
  2
寸法
 70
     0
 62
     7
  6
Continuous
370
    -3
390
F
347
3E
  0
ENDTAB
  0
TABLE
  2
STYLE
  5
3
330
0
100
AcDbSymbolTable
 70
     1
  0
STYLE
  5
11
330
3
100
AcDbSymbolTableRecord
100
AcDbTextStyleTableRecord
  2
Standard
 70
     0
 40
0.0
 41
1.0
 50
0.0
 71
     0
 42
2.5
  3
txt
  4

  0
ENDTAB
  0
TABLE
  2
VIEW
  5
6
330
0
100
AcDbSymbolTable
 70
     0
  0
ENDTAB
  0
TABLE
  2
UCS
  5
7
330
0
100
AcDbSymbolTable
 70
     0
  0
ENDTAB
  0
TABLE
  2
APPID
  5
9
330
0
100
AcDbSymbolTable
 70
     1
  0
APPID
  5
12
330
9
100
AcDbSymbolTableRecord
100
AcDbRegAppTableRecord
  2
ACAD
 70
     0
  0
ENDTAB
  0
TABLE
  2
DIMSTYLE
  5
A
330
0
100
AcDbSymbolTable
 70
     1
100
AcDbDimStyleTable
  0
DIMSTYLE
105
27
330
A
100
AcDbSymbolTableRecord
100
AcDbDimStyleTableRecord
  2
ISO-25
 70
     0
 41
2.5
 42
0.625
 43
3.75
 44
1.25
 73
     0
 74
     0
 77
     1
 78
     8
140
2.5
141
2.5
143
0.03937007874016
147
0.625
171
     3
172
     1
178
     0
271
     2
272
     2
274
     3
278
    44
283
     0
284
     8
340
11
  0
ENDTAB
  0
TABLE
  2
BLOCK_RECORD
  5
1
330
0
100
AcDbSymbolTable
 70
     1
  0
BLOCK_RECORD
  5
1F
330
1
100
AcDbSymbolTableRecord
100
AcDbBlockTableRecord
  2
*Model_Space
340
22
 70
     0
280
     1
281
     0
  0
BLOCK_RECORD
  5
1B
330
1
100
AcDbSymbolTableRecord
100
AcDbBlockTableRecord
  2
*Paper_Space
340
1E
 70
     0
280
     1
281
     0
  0
BLOCK_RECORD
  5
23
330
1
100
AcDbSymbolTableRecord
100
AcDbBlockTableRecord
  2
*Paper_Space0
340
26
 70
     0
280
     1
281
     0
  0
ENDTAB
  0
ENDSEC
  0
SECTION
  2
BLOCKS
  0
BLOCK
  5
20
330
1F
100
AcDbEntity
  8
0
100
AcDbBlockBegin
  2
*Model_Space
 70
     0
 10
0.0
 20
0.0
 30
0.0
  3
*Model_Space
  1

  0
ENDBLK
  5
21
330
1F
100
AcDbEntity
  8
0
100
AcDbBlockEnd
  0
BLOCK
  5
1C
330
1B
100
AcDbEntity
 67
     1
  8
0
100
AcDbBlockBegin
  2
*Paper_Space
 70
     0
 10
0.0
 20
0.0
 30
0.0
  3
*Paper_Space
  1

  0
ENDBLK
  5
1D
330
1B
100
AcDbEntity
 67
     1
  8
0
100
AcDbBlockEnd
  0
BLOCK
  5
24
330
23
100
AcDbEntity
  8
0
100
AcDbBlockBegin
  2
*Paper_Space0
 70
     0
 10
0.0
 20
0.0
 30
0.0
  3
*Paper_Space0
  1

  0
ENDBLK
  5
25
330
23
100
AcDbEntity
  8
0
100
AcDbBlockEnd
  0
ENDSEC
  0
SECTION
  2
ENTITIES
  0
LINE
  5
42
330
1F
100
AcDbEntity
  8
0-0
  6
Continuous
 62
    92
370
    13
100
AcDbLine
 10
-1142.901349045437
 20
1020.472805266545
 30
0.0
 11
1224.098650954563
 21
1020.472805266545
 31
0.0
  0
LINE
  5
43
330
1F
100
AcDbEntity
  8
0-0
  6
Continuous
 62
    92
370
    13
100
AcDbLine
 10
-1172.901349045437
 20
-982.5271947334556
 30
0.0
 11
-1172.901349045437
 21
1064.472805266544
 31
0.0
  0
LINE
  5
44
330
1F
100
AcDbEntity
  8
0-0
  6
Continuous
 62
    92
370
    13
100
AcDbLine
 10
2034.098650954563
 20
1064.472805266544
 30
0.0
 11
2034.098650954563
 21
-982.5271947334556
 31
0.0
  0
LINE
  5
45
330
1F
100
AcDbEntity
  8
0-0
  6
JWW_DASHED1
 62
   120
370
     5
100
AcDbLine
 10
1194.098650954563
 20
-967.5271947334556
 30
0.0
 11
1194.098650954563
 21
1028.472805266544
 31
0.0
  0
LINE
  5
46
330
1F
100
AcDbEntity
  8
0-0
  6
JWW_DASHED1
 62
   120
370
     5
100
AcDbLine
 10
1224.098650954563
 20
-967.5271947334556
 30
0.0
 11
1224.098650954563
 21
1028.472805266544
 31
0.0
  0
LINE
  5
47
330
1F
100
AcDbEntity
  8
0-0
  6
Continuous
 62
    92
370
    13
100
AcDbLine
 10
-1142.901349045437
 20
-982.5271947334556
 30
0.0
 11
-1142.901349045437
 21
1064.472805266544
 31
0.0
  0
LINE
  5
48
330
1F
100
AcDbEntity
  8
0-0
  6
Continuous
 62
    92
370
    13
100
AcDbLine
 10
2004.098650954563
 20
-982.5271947334556
 30
0.0
 11
2004.098650954563
 21
1064.472805266544
 31
0.0
  0
LINE
  5
49
330
1F
100
AcDbEntity
  8
0-0
  6
Continuous
 62
    92
370
    13
100
AcDbLine
 10
-1142.901349045437
 20
1028.472805266544
 30
0.0
 11
2004.098650954563
 21
1028.472805266544
 31
0.0
  0
LINE
  5
4A
330
1F
100
AcDbEntity
  8
0-0
  6
Continuous
 62
    92
370
    13
100
AcDbLine
 10
-1172.901349045437
 20
1064.472805266544
 30
0.0
 11
2034.098650954563
 21
1064.472805266544
 31
0.0
  0
LINE
  5
4B
330
1F
100
AcDbEntity
  8
0-0
  6
Continuous
 62
    92
370
    13
100
AcDbLine
 10
2034.098650954563
 20
-982.5271947334556
 30
0.0
 11
-1172.901349045437
 21
-982.5271947334556
 31
0.0
  0
LINE
  5
4C
330
1F
100
AcDbEntity
  8
0-0
  6
Continuous
 62
    92
370
    13
100
AcDbLine
 10
2004.098650954563
 20
-967.5271947334556
 30
0.0
 11
-1142.901349045437
 21
-967.5271947334556
 31
0.0
  0
ARC
  5
4D
330
1F
100
AcDbEntity
  8
0-0
  6
Continuous
 62
    92
370
    13
100
AcDbCircle
 10
-1114.401349045436
 20
54.47280526654467
 30
0.0
 40
1.5
100
AcDbArc
 50
90.0
 51
180.0
  0
LINE
  5
4E
330
1F
100
AcDbEntity
  8
0-0
  6
Continuous
 62
    92
370
    13
100
AcDbLine
 10
-1075.401349045437
 20
55.97280526654458
 30
0.0
 11
-1114.401349045436
 21
55.97280526654458
 31
0.0
  0
ARC
  5
4F
330
1F
100
AcDbEntity
  8
0-0
  6
Continuous
 62
    92
370
    13
100
AcDbCircle
 10
-1075.401349045437
 20
54.47280526654467
 30
0.0
 40
1.5
100
AcDbArc
 50
0.0
 51
90.00000000000001
  0
LINE
  5
50
330
1F
100
AcDbEntity
  8
0-0
  6
Continuous
 62
    92
370
    13
100
AcDbLine
 10
-1073.901349045437
 20
-64.52719473345581
 30
0.0
 11
-1073.901349045437
 21
54.47280526654467
 31
0.0
  0
ARC
  5
51
330
1F
100
AcDbEntity
  8
0-0
  6
Continuous
 62
    92
370
    13
100
AcDbCircle
 10
-1075.401349045437
 20
-64.52719473345581
 30
0.0
 40
1.5
100
AcDbArc
 50
270.0
 51
0.0
  0
LINE
  5
52
330
1F
100
AcDbEntity
  8
0-0
  6
Continuous
 62
    92
370
    13
100
AcDbLine
 10
-1114.401349045436
 20
-66.0271947334553
 30
0.0
 11
-1075.401349045437
 21
-66.0271947334553
 31
0.0
  0
LINE
  5
53
330
1F
100
AcDbEntity
  8
0-0
  6
Continuous
 62
    92
370
    13
100
AcDbLine
 10
-1115.901349045436
 20
-64.52719473345581
 30
0.0
 11
-1115.901349045436
 21
54.47280526654467
 31
0.0
  0
ARC
  5
54
330
1F
100
AcDbEntity
  8
0-0
  6
Continuous
 62
    92
370
    13
100
AcDbCircle
 10
-1114.401349045436
 20
-64.52719473345581
 30
0.0
 40
1.5
100
AcDbArc
 50
180.0
 51
270.0
  0
ARC
  5
55
330
1F
100
AcDbEntity
  8
0-0
  6
Continuous
 62
     7
370
     9
100
AcDbCircle
 10
-1094.901349045437
 20
-34.62719473345572
 30
0.0
 40
15.0
100
AcDbArc
 50
180.0
 51
0.0
  0
ARC
  5
56
330
1F
100
AcDbEntity
  8
0-0
  6
Continuous
 62
     7
370
     9
100
AcDbCircle
 10
-1094.901349045437
 20
24.57280526654458
 30
0.0
 40
15.0
100
AcDbArc
 50
0.0
 51
180.0
  0
LINE
  5
57
330
1F
100
AcDbEntity
  8
0-0
  6
Continuous
 62
     7
370
     9
100
AcDbLine
 10
-1079.901349045437
 20
-34.62719473345572
 30
0.0
 11
-1079.901349045437
 21
24.57280526654458
 31
0.0
  0
LINE
  5
58
330
1F
100
AcDbEntity
  8
0-0
  6
Continuous
 62
     7
370
     9
100
AcDbLine
 10
-1109.901349045437
 20
24.57280526654458
 30
0.0
 11
-1109.901349045437
 21
-34.62719473345572
 31
0.0
  0
ARC
  5
59
330
1F
100
AcDbEntity
  8
0-0
  6
Continuous
 62
    92
370
    13
100
AcDbCircle
 10
-334.4013490454358
 20
54.47280526654467
 30
0.0
 40
1.5
100
AcDbArc
 50
90.0
 51
180.0
  0
LINE
  5
5A
330
1F
100
AcDbEntity
  8
0-0
  6
Continuous
 62
    92
370
    13
100
AcDbLine
 10
-295.4013490454371
 20
55.97280526654458
 30
0.0
 11
-334.4013490454358
 21
55.97280526654458
 31
0.0
  0
ARC
  5
5B
330
1F
100
AcDbEntity
  8
0-0
  6
Continuous
 62
    92
370
    13
100
AcDbCircle
 10
-295.4013490454371
 20
54.47280526654467
 30
0.0
 40
1.5
100
AcDbArc
 50
0.0
 51
90.00000000000001
  0
LINE
  5
5C
330
1F
100
AcDbEntity
  8
0-0
  6
Continuous
 62
    92
370
    13
100
AcDbLine
 10
-293.9013490454351
 20
-64.52719473345581
 30
0.0
 11
-293.9013490454351
 21
54.47280526654467
 31
0.0
  0
ARC
  5
5D
330
1F
100
AcDbEntity
  8
0-0
  6
Continuous
 62
    92
370
    13
100
AcDbCircle
 10
-295.4013490454371
 20
-64.52719473345581
 30
0.0
 40
1.5
100
AcDbArc
 50
270.0
 51
0.0
  0
LINE
  5
5E
330
1F
100
AcDbEntity
  8
0-0
  6
Continuous
 62
    92
370
    13
100
AcDbLine
 10
-334.4013490454358
 20
-66.0271947334553
 30
0.0
 11
-295.4013490454371
 21
-66.0271947334553
 31
0.0
  0
LINE
  5
5F
330
1F
100
AcDbEntity
  8
0-0
  6
Continuous
 62
    92
370
    13
100
AcDbLine
 10
-335.9013490454361
 20
-64.52719473345581
 30
0.0
 11
-335.9013490454361
 21
54.47280526654467
 31
0.0
  0
ARC
  5
60
330
1F
100
AcDbEntity
  8
0-0
  6
Continuous
 62
    92
370
    13
100
AcDbCircle
 10
-334.4013490454358
 20
-64.52719473345581
 30
0.0
 40
1.5
100
AcDbArc
 50
180.0
 51
270.0
  0
ARC
  5
61
330
1F
100
AcDbEntity
  8
0-0
  6
Continuous
 62
     7
370
     9
100
AcDbCircle
 10
-314.9013490454365
 20
-34.62719473345572
 30
0.0
 40
15.0
100
AcDbArc
 50
180.0
 51
0.0
  0
ARC
  5
62
330
1F
100
AcDbEntity
  8
0-0
  6
Continuous
 62
     7
370
     9
100
AcDbCircle
 10
-314.9013490454365
 20
24.57280526654458
 30
0.0
 40
15.0
100
AcDbArc
 50
0.0
 51
180.0
  0
LINE
  5
63
330
1F
100
AcDbEntity
  8
0-0
  6
Continuous
 62
     7
370
     9
100
AcDbLine
 10
-299.9013490454365
 20
-34.62719473345572
 30
0.0
 11
-299.9013490454365
 21
24.57280526654458
 31
0.0
  0
LINE
  5
64
330
1F
100
AcDbEntity
  8
0-0
  6
Continuous
 62
     7
370
     9
100
AcDbLine
 10
-329.9013490454365
 20
24.57280526654458
 30
0.0
 11
-329.9013490454365
 21
-34.62719473345572
 31
0.0
  0
ARC
  5
65
330
1F
100
AcDbEntity
  8
0-0
  6
Continuous
 62
    92
370
    13
100
AcDbCircle
 10
445.5986509545642
 20
54.47280526654467
 30
0.0
 40
1.5
100
AcDbArc
 50
90.0
 51
180.0
  0
LINE
  5
66
330
1F
100
AcDbEntity
  8
0-0
  6
Continuous
 62
    92
370
    13
100
AcDbLine
 10
484.5986509545628
 20
55.97280526654458
 30
0.0
 11
445.5986509545642
 21
55.97280526654458
 31
0.0
  0
ARC
  5
67
330
1F
100
AcDbEntity
  8
0-0
  6
Continuous
 62
    92
370
    13
100
AcDbCircle
 10
484.5986509545628
 20
54.47280526654467
 30
0.0
 40
1.5
100
AcDbArc
 50
0.0
 51
90.00000000000001
  0
LINE
  5
68
330
1F
100
AcDbEntity
  8
0-0
  6
Continuous
 62
    92
370
    13
100
AcDbLine
 10
486.0986509545648
 20
-64.52719473345581
 30
0.0
 11
486.0986509545648
 21
54.47280526654467
 31
0.0
  0
ARC
  5
69
330
1F
100
AcDbEntity
  8
0-0
  6
Continuous
 62
    92
370
    13
100
AcDbCircle
 10
484.5986509545628
 20
-64.52719473345581
 30
0.0
 40
1.5
100
AcDbArc
 50
270.0
 51
0.0
  0
LINE
  5
6A
330
1F
100
AcDbEntity
  8
0-0
  6
Continuous
 62
    92
370
    13
100
AcDbLine
 10
445.5986509545642
 20
-66.0271947334553
 30
0.0
 11
484.5986509545628
 21
-66.0271947334553
 31
0.0
  0
LINE
  5
6B
330
1F
100
AcDbEntity
  8
0-0
  6
Continuous
 62
    92
370
    13
100
AcDbLine
 10
444.0986509545639
 20
-64.52719473345581
 30
0.0
 11
444.0986509545639
 21
54.47280526654467
 31
0.0
  0
ARC
  5
6C
330
1F
100
AcDbEntity
  8
0-0
  6
Continuous
 62
    92
370
    13
100
AcDbCircle
 10
445.5986509545642
 20
-64.52719473345581
 30
0.0
 40
1.5
100
AcDbArc
 50
180.0
 51
270.0
  0
ARC
  5
6D
330
1F
100
AcDbEntity
  8
0-0
  6
Continuous
 62
     7
370
     9
100
AcDbCircle
 10
465.0986509545635
 20
-34.62719473345572
 30
0.0
 40
15.0
100
AcDbArc
 50
180.0
 51
0.0
  0
ARC
  5
6E
330
1F
100
AcDbEntity
  8
0-0
  6
Continuous
 62
     7
370
     9
100
AcDbCircle
 10
465.0986509545635
 20
24.57280526654458
 30
0.0
 40
15.0
100
AcDbArc
 50
0.0
 51
180.0
  0
LINE
  5
6F
330
1F
100
AcDbEntity
  8
0-0
  6
Continuous
 62
     7
370
     9
100
AcDbLine
 10
480.0986509545635
 20
-34.62719473345572
 30
0.0
 11
480.0986509545635
 21
24.57280526654458
 31
0.0
  0
LINE
  5
70
330
1F
100
AcDbEntity
  8
0-0
  6
Continuous
 62
     7
370
     9
100
AcDbLine
 10
450.0986509545635
 20
24.57280526654458
 30
0.0
 11
450.0986509545635
 21
-34.62719473345572
 31
0.0
  0
LINE
  5
71
330
1F
100
AcDbEntity
  8
0-0
  6
JWW_DASHED1
 62
   120
370
     5
100
AcDbLine
 10
-1142.901349045437
 20
-962.5271947334551
 30
0.0
 11
-1145.901349045438
 21
-962.5271947334551
 31
0.0
  0
LINE
  5
72
330
1F
100
AcDbEntity
  8
0-0
  6
JWW_DASHED1
 62
   120
370
     5
100
AcDbLine
 10
-1145.901349045438
 20
-962.5271947334551
 30
0.0
 11
-1145.901349045438
 21
1020.472805266545
 31
0.0
  0
LINE
  5
73
330
1F
100
AcDbEntity
  8
0-0
  6
JWW_DASHED1
 62
   120
370
     5
100
AcDbLine
 10
-1145.901349045438
 20
1020.472805266545
 30
0.0
 11
-1142.901349045437
 21
1020.472805266545
 31
0.0
  0
LINE
  5
74
330
1F
100
AcDbEntity
  8
0-0
  6
JWW_DASHED1
 62
   120
370
     5
100
AcDbLine
 10
-335.901349045437
 20
-962.5271947334551
 30
0.0
 11
-335.901349045437
 21
1020.472805266545
 31
0.0
  0
LINE
  5
75
330
1F
100
AcDbEntity
  8
0-0
  6
Continuous
 62
    92
370
    13
100
AcDbLine
 10
-365.901349045437
 20
1020.472805266545
 30
0.0
 11
-365.901349045437
 21
-962.5271947334551
 31
0.0
  0
LINE
  5
76
330
1F
100
AcDbEntity
  8
0-0
  6
Continuous
 62
    92
370
    13
100
AcDbLine
 10
-1142.901349045437
 20
-962.5271947334551
 30
0.0
 11
1224.098650954563
 21
-962.5271947334551
 31
0.0
  0
LINE
  5
77
330
1F
100
AcDbEntity
  8
0-0
  6
JWW_DASHED1
 62
   120
370
     5
100
AcDbLine
 10
444.098650954563
 20
-962.5271947334551
 30
0.0
 11
444.098650954563
 21
1020.472805266545
 31
0.0
  0
LINE
  5
78
330
1F
100
AcDbEntity
  8
0-0
  6
Continuous
 62
    92
370
    13
100
AcDbLine
 10
414.098650954563
 20
1020.472805266545
 30
0.0
 11
414.098650954563
 21
-962.5271947334551
 31
0.0
  0
LINE
  5
79
330
1F
100
AcDbEntity
  8
0-0
  6
Continuous
 62
    92
370
    13
100
AcDbLine
 10
1224.098650954563
 20
1020.472805266545
 30
0.0
 11
1224.098650954563
 21
-962.5271947334551
 31
0.0
  0
LINE
  5
7A
330
1F
100
AcDbEntity
  8
0-0
  6
Continuous
 62
    92
370
    13
100
AcDbLine
 10
-1035.901349045439
 20
-812.5271947334559
 30
0.0
 11
-445.9013490454367
 21
-812.5271947334559
 31
0.0
  0
LINE
  5
7B
330
1F
100
AcDbEntity
  8
0-0
  6
Continuous
 62
    92
370
    13
100
AcDbLine
 10
-255.901349045439
 20
-812.5271947334559
 30
0.0
 11
334.0986509545633
 21
-812.5271947334559
 31
0.0
  0
LINE
  5
7C
330
1F
100
AcDbEntity
  8
0-0
  6
Continuous
 62
    92
370
    13
100
AcDbLine
 10
524.098650954561
 20
-812.5271947334559
 30
0.0
 11
1114.098650954563
 21
-812.5271947334559
 31
0.0
  0
LINE
  5
7D
330
1F
100
AcDbEntity
  8
0-0
  6
Continuous
 62
    92
370
    13
100
AcDbLine
 10
-1035.901349045439
 20
885.4728052665437
 30
0.0
 11
-445.9013490454367
 21
885.4728052665437
 31
0.0
  0
LINE
  5
7E
330
1F
100
AcDbEntity
  8
0-0
  6
Continuous
 62
    92
370
    13
100
AcDbLine
 10
-255.901349045439
 20
885.4728052665437
 30
0.0
 11
334.0986509545633
 21
885.4728052665437
 31
0.0
  0
LINE
  5
7F
330
1F
100
AcDbEntity
  8
0-0
  6
Continuous
 62
    92
370
    13
100
AcDbLine
 10
524.098650954561
 20
885.4728052665437
 30
0.0
 11
1114.098650954563
 21
885.4728052665437
 31
0.0
  0
LINE
  5
80
330
1F
100
AcDbEntity
  8
0-0
  6
Continuous
 62
    92
370
    13
100
AcDbLine
 10
1114.098650954563
 20
-962.5271947334559
 30
0.0
 11
1114.098650954563
 21
1020.472805266544
 31
0.0
  0
LINE
  5
81
330
1F
100
AcDbEntity
  8
0-0
  6
Continuous
 62
    92
370
    13
100
AcDbLine
 10
-445.9013490454367
 20
-962.5271947334559
 30
0.0
 11
-445.9013490454367
 21
1020.472805266544
 31
0.0
  0
LINE
  5
82
330
1F
100
AcDbEntity
  8
0-0
  6
Continuous
 62
    92
370
    13
100
AcDbLine
 10
-1035.901349045439
 20
-962.5271947334559
 30
0.0
 11
-1035.901349045439
 21
1020.472805266544
 31
0.0
  0
LINE
  5
83
330
1F
100
AcDbEntity
  8
0-0
  6
Continuous
 62
    92
370
    13
100
AcDbLine
 10
334.0986509545633
 20
-962.5271947334559
 30
0.0
 11
334.0986509545633
 21
1020.472805266544
 31
0.0
  0
LINE
  5
84
330
1F
100
AcDbEntity
  8
0-0
  6
Continuous
 62
    92
370
    13
100
AcDbLine
 10
-255.901349045439
 20
-962.5271947334559
 30
0.0
 11
-255.901349045439
 21
1020.472805266544
 31
0.0
  0
LINE
  5
85
330
1F
100
AcDbEntity
  8
0-0
  6
Continuous
 62
    92
370
    13
100
AcDbLine
 10
524.098650954561
 20
-962.5271947334559
 30
0.0
 11
524.098650954561
 21
1020.472805266544
 31
0.0
  0
LINE
  5
86
330
1F
100
AcDbEntity
  8
0-0
  6
JWW_DASHED1
 62
   120
370
     5
100
AcDbLine
 10
-1034.289907262057
 20
-812.5271947334606
 30
0.0
 11
-1035.901349045442
 21
-810.9157529500749
 31
0.0
  0
LINE
  5
87
330
1F
100
AcDbEntity
  8
0-0
  6
JWW_DASHED1
 62
   120
370
     5
100
AcDbLine
 10
-1024.390412325413
 20
-812.52719473347
 30
0.0
 11
-1035.901349045453
 21
-801.0162580134307
 31
0.0
  0
LINE
  5
88
330
1F
100
AcDbEntity
  8
0-0
  6
JWW_DASHED1
 62
   120
370
     5
100
AcDbLine
 10
-1014.490917388828
 20
-812.5271947334747
 30
0.0
 11
-1035.901349045458
 21
-791.1167630768455
 31
0.0
  0
LINE
  5
89
330
1F
100
AcDbEntity
  8
0-0
  6
JWW_DASHED1
 62
   120
370
     5
100
AcDbLine
 10
-1004.591422452216
 20
-812.5271947334525
 30
0.0
 11
-1035.901349045436
 21
-781.2172681402325
 31
0.0
  0
LINE
  5
8A
330
1F
100
AcDbEntity
  8
0-0
  6
JWW_DASHED1
 62
   120
370
     5
100
AcDbLine
 10
-994.691927515629
 20
-812.5271947334577
 30
0.0
 11
-1035.901349045441
 21
-771.3177732036463
 31
0.0
  0
LINE
  5
8B
330
1F
100
AcDbEntity
  8
0-0
  6
JWW_DASHED1
 62
   120
370
     5
100
AcDbLine
 10
-984.7924325789836
 20
-812.527194733467
 30
0.0
 11
-1035.901349045449
 21
-761.4182782670023
 31
0.0
  0
LINE
  5
8C
330
1F
100
AcDbEntity
  8
0-0
  6
JWW_DASHED1
 62
   120
370
     5
100
AcDbLine
 10
-974.8929376423996
 20
-812.5271947334717
 30
0.0
 11
-1035.901349045454
 21
-751.5187833304165
 31
0.0
  0
LINE
  5
8D
330
1F
100
AcDbEntity
  8
0-0
  6
JWW_DASHED1
 62
   120
370
     5
100
AcDbLine
 10
-964.9934427057866
 20
-812.5271947334495
 30
0.0
 11
-1035.901349045432
 21
-741.6192883938036
 31
0.0
  0
LINE
  5
8E
330
1F
100
AcDbEntity
  8
0-0
  6
JWW_DASHED1
 62
   120
370
     5
100
AcDbLine
 10
-955.0939477691429
 20
-812.5271947334589
 30
0.0
 11
-1035.901349045442
 21
-731.719793457159
 31
0.0
  0
LINE
  5
8F
330
1F
100
AcDbEntity
  8
0-0
  6
JWW_DASHED1
 62
   120
370
     5
100
AcDbLine
 10
-945.1944528325555
 20
-812.5271947334636
 30
0.0
 11
-1035.901349045448
 21
-721.8202985205733
 31
0.0
  0
LINE
  5
90
330
1F
100
AcDbEntity
  8
0-0
  6
JWW_DASHED1
 62
   120
370
     5
100
AcDbLine
 10
-935.2949578959135
 20
-812.5271947334729
 30
0.0
 11
-1035.901349045456
 21
-711.9208035839296
 31
0.0
  0
LINE
  5
91
330
1F
100
AcDbEntity
  8
0-0
  6
JWW_DASHED1
 62
   120
370
     5
100
AcDbLine
 10
-925.3954629593466
 20
-812.5271947334593
 30
0.0
 11
-1035.901349045446
 21
-702.0213086473592
 31
0.0
  0
LINE
  5
92
330
1F
100
AcDbEntity
  8
0-0
  6
JWW_DASHED1
 62
   120
370
     5
100
AcDbLine
 10
-915.4959680227148
 20
-812.5271947334551
 30
0.0
 11
-1035.901349045439
 21
-692.1218137107301
 31
0.0
  0
LINE
  5
93
330
1F
100
AcDbEntity
  8
0-0
  6
JWW_DASHED1
 62
   120
370
     5
100
AcDbLine
 10
-905.5964730861274
 20
-812.5271947334602
 30
0.0
 11
-1035.901349045444
 21
-682.2223187741442
 31
0.0
  0
LINE
  5
94
330
1F
100
AcDbEntity
  8
0-0
  6
JWW_DASHED1
 62
   120
370
     5
100
AcDbLine
 10
-895.6969781494837
 20
-812.5271947334695
 30
0.0
 11
-1035.901349045453
 21
-672.3228238375015
 31
0.0
  0
LINE
  5
95
330
1F
100
AcDbEntity
  8
0-0
  6
JWW_DASHED1
 62
   120
370
     5
100
AcDbLine
 10
-885.797483212898
 20
-812.5271947334747
 30
0.0
 11
-1035.901349045456
 21
-662.4233289009157
 31
0.0
  0
LINE
  5
96
330
1F
100
AcDbEntity
  8
0-0
  6
JWW_DASHED1
 62
   120
370
     5
100
AcDbLine
 10
-875.8979882762867
 20
-812.5271947334525
 30
0.0
 11
-1035.901349045436
 21
-652.5238339643015
 31
0.0
  0
LINE
  5
97
330
1F
100
AcDbEntity
  8
0-0
  6
JWW_DASHED1
 62
   120
370
     5
100
AcDbLine
 10
-865.9984933396413
 20
-812.5271947334619
 30
0.0
 11
-1035.901349045446
 21
-642.6243390276569
 31
0.0
  0
LINE
  5
98
330
1F
100
AcDbEntity
  8
0-0
  6
JWW_DASHED1
 62
   120
370
     5
100
AcDbLine
 10
-856.0989984030556
 20
-812.5271947334666
 30
0.0
 11
-1035.901349045449
 21
-632.7248440910729
 31
0.0
  0
LINE
  5
99
330
1F
100
AcDbEntity
  8
0-0
  6
JWW_DASHED1
 62
   120
370
     5
100
AcDbLine
 10
-846.1995034664153
 20
-812.5271947334709
 30
0.0
 11
-1035.901349045459
 21
-622.8253491544287
 31
0.0
  0
LINE
  5
9A
330
1F
100
AcDbEntity
  8
0-0
  6
JWW_DASHED1
 62
   120
370
     5
100
AcDbLine
 10
-836.3000085298569
 20
-812.527194733449
 30
0.0
 11
-1035.901349045434
 21
-612.9258542178729
 31
0.0
  0
LINE
  5
9B
330
1F
100
AcDbEntity
  8
0-0
  6
JWW_DASHED1
 62
   120
370
     5
100
AcDbLine
 10
-826.4005135932132
 20
-812.5271947334585
 30
0.0
 11
-1035.901349045442
 21
-603.0263592812285
 31
0.0
  0
LINE
  5
9C
330
1F
100
AcDbEntity
  8
0-0
  6
JWW_DASHED1
 62
   120
370
     5
100
AcDbLine
 10
-816.5010186566275
 20
-812.5271947334636
 30
0.0
 11
-1035.901349045449
 21
-593.1268643446426
 31
0.0
  0
LINE
  5
9D
330
1F
100
AcDbEntity
  8
0-0
  6
JWW_DASHED1
 62
   120
370
     5
100
AcDbLine
 10
-806.6015237199838
 20
-812.5271947334729
 30
0.0
 11
-1035.901349045456
 21
-583.2273694080003
 31
0.0
  0
LINE
  5
9E
330
1F
100
AcDbEntity
  8
0-0
  6
JWW_DASHED1
 62
   120
370
     5
100
AcDbLine
 10
-796.7020287834288
 20
-812.5271947334461
 30
0.0
 11
-1035.901349045432
 21
-573.3278744714439
 31
0.0
  0
LINE
  5
9F
330
1F
100
AcDbEntity
  8
0-0
  6
JWW_DASHED1
 62
   120
370
     5
100
AcDbLine
 10
-786.8025338467851
 20
-812.5271947334551
 30
0.0
 11
-1035.901349045439
 21
-563.4283795347994
 31
0.0
  0
LINE
  5
A0
330
1F
100
AcDbEntity
  8
0-0
  6
JWW_DASHED1
 62
   120
370
     5
100
AcDbLine
 10
-776.9030389101397
 20
-812.5271947334649
 30
0.0
 11
-1035.901349045448
 21
-553.5288845981574
 31
0.0
  0
LINE
  5
A1
330
1F
100
AcDbEntity
  8
0-0
  6
JWW_DASHED1
 62
   120
370
     5
100
AcDbLine
 10
-767.003543973554
 20
-812.5271947334695
 30
0.0
 11
-1035.901349045453
 21
-543.6293896615717
 31
0.0
  0
LINE
  5
A2
330
1F
100
AcDbEntity
  8
0-0
  6
JWW_DASHED1
 62
   120
370
     5
100
AcDbLine
 10
-757.104049036941
 20
-812.5271947334475
 30
0.0
 11
-1035.901349045432
 21
-533.7298947249562
 31
0.0
  0
LINE
  5
A3
330
1F
100
AcDbEntity
  8
0-0
  6
JWW_DASHED1
 62
   120
370
     5
100
AcDbLine
 10
-747.204554100357
 20
-812.5271947334525
 30
0.0
 11
-1035.901349045437
 21
-523.8303997883709
 31
0.0
  0
LINE
  5
A4
330
1F
100
AcDbEntity
  8
0-0
  6
JWW_DASHED1
 62
   120
370
     5
100
AcDbLine
 10
-737.3050591637116
 20
-812.5271947334619
 30
0.0
 11
-1035.901349045446
 21
-513.9309048517264
 31
0.0
  0
LINE
  5
A5
330
1F
100
AcDbEntity
  8
0-0
  6
JWW_DASHED1
 62
   120
370
     5
100
AcDbLine
 10
-727.4055642271259
 20
-812.5271947334666
 30
0.0
 11
-1035.901349045449
 21
-504.0314099151436
 31
0.0
  0
LINE
  5
A6
330
1F
100
AcDbEntity
  8
0-0
  6
JWW_DASHED1
 62
   120
370
     5
100
AcDbLine
 10
-717.506069290489
 20
-812.527194733467
 30
0.0
 11
-1035.901349045459
 21
-494.1319149784991
 31
0.0
  0
LINE
  5
A7
330
1F
100
AcDbEntity
  8
0-0
  6
JWW_DASHED1
 62
   120
370
     5
100
AcDbLine
 10
-707.6065743539289
 20
-812.5271947334487
 30
0.0
 11
-1035.901349045436
 21
-484.2324200419424
 31
0.0
  0
LINE
  5
A8
330
1F
100
AcDbEntity
  8
0-0
  6
JWW_DASHED1
 62
   120
370
     5
100
AcDbLine
 10
-697.7070794172835
 20
-812.5271947334585
 30
0.0
 11
-1035.901349045444
 21
-474.3329251052974
 31
0.0
  0
LINE
  5
A9
330
1F
100
AcDbEntity
  8
0-0
  6
JWW_DASHED1
 62
   120
370
     5
100
AcDbLine
 10
-687.8075844806381
 20
-812.5271947334679
 30
0.0
 11
-1035.901349045449
 21
-464.4334301686563
 31
0.0
  0
LINE
  5
AA
330
1F
100
AcDbEntity
  8
0-0
  6
JWW_DASHED1
 62
   120
370
     5
100
AcDbLine
 10
-677.9080895440541
 20
-812.5271947334729
 30
0.0
 11
-1035.901349045456
 21
-454.5339352320706
 31
0.0
  0
LINE
  5
AB
330
1F
100
AcDbEntity
  8
0-0
  6
JWW_DASHED1
 62
   120
370
     5
100
AcDbLine
 10
-668.0085946074394
 20
-812.52719473345
 30
0.0
 11
-1035.901349045436
 21
-444.6344402954546
 31
0.0
  0
LINE
  5
AC
330
1F
100
AcDbEntity
  8
0-0
  6
JWW_DASHED1
 62
   120
370
     5
100
AcDbLine
 10
-658.1090996708554
 20
-812.5271947334551
 30
0.0
 11
-1035.901349045442
 21
-434.7349453588689
 31
0.0
  0
LINE
  5
AD
330
1F
100
AcDbEntity
  8
0-0
  6
JWW_DASHED1
 62
   120
370
     5
100
AcDbLine
 10
-648.20960473421
 20
-812.5271947334649
 30
0.0
 11
-1035.901349045446
 21
-424.8354504222282
 31
0.0
  0
LINE
  5
AE
330
1F
100
AcDbEntity
  8
0-0
  6
JWW_DASHED1
 62
   120
370
     5
100
AcDbLine
 10
-638.310109797626
 20
-812.5271947334692
 30
0.0
 11
-1035.901349045453
 21
-414.9359554856425
 31
0.0
  0
LINE
  5
AF
330
1F
100
AcDbEntity
  8
0-0
  6
JWW_DASHED1
 62
   120
370
     5
100
AcDbLine
 10
-628.4106148610113
 20
-812.5271947334475
 30
0.0
 11
-1035.901349045432
 21
-405.0364605490261
 31
0.0
  0
LINE
  5
B0
330
1F
100
AcDbEntity
  8
0-0
  6
JWW_DASHED1
 62
   120
370
     5
100
AcDbLine
 10
-618.5111199243676
 20
-812.5271947334568
 30
0.0
 11
-1035.901349045442
 21
-395.1369656123815
 31
0.0
  0
LINE
  5
B1
330
1F
100
AcDbEntity
  8
0-0
  6
JWW_DASHED1
 62
   120
370
     5
100
AcDbLine
 10
-608.6116249877819
 20
-812.5271947334611
 30
0.0
 11
-1035.901349045448
 21
-385.2374706757957
 31
0.0
  0
LINE
  5
B2
330
1F
100
AcDbEntity
  8
0-0
  6
JWW_DASHED1
 62
   120
370
     5
100
AcDbLine
 10
-598.7121300511365
 20
-812.5271947334704
 30
0.0
 11
-1035.901349045453
 21
-375.3379757391555
 31
0.0
  0
LINE
  5
B3
330
1F
100
AcDbEntity
  8
0-0
  6
JWW_DASHED1
 62
   120
370
     5
100
AcDbLine
 10
-588.8126351145797
 20
-812.5271947334483
 30
0.0
 11
-1035.901349045446
 21
-365.4384808025817
 31
0.0
  0
LINE
  5
B4
330
1F
100
AcDbEntity
  8
0-0
  6
JWW_DASHED1
 62
   120
370
     5
100
AcDbLine
 10
-578.9131401779377
 20
-812.5271947334534
 30
0.0
 11
-1035.901349045439
 21
-355.5389858659526
 31
0.0
  0
LINE
  5
B5
330
1F
100
AcDbEntity
  8
0-0
  6
JWW_DASHED1
 62
   120
370
     5
100
AcDbLine
 10
-569.0136452413537
 20
-812.5271947334585
 30
0.0
 11
-1035.901349045446
 21
-345.6394909293668
 31
0.0
  0
LINE
  5
B6
330
1F
100
AcDbEntity
  8
0-0
  6
JWW_DASHED1
 62
   120
370
     5
100
AcDbLine
 10
-559.1141503047083
 20
-812.5271947334675
 30
0.0
 11
-1035.901349045449
 21
-335.739995992727
 31
0.0
  0
LINE
  5
B7
330
1F
100
AcDbEntity
  8
0-0
  6
JWW_DASHED1
 62
   120
370
     5
100
AcDbLine
 10
-549.2146553681243
 20
-812.5271947334726
 30
0.0
 11
-1035.901349045456
 21
-325.8405010561412
 31
0.0
  0
LINE
  5
B8
330
1F
100
AcDbEntity
  8
0-0
  6
JWW_DASHED1
 62
   120
370
     5
100
AcDbLine
 10
-539.3151604315096
 20
-812.52719473345
 30
0.0
 11
-1035.901349045436
 21
-315.941006119524
 31
0.0
  0
LINE
  5
B9
330
1F
100
AcDbEntity
  8
0-0
  6
JWW_DASHED1
 62
   120
370
     5
100
AcDbLine
 10
-529.415665494866
 20
-812.5271947334593
 30
0.0
 11
-1035.901349045446
 21
-306.0415111828794
 31
0.0
  0
LINE
  5
BA
330
1F
100
AcDbEntity
  8
0-0
  6
JWW_DASHED1
 62
   120
370
     5
100
AcDbLine
 10
-519.5161705582802
 20
-812.5271947334649
 30
0.0
 11
-1035.901349045446
 21
-296.1420162462985
 31
0.0
  0
LINE
  5
BB
330
1F
100
AcDbEntity
  8
0-0
  6
JWW_DASHED1
 62
   120
370
     5
100
AcDbLine
 10
-509.6166756216502
 20
-812.5271947334593
 30
0.0
 11
-1035.901349045456
 21
-286.2425213096539
 31
0.0
  0
LINE
  5
BC
330
1F
100
AcDbEntity
  8
0-0
  6
JWW_DASHED1
 62
   120
370
     5
100
AcDbLine
 10
-499.7171806850815
 20
-812.527194733447
 30
0.0
 11
-1035.901349045434
 21
-276.3430263730954
 31
0.0
  0
LINE
  5
BD
330
1F
100
AcDbEntity
  8
0-0
  6
JWW_DASHED1
 62
   120
370
     5
100
AcDbLine
 10
-489.8176857484378
 20
-812.5271947334559
 30
0.0
 11
-1035.901349045442
 21
-266.4435314364509
 31
0.0
  0
LINE
  5
BE
330
1F
100
AcDbEntity
  8
0-0
  6
JWW_DASHED1
 62
   120
370
     5
100
AcDbLine
 10
-479.9181908118521
 20
-812.5271947334611
 30
0.0
 11
-1035.901349045449
 21
-256.5440364998652
 31
0.0
  0
LINE
  5
BF
330
1F
100
AcDbEntity
  8
0-0
  6
JWW_DASHED1
 62
   120
370
     5
100
AcDbLine
 10
-470.0186958752067
 20
-812.5271947334709
 30
0.0
 11
-1035.901349045453
 21
-246.6445415632258
 31
0.0
  0
LINE
  5
C0
330
1F
100
AcDbEntity
  8
0-0
  6
JWW_DASHED1
 62
   120
370
     5
100
AcDbLine
 10
-460.1192009386534
 20
-812.5271947334444
 30
0.0
 11
-1035.901349045446
 21
-236.7450466266507
 31
0.0
  0
LINE
  5
C1
330
1F
100
AcDbEntity
  8
0-0
  6
JWW_DASHED1
 62
   120
370
     5
100
AcDbLine
 10
-450.2197060020097
 20
-812.5271947334534
 30
0.0
 11
-1035.901349045441
 21
-226.8455516900219
 31
0.0
  0
LINE
  5
C2
330
1F
100
AcDbEntity
  8
0-0
  6
JWW_DASHED1
 62
   120
370
     5
100
AcDbLine
 10
-445.9013490454435
 20
-806.9460567533836
 30
0.0
 11
-1035.901349045449
 21
-216.9460567533774
 31
0.0
  0
LINE
  5
C3
330
1F
100
AcDbEntity
  8
0-0
  6
JWW_DASHED1
 62
   120
370
     5
100
AcDbLine
 10
-445.9013490454503
 20
-797.0465618167977
 30
0.0
 11
-1035.901349045449
 21
-207.0465618167977
 31
0.0
  0
LINE
  5
C4
330
1F
100
AcDbEntity
  8
0-0
  6
JWW_DASHED1
 62
   120
370
     5
100
AcDbLine
 10
-445.9013490454265
 20
-787.1470668801849
 30
0.0
 11
-1035.901349045432
 21
-197.1470668801791
 31
0.0
  0
LINE
  5
C5
330
1F
100
AcDbEntity
  8
0-0
  6
JWW_DASHED1
 62
   120
370
     5
100
AcDbLine
 10
-445.9013490454316
 20
-777.247571943599
 30
0.0
 11
-1035.901349045439
 21
-187.247571943593
 31
0.0
  0
LINE
  5
C6
330
1F
100
AcDbEntity
  8
0-0
  6
JWW_DASHED1
 62
   120
370
     5
100
AcDbLine
 10
-445.9013490454401
 20
-767.3480770069546
 30
0.0
 11
-1035.901349045448
 21
-177.3480770069484
 31
0.0
  0
LINE
  5
C7
330
1F
100
AcDbEntity
  8
0-0
  6
JWW_DASHED1
 62
   120
370
     5
100
AcDbLine
 10
-445.9013490454469
 20
-757.4485820703696
 30
0.0
 11
-1035.901349045446
 21
-167.4485820703691
 31
0.0
  0
LINE
  5
C8
330
1F
100
AcDbEntity
  8
0-0
  6
JWW_DASHED1
 62
   120
370
     5
100
AcDbLine
 10
-445.9013490454401
 20
-747.549087133741
 30
0.0
 11
-1035.901349045456
 21
-157.5490871337246
 31
0.0
  0
LINE
  5
C9
330
1F
100
AcDbEntity
  8
0-0
  6
JWW_DASHED1
 62
   120
370
     5
100
AcDbLine
 10
-445.9013490454333
 20
-737.6495921971117
 30
0.0
 11
-1035.901349045439
 21
-147.6495921971056
 31
0.0
  0
LINE
  5
CA
330
1F
100
AcDbEntity
  8
0-0
  6
JWW_DASHED1
 62
   120
370
     5
100
AcDbLine
 10
-445.9013490454384
 20
-727.7500972605255
 30
0.0
 11
-1035.901349045444
 21
-137.7500972605203
 31
0.0
  0
LINE
  5
CB
330
1F
100
AcDbEntity
  8
0-0
  6
JWW_DASHED1
 62
   120
370
     5
100
AcDbLine
 10
-445.9013490454469
 20
-717.8506023238823
 30
0.0
 11
-1035.901349045448
 21
-127.8506023238818
 31
0.0
  0
LINE
  5
CC
330
1F
100
AcDbEntity
  8
0-0
  6
JWW_DASHED1
 62
   120
370
     5
100
AcDbLine
 10
-445.9013490454503
 20
-707.951107387297
 30
0.0
 11
-1035.901349045453
 21
-117.951107387296
 31
0.0
  0
LINE
  5
CD
330
1F
100
AcDbEntity
  8
0-0
  6
JWW_DASHED1
 62
   120
370
     5
100
AcDbLine
 10
-445.9013490454299
 20
-698.0516124506833
 30
0.0
 11
-1035.901349045436
 21
-108.0516124506771
 31
0.0
  0
LINE
  5
CE
330
1F
100
AcDbEntity
  8
0-0
  6
JWW_DASHED1
 62
   120
370
     5
100
AcDbLine
 10
-445.9013490454367
 20
-688.1521175140974
 30
0.0
 11
-1035.901349045442
 21
-98.15211751409137
 31
0.0
  0
LINE
  5
CF
330
1F
100
AcDbEntity
  8
0-0
  6
JWW_DASHED1
 62
   120
370
     5
100
AcDbLine
 10
-445.9013490454435
 20
-678.2526225774538
 30
0.0
 11
-1035.901349045444
 21
-88.25262257745365
 31
0.0
  0
LINE
  5
D0
330
1F
100
AcDbEntity
  8
0-0
  6
JWW_DASHED1
 62
   120
370
     5
100
AcDbLine
 10
-445.9013490454486
 20
-668.353127640868
 30
0.0
 11
-1035.901349045449
 21
-78.35312764086794
 31
0.0
  0
LINE
  5
D1
330
1F
100
AcDbEntity
  8
0-0
  6
JWW_DASHED1
 62
   120
370
     5
100
AcDbLine
 10
-445.9013490454282
 20
-658.4536327042542
 30
0.0
 11
-1035.901349045434
 21
-68.45363270424855
 31
0.0
  0
LINE
  5
D2
330
1F
100
AcDbEntity
  8
0-0
  6
JWW_DASHED1
 62
   120
370
     5
100
AcDbLine
 10
-445.9013490454367
 20
-648.5541377676097
 30
0.0
 11
-1035.901349045442
 21
-58.554137767604
 31
0.0
  0
LINE
  5
D3
330
1F
100
AcDbEntity
  8
0-0
  6
JWW_DASHED1
 62
   120
370
     5
100
AcDbLine
 10
-445.9013490454418
 20
-638.6546428310239
 30
0.0
 11
-1035.901349045449
 21
-48.65464283101829
 31
0.0
  0
LINE
  5
D4
330
1F
100
AcDbEntity
  8
0-0
  6
JWW_DASHED1
 62
   120
370
     5
100
AcDbLine
 10
-445.9013490454503
 20
-628.7551478943811
 30
0.0
 11
-1035.901349045449
 21
-38.755147894381
 31
0.0
  0
LINE
  5
D5
330
1F
100
AcDbEntity
  8
0-0
  6
JWW_DASHED1
 62
   120
370
     5
100
AcDbLine
 10
-445.9013490454401
 20
-618.8556529578116
 30
0.0
 11
-1035.901349045456
 21
-28.85565295779529
 31
0.0
  0
LINE
  5
D6
330
1F
100
AcDbEntity
  8
0-0
  6
JWW_DASHED1
 62
   120
370
     5
100
AcDbLine
 10
-445.9013490454333
 20
-608.9561580211812
 30
0.0
 11
-1035.901349045439
 21
-18.95615802117504
 31
0.0
  0
LINE
  5
D7
330
1F
100
AcDbEntity
  8
0-0
  6
JWW_DASHED1
 62
   120
370
     5
100
AcDbLine
 10
-445.9013490454401
 20
-599.056663084595
 30
0.0
 11
-1035.901349045446
 21
-9.056663084589758
 31
0.0
  0
LINE
  5
D8
330
1F
100
AcDbEntity
  8
0-0
  6
JWW_DASHED1
 62
   120
370
     5
100
AcDbLine
 10
-445.9013490454469
 20
-589.157168147953
 30
0.0
 11
-1035.901349045446
 21
0.8428318520475386
 31
0.0
  0
LINE
  5
D9
330
1F
100
AcDbEntity
  8
0-0
  6
JWW_DASHED1
 62
   120
370
     5
100
AcDbLine
 10
-445.901349045452
 20
-579.2576732113673
 30
0.0
 11
-1035.901349045453
 21
10.74232678863282
 31
0.0
  0
LINE
  5
DA
330
1F
100
AcDbEntity
  8
0-0
  6
JWW_DASHED1
 62
   120
370
     5
100
AcDbLine
 10
-445.9013490454316
 20
-569.3581782747522
 30
0.0
 11
-1035.901349045437
 21
20.64182172525349
 31
0.0
  0
LINE
  5
DB
330
1F
100
AcDbEntity
  8
0-0
  6
JWW_DASHED1
 62
   120
370
     5
100
AcDbLine
 10
-445.9013490454401
 20
-559.4586833381077
 30
0.0
 11
-1035.901349045446
 21
30.54131666189804
 31
0.0
  0
LINE
  5
DC
330
1F
100
AcDbEntity
  8
0-0
  6
JWW_DASHED1
 62
   120
370
     5
100
AcDbLine
 10
-445.9013490454435
 20
-549.5591884015245
 30
0.0
 11
-1035.901349045444
 21
40.44081159847565
 31
0.0
  0
LINE
  5
DD
330
1F
100
AcDbEntity
  8
0-0
  6
JWW_DASHED1
 62
   120
370
     5
100
AcDbLine
 10
-445.9013490454537
 20
-539.6596934648803
 30
0.0
 11
-1035.901349045453
 21
50.34030653512019
 31
0.0
  0
LINE
  5
DE
330
1F
100
AcDbEntity
  8
0-0
  6
JWW_DASHED1
 62
   120
370
     5
100
AcDbLine
 10
-445.9013490454299
 20
-529.7601985283236
 30
0.0
 11
-1035.901349045436
 21
60.23980147168245
 31
0.0
  0
LINE
  5
DF
330
1F
100
AcDbEntity
  8
0-0
  6
JWW_DASHED1
 62
   120
370
     5
100
AcDbLine
 10
-445.9013490454367
 20
-519.8607035916791
 30
0.0
 11
-1035.901349045444
 21
70.139296408327
 31
0.0
  0
LINE
  5
E0
330
1F
100
AcDbEntity
  8
0-0
  6
JWW_DASHED1
 62
   120
370
     5
100
AcDbLine
 10
-445.9013490454435
 20
-509.9612086550934
 30
0.0
 11
-1035.901349045449
 21
80.03879134491228
 31
0.0
  0
LINE
  5
E1
330
1F
100
AcDbEntity
  8
0-0
  6
JWW_DASHED1
 62
   120
370
     5
100
AcDbLine
 10
-445.9013490454503
 20
-500.0617137184519
 30
0.0
 11
-1035.901349045449
 21
89.9382862815483
 31
0.0
  0
LINE
  5
E2
330
1F
100
AcDbEntity
  8
0-0
  6
JWW_DASHED1
 62
   120
370
     5
100
AcDbLine
 10
-445.9013490454401
 20
-490.1622187818819
 30
0.0
 11
-1035.901349045456
 21
99.83778121813401
 31
0.0
  0
LINE
  5
E3
330
1F
100
AcDbEntity
  8
0-0
  6
JWW_DASHED1
 62
   120
370
     5
100
AcDbLine
 10
-445.901349045435
 20
-480.2627238452505
 30
0.0
 11
-1035.901349045441
 21
109.7372761547555
 31
0.0
  0
LINE
  5
E4
330
1F
100
AcDbEntity
  8
0-0
  6
JWW_DASHED1
 62
   120
370
     5
100
AcDbLine
 10
-445.9013490454435
 20
-470.3632289086056
 30
0.0
 11
-1035.901349045449
 21
119.6367710914001
 31
0.0
  0
LINE
  5
E5
330
1F
100
AcDbEntity
  8
0-0
  6
JWW_DASHED1
 62
   120
370
     5
100
AcDbLine
 10
-445.9013490454469
 20
-460.4637339720238
 30
0.0
 11
-1035.901349045446
 21
129.5362660279764
 31
0.0
  0
LINE
  5
E6
330
1F
100
AcDbEntity
  8
0-0
  6
JWW_DASHED1
 62
   120
370
     5
100
AcDbLine
 10
-445.9013490454265
 20
-450.5642390354074
 30
0.0
 11
-1035.901349045449
 21
139.4357609646141
 31
0.0
  0
LINE
  5
E7
330
1F
100
AcDbEntity
  8
0-0
  6
JWW_DASHED1
 62
   120
370
     5
100
AcDbLine
 10
-445.9013490454333
 20
-440.6647440988216
 30
0.0
 11
-1035.901349045439
 21
149.3352559011841
 31
0.0
  0
LINE
  5
E8
330
1F
100
AcDbEntity
  8
0-0
  6
JWW_DASHED1
 62
   120
370
     5
100
AcDbLine
 10
-445.9013490454418
 20
-430.765249162177
 30
0.0
 11
-1035.901349045448
 21
159.2347508378286
 31
0.0
  0
LINE
  5
E9
330
1F
100
AcDbEntity
  8
0-0
  6
JWW_DASHED1
 62
   120
370
     5
100
AcDbLine
 10
-445.9013490454435
 20
-420.8657542255952
 30
0.0
 11
-1035.901349045442
 21
169.1342457744054
 31
0.0
  0
LINE
  5
EA
330
1F
100
AcDbEntity
  8
0-0
  6
JWW_DASHED1
 62
   120
370
     5
100
AcDbLine
 10
-445.9013490454537
 20
-410.9662592889507
 30
0.0
 11
-1035.901349045453
 21
179.0337407110495
 31
0.0
  0
LINE
  5
EB
330
1F
100
AcDbEntity
  8
0-0
  6
JWW_DASHED1
 62
   120
370
     5
100
AcDbLine
 10
-445.9013490454333
 20
-401.0667643523338
 30
0.0
 11
-1035.901349045439
 21
188.9332356476714
 31
0.0
  0
LINE
  5
EC
330
1F
100
AcDbEntity
  8
0-0
  6
JWW_DASHED1
 62
   120
370
     5
100
AcDbLine
 10
-445.9013490454401
 20
-391.1672694157485
 30
0.0
 11
-1035.901349045446
 21
198.8327305842571
 31
0.0
  0
LINE
  5
ED
330
1F
100
AcDbEntity
  8
0-0
  6
JWW_DASHED1
 62
   120
370
     5
100
AcDbLine
 10
-445.9013490454435
 20
-381.2677744791079
 30
0.0
 11
-1035.901349045446
 21
208.7322255208923
 31
0.0
  0
LINE
  5
EE
330
1F
100
AcDbEntity
  8
0-0
  6
JWW_DASHED1
 62
   120
370
     5
100
AcDbLine
 10
-445.9013490454503
 20
-371.3682795425221
 30
0.0
 11
-1035.901349045449
 21
218.631720457478
 31
0.0
  0
LINE
  5
EF
330
1F
100
AcDbEntity
  8
0-0
  6
JWW_DASHED1
 62
   120
370
     5
100
AcDbLine
 10
-445.9013490454299
 20
-361.4687846059057
 30
0.0
 11
-1035.901349045437
 21
228.5312153941004
 31
0.0
  0
LINE
  5
F0
330
1F
100
AcDbEntity
  8
0-0
  6
JWW_DASHED1
 62
   120
370
     5
100
AcDbLine
 10
-445.9013490454367
 20
-351.56928966932
 30
0.0
 11
-1035.901349045442
 21
238.4307103306861
 31
0.0
  0
LINE
  5
F1
330
1F
100
AcDbEntity
  8
0-0
  6
JWW_DASHED1
 62
   120
370
     5
100
AcDbLine
 10
-445.9013490454452
 20
-341.6697947326754
 30
0.0
 11
-1035.901349045453
 21
248.3302052673307
 31
0.0
  0
LINE
  5
F2
330
1F
100
AcDbEntity
  8
0-0
  6
JWW_DASHED1
 62
   120
370
     5
100
AcDbLine
 10
-445.9013490454469
 20
-331.770299796094
 30
0.0
 11
-1035.901349045446
 21
258.2297002039061
 31
0.0
  0
LINE
  5
F3
330
1F
100
AcDbEntity
  8
0-0
  6
JWW_DASHED1
 62
   120
370
     5
100
AcDbLine
 10
-445.9013490454282
 20
-321.8708048594767
 30
0.0
 11
-1035.901349045434
 21
268.129195140529
 31
0.0
  0
LINE
  5
F4
330
1F
100
AcDbEntity
  8
0-0
  6
JWW_DASHED1
 62
   120
370
     5
100
AcDbLine
 10
-445.9013490454367
 20
-311.9713099228322
 30
0.0
 11
-1035.901349045442
 21
278.0286900771731
 31
0.0
  0
LINE
  5
F5
330
1F
100
AcDbEntity
  8
0-0
  6
JWW_DASHED1
 62
   120
370
     5
100
AcDbLine
 10
-445.9013490454435
 20
-302.0718149862465
 30
0.0
 11
-1035.901349045449
 21
287.9281850137592
 31
0.0
  0
LINE
  5
F6
330
1F
100
AcDbEntity
  8
0-0
  6
JWW_DASHED1
 62
   120
370
     5
100
AcDbLine
 10
-445.9013490454469
 20
-292.172320049607
 30
0.0
 11
-1035.901349045448
 21
297.8276799503935
 31
0.0
  0
LINE
  5
F7
330
1F
100
AcDbEntity
  8
0-0
  6
JWW_DASHED1
 62
   120
370
     5
100
AcDbLine
 10
-445.9013490454367
 20
-282.2728251130371
 30
0.0
 11
-1035.901349045453
 21
307.7271748869792
 31
0.0
  0
LINE
  5
F8
330
1F
100
AcDbEntity
  8
0-0
  6
JWW_DASHED1
 62
   120
370
     5
100
AcDbLine
 10
-445.901349045435
 20
-272.3733301764032
 30
0.0
 11
-1035.901349045441
 21
317.6266698236025
 31
0.0
  0
LINE
  5
F9
330
1F
100
AcDbEntity
  8
0-0
  6
JWW_DASHED1
 62
   120
370
     5
100
AcDbLine
 10
-445.9013490454401
 20
-262.4738352398175
 30
0.0
 11
-1035.901349045446
 21
327.5261647601882
 31
0.0
  0
LINE
  5
FA
330
1F
100
AcDbEntity
  8
0-0
  6
JWW_DASHED1
 62
   120
370
     5
100
AcDbLine
 10
-445.9013490454435
 20
-252.5743403031785
 30
0.0
 11
-1035.901349045444
 21
337.4256596968216
 31
0.0
  0
LINE
  5
FB
330
1F
100
AcDbEntity
  8
0-0
  6
JWW_DASHED1
 62
   120
370
     5
100
AcDbLine
 10
-445.9013490454486
 20
-242.6748453665932
 30
0.0
 11
-1035.901349045449
 21
347.3251546334074
 31
0.0
  0
LINE
  5
FC
330
1F
100
AcDbEntity
  8
0-0
  6
JWW_DASHED1
 62
   120
370
     5
100
AcDbLine
 10
-445.9013490454333
 20
-232.7753504299747
 30
0.0
 11
-1035.901349045439
 21
357.224649570031
 31
0.0
  0
LINE
  5
FD
330
1F
100
AcDbEntity
  8
0-0
  6
JWW_DASHED1
 62
   120
370
     5
100
AcDbLine
 10
-445.9013490454401
 20
-222.8758554933306
 30
0.0
 11
-1035.901349045448
 21
367.1241445066755
 31
0.0
  0
LINE
  5
FE
330
1F
100
AcDbEntity
  8
0-0
  6
JWW_DASHED1
 62
   120
370
     5
100
AcDbLine
 10
-445.9013490454469
 20
-212.9763605567449
 30
0.0
 11
-1035.901349045453
 21
377.0236394432612
 31
0.0
  0
LINE
  5
FF
330
1F
100
AcDbEntity
  8
0-0
  6
JWW_DASHED1
 62
   120
370
     5
100
AcDbLine
 10
-445.9013490454503
 20
-203.0768656201055
 30
0.0
 11
-1035.901349045451
 21
386.9231343798947
 31
0.0
  0
LINE
  5
100
330
1F
100
AcDbEntity
  8
0-0
  6
JWW_DASHED1
 62
   120
370
     5
100
AcDbLine
 10
-445.9013490454299
 20
-193.1773706835462
 30
0.0
 11
-1035.901349045436
 21
396.8226293164595
 31
0.0
  0
LINE
  5
101
330
1F
100
AcDbEntity
  8
0-0
  6
JWW_DASHED1
 62
   120
370
     5
100
AcDbLine
 10
-445.9013490454384
 20
-183.2778757469016
 30
0.0
 11
-1035.901349045444
 21
406.7221242531041
 31
0.0
  0
LINE
  5
102
330
1F
100
AcDbEntity
  8
0-0
  6
JWW_DASHED1
 62
   120
370
     5
100
AcDbLine
 10
-445.9013490454435
 20
-173.3783808103159
 30
0.0
 11
-1035.901349045449
 21
416.6216191896898
 31
0.0
  0
LINE
  5
103
330
1F
100
AcDbEntity
  8
0-0
  6
JWW_DASHED1
 62
   120
370
     5
100
AcDbLine
 10
-445.9013490454469
 20
-163.4788858736773
 30
0.0
 11
-1035.901349045448
 21
426.5211141263228
 31
0.0
  0
LINE
  5
104
330
1F
100
AcDbEntity
  8
0-0
  6
JWW_DASHED1
 62
   120
370
     5
100
AcDbLine
 10
-445.9013490454367
 20
-153.5793909371078
 30
0.0
 11
-1035.901349045453
 21
436.4206090629085
 31
0.0
  0
LINE
  5
105
330
1F
100
AcDbEntity
  8
0-0
  6
JWW_DASHED1
 62
   120
370
     5
100
AcDbLine
 10
-445.9013490454367
 20
-143.6798960004727
 30
0.0
 11
-1035.901349045442
 21
446.320103999533
 31
0.0
  0
LINE
  5
106
330
1F
100
AcDbEntity
  8
0-0
  6
JWW_DASHED1
 62
   120
370
     5
100
AcDbLine
 10
-445.9013490454452
 20
-133.7804010638281
 30
0.0
 11
-1035.901349045451
 21
456.2195989361776
 31
0.0
  0
LINE
  5
107
330
1F
100
AcDbEntity
  8
0-0
  6
JWW_DASHED1
 62
   120
370
     5
100
AcDbLine
 10
-445.9013490454435
 20
-123.8809061272492
 30
0.0
 11
-1035.901349045444
 21
466.1190938727514
 31
0.0
  0
LINE
  5
108
330
1F
100
AcDbEntity
  8
0-0
  6
JWW_DASHED1
 62
   120
370
     5
100
AcDbLine
 10
-445.9013490454265
 20
-113.9814111906298
 30
0.0
 11
-1035.901349045449
 21
476.0185888093916
 31
0.0
  0
LINE
  5
109
330
1F
100
AcDbEntity
  8
0-0
  6
JWW_DASHED1
 62
   120
370
     5
100
AcDbLine
 10
-445.9013490454333
 20
-104.0819162540441
 30
0.0
 11
-1035.901349045439
 21
485.9180837459616
 31
0.0
  0
LINE
  5
10A
330
1F
100
AcDbEntity
  8
0-0
  6
JWW_DASHED1
 62
   120
370
     5
100
AcDbLine
 10
-445.9013490454418
 20
-94.18242131740001
 30
0.0
 11
-1035.901349045449
 21
495.8175786826061
 31
0.0
  0
LINE
  5
10B
330
1F
100
AcDbEntity
  8
0-0
  6
JWW_DASHED1
 62
   120
370
     5
100
AcDbLine
 10
-445.9013490454401
 20
-84.2829263808207
 30
0.0
 11
-1035.901349045441
 21
505.7170736191795
 31
0.0
  0
LINE
  5
10C
330
1F
100
AcDbEntity
  8
0-0
  6
JWW_DASHED1
 62
   120
370
     5
100
AcDbLine
 10
-445.9013490454503
 20
-74.38343144417658
 30
0.0
 11
-1035.901349045449
 21
515.6165685558235
 31
0.0
  0
LINE
  5
10D
330
1F
100
AcDbEntity
  8
0-0
  6
JWW_DASHED1
 62
   120
370
     5
100
AcDbLine
 10
-445.9013490454333
 20
-64.48393650755676
 30
0.0
 11
-1035.901349045439
 21
525.5160634924493
 31
0.0
  0
LINE
  5
10E
330
1F
100
AcDbEntity
  8
0-0
  6
JWW_DASHED1
 62
   120
370
     5
100
AcDbLine
 10
-445.9013490454401
 20
-54.58444157097105
 30
0.0
 11
-1035.901349045446
 21
535.4155584290346
 31
0.0
  0
LINE
  5
10F
330
1F
100
AcDbEntity
  8
0-0
  6
JWW_DASHED1
 62
   120
370
     5
100
AcDbLine
 10
-445.9013490454418
 20
-44.68494663433333
 30
0.0
 11
-1035.901349045442
 21
545.3150533656668
 31
0.0
  0
LINE
  5
110
330
1F
100
AcDbEntity
  8
0-0
  6
JWW_DASHED1
 62
   120
370
     5
100
AcDbLine
 10
-445.9013490454469
 20
-34.78545169774762
 30
0.0
 11
-1035.901349045446
 21
555.2145483022525
 31
0.0
  0
LINE
  5
111
330
1F
100
AcDbEntity
  8
0-0
  6
JWW_DASHED1
 62
   120
370
     5
100
AcDbLine
 10
-445.9013490454316
 20
-24.8859567611278
 30
0.0
 11
-1035.901349045437
 21
565.1140432388779
 31
0.0
  0
LINE
  5
112
330
1F
100
AcDbEntity
  8
0-0
  6
JWW_DASHED1
 62
   120
370
     5
100
AcDbLine
 10
-445.9013490454367
 20
-14.98646182454209
 30
0.0
 11
-1035.901349045442
 21
575.0135381754636
 31
0.0
  0
LINE
  5
113
330
1F
100
AcDbEntity
  8
0-0
  6
JWW_DASHED1
 62
   120
370
     5
100
AcDbLine
 10
-445.9013490454469
 20
-5.086966887897546
 30
0.0
 11
-1035.901349045453
 21
584.9130331121081
 31
0.0
  0
LINE
  5
114
330
1F
100
AcDbEntity
  8
0-0
  6
JWW_DASHED1
 62
   120
370
     5
100
AcDbLine
 10
-445.9013490454435
 20
4.812528048680065
 30
0.0
 11
-1035.901349045442
 21
594.8125280486806
 31
0.0
  0
LINE
  5
115
330
1F
100
AcDbEntity
  8
0-0
  6
JWW_DASHED1
 62
   120
370
     5
100
AcDbLine
 10
-445.9013490454299
 20
14.71202298530116
 30
0.0
 11
-1035.901349045449
 21
604.7120229853217
 31
0.0
  0
LINE
  5
116
330
1F
100
AcDbEntity
  8
0-0
  6
JWW_DASHED1
 62
   120
370
     5
100
AcDbLine
 10
-445.9013490454367
 20
24.61151792194528
 30
0.0
 11
-1035.901349045444
 21
614.611517921951
 31
0.0
  0
LINE
  5
117
330
1F
100
AcDbEntity
  8
0-0
  6
JWW_DASHED1
 62
   120
370
     5
100
AcDbLine
 10
-445.9013490454435
 20
34.51101285853099
 30
0.0
 11
-1035.901349045449
 21
624.5110128585367
 31
0.0
  0
LINE
  5
118
330
1F
100
AcDbEntity
  8
0-0
  6
JWW_DASHED1
 62
   120
370
     5
100
AcDbLine
 10
-445.9013490454435
 20
44.41050779516743
 30
0.0
 11
-1035.901349045446
 21
634.410507795168
 31
0.0
  0
LINE
  5
119
330
1F
100
AcDbEntity
  8
0-0
  6
JWW_DASHED1
 62
   120
370
     5
100
AcDbLine
 10
-445.9013490454503
 20
54.31000273175314
 30
0.0
 11
-1035.901349045449
 21
644.3100027317532
 31
0.0
  0
LINE
  5
11A
330
1F
100
AcDbEntity
  8
0-0
  6
JWW_DASHED1
 62
   120
370
     5
100
AcDbLine
 10
-445.901349045435
 20
64.20949766837381
 30
0.0
 11
-1035.901349045442
 21
654.20949766838
 31
0.0
  0
LINE
  5
11B
330
1F
100
AcDbEntity
  8
0-0
  6
JWW_DASHED1
 62
   120
370
     5
100
AcDbLine
 10
-445.9013490454401
 20
74.10899260495952
 30
0.0
 11
-1035.901349045446
 21
664.1089926049652
 31
0.0
  0
LINE
  5
11C
330
1F
100
AcDbEntity
  8
0-0
  6
JWW_DASHED1
 62
   120
370
     5
100
AcDbLine
 10
-445.9013490454401
 20
84.00848754159597
 30
0.0
 11
-1035.901349045442
 21
674.0084875415961
 31
0.0
  0
LINE
  5
11D
330
1F
100
AcDbEntity
  8
0-0
  6
JWW_DASHED1
 62
   120
370
     5
100
AcDbLine
 10
-445.9013490454469
 20
93.90798247818125
 30
0.0
 11
-1035.901349045446
 21
683.9079824781813
 31
0.0
  0
LINE
  5
11E
330
1F
100
AcDbEntity
  8
0-0
  6
JWW_DASHED1
 62
   120
370
     5
100
AcDbLine
 10
-445.9013490454333
 20
103.8074774148028
 30
0.0
 11
-1035.901349045439
 21
693.8074774148084
 31
0.0
  0
LINE
  5
11F
330
1F
100
AcDbEntity
  8
0-0
  6
JWW_DASHED1
 62
   120
370
     5
100
AcDbLine
 10
-445.9013490454418
 20
113.7069723514473
 30
0.0
 11
-1035.901349045448
 21
703.706972351453
 31
0.0
  0
LINE
  5
120
330
1F
100
AcDbEntity
  8
0-0
  6
JWW_DASHED1
 62
   120
370
     5
100
AcDbLine
 10
-445.9013490454469
 20
123.606467288033
 30
0.0
 11
-1035.901349045453
 21
713.6064672880387
 31
0.0
  0
LINE
  5
121
330
1F
100
AcDbEntity
  8
0-0
  6
JWW_DASHED1
 62
   120
370
     5
100
AcDbLine
 10
-445.9013490454469
 20
133.5059622246686
 30
0.0
 11
-1035.901349045448
 21
723.5059622246688
 31
0.0
  0
LINE
  5
122
330
1F
100
AcDbEntity
  8
0-0
  6
JWW_DASHED1
 62
   120
370
     5
100
AcDbLine
 10
-445.9013490454299
 20
143.4054571612317
 30
0.0
 11
-1035.901349045451
 21
733.4054571612528
 31
0.0
  0
LINE
  5
123
330
1F
100
AcDbEntity
  8
0-0
  6
JWW_DASHED1
 62
   120
370
     5
100
AcDbLine
 10
-445.9013490454401
 20
153.3049520978763
 30
0.0
 11
-1035.901349045446
 21
743.3049520978819
 31
0.0
  0
LINE
  5
124
330
1F
100
AcDbEntity
  8
0-0
  6
JWW_DASHED1
 62
   120
370
     5
100
AcDbLine
 10
-445.9013490454435
 20
163.2044470344616
 30
0.0
 11
-1035.901349045449
 21
753.2044470344672
 31
0.0
  0
LINE
  5
125
330
1F
100
AcDbEntity
  8
0-0
  6
JWW_DASHED1
 62
   120
370
     5
100
AcDbLine
 10
-445.9013490454435
 20
173.1039419710967
 30
0.0
 11
-1035.901349045446
 21
763.1039419710974
 31
0.0
  0
LINE
  5
126
330
1F
100
AcDbEntity
  8
0-0
  6
JWW_DASHED1
 62
   120
370
     5
100
AcDbLine
 10
-445.9013490454503
 20
183.0034369076829
 30
0.0
 11
-1035.901349045449
 21
773.003436907683
 31
0.0
  0
LINE
  5
127
330
1F
100
AcDbEntity
  8
0-0
  6
JWW_DASHED1
 62
   120
370
     5
100
AcDbLine
 10
-445.9013490454367
 20
192.9029318443044
 30
0.0
 11
-1035.901349045442
 21
782.9029318443105
 31
0.0
  0
LINE
  5
128
330
1F
100
AcDbEntity
  8
0-0
  6
JWW_DASHED1
 62
   120
370
     5
100
AcDbLine
 10
-445.9013490454452
 20
202.8024267809489
 30
0.0
 11
-1035.901349045453
 21
792.8024267809551
 31
0.0
  0
LINE
  5
129
330
1F
100
AcDbEntity
  8
0-0
  6
JWW_DASHED1
 62
   120
370
     5
100
AcDbLine
 10
-445.9013490454401
 20
212.7019217175248
 30
0.0
 11
-1035.901349045442
 21
802.7019217175258
 31
0.0
  0
LINE
  5
12A
330
1F
100
AcDbEntity
  8
0-0
  6
JWW_DASHED1
 62
   120
370
     5
100
AcDbLine
 10
-445.9013490454333
 20
222.601416654154
 30
0.0
 11
-1035.901349045451
 21
812.60141665417
 31
0.0
  0
LINE
  5
12B
330
1F
100
AcDbEntity
  8
0-0
  6
JWW_DASHED1
 62
   120
370
     5
100
AcDbLine
 10
-445.9013490454333
 20
232.5009115907334
 30
0.0
 11
-1035.901349045439
 21
822.5009115907391
 31
0.0
  0
LINE
  5
12C
330
1F
100
AcDbEntity
  8
0-0
  6
JWW_DASHED1
 62
   120
370
     5
100
AcDbLine
 10
-445.9013490454435
 20
242.4004065273775
 30
0.0
 11
-1035.901349045449
 21
832.4004065273836
 31
0.0
  0
LINE
  5
12D
330
1F
100
AcDbEntity
  8
0-0
  6
JWW_DASHED1
 62
   120
370
     5
100
AcDbLine
 10
-445.9013490454469
 20
252.2999014639632
 30
0.0
 11
-1035.901349045453
 21
842.2999014639688
 31
0.0
  0
LINE
  5
12E
330
1F
100
AcDbEntity
  8
0-0
  6
JWW_DASHED1
 62
   120
370
     5
100
AcDbLine
 10
-445.9013490454469
 20
262.1993964005979
 30
0.0
 11
-1035.901349045448
 21
852.1993964005985
 31
0.0
  0
LINE
  5
12F
330
1F
100
AcDbEntity
  8
0-0
  6
JWW_DASHED1
 62
   120
370
     5
100
AcDbLine
 10
-445.901349045435
 20
272.0988913372212
 30
0.0
 11
-1035.901349045441
 21
862.0988913372269
 31
0.0
  0
LINE
  5
130
330
1F
100
AcDbEntity
  8
0-0
  6
JWW_DASHED1
 62
   120
370
     5
100
AcDbLine
 10
-445.9013490454401
 20
281.9983862738069
 30
0.0
 11
-1035.901349045446
 21
871.9983862738126
 31
0.0
  0
LINE
  5
131
330
1F
100
AcDbEntity
  8
0-0
  6
JWW_DASHED1
 62
   120
370
     5
100
AcDbLine
 10
-445.9013490454401
 20
291.8978812104411
 30
0.0
 11
-1035.901349045439
 21
881.8978812104413
 31
0.0
  0
LINE
  5
132
330
1F
100
AcDbEntity
  8
0-0
  6
JWW_DASHED1
 62
   120
370
     5
100
AcDbLine
 10
-445.9013490454435
 20
301.7973761470265
 30
0.0
 11
-1029.576778164962
 21
885.4728052665439
 31
0.0
  0
LINE
  5
133
330
1F
100
AcDbEntity
  8
0-0
  6
JWW_DASHED1
 62
   120
370
     5
100
AcDbLine
 10
-445.9013490454469
 20
875.9680824705039
 30
0.0
 11
-455.4060718414865
 21
885.4728052665439
 31
0.0
  0
LINE
  5
134
330
1F
100
AcDbEntity
  8
0-0
  6
JWW_DASHED1
 62
   120
370
     5
100
AcDbLine
 10
-445.9013490454316
 20
311.6968710836493
 30
0.0
 11
-1019.677283228327
 21
885.4728052665439
 31
0.0
  0
LINE
  5
135
330
1F
100
AcDbEntity
  8
0-0
  6
JWW_DASHED1
 62
   120
370
     5
100
AcDbLine
 10
-445.9013490454367
 20
321.596366020235
 30
0.0
 11
-1009.777788291746
 21
885.4728052665439
 31
0.0
  0
LINE
  5
136
330
1F
100
AcDbEntity
  8
0-0
  6
JWW_DASHED1
 62
   120
370
     5
100
AcDbLine
 10
-445.9013490454469
 20
331.4958609568795
 30
0.0
 11
-999.8782933551109
 21
885.4728052665439
 31
0.0
  0
LINE
  5
137
330
1F
100
AcDbEntity
  8
0-0
  6
JWW_DASHED1
 62
   120
370
     5
100
AcDbLine
 10
-445.9013490454401
 20
341.3953558934546
 30
0.0
 11
-989.9787984185303
 21
885.4728052665439
 31
0.0
  0
LINE
  5
138
330
1F
100
AcDbEntity
  8
0-0
  6
JWW_DASHED1
 62
   120
370
     5
100
AcDbLine
 10
-445.9013490454299
 20
351.2948508300782
 30
0.0
 11
-980.0793034818952
 21
885.4728052665439
 31
0.0
  0
LINE
  5
139
330
1F
100
AcDbEntity
  8
0-0
  6
JWW_DASHED1
 62
   120
370
     5
100
AcDbLine
 10
-445.9013490454384
 20
361.1943457667228
 30
0.0
 11
-970.17980854526
 21
885.4728052665439
 31
0.0
  0
LINE
  5
13A
330
1F
100
AcDbEntity
  8
0-0
  6
JWW_DASHED1
 62
   120
370
     5
100
AcDbLine
 10
-445.9013490454435
 20
371.0938407033085
 30
0.0
 11
-960.2803136086794
 21
885.4728052665439
 31
0.0
  0
LINE
  5
13B
330
1F
100
AcDbEntity
  8
0-0
  6
JWW_DASHED1
 62
   120
370
     5
100
AcDbLine
 10
-445.9013490454418
 20
380.993335639942
 30
0.0
 11
-950.3808186720443
 21
885.4728052665439
 31
0.0
  0
LINE
  5
13C
330
1F
100
AcDbEntity
  8
0-0
  6
JWW_DASHED1
 62
   120
370
     5
100
AcDbLine
 10
-445.9013490454469
 20
390.8928305765277
 30
0.0
 11
-940.4813237354637
 21
885.4728052665439
 31
0.0
  0
LINE
  5
13D
330
1F
100
AcDbEntity
  8
0-0
  6
JWW_DASHED1
 62
   120
370
     5
100
AcDbLine
 10
-445.9013490454367
 20
400.7923255131517
 30
0.0
 11
-930.5818287988285
 21
885.4728052665439
 31
0.0
  0
LINE
  5
13E
330
1F
100
AcDbEntity
  8
0-0
  6
JWW_DASHED1
 62
   120
370
     5
100
AcDbLine
 10
-445.9013490454401
 20
410.691820449737
 30
0.0
 11
-920.6823338622479
 21
885.4728052665439
 31
0.0
  0
LINE
  5
13F
330
1F
100
AcDbEntity
  8
0-0
  6
JWW_DASHED1
 62
   120
370
     5
100
AcDbLine
 10
-445.9013490454384
 20
420.5913153863701
 30
0.0
 11
-910.7828389256127
 21
885.4728052665439
 31
0.0
  0
LINE
  5
140
330
1F
100
AcDbEntity
  8
0-0
  6
JWW_DASHED1
 62
   120
370
     5
100
AcDbLine
 10
-445.9013490454435
 20
430.4908103229558
 30
0.0
 11
-900.8833439890321
 21
885.4728052665439
 31
0.0
  0
LINE
  5
141
330
1F
100
AcDbEntity
  8
0-0
  6
JWW_DASHED1
 62
   120
370
     5
100
AcDbLine
 10
-445.9013490454333
 20
440.3903052595803
 30
0.0
 11
-890.983849052397
 21
885.4728052665439
 31
0.0
  0
LINE
  5
142
330
1F
100
AcDbEntity
  8
0-0
  6
JWW_DASHED1
 62
   120
370
     5
100
AcDbLine
 10
-445.9013490454418
 20
450.2898001962248
 30
0.0
 11
-881.0843541157618
 21
885.4728052665439
 31
0.0
  0
LINE
  5
143
330
1F
100
AcDbEntity
  8
0-0
  6
JWW_DASHED1
 62
   120
370
     5
100
AcDbLine
 10
-445.9013490454469
 20
460.1892951328101
 30
0.0
 11
-871.1848591791795
 21
885.4728052665439
 31
0.0
  0
LINE
  5
144
330
1F
100
AcDbEntity
  8
0-0
  6
JWW_DASHED1
 62
   120
370
     5
100
AcDbLine
 10
-445.9013490454435
 20
470.0887900694431
 30
0.0
 11
-861.285364242546
 21
885.4728052665439
 31
0.0
  0
LINE
  5
145
330
1F
100
AcDbEntity
  8
0-0
  6
JWW_DASHED1
 62
   120
370
     5
100
AcDbLine
 10
-445.9013490454299
 20
479.9882850060088
 30
0.0
 11
-851.3858693059638
 21
885.4728052665439
 31
0.0
  0
LINE
  5
146
330
1F
100
AcDbEntity
  8
0-0
  6
JWW_DASHED1
 62
   120
370
     5
100
AcDbLine
 10
-445.9013490454401
 20
489.8877799426533
 30
0.0
 11
-841.4863743693303
 21
885.4728052665439
 31
0.0
  0
LINE
  5
147
330
1F
100
AcDbEntity
  8
0-0
  6
JWW_DASHED1
 62
   120
370
     5
100
AcDbLine
 10
-445.9013490454435
 20
499.7872748792386
 30
0.0
 11
-831.5868794327497
 21
885.4728052665439
 31
0.0
  0
LINE
  5
148
330
1F
100
AcDbEntity
  8
0-0
  6
JWW_DASHED1
 62
   120
370
     5
100
AcDbLine
 10
-445.9013490454418
 20
509.6867698158717
 30
0.0
 11
-821.6873844961145
 21
885.4728052665439
 31
0.0
  0
LINE
  5
149
330
1F
100
AcDbEntity
  8
0-0
  6
JWW_DASHED1
 62
   120
370
     5
100
AcDbLine
 10
-445.9013490454469
 20
519.5862647524569
 30
0.0
 11
-811.7878895595339
 21
885.4728052665439
 31
0.0
  0
LINE
  5
14A
330
1F
100
AcDbEntity
  8
0-0
  6
JWW_DASHED1
 62
   120
370
     5
100
AcDbLine
 10
-445.9013490454367
 20
529.4857596890819
 30
0.0
 11
-801.8883946228988
 21
885.4728052665439
 31
0.0
  0
LINE
  5
14B
330
1F
100
AcDbEntity
  8
0-0
  6
JWW_DASHED1
 62
   120
370
     5
100
AcDbLine
 10
-445.9013490454469
 20
539.3852546257265
 30
0.0
 11
-791.9888996862636
 21
885.4728052665439
 31
0.0
  0
LINE
  5
14C
330
1F
100
AcDbEntity
  8
0-0
  6
JWW_DASHED1
 62
   120
370
     5
100
AcDbLine
 10
-445.9013490454384
 20
549.2847495622998
 30
0.0
 11
-782.089404749683
 21
885.4728052665439
 31
0.0
  0
LINE
  5
14D
330
1F
100
AcDbEntity
  8
0-0
  6
JWW_DASHED1
 62
   120
370
     5
100
AcDbLine
 10
-445.9013490454316
 20
559.1842444989281
 30
0.0
 11
-772.1899098130478
 21
885.4728052665439
 31
0.0
  0
LINE
  5
14E
330
1F
100
AcDbEntity
  8
0-0
  6
JWW_DASHED1
 62
   120
370
     5
100
AcDbLine
 10
-445.9013490454333
 20
569.0837394355108
 30
0.0
 11
-762.2904148764673
 21
885.4728052665439
 31
0.0
  0
LINE
  5
14F
330
1F
100
AcDbEntity
  8
0-0
  6
JWW_DASHED1
 62
   120
370
     5
100
AcDbLine
 10
-445.9013490454435
 20
578.9832343721554
 30
0.0
 11
-752.3909199398321
 21
885.4728052665439
 31
0.0
  0
LINE
  5
150
330
1F
100
AcDbEntity
  8
0-0
  6
JWW_DASHED1
 62
   120
370
     5
100
AcDbLine
 10
-445.9013490454469
 20
588.8827293087411
 30
0.0
 11
-742.4914250032498
 21
885.4728052665439
 31
0.0
  0
LINE
  5
151
330
1F
100
AcDbEntity
  8
0-0
  6
JWW_DASHED1
 62
   120
370
     5
100
AcDbLine
 10
-445.9013490454435
 20
598.7822242453719
 30
0.0
 11
-732.5919300666163
 21
885.4728052665439
 31
0.0
  0
LINE
  5
152
330
1F
100
AcDbEntity
  8
0-0
  6
JWW_DASHED1
 62
   120
370
     5
100
AcDbLine
 10
-445.901349045435
 20
608.6817191819982
 30
0.0
 11
-722.6924351299812
 21
885.4728052665439
 31
0.0
  0
LINE
  5
153
330
1F
100
AcDbEntity
  8
0-0
  6
JWW_DASHED1
 62
   120
370
     5
100
AcDbLine
 10
-445.9013490454401
 20
618.581214118584
 30
0.0
 11
-712.7929401934006
 21
885.4728052665439
 31
0.0
  0
LINE
  5
154
330
1F
100
AcDbEntity
  8
0-0
  6
JWW_DASHED1
 62
   120
370
     5
100
AcDbLine
 10
-445.9013490454367
 20
628.4807090552152
 30
0.0
 11
-702.8934452567654
 21
885.4728052665439
 31
0.0
  0
LINE
  5
155
330
1F
100
AcDbEntity
  8
0-0
  6
JWW_DASHED1
 62
   120
370
     5
100
AcDbLine
 10
-445.9013490454401
 20
638.3802039918
 30
0.0
 11
-692.9939503201848
 21
885.4728052665439
 31
0.0
  0
LINE
  5
156
330
1F
100
AcDbEntity
  8
0-0
  6
JWW_DASHED1
 62
   120
370
     5
100
AcDbLine
 10
-445.9013490454333
 20
648.2796989284271
 30
0.0
 11
-683.0944553835496
 21
885.4728052665439
 31
0.0
  0
LINE
  5
157
330
1F
100
AcDbEntity
  8
0-0
  6
JWW_DASHED1
 62
   120
370
     5
100
AcDbLine
 10
-445.9013490454367
 20
658.1791938650124
 30
0.0
 11
-673.194960446969
 21
885.4728052665439
 31
0.0
  0
LINE
  5
158
330
1F
100
AcDbEntity
  8
0-0
  6
JWW_DASHED1
 62
   120
370
     5
100
AcDbLine
 10
-445.9013490454469
 20
668.0786888016574
 30
0.0
 11
-663.2954655103322
 21
885.4728052665439
 31
0.0
  0
LINE
  5
159
330
1F
100
AcDbEntity
  8
0-0
  6
JWW_DASHED1
 62
   120
370
     5
100
AcDbLine
 10
-445.9013490454384
 20
677.9781837382295
 30
0.0
 11
-653.3959705737533
 21
885.4728052665439
 31
0.0
  0
LINE
  5
15A
330
1F
100
AcDbEntity
  8
0-0
  6
JWW_DASHED1
 62
   120
370
     5
100
AcDbLine
 10
-445.9013490454316
 20
687.8776786748579
 30
0.0
 11
-643.4964756371181
 21
885.4728052665439
 31
0.0
  0
LINE
  5
15B
330
1F
100
AcDbEntity
  8
0-0
  6
JWW_DASHED1
 62
   120
370
     5
100
AcDbLine
 10
-445.9013490454401
 20
697.7771736115003
 30
0.0
 11
-633.596980700483
 21
885.4728052665439
 31
0.0
  0
LINE
  5
15C
330
1F
100
AcDbEntity
  8
0-0
  6
JWW_DASHED1
 62
   120
370
     5
100
AcDbLine
 10
-445.9013490454435
 20
707.6766685480859
 30
0.0
 11
-623.6974857639024
 21
885.4728052665439
 31
0.0
  0
LINE
  5
15D
330
1F
100
AcDbEntity
  8
0-0
  6
JWW_DASHED1
 62
   120
370
     5
100
AcDbLine
 10
-445.9013490454401
 20
717.5761634847164
 30
0.0
 11
-613.7979908272672
 21
885.4728052665439
 31
0.0
  0
LINE
  5
15E
330
1F
100
AcDbEntity
  8
0-0
  6
JWW_DASHED1
 62
   120
370
     5
100
AcDbLine
 10
-445.9013490454435
 20
727.4756584213017
 30
0.0
 11
-603.8984958906866
 21
885.4728052665439
 31
0.0
  0
LINE
  5
15F
330
1F
100
AcDbEntity
  8
0-0
  6
JWW_DASHED1
 62
   120
370
     5
100
AcDbLine
 10
-445.9013490454367
 20
737.3751533579288
 30
0.0
 11
-593.9990009540514
 21
885.4728052665439
 31
0.0
  0
LINE
  5
160
330
1F
100
AcDbEntity
  8
0-0
  6
JWW_DASHED1
 62
   120
370
     5
100
AcDbLine
 10
-445.9013490454401
 20
747.274648294514
 30
0.0
 11
-584.0995060174708
 21
885.4728052665439
 31
0.0
  0
LINE
  5
161
330
1F
100
AcDbEntity
  8
0-0
  6
JWW_DASHED1
 62
   120
370
     5
100
AcDbLine
 10
-445.9013490454367
 20
757.1741432311445
 30
0.0
 11
-574.2000110808357
 21
885.4728052665439
 31
0.0
  0
LINE
  5
162
330
1F
100
AcDbEntity
  8
0-0
  6
JWW_DASHED1
 62
   120
370
     5
100
AcDbLine
 10
-445.9013490454401
 20
767.0736381677298
 30
0.0
 11
-564.3005161442551
 21
885.4728052665439
 31
0.0
  0
LINE
  5
163
330
1F
100
AcDbEntity
  8
0-0
  6
JWW_DASHED1
 62
   120
370
     5
100
AcDbLine
 10
-445.9013490454333
 20
776.9731331043578
 30
0.0
 11
-554.4010212076199
 21
885.4728052665439
 31
0.0
  0
LINE
  5
164
330
1F
100
AcDbEntity
  8
0-0
  6
JWW_DASHED1
 62
   120
370
     5
100
AcDbLine
 10
-445.9013490454435
 20
786.8726280410023
 30
0.0
 11
-544.5015262709848
 21
885.4728052665439
 31
0.0
  0
LINE
  5
165
330
1F
100
AcDbEntity
  8
0-0
  6
JWW_DASHED1
 62
   120
370
     5
100
AcDbLine
 10
-445.9013490454469
 20
796.7721229775875
 30
0.0
 11
-534.6020313344042
 21
885.4728052665439
 31
0.0
  0
LINE
  5
166
330
1F
100
AcDbEntity
  8
0-0
  6
JWW_DASHED1
 62
   120
370
     5
100
AcDbLine
 10
-445.9013490454418
 20
806.6716179142172
 30
0.0
 11
-524.702536397769
 21
885.4728052665439
 31
0.0
  0
LINE
  5
167
330
1F
100
AcDbEntity
  8
0-0
  6
JWW_DASHED1
 62
   120
370
     5
100
AcDbLine
 10
-445.9013490454316
 20
816.5711128507871
 30
0.0
 11
-514.8030414611884
 21
885.4728052665439
 31
0.0
  0
LINE
  5
168
330
1F
100
AcDbEntity
  8
0-0
  6
JWW_DASHED1
 62
   120
370
     5
100
AcDbLine
 10
-445.9013490454401
 20
826.4706077874308
 30
0.0
 11
-504.9035465245532
 21
885.4728052665439
 31
0.0
  0
LINE
  5
169
330
1F
100
AcDbEntity
  8
0-0
  6
JWW_DASHED1
 62
   120
370
     5
100
AcDbLine
 10
-445.9013490454452
 20
836.3701027240165
 30
0.0
 11
-495.0040515879726
 21
885.4728052665439
 31
0.0
  0
LINE
  5
16A
330
1F
100
AcDbEntity
  8
0-0
  6
JWW_DASHED1
 62
   120
370
     5
100
AcDbLine
 10
-445.9013490454401
 20
846.2695976606458
 30
0.0
 11
-485.1045566513375
 21
885.4728052665439
 31
0.0
  0
LINE
  5
16B
330
1F
100
AcDbEntity
  8
0-0
  6
JWW_DASHED1
 62
   120
370
     5
100
AcDbLine
 10
-445.9013490454316
 20
856.1690925972741
 30
0.0
 11
-475.2050617147005
 21
885.4728052665439
 31
0.0
  0
LINE
  5
16C
330
1F
100
AcDbEntity
  8
0-0
  6
JWW_DASHED1
 62
   120
370
     5
100
AcDbLine
 10
-445.9013490454367
 20
866.0685875338594
 30
0.0
 11
-465.3055667781217
 21
885.4728052665439
 31
0.0
  0
LINE
  5
16D
330
1F
100
AcDbEntity
  8
0-0
  6
JWW_DASHED1
 62
   120
370
     5
100
AcDbLine
 10
-254.2899072620571
 20
-812.5271947334606
 30
0.0
 11
-255.9013490454424
 21
-810.9157529500749
 31
0.0
  0
LINE
  5
16E
330
1F
100
AcDbEntity
  8
0-0
  6
JWW_DASHED1
 62
   120
370
     5
100
AcDbLine
 10
-244.3904123254134
 20
-812.52719473347
 30
0.0
 11
-255.9013490454526
 21
-801.0162580134307
 31
0.0
  0
LINE
  5
16F
330
1F
100
AcDbEntity
  8
0-0
  6
JWW_DASHED1
 62
   120
370
     5
100
AcDbLine
 10
-234.4909173888277
 20
-812.5271947334747
 30
0.0
 11
-255.9013490454577
 21
-791.1167630768455
 31
0.0
  0
LINE
  5
170
330
1F
100
AcDbEntity
  8
0-0
  6
JWW_DASHED1
 62
   120
370
     5
100
AcDbLine
 10
-224.5914224522164
 20
-812.5271947334525
 30
0.0
 11
-255.9013490454356
 21
-781.2172681402325
 31
0.0
  0
LINE
  5
171
330
1F
100
AcDbEntity
  8
0-0
  6
JWW_DASHED1
 62
   120
370
     5
100
AcDbLine
 10
-214.6919275156289
 20
-812.5271947334577
 30
0.0
 11
-255.9013490454407
 21
-771.3177732036463
 31
0.0
  0
LINE
  5
172
330
1F
100
AcDbEntity
  8
0-0
  6
JWW_DASHED1
 62
   120
370
     5
100
AcDbLine
 10
-204.7924325789836
 20
-812.527194733467
 30
0.0
 11
-255.9013490454492
 21
-761.4182782670023
 31
0.0
  0
LINE
  5
173
330
1F
100
AcDbEntity
  8
0-0
  6
JWW_DASHED1
 62
   120
370
     5
100
AcDbLine
 10
-194.8929376423995
 20
-812.5271947334717
 30
0.0
 11
-255.9013490454543
 21
-751.5187833304165
 31
0.0
  0
LINE
  5
174
330
1F
100
AcDbEntity
  8
0-0
  6
JWW_DASHED1
 62
   120
370
     5
100
AcDbLine
 10
-184.9934427057865
 20
-812.5271947334495
 30
0.0
 11
-255.9013490454321
 21
-741.6192883938036
 31
0.0
  0
LINE
  5
175
330
1F
100
AcDbEntity
  8
0-0
  6
JWW_DASHED1
 62
   120
370
     5
100
AcDbLine
 10
-175.0939477691429
 20
-812.5271947334589
 30
0.0
 11
-255.9013490454424
 21
-731.719793457159
 31
0.0
  0
LINE
  5
176
330
1F
100
AcDbEntity
  8
0-0
  6
JWW_DASHED1
 62
   120
370
     5
100
AcDbLine
 10
-165.1944528325554
 20
-812.5271947334636
 30
0.0
 11
-255.9013490454475
 21
-721.8202985205733
 31
0.0
  0
LINE
  5
177
330
1F
100
AcDbEntity
  8
0-0
  6
JWW_DASHED1
 62
   120
370
     5
100
AcDbLine
 10
-155.2949578959135
 20
-812.5271947334729
 30
0.0
 11
-255.901349045456
 21
-711.9208035839296
 31
0.0
  0
LINE
  5
178
330
1F
100
AcDbEntity
  8
0-0
  6
JWW_DASHED1
 62
   120
370
     5
100
AcDbLine
 10
-145.3954629593465
 20
-812.5271947334593
 30
0.0
 11
-255.9013490454458
 21
-702.0213086473592
 31
0.0
  0
LINE
  5
179
330
1F
100
AcDbEntity
  8
0-0
  6
JWW_DASHED1
 62
   120
370
     5
100
AcDbLine
 10
-135.4959680227147
 20
-812.5271947334551
 30
0.0
 11
-255.901349045439
 21
-692.1218137107301
 31
0.0
  0
LINE
  5
17A
330
1F
100
AcDbEntity
  8
0-0
  6
JWW_DASHED1
 62
   120
370
     5
100
AcDbLine
 10
-125.5964730861273
 20
-812.5271947334602
 30
0.0
 11
-255.9013490454441
 21
-682.2223187741442
 31
0.0
  0
LINE
  5
17B
330
1F
100
AcDbEntity
  8
0-0
  6
JWW_DASHED1
 62
   120
370
     5
100
AcDbLine
 10
-115.6969781494836
 20
-812.5271947334695
 30
0.0
 11
-255.9013490454526
 21
-672.3228238375015
 31
0.0
  0
LINE
  5
17C
330
1F
100
AcDbEntity
  8
0-0
  6
JWW_DASHED1
 62
   120
370
     5
100
AcDbLine
 10
-105.7974832128979
 20
-812.5271947334747
 30
0.0
 11
-255.901349045456
 21
-662.4233289009157
 31
0.0
  0
LINE
  5
17D
330
1F
100
AcDbEntity
  8
0-0
  6
JWW_DASHED1
 62
   120
370
     5
100
AcDbLine
 10
-95.89798827628664
 20
-812.5271947334525
 30
0.0
 11
-255.9013490454356
 21
-652.5238339643015
 31
0.0
  0
LINE
  5
17E
330
1F
100
AcDbEntity
  8
0-0
  6
JWW_DASHED1
 62
   120
370
     5
100
AcDbLine
 10
-85.99849333964124
 20
-812.5271947334619
 30
0.0
 11
-255.9013490454458
 21
-642.6243390276569
 31
0.0
  0
LINE
  5
17F
330
1F
100
AcDbEntity
  8
0-0
  6
JWW_DASHED1
 62
   120
370
     5
100
AcDbLine
 10
-76.09899840305553
 20
-812.5271947334666
 30
0.0
 11
-255.9013490454492
 21
-632.7248440910729
 31
0.0
  0
LINE
  5
180
330
1F
100
AcDbEntity
  8
0-0
  6
JWW_DASHED1
 62
   120
370
     5
100
AcDbLine
 10
-66.19950346641525
 20
-812.5271947334709
 30
0.0
 11
-255.9013490454594
 21
-622.8253491544287
 31
0.0
  0
LINE
  5
181
330
1F
100
AcDbEntity
  8
0-0
  6
JWW_DASHED1
 62
   120
370
     5
100
AcDbLine
 10
-56.30000852985683
 20
-812.527194733449
 30
0.0
 11
-255.9013490454338
 21
-612.9258542178729
 31
0.0
  0
LINE
  5
182
330
1F
100
AcDbEntity
  8
0-0
  6
JWW_DASHED1
 62
   120
370
     5
100
AcDbLine
 10
-46.40051359321313
 20
-812.5271947334585
 30
0.0
 11
-255.9013490454424
 21
-603.0263592812285
 31
0.0
  0
LINE
  5
183
330
1F
100
AcDbEntity
  8
0-0
  6
JWW_DASHED1
 62
   120
370
     5
100
AcDbLine
 10
-36.50101865662742
 20
-812.5271947334636
 30
0.0
 11
-255.9013490454492
 21
-593.1268643446426
 31
0.0
  0
LINE
  5
184
330
1F
100
AcDbEntity
  8
0-0
  6
JWW_DASHED1
 62
   120
370
     5
100
AcDbLine
 10
-26.60152371998374
 20
-812.5271947334729
 30
0.0
 11
-255.901349045456
 21
-583.2273694080003
 31
0.0
  0
LINE
  5
185
330
1F
100
AcDbEntity
  8
0-0
  6
JWW_DASHED1
 62
   120
370
     5
100
AcDbLine
 10
-16.70202878342872
 20
-812.5271947334461
 30
0.0
 11
-255.9013490454321
 21
-573.3278744714439
 31
0.0
  0
LINE
  5
186
330
1F
100
AcDbEntity
  8
0-0
  6
JWW_DASHED1
 62
   120
370
     5
100
AcDbLine
 10
-6.802533846785028
 20
-812.5271947334551
 30
0.0
 11
-255.901349045439
 21
-563.4283795347994
 31
0.0
  0
LINE
  5
187
330
1F
100
AcDbEntity
  8
0-0
  6
JWW_DASHED1
 62
   120
370
     5
100
AcDbLine
 10
3.096961089860368
 20
-812.5271947334649
 30
0.0
 11
-255.9013490454475
 21
-553.5288845981574
 31
0.0
  0
LINE
  5
188
330
1F
100
AcDbEntity
  8
0-0
  6
JWW_DASHED1
 62
   120
370
     5
100
AcDbLine
 10
12.99645602644608
 20
-812.5271947334695
 30
0.0
 11
-255.9013490454526
 21
-543.6293896615717
 31
0.0
  0
LINE
  5
189
330
1F
100
AcDbEntity
  8
0-0
  6
JWW_DASHED1
 62
   120
370
     5
100
AcDbLine
 10
22.89595096305908
 20
-812.5271947334475
 30
0.0
 11
-255.9013490454321
 21
-533.7298947249562
 31
0.0
  0
LINE
  5
18A
330
1F
100
AcDbEntity
  8
0-0
  6
JWW_DASHED1
 62
   120
370
     5
100
AcDbLine
 10
32.79544589964308
 20
-812.5271947334525
 30
0.0
 11
-255.9013490454373
 21
-523.8303997883709
 31
0.0
  0
LINE
  5
18B
330
1F
100
AcDbEntity
  8
0-0
  6
JWW_DASHED1
 62
   120
370
     5
100
AcDbLine
 10
42.69494083628848
 20
-812.5271947334619
 30
0.0
 11
-255.9013490454458
 21
-513.9309048517264
 31
0.0
  0
LINE
  5
18C
330
1F
100
AcDbEntity
  8
0-0
  6
JWW_DASHED1
 62
   120
370
     5
100
AcDbLine
 10
52.59443577287419
 20
-812.5271947334666
 30
0.0
 11
-255.9013490454492
 21
-504.0314099151436
 31
0.0
  0
LINE
  5
18D
330
1F
100
AcDbEntity
  8
0-0
  6
JWW_DASHED1
 62
   120
370
     5
100
AcDbLine
 10
62.49393070951106
 20
-812.527194733467
 30
0.0
 11
-255.9013490454594
 21
-494.1319149784991
 31
0.0
  0
LINE
  5
18E
330
1F
100
AcDbEntity
  8
0-0
  6
JWW_DASHED1
 62
   120
370
     5
100
AcDbLine
 10
72.3934256460712
 20
-812.5271947334487
 30
0.0
 11
-255.9013490454356
 21
-484.2324200419424
 31
0.0
  0
LINE
  5
18F
330
1F
100
AcDbEntity
  8
0-0
  6
JWW_DASHED1
 62
   120
370
     5
100
AcDbLine
 10
82.29292058271659
 20
-812.5271947334585
 30
0.0
 11
-255.9013490454441
 21
-474.3329251052974
 31
0.0
  0
LINE
  5
190
330
1F
100
AcDbEntity
  8
0-0
  6
JWW_DASHED1
 62
   120
370
     5
100
AcDbLine
 10
92.19241551936199
 20
-812.5271947334679
 30
0.0
 11
-255.9013490454492
 21
-464.4334301686563
 31
0.0
  0
LINE
  5
191
330
1F
100
AcDbEntity
  8
0-0
  6
JWW_DASHED1
 62
   120
370
     5
100
AcDbLine
 10
102.091910455946
 20
-812.5271947334729
 30
0.0
 11
-255.901349045456
 21
-454.5339352320706
 31
0.0
  0
LINE
  5
192
330
1F
100
AcDbEntity
  8
0-0
  6
JWW_DASHED1
 62
   120
370
     5
100
AcDbLine
 10
111.9914053925607
 20
-812.52719473345
 30
0.0
 11
-255.9013490454356
 21
-444.6344402954546
 31
0.0
  0
LINE
  5
193
330
1F
100
AcDbEntity
  8
0-0
  6
JWW_DASHED1
 62
   120
370
     5
100
AcDbLine
 10
121.8909003291447
 20
-812.5271947334551
 30
0.0
 11
-255.9013490454424
 21
-434.7349453588689
 31
0.0
  0
LINE
  5
194
330
1F
100
AcDbEntity
  8
0-0
  6
JWW_DASHED1
 62
   120
370
     5
100
AcDbLine
 10
131.7903952657901
 20
-812.5271947334649
 30
0.0
 11
-255.9013490454458
 21
-424.8354504222282
 31
0.0
  0
LINE
  5
195
330
1F
100
AcDbEntity
  8
0-0
  6
JWW_DASHED1
 62
   120
370
     5
100
AcDbLine
 10
141.6898902023741
 20
-812.5271947334692
 30
0.0
 11
-255.9013490454526
 21
-414.9359554856425
 31
0.0
  0
LINE
  5
196
330
1F
100
AcDbEntity
  8
0-0
  6
JWW_DASHED1
 62
   120
370
     5
100
AcDbLine
 10
151.5893851389888
 20
-812.5271947334475
 30
0.0
 11
-255.9013490454321
 21
-405.0364605490261
 31
0.0
  0
LINE
  5
197
330
1F
100
AcDbEntity
  8
0-0
  6
JWW_DASHED1
 62
   120
370
     5
100
AcDbLine
 10
161.4888800756325
 20
-812.5271947334568
 30
0.0
 11
-255.9013490454424
 21
-395.1369656123815
 31
0.0
  0
LINE
  5
198
330
1F
100
AcDbEntity
  8
0-0
  6
JWW_DASHED1
 62
   120
370
     5
100
AcDbLine
 10
171.3883750122182
 20
-812.5271947334611
 30
0.0
 11
-255.9013490454475
 21
-385.2374706757957
 31
0.0
  0
LINE
  5
199
330
1F
100
AcDbEntity
  8
0-0
  6
JWW_DASHED1
 62
   120
370
     5
100
AcDbLine
 10
181.2878699488636
 20
-812.5271947334704
 30
0.0
 11
-255.9013490454526
 21
-375.3379757391555
 31
0.0
  0
LINE
  5
19A
330
1F
100
AcDbEntity
  8
0-0
  6
JWW_DASHED1
 62
   120
370
     5
100
AcDbLine
 10
191.1873648854203
 20
-812.5271947334483
 30
0.0
 11
-255.9013490454458
 21
-365.4384808025817
 31
0.0
  0
LINE
  5
19B
330
1F
100
AcDbEntity
  8
0-0
  6
JWW_DASHED1
 62
   120
370
     5
100
AcDbLine
 10
201.0868598220623
 20
-812.5271947334534
 30
0.0
 11
-255.901349045439
 21
-355.5389858659526
 31
0.0
  0
LINE
  5
19C
330
1F
100
AcDbEntity
  8
0-0
  6
JWW_DASHED1
 62
   120
370
     5
100
AcDbLine
 10
210.9863547586463
 20
-812.5271947334585
 30
0.0
 11
-255.9013490454458
 21
-345.6394909293668
 31
0.0
  0
LINE
  5
19D
330
1F
100
AcDbEntity
  8
0-0
  6
JWW_DASHED1
 62
   120
370
     5
100
AcDbLine
 10
220.8858496952917
 20
-812.5271947334675
 30
0.0
 11
-255.9013490454492
 21
-335.739995992727
 31
0.0
  0
LINE
  5
19E
330
1F
100
AcDbEntity
  8
0-0
  6
JWW_DASHED1
 62
   120
370
     5
100
AcDbLine
 10
230.7853446318757
 20
-812.5271947334726
 30
0.0
 11
-255.901349045456
 21
-325.8405010561412
 31
0.0
  0
LINE
  5
19F
330
1F
100
AcDbEntity
  8
0-0
  6
JWW_DASHED1
 62
   120
370
     5
100
AcDbLine
 10
240.6848395684904
 20
-812.52719473345
 30
0.0
 11
-255.9013490454356
 21
-315.941006119524
 31
0.0
  0
LINE
  5
1A0
330
1F
100
AcDbEntity
  8
0-0
  6
JWW_DASHED1
 62
   120
370
     5
100
AcDbLine
 10
250.5843345051341
 20
-812.5271947334593
 30
0.0
 11
-255.9013490454458
 21
-306.0415111828794
 31
0.0
  0
LINE
  5
1A1
330
1F
100
AcDbEntity
  8
0-0
  6
JWW_DASHED1
 62
   120
370
     5
100
AcDbLine
 10
260.4838294417198
 20
-812.5271947334649
 30
0.0
 11
-255.9013490454458
 21
-296.1420162462985
 31
0.0
  0
LINE
  5
1A2
330
1F
100
AcDbEntity
  8
0-0
  6
JWW_DASHED1
 62
   120
370
     5
100
AcDbLine
 10
270.3833243783499
 20
-812.5271947334593
 30
0.0
 11
-255.901349045456
 21
-286.2425213096539
 31
0.0
  0
LINE
  5
1A3
330
1F
100
AcDbEntity
  8
0-0
  6
JWW_DASHED1
 62
   120
370
     5
100
AcDbLine
 10
280.2828193149185
 20
-812.527194733447
 30
0.0
 11
-255.9013490454338
 21
-276.3430263730954
 31
0.0
  0
LINE
  5
1A4
330
1F
100
AcDbEntity
  8
0-0
  6
JWW_DASHED1
 62
   120
370
     5
100
AcDbLine
 10
290.1823142515622
 20
-812.5271947334559
 30
0.0
 11
-255.9013490454424
 21
-266.4435314364509
 31
0.0
  0
LINE
  5
1A5
330
1F
100
AcDbEntity
  8
0-0
  6
JWW_DASHED1
 62
   120
370
     5
100
AcDbLine
 10
300.0818091881479
 20
-812.5271947334611
 30
0.0
 11
-255.9013490454492
 21
-256.5440364998652
 31
0.0
  0
LINE
  5
1A6
330
1F
100
AcDbEntity
  8
0-0
  6
JWW_DASHED1
 62
   120
370
     5
100
AcDbLine
 10
309.9813041247933
 20
-812.5271947334709
 30
0.0
 11
-255.9013490454526
 21
-246.6445415632258
 31
0.0
  0
LINE
  5
1A7
330
1F
100
AcDbEntity
  8
0-0
  6
JWW_DASHED1
 62
   120
370
     5
100
AcDbLine
 10
319.8807990613466
 20
-812.5271947334444
 30
0.0
 11
-255.9013490454458
 21
-236.7450466266507
 31
0.0
  0
LINE
  5
1A8
330
1F
100
AcDbEntity
  8
0-0
  6
JWW_DASHED1
 62
   120
370
     5
100
AcDbLine
 10
329.7802939979903
 20
-812.5271947334534
 30
0.0
 11
-255.9013490454407
 21
-226.8455516900219
 31
0.0
  0
LINE
  5
1A9
330
1F
100
AcDbEntity
  8
0-0
  6
JWW_DASHED1
 62
   120
370
     5
100
AcDbLine
 10
334.0986509545565
 20
-806.9460567533836
 30
0.0
 11
-255.9013490454492
 21
-216.9460567533774
 31
0.0
  0
LINE
  5
1AA
330
1F
100
AcDbEntity
  8
0-0
  6
JWW_DASHED1
 62
   120
370
     5
100
AcDbLine
 10
334.0986509545497
 20
-797.0465618167977
 30
0.0
 11
-255.9013490454492
 21
-207.0465618167977
 31
0.0
  0
LINE
  5
1AB
330
1F
100
AcDbEntity
  8
0-0
  6
JWW_DASHED1
 62
   120
370
     5
100
AcDbLine
 10
334.0986509545735
 20
-787.1470668801849
 30
0.0
 11
-255.9013490454321
 21
-197.1470668801791
 31
0.0
  0
LINE
  5
1AC
330
1F
100
AcDbEntity
  8
0-0
  6
JWW_DASHED1
 62
   120
370
     5
100
AcDbLine
 10
334.0986509545684
 20
-777.247571943599
 30
0.0
 11
-255.901349045439
 21
-187.247571943593
 31
0.0
  0
LINE
  5
1AD
330
1F
100
AcDbEntity
  8
0-0
  6
JWW_DASHED1
 62
   120
370
     5
100
AcDbLine
 10
334.0986509545599
 20
-767.3480770069546
 30
0.0
 11
-255.9013490454475
 21
-177.3480770069484
 31
0.0
  0
LINE
  5
1AE
330
1F
100
AcDbEntity
  8
0-0
  6
JWW_DASHED1
 62
   120
370
     5
100
AcDbLine
 10
334.0986509545531
 20
-757.4485820703696
 30
0.0
 11
-255.9013490454458
 21
-167.4485820703691
 31
0.0
  0
LINE
  5
1AF
330
1F
100
AcDbEntity
  8
0-0
  6
JWW_DASHED1
 62
   120
370
     5
100
AcDbLine
 10
334.0986509545599
 20
-747.549087133741
 30
0.0
 11
-255.901349045456
 21
-157.5490871337246
 31
0.0
  0
LINE
  5
1B0
330
1F
100
AcDbEntity
  8
0-0
  6
JWW_DASHED1
 62
   120
370
     5
100
AcDbLine
 10
334.0986509545667
 20
-737.6495921971117
 30
0.0
 11
-255.901349045439
 21
-147.6495921971056
 31
0.0
  0
LINE
  5
1B1
330
1F
100
AcDbEntity
  8
0-0
  6
JWW_DASHED1
 62
   120
370
     5
100
AcDbLine
 10
334.0986509545616
 20
-727.7500972605255
 30
0.0
 11
-255.9013490454441
 21
-137.7500972605203
 31
0.0
  0
LINE
  5
1B2
330
1F
100
AcDbEntity
  8
0-0
  6
JWW_DASHED1
 62
   120
370
     5
100
AcDbLine
 10
334.0986509545531
 20
-717.8506023238823
 30
0.0
 11
-255.9013490454475
 21
-127.8506023238818
 31
0.0
  0
LINE
  5
1B3
330
1F
100
AcDbEntity
  8
0-0
  6
JWW_DASHED1
 62
   120
370
     5
100
AcDbLine
 10
334.0986509545497
 20
-707.951107387297
 30
0.0
 11
-255.9013490454526
 21
-117.951107387296
 31
0.0
  0
LINE
  5
1B4
330
1F
100
AcDbEntity
  8
0-0
  6
JWW_DASHED1
 62
   120
370
     5
100
AcDbLine
 10
334.0986509545701
 20
-698.0516124506833
 30
0.0
 11
-255.9013490454356
 21
-108.0516124506771
 31
0.0
  0
LINE
  5
1B5
330
1F
100
AcDbEntity
  8
0-0
  6
JWW_DASHED1
 62
   120
370
     5
100
AcDbLine
 10
334.0986509545633
 20
-688.1521175140974
 30
0.0
 11
-255.9013490454424
 21
-98.15211751409137
 31
0.0
  0
LINE
  5
1B6
330
1F
100
AcDbEntity
  8
0-0
  6
JWW_DASHED1
 62
   120
370
     5
100
AcDbLine
 10
334.0986509545565
 20
-678.2526225774538
 30
0.0
 11
-255.9013490454441
 21
-88.25262257745365
 31
0.0
  0
LINE
  5
1B7
330
1F
100
AcDbEntity
  8
0-0
  6
JWW_DASHED1
 62
   120
370
     5
100
AcDbLine
 10
334.0986509545514
 20
-668.353127640868
 30
0.0
 11
-255.9013490454492
 21
-78.35312764086794
 31
0.0
  0
LINE
  5
1B8
330
1F
100
AcDbEntity
  8
0-0
  6
JWW_DASHED1
 62
   120
370
     5
100
AcDbLine
 10
334.0986509545718
 20
-658.4536327042542
 30
0.0
 11
-255.9013490454338
 21
-68.45363270424855
 31
0.0
  0
LINE
  5
1B9
330
1F
100
AcDbEntity
  8
0-0
  6
JWW_DASHED1
 62
   120
370
     5
100
AcDbLine
 10
334.0986509545633
 20
-648.5541377676097
 30
0.0
 11
-255.9013490454424
 21
-58.554137767604
 31
0.0
  0
LINE
  5
1BA
330
1F
100
AcDbEntity
  8
0-0
  6
JWW_DASHED1
 62
   120
370
     5
100
AcDbLine
 10
334.0986509545582
 20
-638.6546428310239
 30
0.0
 11
-255.9013490454492
 21
-48.65464283101829
 31
0.0
  0
LINE
  5
1BB
330
1F
100
AcDbEntity
  8
0-0
  6
JWW_DASHED1
 62
   120
370
     5
100
AcDbLine
 10
334.0986509545497
 20
-628.7551478943811
 30
0.0
 11
-255.9013490454492
 21
-38.755147894381
 31
0.0
  0
LINE
  5
1BC
330
1F
100
AcDbEntity
  8
0-0
  6
JWW_DASHED1
 62
   120
370
     5
100
AcDbLine
 10
334.0986509545599
 20
-618.8556529578116
 30
0.0
 11
-255.901349045456
 21
-28.85565295779529
 31
0.0
  0
LINE
  5
1BD
330
1F
100
AcDbEntity
  8
0-0
  6
JWW_DASHED1
 62
   120
370
     5
100
AcDbLine
 10
334.0986509545667
 20
-608.9561580211812
 30
0.0
 11
-255.901349045439
 21
-18.95615802117504
 31
0.0
  0
LINE
  5
1BE
330
1F
100
AcDbEntity
  8
0-0
  6
JWW_DASHED1
 62
   120
370
     5
100
AcDbLine
 10
334.0986509545599
 20
-599.056663084595
 30
0.0
 11
-255.9013490454458
 21
-9.056663084589758
 31
0.0
  0
LINE
  5
1BF
330
1F
100
AcDbEntity
  8
0-0
  6
JWW_DASHED1
 62
   120
370
     5
100
AcDbLine
 10
334.0986509545531
 20
-589.157168147953
 30
0.0
 11
-255.9013490454458
 21
0.8428318520475386
 31
0.0
  0
LINE
  5
1C0
330
1F
100
AcDbEntity
  8
0-0
  6
JWW_DASHED1
 62
   120
370
     5
100
AcDbLine
 10
334.098650954548
 20
-579.2576732113673
 30
0.0
 11
-255.9013490454526
 21
10.74232678863282
 31
0.0
  0
LINE
  5
1C1
330
1F
100
AcDbEntity
  8
0-0
  6
JWW_DASHED1
 62
   120
370
     5
100
AcDbLine
 10
334.0986509545684
 20
-569.3581782747522
 30
0.0
 11
-255.9013490454373
 21
20.64182172525349
 31
0.0
  0
LINE
  5
1C2
330
1F
100
AcDbEntity
  8
0-0
  6
JWW_DASHED1
 62
   120
370
     5
100
AcDbLine
 10
334.0986509545599
 20
-559.4586833381077
 30
0.0
 11
-255.9013490454458
 21
30.54131666189804
 31
0.0
  0
LINE
  5
1C3
330
1F
100
AcDbEntity
  8
0-0
  6
JWW_DASHED1
 62
   120
370
     5
100
AcDbLine
 10
334.0986509545565
 20
-549.5591884015245
 30
0.0
 11
-255.9013490454441
 21
40.44081159847565
 31
0.0
  0
LINE
  5
1C4
330
1F
100
AcDbEntity
  8
0-0
  6
JWW_DASHED1
 62
   120
370
     5
100
AcDbLine
 10
334.0986509545463
 20
-539.6596934648803
 30
0.0
 11
-255.9013490454526
 21
50.34030653512019
 31
0.0
  0
LINE
  5
1C5
330
1F
100
AcDbEntity
  8
0-0
  6
JWW_DASHED1
 62
   120
370
     5
100
AcDbLine
 10
334.0986509545701
 20
-529.7601985283236
 30
0.0
 11
-255.9013490454356
 21
60.23980147168245
 31
0.0
  0
LINE
  5
1C6
330
1F
100
AcDbEntity
  8
0-0
  6
JWW_DASHED1
 62
   120
370
     5
100
AcDbLine
 10
334.0986509545633
 20
-519.8607035916791
 30
0.0
 11
-255.9013490454441
 21
70.139296408327
 31
0.0
  0
LINE
  5
1C7
330
1F
100
AcDbEntity
  8
0-0
  6
JWW_DASHED1
 62
   120
370
     5
100
AcDbLine
 10
334.0986509545565
 20
-509.9612086550934
 30
0.0
 11
-255.9013490454492
 21
80.03879134491228
 31
0.0
  0
LINE
  5
1C8
330
1F
100
AcDbEntity
  8
0-0
  6
JWW_DASHED1
 62
   120
370
     5
100
AcDbLine
 10
334.0986509545497
 20
-500.0617137184519
 30
0.0
 11
-255.9013490454492
 21
89.9382862815483
 31
0.0
  0
LINE
  5
1C9
330
1F
100
AcDbEntity
  8
0-0
  6
JWW_DASHED1
 62
   120
370
     5
100
AcDbLine
 10
334.0986509545599
 20
-490.1622187818819
 30
0.0
 11
-255.901349045456
 21
99.83778121813401
 31
0.0
  0
LINE
  5
1CA
330
1F
100
AcDbEntity
  8
0-0
  6
JWW_DASHED1
 62
   120
370
     5
100
AcDbLine
 10
334.098650954565
 20
-480.2627238452505
 30
0.0
 11
-255.9013490454407
 21
109.7372761547555
 31
0.0
  0
LINE
  5
1CB
330
1F
100
AcDbEntity
  8
0-0
  6
JWW_DASHED1
 62
   120
370
     5
100
AcDbLine
 10
334.0986509545565
 20
-470.3632289086056
 30
0.0
 11
-255.9013490454492
 21
119.6367710914001
 31
0.0
  0
LINE
  5
1CC
330
1F
100
AcDbEntity
  8
0-0
  6
JWW_DASHED1
 62
   120
370
     5
100
AcDbLine
 10
334.0986509545531
 20
-460.4637339720238
 30
0.0
 11
-255.9013490454458
 21
129.5362660279764
 31
0.0
  0
LINE
  5
1CD
330
1F
100
AcDbEntity
  8
0-0
  6
JWW_DASHED1
 62
   120
370
     5
100
AcDbLine
 10
334.0986509545735
 20
-450.5642390354074
 30
0.0
 11
-255.9013490454492
 21
139.4357609646141
 31
0.0
  0
LINE
  5
1CE
330
1F
100
AcDbEntity
  8
0-0
  6
JWW_DASHED1
 62
   120
370
     5
100
AcDbLine
 10
334.0986509545667
 20
-440.6647440988216
 30
0.0
 11
-255.901349045439
 21
149.3352559011841
 31
0.0
  0
LINE
  5
1CF
330
1F
100
AcDbEntity
  8
0-0
  6
JWW_DASHED1
 62
   120
370
     5
100
AcDbLine
 10
334.0986509545582
 20
-430.765249162177
 30
0.0
 11
-255.9013490454475
 21
159.2347508378286
 31
0.0
  0
LINE
  5
1D0
330
1F
100
AcDbEntity
  8
0-0
  6
JWW_DASHED1
 62
   120
370
     5
100
AcDbLine
 10
334.0986509545565
 20
-420.8657542255952
 30
0.0
 11
-255.9013490454424
 21
169.1342457744054
 31
0.0
  0
LINE
  5
1D1
330
1F
100
AcDbEntity
  8
0-0
  6
JWW_DASHED1
 62
   120
370
     5
100
AcDbLine
 10
334.0986509545463
 20
-410.9662592889507
 30
0.0
 11
-255.9013490454526
 21
179.0337407110495
 31
0.0
  0
LINE
  5
1D2
330
1F
100
AcDbEntity
  8
0-0
  6
JWW_DASHED1
 62
   120
370
     5
100
AcDbLine
 10
334.0986509545667
 20
-401.0667643523338
 30
0.0
 11
-255.901349045439
 21
188.9332356476714
 31
0.0
  0
LINE
  5
1D3
330
1F
100
AcDbEntity
  8
0-0
  6
JWW_DASHED1
 62
   120
370
     5
100
AcDbLine
 10
334.0986509545599
 20
-391.1672694157485
 30
0.0
 11
-255.9013490454458
 21
198.8327305842571
 31
0.0
  0
LINE
  5
1D4
330
1F
100
AcDbEntity
  8
0-0
  6
JWW_DASHED1
 62
   120
370
     5
100
AcDbLine
 10
334.0986509545565
 20
-381.2677744791079
 30
0.0
 11
-255.9013490454458
 21
208.7322255208923
 31
0.0
  0
LINE
  5
1D5
330
1F
100
AcDbEntity
  8
0-0
  6
JWW_DASHED1
 62
   120
370
     5
100
AcDbLine
 10
334.0986509545497
 20
-371.3682795425221
 30
0.0
 11
-255.9013490454492
 21
218.631720457478
 31
0.0
  0
LINE
  5
1D6
330
1F
100
AcDbEntity
  8
0-0
  6
JWW_DASHED1
 62
   120
370
     5
100
AcDbLine
 10
334.0986509545701
 20
-361.4687846059057
 30
0.0
 11
-255.9013490454373
 21
228.5312153941004
 31
0.0
  0
LINE
  5
1D7
330
1F
100
AcDbEntity
  8
0-0
  6
JWW_DASHED1
 62
   120
370
     5
100
AcDbLine
 10
334.0986509545633
 20
-351.56928966932
 30
0.0
 11
-255.9013490454424
 21
238.4307103306861
 31
0.0
  0
LINE
  5
1D8
330
1F
100
AcDbEntity
  8
0-0
  6
JWW_DASHED1
 62
   120
370
     5
100
AcDbLine
 10
334.0986509545548
 20
-341.6697947326754
 30
0.0
 11
-255.9013490454526
 21
248.3302052673307
 31
0.0
  0
LINE
  5
1D9
330
1F
100
AcDbEntity
  8
0-0
  6
JWW_DASHED1
 62
   120
370
     5
100
AcDbLine
 10
334.0986509545531
 20
-331.770299796094
 30
0.0
 11
-255.9013490454458
 21
258.2297002039061
 31
0.0
  0
LINE
  5
1DA
330
1F
100
AcDbEntity
  8
0-0
  6
JWW_DASHED1
 62
   120
370
     5
100
AcDbLine
 10
334.0986509545718
 20
-321.8708048594767
 30
0.0
 11
-255.9013490454338
 21
268.129195140529
 31
0.0
  0
LINE
  5
1DB
330
1F
100
AcDbEntity
  8
0-0
  6
JWW_DASHED1
 62
   120
370
     5
100
AcDbLine
 10
334.0986509545633
 20
-311.9713099228322
 30
0.0
 11
-255.9013490454424
 21
278.0286900771731
 31
0.0
  0
LINE
  5
1DC
330
1F
100
AcDbEntity
  8
0-0
  6
JWW_DASHED1
 62
   120
370
     5
100
AcDbLine
 10
334.0986509545565
 20
-302.0718149862465
 30
0.0
 11
-255.9013490454492
 21
287.9281850137592
 31
0.0
  0
LINE
  5
1DD
330
1F
100
AcDbEntity
  8
0-0
  6
JWW_DASHED1
 62
   120
370
     5
100
AcDbLine
 10
334.0986509545531
 20
-292.172320049607
 30
0.0
 11
-255.9013490454475
 21
297.8276799503935
 31
0.0
  0
LINE
  5
1DE
330
1F
100
AcDbEntity
  8
0-0
  6
JWW_DASHED1
 62
   120
370
     5
100
AcDbLine
 10
334.0986509545633
 20
-282.2728251130371
 30
0.0
 11
-255.9013490454526
 21
307.7271748869792
 31
0.0
  0
LINE
  5
1DF
330
1F
100
AcDbEntity
  8
0-0
  6
JWW_DASHED1
 62
   120
370
     5
100
AcDbLine
 10
334.098650954565
 20
-272.3733301764032
 30
0.0
 11
-255.9013490454407
 21
317.6266698236025
 31
0.0
  0
LINE
  5
1E0
330
1F
100
AcDbEntity
  8
0-0
  6
JWW_DASHED1
 62
   120
370
     5
100
AcDbLine
 10
334.0986509545599
 20
-262.4738352398175
 30
0.0
 11
-255.9013490454458
 21
327.5261647601882
 31
0.0
  0
LINE
  5
1E1
330
1F
100
AcDbEntity
  8
0-0
  6
JWW_DASHED1
 62
   120
370
     5
100
AcDbLine
 10
334.0986509545565
 20
-252.5743403031785
 30
0.0
 11
-255.9013490454441
 21
337.4256596968216
 31
0.0
  0
LINE
  5
1E2
330
1F
100
AcDbEntity
  8
0-0
  6
JWW_DASHED1
 62
   120
370
     5
100
AcDbLine
 10
334.0986509545514
 20
-242.6748453665932
 30
0.0
 11
-255.9013490454492
 21
347.3251546334074
 31
0.0
  0
LINE
  5
1E3
330
1F
100
AcDbEntity
  8
0-0
  6
JWW_DASHED1
 62
   120
370
     5
100
AcDbLine
 10
334.0986509545667
 20
-232.7753504299747
 30
0.0
 11
-255.901349045439
 21
357.224649570031
 31
0.0
  0
LINE
  5
1E4
330
1F
100
AcDbEntity
  8
0-0
  6
JWW_DASHED1
 62
   120
370
     5
100
AcDbLine
 10
334.0986509545599
 20
-222.8758554933306
 30
0.0
 11
-255.9013490454475
 21
367.1241445066755
 31
0.0
  0
LINE
  5
1E5
330
1F
100
AcDbEntity
  8
0-0
  6
JWW_DASHED1
 62
   120
370
     5
100
AcDbLine
 10
334.0986509545531
 20
-212.9763605567449
 30
0.0
 11
-255.9013490454526
 21
377.0236394432612
 31
0.0
  0
LINE
  5
1E6
330
1F
100
AcDbEntity
  8
0-0
  6
JWW_DASHED1
 62
   120
370
     5
100
AcDbLine
 10
334.0986509545497
 20
-203.0768656201055
 30
0.0
 11
-255.9013490454509
 21
386.9231343798947
 31
0.0
  0
LINE
  5
1E7
330
1F
100
AcDbEntity
  8
0-0
  6
JWW_DASHED1
 62
   120
370
     5
100
AcDbLine
 10
334.0986509545701
 20
-193.1773706835462
 30
0.0
 11
-255.9013490454356
 21
396.8226293164595
 31
0.0
  0
LINE
  5
1E8
330
1F
100
AcDbEntity
  8
0-0
  6
JWW_DASHED1
 62
   120
370
     5
100
AcDbLine
 10
334.0986509545616
 20
-183.2778757469016
 30
0.0
 11
-255.9013490454441
 21
406.7221242531041
 31
0.0
  0
LINE
  5
1E9
330
1F
100
AcDbEntity
  8
0-0
  6
JWW_DASHED1
 62
   120
370
     5
100
AcDbLine
 10
334.0986509545565
 20
-173.3783808103159
 30
0.0
 11
-255.9013490454492
 21
416.6216191896898
 31
0.0
  0
LINE
  5
1EA
330
1F
100
AcDbEntity
  8
0-0
  6
JWW_DASHED1
 62
   120
370
     5
100
AcDbLine
 10
334.0986509545531
 20
-163.4788858736773
 30
0.0
 11
-255.9013490454475
 21
426.5211141263228
 31
0.0
  0
LINE
  5
1EB
330
1F
100
AcDbEntity
  8
0-0
  6
JWW_DASHED1
 62
   120
370
     5
100
AcDbLine
 10
334.0986509545633
 20
-153.5793909371078
 30
0.0
 11
-255.9013490454526
 21
436.4206090629085
 31
0.0
  0
LINE
  5
1EC
330
1F
100
AcDbEntity
  8
0-0
  6
JWW_DASHED1
 62
   120
370
     5
100
AcDbLine
 10
334.0986509545633
 20
-143.6798960004727
 30
0.0
 11
-255.9013490454424
 21
446.320103999533
 31
0.0
  0
LINE
  5
1ED
330
1F
100
AcDbEntity
  8
0-0
  6
JWW_DASHED1
 62
   120
370
     5
100
AcDbLine
 10
334.0986509545548
 20
-133.7804010638281
 30
0.0
 11
-255.9013490454509
 21
456.2195989361776
 31
0.0
  0
LINE
  5
1EE
330
1F
100
AcDbEntity
  8
0-0
  6
JWW_DASHED1
 62
   120
370
     5
100
AcDbLine
 10
334.0986509545565
 20
-123.8809061272492
 30
0.0
 11
-255.9013490454441
 21
466.1190938727514
 31
0.0
  0
LINE
  5
1EF
330
1F
100
AcDbEntity
  8
0-0
  6
JWW_DASHED1
 62
   120
370
     5
100
AcDbLine
 10
334.0986509545735
 20
-113.9814111906298
 30
0.0
 11
-255.9013490454492
 21
476.0185888093916
 31
0.0
  0
LINE
  5
1F0
330
1F
100
AcDbEntity
  8
0-0
  6
JWW_DASHED1
 62
   120
370
     5
100
AcDbLine
 10
334.0986509545667
 20
-104.0819162540441
 30
0.0
 11
-255.901349045439
 21
485.9180837459616
 31
0.0
  0
LINE
  5
1F1
330
1F
100
AcDbEntity
  8
0-0
  6
JWW_DASHED1
 62
   120
370
     5
100
AcDbLine
 10
334.0986509545582
 20
-94.18242131740001
 30
0.0
 11
-255.9013490454492
 21
495.8175786826061
 31
0.0
  0
LINE
  5
1F2
330
1F
100
AcDbEntity
  8
0-0
  6
JWW_DASHED1
 62
   120
370
     5
100
AcDbLine
 10
334.0986509545599
 20
-84.2829263808207
 30
0.0
 11
-255.9013490454407
 21
505.7170736191795
 31
0.0
  0
LINE
  5
1F3
330
1F
100
AcDbEntity
  8
0-0
  6
JWW_DASHED1
 62
   120
370
     5
100
AcDbLine
 10
334.0986509545497
 20
-74.38343144417658
 30
0.0
 11
-255.9013490454492
 21
515.6165685558235
 31
0.0
  0
LINE
  5
1F4
330
1F
100
AcDbEntity
  8
0-0
  6
JWW_DASHED1
 62
   120
370
     5
100
AcDbLine
 10
334.0986509545667
 20
-64.48393650755676
 30
0.0
 11
-255.901349045439
 21
525.5160634924493
 31
0.0
  0
LINE
  5
1F5
330
1F
100
AcDbEntity
  8
0-0
  6
JWW_DASHED1
 62
   120
370
     5
100
AcDbLine
 10
334.0986509545599
 20
-54.58444157097105
 30
0.0
 11
-255.9013490454458
 21
535.4155584290346
 31
0.0
  0
LINE
  5
1F6
330
1F
100
AcDbEntity
  8
0-0
  6
JWW_DASHED1
 62
   120
370
     5
100
AcDbLine
 10
334.0986509545582
 20
-44.68494663433333
 30
0.0
 11
-255.9013490454424
 21
545.3150533656668
 31
0.0
  0
LINE
  5
1F7
330
1F
100
AcDbEntity
  8
0-0
  6
JWW_DASHED1
 62
   120
370
     5
100
AcDbLine
 10
334.0986509545531
 20
-34.78545169774762
 30
0.0
 11
-255.9013490454458
 21
555.2145483022525
 31
0.0
  0
LINE
  5
1F8
330
1F
100
AcDbEntity
  8
0-0
  6
JWW_DASHED1
 62
   120
370
     5
100
AcDbLine
 10
334.0986509545684
 20
-24.8859567611278
 30
0.0
 11
-255.9013490454373
 21
565.1140432388779
 31
0.0
  0
LINE
  5
1F9
330
1F
100
AcDbEntity
  8
0-0
  6
JWW_DASHED1
 62
   120
370
     5
100
AcDbLine
 10
334.0986509545633
 20
-14.98646182454209
 30
0.0
 11
-255.9013490454424
 21
575.0135381754636
 31
0.0
  0
LINE
  5
1FA
330
1F
100
AcDbEntity
  8
0-0
  6
JWW_DASHED1
 62
   120
370
     5
100
AcDbLine
 10
334.0986509545531
 20
-5.086966887897546
 30
0.0
 11
-255.9013490454526
 21
584.9130331121081
 31
0.0
  0
LINE
  5
1FB
330
1F
100
AcDbEntity
  8
0-0
  6
JWW_DASHED1
 62
   120
370
     5
100
AcDbLine
 10
334.0986509545565
 20
4.812528048680065
 30
0.0
 11
-255.9013490454424
 21
594.8125280486806
 31
0.0
  0
LINE
  5
1FC
330
1F
100
AcDbEntity
  8
0-0
  6
JWW_DASHED1
 62
   120
370
     5
100
AcDbLine
 10
334.0986509545701
 20
14.71202298530116
 30
0.0
 11
-255.9013490454492
 21
604.7120229853217
 31
0.0
  0
LINE
  5
1FD
330
1F
100
AcDbEntity
  8
0-0
  6
JWW_DASHED1
 62
   120
370
     5
100
AcDbLine
 10
334.0986509545633
 20
24.61151792194528
 30
0.0
 11
-255.9013490454441
 21
614.611517921951
 31
0.0
  0
LINE
  5
1FE
330
1F
100
AcDbEntity
  8
0-0
  6
JWW_DASHED1
 62
   120
370
     5
100
AcDbLine
 10
334.0986509545565
 20
34.51101285853099
 30
0.0
 11
-255.9013490454492
 21
624.5110128585367
 31
0.0
  0
LINE
  5
1FF
330
1F
100
AcDbEntity
  8
0-0
  6
JWW_DASHED1
 62
   120
370
     5
100
AcDbLine
 10
334.0986509545565
 20
44.41050779516743
 30
0.0
 11
-255.9013490454458
 21
634.410507795168
 31
0.0
  0
LINE
  5
200
330
1F
100
AcDbEntity
  8
0-0
  6
JWW_DASHED1
 62
   120
370
     5
100
AcDbLine
 10
334.0986509545497
 20
54.31000273175314
 30
0.0
 11
-255.9013490454492
 21
644.3100027317532
 31
0.0
  0
LINE
  5
201
330
1F
100
AcDbEntity
  8
0-0
  6
JWW_DASHED1
 62
   120
370
     5
100
AcDbLine
 10
334.098650954565
 20
64.20949766837381
 30
0.0
 11
-255.9013490454424
 21
654.20949766838
 31
0.0
  0
LINE
  5
202
330
1F
100
AcDbEntity
  8
0-0
  6
JWW_DASHED1
 62
   120
370
     5
100
AcDbLine
 10
334.0986509545599
 20
74.10899260495952
 30
0.0
 11
-255.9013490454458
 21
664.1089926049652
 31
0.0
  0
LINE
  5
203
330
1F
100
AcDbEntity
  8
0-0
  6
JWW_DASHED1
 62
   120
370
     5
100
AcDbLine
 10
334.0986509545599
 20
84.00848754159597
 30
0.0
 11
-255.9013490454424
 21
674.0084875415961
 31
0.0
  0
LINE
  5
204
330
1F
100
AcDbEntity
  8
0-0
  6
JWW_DASHED1
 62
   120
370
     5
100
AcDbLine
 10
334.0986509545531
 20
93.90798247818125
 30
0.0
 11
-255.9013490454458
 21
683.9079824781813
 31
0.0
  0
LINE
  5
205
330
1F
100
AcDbEntity
  8
0-0
  6
JWW_DASHED1
 62
   120
370
     5
100
AcDbLine
 10
334.0986509545667
 20
103.8074774148028
 30
0.0
 11
-255.901349045439
 21
693.8074774148084
 31
0.0
  0
LINE
  5
206
330
1F
100
AcDbEntity
  8
0-0
  6
JWW_DASHED1
 62
   120
370
     5
100
AcDbLine
 10
334.0986509545582
 20
113.7069723514473
 30
0.0
 11
-255.9013490454475
 21
703.706972351453
 31
0.0
  0
LINE
  5
207
330
1F
100
AcDbEntity
  8
0-0
  6
JWW_DASHED1
 62
   120
370
     5
100
AcDbLine
 10
334.0986509545531
 20
123.606467288033
 30
0.0
 11
-255.9013490454526
 21
713.6064672880387
 31
0.0
  0
LINE
  5
208
330
1F
100
AcDbEntity
  8
0-0
  6
JWW_DASHED1
 62
   120
370
     5
100
AcDbLine
 10
334.0986509545531
 20
133.5059622246686
 30
0.0
 11
-255.9013490454475
 21
723.5059622246688
 31
0.0
  0
LINE
  5
209
330
1F
100
AcDbEntity
  8
0-0
  6
JWW_DASHED1
 62
   120
370
     5
100
AcDbLine
 10
334.0986509545701
 20
143.4054571612317
 30
0.0
 11
-255.9013490454509
 21
733.4054571612528
 31
0.0
  0
LINE
  5
20A
330
1F
100
AcDbEntity
  8
0-0
  6
JWW_DASHED1
 62
   120
370
     5
100
AcDbLine
 10
334.0986509545599
 20
153.3049520978763
 30
0.0
 11
-255.9013490454458
 21
743.3049520978819
 31
0.0
  0
LINE
  5
20B
330
1F
100
AcDbEntity
  8
0-0
  6
JWW_DASHED1
 62
   120
370
     5
100
AcDbLine
 10
334.0986509545565
 20
163.2044470344616
 30
0.0
 11
-255.9013490454492
 21
753.2044470344672
 31
0.0
  0
LINE
  5
20C
330
1F
100
AcDbEntity
  8
0-0
  6
JWW_DASHED1
 62
   120
370
     5
100
AcDbLine
 10
334.0986509545565
 20
173.1039419710967
 30
0.0
 11
-255.9013490454458
 21
763.1039419710974
 31
0.0
  0
LINE
  5
20D
330
1F
100
AcDbEntity
  8
0-0
  6
JWW_DASHED1
 62
   120
370
     5
100
AcDbLine
 10
334.0986509545497
 20
183.0034369076829
 30
0.0
 11
-255.9013490454492
 21
773.003436907683
 31
0.0
  0
LINE
  5
20E
330
1F
100
AcDbEntity
  8
0-0
  6
JWW_DASHED1
 62
   120
370
     5
100
AcDbLine
 10
334.0986509545633
 20
192.9029318443044
 30
0.0
 11
-255.9013490454424
 21
782.9029318443105
 31
0.0
  0
LINE
  5
20F
330
1F
100
AcDbEntity
  8
0-0
  6
JWW_DASHED1
 62
   120
370
     5
100
AcDbLine
 10
334.0986509545548
 20
202.8024267809489
 30
0.0
 11
-255.9013490454526
 21
792.8024267809551
 31
0.0
  0
LINE
  5
210
330
1F
100
AcDbEntity
  8
0-0
  6
JWW_DASHED1
 62
   120
370
     5
100
AcDbLine
 10
334.0986509545599
 20
212.7019217175248
 30
0.0
 11
-255.9013490454424
 21
802.7019217175258
 31
0.0
  0
LINE
  5
211
330
1F
100
AcDbEntity
  8
0-0
  6
JWW_DASHED1
 62
   120
370
     5
100
AcDbLine
 10
334.0986509545667
 20
222.601416654154
 30
0.0
 11
-255.9013490454509
 21
812.60141665417
 31
0.0
  0
LINE
  5
212
330
1F
100
AcDbEntity
  8
0-0
  6
JWW_DASHED1
 62
   120
370
     5
100
AcDbLine
 10
334.0986509545667
 20
232.5009115907334
 30
0.0
 11
-255.901349045439
 21
822.5009115907391
 31
0.0
  0
LINE
  5
213
330
1F
100
AcDbEntity
  8
0-0
  6
JWW_DASHED1
 62
   120
370
     5
100
AcDbLine
 10
334.0986509545565
 20
242.4004065273775
 30
0.0
 11
-255.9013490454492
 21
832.4004065273836
 31
0.0
  0
LINE
  5
214
330
1F
100
AcDbEntity
  8
0-0
  6
JWW_DASHED1
 62
   120
370
     5
100
AcDbLine
 10
334.0986509545531
 20
252.2999014639632
 30
0.0
 11
-255.9013490454526
 21
842.2999014639688
 31
0.0
  0
LINE
  5
215
330
1F
100
AcDbEntity
  8
0-0
  6
JWW_DASHED1
 62
   120
370
     5
100
AcDbLine
 10
334.0986509545531
 20
262.1993964005979
 30
0.0
 11
-255.9013490454475
 21
852.1993964005985
 31
0.0
  0
LINE
  5
216
330
1F
100
AcDbEntity
  8
0-0
  6
JWW_DASHED1
 62
   120
370
     5
100
AcDbLine
 10
334.098650954565
 20
272.0988913372212
 30
0.0
 11
-255.9013490454407
 21
862.0988913372269
 31
0.0
  0
LINE
  5
217
330
1F
100
AcDbEntity
  8
0-0
  6
JWW_DASHED1
 62
   120
370
     5
100
AcDbLine
 10
334.0986509545599
 20
281.9983862738069
 30
0.0
 11
-255.9013490454458
 21
871.9983862738126
 31
0.0
  0
LINE
  5
218
330
1F
100
AcDbEntity
  8
0-0
  6
JWW_DASHED1
 62
   120
370
     5
100
AcDbLine
 10
334.0986509545599
 20
291.8978812104411
 30
0.0
 11
-255.901349045439
 21
881.8978812104413
 31
0.0
  0
LINE
  5
219
330
1F
100
AcDbEntity
  8
0-0
  6
JWW_DASHED1
 62
   120
370
     5
100
AcDbLine
 10
334.0986509545565
 20
301.7973761470265
 30
0.0
 11
-249.5767781649618
 21
885.4728052665439
 31
0.0
  0
LINE
  5
21A
330
1F
100
AcDbEntity
  8
0-0
  6
JWW_DASHED1
 62
   120
370
     5
100
AcDbLine
 10
334.0986509545531
 20
875.9680824705039
 30
0.0
 11
324.5939281585135
 21
885.4728052665439
 31
0.0
  0
LINE
  5
21B
330
1F
100
AcDbEntity
  8
0-0
  6
JWW_DASHED1
 62
   120
370
     5
100
AcDbLine
 10
334.0986509545684
 20
311.6968710836493
 30
0.0
 11
-239.6772832283266
 21
885.4728052665439
 31
0.0
  0
LINE
  5
21C
330
1F
100
AcDbEntity
  8
0-0
  6
JWW_DASHED1
 62
   120
370
     5
100
AcDbLine
 10
334.0986509545633
 20
321.596366020235
 30
0.0
 11
-229.777788291746
 21
885.4728052665439
 31
0.0
  0
LINE
  5
21D
330
1F
100
AcDbEntity
  8
0-0
  6
JWW_DASHED1
 62
   120
370
     5
100
AcDbLine
 10
334.0986509545531
 20
331.4958609568795
 30
0.0
 11
-219.8782933551109
 21
885.4728052665439
 31
0.0
  0
LINE
  5
21E
330
1F
100
AcDbEntity
  8
0-0
  6
JWW_DASHED1
 62
   120
370
     5
100
AcDbLine
 10
334.0986509545599
 20
341.3953558934546
 30
0.0
 11
-209.9787984185303
 21
885.4728052665439
 31
0.0
  0
LINE
  5
21F
330
1F
100
AcDbEntity
  8
0-0
  6
JWW_DASHED1
 62
   120
370
     5
100
AcDbLine
 10
334.0986509545701
 20
351.2948508300782
 30
0.0
 11
-200.0793034818951
 21
885.4728052665439
 31
0.0
  0
LINE
  5
220
330
1F
100
AcDbEntity
  8
0-0
  6
JWW_DASHED1
 62
   120
370
     5
100
AcDbLine
 10
334.0986509545616
 20
361.1943457667228
 30
0.0
 11
-190.17980854526
 21
885.4728052665439
 31
0.0
  0
LINE
  5
221
330
1F
100
AcDbEntity
  8
0-0
  6
JWW_DASHED1
 62
   120
370
     5
100
AcDbLine
 10
334.0986509545565
 20
371.0938407033085
 30
0.0
 11
-180.2803136086794
 21
885.4728052665439
 31
0.0
  0
LINE
  5
222
330
1F
100
AcDbEntity
  8
0-0
  6
JWW_DASHED1
 62
   120
370
     5
100
AcDbLine
 10
334.0986509545582
 20
380.993335639942
 30
0.0
 11
-170.3808186720442
 21
885.4728052665439
 31
0.0
  0
LINE
  5
223
330
1F
100
AcDbEntity
  8
0-0
  6
JWW_DASHED1
 62
   120
370
     5
100
AcDbLine
 10
334.0986509545531
 20
390.8928305765277
 30
0.0
 11
-160.4813237354636
 21
885.4728052665439
 31
0.0
  0
LINE
  5
224
330
1F
100
AcDbEntity
  8
0-0
  6
JWW_DASHED1
 62
   120
370
     5
100
AcDbLine
 10
334.0986509545633
 20
400.7923255131517
 30
0.0
 11
-150.5818287988284
 21
885.4728052665439
 31
0.0
  0
LINE
  5
225
330
1F
100
AcDbEntity
  8
0-0
  6
JWW_DASHED1
 62
   120
370
     5
100
AcDbLine
 10
334.0986509545599
 20
410.691820449737
 30
0.0
 11
-140.6823338622478
 21
885.4728052665439
 31
0.0
  0
LINE
  5
226
330
1F
100
AcDbEntity
  8
0-0
  6
JWW_DASHED1
 62
   120
370
     5
100
AcDbLine
 10
334.0986509545616
 20
420.5913153863701
 30
0.0
 11
-130.7828389256127
 21
885.4728052665439
 31
0.0
  0
LINE
  5
227
330
1F
100
AcDbEntity
  8
0-0
  6
JWW_DASHED1
 62
   120
370
     5
100
AcDbLine
 10
334.0986509545565
 20
430.4908103229558
 30
0.0
 11
-120.8833439890321
 21
885.4728052665439
 31
0.0
  0
LINE
  5
228
330
1F
100
AcDbEntity
  8
0-0
  6
JWW_DASHED1
 62
   120
370
     5
100
AcDbLine
 10
334.0986509545667
 20
440.3903052595803
 30
0.0
 11
-110.9838490523969
 21
885.4728052665439
 31
0.0
  0
LINE
  5
229
330
1F
100
AcDbEntity
  8
0-0
  6
JWW_DASHED1
 62
   120
370
     5
100
AcDbLine
 10
334.0986509545582
 20
450.2898001962248
 30
0.0
 11
-101.0843541157618
 21
885.4728052665439
 31
0.0
  0
LINE
  5
22A
330
1F
100
AcDbEntity
  8
0-0
  6
JWW_DASHED1
 62
   120
370
     5
100
AcDbLine
 10
334.0986509545531
 20
460.1892951328101
 30
0.0
 11
-91.18485917917945
 21
885.4728052665439
 31
0.0
  0
LINE
  5
22B
330
1F
100
AcDbEntity
  8
0-0
  6
JWW_DASHED1
 62
   120
370
     5
100
AcDbLine
 10
334.0986509545565
 20
470.0887900694431
 30
0.0
 11
-81.285364242546
 21
885.4728052665439
 31
0.0
  0
LINE
  5
22C
330
1F
100
AcDbEntity
  8
0-0
  6
JWW_DASHED1
 62
   120
370
     5
100
AcDbLine
 10
334.0986509545701
 20
479.9882850060088
 30
0.0
 11
-71.3858693059637
 21
885.4728052665439
 31
0.0
  0
LINE
  5
22D
330
1F
100
AcDbEntity
  8
0-0
  6
JWW_DASHED1
 62
   120
370
     5
100
AcDbLine
 10
334.0986509545599
 20
489.8877799426533
 30
0.0
 11
-61.48637436933024
 21
885.4728052665439
 31
0.0
  0
LINE
  5
22E
330
1F
100
AcDbEntity
  8
0-0
  6
JWW_DASHED1
 62
   120
370
     5
100
AcDbLine
 10
334.0986509545565
 20
499.7872748792386
 30
0.0
 11
-51.58687943274964
 21
885.4728052665439
 31
0.0
  0
LINE
  5
22F
330
1F
100
AcDbEntity
  8
0-0
  6
JWW_DASHED1
 62
   120
370
     5
100
AcDbLine
 10
334.0986509545582
 20
509.6867698158717
 30
0.0
 11
-41.68738449611448
 21
885.4728052665439
 31
0.0
  0
LINE
  5
230
330
1F
100
AcDbEntity
  8
0-0
  6
JWW_DASHED1
 62
   120
370
     5
100
AcDbLine
 10
334.0986509545531
 20
519.5862647524569
 30
0.0
 11
-31.78788955953388
 21
885.4728052665439
 31
0.0
  0
LINE
  5
231
330
1F
100
AcDbEntity
  8
0-0
  6
JWW_DASHED1
 62
   120
370
     5
100
AcDbLine
 10
334.0986509545633
 20
529.4857596890819
 30
0.0
 11
-21.88839462289872
 21
885.4728052665439
 31
0.0
  0
LINE
  5
232
330
1F
100
AcDbEntity
  8
0-0
  6
JWW_DASHED1
 62
   120
370
     5
100
AcDbLine
 10
334.0986509545531
 20
539.3852546257265
 30
0.0
 11
-11.98889968626355
 21
885.4728052665439
 31
0.0
  0
LINE
  5
233
330
1F
100
AcDbEntity
  8
0-0
  6
JWW_DASHED1
 62
   120
370
     5
100
AcDbLine
 10
334.0986509545616
 20
549.2847495622998
 30
0.0
 11
-2.089404749682959
 21
885.4728052665439
 31
0.0
  0
LINE
  5
234
330
1F
100
AcDbEntity
  8
0-0
  6
JWW_DASHED1
 62
   120
370
     5
100
AcDbLine
 10
334.0986509545684
 20
559.1842444989281
 30
0.0
 11
7.810090186952205
 21
885.4728052665439
 31
0.0
  0
LINE
  5
235
330
1F
100
AcDbEntity
  8
0-0
  6
JWW_DASHED1
 62
   120
370
     5
100
AcDbLine
 10
334.0986509545667
 20
569.0837394355108
 30
0.0
 11
17.7095851235328
 21
885.4728052665439
 31
0.0
  0
LINE
  5
236
330
1F
100
AcDbEntity
  8
0-0
  6
JWW_DASHED1
 62
   120
370
     5
100
AcDbLine
 10
334.0986509545565
 20
578.9832343721554
 30
0.0
 11
27.60908006016797
 21
885.4728052665439
 31
0.0
  0
LINE
  5
237
330
1F
100
AcDbEntity
  8
0-0
  6
JWW_DASHED1
 62
   120
370
     5
100
AcDbLine
 10
334.0986509545531
 20
588.8827293087411
 30
0.0
 11
37.50857499675027
 21
885.4728052665439
 31
0.0
  0
LINE
  5
238
330
1F
100
AcDbEntity
  8
0-0
  6
JWW_DASHED1
 62
   120
370
     5
100
AcDbLine
 10
334.0986509545565
 20
598.7822242453719
 30
0.0
 11
47.40806993338373
 21
885.4728052665439
 31
0.0
  0
LINE
  5
239
330
1F
100
AcDbEntity
  8
0-0
  6
JWW_DASHED1
 62
   120
370
     5
100
AcDbLine
 10
334.098650954565
 20
608.6817191819982
 30
0.0
 11
57.30756487001889
 21
885.4728052665439
 31
0.0
  0
LINE
  5
23A
330
1F
100
AcDbEntity
  8
0-0
  6
JWW_DASHED1
 62
   120
370
     5
100
AcDbLine
 10
334.0986509545599
 20
618.581214118584
 30
0.0
 11
67.20705980659949
 21
885.4728052665439
 31
0.0
  0
LINE
  5
23B
330
1F
100
AcDbEntity
  8
0-0
  6
JWW_DASHED1
 62
   120
370
     5
100
AcDbLine
 10
334.0986509545633
 20
628.4807090552152
 30
0.0
 11
77.10655474323465
 21
885.4728052665439
 31
0.0
  0
LINE
  5
23C
330
1F
100
AcDbEntity
  8
0-0
  6
JWW_DASHED1
 62
   120
370
     5
100
AcDbLine
 10
334.0986509545599
 20
638.3802039918
 30
0.0
 11
87.00604967981525
 21
885.4728052665439
 31
0.0
  0
LINE
  5
23D
330
1F
100
AcDbEntity
  8
0-0
  6
JWW_DASHED1
 62
   120
370
     5
100
AcDbLine
 10
334.0986509545667
 20
648.2796989284271
 30
0.0
 11
96.90554461645041
 21
885.4728052665439
 31
0.0
  0
LINE
  5
23E
330
1F
100
AcDbEntity
  8
0-0
  6
JWW_DASHED1
 62
   120
370
     5
100
AcDbLine
 10
334.0986509545633
 20
658.1791938650124
 30
0.0
 11
106.805039553031
 21
885.4728052665439
 31
0.0
  0
LINE
  5
23F
330
1F
100
AcDbEntity
  8
0-0
  6
JWW_DASHED1
 62
   120
370
     5
100
AcDbLine
 10
334.0986509545531
 20
668.0786888016574
 30
0.0
 11
116.7045344896679
 21
885.4728052665439
 31
0.0
  0
LINE
  5
240
330
1F
100
AcDbEntity
  8
0-0
  6
JWW_DASHED1
 62
   120
370
     5
100
AcDbLine
 10
334.0986509545616
 20
677.9781837382295
 30
0.0
 11
126.6040294262468
 21
885.4728052665439
 31
0.0
  0
LINE
  5
241
330
1F
100
AcDbEntity
  8
0-0
  6
JWW_DASHED1
 62
   120
370
     5
100
AcDbLine
 10
334.0986509545684
 20
687.8776786748579
 30
0.0
 11
136.5035243628819
 21
885.4728052665439
 31
0.0
  0
LINE
  5
242
330
1F
100
AcDbEntity
  8
0-0
  6
JWW_DASHED1
 62
   120
370
     5
100
AcDbLine
 10
334.0986509545599
 20
697.7771736115003
 30
0.0
 11
146.4030192995171
 21
885.4728052665439
 31
0.0
  0
LINE
  5
243
330
1F
100
AcDbEntity
  8
0-0
  6
JWW_DASHED1
 62
   120
370
     5
100
AcDbLine
 10
334.0986509545565
 20
707.6766685480859
 30
0.0
 11
156.3025142360977
 21
885.4728052665439
 31
0.0
  0
LINE
  5
244
330
1F
100
AcDbEntity
  8
0-0
  6
JWW_DASHED1
 62
   120
370
     5
100
AcDbLine
 10
334.0986509545599
 20
717.5761634847164
 30
0.0
 11
166.2020091727329
 21
885.4728052665439
 31
0.0
  0
LINE
  5
245
330
1F
100
AcDbEntity
  8
0-0
  6
JWW_DASHED1
 62
   120
370
     5
100
AcDbLine
 10
334.0986509545565
 20
727.4756584213017
 30
0.0
 11
176.1015041093135
 21
885.4728052665439
 31
0.0
  0
LINE
  5
246
330
1F
100
AcDbEntity
  8
0-0
  6
JWW_DASHED1
 62
   120
370
     5
100
AcDbLine
 10
334.0986509545633
 20
737.3751533579288
 30
0.0
 11
186.0009990459486
 21
885.4728052665439
 31
0.0
  0
LINE
  5
247
330
1F
100
AcDbEntity
  8
0-0
  6
JWW_DASHED1
 62
   120
370
     5
100
AcDbLine
 10
334.0986509545599
 20
747.274648294514
 30
0.0
 11
195.9004939825292
 21
885.4728052665439
 31
0.0
  0
LINE
  5
248
330
1F
100
AcDbEntity
  8
0-0
  6
JWW_DASHED1
 62
   120
370
     5
100
AcDbLine
 10
334.0986509545633
 20
757.1741432311445
 30
0.0
 11
205.7999889191644
 21
885.4728052665439
 31
0.0
  0
LINE
  5
249
330
1F
100
AcDbEntity
  8
0-0
  6
JWW_DASHED1
 62
   120
370
     5
100
AcDbLine
 10
334.0986509545599
 20
767.0736381677298
 30
0.0
 11
215.699483855745
 21
885.4728052665439
 31
0.0
  0
LINE
  5
24A
330
1F
100
AcDbEntity
  8
0-0
  6
JWW_DASHED1
 62
   120
370
     5
100
AcDbLine
 10
334.0986509545667
 20
776.9731331043578
 30
0.0
 11
225.5989787923801
 21
885.4728052665439
 31
0.0
  0
LINE
  5
24B
330
1F
100
AcDbEntity
  8
0-0
  6
JWW_DASHED1
 62
   120
370
     5
100
AcDbLine
 10
334.0986509545565
 20
786.8726280410023
 30
0.0
 11
235.4984737290153
 21
885.4728052665439
 31
0.0
  0
LINE
  5
24C
330
1F
100
AcDbEntity
  8
0-0
  6
JWW_DASHED1
 62
   120
370
     5
100
AcDbLine
 10
334.0986509545531
 20
796.7721229775875
 30
0.0
 11
245.3979686655959
 21
885.4728052665439
 31
0.0
  0
LINE
  5
24D
330
1F
100
AcDbEntity
  8
0-0
  6
JWW_DASHED1
 62
   120
370
     5
100
AcDbLine
 10
334.0986509545582
 20
806.6716179142172
 30
0.0
 11
255.2974636022311
 21
885.4728052665439
 31
0.0
  0
LINE
  5
24E
330
1F
100
AcDbEntity
  8
0-0
  6
JWW_DASHED1
 62
   120
370
     5
100
AcDbLine
 10
334.0986509545684
 20
816.5711128507871
 30
0.0
 11
265.1969585388117
 21
885.4728052665439
 31
0.0
  0
LINE
  5
24F
330
1F
100
AcDbEntity
  8
0-0
  6
JWW_DASHED1
 62
   120
370
     5
100
AcDbLine
 10
334.0986509545599
 20
826.4706077874308
 30
0.0
 11
275.0964534754468
 21
885.4728052665439
 31
0.0
  0
LINE
  5
250
330
1F
100
AcDbEntity
  8
0-0
  6
JWW_DASHED1
 62
   120
370
     5
100
AcDbLine
 10
334.0986509545548
 20
836.3701027240165
 30
0.0
 11
284.9959484120274
 21
885.4728052665439
 31
0.0
  0
LINE
  5
251
330
1F
100
AcDbEntity
  8
0-0
  6
JWW_DASHED1
 62
   120
370
     5
100
AcDbLine
 10
334.0986509545599
 20
846.2695976606458
 30
0.0
 11
294.8954433486626
 21
885.4728052665439
 31
0.0
  0
LINE
  5
252
330
1F
100
AcDbEntity
  8
0-0
  6
JWW_DASHED1
 62
   120
370
     5
100
AcDbLine
 10
334.0986509545684
 20
856.1690925972741
 30
0.0
 11
304.7949382852995
 21
885.4728052665439
 31
0.0
  0
LINE
  5
253
330
1F
100
AcDbEntity
  8
0-0
  6
JWW_DASHED1
 62
   120
370
     5
100
AcDbLine
 10
334.0986509545633
 20
866.0685875338594
 30
0.0
 11
314.6944332218783
 21
885.4728052665439
 31
0.0
  0
LINE
  5
254
330
1F
100
AcDbEntity
  8
0-0
  6
JWW_DASHED1
 62
   120
370
     5
100
AcDbLine
 10
525.7100927379429
 20
-812.5271947334606
 30
0.0
 11
524.0986509545576
 21
-810.9157529500749
 31
0.0
  0
LINE
  5
255
330
1F
100
AcDbEntity
  8
0-0
  6
JWW_DASHED1
 62
   120
370
     5
100
AcDbLine
 10
535.6095876745866
 20
-812.52719473347
 30
0.0
 11
524.0986509545473
 21
-801.0162580134307
 31
0.0
  0
LINE
  5
256
330
1F
100
AcDbEntity
  8
0-0
  6
JWW_DASHED1
 62
   120
370
     5
100
AcDbLine
 10
545.5090826111723
 20
-812.5271947334747
 30
0.0
 11
524.0986509545422
 21
-791.1167630768455
 31
0.0
  0
LINE
  5
257
330
1F
100
AcDbEntity
  8
0-0
  6
JWW_DASHED1
 62
   120
370
     5
100
AcDbLine
 10
555.4085775477836
 20
-812.5271947334525
 30
0.0
 11
524.0986509545644
 21
-781.2172681402325
 31
0.0
  0
LINE
  5
258
330
1F
100
AcDbEntity
  8
0-0
  6
JWW_DASHED1
 62
   120
370
     5
100
AcDbLine
 10
565.308072484371
 20
-812.5271947334577
 30
0.0
 11
524.0986509545593
 21
-771.3177732036463
 31
0.0
  0
LINE
  5
259
330
1F
100
AcDbEntity
  8
0-0
  6
JWW_DASHED1
 62
   120
370
     5
100
AcDbLine
 10
575.2075674210164
 20
-812.527194733467
 30
0.0
 11
524.0986509545507
 21
-761.4182782670023
 31
0.0
  0
LINE
  5
25A
330
1F
100
AcDbEntity
  8
0-0
  6
JWW_DASHED1
 62
   120
370
     5
100
AcDbLine
 10
585.1070623576004
 20
-812.5271947334717
 30
0.0
 11
524.0986509545456
 21
-751.5187833304165
 31
0.0
  0
LINE
  5
25B
330
1F
100
AcDbEntity
  8
0-0
  6
JWW_DASHED1
 62
   120
370
     5
100
AcDbLine
 10
595.0065572942134
 20
-812.5271947334495
 30
0.0
 11
524.0986509545678
 21
-741.6192883938036
 31
0.0
  0
LINE
  5
25C
330
1F
100
AcDbEntity
  8
0-0
  6
JWW_DASHED1
 62
   120
370
     5
100
AcDbLine
 10
604.9060522308571
 20
-812.5271947334589
 30
0.0
 11
524.0986509545576
 21
-731.719793457159
 31
0.0
  0
LINE
  5
25D
330
1F
100
AcDbEntity
  8
0-0
  6
JWW_DASHED1
 62
   120
370
     5
100
AcDbLine
 10
614.8055471674445
 20
-812.5271947334636
 30
0.0
 11
524.0986509545525
 21
-721.8202985205733
 31
0.0
  0
LINE
  5
25E
330
1F
100
AcDbEntity
  8
0-0
  6
JWW_DASHED1
 62
   120
370
     5
100
AcDbLine
 10
624.7050421040865
 20
-812.5271947334729
 30
0.0
 11
524.0986509545439
 21
-711.9208035839296
 31
0.0
  0
LINE
  5
25F
330
1F
100
AcDbEntity
  8
0-0
  6
JWW_DASHED1
 62
   120
370
     5
100
AcDbLine
 10
634.6045370406534
 20
-812.5271947334593
 30
0.0
 11
524.0986509545542
 21
-702.0213086473592
 31
0.0
  0
LINE
  5
260
330
1F
100
AcDbEntity
  8
0-0
  6
JWW_DASHED1
 62
   120
370
     5
100
AcDbLine
 10
644.5040319772852
 20
-812.5271947334551
 30
0.0
 11
524.098650954561
 21
-692.1218137107301
 31
0.0
  0
LINE
  5
261
330
1F
100
AcDbEntity
  8
0-0
  6
JWW_DASHED1
 62
   120
370
     5
100
AcDbLine
 10
654.4035269138726
 20
-812.5271947334602
 30
0.0
 11
524.0986509545559
 21
-682.2223187741442
 31
0.0
  0
LINE
  5
262
330
1F
100
AcDbEntity
  8
0-0
  6
JWW_DASHED1
 62
   120
370
     5
100
AcDbLine
 10
664.3030218505163
 20
-812.5271947334695
 30
0.0
 11
524.0986509545473
 21
-672.3228238375015
 31
0.0
  0
LINE
  5
263
330
1F
100
AcDbEntity
  8
0-0
  6
JWW_DASHED1
 62
   120
370
     5
100
AcDbLine
 10
674.202516787102
 20
-812.5271947334747
 30
0.0
 11
524.0986509545439
 21
-662.4233289009157
 31
0.0
  0
LINE
  5
264
330
1F
100
AcDbEntity
  8
0-0
  6
JWW_DASHED1
 62
   120
370
     5
100
AcDbLine
 10
684.1020117237133
 20
-812.5271947334525
 30
0.0
 11
524.0986509545644
 21
-652.5238339643015
 31
0.0
  0
LINE
  5
265
330
1F
100
AcDbEntity
  8
0-0
  6
JWW_DASHED1
 62
   120
370
     5
100
AcDbLine
 10
694.0015066603587
 20
-812.5271947334619
 30
0.0
 11
524.0986509545542
 21
-642.6243390276569
 31
0.0
  0
LINE
  5
266
330
1F
100
AcDbEntity
  8
0-0
  6
JWW_DASHED1
 62
   120
370
     5
100
AcDbLine
 10
703.9010015969444
 20
-812.5271947334666
 30
0.0
 11
524.0986509545507
 21
-632.7248440910729
 31
0.0
  0
LINE
  5
267
330
1F
100
AcDbEntity
  8
0-0
  6
JWW_DASHED1
 62
   120
370
     5
100
AcDbLine
 10
713.8004965335847
 20
-812.5271947334709
 30
0.0
 11
524.0986509545405
 21
-622.8253491544287
 31
0.0
  0
LINE
  5
268
330
1F
100
AcDbEntity
  8
0-0
  6
JWW_DASHED1
 62
   120
370
     5
100
AcDbLine
 10
723.6999914701431
 20
-812.527194733449
 30
0.0
 11
524.0986509545661
 21
-612.9258542178729
 31
0.0
  0
LINE
  5
269
330
1F
100
AcDbEntity
  8
0-0
  6
JWW_DASHED1
 62
   120
370
     5
100
AcDbLine
 10
733.5994864067868
 20
-812.5271947334585
 30
0.0
 11
524.0986509545576
 21
-603.0263592812285
 31
0.0
  0
LINE
  5
26A
330
1F
100
AcDbEntity
  8
0-0
  6
JWW_DASHED1
 62
   120
370
     5
100
AcDbLine
 10
743.4989813433725
 20
-812.5271947334636
 30
0.0
 11
524.0986509545507
 21
-593.1268643446426
 31
0.0
  0
LINE
  5
26B
330
1F
100
AcDbEntity
  8
0-0
  6
JWW_DASHED1
 62
   120
370
     5
100
AcDbLine
 10
753.3984762800162
 20
-812.5271947334729
 30
0.0
 11
524.0986509545439
 21
-583.2273694080003
 31
0.0
  0
LINE
  5
26C
330
1F
100
AcDbEntity
  8
0-0
  6
JWW_DASHED1
 62
   120
370
     5
100
AcDbLine
 10
763.2979712165712
 20
-812.5271947334461
 30
0.0
 11
524.0986509545678
 21
-573.3278744714439
 31
0.0
  0
LINE
  5
26D
330
1F
100
AcDbEntity
  8
0-0
  6
JWW_DASHED1
 62
   120
370
     5
100
AcDbLine
 10
773.1974661532149
 20
-812.5271947334551
 30
0.0
 11
524.098650954561
 21
-563.4283795347994
 31
0.0
  0
LINE
  5
26E
330
1F
100
AcDbEntity
  8
0-0
  6
JWW_DASHED1
 62
   120
370
     5
100
AcDbLine
 10
783.0969610898603
 20
-812.5271947334649
 30
0.0
 11
524.0986509545525
 21
-553.5288845981574
 31
0.0
  0
LINE
  5
26F
330
1F
100
AcDbEntity
  8
0-0
  6
JWW_DASHED1
 62
   120
370
     5
100
AcDbLine
 10
792.996456026446
 20
-812.5271947334695
 30
0.0
 11
524.0986509545473
 21
-543.6293896615717
 31
0.0
  0
LINE
  5
270
330
1F
100
AcDbEntity
  8
0-0
  6
JWW_DASHED1
 62
   120
370
     5
100
AcDbLine
 10
802.895950963059
 20
-812.5271947334475
 30
0.0
 11
524.0986509545678
 21
-533.7298947249562
 31
0.0
  0
LINE
  5
271
330
1F
100
AcDbEntity
  8
0-0
  6
JWW_DASHED1
 62
   120
370
     5
100
AcDbLine
 10
812.795445899643
 20
-812.5271947334525
 30
0.0
 11
524.0986509545627
 21
-523.8303997883709
 31
0.0
  0
LINE
  5
272
330
1F
100
AcDbEntity
  8
0-0
  6
JWW_DASHED1
 62
   120
370
     5
100
AcDbLine
 10
822.6949408362884
 20
-812.5271947334619
 30
0.0
 11
524.0986509545542
 21
-513.9309048517264
 31
0.0
  0
LINE
  5
273
330
1F
100
AcDbEntity
  8
0-0
  6
JWW_DASHED1
 62
   120
370
     5
100
AcDbLine
 10
832.5944357728741
 20
-812.5271947334666
 30
0.0
 11
524.0986509545507
 21
-504.0314099151436
 31
0.0
  0
LINE
  5
274
330
1F
100
AcDbEntity
  8
0-0
  6
JWW_DASHED1
 62
   120
370
     5
100
AcDbLine
 10
842.493930709511
 20
-812.527194733467
 30
0.0
 11
524.0986509545405
 21
-494.1319149784991
 31
0.0
  0
LINE
  5
275
330
1F
100
AcDbEntity
  8
0-0
  6
JWW_DASHED1
 62
   120
370
     5
100
AcDbLine
 10
852.3934256460711
 20
-812.5271947334487
 30
0.0
 11
524.0986509545644
 21
-484.2324200419424
 31
0.0
  0
LINE
  5
276
330
1F
100
AcDbEntity
  8
0-0
  6
JWW_DASHED1
 62
   120
370
     5
100
AcDbLine
 10
862.2929205827165
 20
-812.5271947334585
 30
0.0
 11
524.0986509545559
 21
-474.3329251052974
 31
0.0
  0
LINE
  5
277
330
1F
100
AcDbEntity
  8
0-0
  6
JWW_DASHED1
 62
   120
370
     5
100
AcDbLine
 10
872.1924155193619
 20
-812.5271947334679
 30
0.0
 11
524.0986509545507
 21
-464.4334301686563
 31
0.0
  0
LINE
  5
278
330
1F
100
AcDbEntity
  8
0-0
  6
JWW_DASHED1
 62
   120
370
     5
100
AcDbLine
 10
882.0919104559459
 20
-812.5271947334729
 30
0.0
 11
524.0986509545439
 21
-454.5339352320706
 31
0.0
  0
LINE
  5
279
330
1F
100
AcDbEntity
  8
0-0
  6
JWW_DASHED1
 62
   120
370
     5
100
AcDbLine
 10
891.9914053925606
 20
-812.52719473345
 30
0.0
 11
524.0986509545644
 21
-444.6344402954546
 31
0.0
  0
LINE
  5
27A
330
1F
100
AcDbEntity
  8
0-0
  6
JWW_DASHED1
 62
   120
370
     5
100
AcDbLine
 10
901.8909003291446
 20
-812.5271947334551
 30
0.0
 11
524.0986509545576
 21
-434.7349453588689
 31
0.0
  0
LINE
  5
27B
330
1F
100
AcDbEntity
  8
0-0
  6
JWW_DASHED1
 62
   120
370
     5
100
AcDbLine
 10
911.79039526579
 20
-812.5271947334649
 30
0.0
 11
524.0986509545542
 21
-424.8354504222282
 31
0.0
  0
LINE
  5
27C
330
1F
100
AcDbEntity
  8
0-0
  6
JWW_DASHED1
 62
   120
370
     5
100
AcDbLine
 10
921.689890202374
 20
-812.5271947334692
 30
0.0
 11
524.0986509545473
 21
-414.9359554856425
 31
0.0
  0
LINE
  5
27D
330
1F
100
AcDbEntity
  8
0-0
  6
JWW_DASHED1
 62
   120
370
     5
100
AcDbLine
 10
931.5893851389887
 20
-812.5271947334475
 30
0.0
 11
524.0986509545678
 21
-405.0364605490261
 31
0.0
  0
LINE
  5
27E
330
1F
100
AcDbEntity
  8
0-0
  6
JWW_DASHED1
 62
   120
370
     5
100
AcDbLine
 10
941.4888800756324
 20
-812.5271947334568
 30
0.0
 11
524.0986509545576
 21
-395.1369656123815
 31
0.0
  0
LINE
  5
27F
330
1F
100
AcDbEntity
  8
0-0
  6
JWW_DASHED1
 62
   120
370
     5
100
AcDbLine
 10
951.3883750122181
 20
-812.5271947334611
 30
0.0
 11
524.0986509545525
 21
-385.2374706757957
 31
0.0
  0
LINE
  5
280
330
1F
100
AcDbEntity
  8
0-0
  6
JWW_DASHED1
 62
   120
370
     5
100
AcDbLine
 10
961.2878699488635
 20
-812.5271947334704
 30
0.0
 11
524.0986509545473
 21
-375.3379757391555
 31
0.0
  0
LINE
  5
281
330
1F
100
AcDbEntity
  8
0-0
  6
JWW_DASHED1
 62
   120
370
     5
100
AcDbLine
 10
971.1873648854203
 20
-812.5271947334483
 30
0.0
 11
524.0986509545542
 21
-365.4384808025817
 31
0.0
  0
LINE
  5
282
330
1F
100
AcDbEntity
  8
0-0
  6
JWW_DASHED1
 62
   120
370
     5
100
AcDbLine
 10
981.0868598220623
 20
-812.5271947334534
 30
0.0
 11
524.098650954561
 21
-355.5389858659526
 31
0.0
  0
LINE
  5
283
330
1F
100
AcDbEntity
  8
0-0
  6
JWW_DASHED1
 62
   120
370
     5
100
AcDbLine
 10
990.9863547586463
 20
-812.5271947334585
 30
0.0
 11
524.0986509545542
 21
-345.6394909293668
 31
0.0
  0
LINE
  5
284
330
1F
100
AcDbEntity
  8
0-0
  6
JWW_DASHED1
 62
   120
370
     5
100
AcDbLine
 10
1000.885849695292
 20
-812.5271947334675
 30
0.0
 11
524.0986509545507
 21
-335.739995992727
 31
0.0
  0
LINE
  5
285
330
1F
100
AcDbEntity
  8
0-0
  6
JWW_DASHED1
 62
   120
370
     5
100
AcDbLine
 10
1010.785344631876
 20
-812.5271947334726
 30
0.0
 11
524.0986509545439
 21
-325.8405010561412
 31
0.0
  0
LINE
  5
286
330
1F
100
AcDbEntity
  8
0-0
  6
JWW_DASHED1
 62
   120
370
     5
100
AcDbLine
 10
1020.68483956849
 20
-812.52719473345
 30
0.0
 11
524.0986509545644
 21
-315.941006119524
 31
0.0
  0
LINE
  5
287
330
1F
100
AcDbEntity
  8
0-0
  6
JWW_DASHED1
 62
   120
370
     5
100
AcDbLine
 10
1030.584334505134
 20
-812.5271947334593
 30
0.0
 11
524.0986509545542
 21
-306.0415111828794
 31
0.0
  0
LINE
  5
288
330
1F
100
AcDbEntity
  8
0-0
  6
JWW_DASHED1
 62
   120
370
     5
100
AcDbLine
 10
1040.48382944172
 20
-812.5271947334649
 30
0.0
 11
524.0986509545542
 21
-296.1420162462985
 31
0.0
  0
LINE
  5
289
330
1F
100
AcDbEntity
  8
0-0
  6
JWW_DASHED1
 62
   120
370
     5
100
AcDbLine
 10
1050.38332437835
 20
-812.5271947334593
 30
0.0
 11
524.0986509545439
 21
-286.2425213096539
 31
0.0
  0
LINE
  5
28A
330
1F
100
AcDbEntity
  8
0-0
  6
JWW_DASHED1
 62
   120
370
     5
100
AcDbLine
 10
1060.282819314918
 20
-812.527194733447
 30
0.0
 11
524.0986509545661
 21
-276.3430263730954
 31
0.0
  0
LINE
  5
28B
330
1F
100
AcDbEntity
  8
0-0
  6
JWW_DASHED1
 62
   120
370
     5
100
AcDbLine
 10
1070.182314251562
 20
-812.5271947334559
 30
0.0
 11
524.0986509545576
 21
-266.4435314364509
 31
0.0
  0
LINE
  5
28C
330
1F
100
AcDbEntity
  8
0-0
  6
JWW_DASHED1
 62
   120
370
     5
100
AcDbLine
 10
1080.081809188148
 20
-812.5271947334611
 30
0.0
 11
524.0986509545507
 21
-256.5440364998652
 31
0.0
  0
LINE
  5
28D
330
1F
100
AcDbEntity
  8
0-0
  6
JWW_DASHED1
 62
   120
370
     5
100
AcDbLine
 10
1089.981304124793
 20
-812.5271947334709
 30
0.0
 11
524.0986509545473
 21
-246.6445415632258
 31
0.0
  0
LINE
  5
28E
330
1F
100
AcDbEntity
  8
0-0
  6
JWW_DASHED1
 62
   120
370
     5
100
AcDbLine
 10
1099.880799061347
 20
-812.5271947334444
 30
0.0
 11
524.0986509545542
 21
-236.7450466266507
 31
0.0
  0
LINE
  5
28F
330
1F
100
AcDbEntity
  8
0-0
  6
JWW_DASHED1
 62
   120
370
     5
100
AcDbLine
 10
1109.78029399799
 20
-812.5271947334534
 30
0.0
 11
524.0986509545593
 21
-226.8455516900219
 31
0.0
  0
LINE
  5
290
330
1F
100
AcDbEntity
  8
0-0
  6
JWW_DASHED1
 62
   120
370
     5
100
AcDbLine
 10
1114.098650954556
 20
-806.9460567533836
 30
0.0
 11
524.0986509545507
 21
-216.9460567533774
 31
0.0
  0
LINE
  5
291
330
1F
100
AcDbEntity
  8
0-0
  6
JWW_DASHED1
 62
   120
370
     5
100
AcDbLine
 10
1114.09865095455
 20
-797.0465618167977
 30
0.0
 11
524.0986509545507
 21
-207.0465618167977
 31
0.0
  0
LINE
  5
292
330
1F
100
AcDbEntity
  8
0-0
  6
JWW_DASHED1
 62
   120
370
     5
100
AcDbLine
 10
1114.098650954573
 20
-787.1470668801849
 30
0.0
 11
524.0986509545678
 21
-197.1470668801791
 31
0.0
  0
LINE
  5
293
330
1F
100
AcDbEntity
  8
0-0
  6
JWW_DASHED1
 62
   120
370
     5
100
AcDbLine
 10
1114.098650954568
 20
-777.247571943599
 30
0.0
 11
524.098650954561
 21
-187.247571943593
 31
0.0
  0
LINE
  5
294
330
1F
100
AcDbEntity
  8
0-0
  6
JWW_DASHED1
 62
   120
370
     5
100
AcDbLine
 10
1114.09865095456
 20
-767.3480770069546
 30
0.0
 11
524.0986509545525
 21
-177.3480770069484
 31
0.0
  0
LINE
  5
295
330
1F
100
AcDbEntity
  8
0-0
  6
JWW_DASHED1
 62
   120
370
     5
100
AcDbLine
 10
1114.098650954553
 20
-757.4485820703696
 30
0.0
 11
524.0986509545542
 21
-167.4485820703691
 31
0.0
  0
LINE
  5
296
330
1F
100
AcDbEntity
  8
0-0
  6
JWW_DASHED1
 62
   120
370
     5
100
AcDbLine
 10
1114.09865095456
 20
-747.549087133741
 30
0.0
 11
524.0986509545439
 21
-157.5490871337246
 31
0.0
  0
LINE
  5
297
330
1F
100
AcDbEntity
  8
0-0
  6
JWW_DASHED1
 62
   120
370
     5
100
AcDbLine
 10
1114.098650954567
 20
-737.6495921971117
 30
0.0
 11
524.098650954561
 21
-147.6495921971056
 31
0.0
  0
LINE
  5
298
330
1F
100
AcDbEntity
  8
0-0
  6
JWW_DASHED1
 62
   120
370
     5
100
AcDbLine
 10
1114.098650954561
 20
-727.7500972605255
 30
0.0
 11
524.0986509545559
 21
-137.7500972605203
 31
0.0
  0
LINE
  5
299
330
1F
100
AcDbEntity
  8
0-0
  6
JWW_DASHED1
 62
   120
370
     5
100
AcDbLine
 10
1114.098650954553
 20
-717.8506023238823
 30
0.0
 11
524.0986509545525
 21
-127.8506023238818
 31
0.0
  0
LINE
  5
29A
330
1F
100
AcDbEntity
  8
0-0
  6
JWW_DASHED1
 62
   120
370
     5
100
AcDbLine
 10
1114.09865095455
 20
-707.951107387297
 30
0.0
 11
524.0986509545473
 21
-117.951107387296
 31
0.0
  0
LINE
  5
29B
330
1F
100
AcDbEntity
  8
0-0
  6
JWW_DASHED1
 62
   120
370
     5
100
AcDbLine
 10
1114.09865095457
 20
-698.0516124506833
 30
0.0
 11
524.0986509545644
 21
-108.0516124506771
 31
0.0
  0
LINE
  5
29C
330
1F
100
AcDbEntity
  8
0-0
  6
JWW_DASHED1
 62
   120
370
     5
100
AcDbLine
 10
1114.098650954563
 20
-688.1521175140974
 30
0.0
 11
524.0986509545576
 21
-98.15211751409137
 31
0.0
  0
LINE
  5
29D
330
1F
100
AcDbEntity
  8
0-0
  6
JWW_DASHED1
 62
   120
370
     5
100
AcDbLine
 10
1114.098650954556
 20
-678.2526225774538
 30
0.0
 11
524.0986509545559
 21
-88.25262257745365
 31
0.0
  0
LINE
  5
29E
330
1F
100
AcDbEntity
  8
0-0
  6
JWW_DASHED1
 62
   120
370
     5
100
AcDbLine
 10
1114.098650954551
 20
-668.353127640868
 30
0.0
 11
524.0986509545507
 21
-78.35312764086794
 31
0.0
  0
LINE
  5
29F
330
1F
100
AcDbEntity
  8
0-0
  6
JWW_DASHED1
 62
   120
370
     5
100
AcDbLine
 10
1114.098650954572
 20
-658.4536327042542
 30
0.0
 11
524.0986509545661
 21
-68.45363270424855
 31
0.0
  0
LINE
  5
2A0
330
1F
100
AcDbEntity
  8
0-0
  6
JWW_DASHED1
 62
   120
370
     5
100
AcDbLine
 10
1114.098650954563
 20
-648.5541377676097
 30
0.0
 11
524.0986509545576
 21
-58.554137767604
 31
0.0
  0
LINE
  5
2A1
330
1F
100
AcDbEntity
  8
0-0
  6
JWW_DASHED1
 62
   120
370
     5
100
AcDbLine
 10
1114.098650954558
 20
-638.6546428310239
 30
0.0
 11
524.0986509545507
 21
-48.65464283101829
 31
0.0
  0
LINE
  5
2A2
330
1F
100
AcDbEntity
  8
0-0
  6
JWW_DASHED1
 62
   120
370
     5
100
AcDbLine
 10
1114.09865095455
 20
-628.7551478943811
 30
0.0
 11
524.0986509545507
 21
-38.755147894381
 31
0.0
  0
LINE
  5
2A3
330
1F
100
AcDbEntity
  8
0-0
  6
JWW_DASHED1
 62
   120
370
     5
100
AcDbLine
 10
1114.09865095456
 20
-618.8556529578116
 30
0.0
 11
524.0986509545439
 21
-28.85565295779529
 31
0.0
  0
LINE
  5
2A4
330
1F
100
AcDbEntity
  8
0-0
  6
JWW_DASHED1
 62
   120
370
     5
100
AcDbLine
 10
1114.098650954567
 20
-608.9561580211812
 30
0.0
 11
524.098650954561
 21
-18.95615802117504
 31
0.0
  0
LINE
  5
2A5
330
1F
100
AcDbEntity
  8
0-0
  6
JWW_DASHED1
 62
   120
370
     5
100
AcDbLine
 10
1114.09865095456
 20
-599.056663084595
 30
0.0
 11
524.0986509545542
 21
-9.056663084589758
 31
0.0
  0
LINE
  5
2A6
330
1F
100
AcDbEntity
  8
0-0
  6
JWW_DASHED1
 62
   120
370
     5
100
AcDbLine
 10
1114.098650954553
 20
-589.157168147953
 30
0.0
 11
524.0986509545542
 21
0.8428318520475386
 31
0.0
  0
LINE
  5
2A7
330
1F
100
AcDbEntity
  8
0-0
  6
JWW_DASHED1
 62
   120
370
     5
100
AcDbLine
 10
1114.098650954548
 20
-579.2576732113673
 30
0.0
 11
524.0986509545473
 21
10.74232678863282
 31
0.0
  0
LINE
  5
2A8
330
1F
100
AcDbEntity
  8
0-0
  6
JWW_DASHED1
 62
   120
370
     5
100
AcDbLine
 10
1114.098650954568
 20
-569.3581782747522
 30
0.0
 11
524.0986509545627
 21
20.64182172525349
 31
0.0
  0
LINE
  5
2A9
330
1F
100
AcDbEntity
  8
0-0
  6
JWW_DASHED1
 62
   120
370
     5
100
AcDbLine
 10
1114.09865095456
 20
-559.4586833381077
 30
0.0
 11
524.0986509545542
 21
30.54131666189804
 31
0.0
  0
LINE
  5
2AA
330
1F
100
AcDbEntity
  8
0-0
  6
JWW_DASHED1
 62
   120
370
     5
100
AcDbLine
 10
1114.098650954556
 20
-549.5591884015245
 30
0.0
 11
524.0986509545559
 21
40.44081159847565
 31
0.0
  0
LINE
  5
2AB
330
1F
100
AcDbEntity
  8
0-0
  6
JWW_DASHED1
 62
   120
370
     5
100
AcDbLine
 10
1114.098650954546
 20
-539.6596934648803
 30
0.0
 11
524.0986509545473
 21
50.34030653512019
 31
0.0
  0
LINE
  5
2AC
330
1F
100
AcDbEntity
  8
0-0
  6
JWW_DASHED1
 62
   120
370
     5
100
AcDbLine
 10
1114.09865095457
 20
-529.7601985283236
 30
0.0
 11
524.0986509545644
 21
60.23980147168245
 31
0.0
  0
LINE
  5
2AD
330
1F
100
AcDbEntity
  8
0-0
  6
JWW_DASHED1
 62
   120
370
     5
100
AcDbLine
 10
1114.098650954563
 20
-519.8607035916791
 30
0.0
 11
524.0986509545559
 21
70.139296408327
 31
0.0
  0
LINE
  5
2AE
330
1F
100
AcDbEntity
  8
0-0
  6
JWW_DASHED1
 62
   120
370
     5
100
AcDbLine
 10
1114.098650954556
 20
-509.9612086550934
 30
0.0
 11
524.0986509545507
 21
80.03879134491228
 31
0.0
  0
LINE
  5
2AF
330
1F
100
AcDbEntity
  8
0-0
  6
JWW_DASHED1
 62
   120
370
     5
100
AcDbLine
 10
1114.09865095455
 20
-500.0617137184519
 30
0.0
 11
524.0986509545507
 21
89.9382862815483
 31
0.0
  0
LINE
  5
2B0
330
1F
100
AcDbEntity
  8
0-0
  6
JWW_DASHED1
 62
   120
370
     5
100
AcDbLine
 10
1114.09865095456
 20
-490.1622187818819
 30
0.0
 11
524.0986509545439
 21
99.83778121813401
 31
0.0
  0
LINE
  5
2B1
330
1F
100
AcDbEntity
  8
0-0
  6
JWW_DASHED1
 62
   120
370
     5
100
AcDbLine
 10
1114.098650954565
 20
-480.2627238452505
 30
0.0
 11
524.0986509545593
 21
109.7372761547555
 31
0.0
  0
LINE
  5
2B2
330
1F
100
AcDbEntity
  8
0-0
  6
JWW_DASHED1
 62
   120
370
     5
100
AcDbLine
 10
1114.098650954556
 20
-470.3632289086056
 30
0.0
 11
524.0986509545507
 21
119.6367710914001
 31
0.0
  0
LINE
  5
2B3
330
1F
100
AcDbEntity
  8
0-0
  6
JWW_DASHED1
 62
   120
370
     5
100
AcDbLine
 10
1114.098650954553
 20
-460.4637339720238
 30
0.0
 11
524.0986509545542
 21
129.5362660279764
 31
0.0
  0
LINE
  5
2B4
330
1F
100
AcDbEntity
  8
0-0
  6
JWW_DASHED1
 62
   120
370
     5
100
AcDbLine
 10
1114.098650954573
 20
-450.5642390354074
 30
0.0
 11
524.0986509545507
 21
139.4357609646141
 31
0.0
  0
LINE
  5
2B5
330
1F
100
AcDbEntity
  8
0-0
  6
JWW_DASHED1
 62
   120
370
     5
100
AcDbLine
 10
1114.098650954567
 20
-440.6647440988216
 30
0.0
 11
524.098650954561
 21
149.3352559011841
 31
0.0
  0
LINE
  5
2B6
330
1F
100
AcDbEntity
  8
0-0
  6
JWW_DASHED1
 62
   120
370
     5
100
AcDbLine
 10
1114.098650954558
 20
-430.765249162177
 30
0.0
 11
524.0986509545525
 21
159.2347508378286
 31
0.0
  0
LINE
  5
2B7
330
1F
100
AcDbEntity
  8
0-0
  6
JWW_DASHED1
 62
   120
370
     5
100
AcDbLine
 10
1114.098650954556
 20
-420.8657542255952
 30
0.0
 11
524.0986509545576
 21
169.1342457744054
 31
0.0
  0
LINE
  5
2B8
330
1F
100
AcDbEntity
  8
0-0
  6
JWW_DASHED1
 62
   120
370
     5
100
AcDbLine
 10
1114.098650954546
 20
-410.9662592889507
 30
0.0
 11
524.0986509545473
 21
179.0337407110495
 31
0.0
  0
LINE
  5
2B9
330
1F
100
AcDbEntity
  8
0-0
  6
JWW_DASHED1
 62
   120
370
     5
100
AcDbLine
 10
1114.098650954567
 20
-401.0667643523338
 30
0.0
 11
524.098650954561
 21
188.9332356476714
 31
0.0
  0
LINE
  5
2BA
330
1F
100
AcDbEntity
  8
0-0
  6
JWW_DASHED1
 62
   120
370
     5
100
AcDbLine
 10
1114.09865095456
 20
-391.1672694157485
 30
0.0
 11
524.0986509545542
 21
198.8327305842571
 31
0.0
  0
LINE
  5
2BB
330
1F
100
AcDbEntity
  8
0-0
  6
JWW_DASHED1
 62
   120
370
     5
100
AcDbLine
 10
1114.098650954556
 20
-381.2677744791079
 30
0.0
 11
524.0986509545542
 21
208.7322255208923
 31
0.0
  0
LINE
  5
2BC
330
1F
100
AcDbEntity
  8
0-0
  6
JWW_DASHED1
 62
   120
370
     5
100
AcDbLine
 10
1114.09865095455
 20
-371.3682795425221
 30
0.0
 11
524.0986509545507
 21
218.631720457478
 31
0.0
  0
LINE
  5
2BD
330
1F
100
AcDbEntity
  8
0-0
  6
JWW_DASHED1
 62
   120
370
     5
100
AcDbLine
 10
1114.09865095457
 20
-361.4687846059057
 30
0.0
 11
524.0986509545627
 21
228.5312153941004
 31
0.0
  0
LINE
  5
2BE
330
1F
100
AcDbEntity
  8
0-0
  6
JWW_DASHED1
 62
   120
370
     5
100
AcDbLine
 10
1114.098650954563
 20
-351.56928966932
 30
0.0
 11
524.0986509545576
 21
238.4307103306861
 31
0.0
  0
LINE
  5
2BF
330
1F
100
AcDbEntity
  8
0-0
  6
JWW_DASHED1
 62
   120
370
     5
100
AcDbLine
 10
1114.098650954555
 20
-341.6697947326754
 30
0.0
 11
524.0986509545473
 21
248.3302052673307
 31
0.0
  0
LINE
  5
2C0
330
1F
100
AcDbEntity
  8
0-0
  6
JWW_DASHED1
 62
   120
370
     5
100
AcDbLine
 10
1114.098650954553
 20
-331.770299796094
 30
0.0
 11
524.0986509545542
 21
258.2297002039061
 31
0.0
  0
LINE
  5
2C1
330
1F
100
AcDbEntity
  8
0-0
  6
JWW_DASHED1
 62
   120
370
     5
100
AcDbLine
 10
1114.098650954572
 20
-321.8708048594767
 30
0.0
 11
524.0986509545661
 21
268.129195140529
 31
0.0
  0
LINE
  5
2C2
330
1F
100
AcDbEntity
  8
0-0
  6
JWW_DASHED1
 62
   120
370
     5
100
AcDbLine
 10
1114.098650954563
 20
-311.9713099228322
 30
0.0
 11
524.0986509545576
 21
278.0286900771731
 31
0.0
  0
LINE
  5
2C3
330
1F
100
AcDbEntity
  8
0-0
  6
JWW_DASHED1
 62
   120
370
     5
100
AcDbLine
 10
1114.098650954556
 20
-302.0718149862465
 30
0.0
 11
524.0986509545507
 21
287.9281850137592
 31
0.0
  0
LINE
  5
2C4
330
1F
100
AcDbEntity
  8
0-0
  6
JWW_DASHED1
 62
   120
370
     5
100
AcDbLine
 10
1114.098650954553
 20
-292.172320049607
 30
0.0
 11
524.0986509545525
 21
297.8276799503935
 31
0.0
  0
LINE
  5
2C5
330
1F
100
AcDbEntity
  8
0-0
  6
JWW_DASHED1
 62
   120
370
     5
100
AcDbLine
 10
1114.098650954563
 20
-282.2728251130371
 30
0.0
 11
524.0986509545473
 21
307.7271748869792
 31
0.0
  0
LINE
  5
2C6
330
1F
100
AcDbEntity
  8
0-0
  6
JWW_DASHED1
 62
   120
370
     5
100
AcDbLine
 10
1114.098650954565
 20
-272.3733301764032
 30
0.0
 11
524.0986509545593
 21
317.6266698236025
 31
0.0
  0
LINE
  5
2C7
330
1F
100
AcDbEntity
  8
0-0
  6
JWW_DASHED1
 62
   120
370
     5
100
AcDbLine
 10
1114.09865095456
 20
-262.4738352398175
 30
0.0
 11
524.0986509545542
 21
327.5261647601882
 31
0.0
  0
LINE
  5
2C8
330
1F
100
AcDbEntity
  8
0-0
  6
JWW_DASHED1
 62
   120
370
     5
100
AcDbLine
 10
1114.098650954556
 20
-252.5743403031785
 30
0.0
 11
524.0986509545559
 21
337.4256596968216
 31
0.0
  0
LINE
  5
2C9
330
1F
100
AcDbEntity
  8
0-0
  6
JWW_DASHED1
 62
   120
370
     5
100
AcDbLine
 10
1114.098650954551
 20
-242.6748453665932
 30
0.0
 11
524.0986509545507
 21
347.3251546334074
 31
0.0
  0
LINE
  5
2CA
330
1F
100
AcDbEntity
  8
0-0
  6
JWW_DASHED1
 62
   120
370
     5
100
AcDbLine
 10
1114.098650954567
 20
-232.7753504299747
 30
0.0
 11
524.098650954561
 21
357.224649570031
 31
0.0
  0
LINE
  5
2CB
330
1F
100
AcDbEntity
  8
0-0
  6
JWW_DASHED1
 62
   120
370
     5
100
AcDbLine
 10
1114.09865095456
 20
-222.8758554933306
 30
0.0
 11
524.0986509545525
 21
367.1241445066755
 31
0.0
  0
LINE
  5
2CC
330
1F
100
AcDbEntity
  8
0-0
  6
JWW_DASHED1
 62
   120
370
     5
100
AcDbLine
 10
1114.098650954553
 20
-212.9763605567449
 30
0.0
 11
524.0986509545473
 21
377.0236394432612
 31
0.0
  0
LINE
  5
2CD
330
1F
100
AcDbEntity
  8
0-0
  6
JWW_DASHED1
 62
   120
370
     5
100
AcDbLine
 10
1114.09865095455
 20
-203.0768656201055
 30
0.0
 11
524.098650954549
 21
386.9231343798947
 31
0.0
  0
LINE
  5
2CE
330
1F
100
AcDbEntity
  8
0-0
  6
JWW_DASHED1
 62
   120
370
     5
100
AcDbLine
 10
1114.09865095457
 20
-193.1773706835462
 30
0.0
 11
524.0986509545644
 21
396.8226293164595
 31
0.0
  0
LINE
  5
2CF
330
1F
100
AcDbEntity
  8
0-0
  6
JWW_DASHED1
 62
   120
370
     5
100
AcDbLine
 10
1114.098650954561
 20
-183.2778757469016
 30
0.0
 11
524.0986509545559
 21
406.7221242531041
 31
0.0
  0
LINE
  5
2D0
330
1F
100
AcDbEntity
  8
0-0
  6
JWW_DASHED1
 62
   120
370
     5
100
AcDbLine
 10
1114.098650954556
 20
-173.3783808103159
 30
0.0
 11
524.0986509545507
 21
416.6216191896898
 31
0.0
  0
LINE
  5
2D1
330
1F
100
AcDbEntity
  8
0-0
  6
JWW_DASHED1
 62
   120
370
     5
100
AcDbLine
 10
1114.098650954553
 20
-163.4788858736773
 30
0.0
 11
524.0986509545525
 21
426.5211141263228
 31
0.0
  0
LINE
  5
2D2
330
1F
100
AcDbEntity
  8
0-0
  6
JWW_DASHED1
 62
   120
370
     5
100
AcDbLine
 10
1114.098650954563
 20
-153.5793909371078
 30
0.0
 11
524.0986509545473
 21
436.4206090629085
 31
0.0
  0
LINE
  5
2D3
330
1F
100
AcDbEntity
  8
0-0
  6
JWW_DASHED1
 62
   120
370
     5
100
AcDbLine
 10
1114.098650954563
 20
-143.6798960004727
 30
0.0
 11
524.0986509545576
 21
446.320103999533
 31
0.0
  0
LINE
  5
2D4
330
1F
100
AcDbEntity
  8
0-0
  6
JWW_DASHED1
 62
   120
370
     5
100
AcDbLine
 10
1114.098650954555
 20
-133.7804010638281
 30
0.0
 11
524.098650954549
 21
456.2195989361776
 31
0.0
  0
LINE
  5
2D5
330
1F
100
AcDbEntity
  8
0-0
  6
JWW_DASHED1
 62
   120
370
     5
100
AcDbLine
 10
1114.098650954556
 20
-123.8809061272492
 30
0.0
 11
524.0986509545559
 21
466.1190938727514
 31
0.0
  0
LINE
  5
2D6
330
1F
100
AcDbEntity
  8
0-0
  6
JWW_DASHED1
 62
   120
370
     5
100
AcDbLine
 10
1114.098650954573
 20
-113.9814111906298
 30
0.0
 11
524.0986509545507
 21
476.0185888093916
 31
0.0
  0
LINE
  5
2D7
330
1F
100
AcDbEntity
  8
0-0
  6
JWW_DASHED1
 62
   120
370
     5
100
AcDbLine
 10
1114.098650954567
 20
-104.0819162540441
 30
0.0
 11
524.098650954561
 21
485.9180837459616
 31
0.0
  0
LINE
  5
2D8
330
1F
100
AcDbEntity
  8
0-0
  6
JWW_DASHED1
 62
   120
370
     5
100
AcDbLine
 10
1114.098650954558
 20
-94.18242131740001
 30
0.0
 11
524.0986509545507
 21
495.8175786826061
 31
0.0
  0
LINE
  5
2D9
330
1F
100
AcDbEntity
  8
0-0
  6
JWW_DASHED1
 62
   120
370
     5
100
AcDbLine
 10
1114.09865095456
 20
-84.2829263808207
 30
0.0
 11
524.0986509545593
 21
505.7170736191795
 31
0.0
  0
LINE
  5
2DA
330
1F
100
AcDbEntity
  8
0-0
  6
JWW_DASHED1
 62
   120
370
     5
100
AcDbLine
 10
1114.09865095455
 20
-74.38343144417658
 30
0.0
 11
524.0986509545507
 21
515.6165685558235
 31
0.0
  0
LINE
  5
2DB
330
1F
100
AcDbEntity
  8
0-0
  6
JWW_DASHED1
 62
   120
370
     5
100
AcDbLine
 10
1114.098650954567
 20
-64.48393650755676
 30
0.0
 11
524.098650954561
 21
525.5160634924493
 31
0.0
  0
LINE
  5
2DC
330
1F
100
AcDbEntity
  8
0-0
  6
JWW_DASHED1
 62
   120
370
     5
100
AcDbLine
 10
1114.09865095456
 20
-54.58444157097105
 30
0.0
 11
524.0986509545542
 21
535.4155584290346
 31
0.0
  0
LINE
  5
2DD
330
1F
100
AcDbEntity
  8
0-0
  6
JWW_DASHED1
 62
   120
370
     5
100
AcDbLine
 10
1114.098650954558
 20
-44.68494663433333
 30
0.0
 11
524.0986509545576
 21
545.3150533656668
 31
0.0
  0
LINE
  5
2DE
330
1F
100
AcDbEntity
  8
0-0
  6
JWW_DASHED1
 62
   120
370
     5
100
AcDbLine
 10
1114.098650954553
 20
-34.78545169774762
 30
0.0
 11
524.0986509545542
 21
555.2145483022525
 31
0.0
  0
LINE
  5
2DF
330
1F
100
AcDbEntity
  8
0-0
  6
JWW_DASHED1
 62
   120
370
     5
100
AcDbLine
 10
1114.098650954568
 20
-24.8859567611278
 30
0.0
 11
524.0986509545627
 21
565.1140432388779
 31
0.0
  0
LINE
  5
2E0
330
1F
100
AcDbEntity
  8
0-0
  6
JWW_DASHED1
 62
   120
370
     5
100
AcDbLine
 10
1114.098650954563
 20
-14.98646182454209
 30
0.0
 11
524.0986509545576
 21
575.0135381754636
 31
0.0
  0
LINE
  5
2E1
330
1F
100
AcDbEntity
  8
0-0
  6
JWW_DASHED1
 62
   120
370
     5
100
AcDbLine
 10
1114.098650954553
 20
-5.086966887897546
 30
0.0
 11
524.0986509545473
 21
584.9130331121081
 31
0.0
  0
LINE
  5
2E2
330
1F
100
AcDbEntity
  8
0-0
  6
JWW_DASHED1
 62
   120
370
     5
100
AcDbLine
 10
1114.098650954556
 20
4.812528048680065
 30
0.0
 11
524.0986509545576
 21
594.8125280486806
 31
0.0
  0
LINE
  5
2E3
330
1F
100
AcDbEntity
  8
0-0
  6
JWW_DASHED1
 62
   120
370
     5
100
AcDbLine
 10
1114.09865095457
 20
14.71202298530116
 30
0.0
 11
524.0986509545507
 21
604.7120229853217
 31
0.0
  0
LINE
  5
2E4
330
1F
100
AcDbEntity
  8
0-0
  6
JWW_DASHED1
 62
   120
370
     5
100
AcDbLine
 10
1114.098650954563
 20
24.61151792194528
 30
0.0
 11
524.0986509545559
 21
614.611517921951
 31
0.0
  0
LINE
  5
2E5
330
1F
100
AcDbEntity
  8
0-0
  6
JWW_DASHED1
 62
   120
370
     5
100
AcDbLine
 10
1114.098650954556
 20
34.51101285853099
 30
0.0
 11
524.0986509545507
 21
624.5110128585367
 31
0.0
  0
LINE
  5
2E6
330
1F
100
AcDbEntity
  8
0-0
  6
JWW_DASHED1
 62
   120
370
     5
100
AcDbLine
 10
1114.098650954556
 20
44.41050779516743
 30
0.0
 11
524.0986509545542
 21
634.410507795168
 31
0.0
  0
LINE
  5
2E7
330
1F
100
AcDbEntity
  8
0-0
  6
JWW_DASHED1
 62
   120
370
     5
100
AcDbLine
 10
1114.09865095455
 20
54.31000273175314
 30
0.0
 11
524.0986509545507
 21
644.3100027317532
 31
0.0
  0
LINE
  5
2E8
330
1F
100
AcDbEntity
  8
0-0
  6
JWW_DASHED1
 62
   120
370
     5
100
AcDbLine
 10
1114.098650954565
 20
64.20949766837381
 30
0.0
 11
524.0986509545576
 21
654.20949766838
 31
0.0
  0
LINE
  5
2E9
330
1F
100
AcDbEntity
  8
0-0
  6
JWW_DASHED1
 62
   120
370
     5
100
AcDbLine
 10
1114.09865095456
 20
74.10899260495952
 30
0.0
 11
524.0986509545542
 21
664.1089926049652
 31
0.0
  0
LINE
  5
2EA
330
1F
100
AcDbEntity
  8
0-0
  6
JWW_DASHED1
 62
   120
370
     5
100
AcDbLine
 10
1114.09865095456
 20
84.00848754159597
 30
0.0
 11
524.0986509545576
 21
674.0084875415961
 31
0.0
  0
LINE
  5
2EB
330
1F
100
AcDbEntity
  8
0-0
  6
JWW_DASHED1
 62
   120
370
     5
100
AcDbLine
 10
1114.098650954553
 20
93.90798247818125
 30
0.0
 11
524.0986509545542
 21
683.9079824781813
 31
0.0
  0
LINE
  5
2EC
330
1F
100
AcDbEntity
  8
0-0
  6
JWW_DASHED1
 62
   120
370
     5
100
AcDbLine
 10
1114.098650954567
 20
103.8074774148028
 30
0.0
 11
524.098650954561
 21
693.8074774148084
 31
0.0
  0
LINE
  5
2ED
330
1F
100
AcDbEntity
  8
0-0
  6
JWW_DASHED1
 62
   120
370
     5
100
AcDbLine
 10
1114.098650954558
 20
113.7069723514473
 30
0.0
 11
524.0986509545525
 21
703.706972351453
 31
0.0
  0
LINE
  5
2EE
330
1F
100
AcDbEntity
  8
0-0
  6
JWW_DASHED1
 62
   120
370
     5
100
AcDbLine
 10
1114.098650954553
 20
123.606467288033
 30
0.0
 11
524.0986509545473
 21
713.6064672880387
 31
0.0
  0
LINE
  5
2EF
330
1F
100
AcDbEntity
  8
0-0
  6
JWW_DASHED1
 62
   120
370
     5
100
AcDbLine
 10
1114.098650954553
 20
133.5059622246686
 30
0.0
 11
524.0986509545525
 21
723.5059622246688
 31
0.0
  0
LINE
  5
2F0
330
1F
100
AcDbEntity
  8
0-0
  6
JWW_DASHED1
 62
   120
370
     5
100
AcDbLine
 10
1114.09865095457
 20
143.4054571612317
 30
0.0
 11
524.098650954549
 21
733.4054571612528
 31
0.0
  0
LINE
  5
2F1
330
1F
100
AcDbEntity
  8
0-0
  6
JWW_DASHED1
 62
   120
370
     5
100
AcDbLine
 10
1114.09865095456
 20
153.3049520978763
 30
0.0
 11
524.0986509545542
 21
743.3049520978819
 31
0.0
  0
LINE
  5
2F2
330
1F
100
AcDbEntity
  8
0-0
  6
JWW_DASHED1
 62
   120
370
     5
100
AcDbLine
 10
1114.098650954556
 20
163.2044470344616
 30
0.0
 11
524.0986509545507
 21
753.2044470344672
 31
0.0
  0
LINE
  5
2F3
330
1F
100
AcDbEntity
  8
0-0
  6
JWW_DASHED1
 62
   120
370
     5
100
AcDbLine
 10
1114.098650954556
 20
173.1039419710967
 30
0.0
 11
524.0986509545542
 21
763.1039419710974
 31
0.0
  0
LINE
  5
2F4
330
1F
100
AcDbEntity
  8
0-0
  6
JWW_DASHED1
 62
   120
370
     5
100
AcDbLine
 10
1114.09865095455
 20
183.0034369076829
 30
0.0
 11
524.0986509545507
 21
773.003436907683
 31
0.0
  0
LINE
  5
2F5
330
1F
100
AcDbEntity
  8
0-0
  6
JWW_DASHED1
 62
   120
370
     5
100
AcDbLine
 10
1114.098650954563
 20
192.9029318443044
 30
0.0
 11
524.0986509545576
 21
782.9029318443105
 31
0.0
  0
LINE
  5
2F6
330
1F
100
AcDbEntity
  8
0-0
  6
JWW_DASHED1
 62
   120
370
     5
100
AcDbLine
 10
1114.098650954555
 20
202.8024267809489
 30
0.0
 11
524.0986509545473
 21
792.8024267809551
 31
0.0
  0
LINE
  5
2F7
330
1F
100
AcDbEntity
  8
0-0
  6
JWW_DASHED1
 62
   120
370
     5
100
AcDbLine
 10
1114.09865095456
 20
212.7019217175248
 30
0.0
 11
524.0986509545576
 21
802.7019217175258
 31
0.0
  0
LINE
  5
2F8
330
1F
100
AcDbEntity
  8
0-0
  6
JWW_DASHED1
 62
   120
370
     5
100
AcDbLine
 10
1114.098650954567
 20
222.601416654154
 30
0.0
 11
524.098650954549
 21
812.60141665417
 31
0.0
  0
LINE
  5
2F9
330
1F
100
AcDbEntity
  8
0-0
  6
JWW_DASHED1
 62
   120
370
     5
100
AcDbLine
 10
1114.098650954567
 20
232.5009115907334
 30
0.0
 11
524.098650954561
 21
822.5009115907391
 31
0.0
  0
LINE
  5
2FA
330
1F
100
AcDbEntity
  8
0-0
  6
JWW_DASHED1
 62
   120
370
     5
100
AcDbLine
 10
1114.098650954556
 20
242.4004065273775
 30
0.0
 11
524.0986509545507
 21
832.4004065273836
 31
0.0
  0
LINE
  5
2FB
330
1F
100
AcDbEntity
  8
0-0
  6
JWW_DASHED1
 62
   120
370
     5
100
AcDbLine
 10
1114.098650954553
 20
252.2999014639632
 30
0.0
 11
524.0986509545473
 21
842.2999014639688
 31
0.0
  0
LINE
  5
2FC
330
1F
100
AcDbEntity
  8
0-0
  6
JWW_DASHED1
 62
   120
370
     5
100
AcDbLine
 10
1114.098650954553
 20
262.1993964005979
 30
0.0
 11
524.0986509545525
 21
852.1993964005985
 31
0.0
  0
LINE
  5
2FD
330
1F
100
AcDbEntity
  8
0-0
  6
JWW_DASHED1
 62
   120
370
     5
100
AcDbLine
 10
1114.098650954565
 20
272.0988913372212
 30
0.0
 11
524.0986509545593
 21
862.0988913372269
 31
0.0
  0
LINE
  5
2FE
330
1F
100
AcDbEntity
  8
0-0
  6
JWW_DASHED1
 62
   120
370
     5
100
AcDbLine
 10
1114.09865095456
 20
281.9983862738069
 30
0.0
 11
524.0986509545542
 21
871.9983862738126
 31
0.0
  0
LINE
  5
2FF
330
1F
100
AcDbEntity
  8
0-0
  6
JWW_DASHED1
 62
   120
370
     5
100
AcDbLine
 10
1114.09865095456
 20
291.8978812104411
 30
0.0
 11
524.098650954561
 21
881.8978812104413
 31
0.0
  0
LINE
  5
300
330
1F
100
AcDbEntity
  8
0-0
  6
JWW_DASHED1
 62
   120
370
     5
100
AcDbLine
 10
1114.098650954556
 20
301.7973761470265
 30
0.0
 11
530.4232218350381
 21
885.4728052665439
 31
0.0
  0
LINE
  5
301
330
1F
100
AcDbEntity
  8
0-0
  6
JWW_DASHED1
 62
   120
370
     5
100
AcDbLine
 10
1114.098650954553
 20
875.9680824705039
 30
0.0
 11
1104.593928158513
 21
885.4728052665439
 31
0.0
  0
LINE
  5
302
330
1F
100
AcDbEntity
  8
0-0
  6
JWW_DASHED1
 62
   120
370
     5
100
AcDbLine
 10
1114.098650954568
 20
311.6968710836493
 30
0.0
 11
540.3227167716733
 21
885.4728052665439
 31
0.0
  0
LINE
  5
303
330
1F
100
AcDbEntity
  8
0-0
  6
JWW_DASHED1
 62
   120
370
     5
100
AcDbLine
 10
1114.098650954563
 20
321.596366020235
 30
0.0
 11
550.2222117082539
 21
885.4728052665439
 31
0.0
  0
LINE
  5
304
330
1F
100
AcDbEntity
  8
0-0
  6
JWW_DASHED1
 62
   120
370
     5
100
AcDbLine
 10
1114.098650954553
 20
331.4958609568795
 30
0.0
 11
560.1217066448891
 21
885.4728052665439
 31
0.0
  0
LINE
  5
305
330
1F
100
AcDbEntity
  8
0-0
  6
JWW_DASHED1
 62
   120
370
     5
100
AcDbLine
 10
1114.09865095456
 20
341.3953558934546
 30
0.0
 11
570.0212015814697
 21
885.4728052665439
 31
0.0
  0
LINE
  5
306
330
1F
100
AcDbEntity
  8
0-0
  6
JWW_DASHED1
 62
   120
370
     5
100
AcDbLine
 10
1114.09865095457
 20
351.2948508300782
 30
0.0
 11
579.9206965181048
 21
885.4728052665439
 31
0.0
  0
LINE
  5
307
330
1F
100
AcDbEntity
  8
0-0
  6
JWW_DASHED1
 62
   120
370
     5
100
AcDbLine
 10
1114.098650954561
 20
361.1943457667228
 30
0.0
 11
589.82019145474
 21
885.4728052665439
 31
0.0
  0
LINE
  5
308
330
1F
100
AcDbEntity
  8
0-0
  6
JWW_DASHED1
 62
   120
370
     5
100
AcDbLine
 10
1114.098650954556
 20
371.0938407033085
 30
0.0
 11
599.7196863913206
 21
885.4728052665439
 31
0.0
  0
LINE
  5
309
330
1F
100
AcDbEntity
  8
0-0
  6
JWW_DASHED1
 62
   120
370
     5
100
AcDbLine
 10
1114.098650954558
 20
380.993335639942
 30
0.0
 11
609.6191813279557
 21
885.4728052665439
 31
0.0
  0
LINE
  5
30A
330
1F
100
AcDbEntity
  8
0-0
  6
JWW_DASHED1
 62
   120
370
     5
100
AcDbLine
 10
1114.098650954553
 20
390.8928305765277
 30
0.0
 11
619.5186762645363
 21
885.4728052665439
 31
0.0
  0
LINE
  5
30B
330
1F
100
AcDbEntity
  8
0-0
  6
JWW_DASHED1
 62
   120
370
     5
100
AcDbLine
 10
1114.098650954563
 20
400.7923255131517
 30
0.0
 11
629.4181712011715
 21
885.4728052665439
 31
0.0
  0
LINE
  5
30C
330
1F
100
AcDbEntity
  8
0-0
  6
JWW_DASHED1
 62
   120
370
     5
100
AcDbLine
 10
1114.09865095456
 20
410.691820449737
 30
0.0
 11
639.3176661377521
 21
885.4728052665439
 31
0.0
  0
LINE
  5
30D
330
1F
100
AcDbEntity
  8
0-0
  6
JWW_DASHED1
 62
   120
370
     5
100
AcDbLine
 10
1114.098650954561
 20
420.5913153863701
 30
0.0
 11
649.2171610743873
 21
885.4728052665439
 31
0.0
  0
LINE
  5
30E
330
1F
100
AcDbEntity
  8
0-0
  6
JWW_DASHED1
 62
   120
370
     5
100
AcDbLine
 10
1114.098650954556
 20
430.4908103229558
 30
0.0
 11
659.1166560109679
 21
885.4728052665439
 31
0.0
  0
LINE
  5
30F
330
1F
100
AcDbEntity
  8
0-0
  6
JWW_DASHED1
 62
   120
370
     5
100
AcDbLine
 10
1114.098650954567
 20
440.3903052595803
 30
0.0
 11
669.016150947603
 21
885.4728052665439
 31
0.0
  0
LINE
  5
310
330
1F
100
AcDbEntity
  8
0-0
  6
JWW_DASHED1
 62
   120
370
     5
100
AcDbLine
 10
1114.098650954558
 20
450.2898001962248
 30
0.0
 11
678.9156458842382
 21
885.4728052665439
 31
0.0
  0
LINE
  5
311
330
1F
100
AcDbEntity
  8
0-0
  6
JWW_DASHED1
 62
   120
370
     5
100
AcDbLine
 10
1114.098650954553
 20
460.1892951328101
 30
0.0
 11
688.8151408208205
 21
885.4728052665439
 31
0.0
  0
LINE
  5
312
330
1F
100
AcDbEntity
  8
0-0
  6
JWW_DASHED1
 62
   120
370
     5
100
AcDbLine
 10
1114.098650954556
 20
470.0887900694431
 30
0.0
 11
698.714635757454
 21
885.4728052665439
 31
0.0
  0
LINE
  5
313
330
1F
100
AcDbEntity
  8
0-0
  6
JWW_DASHED1
 62
   120
370
     5
100
AcDbLine
 10
1114.09865095457
 20
479.9882850060088
 30
0.0
 11
708.6141306940362
 21
885.4728052665439
 31
0.0
  0
LINE
  5
314
330
1F
100
AcDbEntity
  8
0-0
  6
JWW_DASHED1
 62
   120
370
     5
100
AcDbLine
 10
1114.09865095456
 20
489.8877799426533
 30
0.0
 11
718.5136256306697
 21
885.4728052665439
 31
0.0
  0
LINE
  5
315
330
1F
100
AcDbEntity
  8
0-0
  6
JWW_DASHED1
 62
   120
370
     5
100
AcDbLine
 10
1114.098650954556
 20
499.7872748792386
 30
0.0
 11
728.4131205672503
 21
885.4728052665439
 31
0.0
  0
LINE
  5
316
330
1F
100
AcDbEntity
  8
0-0
  6
JWW_DASHED1
 62
   120
370
     5
100
AcDbLine
 10
1114.098650954558
 20
509.6867698158717
 30
0.0
 11
738.3126155038855
 21
885.4728052665439
 31
0.0
  0
LINE
  5
317
330
1F
100
AcDbEntity
  8
0-0
  6
JWW_DASHED1
 62
   120
370
     5
100
AcDbLine
 10
1114.098650954553
 20
519.5862647524569
 30
0.0
 11
748.2121104404661
 21
885.4728052665439
 31
0.0
  0
LINE
  5
318
330
1F
100
AcDbEntity
  8
0-0
  6
JWW_DASHED1
 62
   120
370
     5
100
AcDbLine
 10
1114.098650954563
 20
529.4857596890819
 30
0.0
 11
758.1116053771012
 21
885.4728052665439
 31
0.0
  0
LINE
  5
319
330
1F
100
AcDbEntity
  8
0-0
  6
JWW_DASHED1
 62
   120
370
     5
100
AcDbLine
 10
1114.098650954553
 20
539.3852546257265
 30
0.0
 11
768.0111003137364
 21
885.4728052665439
 31
0.0
  0
LINE
  5
31A
330
1F
100
AcDbEntity
  8
0-0
  6
JWW_DASHED1
 62
   120
370
     5
100
AcDbLine
 10
1114.098650954561
 20
549.2847495622998
 30
0.0
 11
777.910595250317
 21
885.4728052665439
 31
0.0
  0
LINE
  5
31B
330
1F
100
AcDbEntity
  8
0-0
  6
JWW_DASHED1
 62
   120
370
     5
100
AcDbLine
 10
1114.098650954568
 20
559.1842444989281
 30
0.0
 11
787.8100901869522
 21
885.4728052665439
 31
0.0
  0
LINE
  5
31C
330
1F
100
AcDbEntity
  8
0-0
  6
JWW_DASHED1
 62
   120
370
     5
100
AcDbLine
 10
1114.098650954567
 20
569.0837394355108
 30
0.0
 11
797.7095851235327
 21
885.4728052665439
 31
0.0
  0
LINE
  5
31D
330
1F
100
AcDbEntity
  8
0-0
  6
JWW_DASHED1
 62
   120
370
     5
100
AcDbLine
 10
1114.098650954556
 20
578.9832343721554
 30
0.0
 11
807.6090800601679
 21
885.4728052665439
 31
0.0
  0
LINE
  5
31E
330
1F
100
AcDbEntity
  8
0-0
  6
JWW_DASHED1
 62
   120
370
     5
100
AcDbLine
 10
1114.098650954553
 20
588.8827293087411
 30
0.0
 11
817.5085749967502
 21
885.4728052665439
 31
0.0
  0
LINE
  5
31F
330
1F
100
AcDbEntity
  8
0-0
  6
JWW_DASHED1
 62
   120
370
     5
100
AcDbLine
 10
1114.098650954556
 20
598.7822242453719
 30
0.0
 11
827.4080699333837
 21
885.4728052665439
 31
0.0
  0
LINE
  5
320
330
1F
100
AcDbEntity
  8
0-0
  6
JWW_DASHED1
 62
   120
370
     5
100
AcDbLine
 10
1114.098650954565
 20
608.6817191819982
 30
0.0
 11
837.3075648700188
 21
885.4728052665439
 31
0.0
  0
LINE
  5
321
330
1F
100
AcDbEntity
  8
0-0
  6
JWW_DASHED1
 62
   120
370
     5
100
AcDbLine
 10
1114.09865095456
 20
618.581214118584
 30
0.0
 11
847.2070598065994
 21
885.4728052665439
 31
0.0
  0
LINE
  5
322
330
1F
100
AcDbEntity
  8
0-0
  6
JWW_DASHED1
 62
   120
370
     5
100
AcDbLine
 10
1114.098650954563
 20
628.4807090552152
 30
0.0
 11
857.1065547432346
 21
885.4728052665439
 31
0.0
  0
LINE
  5
323
330
1F
100
AcDbEntity
  8
0-0
  6
JWW_DASHED1
 62
   120
370
     5
100
AcDbLine
 10
1114.09865095456
 20
638.3802039918
 30
0.0
 11
867.0060496798152
 21
885.4728052665439
 31
0.0
  0
LINE
  5
324
330
1F
100
AcDbEntity
  8
0-0
  6
JWW_DASHED1
 62
   120
370
     5
100
AcDbLine
 10
1114.098650954567
 20
648.2796989284271
 30
0.0
 11
876.9055446164504
 21
885.4728052665439
 31
0.0
  0
LINE
  5
325
330
1F
100
AcDbEntity
  8
0-0
  6
JWW_DASHED1
 62
   120
370
     5
100
AcDbLine
 10
1114.098650954563
 20
658.1791938650124
 30
0.0
 11
886.805039553031
 21
885.4728052665439
 31
0.0
  0
LINE
  5
326
330
1F
100
AcDbEntity
  8
0-0
  6
JWW_DASHED1
 62
   120
370
     5
100
AcDbLine
 10
1114.098650954553
 20
668.0786888016574
 30
0.0
 11
896.7045344896678
 21
885.4728052665439
 31
0.0
  0
LINE
  5
327
330
1F
100
AcDbEntity
  8
0-0
  6
JWW_DASHED1
 62
   120
370
     5
100
AcDbLine
 10
1114.098650954561
 20
677.9781837382295
 30
0.0
 11
906.6040294262467
 21
885.4728052665439
 31
0.0
  0
LINE
  5
328
330
1F
100
AcDbEntity
  8
0-0
  6
JWW_DASHED1
 62
   120
370
     5
100
AcDbLine
 10
1114.098650954568
 20
687.8776786748579
 30
0.0
 11
916.5035243628819
 21
885.4728052665439
 31
0.0
  0
LINE
  5
329
330
1F
100
AcDbEntity
  8
0-0
  6
JWW_DASHED1
 62
   120
370
     5
100
AcDbLine
 10
1114.09865095456
 20
697.7771736115003
 30
0.0
 11
926.403019299517
 21
885.4728052665439
 31
0.0
  0
LINE
  5
32A
330
1F
100
AcDbEntity
  8
0-0
  6
JWW_DASHED1
 62
   120
370
     5
100
AcDbLine
 10
1114.098650954556
 20
707.6766685480859
 30
0.0
 11
936.3025142360976
 21
885.4728052665439
 31
0.0
  0
LINE
  5
32B
330
1F
100
AcDbEntity
  8
0-0
  6
JWW_DASHED1
 62
   120
370
     5
100
AcDbLine
 10
1114.09865095456
 20
717.5761634847164
 30
0.0
 11
946.2020091727328
 21
885.4728052665439
 31
0.0
  0
LINE
  5
32C
330
1F
100
AcDbEntity
  8
0-0
  6
JWW_DASHED1
 62
   120
370
     5
100
AcDbLine
 10
1114.098650954556
 20
727.4756584213017
 30
0.0
 11
956.1015041093134
 21
885.4728052665439
 31
0.0
  0
LINE
  5
32D
330
1F
100
AcDbEntity
  8
0-0
  6
JWW_DASHED1
 62
   120
370
     5
100
AcDbLine
 10
1114.098650954563
 20
737.3751533579288
 30
0.0
 11
966.0009990459486
 21
885.4728052665439
 31
0.0
  0
LINE
  5
32E
330
1F
100
AcDbEntity
  8
0-0
  6
JWW_DASHED1
 62
   120
370
     5
100
AcDbLine
 10
1114.09865095456
 20
747.274648294514
 30
0.0
 11
975.9004939825292
 21
885.4728052665439
 31
0.0
  0
LINE
  5
32F
330
1F
100
AcDbEntity
  8
0-0
  6
JWW_DASHED1
 62
   120
370
     5
100
AcDbLine
 10
1114.098650954563
 20
757.1741432311445
 30
0.0
 11
985.7999889191643
 21
885.4728052665439
 31
0.0
  0
LINE
  5
330
330
1F
100
AcDbEntity
  8
0-0
  6
JWW_DASHED1
 62
   120
370
     5
100
AcDbLine
 10
1114.09865095456
 20
767.0736381677298
 30
0.0
 11
995.6994838557449
 21
885.4728052665439
 31
0.0
  0
LINE
  5
331
330
1F
100
AcDbEntity
  8
0-0
  6
JWW_DASHED1
 62
   120
370
     5
100
AcDbLine
 10
1114.098650954567
 20
776.9731331043578
 30
0.0
 11
1005.59897879238
 21
885.4728052665439
 31
0.0
  0
LINE
  5
332
330
1F
100
AcDbEntity
  8
0-0
  6
JWW_DASHED1
 62
   120
370
     5
100
AcDbLine
 10
1114.098650954556
 20
786.8726280410023
 30
0.0
 11
1015.498473729015
 21
885.4728052665439
 31
0.0
  0
LINE
  5
333
330
1F
100
AcDbEntity
  8
0-0
  6
JWW_DASHED1
 62
   120
370
     5
100
AcDbLine
 10
1114.098650954553
 20
796.7721229775875
 30
0.0
 11
1025.397968665596
 21
885.4728052665439
 31
0.0
  0
LINE
  5
334
330
1F
100
AcDbEntity
  8
0-0
  6
JWW_DASHED1
 62
   120
370
     5
100
AcDbLine
 10
1114.098650954558
 20
806.6716179142172
 30
0.0
 11
1035.297463602231
 21
885.4728052665439
 31
0.0
  0
LINE
  5
335
330
1F
100
AcDbEntity
  8
0-0
  6
JWW_DASHED1
 62
   120
370
     5
100
AcDbLine
 10
1114.098650954568
 20
816.5711128507871
 30
0.0
 11
1045.196958538811
 21
885.4728052665439
 31
0.0
  0
LINE
  5
336
330
1F
100
AcDbEntity
  8
0-0
  6
JWW_DASHED1
 62
   120
370
     5
100
AcDbLine
 10
1114.09865095456
 20
826.4706077874308
 30
0.0
 11
1055.096453475447
 21
885.4728052665439
 31
0.0
  0
LINE
  5
337
330
1F
100
AcDbEntity
  8
0-0
  6
JWW_DASHED1
 62
   120
370
     5
100
AcDbLine
 10
1114.098650954555
 20
836.3701027240165
 30
0.0
 11
1064.995948412027
 21
885.4728052665439
 31
0.0
  0
LINE
  5
338
330
1F
100
AcDbEntity
  8
0-0
  6
JWW_DASHED1
 62
   120
370
     5
100
AcDbLine
 10
1114.09865095456
 20
846.2695976606458
 30
0.0
 11
1074.895443348662
 21
885.4728052665439
 31
0.0
  0
LINE
  5
339
330
1F
100
AcDbEntity
  8
0-0
  6
JWW_DASHED1
 62
   120
370
     5
100
AcDbLine
 10
1114.098650954568
 20
856.1690925972741
 30
0.0
 11
1084.794938285299
 21
885.4728052665439
 31
0.0
  0
LINE
  5
33A
330
1F
100
AcDbEntity
  8
0-0
  6
JWW_DASHED1
 62
   120
370
     5
100
AcDbLine
 10
1114.098650954563
 20
866.0685875338594
 30
0.0
 11
1094.694433221878
 21
885.4728052665439
 31
0.0
  0
LINE
  5
33B
330
1F
100
AcDbEntity
  8
寸法
  6
Continuous
 62
   120
370
     5
100
AcDbLine
 10
-1622.901349045437
 20
1064.472805266544
 30
0.0
 11
-1622.901349045437
 21
-982.5271947334566
 31
0.0
  0
LINE
  5
33C
330
1F
100
AcDbEntity
  8
寸法
  6
Continuous
 62
   120
370
     5
100
AcDbLine
 10
-1622.901349045437
 20
1064.472805266544
 30
0.0
 11
-1222.901349045436
 21
1064.472805266544
 31
0.0
  0
LINE
  5
33D
330
1F
100
AcDbEntity
  8
寸法
  6
Continuous
 62
   120
370
     5
100
AcDbLine
 10
-1622.901349045437
 20
-982.5271947334566
 30
0.0
 11
-1222.901349045436
 21
-982.5271947334566
 31
0.0
  0
LINE
  5
33E
330
1F
100
AcDbEntity
  8
寸法
  6
Continuous
 62
   120
370
     5
100
AcDbLine
 10
-1422.901349045438
 20
-962.5271947334559
 30
0.0
 11
-1222.901349045436
 21
-962.5271947334559
 31
0.0
  0
LWPOLYLINE
  5
33F
330
1F
100
AcDbEntity
  8
寸法
  6
Continuous
 62
     7
370
     9
100
AcDbPolyline
 90
        4
 70
     1
 43
3.0
 10
-1621.401349045437
 20
1064.472805266544
 42
0.4142135623731
 10
-1622.901349045437
 20
1065.972805266544
 42
0.4142135623731
 10
-1624.401349045437
 20
1064.472805266544
 42
0.4142135623731
 10
-1622.901349045437
 20
1062.972805266544
 42
0.4142135623731
  0
LWPOLYLINE
  5
340
330
1F
100
AcDbEntity
  8
寸法
  6
Continuous
 62
     7
370
     9
100
AcDbPolyline
 90
        4
 70
     1
 43
3.0
 10
-1621.401349045437
 20
-982.5271947334566
 42
0.4142135623731
 10
-1622.901349045437
 20
-981.0271947334566
 42
0.4142135623731
 10
-1624.401349045437
 20
-982.5271947334566
 42
0.4142135623731
 10
-1622.901349045437
 20
-984.0271947334564
 42
0.4142135623731
  0
LWPOLYLINE
  5
341
330
1F
100
AcDbEntity
  8
寸法
  6
Continuous
 62
     7
370
     9
100
AcDbPolyline
 90
        4
 70
     1
 43
3.0
 10
-1421.401349045438
 20
-962.5271947334559
 42
0.4142135623731
 10
-1422.901349045438
 20
-961.027194733456
 42
0.4142135623731
 10
-1424.401349045438
 20
-962.5271947334559
 42
0.4142135623731
 10
-1422.901349045438
 20
-964.0271947334559
 42
0.4142135623731
  0
LINE
  5
342
330
1F
100
AcDbEntity
  8
寸法
  6
Continuous
 62
   120
370
     5
100
AcDbLine
 10
-1422.901349045438
 20
1020.472805266545
 30
0.0
 11
-1222.901349045436
 21
1020.472805266545
 31
0.0
  0
LINE
  5
343
330
1F
100
AcDbEntity
  8
寸法
  6
Continuous
 62
   120
370
     5
100
AcDbLine
 10
-1422.901349045438
 20
1020.472805266545
 30
0.0
 11
-1422.901349045438
 21
-962.5271947334559
 31
0.0
  0
LWPOLYLINE
  5
344
330
1F
100
AcDbEntity
  8
寸法
  6
Continuous
 62
     7
370
     9
100
AcDbPolyline
 90
        4
 70
     1
 43
3.0
 10
-1421.401349045438
 20
1020.472805266545
 42
0.4142135623731
 10
-1422.901349045438
 20
1021.972805266545
 42
0.4142135623731
 10
-1424.401349045438
 20
1020.472805266545
 42
0.4142135623731
 10
-1422.901349045438
 20
1018.972805266545
 42
0.4142135623731
  0
LINE
  5
345
330
1F
100
AcDbEntity
  8
寸法
  6
Continuous
 62
   120
370
     5
100
AcDbLine
 10
-1142.901349045437
 20
-1432.527194733457
 30
0.0
 11
-1142.901349045437
 21
-1032.527194733457
 31
0.0
  0
LINE
  5
346
330
1F
100
AcDbEntity
  8
寸法
  6
Continuous
 62
   120
370
     5
100
AcDbLine
 10
-1172.901349045437
 20
-1632.527194733456
 30
0.0
 11
-1172.901349045437
 21
-1032.527194733457
 31
0.0
  0
LINE
  5
347
330
1F
100
AcDbEntity
  8
寸法
  6
Continuous
 62
   120
370
     5
100
AcDbLine
 10
-1172.901349045437
 20
-1632.527194733456
 30
0.0
 11
2034.098650954563
 21
-1632.527194733456
 31
0.0
  0
LINE
  5
348
330
1F
100
AcDbEntity
  8
寸法
  6
Continuous
 62
   120
370
     5
100
AcDbLine
 10
2034.098650954563
 20
-1632.527194733456
 30
0.0
 11
2034.098650954563
 21
-1032.527194733456
 31
0.0
  0
LINE
  5
349
330
1F
100
AcDbEntity
  8
寸法
  6
Continuous
 62
   120
370
     5
100
AcDbLine
 10
-1145.901349045438
 20
-1232.527194733456
 30
0.0
 11
-1145.901349045438
 21
-1032.527194733457
 31
0.0
  0
LINE
  5
34A
330
1F
100
AcDbEntity
  8
寸法
  6
Continuous
 62
   120
370
     5
100
AcDbLine
 10
-1145.901349045438
 20
-1232.527194733456
 30
0.0
 11
-335.901349045437
 21
-1232.527194733456
 31
0.0
  0
LINE
  5
34B
330
1F
100
AcDbEntity
  8
寸法
  6
Continuous
 62
   120
370
     5
100
AcDbLine
 10
-335.901349045437
 20
-1232.527194733456
 30
0.0
 11
-335.901349045437
 21
-1032.527194733457
 31
0.0
  0
LINE
  5
34C
330
1F
100
AcDbEntity
  8
寸法
  6
Continuous
 62
   120
370
     5
100
AcDbLine
 10
-1142.901349045437
 20
-1432.527194733457
 30
0.0
 11
1194.098650954563
 21
-1432.527194733456
 31
0.0
  0
LINE
  5
34D
330
1F
100
AcDbEntity
  8
寸法
  6
Continuous
 62
   120
370
     5
100
AcDbLine
 10
1194.098650954563
 20
-1432.527194733456
 30
0.0
 11
1194.098650954563
 21
-1032.527194733456
 31
0.0
  0
LWPOLYLINE
  5
34E
330
1F
100
AcDbEntity
  8
寸法
  6
Continuous
 62
     7
370
     9
100
AcDbPolyline
 90
        4
 70
     1
 43
3.0
 10
-1141.401349045437
 20
-1432.527194733457
 42
0.4142135623731
 10
-1142.901349045437
 20
-1431.027194733457
 42
0.4142135623731
 10
-1144.401349045437
 20
-1432.527194733457
 42
0.4142135623731
 10
-1142.901349045437
 20
-1434.027194733456
 42
0.4142135623731
  0
LWPOLYLINE
  5
34F
330
1F
100
AcDbEntity
  8
寸法
  6
Continuous
 62
     7
370
     9
100
AcDbPolyline
 90
        4
 70
     1
 43
3.0
 10
-1171.401349045437
 20
-1632.527194733456
 42
0.4142135623731
 10
-1172.901349045437
 20
-1631.027194733456
 42
0.4142135623731
 10
-1174.401349045437
 20
-1632.527194733456
 42
0.4142135623731
 10
-1172.901349045437
 20
-1634.027194733456
 42
0.4142135623731
  0
LWPOLYLINE
  5
350
330
1F
100
AcDbEntity
  8
寸法
  6
Continuous
 62
     7
370
     9
100
AcDbPolyline
 90
        4
 70
     1
 43
3.0
 10
2035.598650954563
 20
-1632.527194733456
 42
0.4142135623731
 10
2034.098650954563
 20
-1631.027194733456
 42
0.4142135623731
 10
2032.598650954563
 20
-1632.527194733456
 42
0.4142135623731
 10
2034.098650954563
 20
-1634.027194733456
 42
0.4142135623731
  0
LWPOLYLINE
  5
351
330
1F
100
AcDbEntity
  8
寸法
  6
Continuous
 62
     7
370
     9
100
AcDbPolyline
 90
        4
 70
     1
 43
3.0
 10
-1144.401349045438
 20
-1232.527194733456
 42
0.4142135623731
 10
-1145.901349045438
 20
-1231.027194733456
 42
0.4142135623731
 10
-1147.401349045438
 20
-1232.527194733456
 42
0.4142135623731
 10
-1145.901349045438
 20
-1234.027194733456
 42
0.4142135623731
  0
LWPOLYLINE
  5
352
330
1F
100
AcDbEntity
  8
寸法
  6
Continuous
 62
     7
370
     9
100
AcDbPolyline
 90
        4
 70
     1
 43
3.0
 10
-334.401349045437
 20
-1232.527194733456
 42
0.4142135623731
 10
-335.901349045437
 20
-1231.027194733456
 42
0.4142135623731
 10
-337.401349045437
 20
-1232.527194733456
 42
0.4142135623731
 10
-335.901349045437
 20
-1234.027194733456
 42
0.4142135623731
  0
LWPOLYLINE
  5
353
330
1F
100
AcDbEntity
  8
寸法
  6
Continuous
 62
     7
370
     9
100
AcDbPolyline
 90
        4
 70
     1
 43
3.0
 10
1195.598650954563
 20
-1432.527194733456
 42
0.4142135623731
 10
1194.098650954563
 20
-1431.027194733456
 42
0.4142135623731
 10
1192.598650954563
 20
-1432.527194733456
 42
0.4142135623731
 10
1194.098650954563
 20
-1434.027194733456
 42
0.4142135623731
  0
MTEXT
  5
354
330
1F
100
AcDbEntity
  8
寸法
  6
Continuous
 62
     7
370
    70
100
AcDbMText
 10
-1637.901349045437
 20
-174.2021947334554
 30
0.0
 40
57.14999999999999
 41
412.5
 46
0.0
 71
     7
 72
     1
  1
{\fＭＳ ゴシック|b0|i0|c128|p49;枠外＝2,047}
 11
6.123031769111886E-17
 21
1.0
 31
0.0
 73
     1
 44
1.0
  0
MTEXT
  5
355
330
1F
100
AcDbEntity
  8
寸法
  6
Continuous
 62
     7
370
    70
100
AcDbMText
 10
-1437.901349045438
 20
-180.2021947334559
 30
0.0
 40
57.14999999999999
 41
412.5
 46
0.0
 71
     7
 72
     1
  1
{\fＭＳ ゴシック|b0|i0|c128|p49;ＤＨ＝1,983}
 11
6.123031769111886E-17
 21
1.0
 31
0.0
 73
     1
 44
1.0
  0
MTEXT
  5
356
330
1F
100
AcDbEntity
  8
寸法
  6
Continuous
 62
     7
370
   211
100
AcDbMText
 10
-909.651349045437
 20
-1226.452194733456
 30
0.0
 40
57.15
 41
337.5
 46
0.0
 71
     7
 72
     1
  1
{\fＭＳ ゴシック|b0|i0|c128|p49;ＤＷ＝810}
 73
     1
 44
1.0
  0
MTEXT
  5
357
330
1F
100
AcDbEntity
  8
寸法
  6
Continuous
 62
     7
370
   211
100
AcDbMText
 10
-255.6513490454392
 20
-1426.452194733457
 30
0.0
 40
57.15000000000001
 41
562.5
 46
0.0
 71
     7
 72
     1
  1
{\fＭＳ ゴシック|b0|i0|c128|p49;有効開口＝2,337}
 73
     1
 44
1.0
  0
MTEXT
  5
358
330
1F
100
AcDbEntity
  8
寸法
  6
Continuous
 62
     7
370
   211
100
AcDbMText
 10
224.3486509545608
 20
-1626.452194733456
 30
0.0
 40
57.14999999999999
 41
412.5
 46
0.0
 71
     7
 72
     1
  1
{\fＭＳ ゴシック|b0|i0|c128|p49;枠外＝3,207}
 73
     1
 44
1.0
  0
ENDSEC
  0
SECTION
  2
OBJECTS
  0
DICTIONARY
  5
C
330
0
100
AcDbDictionary
281
     1
  3
ACAD_GROUP
350
D
  3
ACAD_LAYOUT
350
1A
  3
ACAD_MATERIAL
350
3B
  3
ACAD_MLEADERSTYLE
350
35A
  3
ACAD_MLINESTYLE
350
17
  3
ACAD_PLOTSETTINGS
350
19
  3
ACAD_PLOTSTYLENAME
350
E
  3
ACAD_TABLESTYLE
350
359
  3
ACAD_VISUALSTYLE
350
2A
  0
DICTIONARY
  5
D
102
{ACAD_REACTORS
330
C
102
}
330
C
100
AcDbDictionary
281
     1
  0
DICTIONARY
  5
1A
102
{ACAD_REACTORS
330
C
102
}
330
C
100
AcDbDictionary
281
     1
  3
Layout1
350
1E
  3
Layout2
350
26
  3
Model
350
22
  0
DICTIONARY
  5
3B
102
{ACAD_REACTORS
330
C
102
}
330
C
100
AcDbDictionary
281
     1
  3
ByBlock
350
3D
  3
ByLayer
350
3C
  3
Global
350
3E
  0
DICTIONARY
  5
35A
102
{ACAD_REACTORS
330
C
102
}
330
C
100
AcDbDictionary
281
     1
  0
DICTIONARY
  5
17
102
{ACAD_REACTORS
330
C
102
}
330
C
100
AcDbDictionary
281
     1
  3
Standard
350
18
  0
DICTIONARY
  5
19
102
{ACAD_REACTORS
330
C
102
}
330
C
100
AcDbDictionary
281
     1
  0
ACDBDICTIONARYWDFLT
  5
E
102
{ACAD_REACTORS
330
C
102
}
330
C
100
AcDbDictionary
281
     1
  3
Normal
350
F
100
AcDbDictionaryWithDefault
340
F
  0
DICTIONARY
  5
359
102
{ACAD_REACTORS
330
C
102
}
330
C
100
AcDbDictionary
281
     1
  0
DICTIONARY
  5
2A
102
{ACAD_REACTORS
330
C
102
}
330
C
100
AcDbDictionary
281
     1
  3
2dWireframe
350
2F
  3
3D Hidden
350
31
  3
3dWireframe
350
30
  3
Basic
350
32
  3
Brighten
350
36
  3
ColorChange
350
3A
  3
Conceptual
350
34
  3
Dim
350
35
  3
Facepattern
350
39
  3
Flat
350
2B
  3
FlatWithEdges
350
2C
  3
Gouraud
350
2D
  3
GouraudWithEdges
350
2E
  3
Linepattern
350
38
  3
Realistic
350
33
  3
Thicken
350
37
  0
LAYOUT
  5
1E
102
{ACAD_REACTORS
330
1A
102
}
330
1A
100
AcDbPlotSettings
  1

  2
none_device
  4

  6

 40
0.0
 41
0.0
 42
0.0
 43
0.0
 44
0.0
 45
0.0
 46
0.0
 47
0.0
 48
0.0
 49
0.0
140
0.0
141
0.0
142
1.0
143
1.0
 70
   688
 72
     0
 73
     0
 74
     5
  7

 75
    16
 76
     0
 77
     5
 78
   300
147
1.0
148
0.0
149
0.0
100
AcDbLayout
  1
Layout1
 70
     1
 71
     1
 10
0.0
 20
0.0
 11
420.0
 21
297.0
 12
0.0
 22
0.0
 32
0.0
 14
1.000000000000000E+20
 24
1.000000000000000E+20
 34
1.000000000000000E+20
 15
-1.000000000000000E+20
 25
-1.000000000000000E+20
 35
-1.000000000000000E+20
146
0.0
 13
0.0
 23
0.0
 33
0.0
 16
1.0
 26
0.0
 36
0.0
 17
0.0
 27
1.0
 37
0.0
 76
     0
330
1B
  0
LAYOUT
  5
26
102
{ACAD_REACTORS
330
1A
102
}
330
1A
100
AcDbPlotSettings
  1

  2
none_device
  4

  6

 40
0.0
 41
0.0
 42
0.0
 43
0.0
 44
0.0
 45
0.0
 46
0.0
 47
0.0
 48
0.0
 49
0.0
140
0.0
141
0.0
142
1.0
143
1.0
 70
   688
 72
     0
 73
     0
 74
     5
  7

 75
    16
 76
     0
 77
     5
 78
   300
147
1.0
148
0.0
149
0.0
100
AcDbLayout
  1
Layout2
 70
     1
 71
     2
 10
0.0
 20
0.0
 11
0.0
 21
0.0
 12
0.0
 22
0.0
 32
0.0
 14
0.0
 24
0.0
 34
0.0
 15
0.0
 25
0.0
 35
0.0
146
0.0
 13
0.0
 23
0.0
 33
0.0
 16
1.0
 26
0.0
 36
0.0
 17
0.0
 27
1.0
 37
0.0
 76
     0
330
23
  0
LAYOUT
  5
22
102
{ACAD_REACTORS
330
1A
102
}
330
1A
100
AcDbPlotSettings
  1

  2
none_device
  4

  6

 40
0.0
 41
0.0
 42
0.0
 43
0.0
 44
0.0
 45
0.0
 46
0.0
 47
0.0
 48
0.0
 49
0.0
140
0.0
141
0.0
142
1.0
143
1.0
 70
  1712
 72
     0
 73
     0
 74
     0
  7

 75
     0
 76
     0
 77
     5
 78
   300
147
1.0
148
0.0
149
0.0
100
AcDbLayout
  1
Model
 70
     1
 71
     0
 10
-4455.0
 20
-3150.0
 11
4455.0
 21
3150.0
 12
0.0
 22
0.0
 32
0.0
 14
-4455.0
 24
-3150.0
 34
0.0
 15
4455.0
 25
3150.0
 35
0.0
146
0.0
 13
0.0
 23
0.0
 33
0.0
 16
1.0
 26
0.0
 36
0.0
 17
0.0
 27
1.0
 37
0.0
 76
     0
330
1F
331
29
  0
MATERIAL
  5
3D
102
{ACAD_REACTORS
330
3B
102
}
330
3B
100
AcDbMaterial
  1
ByBlock
 72
     1
 94
      127
  0
MATERIAL
  5
3C
102
{ACAD_REACTORS
330
3B
102
}
330
3B
100
AcDbMaterial
  1
ByLayer
 72
     1
 94
      127
  0
MATERIAL
  5
3E
102
{ACAD_REACTORS
330
3B
102
}
330
3B
100
AcDbMaterial
  1
Global
 72
     1
 94
      127
  0
MLINESTYLE
  5
18
102
{ACAD_REACTORS
330
17
102
}
330
17
100
AcDbMlineStyle
  2
Standard
 70
     0
  3

 62
   256
 51
90.0
 52
90.0
 71
     2
 49
0.5
 62
   256
  6
BYLAYER
 49
-0.5
 62
   256
  6
BYLAYER
  0
ACDBPLACEHOLDER
  5
F
102
{ACAD_REACTORS
330
E
102
}
330
E
  0
VISUALSTYLE
  5
2F
102
{ACAD_REACTORS
330
2A
102
}
330
2A
100
AcDbVisualStyle
  2
2dWireframe
 70
     4
177
     2
291
     0
 71
     0
176
     1
 72
     2
176
     1
 73
     0
176
     1
 90
        0
176
     1
 40
-0.6
176
     1
 41
-30.0
176
     1
 62
     5
 63
     7
421
 16777215
176
     1
 74
     1
176
     1
 91
        4
176
     1
 64
     7
176
     1
 65
   257
176
     1
 75
     1
176
     1
175
     1
176
     1
 42
1.0
176
     1
 92
        0
176
     1
 66
   257
176
     1
 43
1.0
176
     1
 76
     1
176
     1
 77
     6
176
     1
 78
     2
176
     1
 67
     7
176
     1
 79
     5
176
     1
170
     0
176
     1
171
     0
176
     1
290
     0
176
     1
 93
        1
176
     1
 44
0.0
176
     1
173
     0
176
     1
  0
VISUALSTYLE
  5
31
102
{ACAD_REACTORS
330
2A
102
}
330
2A
100
AcDbVisualStyle
  2
3D Hidden
 70
     6
177
     2
291
     0
 71
     1
176
     1
 72
     2
176
     1
 73
     2
176
     1
 90
        0
176
     1
 40
-0.6
176
     1
 41
-30.0
176
     1
 62
     5
 63
     7
421
 16777215
176
     1
 74
     2
176
     1
 91
        2
176
     1
 64
     7
176
     1
 65
   257
176
     1
 75
     2
176
     1
175
     1
176
     1
 42
40.0
176
     1
 92
        0
176
     1
 66
   257
176
     1
 43
1.0
176
     1
 76
     1
176
     1
 77
     6
176
     1
 78
     2
176
     1
 67
     7
176
     1
 79
     3
176
     1
170
     0
176
     1
171
     0
176
     1
290
     0
176
     1
 93
        1
176
     1
 44
0.0
176
     1
173
     0
176
     1
  0
VISUALSTYLE
  5
30
102
{ACAD_REACTORS
330
2A
102
}
330
2A
100
AcDbVisualStyle
  2
3dWireframe
 70
     5
177
     2
291
     0
 71
     0
176
     1
 72
     2
176
     1
 73
     0
176
     1
 90
        0
176
     1
 40
-0.6
176
     1
 41
-30.0
176
     1
 62
     5
 63
     7
421
 16777215
176
     1
 74
     1
176
     1
 91
        4
176
     1
 64
     7
176
     1
 65
   257
176
     1
 75
     1
176
     1
175
     1
176
     1
 42
1.0
176
     1
 92
        0
176
     1
 66
   257
176
     1
 43
1.0
176
     1
 76
     1
176
     1
 77
     6
176
     1
 78
     2
176
     1
 67
     7
176
     1
 79
     5
176
     1
170
     0
176
     1
171
     0
176
     1
290
     0
176
     1
 93
        1
176
     1
 44
0.0
176
     1
173
     0
176
     1
  0
VISUALSTYLE
  5
32
102
{ACAD_REACTORS
330
2A
102
}
330
2A
100
AcDbVisualStyle
  2
Basic
 70
     7
177
     2
291
     1
 71
     1
176
     1
 72
     0
176
     1
 73
     1
176
     1
 90
        0
176
     1
 40
-0.6
176
     1
 41
-30.0
176
     1
 62
     5
 63
     7
421
 16777215
176
     1
 74
     0
176
     1
 91
        4
176
     1
 64
     7
176
     1
 65
   257
176
     1
 75
     1
176
     1
175
     1
176
     1
 42
1.0
176
     1
 92
        8
176
     1
 66
     7
176
     1
 43
1.0
176
     1
 76
     1
176
     1
 77
     6
176
     1
 78
     2
176
     1
 67
     7
176
     1
 79
     5
176
     1
170
     0
176
     1
171
     0
176
     1
290
     0
176
     1
 93
        1
176
     1
 44
0.0
176
     1
173
     0
176
     1
  0
VISUALSTYLE
  5
36
102
{ACAD_REACTORS
330
2A
102
}
330
2A
100
AcDbVisualStyle
  2
Brighten
 70
    12
177
     2
291
     1
 71
     2
176
     1
 72
     2
176
     1
 73
     0
176
     1
 90
        0
176
     1
 40
-0.6
176
     1
 41
-30.0
176
     1
 62
     5
 63
     7
421
 16777215
176
     1
 74
     1
176
     1
 91
        4
176
     1
 64
     7
176
     1
 65
   257
176
     1
 75
     1
176
     1
175
     1
176
     1
 42
1.0
176
     1
 92
        8
176
     1
 66
     7
176
     1
 43
1.0
176
     1
 76
     1
176
     1
 77
     6
176
     1
 78
     2
176
     1
 67
     7
176
     1
 79
     5
176
     1
170
     0
176
     1
171
     0
176
     1
290
     0
176
     1
 93
        1
176
     1
 44
50.0
176
     1
173
     0
176
     1
  0
VISUALSTYLE
  5
3A
102
{ACAD_REACTORS
330
2A
102
}
330
2A
100
AcDbVisualStyle
  2
ColorChange
 70
    16
177
     2
291
     1
 71
     2
176
     1
 72
     2
176
     1
 73
     3
176
     1
 90
        0
176
     1
 40
-0.6
176
     1
 41
-30.0
176
     1
 62
     5
 63
     8
421
  8421504
176
     1
 74
     1
176
     1
 91
        4
176
     1
 64
     7
176
     1
 65
   257
176
     1
 75
     1
176
     1
175
     1
176
     1
 42
1.0
176
     1
 92
        8
176
     1
 66
     8
424
  8421504
176
     1
 43
1.0
176
     1
 76
     1
176
     1
 77
     6
176
     1
 78
     2
176
     1
 67
     7
176
     1
 79
     5
176
     1
170
     0
176
     1
171
     0
176
     1
290
     0
176
     1
 93
        1
176
     1
 44
0.0
176
     1
173
     0
176
     1
  0
VISUALSTYLE
  5
34
102
{ACAD_REACTORS
330
2A
102
}
330
2A
100
AcDbVisualStyle
  2
Conceptual
 70
     9
177
     2
291
     0
 71
     3
176
     1
 72
     2
176
     1
 73
     0
176
     1
 90
        0
176
     1
 40
-0.6
176
     1
 41
-30.0
176
     1
 62
     5
 63
     7
421
 16777215
176
     1
 74
     2
176
     1
 91
        2
176
     1
 64
     7
176
     1
 65
   257
176
     1
 75
     1
176
     1
175
     1
176
     1
 42
40.0
176
     1
 92
        8
176
     1
 66
     7
176
     1
 43
1.0
176
     1
 76
     1
176
     1
 77
     6
176
     1
 78
     2
176
     1
 67
     7
176
     1
 79
     3
176
     1
170
     0
176
     1
171
     0
176
     1
290
     0
176
     1
 93
        1
176
     1
 44
0.0
176
     1
173
     0
176
     1
  0
VISUALSTYLE
  5
35
102
{ACAD_REACTORS
330
2A
102
}
330
2A
100
AcDbVisualStyle
  2
Dim
 70
    11
177
     2
291
     1
 71
     2
176
     1
 72
     2
176
     1
 73
     0
176
     1
 90
        0
176
     1
 40
-0.6
176
     1
 41
-30.0
176
     1
 62
     5
 63
     7
421
 16777215
176
     1
 74
     1
176
     1
 91
        4
176
     1
 64
     7
176
     1
 65
   257
176
     1
 75
     1
176
     1
175
     1
176
     1
 42
1.0
176
     1
 92
        8
176
     1
 66
     7
176
     1
 43
1.0
176
     1
 76
     1
176
     1
 77
     6
176
     1
 78
     2
176
     1
 67
     7
176
     1
 79
     5
176
     1
170
     0
176
     1
171
     0
176
     1
290
     0
176
     1
 93
        1
176
     1
 44
-50.0
176
     1
173
     0
176
     1
  0
VISUALSTYLE
  5
39
102
{ACAD_REACTORS
330
2A
102
}
330
2A
100
AcDbVisualStyle
  2
Facepattern
 70
    15
177
     2
291
     1
 71
     2
176
     1
 72
     2
176
     1
 73
     0
176
     1
 90
        0
176
     1
 40
-0.6
176
     1
 41
-30.0
176
     1
 62
     5
 63
     7
421
 16777215
176
     1
 74
     1
176
     1
 91
        4
176
     1
 64
     7
176
     1
 65
   257
176
     1
 75
     1
176
     1
175
     1
176
     1
 42
1.0
176
     1
 92
        8
176
     1
 66
     7
176
     1
 43
1.0
176
     1
 76
     1
176
     1
 77
     6
176
     1
 78
     2
176
     1
 67
     7
176
     1
 79
     5
176
     1
170
     0
176
     1
171
     0
176
     1
290
     0
176
     1
 93
        1
176
     1
 44
0.0
176
     1
173
     0
176
     1
  0
VISUALSTYLE
  5
2B
102
{ACAD_REACTORS
330
2A
102
}
330
2A
100
AcDbVisualStyle
  2
Flat
 70
     0
177
     2
291
     1
 71
     2
176
     1
 72
     1
176
     1
 73
     1
176
     1
 90
        2
176
     1
 40
-0.6
176
     1
 41
30.0
176
     1
 62
     5
 63
     7
421
 16777215
176
     1
 74
     0
176
     1
 91
        4
176
     1
 64
     7
176
     1
 65
   257
176
     1
 75
     1
176
     1
175
     1
176
     1
 42
1.0
176
     1
 92
        8
176
     1
 66
     7
176
     1
 43
1.0
176
     1
 76
     1
176
     1
 77
     6
176
     1
 78
     2
176
     1
 67
     7
176
     1
 79
     5
176
     1
170
     0
176
     1
171
     0
176
     1
290
     0
176
     1
 93
       13
176
     1
 44
0.0
176
     1
173
     0
176
     1
  0
VISUALSTYLE
  5
2C
102
{ACAD_REACTORS
330
2A
102
}
330
2A
100
AcDbVisualStyle
  2
FlatWithEdges
 70
     1
177
     2
291
     1
 71
     2
176
     1
 72
     1
176
     1
 73
     1
176
     1
 90
        2
176
     1
 40
-0.6
176
     1
 41
30.0
176
     1
 62
     5
 63
     7
421
 16777215
176
     1
 74
     1
176
     1
 91
        4
176
     1
 64
     7
176
     1
 65
   257
176
     1
 75
     1
176
     1
175
     1
176
     1
 42
1.0
176
     1
 92
        0
176
     1
 66
   257
176
     1
 43
1.0
176
     1
 76
     1
176
     1
 77
     6
176
     1
 78
     2
176
     1
 67
     7
176
     1
 79
     5
176
     1
170
     0
176
     1
171
     0
176
     1
290
     0
176
     1
 93
       13
176
     1
 44
0.0
176
     1
173
     0
176
     1
  0
VISUALSTYLE
  5
2D
102
{ACAD_REACTORS
330
2A
102
}
330
2A
100
AcDbVisualStyle
  2
Gouraud
 70
     2
177
     2
291
     1
 71
     2
176
     1
 72
     2
176
     1
 73
     1
176
     1
 90
        2
176
     1
 40
-0.6
176
     1
 41
30.0
176
     1
 62
     5
 63
     7
421
 16777215
176
     1
 74
     0
176
     1
 91
        4
176
     1
 64
     7
176
     1
 65
   257
176
     1
 75
     1
176
     1
175
     1
176
     1
 42
1.0
176
     1
 92
        0
176
     1
 66
     7
176
     1
 43
1.0
176
     1
 76
     1
176
     1
 77
     6
176
     1
 78
     2
176
     1
 67
     7
176
     1
 79
     5
176
     1
170
     0
176
     1
171
     0
176
     1
290
     0
176
     1
 93
       13
176
     1
 44
0.0
176
     1
173
     0
176
     1
  0
VISUALSTYLE
  5
2E
102
{ACAD_REACTORS
330
2A
102
}
330
2A
100
AcDbVisualStyle
  2
GouraudWithEdges
 70
     3
177
     2
291
     1
 71
     2
176
     1
 72
     2
176
     1
 73
     1
176
     1
 90
        2
176
     1
 40
-0.6
176
     1
 41
30.0
176
     1
 62
     5
 63
     7
421
 16777215
176
     1
 74
     1
176
     1
 91
        4
176
     1
 64
     7
176
     1
 65
   257
176
     1
 75
     1
176
     1
175
     1
176
     1
 42
1.0
176
     1
 92
        0
176
     1
 66
   257
176
     1
 43
1.0
176
     1
 76
     1
176
     1
 77
     6
176
     1
 78
     2
176
     1
 67
     7
176
     1
 79
     5
176
     1
170
     0
176
     1
171
     0
176
     1
290
     0
176
     1
 93
       13
176
     1
 44
0.0
176
     1
173
     0
176
     1
  0
VISUALSTYLE
  5
38
102
{ACAD_REACTORS
330
2A
102
}
330
2A
100
AcDbVisualStyle
  2
Linepattern
 70
    14
177
     2
291
     1
 71
     2
176
     1
 72
     2
176
     1
 73
     0
176
     1
 90
        0
176
     1
 40
-0.6
176
     1
 41
-30.0
176
     1
 62
     5
 63
     7
421
 16777215
176
     1
 74
     1
176
     1
 91
        4
176
     1
 64
     7
176
     1
 65
   257
176
     1
 75
     7
176
     1
175
     7
176
     1
 42
1.0
176
     1
 92
        8
176
     1
 66
     7
176
     1
 43
1.0
176
     1
 76
     1
176
     1
 77
     6
176
     1
 78
     2
176
     1
 67
     7
176
     1
 79
     5
176
     1
170
     0
176
     1
171
     0
176
     1
290
     0
176
     1
 93
        1
176
     1
 44
0.0
176
     1
173
     0
176
     1
  0
VISUALSTYLE
  5
33
102
{ACAD_REACTORS
330
2A
102
}
330
2A
100
AcDbVisualStyle
  2
Realistic
 70
     8
177
     2
291
     0
 71
     2
176
     1
 72
     2
176
     1
 73
     0
176
     1
 90
        0
176
     1
 40
-0.6
176
     1
 41
-30.0
176
     1
 62
     5
 63
     7
421
 16777215
176
     1
 74
     1
176
     1
 91
        0
176
     1
 64
     7
176
     1
 65
   257
176
     1
 75
     1
176
     1
175
     1
176
     1
 42
1.0
176
     1
 92
        8
176
     1
 66
     8
424
  7895160
176
     1
 43
1.0
176
     1
 76
     1
176
     1
 77
     6
176
     1
 78
     2
176
     1
 67
     7
176
     1
 79
     5
176
     1
170
     0
176
     1
171
     0
176
     1
290
     0
176
     1
 93
       13
176
     1
 44
0.0
176
     1
173
     0
176
     1
  0
VISUALSTYLE
  5
37
102
{ACAD_REACTORS
330
2A
102
}
330
2A
100
AcDbVisualStyle
  2
Thicken
 70
    13
177
     2
291
     1
 71
     2
176
     1
 72
     2
176
     1
 73
     0
176
     1
 90
        0
176
     1
 40
-0.6
176
     1
 41
-30.0
176
     1
 62
     5
 63
     7
421
 16777215
176
     1
 74
     1
176
     1
 91
        4
176
     1
 64
     7
176
     1
 65
   257
176
     1
 75
     1
176
     1
175
     1
176
     1
 42
1.0
176
     1
 92
       12
176
     1
 66
     7
176
     1
 43
1.0
176
     1
 76
     1
176
     1
 77
     6
176
     1
 78
     2
176
     1
 67
     7
176
     1
 79
     5
176
     1
170
     0
176
     1
171
     0
176
     1
290
     0
176
     1
 93
        1
176
     1
 44
0.0
176
     1
173
     0
176
     1
  0
ENDSEC
  0
EOF
