  0
SECTION
  2
HEADER
  9
$ACADVER
  1
AC1024
  9
$ACADMAINTVER
 70
     6
  9
$DWGCODEPAGE
  3
ANSI_932
  9
$INSBASE
 10
0.0
 20
0.0
 30
0.0
  9
$EXTMIN
 10
-4455.0
 20
-3150.0
 30
0.0
  9
$EXTMAX
 10
4455.0
 20
3150.0
 30
0.0
  9
$LIMMIN
 10
-4455.0
 20
-3150.0
  9
$LIMMAX
 10
4455.0
 20
3150.0
  9
$ORTHOMODE
 70
     0
  9
$REGENMODE
 70
     1
  9
$FILLMODE
 70
     1
  9
$QTEXTMODE
 70
     0
  9
$MIRRTEXT
 70
     1
  9
$LTSCALE
 40
30.0
  9
$ATTMODE
 70
     1
  9
$TEXTSIZE
 40
2.5
  9
$TRACEWID
 40
1.0
  9
$TEXTSTYLE
  7
Standard
  9
$CLAYER
  8
0
  9
$CELTYPE
  6
ByLayer
  9
$CECOLOR
 62
   256
  9
$CELTSCALE
 40
1.0
  9
$DISPSILH
 70
     0
  9
$DIMSCALE
 40
1.0
  9
$DIMASZ
 40
2.5
  9
$DIMEXO
 40
0.625
  9
$DIMDLI
 40
3.75
  9
$DIMRND
 40
0.0
  9
$DIMDLE
 40
0.0
  9
$DIMEXE
 40
1.25
  9
$DIMTP
 40
0.0
  9
$DIMTM
 40
0.0
  9
$DIMTXT
 40
2.5
  9
$DIMCEN
 40
2.5
  9
$DIMTSZ
 40
0.0
  9
$DIMTOL
 70
     0
  9
$DIMLIM
 70
     0
  9
$DIMTIH
 70
     0
  9
$DIMTOH
 70
     0
  9
$DIMSE1
 70
     0
  9
$DIMSE2
 70
     0
  9
$DIMTAD
 70
     1
  9
$DIMZIN
 70
     8
  9
$DIMBLK
  1

  9
$DIMASO
 70
     1
  9
$DIMSHO
 70
     1
  9
$DIMPOST
  1

  9
$DIMAPOST
  1

  9
$DIMALT
 70
     0
  9
$DIMALTD
 70
     3
  9
$DIMALTF
 40
0.03937007874016
  9
$DIMLFAC
 40
1.0
  9
$DIMTOFL
 70
     1
  9
$DIMTVP
 40
0.0
  9
$DIMTIX
 70
     0
  9
$DIMSOXD
 70
     0
  9
$DIMSAH
 70
     0
  9
$DIMBLK1
  1

  9
$DIMBLK2
  1

  9
$DIMSTYLE
  2
ISO-25
  9
$DIMCLRD
 70
     0
  9
$DIMCLRE
 70
     0
  9
$DIMCLRT
 70
     0
  9
$DIMTFAC
 40
1.0
  9
$DIMGAP
 40
0.625
  9
$DIMJUST
 70
     0
  9
$DIMSD1
 70
     0
  9
$DIMSD2
 70
     0
  9
$DIMTOLJ
 70
     0
  9
$DIMTZIN
 70
     8
  9
$DIMALTZ
 70
     0
  9
$DIMALTTZ
 70
     0
  9
$DIMUPT
 70
     0
  9
$DIMDEC
 70
     2
  9
$DIMTDEC
 70
     2
  9
$DIMALTU
 70
     2
  9
$DIMALTTD
 70
     3
  9
$DIMTXSTY
  7
Standard
  9
$DIMAUNIT
 70
     0
  9
$DIMADEC
 70
     0
  9
$DIMALTRND
 40
0.0
  9
$DIMAZIN
 70
     0
  9
$DIMDSEP
 70
    44
  9
$DIMATFIT
 70
     3
  9
$DIMFRAC
 70
     0
  9
$DIMLDRBLK
  1

  9
$DIMLUNIT
 70
     2
  9
$DIMLWD
 70
    -2
  9
$DIMLWE
 70
    -2
  9
$DIMTMOVE
 70
     0
  9
$DIMFXL
 40
1.0
  9
$DIMFXLON
 70
     0
  9
$DIMJOGANG
 40
0.7853981633974483
  9
$DIMTFILL
 70
     0
  9
$DIMTFILLCLR
 70
     0
  9
$DIMARCSYM
 70
     0
  9
$DIMLTYPE
  6

  9
$DIMLTEX1
  6

  9
$DIMLTEX2
  6

  9
$DIMTXTDIRECTION
 70
     0
  9
$LUNITS
 70
     2
  9
$LUPREC
 70
     4
  9
$SKETCHINC
 40
1.0
  9
$FILLETRAD
 40
10.0
  9
$AUNITS
 70
     0
  9
$AUPREC
 70
     0
  9
$MENU
  1
.
  9
$ELEVATION
 40
0.0
  9
$PELEVATION
 40
0.0
  9
$THICKNESS
 40
0.0
  9
$LIMCHECK
 70
     0
  9
$CHAMFERA
 40
10.0
  9
$CHAMFERB
 40
10.0
  9
$CHAMFERC
 40
20.0
  9
$CHAMFERD
 40
0.0
  9
$SKPOLY
 70
     0
  9
$TDCREATE
 40
2457953.401015312
  9
$TDUCREATE
 40
2457953.026015312
  9
$TDUPDATE
 40
2457953.401015324
  9
$TDUUPDATE
 40
2457953.026015324
  9
$TDINDWG
 40
0.0000000116
  9
$TDUSRTIMER
 40
0.0000000116
  9
$USRTIMER
 70
     1
  9
$ANGBASE
 50
0.0
  9
$ANGDIR
 70
     0
  9
$PDMODE
 70
     0
  9
$PDSIZE
 40
0.0
  9
$PLINEWID
 40
0.0
  9
$SPLFRAME
 70
     0
  9
$SPLINETYPE
 70
     6
  9
$SPLINESEGS
 70
     8
  9
$HANDSEED
  5
345
  9
$SURFTAB1
 70
     6
  9
$SURFTAB2
 70
     6
  9
$SURFTYPE
 70
     6
  9
$SURFU
 70
     6
  9
$SURFV
 70
     6
  9
$UCSBASE
  2

  9
$UCSNAME
  2

  9
$UCSORG
 10
0.0
 20
0.0
 30
0.0
  9
$UCSXDIR
 10
1.0
 20
0.0
 30
0.0
  9
$UCSYDIR
 10
0.0
 20
1.0
 30
0.0
  9
$UCSORTHOREF
  2

  9
$UCSORTHOVIEW
 70
     0
  9
$UCSORGTOP
 10
0.0
 20
0.0
 30
0.0
  9
$UCSORGBOTTOM
 10
0.0
 20
0.0
 30
0.0
  9
$UCSORGLEFT
 10
0.0
 20
0.0
 30
0.0
  9
$UCSORGRIGHT
 10
0.0
 20
0.0
 30
0.0
  9
$UCSORGFRONT
 10
0.0
 20
0.0
 30
0.0
  9
$UCSORGBACK
 10
0.0
 20
0.0
 30
0.0
  9
$PUCSBASE
  2

  9
$PUCSNAME
  2

  9
$PUCSORG
 10
0.0
 20
0.0
 30
0.0
  9
$PUCSXDIR
 10
1.0
 20
0.0
 30
0.0
  9
$PUCSYDIR
 10
0.0
 20
1.0
 30
0.0
  9
$PUCSORTHOREF
  2

  9
$PUCSORTHOVIEW
 70
     0
  9
$PUCSORGTOP
 10
0.0
 20
0.0
 30
0.0
  9
$PUCSORGBOTTOM
 10
0.0
 20
0.0
 30
0.0
  9
$PUCSORGLEFT
 10
0.0
 20
0.0
 30
0.0
  9
$PUCSORGRIGHT
 10
0.0
 20
0.0
 30
0.0
  9
$PUCSORGFRONT
 10
0.0
 20
0.0
 30
0.0
  9
$PUCSORGBACK
 10
0.0
 20
0.0
 30
0.0
  9
$USERI1
 70
     0
  9
$USERI2
 70
     0
  9
$USERI3
 70
     0
  9
$USERI4
 70
     0
  9
$USERI5
 70
     0
  9
$USERR1
 40
0.0
  9
$USERR2
 40
0.0
  9
$USERR3
 40
0.0
  9
$USERR4
 40
0.0
  9
$USERR5
 40
0.0
  9
$WORLDVIEW
 70
     1
  9
$SHADEDGE
 70
     3
  9
$SHADEDIF
 70
    70
  9
$TILEMODE
 70
     1
  9
$MAXACTVP
 70
    64
  9
$PINSBASE
 10
0.0
 20
0.0
 30
0.0
  9
$PLIMCHECK
 70
     0
  9
$PEXTMIN
 10
1.000000000000000E+20
 20
1.000000000000000E+20
 30
1.000000000000000E+20
  9
$PEXTMAX
 10
-1.000000000000000E+20
 20
-1.000000000000000E+20
 30
-1.000000000000000E+20
  9
$PLIMMIN
 10
0.0
 20
0.0
  9
$PLIMMAX
 10
420.0
 20
297.0
  9
$UNITMODE
 70
     0
  9
$VISRETAIN
 70
     1
  9
$PLINEGEN
 70
     0
  9
$PSLTSCALE
 70
     1
  9
$TREEDEPTH
 70
  3020
  9
$CMLSTYLE
  2
Standard
  9
$CMLJUST
 70
     0
  9
$CMLSCALE
 40
20.0
  9
$PROXYGRAPHICS
 70
     1
  9
$MEASUREMENT
 70
     1
  9
$CELWEIGHT
370
    -1
  9
$ENDCAPS
280
     0
  9
$JOINSTYLE
280
     0
  9
$LWDISPLAY
290
     0
  9
$INSUNITS
 70
     4
  9
$HYPERLINKBASE
  1

  9
$STYLESHEET
  1

  9
$XEDIT
290
     1
  9
$CEPSNTYPE
380
     0
  9
$PSTYLEMODE
290
     1
  9
$FINGERPRINTGUID
  2
{6A3DB26E-64DA-44C4-AC3B-AB4F48B51695}
  9
$VERSIONGUID
  2
{FAEB1C32-E019-11D5-929B-00C0DF256EC4}
  9
$EXTNAMES
290
     1
  9
$PSVPSCALE
 40
0.0
  9
$OLESTARTUP
290
     0
  9
$SORTENTS
280
   127
  9
$INDEXCTL
280
     0
  9
$HIDETEXT
280
     1
  9
$XCLIPFRAME
280
     2
  9
$HALOGAP
280
     0
  9
$OBSCOLOR
 70
   257
  9
$OBSLTYPE
280
     0
  9
$INTERSECTIONDISPLAY
280
     0
  9
$INTERSECTIONCOLOR
 70
   257
  9
$DIMASSOC
280
     2
  9
$PROJECTNAME
  1

  9
$CAMERADISPLAY
290
     0
  9
$LENSLENGTH
 40
50.0
  9
$CAMERAHEIGHT
 40
0.0
  9
$STEPSPERSEC
 40
2.0
  9
$STEPSIZE
 40
6.0
  9
$3DDWFPREC
 40
2.0
  9
$PSOLWIDTH
 40
5.0
  9
$PSOLHEIGHT
 40
80.0
  9
$LOFTANG1
 40
1.570796326794897
  9
$LOFTANG2
 40
1.570796326794897
  9
$LOFTMAG1
 40
0.0
  9
$LOFTMAG2
 40
0.0
  9
$LOFTPARAM
 70
     7
  9
$LOFTNORMALS
280
     1
  9
$LATITUDE
 40
37.795
  9
$LONGITUDE
 40
-122.394
  9
$NORTHDIRECTION
 40
0.0
  9
$TIMEZONE
 70
 -8000
  9
$LIGHTGLYPHDISPLAY
280
     1
  9
$TILEMODELIGHTSYNCH
280
     1
  9
$SOLIDHIST
280
     1
  9
$SHOWHIST
280
     1
  9
$DWFFRAME
280
     2
  9
$DGNFRAME
280
     2
  9
$REALWORLDSCALE
290
     1
  9
$INTERFERECOLOR
 62
   256
  9
$CSHADOW
280
     0
  9
$SHADOWPLANELOCATION
 40
0.0
  0
ENDSEC
  0
SECTION
  2
CLASSES
  0
CLASS
  1
ACDBDICTIONARYWDFLT
  2
AcDbDictionaryWithDefault
  3
ObjectDBX Classes
 90
        0
 91
        4
280
     0
281
     0
  0
CLASS
  1
VISUALSTYLE
  2
AcDbVisualStyle
  3
ObjectDBX Classes
 90
     4095
 91
        4
280
     0
281
     0
  0
CLASS
  1
MATERIAL
  2
AcDbMaterial
  3
ObjectDBX Classes
 90
     1153
 91
        4
280
     0
281
     0
  0
ENDSEC
  0
SECTION
  2
TABLES
  0
TABLE
  2
VPORT
  5
8
330
0
100
AcDbSymbolTable
 70
     1
  0
VPORT
  5
29
330
8
100
AcDbSymbolTableRecord
100
AcDbViewportTableRecord
  2
*Active
 70
     0
 10
0.0
 20
0.0
 11
1.0
 21
1.0
 12
0.0
 22
0.0
 13
0.0
 23
0.0
 14
10.0
 24
10.0
 15
10.0
 25
10.0
 16
0.0
 26
0.0
 36
1.0
 17
0.0
 27
0.0
 37
0.0
 40
6930.000000000001
 41
1.414285714285714
 42
50.0
 43
0.0
 44
0.0
 50
0.0
 51
0.0
 71
     0
 72
 10000
 73
     1
 74
     3
 75
     0
 76
     0
 77
     0
 78
     0
281
     0
 65
     1
110
0.0
120
0.0
130
0.0
111
1.0
121
0.0
131
0.0
112
0.0
122
1.0
132
0.0
 79
     0
146
0.0
 60
     3
 61
     5
292
     1
282
     1
141
0.0
142
0.0
 63
   250
  0
ENDTAB
  0
TABLE
  2
LTYPE
  5
5
330
0
100
AcDbSymbolTable
 70
     2
  0
LTYPE
  5
14
330
5
100
AcDbSymbolTableRecord
100
AcDbLinetypeTableRecord
  2
ByBlock
 70
     0
  3

 72
    65
 73
     0
 40
0.0
  0
LTYPE
  5
15
330
5
100
AcDbSymbolTableRecord
100
AcDbLinetypeTableRecord
  2
ByLayer
 70
     0
  3

 72
    65
 73
     0
 40
0.0
  0
LTYPE
  5
16
330
5
100
AcDbSymbolTableRecord
100
AcDbLinetypeTableRecord
  2
Continuous
 70
     0
  3
Solid line
 72
    65
 73
     0
 40
0.0
  0
LTYPE
  5
3F
330
5
100
AcDbSymbolTableRecord
100
AcDbLinetypeTableRecord
  2
JWW_DASHED1
 70
     0
  3
-  --  --  --  --  --  --  --  -
 72
    65
 73
     2
 40
1.693333333333333
 49
0.8466666666666667
 74
     0
 49
-0.8466666666666667
 74
     0
  0
ENDTAB
  0
TABLE
  2
LAYER
  5
2
330
0
100
AcDbSymbolTable
 70
     4
  0
LAYER
  5
10
330
2
100
AcDbSymbolTableRecord
100
AcDbLayerTableRecord
  2
0
 70
     0
 62
     7
  6
Continuous
370
    -3
390
F
347
3E
  0
LAYER
  5
40
330
2
100
AcDbSymbolTableRecord
100
AcDbLayerTableRecord
  2
0-0
 70
     0
 62
     7
  6
Continuous
370
    -3
390
F
347
3E
  0
LAYER
  5
41
330
2
100
AcDbSymbolTableRecord
100
AcDbLayerTableRecord
  2
文字
 70
     0
 62
     7
  6
Continuous
370
    -3
390
F
347
3E
  0
LAYER
  5
42
330
2
100
AcDbSymbolTableRecord
100
AcDbLayerTableRecord
  2
寸法
 70
     0
 62
     7
  6
Continuous
370
    -3
390
F
347
3E
  0
ENDTAB
  0
TABLE
  2
STYLE
  5
3
330
0
100
AcDbSymbolTable
 70
     1
  0
STYLE
  5
11
330
3
100
AcDbSymbolTableRecord
100
AcDbTextStyleTableRecord
  2
Standard
 70
     0
 40
0.0
 41
1.0
 50
0.0
 71
     0
 42
2.5
  3
txt
  4

  0
ENDTAB
  0
TABLE
  2
VIEW
  5
6
330
0
100
AcDbSymbolTable
 70
     0
  0
ENDTAB
  0
TABLE
  2
UCS
  5
7
330
0
100
AcDbSymbolTable
 70
     0
  0
ENDTAB
  0
TABLE
  2
APPID
  5
9
330
0
100
AcDbSymbolTable
 70
     1
  0
APPID
  5
12
330
9
100
AcDbSymbolTableRecord
100
AcDbRegAppTableRecord
  2
ACAD
 70
     0
  0
ENDTAB
  0
TABLE
  2
DIMSTYLE
  5
A
330
0
100
AcDbSymbolTable
 70
     1
100
AcDbDimStyleTable
  0
DIMSTYLE
105
27
330
A
100
AcDbSymbolTableRecord
100
AcDbDimStyleTableRecord
  2
ISO-25
 70
     0
 41
2.5
 42
0.625
 43
3.75
 44
1.25
 73
     0
 74
     0
 77
     1
 78
     8
140
2.5
141
2.5
143
0.03937007874016
147
0.625
171
     3
172
     1
178
     0
271
     2
272
     2
274
     3
278
    44
283
     0
284
     8
340
11
  0
ENDTAB
  0
TABLE
  2
BLOCK_RECORD
  5
1
330
0
100
AcDbSymbolTable
 70
     1
  0
BLOCK_RECORD
  5
1F
330
1
100
AcDbSymbolTableRecord
100
AcDbBlockTableRecord
  2
*Model_Space
340
22
 70
     0
280
     1
281
     0
  0
BLOCK_RECORD
  5
1B
330
1
100
AcDbSymbolTableRecord
100
AcDbBlockTableRecord
  2
*Paper_Space
340
1E
 70
     0
280
     1
281
     0
  0
BLOCK_RECORD
  5
23
330
1
100
AcDbSymbolTableRecord
100
AcDbBlockTableRecord
  2
*Paper_Space0
340
26
 70
     0
280
     1
281
     0
  0
ENDTAB
  0
ENDSEC
  0
SECTION
  2
BLOCKS
  0
BLOCK
  5
20
330
1F
100
AcDbEntity
  8
0
100
AcDbBlockBegin
  2
*Model_Space
 70
     0
 10
0.0
 20
0.0
 30
0.0
  3
*Model_Space
  1

  0
ENDBLK
  5
21
330
1F
100
AcDbEntity
  8
0
100
AcDbBlockEnd
  0
BLOCK
  5
1C
330
1B
100
AcDbEntity
 67
     1
  8
0
100
AcDbBlockBegin
  2
*Paper_Space
 70
     0
 10
0.0
 20
0.0
 30
0.0
  3
*Paper_Space
  1

  0
ENDBLK
  5
1D
330
1B
100
AcDbEntity
 67
     1
  8
0
100
AcDbBlockEnd
  0
BLOCK
  5
24
330
23
100
AcDbEntity
  8
0
100
AcDbBlockBegin
  2
*Paper_Space0
 70
     0
 10
0.0
 20
0.0
 30
0.0
  3
*Paper_Space0
  1

  0
ENDBLK
  5
25
330
23
100
AcDbEntity
  8
0
100
AcDbBlockEnd
  0
ENDSEC
  0
SECTION
  2
ENTITIES
  0
LINE
  5
43
330
1F
100
AcDbEntity
  8
0-0
  6
Continuous
 62
    92
370
    13
100
AcDbLine
 10
-1141.482374760415
 20
706.4599690309253
 30
0.0
 11
1225.517625239585
 21
706.4599690309253
 31
0.0
  0
LINE
  5
44
330
1F
100
AcDbEntity
  8
0-0
  6
Continuous
 62
    92
370
    13
100
AcDbLine
 10
-1171.482374760415
 20
-1296.540030969075
 30
0.0
 11
-1171.482374760415
 21
750.4599690309245
 31
0.0
  0
LINE
  5
45
330
1F
100
AcDbEntity
  8
0-0
  6
Continuous
 62
    92
370
    13
100
AcDbLine
 10
2035.517625239585
 20
750.4599690309245
 30
0.0
 11
2035.517625239585
 21
-1296.540030969075
 31
0.0
  0
LINE
  5
46
330
1F
100
AcDbEntity
  8
0-0
  6
JWW_DASHED1
 62
   120
370
     5
100
AcDbLine
 10
1195.517625239585
 20
-1281.540030969075
 30
0.0
 11
1195.517625239585
 21
714.4599690309249
 31
0.0
  0
LINE
  5
47
330
1F
100
AcDbEntity
  8
0-0
  6
JWW_DASHED1
 62
   120
370
     5
100
AcDbLine
 10
1225.517625239585
 20
-1281.540030969075
 30
0.0
 11
1225.517625239585
 21
714.4599690309249
 31
0.0
  0
LINE
  5
48
330
1F
100
AcDbEntity
  8
0-0
  6
Continuous
 62
    92
370
    13
100
AcDbLine
 10
-1141.482374760415
 20
-1296.540030969075
 30
0.0
 11
-1141.482374760415
 21
750.4599690309245
 31
0.0
  0
LINE
  5
49
330
1F
100
AcDbEntity
  8
0-0
  6
Continuous
 62
    92
370
    13
100
AcDbLine
 10
2005.517625239585
 20
-1296.540030969075
 30
0.0
 11
2005.517625239585
 21
750.4599690309245
 31
0.0
  0
LINE
  5
4A
330
1F
100
AcDbEntity
  8
0-0
  6
Continuous
 62
    92
370
    13
100
AcDbLine
 10
-1141.482374760415
 20
714.4599690309249
 30
0.0
 11
2005.517625239585
 21
714.4599690309249
 31
0.0
  0
LINE
  5
4B
330
1F
100
AcDbEntity
  8
0-0
  6
Continuous
 62
    92
370
    13
100
AcDbLine
 10
-1171.482374760415
 20
750.4599690309245
 30
0.0
 11
2035.517625239585
 21
750.4599690309245
 31
0.0
  0
LINE
  5
4C
330
1F
100
AcDbEntity
  8
0-0
  6
Continuous
 62
    92
370
    13
100
AcDbLine
 10
2035.517625239585
 20
-1296.540030969075
 30
0.0
 11
-1171.482374760415
 21
-1296.540030969075
 31
0.0
  0
LINE
  5
4D
330
1F
100
AcDbEntity
  8
0-0
  6
Continuous
 62
    92
370
    13
100
AcDbLine
 10
2005.517625239585
 20
-1281.540030969075
 30
0.0
 11
-1141.482374760415
 21
-1281.540030969075
 31
0.0
  0
ARC
  5
4E
330
1F
100
AcDbEntity
  8
0-0
  6
Continuous
 62
    92
370
    13
100
AcDbCircle
 10
-1112.982374760414
 20
-259.5400309690748
 30
0.0
 40
1.5
100
AcDbArc
 50
90.0
 51
180.0
  0
LINE
  5
4F
330
1F
100
AcDbEntity
  8
0-0
  6
Continuous
 62
    92
370
    13
100
AcDbLine
 10
-1073.982374760415
 20
-258.0400309690748
 30
0.0
 11
-1112.982374760414
 21
-258.0400309690748
 31
0.0
  0
ARC
  5
50
330
1F
100
AcDbEntity
  8
0-0
  6
Continuous
 62
    92
370
    13
100
AcDbCircle
 10
-1073.982374760415
 20
-259.5400309690748
 30
0.0
 40
1.5
100
AcDbArc
 50
0.0
 51
90.00000000000001
  0
LINE
  5
51
330
1F
100
AcDbEntity
  8
0-0
  6
Continuous
 62
    92
370
    13
100
AcDbLine
 10
-1072.482374760415
 20
-378.5400309690752
 30
0.0
 11
-1072.482374760415
 21
-259.5400309690748
 31
0.0
  0
ARC
  5
52
330
1F
100
AcDbEntity
  8
0-0
  6
Continuous
 62
    92
370
    13
100
AcDbCircle
 10
-1073.982374760415
 20
-378.5400309690752
 30
0.0
 40
1.5
100
AcDbArc
 50
270.0
 51
0.0
  0
LINE
  5
53
330
1F
100
AcDbEntity
  8
0-0
  6
Continuous
 62
    92
370
    13
100
AcDbLine
 10
-1112.982374760414
 20
-380.0400309690747
 30
0.0
 11
-1073.982374760415
 21
-380.0400309690747
 31
0.0
  0
LINE
  5
54
330
1F
100
AcDbEntity
  8
0-0
  6
Continuous
 62
    92
370
    13
100
AcDbLine
 10
-1114.482374760414
 20
-378.5400309690752
 30
0.0
 11
-1114.482374760414
 21
-259.5400309690748
 31
0.0
  0
ARC
  5
55
330
1F
100
AcDbEntity
  8
0-0
  6
Continuous
 62
    92
370
    13
100
AcDbCircle
 10
-1112.982374760414
 20
-378.5400309690752
 30
0.0
 40
1.5
100
AcDbArc
 50
180.0
 51
270.0
  0
ARC
  5
56
330
1F
100
AcDbEntity
  8
0-0
  6
Continuous
 62
     7
370
     9
100
AcDbCircle
 10
-1093.482374760414
 20
-348.6400309690752
 30
0.0
 40
15.0
100
AcDbArc
 50
180.0
 51
0.0
  0
ARC
  5
57
330
1F
100
AcDbEntity
  8
0-0
  6
Continuous
 62
     7
370
     9
100
AcDbCircle
 10
-1093.482374760414
 20
-289.4400309690749
 30
0.0
 40
15.0
100
AcDbArc
 50
0.0
 51
180.0
  0
LINE
  5
58
330
1F
100
AcDbEntity
  8
0-0
  6
Continuous
 62
     7
370
     9
100
AcDbLine
 10
-1078.482374760414
 20
-348.6400309690752
 30
0.0
 11
-1078.482374760414
 21
-289.4400309690749
 31
0.0
  0
LINE
  5
59
330
1F
100
AcDbEntity
  8
0-0
  6
Continuous
 62
     7
370
     9
100
AcDbLine
 10
-1108.482374760414
 20
-289.4400309690749
 30
0.0
 11
-1108.482374760414
 21
-348.6400309690752
 31
0.0
  0
ARC
  5
5A
330
1F
100
AcDbEntity
  8
0-0
  6
Continuous
 62
    92
370
    13
100
AcDbCircle
 10
-332.9823747604137
 20
-259.5400309690748
 30
0.0
 40
1.5
100
AcDbArc
 50
90.0
 51
180.0
  0
LINE
  5
5B
330
1F
100
AcDbEntity
  8
0-0
  6
Continuous
 62
    92
370
    13
100
AcDbLine
 10
-293.9823747604151
 20
-258.0400309690748
 30
0.0
 11
-332.9823747604137
 21
-258.0400309690748
 31
0.0
  0
ARC
  5
5C
330
1F
100
AcDbEntity
  8
0-0
  6
Continuous
 62
    92
370
    13
100
AcDbCircle
 10
-293.9823747604151
 20
-259.5400309690748
 30
0.0
 40
1.5
100
AcDbArc
 50
0.0
 51
90.00000000000001
  0
LINE
  5
5D
330
1F
100
AcDbEntity
  8
0-0
  6
Continuous
 62
    92
370
    13
100
AcDbLine
 10
-292.4823747604131
 20
-378.5400309690752
 30
0.0
 11
-292.4823747604131
 21
-259.5400309690748
 31
0.0
  0
ARC
  5
5E
330
1F
100
AcDbEntity
  8
0-0
  6
Continuous
 62
    92
370
    13
100
AcDbCircle
 10
-293.9823747604151
 20
-378.5400309690752
 30
0.0
 40
1.5
100
AcDbArc
 50
270.0
 51
0.0
  0
LINE
  5
5F
330
1F
100
AcDbEntity
  8
0-0
  6
Continuous
 62
    92
370
    13
100
AcDbLine
 10
-332.9823747604137
 20
-380.0400309690747
 30
0.0
 11
-293.9823747604151
 21
-380.0400309690747
 31
0.0
  0
LINE
  5
60
330
1F
100
AcDbEntity
  8
0-0
  6
Continuous
 62
    92
370
    13
100
AcDbLine
 10
-334.4823747604141
 20
-378.5400309690752
 30
0.0
 11
-334.4823747604141
 21
-259.5400309690748
 31
0.0
  0
ARC
  5
61
330
1F
100
AcDbEntity
  8
0-0
  6
Continuous
 62
    92
370
    13
100
AcDbCircle
 10
-332.9823747604137
 20
-378.5400309690752
 30
0.0
 40
1.5
100
AcDbArc
 50
180.0
 51
270.0
  0
ARC
  5
62
330
1F
100
AcDbEntity
  8
0-0
  6
Continuous
 62
     7
370
     9
100
AcDbCircle
 10
-313.4823747604144
 20
-348.6400309690752
 30
0.0
 40
15.0
100
AcDbArc
 50
180.0
 51
0.0
  0
ARC
  5
63
330
1F
100
AcDbEntity
  8
0-0
  6
Continuous
 62
     7
370
     9
100
AcDbCircle
 10
-313.4823747604144
 20
-289.4400309690749
 30
0.0
 40
15.0
100
AcDbArc
 50
0.0
 51
180.0
  0
LINE
  5
64
330
1F
100
AcDbEntity
  8
0-0
  6
Continuous
 62
     7
370
     9
100
AcDbLine
 10
-298.4823747604144
 20
-348.6400309690752
 30
0.0
 11
-298.4823747604144
 21
-289.4400309690749
 31
0.0
  0
LINE
  5
65
330
1F
100
AcDbEntity
  8
0-0
  6
Continuous
 62
     7
370
     9
100
AcDbLine
 10
-328.4823747604144
 20
-289.4400309690749
 30
0.0
 11
-328.4823747604144
 21
-348.6400309690752
 31
0.0
  0
ARC
  5
66
330
1F
100
AcDbEntity
  8
0-0
  6
Continuous
 62
    92
370
    13
100
AcDbCircle
 10
447.0176252395863
 20
-259.5400309690748
 30
0.0
 40
1.5
100
AcDbArc
 50
90.0
 51
180.0
  0
LINE
  5
67
330
1F
100
AcDbEntity
  8
0-0
  6
Continuous
 62
    92
370
    13
100
AcDbLine
 10
486.0176252395849
 20
-258.0400309690748
 30
0.0
 11
447.0176252395863
 21
-258.0400309690748
 31
0.0
  0
ARC
  5
68
330
1F
100
AcDbEntity
  8
0-0
  6
Continuous
 62
    92
370
    13
100
AcDbCircle
 10
486.0176252395849
 20
-259.5400309690748
 30
0.0
 40
1.5
100
AcDbArc
 50
0.0
 51
90.00000000000001
  0
LINE
  5
69
330
1F
100
AcDbEntity
  8
0-0
  6
Continuous
 62
    92
370
    13
100
AcDbLine
 10
487.5176252395869
 20
-378.5400309690752
 30
0.0
 11
487.5176252395869
 21
-259.5400309690748
 31
0.0
  0
ARC
  5
6A
330
1F
100
AcDbEntity
  8
0-0
  6
Continuous
 62
    92
370
    13
100
AcDbCircle
 10
486.0176252395849
 20
-378.5400309690752
 30
0.0
 40
1.5
100
AcDbArc
 50
270.0
 51
0.0
  0
LINE
  5
6B
330
1F
100
AcDbEntity
  8
0-0
  6
Continuous
 62
    92
370
    13
100
AcDbLine
 10
447.0176252395863
 20
-380.0400309690747
 30
0.0
 11
486.0176252395849
 21
-380.0400309690747
 31
0.0
  0
LINE
  5
6C
330
1F
100
AcDbEntity
  8
0-0
  6
Continuous
 62
    92
370
    13
100
AcDbLine
 10
445.5176252395859
 20
-378.5400309690752
 30
0.0
 11
445.5176252395859
 21
-259.5400309690748
 31
0.0
  0
ARC
  5
6D
330
1F
100
AcDbEntity
  8
0-0
  6
Continuous
 62
    92
370
    13
100
AcDbCircle
 10
447.0176252395863
 20
-378.5400309690752
 30
0.0
 40
1.5
100
AcDbArc
 50
180.0
 51
270.0
  0
ARC
  5
6E
330
1F
100
AcDbEntity
  8
0-0
  6
Continuous
 62
     7
370
     9
100
AcDbCircle
 10
466.5176252395856
 20
-348.6400309690752
 30
0.0
 40
15.0
100
AcDbArc
 50
180.0
 51
0.0
  0
ARC
  5
6F
330
1F
100
AcDbEntity
  8
0-0
  6
Continuous
 62
     7
370
     9
100
AcDbCircle
 10
466.5176252395856
 20
-289.4400309690749
 30
0.0
 40
15.0
100
AcDbArc
 50
0.0
 51
180.0
  0
LINE
  5
70
330
1F
100
AcDbEntity
  8
0-0
  6
Continuous
 62
     7
370
     9
100
AcDbLine
 10
481.5176252395856
 20
-348.6400309690752
 30
0.0
 11
481.5176252395856
 21
-289.4400309690749
 31
0.0
  0
LINE
  5
71
330
1F
100
AcDbEntity
  8
0-0
  6
Continuous
 62
     7
370
     9
100
AcDbLine
 10
451.5176252395856
 20
-289.4400309690749
 30
0.0
 11
451.5176252395856
 21
-348.6400309690752
 31
0.0
  0
LINE
  5
72
330
1F
100
AcDbEntity
  8
0-0
  6
JWW_DASHED1
 62
   120
370
     5
100
AcDbLine
 10
-1141.482374760415
 20
-1276.540030969074
 30
0.0
 11
-1144.482374760416
 21
-1276.540030969074
 31
0.0
  0
LINE
  5
73
330
1F
100
AcDbEntity
  8
0-0
  6
JWW_DASHED1
 62
   120
370
     5
100
AcDbLine
 10
-1144.482374760416
 20
-1276.540030969074
 30
0.0
 11
-1144.482374760416
 21
706.4599690309253
 31
0.0
  0
LINE
  5
74
330
1F
100
AcDbEntity
  8
0-0
  6
JWW_DASHED1
 62
   120
370
     5
100
AcDbLine
 10
-1144.482374760416
 20
706.4599690309253
 30
0.0
 11
-1141.482374760415
 21
706.4599690309253
 31
0.0
  0
LINE
  5
75
330
1F
100
AcDbEntity
  8
0-0
  6
JWW_DASHED1
 62
   120
370
     5
100
AcDbLine
 10
-334.4823747604149
 20
-1276.540030969074
 30
0.0
 11
-334.4823747604149
 21
706.4599690309253
 31
0.0
  0
LINE
  5
76
330
1F
100
AcDbEntity
  8
0-0
  6
Continuous
 62
    92
370
    13
100
AcDbLine
 10
-364.4823747604149
 20
706.4599690309253
 30
0.0
 11
-364.4823747604149
 21
-1276.540030969074
 31
0.0
  0
LINE
  5
77
330
1F
100
AcDbEntity
  8
0-0
  6
Continuous
 62
    92
370
    13
100
AcDbLine
 10
-1141.482374760415
 20
-1276.540030969074
 30
0.0
 11
1225.517625239585
 21
-1276.540030969074
 31
0.0
  0
LINE
  5
78
330
1F
100
AcDbEntity
  8
0-0
  6
JWW_DASHED1
 62
   120
370
     5
100
AcDbLine
 10
445.5176252395851
 20
-1276.540030969074
 30
0.0
 11
445.5176252395851
 21
706.4599690309253
 31
0.0
  0
LINE
  5
79
330
1F
100
AcDbEntity
  8
0-0
  6
Continuous
 62
    92
370
    13
100
AcDbLine
 10
415.5176252395851
 20
706.4599690309253
 30
0.0
 11
415.5176252395851
 21
-1276.540030969074
 31
0.0
  0
LINE
  5
7A
330
1F
100
AcDbEntity
  8
0-0
  6
Continuous
 62
    92
370
    13
100
AcDbLine
 10
1225.517625239585
 20
706.4599690309253
 30
0.0
 11
1225.517625239585
 21
-1276.540030969074
 31
0.0
  0
LINE
  5
7B
330
1F
100
AcDbEntity
  8
0-0
  6
Continuous
 62
    92
370
    13
100
AcDbLine
 10
-1034.482374760417
 20
-1126.540030969075
 30
0.0
 11
-444.4823747604146
 21
-1126.540030969075
 31
0.0
  0
LINE
  5
7C
330
1F
100
AcDbEntity
  8
0-0
  6
Continuous
 62
    92
370
    13
100
AcDbLine
 10
-254.4823747604169
 20
-1126.540030969075
 30
0.0
 11
335.5176252395854
 21
-1126.540030969075
 31
0.0
  0
LINE
  5
7D
330
1F
100
AcDbEntity
  8
0-0
  6
Continuous
 62
    92
370
    13
100
AcDbLine
 10
525.5176252395831
 20
-1126.540030969075
 30
0.0
 11
1115.517625239585
 21
-1126.540030969075
 31
0.0
  0
LINE
  5
7E
330
1F
100
AcDbEntity
  8
0-0
  6
Continuous
 62
    92
370
    13
100
AcDbLine
 10
-1034.482374760417
 20
571.4599690309242
 30
0.0
 11
-444.4823747604146
 21
571.4599690309242
 31
0.0
  0
LINE
  5
7F
330
1F
100
AcDbEntity
  8
0-0
  6
Continuous
 62
    92
370
    13
100
AcDbLine
 10
-254.4823747604169
 20
571.4599690309242
 30
0.0
 11
335.5176252395854
 21
571.4599690309242
 31
0.0
  0
LINE
  5
80
330
1F
100
AcDbEntity
  8
0-0
  6
Continuous
 62
    92
370
    13
100
AcDbLine
 10
525.5176252395831
 20
571.4599690309242
 30
0.0
 11
1115.517625239585
 21
571.4599690309242
 31
0.0
  0
LINE
  5
81
330
1F
100
AcDbEntity
  8
0-0
  6
Continuous
 62
    92
370
    13
100
AcDbLine
 10
-1034.482374760417
 20
-403.540030969076
 30
0.0
 11
-444.4823747604146
 21
-403.540030969076
 31
0.0
  0
LINE
  5
82
330
1F
100
AcDbEntity
  8
0-0
  6
JWW_DASHED1
 62
   120
370
     5
100
AcDbLine
 10
-448.9381531419888
 20
-403.5400309690598
 30
0.0
 11
-444.4823747604317
 21
-399.0842525875013
 31
0.0
  0
LINE
  5
83
330
1F
100
AcDbEntity
  8
0-0
  6
JWW_DASHED1
 62
   120
370
     5
100
AcDbLine
 10
-456.0092209538657
 20
-403.5400309690704
 30
0.0
 11
-444.4823747604215
 21
-392.0131847756249
 31
0.0
  0
LINE
  5
84
330
1F
100
AcDbEntity
  8
0-0
  6
JWW_DASHED1
 62
   120
370
     5
100
AcDbLine
 10
-463.0802887657273
 20
-403.5400309690644
 30
0.0
 11
-444.4823747604266
 21
-384.9421169637637
 31
0.0
  0
LINE
  5
85
330
1F
100
AcDbEntity
  8
0-0
  6
JWW_DASHED1
 62
   120
370
     5
100
AcDbLine
 10
-470.1513565775888
 20
-403.5400309690589
 30
0.0
 11
-444.4823747604317
 21
-377.871049151903
 31
0.0
  0
LINE
  5
86
330
1F
100
AcDbEntity
  8
0-0
  6
JWW_DASHED1
 62
   120
370
     5
100
AcDbLine
 10
-477.2224243894657
 20
-403.5400309690692
 30
0.0
 11
-444.4823747604215
 21
-370.7999813400266
 31
0.0
  0
LINE
  5
87
330
1F
100
AcDbEntity
  8
0-0
  6
JWW_DASHED1
 62
   120
370
     5
100
AcDbLine
 10
-484.2934922013256
 20
-403.5400309690632
 30
0.0
 11
-444.4823747604283
 21
-363.728913528165
 31
0.0
  0
LINE
  5
88
330
1F
100
AcDbEntity
  8
0-0
  6
JWW_DASHED1
 62
   120
370
     5
100
AcDbLine
 10
-491.3645600132025
 20
-403.5400309690721
 30
0.0
 11
-444.4823747604181
 21
-356.6578457162894
 31
0.0
  0
LINE
  5
89
330
1F
100
AcDbEntity
  8
0-0
  6
JWW_DASHED1
 62
   120
370
     5
100
AcDbLine
 10
-498.435627825064
 20
-403.5400309690675
 30
0.0
 11
-444.4823747604249
 21
-349.5867779044287
 31
0.0
  0
LINE
  5
8A
330
1F
100
AcDbEntity
  8
0-0
  6
JWW_DASHED1
 62
   120
370
     5
100
AcDbLine
 10
-505.5066956369239
 20
-403.5400309690615
 30
0.0
 11
-444.4823747604283
 21
-342.5157100925667
 31
0.0
  0
LINE
  5
8B
330
1F
100
AcDbEntity
  8
0-0
  6
JWW_DASHED1
 62
   120
370
     5
100
AcDbLine
 10
-512.577763448799
 20
-403.54003096907
 30
0.0
 11
-444.4823747604215
 21
-335.4446422806911
 31
0.0
  0
LINE
  5
8C
330
1F
100
AcDbEntity
  8
0-0
  6
JWW_DASHED1
 62
   120
370
     5
100
AcDbLine
 10
-519.6488312606623
 20
-403.5400309690662
 30
0.0
 11
-444.4823747604266
 21
-328.3735744688304
 31
0.0
  0
LINE
  5
8D
330
1F
100
AcDbEntity
  8
0-0
  6
JWW_DASHED1
 62
   120
370
     5
100
AcDbLine
 10
-526.7198990725392
 20
-403.540030969076
 30
0.0
 11
-444.4823747604163
 21
-321.3025066569539
 31
0.0
  0
LINE
  5
8E
330
1F
100
AcDbEntity
  8
0-0
  6
JWW_DASHED1
 62
   120
370
     5
100
AcDbLine
 10
-533.7909668843973
 20
-403.5400309690683
 30
0.0
 11
-444.4823747604215
 21
-314.2314388450932
 31
0.0
  0
LINE
  5
8F
330
1F
100
AcDbEntity
  8
0-0
  6
JWW_DASHED1
 62
   120
370
     5
100
AcDbLine
 10
-540.8620346962606
 20
-403.5400309690649
 30
0.0
 11
-444.4823747604283
 21
-307.1603710332321
 31
0.0
  0
LINE
  5
90
330
1F
100
AcDbEntity
  8
0-0
  6
JWW_DASHED1
 62
   120
370
     5
100
AcDbLine
 10
-547.9331025081375
 20
-403.5400309690751
 30
0.0
 11
-444.4823747604181
 21
-300.0893032213556
 31
0.0
  0
LINE
  5
91
330
1F
100
AcDbEntity
  8
0-0
  6
JWW_DASHED1
 62
   120
370
     5
100
AcDbLine
 10
-555.0041703199956
 20
-403.5400309690666
 30
0.0
 11
-444.4823747604215
 21
-293.0182354094932
 31
0.0
  0
LINE
  5
92
330
1F
100
AcDbEntity
  8
0-0
  6
JWW_DASHED1
 62
   120
370
     5
100
AcDbLine
 10
-562.0752381318146
 20
-403.5400309690721
 30
0.0
 11
-444.4823747604181
 21
-285.9471675976773
 31
0.0
  0
LINE
  5
93
330
1F
100
AcDbEntity
  8
0-0
  6
JWW_DASHED1
 62
   120
370
     5
100
AcDbLine
 10
-569.1463059436778
 20
-403.5400309690696
 30
0.0
 11
-444.4823747604249
 21
-278.8760997858166
 31
0.0
  0
LINE
  5
94
330
1F
100
AcDbEntity
  8
0-0
  6
JWW_DASHED1
 62
   120
370
     5
100
AcDbLine
 10
-576.2173737555377
 20
-403.5400309690636
 30
0.0
 11
-444.4823747604283
 21
-271.8050319739533
 31
0.0
  0
LINE
  5
95
330
1F
100
AcDbEntity
  8
0-0
  6
JWW_DASHED1
 62
   120
370
     5
100
AcDbLine
 10
-583.2884415674112
 20
-403.54003096907
 30
0.0
 11
-444.4823747604215
 21
-264.733964162079
 31
0.0
  0
LINE
  5
96
330
1F
100
AcDbEntity
  8
0-0
  6
JWW_DASHED1
 62
   120
370
     5
100
AcDbLine
 10
-590.3595093792761
 20
-403.5400309690683
 30
0.0
 11
-444.4823747604266
 21
-257.6628963502183
 31
0.0
  0
LINE
  5
97
330
1F
100
AcDbEntity
  8
0-0
  6
JWW_DASHED1
 62
   120
370
     5
100
AcDbLine
 10
-597.430577191153
 20
-403.5400309690781
 30
0.0
 11
-444.4823747604163
 21
-250.5918285383418
 31
0.0
  0
LINE
  5
98
330
1F
100
AcDbEntity
  8
0-0
  6
JWW_DASHED1
 62
   120
370
     5
100
AcDbLine
 10
-604.5016450030095
 20
-403.5400309690683
 30
0.0
 11
-444.4823747604215
 21
-243.5207607264811
 31
0.0
  0
LINE
  5
99
330
1F
100
AcDbEntity
  8
0-0
  6
JWW_DASHED1
 62
   120
370
     5
100
AcDbLine
 10
-611.5727128148744
 20
-403.5400309690666
 30
0.0
 11
-444.4823747604283
 21
-236.44969291462
 31
0.0
  0
LINE
  5
9A
330
1F
100
AcDbEntity
  8
0-0
  6
JWW_DASHED1
 62
   120
370
     5
100
AcDbLine
 10
-618.6437806267513
 20
-403.5400309690768
 30
0.0
 11
-444.4823747604181
 21
-229.3786251027435
 31
0.0
  0
LINE
  5
9B
330
1F
100
AcDbEntity
  8
0-0
  6
JWW_DASHED1
 62
   120
370
     5
100
AcDbLine
 10
-625.7148484386078
 20
-403.5400309690666
 30
0.0
 11
-444.4823747604215
 21
-222.3075572908798
 31
0.0
  0
LINE
  5
9C
330
1F
100
AcDbEntity
  8
0-0
  6
JWW_DASHED1
 62
   120
370
     5
100
AcDbLine
 10
-632.7859162504744
 20
-403.5400309690658
 30
0.0
 11
-444.48237476043
 21
-215.2364894790221
 31
0.0
  0
LINE
  5
9D
330
1F
100
AcDbEntity
  8
0-0
  6
JWW_DASHED1
 62
   120
370
     5
100
AcDbLine
 10
-639.8569840623496
 20
-403.5400309690751
 30
0.0
 11
-444.4823747604198
 21
-208.1654216671452
 31
0.0
  0
LINE
  5
9E
330
1F
100
AcDbEntity
  8
0-0
  6
JWW_DASHED1
 62
   120
370
     5
100
AcDbLine
 10
-646.9280518742112
 20
-403.54003096907
 30
0.0
 11
-444.4823747604232
 21
-201.0943538552815
 31
0.0
  0
LINE
  5
9F
330
1F
100
AcDbEntity
  8
0-0
  6
JWW_DASHED1
 62
   120
370
     5
100
AcDbLine
 10
-653.9991196860727
 20
-403.5400309690644
 30
0.0
 11
-444.4823747604317
 21
-194.0232860434238
 31
0.0
  0
LINE
  5
A0
330
1F
100
AcDbEntity
  8
0-0
  6
JWW_DASHED1
 62
   120
370
     5
100
AcDbLine
 10
-661.0701874979479
 20
-403.5400309690743
 30
0.0
 11
-444.4823747604215
 21
-186.9522182315473
 31
0.0
  0
LINE
  5
A1
330
1F
100
AcDbEntity
  8
0-0
  6
JWW_DASHED1
 62
   120
370
     5
100
AcDbLine
 10
-668.1412553098095
 20
-403.5400309690683
 30
0.0
 11
-444.4823747604249
 21
-179.8811504196828
 31
0.0
  0
LINE
  5
A2
330
1F
100
AcDbEntity
  8
0-0
  6
JWW_DASHED1
 62
   120
370
     5
100
AcDbLine
 10
-675.212323121671
 20
-403.5400309690632
 30
0.0
 11
-444.4823747604351
 21
-172.8100826078259
 31
0.0
  0
LINE
  5
A3
330
1F
100
AcDbEntity
  8
0-0
  6
JWW_DASHED1
 62
   120
370
     5
100
AcDbLine
 10
-682.2833909335479
 20
-403.5400309690726
 30
0.0
 11
-444.4823747604249
 21
-165.739014795949
 31
0.0
  0
LINE
  5
A4
330
1F
100
AcDbEntity
  8
0-0
  6
JWW_DASHED1
 62
   120
370
     5
100
AcDbLine
 10
-689.3544587454078
 20
-403.5400309690675
 30
0.0
 11
-444.4823747604249
 21
-158.6679469840845
 31
0.0
  0
LINE
  5
A5
330
1F
100
AcDbEntity
  8
0-0
  6
JWW_DASHED1
 62
   120
370
     5
100
AcDbLine
 10
-696.4255265572779
 20
-403.5400309690709
 30
0.0
 11
-444.4823747604198
 21
-151.5968791722119
 31
0.0
  0
LINE
  5
A6
330
1F
100
AcDbEntity
  8
0-0
  6
JWW_DASHED1
 62
   120
370
     5
100
AcDbLine
 10
-703.4965943691462
 20
-403.5400309690717
 30
0.0
 11
-444.4823747604249
 21
-144.5258113603512
 31
0.0
  0
LINE
  5
A7
330
1F
100
AcDbEntity
  8
0-0
  6
JWW_DASHED1
 62
   120
370
     5
100
AcDbLine
 10
-717.6387299928779
 20
-403.5400309690687
 30
0.0
 11
-444.4823747604215
 21
-130.3836757366136
 31
0.0
  0
LINE
  5
A8
330
1F
100
AcDbEntity
  8
0-0
  6
JWW_DASHED1
 62
   120
370
     5
100
AcDbLine
 10
-724.7097978047445
 20
-403.5400309690704
 30
0.0
 11
-444.4823747604283
 21
-123.3126079247528
 31
0.0
  0
LINE
  5
A9
330
1F
100
AcDbEntity
  8
0-0
  6
JWW_DASHED1
 62
   120
370
     5
100
AcDbLine
 10
-731.7808656166214
 20
-403.5400309690802
 30
0.0
 11
-444.4823747604181
 21
-116.2415401128759
 31
0.0
  0
LINE
  5
AA
330
1F
100
AcDbEntity
  8
0-0
  6
JWW_DASHED1
 62
   120
370
     5
100
AcDbLine
 10
-738.8519334284745
 20
-403.540030969067
 30
0.0
 11
-444.4823747604232
 21
-109.1704723010157
 31
0.0
  0
LINE
  5
AB
330
1F
100
AcDbEntity
  8
0-0
  6
JWW_DASHED1
 62
   120
370
     5
100
AcDbLine
 10
-745.9230012403445
 20
-403.5400309690692
 30
0.0
 11
-444.48237476043
 21
-102.099404489155
 31
0.0
  0
LINE
  5
AC
330
1F
100
AcDbEntity
  8
0-0
  6
JWW_DASHED1
 62
   120
370
     5
100
AcDbLine
 10
-752.9940690522214
 20
-403.5400309690794
 30
0.0
 11
-444.4823747604198
 21
-95.02833667727849
 31
0.0
  0
LINE
  5
AD
330
1F
100
AcDbEntity
  8
0-0
  6
JWW_DASHED1
 62
   120
370
     5
100
AcDbLine
 10
-760.0651368640728
 20
-403.5400309690649
 30
0.0
 11
-444.4823747604215
 21
-87.95726886541225
 31
0.0
  0
LINE
  5
AE
330
1F
100
AcDbEntity
  8
0-0
  6
JWW_DASHED1
 62
   120
370
     5
100
AcDbLine
 10
-767.1362046759428
 20
-403.5400309690679
 30
0.0
 11
-444.4823747604317
 21
-80.88620105355666
 31
0.0
  0
LINE
  5
AF
330
1F
100
AcDbEntity
  8
0-0
  6
JWW_DASHED1
 62
   120
370
     5
100
AcDbLine
 10
-774.2072724878196
 20
-403.5400309690781
 30
0.0
 11
-444.4823747604215
 21
-73.81513324168019
 31
0.0
  0
LINE
  5
B0
330
1F
100
AcDbEntity
  8
0-0
  6
JWW_DASHED1
 62
   120
370
     5
100
AcDbLine
 10
-781.2783402996812
 20
-403.5400309690721
 30
0.0
 11
-444.4823747604215
 21
-66.74406542981394
 31
0.0
  0
LINE
  5
B1
330
1F
100
AcDbEntity
  8
0-0
  6
JWW_DASHED1
 62
   120
370
     5
100
AcDbLine
 10
-788.349408111541
 20
-403.5400309690666
 30
0.0
 11
-444.4823747604334
 21
-59.67299761795879
 31
0.0
  0
LINE
  5
B2
330
1F
100
AcDbEntity
  8
0-0
  6
JWW_DASHED1
 62
   120
370
     5
100
AcDbLine
 10
-795.4204759234179
 20
-403.5400309690768
 30
0.0
 11
-444.4823747604232
 21
-52.60192980608188
 31
0.0
  0
LINE
  5
B3
330
1F
100
AcDbEntity
  8
0-0
  6
JWW_DASHED1
 62
   120
370
     5
100
AcDbLine
 10
-802.4915437352488
 20
-403.5400309690683
 30
0.0
 11
-444.4823747604249
 21
-45.53086199424506
 31
0.0
  0
LINE
  5
B4
330
1F
100
AcDbEntity
  8
0-0
  6
JWW_DASHED1
 62
   120
370
     5
100
AcDbLine
 10
-809.5626115470865
 20
-403.540030969067
 30
0.0
 11
-444.4823747604232
 21
-38.45979418240354
 31
0.0
  0
LINE
  5
B5
330
1F
100
AcDbEntity
  8
0-0
  6
JWW_DASHED1
 62
   120
370
     5
100
AcDbLine
 10
-816.6336793589566
 20
-403.5400309690709
 30
0.0
 11
-444.48237476043
 21
-31.38872637054284
 31
0.0
  0
LINE
  5
B6
330
1F
100
AcDbEntity
  8
0-0
  6
JWW_DASHED1
 62
   120
370
     5
100
AcDbLine
 10
-823.7047471708335
 20
-403.5400309690811
 30
0.0
 11
-444.4823747604198
 21
-24.31765855866637
 31
0.0
  0
LINE
  5
B7
330
1F
100
AcDbEntity
  8
0-0
  6
JWW_DASHED1
 62
   120
370
     5
100
AcDbLine
 10
-830.7758149826848
 20
-403.5400309690649
 30
0.0
 11
-444.4823747604181
 21
-17.24659074679884
 31
0.0
  0
LINE
  5
B8
330
1F
100
AcDbEntity
  8
0-0
  6
JWW_DASHED1
 62
   120
370
     5
100
AcDbLine
 10
-837.8468827945566
 20
-403.5400309690692
 30
0.0
 11
-444.4823747604317
 21
-10.17552293494454
 31
0.0
  0
LINE
  5
B9
330
1F
100
AcDbEntity
  8
0-0
  6
JWW_DASHED1
 62
   120
370
     5
100
AcDbLine
 10
-844.9179506064335
 20
-403.5400309690794
 30
0.0
 11
-444.4823747604215
 21
-3.104455123068064
 31
0.0
  0
LINE
  5
BA
330
1F
100
AcDbEntity
  8
0-0
  6
JWW_DASHED1
 62
   120
370
     5
100
AcDbLine
 10
-851.9890184182933
 20
-403.5400309690743
 30
0.0
 11
-444.4823747604215
 21
3.966612688799458
 31
0.0
  0
LINE
  5
BB
330
1F
100
AcDbEntity
  8
0-0
  6
JWW_DASHED1
 62
   120
370
     5
100
AcDbLine
 10
-859.0600862301549
 20
-403.5400309690683
 30
0.0
 11
-444.4823747604334
 21
11.03768050065334
 31
0.0
  0
LINE
  5
BC
330
1F
100
AcDbEntity
  8
0-0
  6
JWW_DASHED1
 62
   120
370
     5
100
AcDbLine
 10
-866.1311540420318
 20
-403.5400309690785
 30
0.0
 11
-444.4823747604232
 21
18.10874831253024
 31
0.0
  0
LINE
  5
BD
330
1F
100
AcDbEntity
  8
0-0
  6
JWW_DASHED1
 62
   120
370
     5
100
AcDbLine
 10
-873.2022218538933
 20
-403.5400309690726
 30
0.0
 11
-444.4823747604215
 21
25.17981612439776
 31
0.0
  0
LINE
  5
BE
330
1F
100
AcDbEntity
  8
0-0
  6
JWW_DASHED1
 62
   120
370
     5
100
AcDbLine
 10
-880.2732896657532
 20
-403.540030969067
 30
0.0
 11
-444.4823747604351
 21
32.25088393625164
 31
0.0
  0
LINE
  5
BF
330
1F
100
AcDbEntity
  8
0-0
  6
JWW_DASHED1
 62
   120
370
     5
100
AcDbLine
 10
-887.3443574776301
 20
-403.5400309690772
 30
0.0
 11
-444.4823747604249
 21
39.32195174812811
 31
0.0
  0
LINE
  5
C0
330
1F
100
AcDbEntity
  8
0-0
  6
JWW_DASHED1
 62
   120
370
     5
100
AcDbLine
 10
-894.4154252894916
 20
-403.5400309690713
 30
0.0
 11
-444.4823747604249
 21
46.39301955999606
 31
0.0
  0
LINE
  5
C1
330
1F
100
AcDbEntity
  8
0-0
  6
JWW_DASHED1
 62
   120
370
     5
100
AcDbLine
 10
-901.4864931013566
 20
-403.5400309690692
 30
0.0
 11
-444.4823747604215
 21
53.46408737186572
 31
0.0
  0
LINE
  5
C2
330
1F
100
AcDbEntity
  8
0-0
  6
JWW_DASHED1
 62
   120
370
     5
100
AcDbLine
 10
-908.5575609132301
 20
-403.540030969076
 30
0.0
 11
-444.4823747604283
 21
60.53515518372642
 31
0.0
  0
LINE
  5
C3
330
1F
100
AcDbEntity
  8
0-0
  6
JWW_DASHED1
 62
   120
370
     5
100
AcDbLine
 10
-915.628628725107
 20
-403.5400309690858
 30
0.0
 11
-444.4823747604181
 21
67.60622299560289
 31
0.0
  0
LINE
  5
C4
330
1F
100
AcDbEntity
  8
0-0
  6
JWW_DASHED1
 62
   120
370
     5
100
AcDbLine
 10
-922.6996965369532
 20
-403.5400309690675
 30
0.0
 11
-444.4823747604232
 21
74.67729080746402
 31
0.0
  0
LINE
  5
C5
330
1F
100
AcDbEntity
  8
0-0
  6
JWW_DASHED1
 62
   120
370
     5
100
AcDbLine
 10
-929.7707643488284
 20
-403.5400309690747
 30
0.0
 11
-444.4823747604283
 21
81.74835861932472
 31
0.0
  0
LINE
  5
C6
330
1F
100
AcDbEntity
  8
0-0
  6
JWW_DASHED1
 62
   120
370
     5
100
AcDbLine
 10
-936.8418321607036
 20
-403.5400309690845
 30
0.0
 11
-444.4823747604181
 21
88.8194264312012
 31
0.0
  0
LINE
  5
C7
330
1F
100
AcDbEntity
  8
0-0
  6
JWW_DASHED1
 62
   120
370
     5
100
AcDbLine
 10
-943.9128999725532
 20
-403.5400309690658
 30
0.0
 11
-444.4823747604249
 21
95.8904942430619
 31
0.0
  0
LINE
  5
C8
330
1F
100
AcDbEntity
  8
0-0
  6
JWW_DASHED1
 62
   120
370
     5
100
AcDbLine
 10
-950.9839677844267
 20
-403.5400309690734
 30
0.0
 11
-444.4823747604317
 21
102.9615620549226
 31
0.0
  0
LINE
  5
C9
330
1F
100
AcDbEntity
  8
0-0
  6
JWW_DASHED1
 62
   120
370
     5
100
AcDbLine
 10
-958.0550355963036
 20
-403.5400309690828
 30
0.0
 11
-444.4823747604215
 21
110.0326298667995
 31
0.0
  0
LINE
  5
CA
330
1F
100
AcDbEntity
  8
0-0
  6
JWW_DASHED1
 62
   120
370
     5
100
AcDbLine
 10
-965.1261034081499
 20
-403.5400309690636
 30
0.0
 11
-444.4823747604181
 21
117.1036976786687
 31
0.0
  0
LINE
  5
CB
330
1F
100
AcDbEntity
  8
0-0
  6
JWW_DASHED1
 62
   120
370
     5
100
AcDbLine
 10
-972.1971712200268
 20
-403.5400309690721
 30
0.0
 11
-444.4823747604317
 21
124.1747654905209
 31
0.0
  0
LINE
  5
CC
330
1F
100
AcDbEntity
  8
0-0
  6
JWW_DASHED1
 62
   120
370
     5
100
AcDbLine
 10
-979.268239031902
 20
-403.540030969082
 30
0.0
 11
-444.4823747604232
 21
131.2458333023974
 31
0.0
  0
LINE
  5
CD
330
1F
100
AcDbEntity
  8
0-0
  6
JWW_DASHED1
 62
   120
370
     5
100
AcDbLine
 10
-986.3393068437636
 20
-403.540030969076
 30
0.0
 11
-444.4823747604198
 21
138.316901114267
 31
0.0
  0
LINE
  5
CE
330
1F
100
AcDbEntity
  8
0-0
  6
JWW_DASHED1
 62
   120
370
     5
100
AcDbLine
 10
-993.4103746556234
 20
-403.5400309690709
 30
0.0
 11
-444.4823747604351
 21
145.3879689261192
 31
0.0
  0
LINE
  5
CF
330
1F
100
AcDbEntity
  8
0-0
  6
JWW_DASHED1
 62
   120
370
     5
100
AcDbLine
 10
-1000.4814424675
 20
-403.5400309690806
 30
0.0
 11
-444.4823747604249
 21
152.4590367379952
 31
0.0
  0
LINE
  5
D0
330
1F
100
AcDbEntity
  8
0-0
  6
JWW_DASHED1
 62
   120
370
     5
100
AcDbLine
 10
-1007.552510279362
 20
-403.5400309690751
 30
0.0
 11
-444.4823747604215
 21
159.5301045498653
 31
0.0
  0
LINE
  5
D1
330
1F
100
AcDbEntity
  8
0-0
  6
JWW_DASHED1
 62
   120
370
     5
100
AcDbLine
 10
-1014.623578091223
 20
-403.54003096907
 30
0.0
 11
-444.4823747604215
 21
166.6011723617328
 31
0.0
  0
LINE
  5
D2
330
1F
100
AcDbEntity
  8
0-0
  6
JWW_DASHED1
 62
   120
370
     5
100
AcDbLine
 10
-1021.6946459031
 20
-403.5400309690794
 30
0.0
 11
-444.4823747604266
 21
173.6722401735935
 31
0.0
  0
LINE
  5
D3
330
1F
100
AcDbEntity
  8
0-0
  6
JWW_DASHED1
 62
   120
370
     5
100
AcDbLine
 10
-1028.76571371496
 20
-403.5400309690738
 30
0.0
 11
-444.4823747604232
 21
180.7433079854636
 31
0.0
  0
LINE
  5
D4
330
1F
100
AcDbEntity
  8
0-0
  6
JWW_DASHED1
 62
   120
370
     5
100
AcDbLine
 10
-1034.482374760424
 20
-402.1856242026703
 30
0.0
 11
-444.4823747604215
 21
187.8143757973311
 31
0.0
  0
LINE
  5
D5
330
1F
100
AcDbEntity
  8
0-0
  6
JWW_DASHED1
 62
   120
370
     5
100
AcDbLine
 10
-1034.482374760413
 20
-395.1145563907942
 30
0.0
 11
-444.4823747604283
 21
194.8854436091918
 31
0.0
  0
LINE
  5
D6
330
1F
100
AcDbEntity
  8
0-0
  6
JWW_DASHED1
 62
   120
370
     5
100
AcDbLine
 10
-1034.482374760408
 20
-388.0434885789762
 30
0.0
 11
-444.4823747604232
 21
201.9565114210095
 31
0.0
  0
LINE
  5
D7
330
1F
100
AcDbEntity
  8
0-0
  6
JWW_DASHED1
 62
   120
370
     5
100
AcDbLine
 10
-1034.482374760413
 20
-380.9724207671155
 30
0.0
 11
-444.4823747604181
 21
209.0275792328804
 31
0.0
  0
LINE
  5
D8
330
1F
100
AcDbEntity
  8
0-0
  6
JWW_DASHED1
 62
   120
370
     5
100
AcDbLine
 10
-1034.48237476042
 20
-373.9013529552548
 30
0.0
 11
-444.4823747604351
 21
216.0986470447309
 31
0.0
  0
LINE
  5
D9
330
1F
100
AcDbEntity
  8
0-0
  6
JWW_DASHED1
 62
   120
370
     5
100
AcDbLine
 10
-1034.48237476041
 20
-366.8302851433779
 30
0.0
 11
-444.4823747604249
 21
223.1697148566078
 31
0.0
  0
LINE
  5
DA
330
1F
100
AcDbEntity
  8
0-0
  6
JWW_DASHED1
 62
   120
370
     5
100
AcDbLine
 10
-1034.482374760417
 20
-359.7592173315167
 30
0.0
 11
-444.4823747604198
 21
230.2407826684787
 31
0.0
  0
LINE
  5
DB
330
1F
100
AcDbEntity
  8
0-0
  6
JWW_DASHED1
 62
   120
370
     5
100
AcDbLine
 10
-1034.482374760422
 20
-352.6881495196565
 30
0.0
 11
-444.4823747604215
 21
237.311850480345
 31
0.0
  0
LINE
  5
DC
330
1F
100
AcDbEntity
  8
0-0
  6
JWW_DASHED1
 62
   120
370
     5
100
AcDbLine
 10
-1034.482374760412
 20
-345.6170817077796
 30
0.0
 11
-444.4823747604266
 21
244.3829182922057
 31
0.0
  0
LINE
  5
DD
330
1F
100
AcDbEntity
  8
0-0
  6
JWW_DASHED1
 62
   120
370
     5
100
AcDbLine
 10
-1034.482374760417
 20
-338.546013895918
 30
0.0
 11
-444.4823747604215
 21
251.453986104077
 31
0.0
  0
LINE
  5
DE
330
1F
100
AcDbEntity
  8
0-0
  6
JWW_DASHED1
 62
   120
370
     5
100
AcDbLine
 10
-1034.482374760424
 20
-331.4749460840582
 30
0.0
 11
-444.4823747604215
 21
258.5250539159433
 31
0.0
  0
LINE
  5
DF
330
1F
100
AcDbEntity
  8
0-0
  6
JWW_DASHED1
 62
   120
370
     5
100
AcDbLine
 10
-1034.482374760413
 20
-324.4038782721817
 30
0.0
 11
-444.4823747604283
 21
265.596121727804
 31
0.0
  0
LINE
  5
E0
330
1F
100
AcDbEntity
  8
0-0
  6
JWW_DASHED1
 62
   120
370
     5
100
AcDbLine
 10
-1034.482374760403
 20
-317.3328104603052
 30
0.0
 11
-444.4823747604181
 21
272.6671895396805
 31
0.0
  0
LINE
  5
E1
330
1F
100
AcDbEntity
  8
0-0
  6
JWW_DASHED1
 62
   120
370
     5
100
AcDbLine
 10
-1034.482374760426
 20
-310.2617426484599
 30
0.0
 11
-444.4823747604249
 21
279.7382573515412
 31
0.0
  0
LINE
  5
E2
330
1F
100
AcDbEntity
  8
0-0
  6
JWW_DASHED1
 62
   120
370
     5
100
AcDbLine
 10
-1034.482374760417
 20
-303.1906748365838
 30
0.0
 11
-444.48237476043
 21
286.8093251634023
 31
0.0
  0
LINE
  5
E3
330
1F
100
AcDbEntity
  8
0-0
  6
JWW_DASHED1
 62
   120
370
     5
100
AcDbLine
 10
-1034.482374760407
 20
-296.1196070247069
 30
0.0
 11
-444.4823747604215
 21
293.8803929752788
 31
0.0
  0
LINE
  5
E4
330
1F
100
AcDbEntity
  8
0-0
  6
JWW_DASHED1
 62
   120
370
     5
100
AcDbLine
 10
-1034.482374760426
 20
-289.0485392128599
 30
0.0
 11
-444.4823747604146
 21
300.9514607871509
 31
0.0
  0
LINE
  5
E5
330
1F
100
AcDbEntity
  8
0-0
  6
JWW_DASHED1
 62
   120
370
     5
100
AcDbLine
 10
-1034.482374760419
 20
-281.9774714009855
 30
0.0
 11
-444.4823747604317
 21
308.0225285990002
 31
0.0
  0
LINE
  5
E6
330
1F
100
AcDbEntity
  8
0-0
  6
JWW_DASHED1
 62
   120
370
     5
100
AcDbLine
 10
-1034.482374760408
 20
-274.906403589109
 30
0.0
 11
-444.4823747604215
 21
315.0935964108766
 31
0.0
  0
LINE
  5
E7
330
1F
100
AcDbEntity
  8
0-0
  6
JWW_DASHED1
 62
   120
370
     5
100
AcDbLine
 10
-1034.482374760412
 20
-267.8353357772462
 30
0.0
 11
-444.4823747604163
 21
322.1646642227493
 31
0.0
  0
LINE
  5
E8
330
1F
100
AcDbEntity
  8
0-0
  6
JWW_DASHED1
 62
   120
370
     5
100
AcDbLine
 10
-1034.48237476042
 20
-260.7642679653872
 30
0.0
 11
-444.4823747604351
 21
329.2357320345985
 31
0.0
  0
LINE
  5
E9
330
1F
100
AcDbEntity
  8
0-0
  6
JWW_DASHED1
 62
   120
370
     5
100
AcDbLine
 10
-1034.48237476041
 20
-253.6932001535112
 30
0.0
 11
-444.4823747604249
 21
336.3067998464749
 31
0.0
  0
LINE
  5
EA
330
1F
100
AcDbEntity
  8
0-0
  6
JWW_DASHED1
 62
   120
370
     5
100
AcDbLine
 10
-1034.482374760413
 20
-246.6221323416474
 30
0.0
 11
-444.4823747604181
 21
343.377867658348
 31
0.0
  0
LINE
  5
EB
330
1F
100
AcDbEntity
  8
0-0
  6
JWW_DASHED1
 62
   120
370
     5
100
AcDbLine
 10
-1034.482374760422
 20
-239.5510645297893
 30
0.0
 11
-444.4823747604351
 21
350.4489354701963
 31
0.0
  0
LINE
  5
EC
330
1F
100
AcDbEntity
  8
0-0
  6
JWW_DASHED1
 62
   120
370
     5
100
AcDbLine
 10
-1034.482374760412
 20
-232.4799967179129
 30
0.0
 11
-444.4823747604249
 21
357.5200032820732
 31
0.0
  0
LINE
  5
ED
330
1F
100
AcDbEntity
  8
0-0
  6
JWW_DASHED1
 62
   120
370
     5
100
AcDbLine
 10
-1034.482374760415
 20
-225.4089289060487
 30
0.0
 11
-444.4823747604198
 21
364.5910710939463
 31
0.0
  0
LINE
  5
EE
330
1F
100
AcDbEntity
  8
0-0
  6
JWW_DASHED1
 62
   120
370
     5
100
AcDbLine
 10
-1034.482374760424
 20
-218.3378610941915
 30
0.0
 11
-444.4823747604215
 21
371.6621389058104
 31
0.0
  0
LINE
  5
EF
330
1F
100
AcDbEntity
  8
0-0
  6
JWW_DASHED1
 62
   120
370
     5
100
AcDbLine
 10
-1034.482374760413
 20
-211.2667932823146
 30
0.0
 11
-444.4823747604283
 21
378.7332067176711
 31
0.0
  0
LINE
  5
F0
330
1F
100
AcDbEntity
  8
0-0
  6
JWW_DASHED1
 62
   120
370
     5
100
AcDbLine
 10
-1034.482374760417
 20
-204.1957254704504
 30
0.0
 11
-444.4823747604215
 21
385.804274529545
 31
0.0
  0
LINE
  5
F1
330
1F
100
AcDbEntity
  8
0-0
  6
JWW_DASHED1
 62
   120
370
     5
100
AcDbLine
 10
-1034.482374760426
 20
-197.1246576585932
 30
0.0
 11
-444.4823747604249
 21
392.8753423414083
 31
0.0
  0
LINE
  5
F2
330
1F
100
AcDbEntity
  8
0-0
  6
JWW_DASHED1
 62
   120
370
     5
100
AcDbLine
 10
-1034.482374760415
 20
-190.0535898467162
 30
0.0
 11
-444.48237476043
 21
399.9464101532694
 31
0.0
  0
LINE
  5
F3
330
1F
100
AcDbEntity
  8
0-0
  6
JWW_DASHED1
 62
   120
370
     5
100
AcDbLine
 10
-1034.482374760407
 20
-182.9825220348397
 30
0.0
 11
-444.4823747604198
 21
407.0174779651459
 31
0.0
  0
LINE
  5
F4
330
1F
100
AcDbEntity
  8
0-0
  6
JWW_DASHED1
 62
   120
370
     5
100
AcDbLine
 10
-1034.482374760427
 20
-175.9114542229948
 30
0.0
 11
-444.4823747604249
 21
414.0885457770066
 31
0.0
  0
LINE
  5
F5
330
1F
100
AcDbEntity
  8
0-0
  6
JWW_DASHED1
 62
   120
370
     5
100
AcDbLine
 10
-1034.482374760417
 20
-168.8403864111183
 30
0.0
 11
-444.4823747604317
 21
421.1596135888673
 31
0.0
  0
LINE
  5
F6
330
1F
100
AcDbEntity
  8
0-0
  6
JWW_DASHED1
 62
   120
370
     5
100
AcDbLine
 10
-1034.482374760407
 20
-161.7693185992419
 30
0.0
 11
-444.4823747604215
 21
428.2306814007442
 31
0.0
  0
LINE
  5
F7
330
1F
100
AcDbEntity
  8
0-0
  6
JWW_DASHED1
 62
   120
370
     5
100
AcDbLine
 10
-1034.482374760412
 20
-154.6982507874059
 30
0.0
 11
-444.4823747604163
 21
435.3017492125891
 31
0.0
  0
LINE
  5
F8
330
1F
100
AcDbEntity
  8
0-0
  6
JWW_DASHED1
 62
   120
370
     5
100
AcDbLine
 10
-1034.482374760424
 20
-147.6271829755793
 30
0.0
 11
-444.4823747604215
 21
442.3728170244225
 31
0.0
  0
LINE
  5
F9
330
1F
100
AcDbEntity
  8
0-0
  6
JWW_DASHED1
 62
   120
370
     5
100
AcDbLine
 10
-1034.482374760413
 20
-140.5561151637024
 30
0.0
 11
-444.4823747604283
 21
449.4438848362832
 31
0.0
  0
LINE
  5
FA
330
1F
100
AcDbEntity
  8
0-0
  6
JWW_DASHED1
 62
   120
370
     5
100
AcDbLine
 10
-1034.482374760415
 20
-133.4850473518375
 30
0.0
 11
-444.4823747604198
 21
456.514952648158
 31
0.0
  0
LINE
  5
FB
330
1F
100
AcDbEntity
  8
0-0
  6
JWW_DASHED1
 62
   120
370
     5
100
AcDbLine
 10
-1034.482374760426
 20
-126.413979539981
 30
0.0
 11
-444.4823747604249
 21
463.5860204600204
 31
0.0
  0
LINE
  5
FC
330
1F
100
AcDbEntity
  8
0-0
  6
JWW_DASHED1
 62
   120
370
     5
100
AcDbLine
 10
-1034.482374760415
 20
-119.3429117281041
 30
0.0
 11
-444.48237476043
 21
470.6570882718815
 31
0.0
  0
LINE
  5
FD
330
1F
100
AcDbEntity
  8
0-0
  6
JWW_DASHED1
 62
   120
370
     5
100
AcDbLine
 10
-1034.482374760407
 20
-112.2718439162276
 30
0.0
 11
-444.4823747604198
 21
477.728156083758
 31
0.0
  0
LINE
  5
FE
330
1F
100
AcDbEntity
  8
0-0
  6
JWW_DASHED1
 62
   120
370
     5
100
AcDbLine
 10
-1034.482374760427
 20
-105.2007761043827
 30
0.0
 11
-444.4823747604249
 21
484.7992238956187
 31
0.0
  0
LINE
  5
FF
330
1F
100
AcDbEntity
  8
0-0
  6
JWW_DASHED1
 62
   120
370
     5
100
AcDbLine
 10
-1034.482374760417
 20
-98.12970829250624
 30
0.0
 11
-444.4823747604317
 21
491.8702917074794
 31
0.0
  0
LINE
  5
100
330
1F
100
AcDbEntity
  8
0-0
  6
JWW_DASHED1
 62
   120
370
     5
100
AcDbLine
 10
-1034.482374760407
 20
-91.05864048062976
 30
0.0
 11
-444.4823747604215
 21
498.9413595193563
 31
0.0
  0
LINE
  5
101
330
1F
100
AcDbEntity
  8
0-0
  6
JWW_DASHED1
 62
   120
370
     5
100
AcDbLine
 10
-1034.482374760424
 20
-83.9875726687793
 30
0.0
 11
-444.4823747604129
 21
506.0124273312315
 31
0.0
  0
LINE
  5
102
330
1F
100
AcDbEntity
  8
0-0
  6
JWW_DASHED1
 62
   120
370
     5
100
AcDbLine
 10
-1034.48237476042
 20
-76.91650485690793
 30
0.0
 11
-444.4823747604334
 21
513.0834951430777
 31
0.0
  0
LINE
  5
103
330
1F
100
AcDbEntity
  8
0-0
  6
JWW_DASHED1
 62
   120
370
     5
100
AcDbLine
 10
-1034.48237476041
 20
-69.84543704503146
 30
0.0
 11
-444.4823747604232
 21
520.1545629549541
 31
0.0
  0
LINE
  5
104
330
1F
100
AcDbEntity
  8
0-0
  6
JWW_DASHED1
 62
   120
370
     5
100
AcDbLine
 10
-1034.48237476041
 20
-62.77436923316479
 30
0.0
 11
-444.4823747604146
 21
527.2256307668302
 31
0.0
  0
LINE
  5
105
330
1F
100
AcDbEntity
  8
0-0
  6
JWW_DASHED1
 62
   120
370
     5
100
AcDbLine
 10
-1034.48237476042
 20
-55.70330142131006
 30
0.0
 11
-444.4823747604351
 21
534.296698578676
 31
0.0
  0
LINE
  5
106
330
1F
100
AcDbEntity
  8
0-0
  6
JWW_DASHED1
 62
   120
370
     5
100
AcDbLine
 10
-1034.48237476041
 20
-48.63223360943316
 30
0.0
 11
-444.4823747604249
 21
541.3677663905524
 31
0.0
  0
LINE
  5
107
330
1F
100
AcDbEntity
  8
0-0
  6
JWW_DASHED1
 62
   120
370
     5
100
AcDbLine
 10
-1034.48237476041
 20
-41.56116579756649
 30
0.0
 11
-444.4823747604163
 21
548.4388342024286
 31
0.0
  0
LINE
  5
108
330
1F
100
AcDbEntity
  8
0-0
  6
JWW_DASHED1
 62
   120
370
     5
100
AcDbLine
 10
-1034.482374760424
 20
-34.49009798571176
 30
0.0
 11
-444.4823747604368
 21
555.5099020142738
 31
0.0
  0
LINE
  5
109
330
1F
100
AcDbEntity
  8
0-0
  6
JWW_DASHED1
 62
   120
370
     5
100
AcDbLine
 10
-1034.482374760413
 20
-27.41903017383486
 30
0.0
 11
-444.4823747604283
 21
562.5809698261507
 31
0.0
  0
LINE
  5
10A
330
1F
100
AcDbEntity
  8
0-0
  6
JWW_DASHED1
 62
   120
370
     5
100
AcDbLine
 10
-1034.482374760413
 20
-20.34796236196819
 30
0.0
 11
-444.4823747604181
 21
569.6520376380273
 31
0.0
  0
LINE
  5
10B
330
1F
100
AcDbEntity
  8
0-0
  6
JWW_DASHED1
 62
   120
370
     5
100
AcDbLine
 10
-1034.482374760424
 20
-13.27689455011345
 30
0.0
 11
-449.7455111793777
 21
571.4599690309334
 31
0.0
  0
LINE
  5
10C
330
1F
100
AcDbEntity
  8
0-0
  6
JWW_DASHED1
 62
   120
370
     5
100
AcDbLine
 10
-1034.482374760415
 20
-6.205826738237405
 30
0.0
 11
-456.8165789912393
 21
571.4599690309385
 31
0.0
  0
LINE
  5
10D
330
1F
100
AcDbEntity
  8
0-0
  6
JWW_DASHED1
 62
   120
370
     5
100
AcDbLine
 10
-1034.482374760405
 20
0.8652410736394955
 30
0.0
 11
-463.8876468031162
 21
571.4599690309287
 31
0.0
  0
LINE
  5
10E
330
1F
100
AcDbEntity
  8
0-0
  6
JWW_DASHED1
 62
   120
370
     5
100
AcDbLine
 10
-1034.482374760427
 20
7.936308885484848
 30
0.0
 11
-470.958714614976
 21
571.4599690309351
 31
0.0
  0
LINE
  5
10F
330
1F
100
AcDbEntity
  8
0-0
  6
JWW_DASHED1
 62
   120
370
     5
100
AcDbLine
 10
-1034.482374760417
 20
15.0073766973609
 30
0.0
 11
-478.0297824268376
 21
571.4599690309402
 31
0.0
  0
LINE
  5
110
330
1F
100
AcDbEntity
  8
0-0
  6
JWW_DASHED1
 62
   120
370
     5
100
AcDbLine
 10
-1034.482374760407
 20
22.0784445092378
 30
0.0
 11
-485.1008502387145
 21
571.45996903093
 31
0.0
  0
LINE
  5
111
330
1F
100
AcDbEntity
  8
0-0
  6
JWW_DASHED1
 62
   120
370
     5
100
AcDbLine
 10
-1034.482374760429
 20
29.1495123210823
 30
0.0
 11
-492.1719180505743
 21
571.4599690309368
 31
0.0
  0
LINE
  5
112
330
1F
100
AcDbEntity
  8
0-0
  6
JWW_DASHED1
 62
   120
370
     5
100
AcDbLine
 10
-1034.482374760419
 20
36.2205801329592
 30
0.0
 11
-499.2429858624376
 21
571.4599690309415
 31
0.0
  0
LINE
  5
113
330
1F
100
AcDbEntity
  8
0-0
  6
JWW_DASHED1
 62
   120
370
     5
100
AcDbLine
 10
-1034.48237476041
 20
43.29164794483567
 30
0.0
 11
-506.3140536743145
 21
571.4599690309309
 31
0.0
  0
LINE
  5
114
330
1F
100
AcDbEntity
  8
0-0
  6
JWW_DASHED1
 62
   120
370
     5
100
AcDbLine
 10
-1034.482374760424
 20
50.36271575668827
 30
0.0
 11
-513.3851214861879
 21
571.4599690309232
 31
0.0
  0
LINE
  5
115
330
1F
100
AcDbEntity
  8
0-0
  6
JWW_DASHED1
 62
   120
370
     5
100
AcDbLine
 10
-1034.48237476042
 20
57.4337835685575
 30
0.0
 11
-520.4561892980341
 21
571.4599690309428
 31
0.0
  0
LINE
  5
116
330
1F
100
AcDbEntity
  8
0-0
  6
JWW_DASHED1
 62
   120
370
     5
100
AcDbLine
 10
-1034.48237476041
 20
64.5048513804344
 30
0.0
 11
-527.527257109911
 21
571.4599690309326
 31
0.0
  0
LINE
  5
117
330
1F
100
AcDbEntity
  8
0-0
  6
JWW_DASHED1
 62
   120
370
     5
100
AcDbLine
 10
-1034.482374760408
 20
71.57591919230278
 30
0.0
 11
-534.5983249217879
 21
571.4599690309224
 31
0.0
  0
LINE
  5
118
330
1F
100
AcDbEntity
  8
0-0
  6
JWW_DASHED1
 62
   120
370
     5
100
AcDbLine
 10
-1034.482374760422
 20
78.6469870041558
 30
0.0
 11
-541.6693927336341
 21
571.4599690309436
 31
0.0
  0
LINE
  5
119
330
1F
100
AcDbEntity
  8
0-0
  6
JWW_DASHED1
 62
   120
370
     5
100
AcDbLine
 10
-1034.482374760413
 20
85.71805481603185
 30
0.0
 11
-548.740460545511
 21
571.4599690309334
 31
0.0
  0
LINE
  5
11A
330
1F
100
AcDbEntity
  8
0-0
  6
JWW_DASHED1
 62
   120
370
     5
100
AcDbLine
 10
-1034.482374760413
 20
92.78912262787124
 30
0.0
 11
-555.8115283573572
 21
571.4599690309258
 31
0.0
  0
LINE
  5
11B
330
1F
100
AcDbEntity
  8
0-0
  6
JWW_DASHED1
 62
   120
370
     5
100
AcDbLine
 10
-1034.482374760429
 20
99.86019043969442
 30
0.0
 11
-562.8825961691864
 21
571.4599690309368
 31
0.0
  0
LINE
  5
11C
330
1F
100
AcDbEntity
  8
0-0
  6
JWW_DASHED1
 62
   120
370
     5
100
AcDbLine
 10
-1034.482374760419
 20
106.9312582515713
 30
0.0
 11
-569.9536639810497
 21
571.4599690309394
 31
0.0
  0
LINE
  5
11D
330
1F
100
AcDbEntity
  8
0-0
  6
JWW_DASHED1
 62
   120
370
     5
100
AcDbLine
 10
-1034.48237476041
 20
114.0023260634478
 30
0.0
 11
-577.0247317929266
 21
571.4599690309292
 31
0.0
  0
LINE
  5
11E
330
1F
100
AcDbEntity
  8
0-0
  6
JWW_DASHED1
 62
   120
370
     5
100
AcDbLine
 10
-1034.482374760422
 20
121.0733938753012
 30
0.0
 11
-584.0957996048
 21
571.4599690309232
 31
0.0
  0
LINE
  5
11F
330
1F
100
AcDbEntity
  8
0-0
  6
JWW_DASHED1
 62
   120
370
     5
100
AcDbLine
 10
-1034.48237476042
 20
128.1444616871696
 30
0.0
 11
-591.1668674166497
 21
571.4599690309411
 31
0.0
  0
LINE
  5
120
330
1F
100
AcDbEntity
  8
0-0
  6
JWW_DASHED1
 62
   120
370
     5
100
AcDbLine
 10
-1034.48237476041
 20
135.2155294990461
 30
0.0
 11
-598.2379352285266
 21
571.4599690309309
 31
0.0
  0
LINE
  5
121
330
1F
100
AcDbEntity
  8
0-0
  6
JWW_DASHED1
 62
   120
370
     5
100
AcDbLine
 10
-1034.482374760408
 20
142.2865973109157
 30
0.0
 11
-605.3090030404035
 21
571.4599690309207
 31
0.0
  0
LINE
  5
122
330
1F
100
AcDbEntity
  8
0-0
  6
JWW_DASHED1
 62
   120
370
     5
100
AcDbLine
 10
-1034.482374760424
 20
149.3576651227675
 30
0.0
 11
-612.380070852248
 21
571.4599690309424
 31
0.0
  0
LINE
  5
123
330
1F
100
AcDbEntity
  8
0-0
  6
JWW_DASHED1
 62
   120
370
     5
100
AcDbLine
 10
-1034.482374760413
 20
156.428732934644
 30
0.0
 11
-619.4511386641249
 21
571.4599690309317
 31
0.0
  0
LINE
  5
124
330
1F
100
AcDbEntity
  8
0-0
  6
JWW_DASHED1
 62
   120
370
     5
100
AcDbLine
 10
-1034.48237476041
 20
163.499800746514
 30
0.0
 11
-626.5222064760018
 21
571.4599690309215
 31
0.0
  0
LINE
  5
125
330
1F
100
AcDbEntity
  8
0-0
  6
JWW_DASHED1
 62
   120
370
     5
100
AcDbLine
 10
-1034.482374760424
 20
170.5708685583658
 30
0.0
 11
-633.5932742878565
 21
571.4599690309326
 31
0.0
  0
LINE
  5
126
330
1F
100
AcDbEntity
  8
0-0
  6
JWW_DASHED1
 62
   120
370
     5
100
AcDbLine
 10
-1034.482374760413
 20
177.6419363702423
 30
0.0
 11
-640.6643420997232
 21
571.4599690309334
 31
0.0
  0
LINE
  5
127
330
1F
100
AcDbEntity
  8
0-0
  6
JWW_DASHED1
 62
   120
370
     5
100
AcDbLine
 10
-1034.48237476041
 20
184.7130041821128
 30
0.0
 11
-647.7354099116001
 21
571.4599690309232
 31
0.0
  0
LINE
  5
128
330
1F
100
AcDbEntity
  8
0-0
  6
JWW_DASHED1
 62
   120
370
     5
100
AcDbLine
 10
-1034.482374760427
 20
191.7840719939641
 30
0.0
 11
-654.8064777234565
 21
571.4599690309346
 31
0.0
  0
LINE
  5
129
330
1F
100
AcDbEntity
  8
0-0
  6
JWW_DASHED1
 62
   120
370
     5
100
AcDbLine
 10
-1034.482374760417
 20
198.8551398058406
 30
0.0
 11
-661.8775455353232
 21
571.4599690309346
 31
0.0
  0
LINE
  5
12A
330
1F
100
AcDbEntity
  8
0-0
  6
JWW_DASHED1
 62
   120
370
     5
100
AcDbLine
 10
-1034.482374760407
 20
205.9262076177171
 30
0.0
 11
-668.9486133472001
 21
571.4599690309241
 31
0.0
  0
LINE
  5
12B
330
1F
100
AcDbEntity
  8
0-0
  6
JWW_DASHED1
 62
   120
370
     5
100
AcDbLine
 10
-1034.482374760427
 20
212.997275429562
 30
0.0
 11
-676.0196811590531
 21
571.459969030936
 31
0.0
  0
LINE
  5
12C
330
1F
100
AcDbEntity
  8
0-0
  6
JWW_DASHED1
 62
   120
370
     5
100
AcDbLine
 10
-1034.482374760419
 20
220.0683432414385
 30
0.0
 11
-683.0907489709198
 21
571.459969030936
 31
0.0
  0
LINE
  5
12D
330
1F
100
AcDbEntity
  8
0-0
  6
JWW_DASHED1
 62
   120
370
     5
100
AcDbLine
 10
-1034.482374760408
 20
227.1394110533154
 30
0.0
 11
-690.1618167827967
 21
571.4599690309258
 31
0.0
  0
LINE
  5
12E
330
1F
100
AcDbEntity
  8
0-0
  6
JWW_DASHED1
 62
   120
370
     5
100
AcDbLine
 10
-1034.48237476042
 20
234.2104788651705
 30
0.0
 11
-697.2328845946668
 21
571.4599690309227
 31
0.0
  0
LINE
  5
12F
330
1F
100
AcDbEntity
  8
0-0
  6
JWW_DASHED1
 62
   120
370
     5
100
AcDbLine
 10
-1034.48237476042
 20
241.2815466770368
 30
0.0
 11
-704.3039524065198
 21
571.4599690309373
 31
0.0
  0
LINE
  5
130
330
1F
100
AcDbEntity
  8
0-0
  6
JWW_DASHED1
 62
   120
370
     5
100
AcDbLine
 10
-1034.48237476041
 20
248.3526144889132
 30
0.0
 11
-711.3750202183967
 21
571.4599690309275
 31
0.0
  0
LINE
  5
131
330
1F
100
AcDbEntity
  8
0-0
  6
JWW_DASHED1
 62
   120
370
     5
100
AcDbLine
 10
-1034.482374760407
 20
255.4236823007846
 30
0.0
 11
-718.4460880302736
 21
571.4599690309173
 31
0.0
  0
LINE
  5
132
330
1F
100
AcDbEntity
  8
0-0
  6
JWW_DASHED1
 62
   120
370
     5
100
AcDbLine
 10
-1034.482374760422
 20
262.4947501126351
 30
0.0
 11
-725.5171558421181
 21
571.4599690309385
 31
0.0
  0
LINE
  5
133
330
1F
100
AcDbEntity
  8
0-0
  6
JWW_DASHED1
 62
   120
370
     5
100
AcDbLine
 10
-1034.482374760412
 20
269.5658179245115
 30
0.0
 11
-732.588223653995
 21
571.4599690309287
 31
0.0
  0
LINE
  5
134
330
1F
100
AcDbEntity
  8
0-0
  6
JWW_DASHED1
 62
   120
370
     5
100
AcDbLine
 10
-1034.482374760407
 20
276.6368857363833
 30
0.0
 11
-739.6592914658719
 21
571.4599690309185
 31
0.0
  0
LINE
  5
135
330
1F
100
AcDbEntity
  8
0-0
  6
JWW_DASHED1
 62
   120
370
     5
100
AcDbLine
 10
-1034.482374760424
 20
283.7079535482329
 30
0.0
 11
-746.7303592777164
 21
571.4599690309398
 31
0.0
  0
LINE
  5
136
330
1F
100
AcDbEntity
  8
0-0
  6
JWW_DASHED1
 62
   120
370
     5
100
AcDbLine
 10
-1034.482374760413
 20
290.7790213601094
 30
0.0
 11
-753.8014270895933
 21
571.45996903093
 31
0.0
  0
LINE
  5
137
330
1F
100
AcDbEntity
  8
0-0
  6
JWW_DASHED1
 62
   120
370
     5
100
AcDbLine
 10
-1034.482374760408
 20
297.8500891719816
 30
0.0
 11
-760.8724949014702
 21
571.4599690309198
 31
0.0
  0
LINE
  5
138
330
1F
100
AcDbEntity
  8
0-0
  6
JWW_DASHED1
 62
   120
370
     5
100
AcDbLine
 10
-1034.482374760426
 20
304.9211569838312
 30
0.0
 11
-767.9435627133232
 21
571.4599690309343
 31
0.0
  0
LINE
  5
139
330
1F
100
AcDbEntity
  8
0-0
  6
JWW_DASHED1
 62
   120
370
     5
100
AcDbLine
 10
-1034.482374760415
 20
311.9922247957077
 30
0.0
 11
-775.0146305251932
 21
571.4599690309309
 31
0.0
  0
LINE
  5
13A
330
1F
100
AcDbEntity
  8
0-0
  6
JWW_DASHED1
 62
   120
370
     5
100
AcDbLine
 10
-1034.48237476041
 20
319.0632926075804
 30
0.0
 11
-782.0856983370701
 21
571.459969030921
 31
0.0
  0
LINE
  5
13B
330
1F
100
AcDbEntity
  8
0-0
  6
JWW_DASHED1
 62
   120
370
     5
100
AcDbLine
 10
-1034.482374760413
 20
326.1343604194155
 30
0.0
 11
-789.1567661488992
 21
571.4599690309292
 31
0.0
  0
LINE
  5
13C
330
1F
100
AcDbEntity
  8
0-0
  6
JWW_DASHED1
 62
   120
370
     5
100
AcDbLine
 10
-1034.482374760422
 20
333.2054282312472
 30
0.0
 11
-796.2278339607318
 21
571.4599690309368
 31
0.0
  0
LINE
  5
13D
330
1F
100
AcDbEntity
  8
0-0
  6
JWW_DASHED1
 62
   120
370
     5
100
AcDbLine
 10
-1034.482374760412
 20
340.2764960431236
 30
0.0
 11
-803.2989017726087
 21
571.4599690309266
 31
0.0
  0
LINE
  5
13E
330
1F
100
AcDbEntity
  8
0-0
  6
JWW_DASHED1
 62
   120
370
     5
100
AcDbLine
 10
-1034.482374760407
 20
347.3475638549967
 30
0.0
 11
-810.3699695844856
 21
571.4599690309168
 31
0.0
  0
LINE
  5
13F
330
1F
100
AcDbEntity
  8
0-0
  6
JWW_DASHED1
 62
   120
370
     5
100
AcDbLine
 10
-1034.482374760424
 20
354.418631666845
 30
0.0
 11
-817.4410373963318
 21
571.459969030938
 31
0.0
  0
LINE
  5
140
330
1F
100
AcDbEntity
  8
0-0
  6
JWW_DASHED1
 62
   120
370
     5
100
AcDbLine
 10
-1034.482374760413
 20
361.4896994787215
 30
0.0
 11
-824.5121052082087
 21
571.4599690309278
 31
0.0
  0
LINE
  5
141
330
1F
100
AcDbEntity
  8
0-0
  6
JWW_DASHED1
 62
   120
370
     5
100
AcDbLine
 10
-1034.482374760407
 20
368.5607672905954
 30
0.0
 11
-831.5831730200839
 21
571.459969030918
 31
0.0
  0
LINE
  5
142
330
1F
100
AcDbEntity
  8
0-0
  6
JWW_DASHED1
 62
   120
370
     5
100
AcDbLine
 10
-1034.482374760426
 20
375.6318351024433
 30
0.0
 11
-838.6542408319352
 21
571.4599690309343
 31
0.0
  0
LINE
  5
143
330
1F
100
AcDbEntity
  8
0-0
  6
JWW_DASHED1
 62
   120
370
     5
100
AcDbLine
 10
-1034.482374760415
 20
382.7029029143202
 30
0.0
 11
-845.7253086438053
 21
571.4599690309292
 31
0.0
  0
LINE
  5
144
330
1F
100
AcDbEntity
  8
0-0
  6
JWW_DASHED1
 62
   120
370
     5
100
AcDbLine
 10
-1034.482374760408
 20
389.7739707261933
 30
0.0
 11
-852.7963764556822
 21
571.4599690309193
 31
0.0
  0
LINE
  5
145
330
1F
100
AcDbEntity
  8
0-0
  6
JWW_DASHED1
 62
   120
370
     5
100
AcDbLine
 10
-1034.482374760427
 20
396.8450385380413
 30
0.0
 11
-859.8674442675318
 21
571.459969030936
 31
0.0
  0
LINE
  5
146
330
1F
100
AcDbEntity
  8
0-0
  6
JWW_DASHED1
 62
   120
370
     5
100
AcDbLine
 10
-1034.482374760417
 20
403.9161063499177
 30
0.0
 11
-866.9385120794053
 21
571.4599690309309
 31
0.0
  0
LINE
  5
147
330
1F
100
AcDbEntity
  8
0-0
  6
JWW_DASHED1
 62
   120
370
     5
100
AcDbLine
 10
-1034.482374760407
 20
410.9871741617946
 30
0.0
 11
-874.0095798912822
 21
571.4599690309207
 31
0.0
  0
LINE
  5
148
330
1F
100
AcDbEntity
  8
0-0
  6
JWW_DASHED1
 62
   120
370
     5
100
AcDbLine
 10
-1034.482374760429
 20
418.05824197364
 30
0.0
 11
-881.0806477031318
 21
571.459969030938
 31
0.0
  0
LINE
  5
149
330
1F
100
AcDbEntity
  8
0-0
  6
JWW_DASHED1
 62
   120
370
     5
100
AcDbLine
 10
-1034.48237476042
 20
425.129309785516
 30
0.0
 11
-888.1517155150036
 21
571.4599690309317
 31
0.0
  0
LINE
  5
14A
330
1F
100
AcDbEntity
  8
0-0
  6
JWW_DASHED1
 62
   120
370
     5
100
AcDbLine
 10
-1034.48237476041
 20
432.2003775973925
 30
0.0
 11
-895.2227833268805
 21
571.4599690309219
 31
0.0
  0
LINE
  5
14B
330
1F
100
AcDbEntity
  8
0-0
  6
JWW_DASHED1
 62
   120
370
     5
100
AcDbLine
 10
-1034.482374760417
 20
439.2714454092515
 30
0.0
 11
-902.2938511387455
 21
571.4599690309241
 31
0.0
  0
LINE
  5
14C
330
1F
100
AcDbEntity
  8
0-0
  6
JWW_DASHED1
 62
   120
370
     5
100
AcDbLine
 10
-1034.48237476042
 20
446.3425132211143
 30
0.0
 11
-909.3649189506019
 21
571.4599690309334
 31
0.0
  0
LINE
  5
14D
330
1F
100
AcDbEntity
  8
0-0
  6
JWW_DASHED1
 62
   120
370
     5
100
AcDbLine
 10
-1034.482374760412
 20
453.4135810329908
 30
0.0
 11
-916.4359867624788
 21
571.4599690309232
 31
0.0
  0
LINE
  5
14E
330
1F
100
AcDbEntity
  8
0-0
  6
JWW_DASHED1
 62
   120
370
     5
100
AcDbLine
 10
-1034.482374760403
 20
460.4846488448655
 30
0.0
 11
-923.5070545743557
 21
571.4599690309129
 31
0.0
  0
LINE
  5
14F
330
1F
100
AcDbEntity
  8
0-0
  6
JWW_DASHED1
 62
   120
370
     5
100
AcDbLine
 10
-1034.482374760424
 20
467.5557166567122
 30
0.0
 11
-930.5781223862019
 21
571.4599690309343
 31
0.0
  0
LINE
  5
150
330
1F
100
AcDbEntity
  8
0-0
  6
JWW_DASHED1
 62
   120
370
     5
100
AcDbLine
 10
-1034.482374760413
 20
474.6267844685891
 30
0.0
 11
-937.6491901980788
 21
571.4599690309241
 31
0.0
  0
LINE
  5
151
330
1F
100
AcDbEntity
  8
0-0
  6
JWW_DASHED1
 62
   120
370
     5
100
AcDbLine
 10
-1034.482374760405
 20
481.6978522804643
 30
0.0
 11
-944.7202580099557
 21
571.4599690309142
 31
0.0
  0
LINE
  5
152
330
1F
100
AcDbEntity
  8
0-0
  6
JWW_DASHED1
 62
   120
370
     5
100
AcDbLine
 10
-1034.482374760426
 20
488.7689200923105
 30
0.0
 11
-951.7913258218019
 21
571.4599690309338
 31
0.0
  0
LINE
  5
153
330
1F
100
AcDbEntity
  8
0-0
  6
JWW_DASHED1
 62
   120
370
     5
100
AcDbLine
 10
-1034.482374760415
 20
495.839987904187
 30
0.0
 11
-958.8623936336754
 21
571.4599690309258
 31
0.0
  0
LINE
  5
154
330
1F
100
AcDbEntity
  8
0-0
  6
JWW_DASHED1
 62
   120
370
     5
100
AcDbLine
 10
-1034.482374760407
 20
502.9110557160626
 30
0.0
 11
-965.9334614455524
 21
571.4599690309155
 31
0.0
  0
LINE
  5
155
330
1F
100
AcDbEntity
  8
0-0
  6
JWW_DASHED1
 62
   120
370
     5
100
AcDbLine
 10
-1034.482374760427
 20
509.9821235279088
 30
0.0
 11
-973.0045292574003
 21
571.4599690309351
 31
0.0
  0
LINE
  5
156
330
1F
100
AcDbEntity
  8
0-0
  6
JWW_DASHED1
 62
   120
370
     5
100
AcDbLine
 10
-1034.482374760417
 20
517.0531913397853
 30
0.0
 11
-980.0755970692755
 21
571.459969030927
 31
0.0
  0
LINE
  5
157
330
1F
100
AcDbEntity
  8
0-0
  6
JWW_DASHED1
 62
   120
370
     5
100
AcDbLine
 10
-1034.482374760407
 20
524.1242591516617
 30
0.0
 11
-987.1466648811524
 21
571.4599690309163
 31
0.0
  0
LINE
  5
158
330
1F
100
AcDbEntity
  8
0-0
  6
JWW_DASHED1
 62
   120
370
     5
100
AcDbLine
 10
-1034.482374760429
 20
531.1953269635067
 30
0.0
 11
-994.2177326929987
 21
571.4599690309373
 31
0.0
  0
LINE
  5
159
330
1F
100
AcDbEntity
  8
0-0
  6
JWW_DASHED1
 62
   120
370
     5
100
AcDbLine
 10
-1034.482374760419
 20
538.2663947753836
 30
0.0
 11
-1001.288800504874
 21
571.4599690309283
 31
0.0
  0
LINE
  5
15A
330
1F
100
AcDbEntity
  8
0-0
  6
JWW_DASHED1
 62
   120
370
     5
100
AcDbLine
 10
-1034.48237476041
 20
545.33746258726
 30
0.0
 11
-1008.359868316751
 21
571.4599690309185
 31
0.0
  0
LINE
  5
15B
330
1F
100
AcDbEntity
  8
0-0
  6
JWW_DASHED1
 62
   120
370
     5
100
AcDbLine
 10
-1034.482374760415
 20
552.4085303991203
 30
0.0
 11
-1015.430936128612
 21
571.4599690309232
 31
0.0
  0
LINE
  5
15C
330
1F
100
AcDbEntity
  8
0-0
  6
JWW_DASHED1
 62
   120
370
     5
100
AcDbLine
 10
-1034.48237476042
 20
559.4795982109814
 30
0.0
 11
-1022.502003940472
 21
571.4599690309292
 31
0.0
  0
LINE
  5
15D
330
1F
100
AcDbEntity
  8
0-0
  6
JWW_DASHED1
 62
   120
370
     5
100
AcDbLine
 10
-1034.48237476041
 20
566.550666022858
 30
0.0
 11
-1029.573071752349
 21
571.4599690309198
 31
0.0
  0
LINE
  5
15E
330
1F
100
AcDbEntity
  8
0-0
  6
JWW_DASHED1
 62
   120
370
     5
100
AcDbLine
 10
-710.5676621810078
 20
-403.5400309690662
 30
0.0
 11
-444.4823747604283
 21
-137.4547435484857
 31
0.0
  0
LINE
  5
15F
330
1F
100
AcDbEntity
  8
0-0
  6
Continuous
 62
    92
370
    13
100
AcDbLine
 10
-1034.482374760417
 20
-533.5400309690758
 30
0.0
 11
-444.4823747604146
 21
-533.5400309690758
 31
0.0
  0
LINE
  5
160
330
1F
100
AcDbEntity
  8
0-0
  6
Continuous
 62
    92
370
    13
100
AcDbLine
 10
-254.4823747604169
 20
-403.540030969076
 30
0.0
 11
335.5176252395854
 21
-403.540030969076
 31
0.0
  0
LINE
  5
161
330
1F
100
AcDbEntity
  8
0-0
  6
JWW_DASHED1
 62
   120
370
     5
100
AcDbLine
 10
331.0618468580112
 20
-403.5400309690598
 30
0.0
 11
335.5176252395683
 21
-399.0842525875013
 31
0.0
  0
LINE
  5
162
330
1F
100
AcDbEntity
  8
0-0
  6
JWW_DASHED1
 62
   120
370
     5
100
AcDbLine
 10
323.9907790461343
 20
-403.5400309690704
 30
0.0
 11
335.5176252395785
 21
-392.0131847756249
 31
0.0
  0
LINE
  5
163
330
1F
100
AcDbEntity
  8
0-0
  6
JWW_DASHED1
 62
   120
370
     5
100
AcDbLine
 10
316.9197112342727
 20
-403.5400309690644
 30
0.0
 11
335.5176252395734
 21
-384.9421169637637
 31
0.0
  0
LINE
  5
164
330
1F
100
AcDbEntity
  8
0-0
  6
JWW_DASHED1
 62
   120
370
     5
100
AcDbLine
 10
309.8486434224112
 20
-403.5400309690589
 30
0.0
 11
335.5176252395683
 21
-377.871049151903
 31
0.0
  0
LINE
  5
165
330
1F
100
AcDbEntity
  8
0-0
  6
JWW_DASHED1
 62
   120
370
     5
100
AcDbLine
 10
302.7775756105343
 20
-403.5400309690692
 30
0.0
 11
335.5176252395785
 21
-370.7999813400266
 31
0.0
  0
LINE
  5
166
330
1F
100
AcDbEntity
  8
0-0
  6
JWW_DASHED1
 62
   120
370
     5
100
AcDbLine
 10
295.7065077986744
 20
-403.5400309690632
 30
0.0
 11
335.5176252395717
 21
-363.728913528165
 31
0.0
  0
LINE
  5
167
330
1F
100
AcDbEntity
  8
0-0
  6
JWW_DASHED1
 62
   120
370
     5
100
AcDbLine
 10
288.6354399867975
 20
-403.5400309690721
 30
0.0
 11
335.5176252395819
 21
-356.6578457162894
 31
0.0
  0
LINE
  5
168
330
1F
100
AcDbEntity
  8
0-0
  6
JWW_DASHED1
 62
   120
370
     5
100
AcDbLine
 10
281.564372174936
 20
-403.5400309690675
 30
0.0
 11
335.5176252395751
 21
-349.5867779044287
 31
0.0
  0
LINE
  5
169
330
1F
100
AcDbEntity
  8
0-0
  6
JWW_DASHED1
 62
   120
370
     5
100
AcDbLine
 10
274.4933043630761
 20
-403.5400309690615
 30
0.0
 11
335.5176252395717
 21
-342.5157100925667
 31
0.0
  0
LINE
  5
16A
330
1F
100
AcDbEntity
  8
0-0
  6
JWW_DASHED1
 62
   120
370
     5
100
AcDbLine
 10
267.4222365512009
 20
-403.54003096907
 30
0.0
 11
335.5176252395785
 21
-335.4446422806911
 31
0.0
  0
LINE
  5
16B
330
1F
100
AcDbEntity
  8
0-0
  6
JWW_DASHED1
 62
   120
370
     5
100
AcDbLine
 10
260.3511687393377
 20
-403.5400309690662
 30
0.0
 11
335.5176252395734
 21
-328.3735744688304
 31
0.0
  0
LINE
  5
16C
330
1F
100
AcDbEntity
  8
0-0
  6
JWW_DASHED1
 62
   120
370
     5
100
AcDbLine
 10
253.2801009274608
 20
-403.540030969076
 30
0.0
 11
335.5176252395837
 21
-321.3025066569539
 31
0.0
  0
LINE
  5
16D
330
1F
100
AcDbEntity
  8
0-0
  6
JWW_DASHED1
 62
   120
370
     5
100
AcDbLine
 10
246.2090331156026
 20
-403.5400309690683
 30
0.0
 11
335.5176252395785
 21
-314.2314388450932
 31
0.0
  0
LINE
  5
16E
330
1F
100
AcDbEntity
  8
0-0
  6
JWW_DASHED1
 62
   120
370
     5
100
AcDbLine
 10
239.1379653037393
 20
-403.5400309690649
 30
0.0
 11
335.5176252395717
 21
-307.1603710332321
 31
0.0
  0
LINE
  5
16F
330
1F
100
AcDbEntity
  8
0-0
  6
JWW_DASHED1
 62
   120
370
     5
100
AcDbLine
 10
232.0668974918624
 20
-403.5400309690751
 30
0.0
 11
335.5176252395819
 21
-300.0893032213556
 31
0.0
  0
LINE
  5
170
330
1F
100
AcDbEntity
  8
0-0
  6
JWW_DASHED1
 62
   120
370
     5
100
AcDbLine
 10
224.9958296800043
 20
-403.5400309690666
 30
0.0
 11
335.5176252395785
 21
-293.0182354094932
 31
0.0
  0
LINE
  5
171
330
1F
100
AcDbEntity
  8
0-0
  6
JWW_DASHED1
 62
   120
370
     5
100
AcDbLine
 10
217.9247618681854
 20
-403.5400309690721
 30
0.0
 11
335.5176252395819
 21
-285.9471675976773
 31
0.0
  0
LINE
  5
172
330
1F
100
AcDbEntity
  8
0-0
  6
JWW_DASHED1
 62
   120
370
     5
100
AcDbLine
 10
210.8536940563221
 20
-403.5400309690696
 30
0.0
 11
335.5176252395751
 21
-278.8760997858166
 31
0.0
  0
LINE
  5
173
330
1F
100
AcDbEntity
  8
0-0
  6
JWW_DASHED1
 62
   120
370
     5
100
AcDbLine
 10
203.7826262444623
 20
-403.5400309690636
 30
0.0
 11
335.5176252395717
 21
-271.8050319739533
 31
0.0
  0
LINE
  5
174
330
1F
100
AcDbEntity
  8
0-0
  6
JWW_DASHED1
 62
   120
370
     5
100
AcDbLine
 10
196.7115584325888
 20
-403.54003096907
 30
0.0
 11
335.5176252395785
 21
-264.733964162079
 31
0.0
  0
LINE
  5
175
330
1F
100
AcDbEntity
  8
0-0
  6
JWW_DASHED1
 62
   120
370
     5
100
AcDbLine
 10
189.6404906207238
 20
-403.5400309690683
 30
0.0
 11
335.5176252395734
 21
-257.6628963502183
 31
0.0
  0
LINE
  5
176
330
1F
100
AcDbEntity
  8
0-0
  6
JWW_DASHED1
 62
   120
370
     5
100
AcDbLine
 10
182.5694228088469
 20
-403.5400309690781
 30
0.0
 11
335.5176252395837
 21
-250.5918285383418
 31
0.0
  0
LINE
  5
177
330
1F
100
AcDbEntity
  8
0-0
  6
JWW_DASHED1
 62
   120
370
     5
100
AcDbLine
 10
175.4983549969905
 20
-403.5400309690683
 30
0.0
 11
335.5176252395785
 21
-243.5207607264811
 31
0.0
  0
LINE
  5
178
330
1F
100
AcDbEntity
  8
0-0
  6
JWW_DASHED1
 62
   120
370
     5
100
AcDbLine
 10
168.4272871851255
 20
-403.5400309690666
 30
0.0
 11
335.5176252395717
 21
-236.44969291462
 31
0.0
  0
LINE
  5
179
330
1F
100
AcDbEntity
  8
0-0
  6
JWW_DASHED1
 62
   120
370
     5
100
AcDbLine
 10
161.3562193732486
 20
-403.5400309690768
 30
0.0
 11
335.5176252395819
 21
-229.3786251027435
 31
0.0
  0
LINE
  5
17A
330
1F
100
AcDbEntity
  8
0-0
  6
JWW_DASHED1
 62
   120
370
     5
100
AcDbLine
 10
154.2851515613922
 20
-403.5400309690666
 30
0.0
 11
335.5176252395785
 21
-222.3075572908798
 31
0.0
  0
LINE
  5
17B
330
1F
100
AcDbEntity
  8
0-0
  6
JWW_DASHED1
 62
   120
370
     5
100
AcDbLine
 10
147.2140837495255
 20
-403.5400309690658
 30
0.0
 11
335.51762523957
 21
-215.2364894790221
 31
0.0
  0
LINE
  5
17C
330
1F
100
AcDbEntity
  8
0-0
  6
JWW_DASHED1
 62
   120
370
     5
100
AcDbLine
 10
140.1430159376503
 20
-403.5400309690751
 30
0.0
 11
335.5176252395802
 21
-208.1654216671452
 31
0.0
  0
LINE
  5
17D
330
1F
100
AcDbEntity
  8
0-0
  6
JWW_DASHED1
 62
   120
370
     5
100
AcDbLine
 10
133.0719481257888
 20
-403.54003096907
 30
0.0
 11
335.5176252395768
 21
-201.0943538552815
 31
0.0
  0
LINE
  5
17E
330
1F
100
AcDbEntity
  8
0-0
  6
JWW_DASHED1
 62
   120
370
     5
100
AcDbLine
 10
126.0008803139272
 20
-403.5400309690644
 30
0.0
 11
335.5176252395683
 21
-194.0232860434238
 31
0.0
  0
LINE
  5
17F
330
1F
100
AcDbEntity
  8
0-0
  6
JWW_DASHED1
 62
   120
370
     5
100
AcDbLine
 10
118.929812502052
 20
-403.5400309690743
 30
0.0
 11
335.5176252395785
 21
-186.9522182315473
 31
0.0
  0
LINE
  5
180
330
1F
100
AcDbEntity
  8
0-0
  6
JWW_DASHED1
 62
   120
370
     5
100
AcDbLine
 10
111.8587446901905
 20
-403.5400309690683
 30
0.0
 11
335.5176252395751
 21
-179.8811504196828
 31
0.0
  0
LINE
  5
181
330
1F
100
AcDbEntity
  8
0-0
  6
JWW_DASHED1
 62
   120
370
     5
100
AcDbLine
 10
104.7876768783289
 20
-403.5400309690632
 30
0.0
 11
335.5176252395649
 21
-172.8100826078259
 31
0.0
  0
LINE
  5
182
330
1F
100
AcDbEntity
  8
0-0
  6
JWW_DASHED1
 62
   120
370
     5
100
AcDbLine
 10
97.71660906645202
 20
-403.5400309690726
 30
0.0
 11
335.5176252395751
 21
-165.739014795949
 31
0.0
  0
LINE
  5
183
330
1F
100
AcDbEntity
  8
0-0
  6
JWW_DASHED1
 62
   120
370
     5
100
AcDbLine
 10
90.64554125459217
 20
-403.5400309690675
 30
0.0
 11
335.5176252395751
 21
-158.6679469840845
 31
0.0
  0
LINE
  5
184
330
1F
100
AcDbEntity
  8
0-0
  6
JWW_DASHED1
 62
   120
370
     5
100
AcDbLine
 10
83.5744734427221
 20
-403.5400309690709
 30
0.0
 11
335.5176252395802
 21
-151.5968791722119
 31
0.0
  0
LINE
  5
185
330
1F
100
AcDbEntity
  8
0-0
  6
JWW_DASHED1
 62
   120
370
     5
100
AcDbLine
 10
76.50340563085372
 20
-403.5400309690717
 30
0.0
 11
335.5176252395751
 21
-144.5258113603512
 31
0.0
  0
LINE
  5
186
330
1F
100
AcDbEntity
  8
0-0
  6
JWW_DASHED1
 62
   120
370
     5
100
AcDbLine
 10
62.36127000712209
 20
-403.5400309690687
 30
0.0
 11
335.5176252395785
 21
-130.3836757366136
 31
0.0
  0
LINE
  5
187
330
1F
100
AcDbEntity
  8
0-0
  6
JWW_DASHED1
 62
   120
370
     5
100
AcDbLine
 10
55.29020219525542
 20
-403.5400309690704
 30
0.0
 11
335.5176252395717
 21
-123.3126079247528
 31
0.0
  0
LINE
  5
188
330
1F
100
AcDbEntity
  8
0-0
  6
JWW_DASHED1
 62
   120
370
     5
100
AcDbLine
 10
48.21913438337852
 20
-403.5400309690802
 30
0.0
 11
335.5176252395819
 21
-116.2415401128759
 31
0.0
  0
LINE
  5
189
330
1F
100
AcDbEntity
  8
0-0
  6
JWW_DASHED1
 62
   120
370
     5
100
AcDbLine
 10
41.14806657152549
 20
-403.540030969067
 30
0.0
 11
335.5176252395768
 21
-109.1704723010157
 31
0.0
  0
LINE
  5
18A
330
1F
100
AcDbEntity
  8
0-0
  6
JWW_DASHED1
 62
   120
370
     5
100
AcDbLine
 10
34.07699875965541
 20
-403.5400309690692
 30
0.0
 11
335.51762523957
 21
-102.099404489155
 31
0.0
  0
LINE
  5
18B
330
1F
100
AcDbEntity
  8
0-0
  6
JWW_DASHED1
 62
   120
370
     5
100
AcDbLine
 10
27.00593094777851
 20
-403.5400309690794
 30
0.0
 11
335.5176252395802
 21
-95.02833667727849
 31
0.0
  0
LINE
  5
18C
330
1F
100
AcDbEntity
  8
0-0
  6
JWW_DASHED1
 62
   120
370
     5
100
AcDbLine
 10
19.93486313592719
 20
-403.5400309690649
 30
0.0
 11
335.5176252395785
 21
-87.95726886541225
 31
0.0
  0
LINE
  5
18D
330
1F
100
AcDbEntity
  8
0-0
  6
JWW_DASHED1
 62
   120
370
     5
100
AcDbLine
 10
12.86379532405711
 20
-403.5400309690679
 30
0.0
 11
335.5176252395683
 21
-80.88620105355666
 31
0.0
  0
LINE
  5
18E
330
1F
100
AcDbEntity
  8
0-0
  6
JWW_DASHED1
 62
   120
370
     5
100
AcDbLine
 10
5.792727512180207
 20
-403.5400309690781
 30
0.0
 11
335.5176252395785
 21
-73.81513324168019
 31
0.0
  0
LINE
  5
18F
330
1F
100
AcDbEntity
  8
0-0
  6
JWW_DASHED1
 62
   120
370
     5
100
AcDbLine
 10
-1.278340299681346
 20
-403.5400309690721
 30
0.0
 11
335.5176252395785
 21
-66.74406542981394
 31
0.0
  0
LINE
  5
190
330
1F
100
AcDbEntity
  8
0-0
  6
JWW_DASHED1
 62
   120
370
     5
100
AcDbLine
 10
-8.349408111541194
 20
-403.5400309690666
 30
0.0
 11
335.5176252395666
 21
-59.67299761795879
 31
0.0
  0
LINE
  5
191
330
1F
100
AcDbEntity
  8
0-0
  6
JWW_DASHED1
 62
   120
370
     5
100
AcDbLine
 10
-15.4204759234181
 20
-403.5400309690768
 30
0.0
 11
335.5176252395768
 21
-52.60192980608188
 31
0.0
  0
LINE
  5
192
330
1F
100
AcDbEntity
  8
0-0
  6
JWW_DASHED1
 62
   120
370
     5
100
AcDbLine
 10
-22.49154373524895
 20
-403.5400309690683
 30
0.0
 11
335.5176252395751
 21
-45.53086199424506
 31
0.0
  0
LINE
  5
193
330
1F
100
AcDbEntity
  8
0-0
  6
JWW_DASHED1
 62
   120
370
     5
100
AcDbLine
 10
-29.56261154708663
 20
-403.540030969067
 30
0.0
 11
335.5176252395768
 21
-38.45979418240354
 31
0.0
  0
LINE
  5
194
330
1F
100
AcDbEntity
  8
0-0
  6
JWW_DASHED1
 62
   120
370
     5
100
AcDbLine
 10
-36.63367935895671
 20
-403.5400309690709
 30
0.0
 11
335.51762523957
 21
-31.38872637054284
 31
0.0
  0
LINE
  5
195
330
1F
100
AcDbEntity
  8
0-0
  6
JWW_DASHED1
 62
   120
370
     5
100
AcDbLine
 10
-43.70474717083361
 20
-403.5400309690811
 30
0.0
 11
335.5176252395802
 21
-24.31765855866637
 31
0.0
  0
LINE
  5
196
330
1F
100
AcDbEntity
  8
0-0
  6
JWW_DASHED1
 62
   120
370
     5
100
AcDbLine
 10
-50.77581498268493
 20
-403.5400309690649
 30
0.0
 11
335.5176252395819
 21
-17.24659074679884
 31
0.0
  0
LINE
  5
197
330
1F
100
AcDbEntity
  8
0-0
  6
JWW_DASHED1
 62
   120
370
     5
100
AcDbLine
 10
-57.84688279455672
 20
-403.5400309690692
 30
0.0
 11
335.5176252395683
 21
-10.17552293494454
 31
0.0
  0
LINE
  5
198
330
1F
100
AcDbEntity
  8
0-0
  6
JWW_DASHED1
 62
   120
370
     5
100
AcDbLine
 10
-64.91795060643362
 20
-403.5400309690794
 30
0.0
 11
335.5176252395785
 21
-3.104455123068064
 31
0.0
  0
LINE
  5
199
330
1F
100
AcDbEntity
  8
0-0
  6
JWW_DASHED1
 62
   120
370
     5
100
AcDbLine
 10
-71.98901841829347
 20
-403.5400309690743
 30
0.0
 11
335.5176252395785
 21
3.966612688799458
 31
0.0
  0
LINE
  5
19A
330
1F
100
AcDbEntity
  8
0-0
  6
JWW_DASHED1
 62
   120
370
     5
100
AcDbLine
 10
-79.06008623015502
 20
-403.5400309690683
 30
0.0
 11
335.5176252395666
 21
11.03768050065334
 31
0.0
  0
LINE
  5
19B
330
1F
100
AcDbEntity
  8
0-0
  6
JWW_DASHED1
 62
   120
370
     5
100
AcDbLine
 10
-86.13115404203192
 20
-403.5400309690785
 30
0.0
 11
335.5176252395768
 21
18.10874831253024
 31
0.0
  0
LINE
  5
19C
330
1F
100
AcDbEntity
  8
0-0
  6
JWW_DASHED1
 62
   120
370
     5
100
AcDbLine
 10
-93.20222185389348
 20
-403.5400309690726
 30
0.0
 11
335.5176252395785
 21
25.17981612439776
 31
0.0
  0
LINE
  5
19D
330
1F
100
AcDbEntity
  8
0-0
  6
JWW_DASHED1
 62
   120
370
     5
100
AcDbLine
 10
-100.2732896657533
 20
-403.540030969067
 30
0.0
 11
335.5176252395649
 21
32.25088393625164
 31
0.0
  0
LINE
  5
19E
330
1F
100
AcDbEntity
  8
0-0
  6
JWW_DASHED1
 62
   120
370
     5
100
AcDbLine
 10
-107.3443574776302
 20
-403.5400309690772
 30
0.0
 11
335.5176252395751
 21
39.32195174812811
 31
0.0
  0
LINE
  5
19F
330
1F
100
AcDbEntity
  8
0-0
  6
JWW_DASHED1
 62
   120
370
     5
100
AcDbLine
 10
-114.4154252894918
 20
-403.5400309690713
 30
0.0
 11
335.5176252395751
 21
46.39301955999606
 31
0.0
  0
LINE
  5
1A0
330
1F
100
AcDbEntity
  8
0-0
  6
JWW_DASHED1
 62
   120
370
     5
100
AcDbLine
 10
-121.4864931013567
 20
-403.5400309690692
 30
0.0
 11
335.5176252395785
 21
53.46408737186572
 31
0.0
  0
LINE
  5
1A1
330
1F
100
AcDbEntity
  8
0-0
  6
JWW_DASHED1
 62
   120
370
     5
100
AcDbLine
 10
-128.5575609132302
 20
-403.540030969076
 30
0.0
 11
335.5176252395717
 21
60.53515518372642
 31
0.0
  0
LINE
  5
1A2
330
1F
100
AcDbEntity
  8
0-0
  6
JWW_DASHED1
 62
   120
370
     5
100
AcDbLine
 10
-135.6286287251071
 20
-403.5400309690858
 30
0.0
 11
335.5176252395819
 21
67.60622299560289
 31
0.0
  0
LINE
  5
1A3
330
1F
100
AcDbEntity
  8
0-0
  6
JWW_DASHED1
 62
   120
370
     5
100
AcDbLine
 10
-142.6996965369534
 20
-403.5400309690675
 30
0.0
 11
335.5176252395768
 21
74.67729080746402
 31
0.0
  0
LINE
  5
1A4
330
1F
100
AcDbEntity
  8
0-0
  6
JWW_DASHED1
 62
   120
370
     5
100
AcDbLine
 10
-149.7707643488285
 20
-403.5400309690747
 30
0.0
 11
335.5176252395717
 21
81.74835861932472
 31
0.0
  0
LINE
  5
1A5
330
1F
100
AcDbEntity
  8
0-0
  6
JWW_DASHED1
 62
   120
370
     5
100
AcDbLine
 10
-156.8418321607037
 20
-403.5400309690845
 30
0.0
 11
335.5176252395819
 21
88.8194264312012
 31
0.0
  0
LINE
  5
1A6
330
1F
100
AcDbEntity
  8
0-0
  6
JWW_DASHED1
 62
   120
370
     5
100
AcDbLine
 10
-163.9128999725534
 20
-403.5400309690658
 30
0.0
 11
335.5176252395751
 21
95.8904942430619
 31
0.0
  0
LINE
  5
1A7
330
1F
100
AcDbEntity
  8
0-0
  6
JWW_DASHED1
 62
   120
370
     5
100
AcDbLine
 10
-170.9839677844269
 20
-403.5400309690734
 30
0.0
 11
335.5176252395683
 21
102.9615620549226
 31
0.0
  0
LINE
  5
1A8
330
1F
100
AcDbEntity
  8
0-0
  6
JWW_DASHED1
 62
   120
370
     5
100
AcDbLine
 10
-178.0550355963038
 20
-403.5400309690828
 30
0.0
 11
335.5176252395785
 21
110.0326298667995
 31
0.0
  0
LINE
  5
1A9
330
1F
100
AcDbEntity
  8
0-0
  6
JWW_DASHED1
 62
   120
370
     5
100
AcDbLine
 10
-185.12610340815
 20
-403.5400309690636
 30
0.0
 11
335.5176252395819
 21
117.1036976786687
 31
0.0
  0
LINE
  5
1AA
330
1F
100
AcDbEntity
  8
0-0
  6
JWW_DASHED1
 62
   120
370
     5
100
AcDbLine
 10
-192.1971712200269
 20
-403.5400309690721
 30
0.0
 11
335.5176252395683
 21
124.1747654905209
 31
0.0
  0
LINE
  5
1AB
330
1F
100
AcDbEntity
  8
0-0
  6
JWW_DASHED1
 62
   120
370
     5
100
AcDbLine
 10
-199.2682390319021
 20
-403.540030969082
 30
0.0
 11
335.5176252395768
 21
131.2458333023974
 31
0.0
  0
LINE
  5
1AC
330
1F
100
AcDbEntity
  8
0-0
  6
JWW_DASHED1
 62
   120
370
     5
100
AcDbLine
 10
-206.3393068437636
 20
-403.540030969076
 30
0.0
 11
335.5176252395802
 21
138.316901114267
 31
0.0
  0
LINE
  5
1AD
330
1F
100
AcDbEntity
  8
0-0
  6
JWW_DASHED1
 62
   120
370
     5
100
AcDbLine
 10
-213.4103746556235
 20
-403.5400309690709
 30
0.0
 11
335.5176252395649
 21
145.3879689261192
 31
0.0
  0
LINE
  5
1AE
330
1F
100
AcDbEntity
  8
0-0
  6
JWW_DASHED1
 62
   120
370
     5
100
AcDbLine
 10
-220.4814424675004
 20
-403.5400309690806
 30
0.0
 11
335.5176252395751
 21
152.4590367379952
 31
0.0
  0
LINE
  5
1AF
330
1F
100
AcDbEntity
  8
0-0
  6
JWW_DASHED1
 62
   120
370
     5
100
AcDbLine
 10
-227.5525102793619
 20
-403.5400309690751
 30
0.0
 11
335.5176252395785
 21
159.5301045498653
 31
0.0
  0
LINE
  5
1B0
330
1F
100
AcDbEntity
  8
0-0
  6
JWW_DASHED1
 62
   120
370
     5
100
AcDbLine
 10
-234.6235780912235
 20
-403.54003096907
 30
0.0
 11
335.5176252395785
 21
166.6011723617328
 31
0.0
  0
LINE
  5
1B1
330
1F
100
AcDbEntity
  8
0-0
  6
JWW_DASHED1
 62
   120
370
     5
100
AcDbLine
 10
-241.6946459031004
 20
-403.5400309690794
 30
0.0
 11
335.5176252395734
 21
173.6722401735935
 31
0.0
  0
LINE
  5
1B2
330
1F
100
AcDbEntity
  8
0-0
  6
JWW_DASHED1
 62
   120
370
     5
100
AcDbLine
 10
-248.7657137149602
 20
-403.5400309690738
 30
0.0
 11
335.5176252395768
 21
180.7433079854636
 31
0.0
  0
LINE
  5
1B3
330
1F
100
AcDbEntity
  8
0-0
  6
JWW_DASHED1
 62
   120
370
     5
100
AcDbLine
 10
-254.4823747604237
 20
-402.1856242026703
 30
0.0
 11
335.5176252395785
 21
187.8143757973311
 31
0.0
  0
LINE
  5
1B4
330
1F
100
AcDbEntity
  8
0-0
  6
JWW_DASHED1
 62
   120
370
     5
100
AcDbLine
 10
-254.4823747604135
 20
-395.1145563907942
 30
0.0
 11
335.5176252395717
 21
194.8854436091918
 31
0.0
  0
LINE
  5
1B5
330
1F
100
AcDbEntity
  8
0-0
  6
JWW_DASHED1
 62
   120
370
     5
100
AcDbLine
 10
-254.4823747604084
 20
-388.0434885789762
 30
0.0
 11
335.5176252395768
 21
201.9565114210095
 31
0.0
  0
LINE
  5
1B6
330
1F
100
AcDbEntity
  8
0-0
  6
JWW_DASHED1
 62
   120
370
     5
100
AcDbLine
 10
-254.4823747604135
 20
-380.9724207671155
 30
0.0
 11
335.5176252395819
 21
209.0275792328804
 31
0.0
  0
LINE
  5
1B7
330
1F
100
AcDbEntity
  8
0-0
  6
JWW_DASHED1
 62
   120
370
     5
100
AcDbLine
 10
-254.4823747604203
 20
-373.9013529552548
 30
0.0
 11
335.5176252395649
 21
216.0986470447309
 31
0.0
  0
LINE
  5
1B8
330
1F
100
AcDbEntity
  8
0-0
  6
JWW_DASHED1
 62
   120
370
     5
100
AcDbLine
 10
-254.4823747604101
 20
-366.8302851433779
 30
0.0
 11
335.5176252395751
 21
223.1697148566078
 31
0.0
  0
LINE
  5
1B9
330
1F
100
AcDbEntity
  8
0-0
  6
JWW_DASHED1
 62
   120
370
     5
100
AcDbLine
 10
-254.4823747604169
 20
-359.7592173315167
 30
0.0
 11
335.5176252395802
 21
230.2407826684787
 31
0.0
  0
LINE
  5
1BA
330
1F
100
AcDbEntity
  8
0-0
  6
JWW_DASHED1
 62
   120
370
     5
100
AcDbLine
 10
-254.482374760422
 20
-352.6881495196565
 30
0.0
 11
335.5176252395785
 21
237.311850480345
 31
0.0
  0
LINE
  5
1BB
330
1F
100
AcDbEntity
  8
0-0
  6
JWW_DASHED1
 62
   120
370
     5
100
AcDbLine
 10
-254.4823747604118
 20
-345.6170817077796
 30
0.0
 11
335.5176252395734
 21
244.3829182922057
 31
0.0
  0
LINE
  5
1BC
330
1F
100
AcDbEntity
  8
0-0
  6
JWW_DASHED1
 62
   120
370
     5
100
AcDbLine
 10
-254.4823747604169
 20
-338.546013895918
 30
0.0
 11
335.5176252395785
 21
251.453986104077
 31
0.0
  0
LINE
  5
1BD
330
1F
100
AcDbEntity
  8
0-0
  6
JWW_DASHED1
 62
   120
370
     5
100
AcDbLine
 10
-254.4823747604237
 20
-331.4749460840582
 30
0.0
 11
335.5176252395785
 21
258.5250539159433
 31
0.0
  0
LINE
  5
1BE
330
1F
100
AcDbEntity
  8
0-0
  6
JWW_DASHED1
 62
   120
370
     5
100
AcDbLine
 10
-254.4823747604135
 20
-324.4038782721817
 30
0.0
 11
335.5176252395717
 21
265.596121727804
 31
0.0
  0
LINE
  5
1BF
330
1F
100
AcDbEntity
  8
0-0
  6
JWW_DASHED1
 62
   120
370
     5
100
AcDbLine
 10
-254.4823747604033
 20
-317.3328104603052
 30
0.0
 11
335.5176252395819
 21
272.6671895396805
 31
0.0
  0
LINE
  5
1C0
330
1F
100
AcDbEntity
  8
0-0
  6
JWW_DASHED1
 62
   120
370
     5
100
AcDbLine
 10
-254.4823747604254
 20
-310.2617426484599
 30
0.0
 11
335.5176252395751
 21
279.7382573515412
 31
0.0
  0
LINE
  5
1C1
330
1F
100
AcDbEntity
  8
0-0
  6
JWW_DASHED1
 62
   120
370
     5
100
AcDbLine
 10
-254.4823747604169
 20
-303.1906748365838
 30
0.0
 11
335.51762523957
 21
286.8093251634023
 31
0.0
  0
LINE
  5
1C2
330
1F
100
AcDbEntity
  8
0-0
  6
JWW_DASHED1
 62
   120
370
     5
100
AcDbLine
 10
-254.4823747604067
 20
-296.1196070247069
 30
0.0
 11
335.5176252395785
 21
293.8803929752788
 31
0.0
  0
LINE
  5
1C3
330
1F
100
AcDbEntity
  8
0-0
  6
JWW_DASHED1
 62
   120
370
     5
100
AcDbLine
 10
-254.4823747604254
 20
-289.0485392128599
 30
0.0
 11
335.5176252395854
 21
300.9514607871509
 31
0.0
  0
LINE
  5
1C4
330
1F
100
AcDbEntity
  8
0-0
  6
JWW_DASHED1
 62
   120
370
     5
100
AcDbLine
 10
-254.4823747604186
 20
-281.9774714009855
 30
0.0
 11
335.5176252395683
 21
308.0225285990002
 31
0.0
  0
LINE
  5
1C5
330
1F
100
AcDbEntity
  8
0-0
  6
JWW_DASHED1
 62
   120
370
     5
100
AcDbLine
 10
-254.4823747604084
 20
-274.906403589109
 30
0.0
 11
335.5176252395785
 21
315.0935964108766
 31
0.0
  0
LINE
  5
1C6
330
1F
100
AcDbEntity
  8
0-0
  6
JWW_DASHED1
 62
   120
370
     5
100
AcDbLine
 10
-254.4823747604118
 20
-267.8353357772462
 30
0.0
 11
335.5176252395837
 21
322.1646642227493
 31
0.0
  0
LINE
  5
1C7
330
1F
100
AcDbEntity
  8
0-0
  6
JWW_DASHED1
 62
   120
370
     5
100
AcDbLine
 10
-254.4823747604203
 20
-260.7642679653872
 30
0.0
 11
335.5176252395649
 21
329.2357320345985
 31
0.0
  0
LINE
  5
1C8
330
1F
100
AcDbEntity
  8
0-0
  6
JWW_DASHED1
 62
   120
370
     5
100
AcDbLine
 10
-254.4823747604101
 20
-253.6932001535112
 30
0.0
 11
335.5176252395751
 21
336.3067998464749
 31
0.0
  0
LINE
  5
1C9
330
1F
100
AcDbEntity
  8
0-0
  6
JWW_DASHED1
 62
   120
370
     5
100
AcDbLine
 10
-254.4823747604135
 20
-246.6221323416474
 30
0.0
 11
335.5176252395819
 21
343.377867658348
 31
0.0
  0
LINE
  5
1CA
330
1F
100
AcDbEntity
  8
0-0
  6
JWW_DASHED1
 62
   120
370
     5
100
AcDbLine
 10
-254.482374760422
 20
-239.5510645297893
 30
0.0
 11
335.5176252395649
 21
350.4489354701963
 31
0.0
  0
LINE
  5
1CB
330
1F
100
AcDbEntity
  8
0-0
  6
JWW_DASHED1
 62
   120
370
     5
100
AcDbLine
 10
-254.4823747604118
 20
-232.4799967179129
 30
0.0
 11
335.5176252395751
 21
357.5200032820732
 31
0.0
  0
LINE
  5
1CC
330
1F
100
AcDbEntity
  8
0-0
  6
JWW_DASHED1
 62
   120
370
     5
100
AcDbLine
 10
-254.4823747604152
 20
-225.4089289060487
 30
0.0
 11
335.5176252395802
 21
364.5910710939463
 31
0.0
  0
LINE
  5
1CD
330
1F
100
AcDbEntity
  8
0-0
  6
JWW_DASHED1
 62
   120
370
     5
100
AcDbLine
 10
-254.4823747604237
 20
-218.3378610941915
 30
0.0
 11
335.5176252395785
 21
371.6621389058104
 31
0.0
  0
LINE
  5
1CE
330
1F
100
AcDbEntity
  8
0-0
  6
JWW_DASHED1
 62
   120
370
     5
100
AcDbLine
 10
-254.4823747604135
 20
-211.2667932823146
 30
0.0
 11
335.5176252395717
 21
378.7332067176711
 31
0.0
  0
LINE
  5
1CF
330
1F
100
AcDbEntity
  8
0-0
  6
JWW_DASHED1
 62
   120
370
     5
100
AcDbLine
 10
-254.4823747604169
 20
-204.1957254704504
 30
0.0
 11
335.5176252395785
 21
385.804274529545
 31
0.0
  0
LINE
  5
1D0
330
1F
100
AcDbEntity
  8
0-0
  6
JWW_DASHED1
 62
   120
370
     5
100
AcDbLine
 10
-254.4823747604254
 20
-197.1246576585932
 30
0.0
 11
335.5176252395751
 21
392.8753423414083
 31
0.0
  0
LINE
  5
1D1
330
1F
100
AcDbEntity
  8
0-0
  6
JWW_DASHED1
 62
   120
370
     5
100
AcDbLine
 10
-254.4823747604152
 20
-190.0535898467162
 30
0.0
 11
335.51762523957
 21
399.9464101532694
 31
0.0
  0
LINE
  5
1D2
330
1F
100
AcDbEntity
  8
0-0
  6
JWW_DASHED1
 62
   120
370
     5
100
AcDbLine
 10
-254.4823747604067
 20
-182.9825220348397
 30
0.0
 11
335.5176252395802
 21
407.0174779651459
 31
0.0
  0
LINE
  5
1D3
330
1F
100
AcDbEntity
  8
0-0
  6
JWW_DASHED1
 62
   120
370
     5
100
AcDbLine
 10
-254.4823747604271
 20
-175.9114542229948
 30
0.0
 11
335.5176252395751
 21
414.0885457770066
 31
0.0
  0
LINE
  5
1D4
330
1F
100
AcDbEntity
  8
0-0
  6
JWW_DASHED1
 62
   120
370
     5
100
AcDbLine
 10
-254.4823747604169
 20
-168.8403864111183
 30
0.0
 11
335.5176252395683
 21
421.1596135888673
 31
0.0
  0
LINE
  5
1D5
330
1F
100
AcDbEntity
  8
0-0
  6
JWW_DASHED1
 62
   120
370
     5
100
AcDbLine
 10
-254.4823747604067
 20
-161.7693185992419
 30
0.0
 11
335.5176252395785
 21
428.2306814007442
 31
0.0
  0
LINE
  5
1D6
330
1F
100
AcDbEntity
  8
0-0
  6
JWW_DASHED1
 62
   120
370
     5
100
AcDbLine
 10
-254.4823747604118
 20
-154.6982507874059
 30
0.0
 11
335.5176252395837
 21
435.3017492125891
 31
0.0
  0
LINE
  5
1D7
330
1F
100
AcDbEntity
  8
0-0
  6
JWW_DASHED1
 62
   120
370
     5
100
AcDbLine
 10
-254.4823747604237
 20
-147.6271829755793
 30
0.0
 11
335.5176252395785
 21
442.3728170244225
 31
0.0
  0
LINE
  5
1D8
330
1F
100
AcDbEntity
  8
0-0
  6
JWW_DASHED1
 62
   120
370
     5
100
AcDbLine
 10
-254.4823747604135
 20
-140.5561151637024
 30
0.0
 11
335.5176252395717
 21
449.4438848362832
 31
0.0
  0
LINE
  5
1D9
330
1F
100
AcDbEntity
  8
0-0
  6
JWW_DASHED1
 62
   120
370
     5
100
AcDbLine
 10
-254.4823747604152
 20
-133.4850473518375
 30
0.0
 11
335.5176252395802
 21
456.514952648158
 31
0.0
  0
LINE
  5
1DA
330
1F
100
AcDbEntity
  8
0-0
  6
JWW_DASHED1
 62
   120
370
     5
100
AcDbLine
 10
-254.4823747604254
 20
-126.413979539981
 30
0.0
 11
335.5176252395751
 21
463.5860204600204
 31
0.0
  0
LINE
  5
1DB
330
1F
100
AcDbEntity
  8
0-0
  6
JWW_DASHED1
 62
   120
370
     5
100
AcDbLine
 10
-254.4823747604152
 20
-119.3429117281041
 30
0.0
 11
335.51762523957
 21
470.6570882718815
 31
0.0
  0
LINE
  5
1DC
330
1F
100
AcDbEntity
  8
0-0
  6
JWW_DASHED1
 62
   120
370
     5
100
AcDbLine
 10
-254.4823747604067
 20
-112.2718439162276
 30
0.0
 11
335.5176252395802
 21
477.728156083758
 31
0.0
  0
LINE
  5
1DD
330
1F
100
AcDbEntity
  8
0-0
  6
JWW_DASHED1
 62
   120
370
     5
100
AcDbLine
 10
-254.4823747604271
 20
-105.2007761043827
 30
0.0
 11
335.5176252395751
 21
484.7992238956187
 31
0.0
  0
LINE
  5
1DE
330
1F
100
AcDbEntity
  8
0-0
  6
JWW_DASHED1
 62
   120
370
     5
100
AcDbLine
 10
-254.4823747604169
 20
-98.12970829250624
 30
0.0
 11
335.5176252395683
 21
491.8702917074794
 31
0.0
  0
LINE
  5
1DF
330
1F
100
AcDbEntity
  8
0-0
  6
JWW_DASHED1
 62
   120
370
     5
100
AcDbLine
 10
-254.4823747604067
 20
-91.05864048062976
 30
0.0
 11
335.5176252395785
 21
498.9413595193563
 31
0.0
  0
LINE
  5
1E0
330
1F
100
AcDbEntity
  8
0-0
  6
JWW_DASHED1
 62
   120
370
     5
100
AcDbLine
 10
-254.4823747604237
 20
-83.9875726687793
 30
0.0
 11
335.5176252395871
 21
506.0124273312315
 31
0.0
  0
LINE
  5
1E1
330
1F
100
AcDbEntity
  8
0-0
  6
JWW_DASHED1
 62
   120
370
     5
100
AcDbLine
 10
-254.4823747604203
 20
-76.91650485690793
 30
0.0
 11
335.5176252395666
 21
513.0834951430777
 31
0.0
  0
LINE
  5
1E2
330
1F
100
AcDbEntity
  8
0-0
  6
JWW_DASHED1
 62
   120
370
     5
100
AcDbLine
 10
-254.4823747604101
 20
-69.84543704503146
 30
0.0
 11
335.5176252395768
 21
520.1545629549541
 31
0.0
  0
LINE
  5
1E3
330
1F
100
AcDbEntity
  8
0-0
  6
JWW_DASHED1
 62
   120
370
     5
100
AcDbLine
 10
-254.4823747604101
 20
-62.77436923316479
 30
0.0
 11
335.5176252395854
 21
527.2256307668302
 31
0.0
  0
LINE
  5
1E4
330
1F
100
AcDbEntity
  8
0-0
  6
JWW_DASHED1
 62
   120
370
     5
100
AcDbLine
 10
-254.4823747604203
 20
-55.70330142131006
 30
0.0
 11
335.5176252395649
 21
534.296698578676
 31
0.0
  0
LINE
  5
1E5
330
1F
100
AcDbEntity
  8
0-0
  6
JWW_DASHED1
 62
   120
370
     5
100
AcDbLine
 10
-254.4823747604101
 20
-48.63223360943316
 30
0.0
 11
335.5176252395751
 21
541.3677663905524
 31
0.0
  0
LINE
  5
1E6
330
1F
100
AcDbEntity
  8
0-0
  6
JWW_DASHED1
 62
   120
370
     5
100
AcDbLine
 10
-254.4823747604101
 20
-41.56116579756649
 30
0.0
 11
335.5176252395837
 21
548.4388342024286
 31
0.0
  0
LINE
  5
1E7
330
1F
100
AcDbEntity
  8
0-0
  6
JWW_DASHED1
 62
   120
370
     5
100
AcDbLine
 10
-254.4823747604237
 20
-34.49009798571176
 30
0.0
 11
335.5176252395632
 21
555.5099020142738
 31
0.0
  0
LINE
  5
1E8
330
1F
100
AcDbEntity
  8
0-0
  6
JWW_DASHED1
 62
   120
370
     5
100
AcDbLine
 10
-254.4823747604135
 20
-27.41903017383486
 30
0.0
 11
335.5176252395717
 21
562.5809698261507
 31
0.0
  0
LINE
  5
1E9
330
1F
100
AcDbEntity
  8
0-0
  6
JWW_DASHED1
 62
   120
370
     5
100
AcDbLine
 10
-254.4823747604135
 20
-20.34796236196819
 30
0.0
 11
335.5176252395819
 21
569.6520376380273
 31
0.0
  0
LINE
  5
1EA
330
1F
100
AcDbEntity
  8
0-0
  6
JWW_DASHED1
 62
   120
370
     5
100
AcDbLine
 10
-254.4823747604237
 20
-13.27689455011345
 30
0.0
 11
330.2544888206223
 21
571.4599690309334
 31
0.0
  0
LINE
  5
1EB
330
1F
100
AcDbEntity
  8
0-0
  6
JWW_DASHED1
 62
   120
370
     5
100
AcDbLine
 10
-254.4823747604152
 20
-6.205826738237405
 30
0.0
 11
323.1834210087607
 21
571.4599690309385
 31
0.0
  0
LINE
  5
1EC
330
1F
100
AcDbEntity
  8
0-0
  6
JWW_DASHED1
 62
   120
370
     5
100
AcDbLine
 10
-254.482374760405
 20
0.8652410736394955
 30
0.0
 11
316.1123531968838
 21
571.4599690309287
 31
0.0
  0
LINE
  5
1ED
330
1F
100
AcDbEntity
  8
0-0
  6
JWW_DASHED1
 62
   120
370
     5
100
AcDbLine
 10
-254.4823747604271
 20
7.936308885484848
 30
0.0
 11
309.041285385024
 21
571.4599690309351
 31
0.0
  0
LINE
  5
1EE
330
1F
100
AcDbEntity
  8
0-0
  6
JWW_DASHED1
 62
   120
370
     5
100
AcDbLine
 10
-254.4823747604169
 20
15.0073766973609
 30
0.0
 11
301.9702175731624
 21
571.4599690309402
 31
0.0
  0
LINE
  5
1EF
330
1F
100
AcDbEntity
  8
0-0
  6
JWW_DASHED1
 62
   120
370
     5
100
AcDbLine
 10
-254.4823747604067
 20
22.0784445092378
 30
0.0
 11
294.8991497612855
 21
571.45996903093
 31
0.0
  0
LINE
  5
1F0
330
1F
100
AcDbEntity
  8
0-0
  6
JWW_DASHED1
 62
   120
370
     5
100
AcDbLine
 10
-254.4823747604289
 20
29.1495123210823
 30
0.0
 11
287.8280819494257
 21
571.4599690309368
 31
0.0
  0
LINE
  5
1F1
330
1F
100
AcDbEntity
  8
0-0
  6
JWW_DASHED1
 62
   120
370
     5
100
AcDbLine
 10
-254.4823747604186
 20
36.2205801329592
 30
0.0
 11
280.7570141375624
 21
571.4599690309415
 31
0.0
  0
LINE
  5
1F2
330
1F
100
AcDbEntity
  8
0-0
  6
JWW_DASHED1
 62
   120
370
     5
100
AcDbLine
 10
-254.4823747604101
 20
43.29164794483567
 30
0.0
 11
273.6859463256855
 21
571.4599690309309
 31
0.0
  0
LINE
  5
1F3
330
1F
100
AcDbEntity
  8
0-0
  6
JWW_DASHED1
 62
   120
370
     5
100
AcDbLine
 10
-254.4823747604237
 20
50.36271575668827
 30
0.0
 11
266.614878513812
 21
571.4599690309232
 31
0.0
  0
LINE
  5
1F4
330
1F
100
AcDbEntity
  8
0-0
  6
JWW_DASHED1
 62
   120
370
     5
100
AcDbLine
 10
-254.4823747604203
 20
57.4337835685575
 30
0.0
 11
259.5438107019658
 21
571.4599690309428
 31
0.0
  0
LINE
  5
1F5
330
1F
100
AcDbEntity
  8
0-0
  6
JWW_DASHED1
 62
   120
370
     5
100
AcDbLine
 10
-254.4823747604101
 20
64.5048513804344
 30
0.0
 11
252.4727428900889
 21
571.4599690309326
 31
0.0
  0
LINE
  5
1F6
330
1F
100
AcDbEntity
  8
0-0
  6
JWW_DASHED1
 62
   120
370
     5
100
AcDbLine
 10
-254.4823747604084
 20
71.57591919230278
 30
0.0
 11
245.401675078212
 21
571.4599690309224
 31
0.0
  0
LINE
  5
1F7
330
1F
100
AcDbEntity
  8
0-0
  6
JWW_DASHED1
 62
   120
370
     5
100
AcDbLine
 10
-254.482374760422
 20
78.6469870041558
 30
0.0
 11
238.3306072663658
 21
571.4599690309436
 31
0.0
  0
LINE
  5
1F8
330
1F
100
AcDbEntity
  8
0-0
  6
JWW_DASHED1
 62
   120
370
     5
100
AcDbLine
 10
-254.4823747604135
 20
85.71805481603185
 30
0.0
 11
231.2595394544889
 21
571.4599690309334
 31
0.0
  0
LINE
  5
1F9
330
1F
100
AcDbEntity
  8
0-0
  6
JWW_DASHED1
 62
   120
370
     5
100
AcDbLine
 10
-254.4823747604135
 20
92.78912262787124
 30
0.0
 11
224.1884716426427
 21
571.4599690309258
 31
0.0
  0
LINE
  5
1FA
330
1F
100
AcDbEntity
  8
0-0
  6
JWW_DASHED1
 62
   120
370
     5
100
AcDbLine
 10
-254.4823747604289
 20
99.86019043969442
 30
0.0
 11
217.1174038308135
 21
571.4599690309368
 31
0.0
  0
LINE
  5
1FB
330
1F
100
AcDbEntity
  8
0-0
  6
JWW_DASHED1
 62
   120
370
     5
100
AcDbLine
 10
-254.4823747604186
 20
106.9312582515713
 30
0.0
 11
210.0463360189503
 21
571.4599690309394
 31
0.0
  0
LINE
  5
1FC
330
1F
100
AcDbEntity
  8
0-0
  6
JWW_DASHED1
 62
   120
370
     5
100
AcDbLine
 10
-254.4823747604101
 20
114.0023260634478
 30
0.0
 11
202.9752682070734
 21
571.4599690309292
 31
0.0
  0
LINE
  5
1FD
330
1F
100
AcDbEntity
  8
0-0
  6
JWW_DASHED1
 62
   120
370
     5
100
AcDbLine
 10
-254.482374760422
 20
121.0733938753012
 30
0.0
 11
195.9042003951999
 21
571.4599690309232
 31
0.0
  0
LINE
  5
1FE
330
1F
100
AcDbEntity
  8
0-0
  6
JWW_DASHED1
 62
   120
370
     5
100
AcDbLine
 10
-254.4823747604203
 20
128.1444616871696
 30
0.0
 11
188.8331325833503
 21
571.4599690309411
 31
0.0
  0
LINE
  5
1FF
330
1F
100
AcDbEntity
  8
0-0
  6
JWW_DASHED1
 62
   120
370
     5
100
AcDbLine
 10
-254.4823747604101
 20
135.2155294990461
 30
0.0
 11
181.7620647714734
 21
571.4599690309309
 31
0.0
  0
LINE
  5
200
330
1F
100
AcDbEntity
  8
0-0
  6
JWW_DASHED1
 62
   120
370
     5
100
AcDbLine
 10
-254.4823747604084
 20
142.2865973109157
 30
0.0
 11
174.6909969595965
 21
571.4599690309207
 31
0.0
  0
LINE
  5
201
330
1F
100
AcDbEntity
  8
0-0
  6
JWW_DASHED1
 62
   120
370
     5
100
AcDbLine
 10
-254.4823747604237
 20
149.3576651227675
 30
0.0
 11
167.619929147752
 21
571.4599690309424
 31
0.0
  0
LINE
  5
202
330
1F
100
AcDbEntity
  8
0-0
  6
JWW_DASHED1
 62
   120
370
     5
100
AcDbLine
 10
-254.4823747604135
 20
156.428732934644
 30
0.0
 11
160.5488613358751
 21
571.4599690309317
 31
0.0
  0
LINE
  5
203
330
1F
100
AcDbEntity
  8
0-0
  6
JWW_DASHED1
 62
   120
370
     5
100
AcDbLine
 10
-254.4823747604101
 20
163.499800746514
 30
0.0
 11
153.4777935239982
 21
571.4599690309215
 31
0.0
  0
LINE
  5
204
330
1F
100
AcDbEntity
  8
0-0
  6
JWW_DASHED1
 62
   120
370
     5
100
AcDbLine
 10
-254.4823747604237
 20
170.5708685583658
 30
0.0
 11
146.4067257121434
 21
571.4599690309326
 31
0.0
  0
LINE
  5
205
330
1F
100
AcDbEntity
  8
0-0
  6
JWW_DASHED1
 62
   120
370
     5
100
AcDbLine
 10
-254.4823747604135
 20
177.6419363702423
 30
0.0
 11
139.3356579002768
 21
571.4599690309334
 31
0.0
  0
LINE
  5
206
330
1F
100
AcDbEntity
  8
0-0
  6
JWW_DASHED1
 62
   120
370
     5
100
AcDbLine
 10
-254.4823747604101
 20
184.7130041821128
 30
0.0
 11
132.2645900883999
 21
571.4599690309232
 31
0.0
  0
LINE
  5
207
330
1F
100
AcDbEntity
  8
0-0
  6
JWW_DASHED1
 62
   120
370
     5
100
AcDbLine
 10
-254.4823747604271
 20
191.7840719939641
 30
0.0
 11
125.1935222765434
 21
571.4599690309346
 31
0.0
  0
LINE
  5
208
330
1F
100
AcDbEntity
  8
0-0
  6
JWW_DASHED1
 62
   120
370
     5
100
AcDbLine
 10
-254.4823747604169
 20
198.8551398058406
 30
0.0
 11
118.1224544646768
 21
571.4599690309346
 31
0.0
  0
LINE
  5
209
330
1F
100
AcDbEntity
  8
0-0
  6
JWW_DASHED1
 62
   120
370
     5
100
AcDbLine
 10
-254.4823747604067
 20
205.9262076177171
 30
0.0
 11
111.0513866527999
 21
571.4599690309241
 31
0.0
  0
LINE
  5
20A
330
1F
100
AcDbEntity
  8
0-0
  6
JWW_DASHED1
 62
   120
370
     5
100
AcDbLine
 10
-254.4823747604271
 20
212.997275429562
 30
0.0
 11
103.9803188409469
 21
571.459969030936
 31
0.0
  0
LINE
  5
20B
330
1F
100
AcDbEntity
  8
0-0
  6
JWW_DASHED1
 62
   120
370
     5
100
AcDbLine
 10
-254.4823747604186
 20
220.0683432414385
 30
0.0
 11
96.90925102908018
 21
571.459969030936
 31
0.0
  0
LINE
  5
20C
330
1F
100
AcDbEntity
  8
0-0
  6
JWW_DASHED1
 62
   120
370
     5
100
AcDbLine
 10
-254.4823747604084
 20
227.1394110533154
 30
0.0
 11
89.83818321720328
 21
571.4599690309258
 31
0.0
  0
LINE
  5
20D
330
1F
100
AcDbEntity
  8
0-0
  6
JWW_DASHED1
 62
   120
370
     5
100
AcDbLine
 10
-254.4823747604203
 20
234.2104788651705
 30
0.0
 11
82.7671154053332
 21
571.4599690309227
 31
0.0
  0
LINE
  5
20E
330
1F
100
AcDbEntity
  8
0-0
  6
JWW_DASHED1
 62
   120
370
     5
100
AcDbLine
 10
-254.4823747604203
 20
241.2815466770368
 30
0.0
 11
75.69604759348017
 21
571.4599690309373
 31
0.0
  0
LINE
  5
20F
330
1F
100
AcDbEntity
  8
0-0
  6
JWW_DASHED1
 62
   120
370
     5
100
AcDbLine
 10
-254.4823747604101
 20
248.3526144889132
 30
0.0
 11
68.62497978160327
 21
571.4599690309275
 31
0.0
  0
LINE
  5
210
330
1F
100
AcDbEntity
  8
0-0
  6
JWW_DASHED1
 62
   120
370
     5
100
AcDbLine
 10
-254.4823747604067
 20
255.4236823007846
 30
0.0
 11
61.55391196972637
 21
571.4599690309173
 31
0.0
  0
LINE
  5
211
330
1F
100
AcDbEntity
  8
0-0
  6
JWW_DASHED1
 62
   120
370
     5
100
AcDbLine
 10
-254.482374760422
 20
262.4947501126351
 30
0.0
 11
54.48284415788187
 21
571.4599690309385
 31
0.0
  0
LINE
  5
212
330
1F
100
AcDbEntity
  8
0-0
  6
JWW_DASHED1
 62
   120
370
     5
100
AcDbLine
 10
-254.4823747604118
 20
269.5658179245115
 30
0.0
 11
47.41177634600497
 21
571.4599690309287
 31
0.0
  0
LINE
  5
213
330
1F
100
AcDbEntity
  8
0-0
  6
JWW_DASHED1
 62
   120
370
     5
100
AcDbLine
 10
-254.4823747604067
 20
276.6368857363833
 30
0.0
 11
40.34070853412807
 21
571.4599690309185
 31
0.0
  0
LINE
  5
214
330
1F
100
AcDbEntity
  8
0-0
  6
JWW_DASHED1
 62
   120
370
     5
100
AcDbLine
 10
-254.4823747604237
 20
283.7079535482329
 30
0.0
 11
33.26964072228357
 21
571.4599690309398
 31
0.0
  0
LINE
  5
215
330
1F
100
AcDbEntity
  8
0-0
  6
JWW_DASHED1
 62
   120
370
     5
100
AcDbLine
 10
-254.4823747604135
 20
290.7790213601094
 30
0.0
 11
26.19857291040667
 21
571.45996903093
 31
0.0
  0
LINE
  5
216
330
1F
100
AcDbEntity
  8
0-0
  6
JWW_DASHED1
 62
   120
370
     5
100
AcDbLine
 10
-254.4823747604084
 20
297.8500891719816
 30
0.0
 11
19.12750509852977
 21
571.4599690309198
 31
0.0
  0
LINE
  5
217
330
1F
100
AcDbEntity
  8
0-0
  6
JWW_DASHED1
 62
   120
370
     5
100
AcDbLine
 10
-254.4823747604254
 20
304.9211569838312
 30
0.0
 11
12.05643728667674
 21
571.4599690309343
 31
0.0
  0
LINE
  5
218
330
1F
100
AcDbEntity
  8
0-0
  6
JWW_DASHED1
 62
   120
370
     5
100
AcDbLine
 10
-254.4823747604152
 20
311.9922247957077
 30
0.0
 11
4.98536947480666
 21
571.4599690309309
 31
0.0
  0
LINE
  5
219
330
1F
100
AcDbEntity
  8
0-0
  6
JWW_DASHED1
 62
   120
370
     5
100
AcDbLine
 10
-254.4823747604101
 20
319.0632926075804
 30
0.0
 11
-2.085698337070241
 21
571.459969030921
 31
0.0
  0
LINE
  5
21A
330
1F
100
AcDbEntity
  8
0-0
  6
JWW_DASHED1
 62
   120
370
     5
100
AcDbLine
 10
-254.4823747604135
 20
326.1343604194155
 30
0.0
 11
-9.156766148899393
 21
571.4599690309292
 31
0.0
  0
LINE
  5
21B
330
1F
100
AcDbEntity
  8
0-0
  6
JWW_DASHED1
 62
   120
370
     5
100
AcDbLine
 10
-254.482374760422
 20
333.2054282312472
 30
0.0
 11
-16.22783396073196
 21
571.4599690309368
 31
0.0
  0
LINE
  5
21C
330
1F
100
AcDbEntity
  8
0-0
  6
JWW_DASHED1
 62
   120
370
     5
100
AcDbLine
 10
-254.4823747604118
 20
340.2764960431236
 30
0.0
 11
-23.29890177260886
 21
571.4599690309266
 31
0.0
  0
LINE
  5
21D
330
1F
100
AcDbEntity
  8
0-0
  6
JWW_DASHED1
 62
   120
370
     5
100
AcDbLine
 10
-254.4823747604067
 20
347.3475638549967
 30
0.0
 11
-30.36996958448576
 21
571.4599690309168
 31
0.0
  0
LINE
  5
21E
330
1F
100
AcDbEntity
  8
0-0
  6
JWW_DASHED1
 62
   120
370
     5
100
AcDbLine
 10
-254.4823747604237
 20
354.418631666845
 30
0.0
 11
-37.44103739633196
 21
571.459969030938
 31
0.0
  0
LINE
  5
21F
330
1F
100
AcDbEntity
  8
0-0
  6
JWW_DASHED1
 62
   120
370
     5
100
AcDbLine
 10
-254.4823747604135
 20
361.4896994787215
 30
0.0
 11
-44.51210520820887
 21
571.4599690309278
 31
0.0
  0
LINE
  5
220
330
1F
100
AcDbEntity
  8
0-0
  6
JWW_DASHED1
 62
   120
370
     5
100
AcDbLine
 10
-254.4823747604067
 20
368.5607672905954
 30
0.0
 11
-51.58317302008406
 21
571.459969030918
 31
0.0
  0
LINE
  5
221
330
1F
100
AcDbEntity
  8
0-0
  6
JWW_DASHED1
 62
   120
370
     5
100
AcDbLine
 10
-254.4823747604254
 20
375.6318351024433
 30
0.0
 11
-58.65424083193538
 21
571.4599690309343
 31
0.0
  0
LINE
  5
222
330
1F
100
AcDbEntity
  8
0-0
  6
JWW_DASHED1
 62
   120
370
     5
100
AcDbLine
 10
-254.4823747604152
 20
382.7029029143202
 30
0.0
 11
-65.72530864380546
 21
571.4599690309292
 31
0.0
  0
LINE
  5
223
330
1F
100
AcDbEntity
  8
0-0
  6
JWW_DASHED1
 62
   120
370
     5
100
AcDbLine
 10
-254.4823747604084
 20
389.7739707261933
 30
0.0
 11
-72.79637645568236
 21
571.4599690309193
 31
0.0
  0
LINE
  5
224
330
1F
100
AcDbEntity
  8
0-0
  6
JWW_DASHED1
 62
   120
370
     5
100
AcDbLine
 10
-254.4823747604271
 20
396.8450385380413
 30
0.0
 11
-79.86744426753198
 21
571.459969030936
 31
0.0
  0
LINE
  5
225
330
1F
100
AcDbEntity
  8
0-0
  6
JWW_DASHED1
 62
   120
370
     5
100
AcDbLine
 10
-254.4823747604169
 20
403.9161063499177
 30
0.0
 11
-86.93851207940547
 21
571.4599690309309
 31
0.0
  0
LINE
  5
226
330
1F
100
AcDbEntity
  8
0-0
  6
JWW_DASHED1
 62
   120
370
     5
100
AcDbLine
 10
-254.4823747604067
 20
410.9871741617946
 30
0.0
 11
-94.00957989128237
 21
571.4599690309207
 31
0.0
  0
LINE
  5
227
330
1F
100
AcDbEntity
  8
0-0
  6
JWW_DASHED1
 62
   120
370
     5
100
AcDbLine
 10
-254.4823747604289
 20
418.05824197364
 30
0.0
 11
-101.080647703132
 21
571.459969030938
 31
0.0
  0
LINE
  5
228
330
1F
100
AcDbEntity
  8
0-0
  6
JWW_DASHED1
 62
   120
370
     5
100
AcDbLine
 10
-254.4823747604203
 20
425.129309785516
 30
0.0
 11
-108.1517155150038
 21
571.4599690309317
 31
0.0
  0
LINE
  5
229
330
1F
100
AcDbEntity
  8
0-0
  6
JWW_DASHED1
 62
   120
370
     5
100
AcDbLine
 10
-254.4823747604101
 20
432.2003775973925
 30
0.0
 11
-115.2227833268807
 21
571.4599690309219
 31
0.0
  0
LINE
  5
22A
330
1F
100
AcDbEntity
  8
0-0
  6
JWW_DASHED1
 62
   120
370
     5
100
AcDbLine
 10
-254.4823747604169
 20
439.2714454092515
 30
0.0
 11
-122.2938511387456
 21
571.4599690309241
 31
0.0
  0
LINE
  5
22B
330
1F
100
AcDbEntity
  8
0-0
  6
JWW_DASHED1
 62
   120
370
     5
100
AcDbLine
 10
-254.4823747604203
 20
446.3425132211143
 30
0.0
 11
-129.3649189506021
 21
571.4599690309334
 31
0.0
  0
LINE
  5
22C
330
1F
100
AcDbEntity
  8
0-0
  6
JWW_DASHED1
 62
   120
370
     5
100
AcDbLine
 10
-254.4823747604118
 20
453.4135810329908
 30
0.0
 11
-136.435986762479
 21
571.4599690309232
 31
0.0
  0
LINE
  5
22D
330
1F
100
AcDbEntity
  8
0-0
  6
JWW_DASHED1
 62
   120
370
     5
100
AcDbLine
 10
-254.4823747604033
 20
460.4846488448655
 30
0.0
 11
-143.5070545743559
 21
571.4599690309129
 31
0.0
  0
LINE
  5
22E
330
1F
100
AcDbEntity
  8
0-0
  6
JWW_DASHED1
 62
   120
370
     5
100
AcDbLine
 10
-254.4823747604237
 20
467.5557166567122
 30
0.0
 11
-150.5781223862021
 21
571.4599690309343
 31
0.0
  0
LINE
  5
22F
330
1F
100
AcDbEntity
  8
0-0
  6
JWW_DASHED1
 62
   120
370
     5
100
AcDbLine
 10
-254.4823747604135
 20
474.6267844685891
 30
0.0
 11
-157.649190198079
 21
571.4599690309241
 31
0.0
  0
LINE
  5
230
330
1F
100
AcDbEntity
  8
0-0
  6
JWW_DASHED1
 62
   120
370
     5
100
AcDbLine
 10
-254.482374760405
 20
481.6978522804643
 30
0.0
 11
-164.7202580099559
 21
571.4599690309142
 31
0.0
  0
LINE
  5
231
330
1F
100
AcDbEntity
  8
0-0
  6
JWW_DASHED1
 62
   120
370
     5
100
AcDbLine
 10
-254.4823747604254
 20
488.7689200923105
 30
0.0
 11
-171.7913258218021
 21
571.4599690309338
 31
0.0
  0
LINE
  5
232
330
1F
100
AcDbEntity
  8
0-0
  6
JWW_DASHED1
 62
   120
370
     5
100
AcDbLine
 10
-254.4823747604152
 20
495.839987904187
 30
0.0
 11
-178.8623936336756
 21
571.4599690309258
 31
0.0
  0
LINE
  5
233
330
1F
100
AcDbEntity
  8
0-0
  6
JWW_DASHED1
 62
   120
370
     5
100
AcDbLine
 10
-254.4823747604067
 20
502.9110557160626
 30
0.0
 11
-185.9334614455525
 21
571.4599690309155
 31
0.0
  0
LINE
  5
234
330
1F
100
AcDbEntity
  8
0-0
  6
JWW_DASHED1
 62
   120
370
     5
100
AcDbLine
 10
-254.4823747604271
 20
509.9821235279088
 30
0.0
 11
-193.0045292574004
 21
571.4599690309351
 31
0.0
  0
LINE
  5
235
330
1F
100
AcDbEntity
  8
0-0
  6
JWW_DASHED1
 62
   120
370
     5
100
AcDbLine
 10
-254.4823747604169
 20
517.0531913397853
 30
0.0
 11
-200.0755970692756
 21
571.459969030927
 31
0.0
  0
LINE
  5
236
330
1F
100
AcDbEntity
  8
0-0
  6
JWW_DASHED1
 62
   120
370
     5
100
AcDbLine
 10
-254.4823747604067
 20
524.1242591516617
 30
0.0
 11
-207.1466648811525
 21
571.4599690309163
 31
0.0
  0
LINE
  5
237
330
1F
100
AcDbEntity
  8
0-0
  6
JWW_DASHED1
 62
   120
370
     5
100
AcDbLine
 10
-254.4823747604289
 20
531.1953269635067
 30
0.0
 11
-214.2177326929987
 21
571.4599690309373
 31
0.0
  0
LINE
  5
238
330
1F
100
AcDbEntity
  8
0-0
  6
JWW_DASHED1
 62
   120
370
     5
100
AcDbLine
 10
-254.4823747604186
 20
538.2663947753836
 30
0.0
 11
-221.2888005048739
 21
571.4599690309283
 31
0.0
  0
LINE
  5
239
330
1F
100
AcDbEntity
  8
0-0
  6
JWW_DASHED1
 62
   120
370
     5
100
AcDbLine
 10
-254.4823747604101
 20
545.33746258726
 30
0.0
 11
-228.3598683167508
 21
571.4599690309185
 31
0.0
  0
LINE
  5
23A
330
1F
100
AcDbEntity
  8
0-0
  6
JWW_DASHED1
 62
   120
370
     5
100
AcDbLine
 10
-254.4823747604152
 20
552.4085303991203
 30
0.0
 11
-235.4309361286124
 21
571.4599690309232
 31
0.0
  0
LINE
  5
23B
330
1F
100
AcDbEntity
  8
0-0
  6
JWW_DASHED1
 62
   120
370
     5
100
AcDbLine
 10
-254.4823747604203
 20
559.4795982109814
 30
0.0
 11
-242.5020039404722
 21
571.4599690309292
 31
0.0
  0
LINE
  5
23C
330
1F
100
AcDbEntity
  8
0-0
  6
JWW_DASHED1
 62
   120
370
     5
100
AcDbLine
 10
-254.4823747604101
 20
566.550666022858
 30
0.0
 11
-249.5730717523491
 21
571.4599690309198
 31
0.0
  0
LINE
  5
23D
330
1F
100
AcDbEntity
  8
0-0
  6
JWW_DASHED1
 62
   120
370
     5
100
AcDbLine
 10
69.43233781899217
 20
-403.5400309690662
 30
0.0
 11
335.5176252395717
 21
-137.4547435484857
 31
0.0
  0
LINE
  5
23E
330
1F
100
AcDbEntity
  8
0-0
  6
Continuous
 62
    92
370
    13
100
AcDbLine
 10
-254.4823747604169
 20
-533.5400309690758
 30
0.0
 11
335.5176252395854
 21
-533.5400309690758
 31
0.0
  0
LINE
  5
23F
330
1F
100
AcDbEntity
  8
0-0
  6
Continuous
 62
    92
370
    13
100
AcDbLine
 10
525.5176252395831
 20
-403.540030969076
 30
0.0
 11
1115.517625239585
 21
-403.540030969076
 31
0.0
  0
LINE
  5
240
330
1F
100
AcDbEntity
  8
0-0
  6
JWW_DASHED1
 62
   120
370
     5
100
AcDbLine
 10
1111.061846858011
 20
-403.5400309690598
 30
0.0
 11
1115.517625239568
 21
-399.0842525875013
 31
0.0
  0
LINE
  5
241
330
1F
100
AcDbEntity
  8
0-0
  6
JWW_DASHED1
 62
   120
370
     5
100
AcDbLine
 10
1103.990779046134
 20
-403.5400309690704
 30
0.0
 11
1115.517625239579
 21
-392.0131847756249
 31
0.0
  0
LINE
  5
242
330
1F
100
AcDbEntity
  8
0-0
  6
JWW_DASHED1
 62
   120
370
     5
100
AcDbLine
 10
1096.919711234273
 20
-403.5400309690644
 30
0.0
 11
1115.517625239573
 21
-384.9421169637637
 31
0.0
  0
LINE
  5
243
330
1F
100
AcDbEntity
  8
0-0
  6
JWW_DASHED1
 62
   120
370
     5
100
AcDbLine
 10
1089.848643422411
 20
-403.5400309690589
 30
0.0
 11
1115.517625239568
 21
-377.871049151903
 31
0.0
  0
LINE
  5
244
330
1F
100
AcDbEntity
  8
0-0
  6
JWW_DASHED1
 62
   120
370
     5
100
AcDbLine
 10
1082.777575610534
 20
-403.5400309690692
 30
0.0
 11
1115.517625239579
 21
-370.7999813400266
 31
0.0
  0
LINE
  5
245
330
1F
100
AcDbEntity
  8
0-0
  6
JWW_DASHED1
 62
   120
370
     5
100
AcDbLine
 10
1075.706507798674
 20
-403.5400309690632
 30
0.0
 11
1115.517625239572
 21
-363.728913528165
 31
0.0
  0
LINE
  5
246
330
1F
100
AcDbEntity
  8
0-0
  6
JWW_DASHED1
 62
   120
370
     5
100
AcDbLine
 10
1068.635439986798
 20
-403.5400309690721
 30
0.0
 11
1115.517625239582
 21
-356.6578457162894
 31
0.0
  0
LINE
  5
247
330
1F
100
AcDbEntity
  8
0-0
  6
JWW_DASHED1
 62
   120
370
     5
100
AcDbLine
 10
1061.564372174936
 20
-403.5400309690675
 30
0.0
 11
1115.517625239575
 21
-349.5867779044287
 31
0.0
  0
LINE
  5
248
330
1F
100
AcDbEntity
  8
0-0
  6
JWW_DASHED1
 62
   120
370
     5
100
AcDbLine
 10
1054.493304363076
 20
-403.5400309690615
 30
0.0
 11
1115.517625239572
 21
-342.5157100925667
 31
0.0
  0
LINE
  5
249
330
1F
100
AcDbEntity
  8
0-0
  6
JWW_DASHED1
 62
   120
370
     5
100
AcDbLine
 10
1047.422236551201
 20
-403.54003096907
 30
0.0
 11
1115.517625239579
 21
-335.4446422806911
 31
0.0
  0
LINE
  5
24A
330
1F
100
AcDbEntity
  8
0-0
  6
JWW_DASHED1
 62
   120
370
     5
100
AcDbLine
 10
1040.351168739338
 20
-403.5400309690662
 30
0.0
 11
1115.517625239573
 21
-328.3735744688304
 31
0.0
  0
LINE
  5
24B
330
1F
100
AcDbEntity
  8
0-0
  6
JWW_DASHED1
 62
   120
370
     5
100
AcDbLine
 10
1033.280100927461
 20
-403.540030969076
 30
0.0
 11
1115.517625239584
 21
-321.3025066569539
 31
0.0
  0
LINE
  5
24C
330
1F
100
AcDbEntity
  8
0-0
  6
JWW_DASHED1
 62
   120
370
     5
100
AcDbLine
 10
1026.209033115603
 20
-403.5400309690683
 30
0.0
 11
1115.517625239579
 21
-314.2314388450932
 31
0.0
  0
LINE
  5
24D
330
1F
100
AcDbEntity
  8
0-0
  6
JWW_DASHED1
 62
   120
370
     5
100
AcDbLine
 10
1019.137965303739
 20
-403.5400309690649
 30
0.0
 11
1115.517625239572
 21
-307.1603710332321
 31
0.0
  0
LINE
  5
24E
330
1F
100
AcDbEntity
  8
0-0
  6
JWW_DASHED1
 62
   120
370
     5
100
AcDbLine
 10
1012.066897491863
 20
-403.5400309690751
 30
0.0
 11
1115.517625239582
 21
-300.0893032213556
 31
0.0
  0
LINE
  5
24F
330
1F
100
AcDbEntity
  8
0-0
  6
JWW_DASHED1
 62
   120
370
     5
100
AcDbLine
 10
1004.995829680004
 20
-403.5400309690666
 30
0.0
 11
1115.517625239579
 21
-293.0182354094932
 31
0.0
  0
LINE
  5
250
330
1F
100
AcDbEntity
  8
0-0
  6
JWW_DASHED1
 62
   120
370
     5
100
AcDbLine
 10
997.9247618681854
 20
-403.5400309690721
 30
0.0
 11
1115.517625239582
 21
-285.9471675976773
 31
0.0
  0
LINE
  5
251
330
1F
100
AcDbEntity
  8
0-0
  6
JWW_DASHED1
 62
   120
370
     5
100
AcDbLine
 10
990.8536940563222
 20
-403.5400309690696
 30
0.0
 11
1115.517625239575
 21
-278.8760997858166
 31
0.0
  0
LINE
  5
252
330
1F
100
AcDbEntity
  8
0-0
  6
JWW_DASHED1
 62
   120
370
     5
100
AcDbLine
 10
983.7826262444623
 20
-403.5400309690636
 30
0.0
 11
1115.517625239572
 21
-271.8050319739533
 31
0.0
  0
LINE
  5
253
330
1F
100
AcDbEntity
  8
0-0
  6
JWW_DASHED1
 62
   120
370
     5
100
AcDbLine
 10
976.7115584325888
 20
-403.54003096907
 30
0.0
 11
1115.517625239579
 21
-264.733964162079
 31
0.0
  0
LINE
  5
254
330
1F
100
AcDbEntity
  8
0-0
  6
JWW_DASHED1
 62
   120
370
     5
100
AcDbLine
 10
969.6404906207239
 20
-403.5400309690683
 30
0.0
 11
1115.517625239573
 21
-257.6628963502183
 31
0.0
  0
LINE
  5
255
330
1F
100
AcDbEntity
  8
0-0
  6
JWW_DASHED1
 62
   120
370
     5
100
AcDbLine
 10
962.569422808847
 20
-403.5400309690781
 30
0.0
 11
1115.517625239584
 21
-250.5918285383418
 31
0.0
  0
LINE
  5
256
330
1F
100
AcDbEntity
  8
0-0
  6
JWW_DASHED1
 62
   120
370
     5
100
AcDbLine
 10
955.4983549969905
 20
-403.5400309690683
 30
0.0
 11
1115.517625239579
 21
-243.5207607264811
 31
0.0
  0
LINE
  5
257
330
1F
100
AcDbEntity
  8
0-0
  6
JWW_DASHED1
 62
   120
370
     5
100
AcDbLine
 10
948.4272871851256
 20
-403.5400309690666
 30
0.0
 11
1115.517625239572
 21
-236.44969291462
 31
0.0
  0
LINE
  5
258
330
1F
100
AcDbEntity
  8
0-0
  6
JWW_DASHED1
 62
   120
370
     5
100
AcDbLine
 10
941.3562193732487
 20
-403.5400309690768
 30
0.0
 11
1115.517625239582
 21
-229.3786251027435
 31
0.0
  0
LINE
  5
259
330
1F
100
AcDbEntity
  8
0-0
  6
JWW_DASHED1
 62
   120
370
     5
100
AcDbLine
 10
934.2851515613922
 20
-403.5400309690666
 30
0.0
 11
1115.517625239579
 21
-222.3075572908798
 31
0.0
  0
LINE
  5
25A
330
1F
100
AcDbEntity
  8
0-0
  6
JWW_DASHED1
 62
   120
370
     5
100
AcDbLine
 10
927.2140837495256
 20
-403.5400309690658
 30
0.0
 11
1115.51762523957
 21
-215.2364894790221
 31
0.0
  0
LINE
  5
25B
330
1F
100
AcDbEntity
  8
0-0
  6
JWW_DASHED1
 62
   120
370
     5
100
AcDbLine
 10
920.1430159376504
 20
-403.5400309690751
 30
0.0
 11
1115.51762523958
 21
-208.1654216671452
 31
0.0
  0
LINE
  5
25C
330
1F
100
AcDbEntity
  8
0-0
  6
JWW_DASHED1
 62
   120
370
     5
100
AcDbLine
 10
913.0719481257888
 20
-403.54003096907
 30
0.0
 11
1115.517625239577
 21
-201.0943538552815
 31
0.0
  0
LINE
  5
25D
330
1F
100
AcDbEntity
  8
0-0
  6
JWW_DASHED1
 62
   120
370
     5
100
AcDbLine
 10
906.0008803139273
 20
-403.5400309690644
 30
0.0
 11
1115.517625239568
 21
-194.0232860434238
 31
0.0
  0
LINE
  5
25E
330
1F
100
AcDbEntity
  8
0-0
  6
JWW_DASHED1
 62
   120
370
     5
100
AcDbLine
 10
898.9298125020521
 20
-403.5400309690743
 30
0.0
 11
1115.517625239579
 21
-186.9522182315473
 31
0.0
  0
LINE
  5
25F
330
1F
100
AcDbEntity
  8
0-0
  6
JWW_DASHED1
 62
   120
370
     5
100
AcDbLine
 10
891.8587446901905
 20
-403.5400309690683
 30
0.0
 11
1115.517625239575
 21
-179.8811504196828
 31
0.0
  0
LINE
  5
260
330
1F
100
AcDbEntity
  8
0-0
  6
JWW_DASHED1
 62
   120
370
     5
100
AcDbLine
 10
884.787676878329
 20
-403.5400309690632
 30
0.0
 11
1115.517625239565
 21
-172.8100826078259
 31
0.0
  0
LINE
  5
261
330
1F
100
AcDbEntity
  8
0-0
  6
JWW_DASHED1
 62
   120
370
     5
100
AcDbLine
 10
877.7166090664521
 20
-403.5400309690726
 30
0.0
 11
1115.517625239575
 21
-165.739014795949
 31
0.0
  0
LINE
  5
262
330
1F
100
AcDbEntity
  8
0-0
  6
JWW_DASHED1
 62
   120
370
     5
100
AcDbLine
 10
870.6455412545922
 20
-403.5400309690675
 30
0.0
 11
1115.517625239575
 21
-158.6679469840845
 31
0.0
  0
LINE
  5
263
330
1F
100
AcDbEntity
  8
0-0
  6
JWW_DASHED1
 62
   120
370
     5
100
AcDbLine
 10
863.5744734427221
 20
-403.5400309690709
 30
0.0
 11
1115.51762523958
 21
-151.5968791722119
 31
0.0
  0
LINE
  5
264
330
1F
100
AcDbEntity
  8
0-0
  6
JWW_DASHED1
 62
   120
370
     5
100
AcDbLine
 10
856.5034056308538
 20
-403.5400309690717
 30
0.0
 11
1115.517625239575
 21
-144.5258113603512
 31
0.0
  0
LINE
  5
265
330
1F
100
AcDbEntity
  8
0-0
  6
JWW_DASHED1
 62
   120
370
     5
100
AcDbLine
 10
842.3612700071221
 20
-403.5400309690687
 30
0.0
 11
1115.517625239579
 21
-130.3836757366136
 31
0.0
  0
LINE
  5
266
330
1F
100
AcDbEntity
  8
0-0
  6
JWW_DASHED1
 62
   120
370
     5
100
AcDbLine
 10
835.2902021952555
 20
-403.5400309690704
 30
0.0
 11
1115.517625239572
 21
-123.3126079247528
 31
0.0
  0
LINE
  5
267
330
1F
100
AcDbEntity
  8
0-0
  6
JWW_DASHED1
 62
   120
370
     5
100
AcDbLine
 10
828.2191343833786
 20
-403.5400309690802
 30
0.0
 11
1115.517625239582
 21
-116.2415401128759
 31
0.0
  0
LINE
  5
268
330
1F
100
AcDbEntity
  8
0-0
  6
JWW_DASHED1
 62
   120
370
     5
100
AcDbLine
 10
821.1480665715255
 20
-403.540030969067
 30
0.0
 11
1115.517625239577
 21
-109.1704723010157
 31
0.0
  0
LINE
  5
269
330
1F
100
AcDbEntity
  8
0-0
  6
JWW_DASHED1
 62
   120
370
     5
100
AcDbLine
 10
814.0769987596555
 20
-403.5400309690692
 30
0.0
 11
1115.51762523957
 21
-102.099404489155
 31
0.0
  0
LINE
  5
26A
330
1F
100
AcDbEntity
  8
0-0
  6
JWW_DASHED1
 62
   120
370
     5
100
AcDbLine
 10
807.0059309477786
 20
-403.5400309690794
 30
0.0
 11
1115.51762523958
 21
-95.02833667727849
 31
0.0
  0
LINE
  5
26B
330
1F
100
AcDbEntity
  8
0-0
  6
JWW_DASHED1
 62
   120
370
     5
100
AcDbLine
 10
799.9348631359272
 20
-403.5400309690649
 30
0.0
 11
1115.517625239579
 21
-87.95726886541225
 31
0.0
  0
LINE
  5
26C
330
1F
100
AcDbEntity
  8
0-0
  6
JWW_DASHED1
 62
   120
370
     5
100
AcDbLine
 10
792.8637953240572
 20
-403.5400309690679
 30
0.0
 11
1115.517625239568
 21
-80.88620105355666
 31
0.0
  0
LINE
  5
26D
330
1F
100
AcDbEntity
  8
0-0
  6
JWW_DASHED1
 62
   120
370
     5
100
AcDbLine
 10
785.7927275121802
 20
-403.5400309690781
 30
0.0
 11
1115.517625239579
 21
-73.81513324168019
 31
0.0
  0
LINE
  5
26E
330
1F
100
AcDbEntity
  8
0-0
  6
JWW_DASHED1
 62
   120
370
     5
100
AcDbLine
 10
778.7216597003187
 20
-403.5400309690721
 30
0.0
 11
1115.517625239579
 21
-66.74406542981394
 31
0.0
  0
LINE
  5
26F
330
1F
100
AcDbEntity
  8
0-0
  6
JWW_DASHED1
 62
   120
370
     5
100
AcDbLine
 10
771.6505918884588
 20
-403.5400309690666
 30
0.0
 11
1115.517625239567
 21
-59.67299761795879
 31
0.0
  0
LINE
  5
270
330
1F
100
AcDbEntity
  8
0-0
  6
JWW_DASHED1
 62
   120
370
     5
100
AcDbLine
 10
764.579524076582
 20
-403.5400309690768
 30
0.0
 11
1115.517625239577
 21
-52.60192980608188
 31
0.0
  0
LINE
  5
271
330
1F
100
AcDbEntity
  8
0-0
  6
JWW_DASHED1
 62
   120
370
     5
100
AcDbLine
 10
757.5084562647511
 20
-403.5400309690683
 30
0.0
 11
1115.517625239575
 21
-45.53086199424506
 31
0.0
  0
LINE
  5
272
330
1F
100
AcDbEntity
  8
0-0
  6
JWW_DASHED1
 62
   120
370
     5
100
AcDbLine
 10
750.4373884529134
 20
-403.540030969067
 30
0.0
 11
1115.517625239577
 21
-38.45979418240354
 31
0.0
  0
LINE
  5
273
330
1F
100
AcDbEntity
  8
0-0
  6
JWW_DASHED1
 62
   120
370
     5
100
AcDbLine
 10
743.3663206410433
 20
-403.5400309690709
 30
0.0
 11
1115.51762523957
 21
-31.38872637054284
 31
0.0
  0
LINE
  5
274
330
1F
100
AcDbEntity
  8
0-0
  6
JWW_DASHED1
 62
   120
370
     5
100
AcDbLine
 10
736.2952528291664
 20
-403.5400309690811
 30
0.0
 11
1115.51762523958
 21
-24.31765855866637
 31
0.0
  0
LINE
  5
275
330
1F
100
AcDbEntity
  8
0-0
  6
JWW_DASHED1
 62
   120
370
     5
100
AcDbLine
 10
729.2241850173151
 20
-403.5400309690649
 30
0.0
 11
1115.517625239582
 21
-17.24659074679884
 31
0.0
  0
LINE
  5
276
330
1F
100
AcDbEntity
  8
0-0
  6
JWW_DASHED1
 62
   120
370
     5
100
AcDbLine
 10
722.1531172054433
 20
-403.5400309690692
 30
0.0
 11
1115.517625239568
 21
-10.17552293494454
 31
0.0
  0
LINE
  5
277
330
1F
100
AcDbEntity
  8
0-0
  6
JWW_DASHED1
 62
   120
370
     5
100
AcDbLine
 10
715.0820493935664
 20
-403.5400309690794
 30
0.0
 11
1115.517625239579
 21
-3.104455123068064
 31
0.0
  0
LINE
  5
278
330
1F
100
AcDbEntity
  8
0-0
  6
JWW_DASHED1
 62
   120
370
     5
100
AcDbLine
 10
708.0109815817066
 20
-403.5400309690743
 30
0.0
 11
1115.517625239579
 21
3.966612688799458
 31
0.0
  0
LINE
  5
279
330
1F
100
AcDbEntity
  8
0-0
  6
JWW_DASHED1
 62
   120
370
     5
100
AcDbLine
 10
700.939913769845
 20
-403.5400309690683
 30
0.0
 11
1115.517625239567
 21
11.03768050065334
 31
0.0
  0
LINE
  5
27A
330
1F
100
AcDbEntity
  8
0-0
  6
JWW_DASHED1
 62
   120
370
     5
100
AcDbLine
 10
693.8688459579681
 20
-403.5400309690785
 30
0.0
 11
1115.517625239577
 21
18.10874831253024
 31
0.0
  0
LINE
  5
27B
330
1F
100
AcDbEntity
  8
0-0
  6
JWW_DASHED1
 62
   120
370
     5
100
AcDbLine
 10
686.7977781461066
 20
-403.5400309690726
 30
0.0
 11
1115.517625239579
 21
25.17981612439776
 31
0.0
  0
LINE
  5
27C
330
1F
100
AcDbEntity
  8
0-0
  6
JWW_DASHED1
 62
   120
370
     5
100
AcDbLine
 10
679.7267103342467
 20
-403.540030969067
 30
0.0
 11
1115.517625239565
 21
32.25088393625164
 31
0.0
  0
LINE
  5
27D
330
1F
100
AcDbEntity
  8
0-0
  6
JWW_DASHED1
 62
   120
370
     5
100
AcDbLine
 10
672.6556425223698
 20
-403.5400309690772
 30
0.0
 11
1115.517625239575
 21
39.32195174812811
 31
0.0
  0
LINE
  5
27E
330
1F
100
AcDbEntity
  8
0-0
  6
JWW_DASHED1
 62
   120
370
     5
100
AcDbLine
 10
665.5845747105083
 20
-403.5400309690713
 30
0.0
 11
1115.517625239575
 21
46.39301955999606
 31
0.0
  0
LINE
  5
27F
330
1F
100
AcDbEntity
  8
0-0
  6
JWW_DASHED1
 62
   120
370
     5
100
AcDbLine
 10
658.5135068986433
 20
-403.5400309690692
 30
0.0
 11
1115.517625239579
 21
53.46408737186572
 31
0.0
  0
LINE
  5
280
330
1F
100
AcDbEntity
  8
0-0
  6
JWW_DASHED1
 62
   120
370
     5
100
AcDbLine
 10
651.4424390867698
 20
-403.540030969076
 30
0.0
 11
1115.517625239572
 21
60.53515518372642
 31
0.0
  0
LINE
  5
281
330
1F
100
AcDbEntity
  8
0-0
  6
JWW_DASHED1
 62
   120
370
     5
100
AcDbLine
 10
644.3713712748929
 20
-403.5400309690858
 30
0.0
 11
1115.517625239582
 21
67.60622299560289
 31
0.0
  0
LINE
  5
282
330
1F
100
AcDbEntity
  8
0-0
  6
JWW_DASHED1
 62
   120
370
     5
100
AcDbLine
 10
637.3003034630467
 20
-403.5400309690675
 30
0.0
 11
1115.517625239577
 21
74.67729080746402
 31
0.0
  0
LINE
  5
283
330
1F
100
AcDbEntity
  8
0-0
  6
JWW_DASHED1
 62
   120
370
     5
100
AcDbLine
 10
630.2292356511715
 20
-403.5400309690747
 30
0.0
 11
1115.517625239572
 21
81.74835861932472
 31
0.0
  0
LINE
  5
284
330
1F
100
AcDbEntity
  8
0-0
  6
JWW_DASHED1
 62
   120
370
     5
100
AcDbLine
 10
623.1581678392963
 20
-403.5400309690845
 30
0.0
 11
1115.517625239582
 21
88.8194264312012
 31
0.0
  0
LINE
  5
285
330
1F
100
AcDbEntity
  8
0-0
  6
JWW_DASHED1
 62
   120
370
     5
100
AcDbLine
 10
616.0871000274467
 20
-403.5400309690658
 30
0.0
 11
1115.517625239575
 21
95.8904942430619
 31
0.0
  0
LINE
  5
286
330
1F
100
AcDbEntity
  8
0-0
  6
JWW_DASHED1
 62
   120
370
     5
100
AcDbLine
 10
609.0160322155732
 20
-403.5400309690734
 30
0.0
 11
1115.517625239568
 21
102.9615620549226
 31
0.0
  0
LINE
  5
287
330
1F
100
AcDbEntity
  8
0-0
  6
JWW_DASHED1
 62
   120
370
     5
100
AcDbLine
 10
601.9449644036963
 20
-403.5400309690828
 30
0.0
 11
1115.517625239579
 21
110.0326298667995
 31
0.0
  0
LINE
  5
288
330
1F
100
AcDbEntity
  8
0-0
  6
JWW_DASHED1
 62
   120
370
     5
100
AcDbLine
 10
594.8738965918501
 20
-403.5400309690636
 30
0.0
 11
1115.517625239582
 21
117.1036976786687
 31
0.0
  0
LINE
  5
289
330
1F
100
AcDbEntity
  8
0-0
  6
JWW_DASHED1
 62
   120
370
     5
100
AcDbLine
 10
587.8028287799732
 20
-403.5400309690721
 30
0.0
 11
1115.517625239568
 21
124.1747654905209
 31
0.0
  0
LINE
  5
28A
330
1F
100
AcDbEntity
  8
0-0
  6
JWW_DASHED1
 62
   120
370
     5
100
AcDbLine
 10
580.731760968098
 20
-403.540030969082
 30
0.0
 11
1115.517625239577
 21
131.2458333023974
 31
0.0
  0
LINE
  5
28B
330
1F
100
AcDbEntity
  8
0-0
  6
JWW_DASHED1
 62
   120
370
     5
100
AcDbLine
 10
573.6606931562364
 20
-403.540030969076
 30
0.0
 11
1115.51762523958
 21
138.316901114267
 31
0.0
  0
LINE
  5
28C
330
1F
100
AcDbEntity
  8
0-0
  6
JWW_DASHED1
 62
   120
370
     5
100
AcDbLine
 10
566.5896253443766
 20
-403.5400309690709
 30
0.0
 11
1115.517625239565
 21
145.3879689261192
 31
0.0
  0
LINE
  5
28D
330
1F
100
AcDbEntity
  8
0-0
  6
JWW_DASHED1
 62
   120
370
     5
100
AcDbLine
 10
559.5185575324997
 20
-403.5400309690806
 30
0.0
 11
1115.517625239575
 21
152.4590367379952
 31
0.0
  0
LINE
  5
28E
330
1F
100
AcDbEntity
  8
0-0
  6
JWW_DASHED1
 62
   120
370
     5
100
AcDbLine
 10
552.4474897206381
 20
-403.5400309690751
 30
0.0
 11
1115.517625239579
 21
159.5301045498653
 31
0.0
  0
LINE
  5
28F
330
1F
100
AcDbEntity
  8
0-0
  6
JWW_DASHED1
 62
   120
370
     5
100
AcDbLine
 10
545.3764219087766
 20
-403.54003096907
 30
0.0
 11
1115.517625239579
 21
166.6011723617328
 31
0.0
  0
LINE
  5
290
330
1F
100
AcDbEntity
  8
0-0
  6
JWW_DASHED1
 62
   120
370
     5
100
AcDbLine
 10
538.3053540968997
 20
-403.5400309690794
 30
0.0
 11
1115.517625239573
 21
173.6722401735935
 31
0.0
  0
LINE
  5
291
330
1F
100
AcDbEntity
  8
0-0
  6
JWW_DASHED1
 62
   120
370
     5
100
AcDbLine
 10
531.2342862850398
 20
-403.5400309690738
 30
0.0
 11
1115.517625239577
 21
180.7433079854636
 31
0.0
  0
LINE
  5
292
330
1F
100
AcDbEntity
  8
0-0
  6
JWW_DASHED1
 62
   120
370
     5
100
AcDbLine
 10
525.5176252395763
 20
-402.1856242026703
 30
0.0
 11
1115.517625239579
 21
187.8143757973311
 31
0.0
  0
LINE
  5
293
330
1F
100
AcDbEntity
  8
0-0
  6
JWW_DASHED1
 62
   120
370
     5
100
AcDbLine
 10
525.5176252395866
 20
-395.1145563907942
 30
0.0
 11
1115.517625239572
 21
194.8854436091918
 31
0.0
  0
LINE
  5
294
330
1F
100
AcDbEntity
  8
0-0
  6
JWW_DASHED1
 62
   120
370
     5
100
AcDbLine
 10
525.5176252395917
 20
-388.0434885789762
 30
0.0
 11
1115.517625239577
 21
201.9565114210095
 31
0.0
  0
LINE
  5
295
330
1F
100
AcDbEntity
  8
0-0
  6
JWW_DASHED1
 62
   120
370
     5
100
AcDbLine
 10
525.5176252395866
 20
-380.9724207671155
 30
0.0
 11
1115.517625239582
 21
209.0275792328804
 31
0.0
  0
LINE
  5
296
330
1F
100
AcDbEntity
  8
0-0
  6
JWW_DASHED1
 62
   120
370
     5
100
AcDbLine
 10
525.5176252395797
 20
-373.9013529552548
 30
0.0
 11
1115.517625239565
 21
216.0986470447309
 31
0.0
  0
LINE
  5
297
330
1F
100
AcDbEntity
  8
0-0
  6
JWW_DASHED1
 62
   120
370
     5
100
AcDbLine
 10
525.51762523959
 20
-366.8302851433779
 30
0.0
 11
1115.517625239575
 21
223.1697148566078
 31
0.0
  0
LINE
  5
298
330
1F
100
AcDbEntity
  8
0-0
  6
JWW_DASHED1
 62
   120
370
     5
100
AcDbLine
 10
525.5176252395831
 20
-359.7592173315167
 30
0.0
 11
1115.51762523958
 21
230.2407826684787
 31
0.0
  0
LINE
  5
299
330
1F
100
AcDbEntity
  8
0-0
  6
JWW_DASHED1
 62
   120
370
     5
100
AcDbLine
 10
525.517625239578
 20
-352.6881495196565
 30
0.0
 11
1115.517625239579
 21
237.311850480345
 31
0.0
  0
LINE
  5
29A
330
1F
100
AcDbEntity
  8
0-0
  6
JWW_DASHED1
 62
   120
370
     5
100
AcDbLine
 10
525.5176252395883
 20
-345.6170817077796
 30
0.0
 11
1115.517625239573
 21
244.3829182922057
 31
0.0
  0
LINE
  5
29B
330
1F
100
AcDbEntity
  8
0-0
  6
JWW_DASHED1
 62
   120
370
     5
100
AcDbLine
 10
525.5176252395831
 20
-338.546013895918
 30
0.0
 11
1115.517625239579
 21
251.453986104077
 31
0.0
  0
LINE
  5
29C
330
1F
100
AcDbEntity
  8
0-0
  6
JWW_DASHED1
 62
   120
370
     5
100
AcDbLine
 10
525.5176252395763
 20
-331.4749460840582
 30
0.0
 11
1115.517625239579
 21
258.5250539159433
 31
0.0
  0
LINE
  5
29D
330
1F
100
AcDbEntity
  8
0-0
  6
JWW_DASHED1
 62
   120
370
     5
100
AcDbLine
 10
525.5176252395866
 20
-324.4038782721817
 30
0.0
 11
1115.517625239572
 21
265.596121727804
 31
0.0
  0
LINE
  5
29E
330
1F
100
AcDbEntity
  8
0-0
  6
JWW_DASHED1
 62
   120
370
     5
100
AcDbLine
 10
525.5176252395968
 20
-317.3328104603052
 30
0.0
 11
1115.517625239582
 21
272.6671895396805
 31
0.0
  0
LINE
  5
29F
330
1F
100
AcDbEntity
  8
0-0
  6
JWW_DASHED1
 62
   120
370
     5
100
AcDbLine
 10
525.5176252395746
 20
-310.2617426484599
 30
0.0
 11
1115.517625239575
 21
279.7382573515412
 31
0.0
  0
LINE
  5
2A0
330
1F
100
AcDbEntity
  8
0-0
  6
JWW_DASHED1
 62
   120
370
     5
100
AcDbLine
 10
525.5176252395831
 20
-303.1906748365838
 30
0.0
 11
1115.51762523957
 21
286.8093251634023
 31
0.0
  0
LINE
  5
2A1
330
1F
100
AcDbEntity
  8
0-0
  6
JWW_DASHED1
 62
   120
370
     5
100
AcDbLine
 10
525.5176252395934
 20
-296.1196070247069
 30
0.0
 11
1115.517625239579
 21
293.8803929752788
 31
0.0
  0
LINE
  5
2A2
330
1F
100
AcDbEntity
  8
0-0
  6
JWW_DASHED1
 62
   120
370
     5
100
AcDbLine
 10
525.5176252395746
 20
-289.0485392128599
 30
0.0
 11
1115.517625239585
 21
300.9514607871509
 31
0.0
  0
LINE
  5
2A3
330
1F
100
AcDbEntity
  8
0-0
  6
JWW_DASHED1
 62
   120
370
     5
100
AcDbLine
 10
525.5176252395814
 20
-281.9774714009855
 30
0.0
 11
1115.517625239568
 21
308.0225285990002
 31
0.0
  0
LINE
  5
2A4
330
1F
100
AcDbEntity
  8
0-0
  6
JWW_DASHED1
 62
   120
370
     5
100
AcDbLine
 10
525.5176252395917
 20
-274.906403589109
 30
0.0
 11
1115.517625239579
 21
315.0935964108766
 31
0.0
  0
LINE
  5
2A5
330
1F
100
AcDbEntity
  8
0-0
  6
JWW_DASHED1
 62
   120
370
     5
100
AcDbLine
 10
525.5176252395883
 20
-267.8353357772462
 30
0.0
 11
1115.517625239584
 21
322.1646642227493
 31
0.0
  0
LINE
  5
2A6
330
1F
100
AcDbEntity
  8
0-0
  6
JWW_DASHED1
 62
   120
370
     5
100
AcDbLine
 10
525.5176252395797
 20
-260.7642679653872
 30
0.0
 11
1115.517625239565
 21
329.2357320345985
 31
0.0
  0
LINE
  5
2A7
330
1F
100
AcDbEntity
  8
0-0
  6
JWW_DASHED1
 62
   120
370
     5
100
AcDbLine
 10
525.51762523959
 20
-253.6932001535112
 30
0.0
 11
1115.517625239575
 21
336.3067998464749
 31
0.0
  0
LINE
  5
2A8
330
1F
100
AcDbEntity
  8
0-0
  6
JWW_DASHED1
 62
   120
370
     5
100
AcDbLine
 10
525.5176252395866
 20
-246.6221323416474
 30
0.0
 11
1115.517625239582
 21
343.377867658348
 31
0.0
  0
LINE
  5
2A9
330
1F
100
AcDbEntity
  8
0-0
  6
JWW_DASHED1
 62
   120
370
     5
100
AcDbLine
 10
525.517625239578
 20
-239.5510645297893
 30
0.0
 11
1115.517625239565
 21
350.4489354701963
 31
0.0
  0
LINE
  5
2AA
330
1F
100
AcDbEntity
  8
0-0
  6
JWW_DASHED1
 62
   120
370
     5
100
AcDbLine
 10
525.5176252395883
 20
-232.4799967179129
 30
0.0
 11
1115.517625239575
 21
357.5200032820732
 31
0.0
  0
LINE
  5
2AB
330
1F
100
AcDbEntity
  8
0-0
  6
JWW_DASHED1
 62
   120
370
     5
100
AcDbLine
 10
525.5176252395848
 20
-225.4089289060487
 30
0.0
 11
1115.51762523958
 21
364.5910710939463
 31
0.0
  0
LINE
  5
2AC
330
1F
100
AcDbEntity
  8
0-0
  6
JWW_DASHED1
 62
   120
370
     5
100
AcDbLine
 10
525.5176252395763
 20
-218.3378610941915
 30
0.0
 11
1115.517625239579
 21
371.6621389058104
 31
0.0
  0
LINE
  5
2AD
330
1F
100
AcDbEntity
  8
0-0
  6
JWW_DASHED1
 62
   120
370
     5
100
AcDbLine
 10
525.5176252395866
 20
-211.2667932823146
 30
0.0
 11
1115.517625239572
 21
378.7332067176711
 31
0.0
  0
LINE
  5
2AE
330
1F
100
AcDbEntity
  8
0-0
  6
JWW_DASHED1
 62
   120
370
     5
100
AcDbLine
 10
525.5176252395831
 20
-204.1957254704504
 30
0.0
 11
1115.517625239579
 21
385.804274529545
 31
0.0
  0
LINE
  5
2AF
330
1F
100
AcDbEntity
  8
0-0
  6
JWW_DASHED1
 62
   120
370
     5
100
AcDbLine
 10
525.5176252395746
 20
-197.1246576585932
 30
0.0
 11
1115.517625239575
 21
392.8753423414083
 31
0.0
  0
LINE
  5
2B0
330
1F
100
AcDbEntity
  8
0-0
  6
JWW_DASHED1
 62
   120
370
     5
100
AcDbLine
 10
525.5176252395848
 20
-190.0535898467162
 30
0.0
 11
1115.51762523957
 21
399.9464101532694
 31
0.0
  0
LINE
  5
2B1
330
1F
100
AcDbEntity
  8
0-0
  6
JWW_DASHED1
 62
   120
370
     5
100
AcDbLine
 10
525.5176252395934
 20
-182.9825220348397
 30
0.0
 11
1115.51762523958
 21
407.0174779651459
 31
0.0
  0
LINE
  5
2B2
330
1F
100
AcDbEntity
  8
0-0
  6
JWW_DASHED1
 62
   120
370
     5
100
AcDbLine
 10
525.5176252395729
 20
-175.9114542229948
 30
0.0
 11
1115.517625239575
 21
414.0885457770066
 31
0.0
  0
LINE
  5
2B3
330
1F
100
AcDbEntity
  8
0-0
  6
JWW_DASHED1
 62
   120
370
     5
100
AcDbLine
 10
525.5176252395831
 20
-168.8403864111183
 30
0.0
 11
1115.517625239568
 21
421.1596135888673
 31
0.0
  0
LINE
  5
2B4
330
1F
100
AcDbEntity
  8
0-0
  6
JWW_DASHED1
 62
   120
370
     5
100
AcDbLine
 10
525.5176252395934
 20
-161.7693185992419
 30
0.0
 11
1115.517625239579
 21
428.2306814007442
 31
0.0
  0
LINE
  5
2B5
330
1F
100
AcDbEntity
  8
0-0
  6
JWW_DASHED1
 62
   120
370
     5
100
AcDbLine
 10
525.5176252395883
 20
-154.6982507874059
 30
0.0
 11
1115.517625239584
 21
435.3017492125891
 31
0.0
  0
LINE
  5
2B6
330
1F
100
AcDbEntity
  8
0-0
  6
JWW_DASHED1
 62
   120
370
     5
100
AcDbLine
 10
525.5176252395763
 20
-147.6271829755793
 30
0.0
 11
1115.517625239579
 21
442.3728170244225
 31
0.0
  0
LINE
  5
2B7
330
1F
100
AcDbEntity
  8
0-0
  6
JWW_DASHED1
 62
   120
370
     5
100
AcDbLine
 10
525.5176252395866
 20
-140.5561151637024
 30
0.0
 11
1115.517625239572
 21
449.4438848362832
 31
0.0
  0
LINE
  5
2B8
330
1F
100
AcDbEntity
  8
0-0
  6
JWW_DASHED1
 62
   120
370
     5
100
AcDbLine
 10
525.5176252395848
 20
-133.4850473518375
 30
0.0
 11
1115.51762523958
 21
456.514952648158
 31
0.0
  0
LINE
  5
2B9
330
1F
100
AcDbEntity
  8
0-0
  6
JWW_DASHED1
 62
   120
370
     5
100
AcDbLine
 10
525.5176252395746
 20
-126.413979539981
 30
0.0
 11
1115.517625239575
 21
463.5860204600204
 31
0.0
  0
LINE
  5
2BA
330
1F
100
AcDbEntity
  8
0-0
  6
JWW_DASHED1
 62
   120
370
     5
100
AcDbLine
 10
525.5176252395848
 20
-119.3429117281041
 30
0.0
 11
1115.51762523957
 21
470.6570882718815
 31
0.0
  0
LINE
  5
2BB
330
1F
100
AcDbEntity
  8
0-0
  6
JWW_DASHED1
 62
   120
370
     5
100
AcDbLine
 10
525.5176252395934
 20
-112.2718439162276
 30
0.0
 11
1115.51762523958
 21
477.728156083758
 31
0.0
  0
LINE
  5
2BC
330
1F
100
AcDbEntity
  8
0-0
  6
JWW_DASHED1
 62
   120
370
     5
100
AcDbLine
 10
525.5176252395729
 20
-105.2007761043827
 30
0.0
 11
1115.517625239575
 21
484.7992238956187
 31
0.0
  0
LINE
  5
2BD
330
1F
100
AcDbEntity
  8
0-0
  6
JWW_DASHED1
 62
   120
370
     5
100
AcDbLine
 10
525.5176252395831
 20
-98.12970829250624
 30
0.0
 11
1115.517625239568
 21
491.8702917074794
 31
0.0
  0
LINE
  5
2BE
330
1F
100
AcDbEntity
  8
0-0
  6
JWW_DASHED1
 62
   120
370
     5
100
AcDbLine
 10
525.5176252395934
 20
-91.05864048062976
 30
0.0
 11
1115.517625239579
 21
498.9413595193563
 31
0.0
  0
LINE
  5
2BF
330
1F
100
AcDbEntity
  8
0-0
  6
JWW_DASHED1
 62
   120
370
     5
100
AcDbLine
 10
525.5176252395763
 20
-83.9875726687793
 30
0.0
 11
1115.517625239587
 21
506.0124273312315
 31
0.0
  0
LINE
  5
2C0
330
1F
100
AcDbEntity
  8
0-0
  6
JWW_DASHED1
 62
   120
370
     5
100
AcDbLine
 10
525.5176252395797
 20
-76.91650485690793
 30
0.0
 11
1115.517625239567
 21
513.0834951430777
 31
0.0
  0
LINE
  5
2C1
330
1F
100
AcDbEntity
  8
0-0
  6
JWW_DASHED1
 62
   120
370
     5
100
AcDbLine
 10
525.51762523959
 20
-69.84543704503146
 30
0.0
 11
1115.517625239577
 21
520.1545629549541
 31
0.0
  0
LINE
  5
2C2
330
1F
100
AcDbEntity
  8
0-0
  6
JWW_DASHED1
 62
   120
370
     5
100
AcDbLine
 10
525.51762523959
 20
-62.77436923316479
 30
0.0
 11
1115.517625239585
 21
527.2256307668302
 31
0.0
  0
LINE
  5
2C3
330
1F
100
AcDbEntity
  8
0-0
  6
JWW_DASHED1
 62
   120
370
     5
100
AcDbLine
 10
525.5176252395797
 20
-55.70330142131006
 30
0.0
 11
1115.517625239565
 21
534.296698578676
 31
0.0
  0
LINE
  5
2C4
330
1F
100
AcDbEntity
  8
0-0
  6
JWW_DASHED1
 62
   120
370
     5
100
AcDbLine
 10
525.51762523959
 20
-48.63223360943316
 30
0.0
 11
1115.517625239575
 21
541.3677663905524
 31
0.0
  0
LINE
  5
2C5
330
1F
100
AcDbEntity
  8
0-0
  6
JWW_DASHED1
 62
   120
370
     5
100
AcDbLine
 10
525.51762523959
 20
-41.56116579756649
 30
0.0
 11
1115.517625239584
 21
548.4388342024286
 31
0.0
  0
LINE
  5
2C6
330
1F
100
AcDbEntity
  8
0-0
  6
JWW_DASHED1
 62
   120
370
     5
100
AcDbLine
 10
525.5176252395763
 20
-34.49009798571176
 30
0.0
 11
1115.517625239563
 21
555.5099020142738
 31
0.0
  0
LINE
  5
2C7
330
1F
100
AcDbEntity
  8
0-0
  6
JWW_DASHED1
 62
   120
370
     5
100
AcDbLine
 10
525.5176252395866
 20
-27.41903017383486
 30
0.0
 11
1115.517625239572
 21
562.5809698261507
 31
0.0
  0
LINE
  5
2C8
330
1F
100
AcDbEntity
  8
0-0
  6
JWW_DASHED1
 62
   120
370
     5
100
AcDbLine
 10
525.5176252395866
 20
-20.34796236196819
 30
0.0
 11
1115.517625239582
 21
569.6520376380273
 31
0.0
  0
LINE
  5
2C9
330
1F
100
AcDbEntity
  8
0-0
  6
JWW_DASHED1
 62
   120
370
     5
100
AcDbLine
 10
525.5176252395763
 20
-13.27689455011345
 30
0.0
 11
1110.254488820622
 21
571.4599690309334
 31
0.0
  0
LINE
  5
2CA
330
1F
100
AcDbEntity
  8
0-0
  6
JWW_DASHED1
 62
   120
370
     5
100
AcDbLine
 10
525.5176252395848
 20
-6.205826738237405
 30
0.0
 11
1103.183421008761
 21
571.4599690309385
 31
0.0
  0
LINE
  5
2CB
330
1F
100
AcDbEntity
  8
0-0
  6
JWW_DASHED1
 62
   120
370
     5
100
AcDbLine
 10
525.5176252395951
 20
0.8652410736394955
 30
0.0
 11
1096.112353196884
 21
571.4599690309287
 31
0.0
  0
LINE
  5
2CC
330
1F
100
AcDbEntity
  8
0-0
  6
JWW_DASHED1
 62
   120
370
     5
100
AcDbLine
 10
525.5176252395729
 20
7.936308885484848
 30
0.0
 11
1089.041285385024
 21
571.4599690309351
 31
0.0
  0
LINE
  5
2CD
330
1F
100
AcDbEntity
  8
0-0
  6
JWW_DASHED1
 62
   120
370
     5
100
AcDbLine
 10
525.5176252395831
 20
15.0073766973609
 30
0.0
 11
1081.970217573162
 21
571.4599690309402
 31
0.0
  0
LINE
  5
2CE
330
1F
100
AcDbEntity
  8
0-0
  6
JWW_DASHED1
 62
   120
370
     5
100
AcDbLine
 10
525.5176252395934
 20
22.0784445092378
 30
0.0
 11
1074.899149761286
 21
571.45996903093
 31
0.0
  0
LINE
  5
2CF
330
1F
100
AcDbEntity
  8
0-0
  6
JWW_DASHED1
 62
   120
370
     5
100
AcDbLine
 10
525.5176252395712
 20
29.1495123210823
 30
0.0
 11
1067.828081949426
 21
571.4599690309368
 31
0.0
  0
LINE
  5
2D0
330
1F
100
AcDbEntity
  8
0-0
  6
JWW_DASHED1
 62
   120
370
     5
100
AcDbLine
 10
525.5176252395814
 20
36.2205801329592
 30
0.0
 11
1060.757014137562
 21
571.4599690309415
 31
0.0
  0
LINE
  5
2D1
330
1F
100
AcDbEntity
  8
0-0
  6
JWW_DASHED1
 62
   120
370
     5
100
AcDbLine
 10
525.51762523959
 20
43.29164794483567
 30
0.0
 11
1053.685946325686
 21
571.4599690309309
 31
0.0
  0
LINE
  5
2D2
330
1F
100
AcDbEntity
  8
0-0
  6
JWW_DASHED1
 62
   120
370
     5
100
AcDbLine
 10
525.5176252395763
 20
50.36271575668827
 30
0.0
 11
1046.614878513812
 21
571.4599690309232
 31
0.0
  0
LINE
  5
2D3
330
1F
100
AcDbEntity
  8
0-0
  6
JWW_DASHED1
 62
   120
370
     5
100
AcDbLine
 10
525.5176252395797
 20
57.4337835685575
 30
0.0
 11
1039.543810701966
 21
571.4599690309428
 31
0.0
  0
LINE
  5
2D4
330
1F
100
AcDbEntity
  8
0-0
  6
JWW_DASHED1
 62
   120
370
     5
100
AcDbLine
 10
525.51762523959
 20
64.5048513804344
 30
0.0
 11
1032.472742890089
 21
571.4599690309326
 31
0.0
  0
LINE
  5
2D5
330
1F
100
AcDbEntity
  8
0-0
  6
JWW_DASHED1
 62
   120
370
     5
100
AcDbLine
 10
525.5176252395917
 20
71.57591919230278
 30
0.0
 11
1025.401675078212
 21
571.4599690309224
 31
0.0
  0
LINE
  5
2D6
330
1F
100
AcDbEntity
  8
0-0
  6
JWW_DASHED1
 62
   120
370
     5
100
AcDbLine
 10
525.517625239578
 20
78.6469870041558
 30
0.0
 11
1018.330607266366
 21
571.4599690309436
 31
0.0
  0
LINE
  5
2D7
330
1F
100
AcDbEntity
  8
0-0
  6
JWW_DASHED1
 62
   120
370
     5
100
AcDbLine
 10
525.5176252395866
 20
85.71805481603185
 30
0.0
 11
1011.259539454489
 21
571.4599690309334
 31
0.0
  0
LINE
  5
2D8
330
1F
100
AcDbEntity
  8
0-0
  6
JWW_DASHED1
 62
   120
370
     5
100
AcDbLine
 10
525.5176252395866
 20
92.78912262787124
 30
0.0
 11
1004.188471642643
 21
571.4599690309258
 31
0.0
  0
LINE
  5
2D9
330
1F
100
AcDbEntity
  8
0-0
  6
JWW_DASHED1
 62
   120
370
     5
100
AcDbLine
 10
525.5176252395712
 20
99.86019043969442
 30
0.0
 11
997.1174038308136
 21
571.4599690309368
 31
0.0
  0
LINE
  5
2DA
330
1F
100
AcDbEntity
  8
0-0
  6
JWW_DASHED1
 62
   120
370
     5
100
AcDbLine
 10
525.5176252395814
 20
106.9312582515713
 30
0.0
 11
990.0463360189503
 21
571.4599690309394
 31
0.0
  0
LINE
  5
2DB
330
1F
100
AcDbEntity
  8
0-0
  6
JWW_DASHED1
 62
   120
370
     5
100
AcDbLine
 10
525.51762523959
 20
114.0023260634478
 30
0.0
 11
982.9752682070734
 21
571.4599690309292
 31
0.0
  0
LINE
  5
2DC
330
1F
100
AcDbEntity
  8
0-0
  6
JWW_DASHED1
 62
   120
370
     5
100
AcDbLine
 10
525.517625239578
 20
121.0733938753012
 30
0.0
 11
975.9042003952
 21
571.4599690309232
 31
0.0
  0
LINE
  5
2DD
330
1F
100
AcDbEntity
  8
0-0
  6
JWW_DASHED1
 62
   120
370
     5
100
AcDbLine
 10
525.5176252395797
 20
128.1444616871696
 30
0.0
 11
968.8331325833503
 21
571.4599690309411
 31
0.0
  0
LINE
  5
2DE
330
1F
100
AcDbEntity
  8
0-0
  6
JWW_DASHED1
 62
   120
370
     5
100
AcDbLine
 10
525.51762523959
 20
135.2155294990461
 30
0.0
 11
961.7620647714734
 21
571.4599690309309
 31
0.0
  0
LINE
  5
2DF
330
1F
100
AcDbEntity
  8
0-0
  6
JWW_DASHED1
 62
   120
370
     5
100
AcDbLine
 10
525.5176252395917
 20
142.2865973109157
 30
0.0
 11
954.6909969595965
 21
571.4599690309207
 31
0.0
  0
LINE
  5
2E0
330
1F
100
AcDbEntity
  8
0-0
  6
JWW_DASHED1
 62
   120
370
     5
100
AcDbLine
 10
525.5176252395763
 20
149.3576651227675
 30
0.0
 11
947.619929147752
 21
571.4599690309424
 31
0.0
  0
LINE
  5
2E1
330
1F
100
AcDbEntity
  8
0-0
  6
JWW_DASHED1
 62
   120
370
     5
100
AcDbLine
 10
525.5176252395866
 20
156.428732934644
 30
0.0
 11
940.5488613358751
 21
571.4599690309317
 31
0.0
  0
LINE
  5
2E2
330
1F
100
AcDbEntity
  8
0-0
  6
JWW_DASHED1
 62
   120
370
     5
100
AcDbLine
 10
525.51762523959
 20
163.499800746514
 30
0.0
 11
933.4777935239982
 21
571.4599690309215
 31
0.0
  0
LINE
  5
2E3
330
1F
100
AcDbEntity
  8
0-0
  6
JWW_DASHED1
 62
   120
370
     5
100
AcDbLine
 10
525.5176252395763
 20
170.5708685583658
 30
0.0
 11
926.4067257121435
 21
571.4599690309326
 31
0.0
  0
LINE
  5
2E4
330
1F
100
AcDbEntity
  8
0-0
  6
JWW_DASHED1
 62
   120
370
     5
100
AcDbLine
 10
525.5176252395866
 20
177.6419363702423
 30
0.0
 11
919.3356579002768
 21
571.4599690309334
 31
0.0
  0
LINE
  5
2E5
330
1F
100
AcDbEntity
  8
0-0
  6
JWW_DASHED1
 62
   120
370
     5
100
AcDbLine
 10
525.51762523959
 20
184.7130041821128
 30
0.0
 11
912.2645900883999
 21
571.4599690309232
 31
0.0
  0
LINE
  5
2E6
330
1F
100
AcDbEntity
  8
0-0
  6
JWW_DASHED1
 62
   120
370
     5
100
AcDbLine
 10
525.5176252395729
 20
191.7840719939641
 30
0.0
 11
905.1935222765435
 21
571.4599690309346
 31
0.0
  0
LINE
  5
2E7
330
1F
100
AcDbEntity
  8
0-0
  6
JWW_DASHED1
 62
   120
370
     5
100
AcDbLine
 10
525.5176252395831
 20
198.8551398058406
 30
0.0
 11
898.1224544646768
 21
571.4599690309346
 31
0.0
  0
LINE
  5
2E8
330
1F
100
AcDbEntity
  8
0-0
  6
JWW_DASHED1
 62
   120
370
     5
100
AcDbLine
 10
525.5176252395934
 20
205.9262076177171
 30
0.0
 11
891.0513866527999
 21
571.4599690309241
 31
0.0
  0
LINE
  5
2E9
330
1F
100
AcDbEntity
  8
0-0
  6
JWW_DASHED1
 62
   120
370
     5
100
AcDbLine
 10
525.5176252395729
 20
212.997275429562
 30
0.0
 11
883.9803188409469
 21
571.459969030936
 31
0.0
  0
LINE
  5
2EA
330
1F
100
AcDbEntity
  8
0-0
  6
JWW_DASHED1
 62
   120
370
     5
100
AcDbLine
 10
525.5176252395814
 20
220.0683432414385
 30
0.0
 11
876.9092510290802
 21
571.459969030936
 31
0.0
  0
LINE
  5
2EB
330
1F
100
AcDbEntity
  8
0-0
  6
JWW_DASHED1
 62
   120
370
     5
100
AcDbLine
 10
525.5176252395917
 20
227.1394110533154
 30
0.0
 11
869.8381832172033
 21
571.4599690309258
 31
0.0
  0
LINE
  5
2EC
330
1F
100
AcDbEntity
  8
0-0
  6
JWW_DASHED1
 62
   120
370
     5
100
AcDbLine
 10
525.5176252395797
 20
234.2104788651705
 30
0.0
 11
862.7671154053332
 21
571.4599690309227
 31
0.0
  0
LINE
  5
2ED
330
1F
100
AcDbEntity
  8
0-0
  6
JWW_DASHED1
 62
   120
370
     5
100
AcDbLine
 10
525.5176252395797
 20
241.2815466770368
 30
0.0
 11
855.6960475934802
 21
571.4599690309373
 31
0.0
  0
LINE
  5
2EE
330
1F
100
AcDbEntity
  8
0-0
  6
JWW_DASHED1
 62
   120
370
     5
100
AcDbLine
 10
525.51762523959
 20
248.3526144889132
 30
0.0
 11
848.6249797816033
 21
571.4599690309275
 31
0.0
  0
LINE
  5
2EF
330
1F
100
AcDbEntity
  8
0-0
  6
JWW_DASHED1
 62
   120
370
     5
100
AcDbLine
 10
525.5176252395934
 20
255.4236823007846
 30
0.0
 11
841.5539119697264
 21
571.4599690309173
 31
0.0
  0
LINE
  5
2F0
330
1F
100
AcDbEntity
  8
0-0
  6
JWW_DASHED1
 62
   120
370
     5
100
AcDbLine
 10
525.517625239578
 20
262.4947501126351
 30
0.0
 11
834.4828441578819
 21
571.4599690309385
 31
0.0
  0
LINE
  5
2F1
330
1F
100
AcDbEntity
  8
0-0
  6
JWW_DASHED1
 62
   120
370
     5
100
AcDbLine
 10
525.5176252395883
 20
269.5658179245115
 30
0.0
 11
827.411776346005
 21
571.4599690309287
 31
0.0
  0
LINE
  5
2F2
330
1F
100
AcDbEntity
  8
0-0
  6
JWW_DASHED1
 62
   120
370
     5
100
AcDbLine
 10
525.5176252395934
 20
276.6368857363833
 30
0.0
 11
820.3407085341281
 21
571.4599690309185
 31
0.0
  0
LINE
  5
2F3
330
1F
100
AcDbEntity
  8
0-0
  6
JWW_DASHED1
 62
   120
370
     5
100
AcDbLine
 10
525.5176252395763
 20
283.7079535482329
 30
0.0
 11
813.2696407222836
 21
571.4599690309398
 31
0.0
  0
LINE
  5
2F4
330
1F
100
AcDbEntity
  8
0-0
  6
JWW_DASHED1
 62
   120
370
     5
100
AcDbLine
 10
525.5176252395866
 20
290.7790213601094
 30
0.0
 11
806.1985729104067
 21
571.45996903093
 31
0.0
  0
LINE
  5
2F5
330
1F
100
AcDbEntity
  8
0-0
  6
JWW_DASHED1
 62
   120
370
     5
100
AcDbLine
 10
525.5176252395917
 20
297.8500891719816
 30
0.0
 11
799.1275050985298
 21
571.4599690309198
 31
0.0
  0
LINE
  5
2F6
330
1F
100
AcDbEntity
  8
0-0
  6
JWW_DASHED1
 62
   120
370
     5
100
AcDbLine
 10
525.5176252395746
 20
304.9211569838312
 30
0.0
 11
792.0564372866768
 21
571.4599690309343
 31
0.0
  0
LINE
  5
2F7
330
1F
100
AcDbEntity
  8
0-0
  6
JWW_DASHED1
 62
   120
370
     5
100
AcDbLine
 10
525.5176252395848
 20
311.9922247957077
 30
0.0
 11
784.9853694748067
 21
571.4599690309309
 31
0.0
  0
LINE
  5
2F8
330
1F
100
AcDbEntity
  8
0-0
  6
JWW_DASHED1
 62
   120
370
     5
100
AcDbLine
 10
525.51762523959
 20
319.0632926075804
 30
0.0
 11
777.9143016629298
 21
571.459969030921
 31
0.0
  0
LINE
  5
2F9
330
1F
100
AcDbEntity
  8
0-0
  6
JWW_DASHED1
 62
   120
370
     5
100
AcDbLine
 10
525.5176252395866
 20
326.1343604194155
 30
0.0
 11
770.8432338511006
 21
571.4599690309292
 31
0.0
  0
LINE
  5
2FA
330
1F
100
AcDbEntity
  8
0-0
  6
JWW_DASHED1
 62
   120
370
     5
100
AcDbLine
 10
525.517625239578
 20
333.2054282312472
 30
0.0
 11
763.7721660392681
 21
571.4599690309368
 31
0.0
  0
LINE
  5
2FB
330
1F
100
AcDbEntity
  8
0-0
  6
JWW_DASHED1
 62
   120
370
     5
100
AcDbLine
 10
525.5176252395883
 20
340.2764960431236
 30
0.0
 11
756.7010982273912
 21
571.4599690309266
 31
0.0
  0
LINE
  5
2FC
330
1F
100
AcDbEntity
  8
0-0
  6
JWW_DASHED1
 62
   120
370
     5
100
AcDbLine
 10
525.5176252395934
 20
347.3475638549967
 30
0.0
 11
749.6300304155143
 21
571.4599690309168
 31
0.0
  0
LINE
  5
2FD
330
1F
100
AcDbEntity
  8
0-0
  6
JWW_DASHED1
 62
   120
370
     5
100
AcDbLine
 10
525.5176252395763
 20
354.418631666845
 30
0.0
 11
742.5589626036681
 21
571.459969030938
 31
0.0
  0
LINE
  5
2FE
330
1F
100
AcDbEntity
  8
0-0
  6
JWW_DASHED1
 62
   120
370
     5
100
AcDbLine
 10
525.5176252395866
 20
361.4896994787215
 30
0.0
 11
735.4878947917912
 21
571.4599690309278
 31
0.0
  0
LINE
  5
2FF
330
1F
100
AcDbEntity
  8
0-0
  6
JWW_DASHED1
 62
   120
370
     5
100
AcDbLine
 10
525.5176252395934
 20
368.5607672905954
 30
0.0
 11
728.416826979916
 21
571.459969030918
 31
0.0
  0
LINE
  5
300
330
1F
100
AcDbEntity
  8
0-0
  6
JWW_DASHED1
 62
   120
370
     5
100
AcDbLine
 10
525.5176252395746
 20
375.6318351024433
 30
0.0
 11
721.3457591680647
 21
571.4599690309343
 31
0.0
  0
LINE
  5
301
330
1F
100
AcDbEntity
  8
0-0
  6
JWW_DASHED1
 62
   120
370
     5
100
AcDbLine
 10
525.5176252395848
 20
382.7029029143202
 30
0.0
 11
714.2746913561946
 21
571.4599690309292
 31
0.0
  0
LINE
  5
302
330
1F
100
AcDbEntity
  8
0-0
  6
JWW_DASHED1
 62
   120
370
     5
100
AcDbLine
 10
525.5176252395917
 20
389.7739707261933
 30
0.0
 11
707.2036235443177
 21
571.4599690309193
 31
0.0
  0
LINE
  5
303
330
1F
100
AcDbEntity
  8
0-0
  6
JWW_DASHED1
 62
   120
370
     5
100
AcDbLine
 10
525.5176252395729
 20
396.8450385380413
 30
0.0
 11
700.1325557324681
 21
571.459969030936
 31
0.0
  0
LINE
  5
304
330
1F
100
AcDbEntity
  8
0-0
  6
JWW_DASHED1
 62
   120
370
     5
100
AcDbLine
 10
525.5176252395831
 20
403.9161063499177
 30
0.0
 11
693.0614879205946
 21
571.4599690309309
 31
0.0
  0
LINE
  5
305
330
1F
100
AcDbEntity
  8
0-0
  6
JWW_DASHED1
 62
   120
370
     5
100
AcDbLine
 10
525.5176252395934
 20
410.9871741617946
 30
0.0
 11
685.9904201087177
 21
571.4599690309207
 31
0.0
  0
LINE
  5
306
330
1F
100
AcDbEntity
  8
0-0
  6
JWW_DASHED1
 62
   120
370
     5
100
AcDbLine
 10
525.5176252395712
 20
418.05824197364
 30
0.0
 11
678.919352296868
 21
571.459969030938
 31
0.0
  0
LINE
  5
307
330
1F
100
AcDbEntity
  8
0-0
  6
JWW_DASHED1
 62
   120
370
     5
100
AcDbLine
 10
525.5176252395797
 20
425.129309785516
 30
0.0
 11
671.8482844849963
 21
571.4599690309317
 31
0.0
  0
LINE
  5
308
330
1F
100
AcDbEntity
  8
0-0
  6
JWW_DASHED1
 62
   120
370
     5
100
AcDbLine
 10
525.51762523959
 20
432.2003775973925
 30
0.0
 11
664.7772166731194
 21
571.4599690309219
 31
0.0
  0
LINE
  5
309
330
1F
100
AcDbEntity
  8
0-0
  6
JWW_DASHED1
 62
   120
370
     5
100
AcDbLine
 10
525.5176252395831
 20
439.2714454092515
 30
0.0
 11
657.7061488612544
 21
571.4599690309241
 31
0.0
  0
LINE
  5
30A
330
1F
100
AcDbEntity
  8
0-0
  6
JWW_DASHED1
 62
   120
370
     5
100
AcDbLine
 10
525.5176252395797
 20
446.3425132211143
 30
0.0
 11
650.635081049398
 21
571.4599690309334
 31
0.0
  0
LINE
  5
30B
330
1F
100
AcDbEntity
  8
0-0
  6
JWW_DASHED1
 62
   120
370
     5
100
AcDbLine
 10
525.5176252395883
 20
453.4135810329908
 30
0.0
 11
643.5640132375211
 21
571.4599690309232
 31
0.0
  0
LINE
  5
30C
330
1F
100
AcDbEntity
  8
0-0
  6
JWW_DASHED1
 62
   120
370
     5
100
AcDbLine
 10
525.5176252395968
 20
460.4846488448655
 30
0.0
 11
636.4929454256442
 21
571.4599690309129
 31
0.0
  0
LINE
  5
30D
330
1F
100
AcDbEntity
  8
0-0
  6
JWW_DASHED1
 62
   120
370
     5
100
AcDbLine
 10
525.5176252395763
 20
467.5557166567122
 30
0.0
 11
629.421877613798
 21
571.4599690309343
 31
0.0
  0
LINE
  5
30E
330
1F
100
AcDbEntity
  8
0-0
  6
JWW_DASHED1
 62
   120
370
     5
100
AcDbLine
 10
525.5176252395866
 20
474.6267844685891
 30
0.0
 11
622.3508098019211
 21
571.4599690309241
 31
0.0
  0
LINE
  5
30F
330
1F
100
AcDbEntity
  8
0-0
  6
JWW_DASHED1
 62
   120
370
     5
100
AcDbLine
 10
525.5176252395951
 20
481.6978522804643
 30
0.0
 11
615.2797419900442
 21
571.4599690309142
 31
0.0
  0
LINE
  5
310
330
1F
100
AcDbEntity
  8
0-0
  6
JWW_DASHED1
 62
   120
370
     5
100
AcDbLine
 10
525.5176252395746
 20
488.7689200923105
 30
0.0
 11
608.208674178198
 21
571.4599690309338
 31
0.0
  0
LINE
  5
311
330
1F
100
AcDbEntity
  8
0-0
  6
JWW_DASHED1
 62
   120
370
     5
100
AcDbLine
 10
525.5176252395848
 20
495.839987904187
 30
0.0
 11
601.1376063663245
 21
571.4599690309258
 31
0.0
  0
LINE
  5
312
330
1F
100
AcDbEntity
  8
0-0
  6
JWW_DASHED1
 62
   120
370
     5
100
AcDbLine
 10
525.5176252395934
 20
502.9110557160626
 30
0.0
 11
594.0665385544476
 21
571.4599690309155
 31
0.0
  0
LINE
  5
313
330
1F
100
AcDbEntity
  8
0-0
  6
JWW_DASHED1
 62
   120
370
     5
100
AcDbLine
 10
525.5176252395729
 20
509.9821235279088
 30
0.0
 11
586.9954707425997
 21
571.4599690309351
 31
0.0
  0
LINE
  5
314
330
1F
100
AcDbEntity
  8
0-0
  6
JWW_DASHED1
 62
   120
370
     5
100
AcDbLine
 10
525.5176252395831
 20
517.0531913397853
 30
0.0
 11
579.9244029307245
 21
571.459969030927
 31
0.0
  0
LINE
  5
315
330
1F
100
AcDbEntity
  8
0-0
  6
JWW_DASHED1
 62
   120
370
     5
100
AcDbLine
 10
525.5176252395934
 20
524.1242591516617
 30
0.0
 11
572.8533351188476
 21
571.4599690309163
 31
0.0
  0
LINE
  5
316
330
1F
100
AcDbEntity
  8
0-0
  6
JWW_DASHED1
 62
   120
370
     5
100
AcDbLine
 10
525.5176252395712
 20
531.1953269635067
 30
0.0
 11
565.7822673070013
 21
571.4599690309373
 31
0.0
  0
LINE
  5
317
330
1F
100
AcDbEntity
  8
0-0
  6
JWW_DASHED1
 62
   120
370
     5
100
AcDbLine
 10
525.5176252395814
 20
538.2663947753836
 30
0.0
 11
558.7111994951262
 21
571.4599690309283
 31
0.0
  0
LINE
  5
318
330
1F
100
AcDbEntity
  8
0-0
  6
JWW_DASHED1
 62
   120
370
     5
100
AcDbLine
 10
525.51762523959
 20
545.33746258726
 30
0.0
 11
551.6401316832493
 21
571.4599690309185
 31
0.0
  0
LINE
  5
319
330
1F
100
AcDbEntity
  8
0-0
  6
JWW_DASHED1
 62
   120
370
     5
100
AcDbLine
 10
525.5176252395848
 20
552.4085303991203
 30
0.0
 11
544.5690638713877
 21
571.4599690309232
 31
0.0
  0
LINE
  5
31A
330
1F
100
AcDbEntity
  8
0-0
  6
JWW_DASHED1
 62
   120
370
     5
100
AcDbLine
 10
525.5176252395797
 20
559.4795982109814
 30
0.0
 11
537.4979960595278
 21
571.4599690309292
 31
0.0
  0
LINE
  5
31B
330
1F
100
AcDbEntity
  8
0-0
  6
JWW_DASHED1
 62
   120
370
     5
100
AcDbLine
 10
525.51762523959
 20
566.550666022858
 30
0.0
 11
530.426928247651
 21
571.4599690309198
 31
0.0
  0
LINE
  5
31C
330
1F
100
AcDbEntity
  8
0-0
  6
JWW_DASHED1
 62
   120
370
     5
100
AcDbLine
 10
849.4323378189922
 20
-403.5400309690662
 30
0.0
 11
1115.517625239572
 21
-137.4547435484857
 31
0.0
  0
LINE
  5
31D
330
1F
100
AcDbEntity
  8
0-0
  6
Continuous
 62
    92
370
    13
100
AcDbLine
 10
525.5176252395831
 20
-533.5400309690758
 30
0.0
 11
1115.517625239585
 21
-533.5400309690758
 31
0.0
  0
LINE
  5
31E
330
1F
100
AcDbEntity
  8
0-0
  6
Continuous
 62
    92
370
    13
100
AcDbLine
 10
1115.517625239585
 20
-1276.540030969075
 30
0.0
 11
1115.517625239585
 21
706.4599690309244
 31
0.0
  0
LINE
  5
31F
330
1F
100
AcDbEntity
  8
0-0
  6
Continuous
 62
    92
370
    13
100
AcDbLine
 10
-444.4823747604146
 20
-1276.540030969075
 30
0.0
 11
-444.4823747604146
 21
706.4599690309244
 31
0.0
  0
LINE
  5
320
330
1F
100
AcDbEntity
  8
0-0
  6
Continuous
 62
    92
370
    13
100
AcDbLine
 10
-1034.482374760417
 20
-1276.540030969075
 30
0.0
 11
-1034.482374760417
 21
706.4599690309244
 31
0.0
  0
LINE
  5
321
330
1F
100
AcDbEntity
  8
0-0
  6
Continuous
 62
    92
370
    13
100
AcDbLine
 10
335.5176252395854
 20
-1276.540030969075
 30
0.0
 11
335.5176252395854
 21
706.4599690309244
 31
0.0
  0
LINE
  5
322
330
1F
100
AcDbEntity
  8
0-0
  6
Continuous
 62
    92
370
    13
100
AcDbLine
 10
-254.4823747604169
 20
-1276.540030969075
 30
0.0
 11
-254.4823747604169
 21
706.4599690309244
 31
0.0
  0
LINE
  5
323
330
1F
100
AcDbEntity
  8
0-0
  6
Continuous
 62
    92
370
    13
100
AcDbLine
 10
525.5176252395831
 20
-1276.540030969075
 30
0.0
 11
525.5176252395831
 21
706.4599690309244
 31
0.0
  0
MTEXT
  5
324
330
1F
100
AcDbEntity
  8
文字
  6
Continuous
 62
     7
370
     9
100
AcDbMText
 10
-1721.482374760416
 20
1251.443350971137
 30
0.0
 40
45.71999999999998
 41
1620.0
 46
0.0
 71
     7
 72
     1
  1
{\fＭＳ ゴシック|b0|i0|c128|p49;※ＣＨは縦木目柄、ＣＹは横木目柄のデザインとなります。}
 73
     1
 44
1.0
  0
LINE
  5
325
330
1F
100
AcDbEntity
  8
寸法
  6
Continuous
 62
   120
370
     5
100
AcDbLine
 10
-1621.482374760415
 20
750.4599690309245
 30
0.0
 11
-1621.482374760415
 21
-1296.540030969076
 31
0.0
  0
LINE
  5
326
330
1F
100
AcDbEntity
  8
寸法
  6
Continuous
 62
   120
370
     5
100
AcDbLine
 10
-1621.482374760415
 20
750.4599690309245
 30
0.0
 11
-1221.482374760414
 21
750.4599690309245
 31
0.0
  0
LINE
  5
327
330
1F
100
AcDbEntity
  8
寸法
  6
Continuous
 62
   120
370
     5
100
AcDbLine
 10
-1621.482374760415
 20
-1296.540030969076
 30
0.0
 11
-1221.482374760414
 21
-1296.540030969076
 31
0.0
  0
LINE
  5
328
330
1F
100
AcDbEntity
  8
寸法
  6
Continuous
 62
   120
370
     5
100
AcDbLine
 10
-1421.482374760416
 20
-1276.540030969075
 30
0.0
 11
-1221.482374760414
 21
-1276.540030969075
 31
0.0
  0
LWPOLYLINE
  5
329
330
1F
100
AcDbEntity
  8
寸法
  6
Continuous
 62
     7
370
     9
100
AcDbPolyline
 90
        4
 70
     1
 43
3.0
 10
-1619.982374760415
 20
750.4599690309245
 42
0.4142135623731
 10
-1621.482374760415
 20
751.9599690309245
 42
0.4142135623731
 10
-1622.982374760415
 20
750.4599690309245
 42
0.4142135623731
 10
-1621.482374760415
 20
748.9599690309245
 42
0.4142135623731
  0
LWPOLYLINE
  5
32A
330
1F
100
AcDbEntity
  8
寸法
  6
Continuous
 62
     7
370
     9
100
AcDbPolyline
 90
        4
 70
     1
 43
3.0
 10
-1619.982374760415
 20
-1296.540030969076
 42
0.4142135623731
 10
-1621.482374760415
 20
-1295.040030969076
 42
0.4142135623731
 10
-1622.982374760415
 20
-1296.540030969076
 42
0.4142135623731
 10
-1621.482374760415
 20
-1298.040030969076
 42
0.4142135623731
  0
LWPOLYLINE
  5
32B
330
1F
100
AcDbEntity
  8
寸法
  6
Continuous
 62
     7
370
     9
100
AcDbPolyline
 90
        4
 70
     1
 43
3.0
 10
-1419.982374760416
 20
-1276.540030969075
 42
0.4142135623731
 10
-1421.482374760416
 20
-1275.040030969075
 42
0.4142135623731
 10
-1422.982374760416
 20
-1276.540030969075
 42
0.4142135623731
 10
-1421.482374760416
 20
-1278.040030969075
 42
0.4142135623731
  0
LINE
  5
32C
330
1F
100
AcDbEntity
  8
寸法
  6
Continuous
 62
   120
370
     5
100
AcDbLine
 10
-1421.482374760416
 20
706.4599690309253
 30
0.0
 11
-1221.482374760414
 21
706.4599690309253
 31
0.0
  0
LINE
  5
32D
330
1F
100
AcDbEntity
  8
寸法
  6
Continuous
 62
   120
370
     5
100
AcDbLine
 10
-1421.482374760416
 20
706.4599690309253
 30
0.0
 11
-1421.482374760416
 21
-1276.540030969075
 31
0.0
  0
LWPOLYLINE
  5
32E
330
1F
100
AcDbEntity
  8
寸法
  6
Continuous
 62
     7
370
     9
100
AcDbPolyline
 90
        4
 70
     1
 43
3.0
 10
-1419.982374760416
 20
706.4599690309253
 42
0.4142135623731
 10
-1421.482374760416
 20
707.9599690309253
 42
0.4142135623731
 10
-1422.982374760416
 20
706.4599690309253
 42
0.4142135623731
 10
-1421.482374760416
 20
704.9599690309253
 42
0.4142135623731
  0
LINE
  5
32F
330
1F
100
AcDbEntity
  8
寸法
  6
Continuous
 62
   120
370
     5
100
AcDbLine
 10
-1141.482374760415
 20
-1746.540030969076
 30
0.0
 11
-1141.482374760415
 21
-1346.540030969076
 31
0.0
  0
LINE
  5
330
330
1F
100
AcDbEntity
  8
寸法
  6
Continuous
 62
   120
370
     5
100
AcDbLine
 10
-1171.482374760415
 20
-1946.540030969076
 30
0.0
 11
-1171.482374760415
 21
-1346.540030969076
 31
0.0
  0
LINE
  5
331
330
1F
100
AcDbEntity
  8
寸法
  6
Continuous
 62
   120
370
     5
100
AcDbLine
 10
-1171.482374760415
 20
-1946.540030969076
 30
0.0
 11
2035.517625239585
 21
-1946.540030969075
 31
0.0
  0
LINE
  5
332
330
1F
100
AcDbEntity
  8
寸法
  6
Continuous
 62
   120
370
     5
100
AcDbLine
 10
2035.517625239585
 20
-1946.540030969075
 30
0.0
 11
2035.517625239585
 21
-1346.540030969076
 31
0.0
  0
LINE
  5
333
330
1F
100
AcDbEntity
  8
寸法
  6
Continuous
 62
   120
370
     5
100
AcDbLine
 10
-1144.482374760416
 20
-1546.540030969076
 30
0.0
 11
-1144.482374760416
 21
-1346.540030969076
 31
0.0
  0
LINE
  5
334
330
1F
100
AcDbEntity
  8
寸法
  6
Continuous
 62
   120
370
     5
100
AcDbLine
 10
-1144.482374760416
 20
-1546.540030969076
 30
0.0
 11
-334.4823747604149
 21
-1546.540030969076
 31
0.0
  0
LINE
  5
335
330
1F
100
AcDbEntity
  8
寸法
  6
Continuous
 62
   120
370
     5
100
AcDbLine
 10
-334.4823747604149
 20
-1546.540030969076
 30
0.0
 11
-334.4823747604149
 21
-1346.540030969076
 31
0.0
  0
LINE
  5
336
330
1F
100
AcDbEntity
  8
寸法
  6
Continuous
 62
   120
370
     5
100
AcDbLine
 10
-1141.482374760415
 20
-1746.540030969076
 30
0.0
 11
1195.517625239585
 21
-1746.540030969076
 31
0.0
  0
LINE
  5
337
330
1F
100
AcDbEntity
  8
寸法
  6
Continuous
 62
   120
370
     5
100
AcDbLine
 10
1195.517625239585
 20
-1746.540030969076
 30
0.0
 11
1195.517625239585
 21
-1346.540030969076
 31
0.0
  0
LWPOLYLINE
  5
338
330
1F
100
AcDbEntity
  8
寸法
  6
Continuous
 62
     7
370
     9
100
AcDbPolyline
 90
        4
 70
     1
 43
3.0
 10
-1139.982374760415
 20
-1746.540030969076
 42
0.4142135623731
 10
-1141.482374760415
 20
-1745.040030969076
 42
0.4142135623731
 10
-1142.982374760415
 20
-1746.540030969076
 42
0.4142135623731
 10
-1141.482374760415
 20
-1748.040030969076
 42
0.4142135623731
  0
LWPOLYLINE
  5
339
330
1F
100
AcDbEntity
  8
寸法
  6
Continuous
 62
     7
370
     9
100
AcDbPolyline
 90
        4
 70
     1
 43
3.0
 10
-1169.982374760415
 20
-1946.540030969076
 42
0.4142135623731
 10
-1171.482374760415
 20
-1945.040030969076
 42
0.4142135623731
 10
-1172.982374760415
 20
-1946.540030969076
 42
0.4142135623731
 10
-1171.482374760415
 20
-1948.040030969076
 42
0.4142135623731
  0
LWPOLYLINE
  5
33A
330
1F
100
AcDbEntity
  8
寸法
  6
Continuous
 62
     7
370
     9
100
AcDbPolyline
 90
        4
 70
     1
 43
3.0
 10
2037.017625239585
 20
-1946.540030969075
 42
0.4142135623731
 10
2035.517625239585
 20
-1945.040030969075
 42
0.4142135623731
 10
2034.017625239585
 20
-1946.540030969075
 42
0.4142135623731
 10
2035.517625239585
 20
-1948.040030969075
 42
0.4142135623731
  0
LWPOLYLINE
  5
33B
330
1F
100
AcDbEntity
  8
寸法
  6
Continuous
 62
     7
370
     9
100
AcDbPolyline
 90
        4
 70
     1
 43
3.0
 10
-1142.982374760416
 20
-1546.540030969076
 42
0.4142135623731
 10
-1144.482374760416
 20
-1545.040030969076
 42
0.4142135623731
 10
-1145.982374760416
 20
-1546.540030969076
 42
0.4142135623731
 10
-1144.482374760416
 20
-1548.040030969076
 42
0.4142135623731
  0
LWPOLYLINE
  5
33C
330
1F
100
AcDbEntity
  8
寸法
  6
Continuous
 62
     7
370
     9
100
AcDbPolyline
 90
        4
 70
     1
 43
3.0
 10
-332.9823747604149
 20
-1546.540030969076
 42
0.4142135623731
 10
-334.4823747604149
 20
-1545.040030969076
 42
0.4142135623731
 10
-335.9823747604149
 20
-1546.540030969076
 42
0.4142135623731
 10
-334.4823747604149
 20
-1548.040030969076
 42
0.4142135623731
  0
LWPOLYLINE
  5
33D
330
1F
100
AcDbEntity
  8
寸法
  6
Continuous
 62
     7
370
     9
100
AcDbPolyline
 90
        4
 70
     1
 43
3.0
 10
1197.017625239585
 20
-1746.540030969076
 42
0.4142135623731
 10
1195.517625239585
 20
-1745.040030969076
 42
0.4142135623731
 10
1194.017625239585
 20
-1746.540030969076
 42
0.4142135623731
 10
1195.517625239585
 20
-1748.040030969075
 42
0.4142135623731
  0
MTEXT
  5
33E
330
1F
100
AcDbEntity
  8
寸法
  6
Continuous
 62
     7
370
    70
100
AcDbMText
 10
-1636.482374760415
 20
-488.2150309690749
 30
0.0
 40
57.14999999999999
 41
412.5
 46
0.0
 71
     7
 72
     1
  1
{\fＭＳ ゴシック|b0|i0|c128|p49;枠外＝2,047}
 11
6.123031769111886E-17
 21
1.0
 31
0.0
 73
     1
 44
1.0
  0
MTEXT
  5
33F
330
1F
100
AcDbEntity
  8
寸法
  6
Continuous
 62
     7
370
    70
100
AcDbMText
 10
-1436.482374760416
 20
-494.2150309690754
 30
0.0
 40
57.14999999999999
 41
412.5
 46
0.0
 71
     7
 72
     1
  1
{\fＭＳ ゴシック|b0|i0|c128|p49;ＤＨ＝1,983}
 11
6.123031769111886E-17
 21
1.0
 31
0.0
 73
     1
 44
1.0
  0
MTEXT
  5
340
330
1F
100
AcDbEntity
  8
寸法
  6
Continuous
 62
     7
370
   211
100
AcDbMText
 10
-908.2323747604149
 20
-1540.465030969076
 30
0.0
 40
57.15
 41
337.5
 46
0.0
 71
     7
 72
     1
  1
{\fＭＳ ゴシック|b0|i0|c128|p49;ＤＷ＝810}
 73
     1
 44
1.0
  0
MTEXT
  5
341
330
1F
100
AcDbEntity
  8
寸法
  6
Continuous
 62
     7
370
   211
100
AcDbMText
 10
-254.2323747604171
 20
-1740.465030969076
 30
0.0
 40
57.15000000000001
 41
562.5
 46
0.0
 71
     7
 72
     1
  1
{\fＭＳ ゴシック|b0|i0|c128|p49;有効開口＝2,337}
 73
     1
 44
1.0
  0
MTEXT
  5
342
330
1F
100
AcDbEntity
  8
寸法
  6
Continuous
 62
     7
370
   211
100
AcDbMText
 10
225.7676252395829
 20
-1940.465030969076
 30
0.0
 40
57.14999999999999
 41
412.5
 46
0.0
 71
     7
 72
     1
  1
{\fＭＳ ゴシック|b0|i0|c128|p49;枠外＝3,207}
 73
     1
 44
1.0
  0
ENDSEC
  0
SECTION
  2
OBJECTS
  0
DICTIONARY
  5
C
330
0
100
AcDbDictionary
281
     1
  3
ACAD_GROUP
350
D
  3
ACAD_LAYOUT
350
1A
  3
ACAD_MATERIAL
350
3B
  3
ACAD_MLEADERSTYLE
350
344
  3
ACAD_MLINESTYLE
350
17
  3
ACAD_PLOTSETTINGS
350
19
  3
ACAD_PLOTSTYLENAME
350
E
  3
ACAD_TABLESTYLE
350
343
  3
ACAD_VISUALSTYLE
350
2A
  0
DICTIONARY
  5
D
102
{ACAD_REACTORS
330
C
102
}
330
C
100
AcDbDictionary
281
     1
  0
DICTIONARY
  5
1A
102
{ACAD_REACTORS
330
C
102
}
330
C
100
AcDbDictionary
281
     1
  3
Layout1
350
1E
  3
Layout2
350
26
  3
Model
350
22
  0
DICTIONARY
  5
3B
102
{ACAD_REACTORS
330
C
102
}
330
C
100
AcDbDictionary
281
     1
  3
ByBlock
350
3D
  3
ByLayer
350
3C
  3
Global
350
3E
  0
DICTIONARY
  5
344
102
{ACAD_REACTORS
330
C
102
}
330
C
100
AcDbDictionary
281
     1
  0
DICTIONARY
  5
17
102
{ACAD_REACTORS
330
C
102
}
330
C
100
AcDbDictionary
281
     1
  3
Standard
350
18
  0
DICTIONARY
  5
19
102
{ACAD_REACTORS
330
C
102
}
330
C
100
AcDbDictionary
281
     1
  0
ACDBDICTIONARYWDFLT
  5
E
102
{ACAD_REACTORS
330
C
102
}
330
C
100
AcDbDictionary
281
     1
  3
Normal
350
F
100
AcDbDictionaryWithDefault
340
F
  0
DICTIONARY
  5
343
102
{ACAD_REACTORS
330
C
102
}
330
C
100
AcDbDictionary
281
     1
  0
DICTIONARY
  5
2A
102
{ACAD_REACTORS
330
C
102
}
330
C
100
AcDbDictionary
281
     1
  3
2dWireframe
350
2F
  3
3D Hidden
350
31
  3
3dWireframe
350
30
  3
Basic
350
32
  3
Brighten
350
36
  3
ColorChange
350
3A
  3
Conceptual
350
34
  3
Dim
350
35
  3
Facepattern
350
39
  3
Flat
350
2B
  3
FlatWithEdges
350
2C
  3
Gouraud
350
2D
  3
GouraudWithEdges
350
2E
  3
Linepattern
350
38
  3
Realistic
350
33
  3
Thicken
350
37
  0
LAYOUT
  5
1E
102
{ACAD_REACTORS
330
1A
102
}
330
1A
100
AcDbPlotSettings
  1

  2
none_device
  4

  6

 40
0.0
 41
0.0
 42
0.0
 43
0.0
 44
0.0
 45
0.0
 46
0.0
 47
0.0
 48
0.0
 49
0.0
140
0.0
141
0.0
142
1.0
143
1.0
 70
   688
 72
     0
 73
     0
 74
     5
  7

 75
    16
 76
     0
 77
     5
 78
   300
147
1.0
148
0.0
149
0.0
100
AcDbLayout
  1
Layout1
 70
     1
 71
     1
 10
0.0
 20
0.0
 11
420.0
 21
297.0
 12
0.0
 22
0.0
 32
0.0
 14
1.000000000000000E+20
 24
1.000000000000000E+20
 34
1.000000000000000E+20
 15
-1.000000000000000E+20
 25
-1.000000000000000E+20
 35
-1.000000000000000E+20
146
0.0
 13
0.0
 23
0.0
 33
0.0
 16
1.0
 26
0.0
 36
0.0
 17
0.0
 27
1.0
 37
0.0
 76
     0
330
1B
  0
LAYOUT
  5
26
102
{ACAD_REACTORS
330
1A
102
}
330
1A
100
AcDbPlotSettings
  1

  2
none_device
  4

  6

 40
0.0
 41
0.0
 42
0.0
 43
0.0
 44
0.0
 45
0.0
 46
0.0
 47
0.0
 48
0.0
 49
0.0
140
0.0
141
0.0
142
1.0
143
1.0
 70
   688
 72
     0
 73
     0
 74
     5
  7

 75
    16
 76
     0
 77
     5
 78
   300
147
1.0
148
0.0
149
0.0
100
AcDbLayout
  1
Layout2
 70
     1
 71
     2
 10
0.0
 20
0.0
 11
0.0
 21
0.0
 12
0.0
 22
0.0
 32
0.0
 14
0.0
 24
0.0
 34
0.0
 15
0.0
 25
0.0
 35
0.0
146
0.0
 13
0.0
 23
0.0
 33
0.0
 16
1.0
 26
0.0
 36
0.0
 17
0.0
 27
1.0
 37
0.0
 76
     0
330
23
  0
LAYOUT
  5
22
102
{ACAD_REACTORS
330
1A
102
}
330
1A
100
AcDbPlotSettings
  1

  2
none_device
  4

  6

 40
0.0
 41
0.0
 42
0.0
 43
0.0
 44
0.0
 45
0.0
 46
0.0
 47
0.0
 48
0.0
 49
0.0
140
0.0
141
0.0
142
1.0
143
1.0
 70
  1712
 72
     0
 73
     0
 74
     0
  7

 75
     0
 76
     0
 77
     5
 78
   300
147
1.0
148
0.0
149
0.0
100
AcDbLayout
  1
Model
 70
     1
 71
     0
 10
-4455.0
 20
-3150.0
 11
4455.0
 21
3150.0
 12
0.0
 22
0.0
 32
0.0
 14
-4455.0
 24
-3150.0
 34
0.0
 15
4455.0
 25
3150.0
 35
0.0
146
0.0
 13
0.0
 23
0.0
 33
0.0
 16
1.0
 26
0.0
 36
0.0
 17
0.0
 27
1.0
 37
0.0
 76
     0
330
1F
331
29
  0
MATERIAL
  5
3D
102
{ACAD_REACTORS
330
3B
102
}
330
3B
100
AcDbMaterial
  1
ByBlock
 72
     1
 94
      127
  0
MATERIAL
  5
3C
102
{ACAD_REACTORS
330
3B
102
}
330
3B
100
AcDbMaterial
  1
ByLayer
 72
     1
 94
      127
  0
MATERIAL
  5
3E
102
{ACAD_REACTORS
330
3B
102
}
330
3B
100
AcDbMaterial
  1
Global
 72
     1
 94
      127
  0
MLINESTYLE
  5
18
102
{ACAD_REACTORS
330
17
102
}
330
17
100
AcDbMlineStyle
  2
Standard
 70
     0
  3

 62
   256
 51
90.0
 52
90.0
 71
     2
 49
0.5
 62
   256
  6
BYLAYER
 49
-0.5
 62
   256
  6
BYLAYER
  0
ACDBPLACEHOLDER
  5
F
102
{ACAD_REACTORS
330
E
102
}
330
E
  0
VISUALSTYLE
  5
2F
102
{ACAD_REACTORS
330
2A
102
}
330
2A
100
AcDbVisualStyle
  2
2dWireframe
 70
     4
177
     2
291
     0
 71
     0
176
     1
 72
     2
176
     1
 73
     0
176
     1
 90
        0
176
     1
 40
-0.6
176
     1
 41
-30.0
176
     1
 62
     5
 63
     7
421
 16777215
176
     1
 74
     1
176
     1
 91
        4
176
     1
 64
     7
176
     1
 65
   257
176
     1
 75
     1
176
     1
175
     1
176
     1
 42
1.0
176
     1
 92
        0
176
     1
 66
   257
176
     1
 43
1.0
176
     1
 76
     1
176
     1
 77
     6
176
     1
 78
     2
176
     1
 67
     7
176
     1
 79
     5
176
     1
170
     0
176
     1
171
     0
176
     1
290
     0
176
     1
 93
        1
176
     1
 44
0.0
176
     1
173
     0
176
     1
  0
VISUALSTYLE
  5
31
102
{ACAD_REACTORS
330
2A
102
}
330
2A
100
AcDbVisualStyle
  2
3D Hidden
 70
     6
177
     2
291
     0
 71
     1
176
     1
 72
     2
176
     1
 73
     2
176
     1
 90
        0
176
     1
 40
-0.6
176
     1
 41
-30.0
176
     1
 62
     5
 63
     7
421
 16777215
176
     1
 74
     2
176
     1
 91
        2
176
     1
 64
     7
176
     1
 65
   257
176
     1
 75
     2
176
     1
175
     1
176
     1
 42
40.0
176
     1
 92
        0
176
     1
 66
   257
176
     1
 43
1.0
176
     1
 76
     1
176
     1
 77
     6
176
     1
 78
     2
176
     1
 67
     7
176
     1
 79
     3
176
     1
170
     0
176
     1
171
     0
176
     1
290
     0
176
     1
 93
        1
176
     1
 44
0.0
176
     1
173
     0
176
     1
  0
VISUALSTYLE
  5
30
102
{ACAD_REACTORS
330
2A
102
}
330
2A
100
AcDbVisualStyle
  2
3dWireframe
 70
     5
177
     2
291
     0
 71
     0
176
     1
 72
     2
176
     1
 73
     0
176
     1
 90
        0
176
     1
 40
-0.6
176
     1
 41
-30.0
176
     1
 62
     5
 63
     7
421
 16777215
176
     1
 74
     1
176
     1
 91
        4
176
     1
 64
     7
176
     1
 65
   257
176
     1
 75
     1
176
     1
175
     1
176
     1
 42
1.0
176
     1
 92
        0
176
     1
 66
   257
176
     1
 43
1.0
176
     1
 76
     1
176
     1
 77
     6
176
     1
 78
     2
176
     1
 67
     7
176
     1
 79
     5
176
     1
170
     0
176
     1
171
     0
176
     1
290
     0
176
     1
 93
        1
176
     1
 44
0.0
176
     1
173
     0
176
     1
  0
VISUALSTYLE
  5
32
102
{ACAD_REACTORS
330
2A
102
}
330
2A
100
AcDbVisualStyle
  2
Basic
 70
     7
177
     2
291
     1
 71
     1
176
     1
 72
     0
176
     1
 73
     1
176
     1
 90
        0
176
     1
 40
-0.6
176
     1
 41
-30.0
176
     1
 62
     5
 63
     7
421
 16777215
176
     1
 74
     0
176
     1
 91
        4
176
     1
 64
     7
176
     1
 65
   257
176
     1
 75
     1
176
     1
175
     1
176
     1
 42
1.0
176
     1
 92
        8
176
     1
 66
     7
176
     1
 43
1.0
176
     1
 76
     1
176
     1
 77
     6
176
     1
 78
     2
176
     1
 67
     7
176
     1
 79
     5
176
     1
170
     0
176
     1
171
     0
176
     1
290
     0
176
     1
 93
        1
176
     1
 44
0.0
176
     1
173
     0
176
     1
  0
VISUALSTYLE
  5
36
102
{ACAD_REACTORS
330
2A
102
}
330
2A
100
AcDbVisualStyle
  2
Brighten
 70
    12
177
     2
291
     1
 71
     2
176
     1
 72
     2
176
     1
 73
     0
176
     1
 90
        0
176
     1
 40
-0.6
176
     1
 41
-30.0
176
     1
 62
     5
 63
     7
421
 16777215
176
     1
 74
     1
176
     1
 91
        4
176
     1
 64
     7
176
     1
 65
   257
176
     1
 75
     1
176
     1
175
     1
176
     1
 42
1.0
176
     1
 92
        8
176
     1
 66
     7
176
     1
 43
1.0
176
     1
 76
     1
176
     1
 77
     6
176
     1
 78
     2
176
     1
 67
     7
176
     1
 79
     5
176
     1
170
     0
176
     1
171
     0
176
     1
290
     0
176
     1
 93
        1
176
     1
 44
50.0
176
     1
173
     0
176
     1
  0
VISUALSTYLE
  5
3A
102
{ACAD_REACTORS
330
2A
102
}
330
2A
100
AcDbVisualStyle
  2
ColorChange
 70
    16
177
     2
291
     1
 71
     2
176
     1
 72
     2
176
     1
 73
     3
176
     1
 90
        0
176
     1
 40
-0.6
176
     1
 41
-30.0
176
     1
 62
     5
 63
     8
421
  8421504
176
     1
 74
     1
176
     1
 91
        4
176
     1
 64
     7
176
     1
 65
   257
176
     1
 75
     1
176
     1
175
     1
176
     1
 42
1.0
176
     1
 92
        8
176
     1
 66
     8
424
  8421504
176
     1
 43
1.0
176
     1
 76
     1
176
     1
 77
     6
176
     1
 78
     2
176
     1
 67
     7
176
     1
 79
     5
176
     1
170
     0
176
     1
171
     0
176
     1
290
     0
176
     1
 93
        1
176
     1
 44
0.0
176
     1
173
     0
176
     1
  0
VISUALSTYLE
  5
34
102
{ACAD_REACTORS
330
2A
102
}
330
2A
100
AcDbVisualStyle
  2
Conceptual
 70
     9
177
     2
291
     0
 71
     3
176
     1
 72
     2
176
     1
 73
     0
176
     1
 90
        0
176
     1
 40
-0.6
176
     1
 41
-30.0
176
     1
 62
     5
 63
     7
421
 16777215
176
     1
 74
     2
176
     1
 91
        2
176
     1
 64
     7
176
     1
 65
   257
176
     1
 75
     1
176
     1
175
     1
176
     1
 42
40.0
176
     1
 92
        8
176
     1
 66
     7
176
     1
 43
1.0
176
     1
 76
     1
176
     1
 77
     6
176
     1
 78
     2
176
     1
 67
     7
176
     1
 79
     3
176
     1
170
     0
176
     1
171
     0
176
     1
290
     0
176
     1
 93
        1
176
     1
 44
0.0
176
     1
173
     0
176
     1
  0
VISUALSTYLE
  5
35
102
{ACAD_REACTORS
330
2A
102
}
330
2A
100
AcDbVisualStyle
  2
Dim
 70
    11
177
     2
291
     1
 71
     2
176
     1
 72
     2
176
     1
 73
     0
176
     1
 90
        0
176
     1
 40
-0.6
176
     1
 41
-30.0
176
     1
 62
     5
 63
     7
421
 16777215
176
     1
 74
     1
176
     1
 91
        4
176
     1
 64
     7
176
     1
 65
   257
176
     1
 75
     1
176
     1
175
     1
176
     1
 42
1.0
176
     1
 92
        8
176
     1
 66
     7
176
     1
 43
1.0
176
     1
 76
     1
176
     1
 77
     6
176
     1
 78
     2
176
     1
 67
     7
176
     1
 79
     5
176
     1
170
     0
176
     1
171
     0
176
     1
290
     0
176
     1
 93
        1
176
     1
 44
-50.0
176
     1
173
     0
176
     1
  0
VISUALSTYLE
  5
39
102
{ACAD_REACTORS
330
2A
102
}
330
2A
100
AcDbVisualStyle
  2
Facepattern
 70
    15
177
     2
291
     1
 71
     2
176
     1
 72
     2
176
     1
 73
     0
176
     1
 90
        0
176
     1
 40
-0.6
176
     1
 41
-30.0
176
     1
 62
     5
 63
     7
421
 16777215
176
     1
 74
     1
176
     1
 91
        4
176
     1
 64
     7
176
     1
 65
   257
176
     1
 75
     1
176
     1
175
     1
176
     1
 42
1.0
176
     1
 92
        8
176
     1
 66
     7
176
     1
 43
1.0
176
     1
 76
     1
176
     1
 77
     6
176
     1
 78
     2
176
     1
 67
     7
176
     1
 79
     5
176
     1
170
     0
176
     1
171
     0
176
     1
290
     0
176
     1
 93
        1
176
     1
 44
0.0
176
     1
173
     0
176
     1
  0
VISUALSTYLE
  5
2B
102
{ACAD_REACTORS
330
2A
102
}
330
2A
100
AcDbVisualStyle
  2
Flat
 70
     0
177
     2
291
     1
 71
     2
176
     1
 72
     1
176
     1
 73
     1
176
     1
 90
        2
176
     1
 40
-0.6
176
     1
 41
30.0
176
     1
 62
     5
 63
     7
421
 16777215
176
     1
 74
     0
176
     1
 91
        4
176
     1
 64
     7
176
     1
 65
   257
176
     1
 75
     1
176
     1
175
     1
176
     1
 42
1.0
176
     1
 92
        8
176
     1
 66
     7
176
     1
 43
1.0
176
     1
 76
     1
176
     1
 77
     6
176
     1
 78
     2
176
     1
 67
     7
176
     1
 79
     5
176
     1
170
     0
176
     1
171
     0
176
     1
290
     0
176
     1
 93
       13
176
     1
 44
0.0
176
     1
173
     0
176
     1
  0
VISUALSTYLE
  5
2C
102
{ACAD_REACTORS
330
2A
102
}
330
2A
100
AcDbVisualStyle
  2
FlatWithEdges
 70
     1
177
     2
291
     1
 71
     2
176
     1
 72
     1
176
     1
 73
     1
176
     1
 90
        2
176
     1
 40
-0.6
176
     1
 41
30.0
176
     1
 62
     5
 63
     7
421
 16777215
176
     1
 74
     1
176
     1
 91
        4
176
     1
 64
     7
176
     1
 65
   257
176
     1
 75
     1
176
     1
175
     1
176
     1
 42
1.0
176
     1
 92
        0
176
     1
 66
   257
176
     1
 43
1.0
176
     1
 76
     1
176
     1
 77
     6
176
     1
 78
     2
176
     1
 67
     7
176
     1
 79
     5
176
     1
170
     0
176
     1
171
     0
176
     1
290
     0
176
     1
 93
       13
176
     1
 44
0.0
176
     1
173
     0
176
     1
  0
VISUALSTYLE
  5
2D
102
{ACAD_REACTORS
330
2A
102
}
330
2A
100
AcDbVisualStyle
  2
Gouraud
 70
     2
177
     2
291
     1
 71
     2
176
     1
 72
     2
176
     1
 73
     1
176
     1
 90
        2
176
     1
 40
-0.6
176
     1
 41
30.0
176
     1
 62
     5
 63
     7
421
 16777215
176
     1
 74
     0
176
     1
 91
        4
176
     1
 64
     7
176
     1
 65
   257
176
     1
 75
     1
176
     1
175
     1
176
     1
 42
1.0
176
     1
 92
        0
176
     1
 66
     7
176
     1
 43
1.0
176
     1
 76
     1
176
     1
 77
     6
176
     1
 78
     2
176
     1
 67
     7
176
     1
 79
     5
176
     1
170
     0
176
     1
171
     0
176
     1
290
     0
176
     1
 93
       13
176
     1
 44
0.0
176
     1
173
     0
176
     1
  0
VISUALSTYLE
  5
2E
102
{ACAD_REACTORS
330
2A
102
}
330
2A
100
AcDbVisualStyle
  2
GouraudWithEdges
 70
     3
177
     2
291
     1
 71
     2
176
     1
 72
     2
176
     1
 73
     1
176
     1
 90
        2
176
     1
 40
-0.6
176
     1
 41
30.0
176
     1
 62
     5
 63
     7
421
 16777215
176
     1
 74
     1
176
     1
 91
        4
176
     1
 64
     7
176
     1
 65
   257
176
     1
 75
     1
176
     1
175
     1
176
     1
 42
1.0
176
     1
 92
        0
176
     1
 66
   257
176
     1
 43
1.0
176
     1
 76
     1
176
     1
 77
     6
176
     1
 78
     2
176
     1
 67
     7
176
     1
 79
     5
176
     1
170
     0
176
     1
171
     0
176
     1
290
     0
176
     1
 93
       13
176
     1
 44
0.0
176
     1
173
     0
176
     1
  0
VISUALSTYLE
  5
38
102
{ACAD_REACTORS
330
2A
102
}
330
2A
100
AcDbVisualStyle
  2
Linepattern
 70
    14
177
     2
291
     1
 71
     2
176
     1
 72
     2
176
     1
 73
     0
176
     1
 90
        0
176
     1
 40
-0.6
176
     1
 41
-30.0
176
     1
 62
     5
 63
     7
421
 16777215
176
     1
 74
     1
176
     1
 91
        4
176
     1
 64
     7
176
     1
 65
   257
176
     1
 75
     7
176
     1
175
     7
176
     1
 42
1.0
176
     1
 92
        8
176
     1
 66
     7
176
     1
 43
1.0
176
     1
 76
     1
176
     1
 77
     6
176
     1
 78
     2
176
     1
 67
     7
176
     1
 79
     5
176
     1
170
     0
176
     1
171
     0
176
     1
290
     0
176
     1
 93
        1
176
     1
 44
0.0
176
     1
173
     0
176
     1
  0
VISUALSTYLE
  5
33
102
{ACAD_REACTORS
330
2A
102
}
330
2A
100
AcDbVisualStyle
  2
Realistic
 70
     8
177
     2
291
     0
 71
     2
176
     1
 72
     2
176
     1
 73
     0
176
     1
 90
        0
176
     1
 40
-0.6
176
     1
 41
-30.0
176
     1
 62
     5
 63
     7
421
 16777215
176
     1
 74
     1
176
     1
 91
        0
176
     1
 64
     7
176
     1
 65
   257
176
     1
 75
     1
176
     1
175
     1
176
     1
 42
1.0
176
     1
 92
        8
176
     1
 66
     8
424
  7895160
176
     1
 43
1.0
176
     1
 76
     1
176
     1
 77
     6
176
     1
 78
     2
176
     1
 67
     7
176
     1
 79
     5
176
     1
170
     0
176
     1
171
     0
176
     1
290
     0
176
     1
 93
       13
176
     1
 44
0.0
176
     1
173
     0
176
     1
  0
VISUALSTYLE
  5
37
102
{ACAD_REACTORS
330
2A
102
}
330
2A
100
AcDbVisualStyle
  2
Thicken
 70
    13
177
     2
291
     1
 71
     2
176
     1
 72
     2
176
     1
 73
     0
176
     1
 90
        0
176
     1
 40
-0.6
176
     1
 41
-30.0
176
     1
 62
     5
 63
     7
421
 16777215
176
     1
 74
     1
176
     1
 91
        4
176
     1
 64
     7
176
     1
 65
   257
176
     1
 75
     1
176
     1
175
     1
176
     1
 42
1.0
176
     1
 92
       12
176
     1
 66
     7
176
     1
 43
1.0
176
     1
 76
     1
176
     1
 77
     6
176
     1
 78
     2
176
     1
 67
     7
176
     1
 79
     5
176
     1
170
     0
176
     1
171
     0
176
     1
290
     0
176
     1
 93
        1
176
     1
 44
0.0
176
     1
173
     0
176
     1
  0
ENDSEC
  0
EOF
