  0
SECTION
  2
HEADER
  9
$ACADVER
  1
AC1024
  9
$ACADMAINTVER
 70
     6
  9
$DWGCODEPAGE
  3
ANSI_932
  9
$INSBASE
 10
0.0
 20
0.0
 30
0.0
  9
$EXTMIN
 10
-4455.0
 20
-3150.0
 30
0.0
  9
$EXTMAX
 10
4455.0
 20
3150.0
 30
0.0
  9
$LIMMIN
 10
-4455.0
 20
-3150.0
  9
$LIMMAX
 10
4455.0
 20
3150.0
  9
$ORTHOMODE
 70
     0
  9
$REGENMODE
 70
     1
  9
$FILLMODE
 70
     1
  9
$QTEXTMODE
 70
     0
  9
$MIRRTEXT
 70
     1
  9
$LTSCALE
 40
30.0
  9
$ATTMODE
 70
     1
  9
$TEXTSIZE
 40
2.5
  9
$TRACEWID
 40
1.0
  9
$TEXTSTYLE
  7
Standard
  9
$CLAYER
  8
0
  9
$CELTYPE
  6
ByLayer
  9
$CECOLOR
 62
   256
  9
$CELTSCALE
 40
1.0
  9
$DISPSILH
 70
     0
  9
$DIMSCALE
 40
1.0
  9
$DIMASZ
 40
2.5
  9
$DIMEXO
 40
0.625
  9
$DIMDLI
 40
3.75
  9
$DIMRND
 40
0.0
  9
$DIMDLE
 40
0.0
  9
$DIMEXE
 40
1.25
  9
$DIMTP
 40
0.0
  9
$DIMTM
 40
0.0
  9
$DIMTXT
 40
2.5
  9
$DIMCEN
 40
2.5
  9
$DIMTSZ
 40
0.0
  9
$DIMTOL
 70
     0
  9
$DIMLIM
 70
     0
  9
$DIMTIH
 70
     0
  9
$DIMTOH
 70
     0
  9
$DIMSE1
 70
     0
  9
$DIMSE2
 70
     0
  9
$DIMTAD
 70
     1
  9
$DIMZIN
 70
     8
  9
$DIMBLK
  1

  9
$DIMASO
 70
     1
  9
$DIMSHO
 70
     1
  9
$DIMPOST
  1

  9
$DIMAPOST
  1

  9
$DIMALT
 70
     0
  9
$DIMALTD
 70
     3
  9
$DIMALTF
 40
0.03937007874016
  9
$DIMLFAC
 40
1.0
  9
$DIMTOFL
 70
     1
  9
$DIMTVP
 40
0.0
  9
$DIMTIX
 70
     0
  9
$DIMSOXD
 70
     0
  9
$DIMSAH
 70
     0
  9
$DIMBLK1
  1

  9
$DIMBLK2
  1

  9
$DIMSTYLE
  2
ISO-25
  9
$DIMCLRD
 70
     0
  9
$DIMCLRE
 70
     0
  9
$DIMCLRT
 70
     0
  9
$DIMTFAC
 40
1.0
  9
$DIMGAP
 40
0.625
  9
$DIMJUST
 70
     0
  9
$DIMSD1
 70
     0
  9
$DIMSD2
 70
     0
  9
$DIMTOLJ
 70
     0
  9
$DIMTZIN
 70
     8
  9
$DIMALTZ
 70
     0
  9
$DIMALTTZ
 70
     0
  9
$DIMUPT
 70
     0
  9
$DIMDEC
 70
     2
  9
$DIMTDEC
 70
     2
  9
$DIMALTU
 70
     2
  9
$DIMALTTD
 70
     3
  9
$DIMTXSTY
  7
Standard
  9
$DIMAUNIT
 70
     0
  9
$DIMADEC
 70
     0
  9
$DIMALTRND
 40
0.0
  9
$DIMAZIN
 70
     0
  9
$DIMDSEP
 70
    44
  9
$DIMATFIT
 70
     3
  9
$DIMFRAC
 70
     0
  9
$DIMLDRBLK
  1

  9
$DIMLUNIT
 70
     2
  9
$DIMLWD
 70
    -2
  9
$DIMLWE
 70
    -2
  9
$DIMTMOVE
 70
     0
  9
$DIMFXL
 40
1.0
  9
$DIMFXLON
 70
     0
  9
$DIMJOGANG
 40
0.7853981633974483
  9
$DIMTFILL
 70
     0
  9
$DIMTFILLCLR
 70
     0
  9
$DIMARCSYM
 70
     0
  9
$DIMLTYPE
  6

  9
$DIMLTEX1
  6

  9
$DIMLTEX2
  6

  9
$DIMTXTDIRECTION
 70
     0
  9
$LUNITS
 70
     2
  9
$LUPREC
 70
     4
  9
$SKETCHINC
 40
1.0
  9
$FILLETRAD
 40
10.0
  9
$AUNITS
 70
     0
  9
$AUPREC
 70
     0
  9
$MENU
  1
.
  9
$ELEVATION
 40
0.0
  9
$PELEVATION
 40
0.0
  9
$THICKNESS
 40
0.0
  9
$LIMCHECK
 70
     0
  9
$CHAMFERA
 40
10.0
  9
$CHAMFERB
 40
10.0
  9
$CHAMFERC
 40
20.0
  9
$CHAMFERD
 40
0.0
  9
$SKPOLY
 70
     0
  9
$TDCREATE
 40
2457953.40094353
  9
$TDUCREATE
 40
2457953.02594353
  9
$TDUPDATE
 40
2457953.400943542
  9
$TDUUPDATE
 40
2457953.025943542
  9
$TDINDWG
 40
0.0000000116
  9
$TDUSRTIMER
 40
0.0000000116
  9
$USRTIMER
 70
     1
  9
$ANGBASE
 50
0.0
  9
$ANGDIR
 70
     0
  9
$PDMODE
 70
     0
  9
$PDSIZE
 40
0.0
  9
$PLINEWID
 40
0.0
  9
$SPLFRAME
 70
     0
  9
$SPLINETYPE
 70
     6
  9
$SPLINESEGS
 70
     8
  9
$HANDSEED
  5
4E4
  9
$SURFTAB1
 70
     6
  9
$SURFTAB2
 70
     6
  9
$SURFTYPE
 70
     6
  9
$SURFU
 70
     6
  9
$SURFV
 70
     6
  9
$UCSBASE
  2

  9
$UCSNAME
  2

  9
$UCSORG
 10
0.0
 20
0.0
 30
0.0
  9
$UCSXDIR
 10
1.0
 20
0.0
 30
0.0
  9
$UCSYDIR
 10
0.0
 20
1.0
 30
0.0
  9
$UCSORTHOREF
  2

  9
$UCSORTHOVIEW
 70
     0
  9
$UCSORGTOP
 10
0.0
 20
0.0
 30
0.0
  9
$UCSORGBOTTOM
 10
0.0
 20
0.0
 30
0.0
  9
$UCSORGLEFT
 10
0.0
 20
0.0
 30
0.0
  9
$UCSORGRIGHT
 10
0.0
 20
0.0
 30
0.0
  9
$UCSORGFRONT
 10
0.0
 20
0.0
 30
0.0
  9
$UCSORGBACK
 10
0.0
 20
0.0
 30
0.0
  9
$PUCSBASE
  2

  9
$PUCSNAME
  2

  9
$PUCSORG
 10
0.0
 20
0.0
 30
0.0
  9
$PUCSXDIR
 10
1.0
 20
0.0
 30
0.0
  9
$PUCSYDIR
 10
0.0
 20
1.0
 30
0.0
  9
$PUCSORTHOREF
  2

  9
$PUCSORTHOVIEW
 70
     0
  9
$PUCSORGTOP
 10
0.0
 20
0.0
 30
0.0
  9
$PUCSORGBOTTOM
 10
0.0
 20
0.0
 30
0.0
  9
$PUCSORGLEFT
 10
0.0
 20
0.0
 30
0.0
  9
$PUCSORGRIGHT
 10
0.0
 20
0.0
 30
0.0
  9
$PUCSORGFRONT
 10
0.0
 20
0.0
 30
0.0
  9
$PUCSORGBACK
 10
0.0
 20
0.0
 30
0.0
  9
$USERI1
 70
     0
  9
$USERI2
 70
     0
  9
$USERI3
 70
     0
  9
$USERI4
 70
     0
  9
$USERI5
 70
     0
  9
$USERR1
 40
0.0
  9
$USERR2
 40
0.0
  9
$USERR3
 40
0.0
  9
$USERR4
 40
0.0
  9
$USERR5
 40
0.0
  9
$WORLDVIEW
 70
     1
  9
$SHADEDGE
 70
     3
  9
$SHADEDIF
 70
    70
  9
$TILEMODE
 70
     1
  9
$MAXACTVP
 70
    64
  9
$PINSBASE
 10
0.0
 20
0.0
 30
0.0
  9
$PLIMCHECK
 70
     0
  9
$PEXTMIN
 10
1.000000000000000E+20
 20
1.000000000000000E+20
 30
1.000000000000000E+20
  9
$PEXTMAX
 10
-1.000000000000000E+20
 20
-1.000000000000000E+20
 30
-1.000000000000000E+20
  9
$PLIMMIN
 10
0.0
 20
0.0
  9
$PLIMMAX
 10
420.0
 20
297.0
  9
$UNITMODE
 70
     0
  9
$VISRETAIN
 70
     1
  9
$PLINEGEN
 70
     0
  9
$PSLTSCALE
 70
     1
  9
$TREEDEPTH
 70
  3020
  9
$CMLSTYLE
  2
Standard
  9
$CMLJUST
 70
     0
  9
$CMLSCALE
 40
20.0
  9
$PROXYGRAPHICS
 70
     1
  9
$MEASUREMENT
 70
     1
  9
$CELWEIGHT
370
    -1
  9
$ENDCAPS
280
     0
  9
$JOINSTYLE
280
     0
  9
$LWDISPLAY
290
     0
  9
$INSUNITS
 70
     4
  9
$HYPERLINKBASE
  1

  9
$STYLESHEET
  1

  9
$XEDIT
290
     1
  9
$CEPSNTYPE
380
     0
  9
$PSTYLEMODE
290
     1
  9
$FINGERPRINTGUID
  2
{4C23C1A2-FF4F-40D9-8F14-96CEBD685B93}
  9
$VERSIONGUID
  2
{FAEB1C32-E019-11D5-929B-00C0DF256EC4}
  9
$EXTNAMES
290
     1
  9
$PSVPSCALE
 40
0.0
  9
$OLESTARTUP
290
     0
  9
$SORTENTS
280
   127
  9
$INDEXCTL
280
     0
  9
$HIDETEXT
280
     1
  9
$XCLIPFRAME
280
     2
  9
$HALOGAP
280
     0
  9
$OBSCOLOR
 70
   257
  9
$OBSLTYPE
280
     0
  9
$INTERSECTIONDISPLAY
280
     0
  9
$INTERSECTIONCOLOR
 70
   257
  9
$DIMASSOC
280
     2
  9
$PROJECTNAME
  1

  9
$CAMERADISPLAY
290
     0
  9
$LENSLENGTH
 40
50.0
  9
$CAMERAHEIGHT
 40
0.0
  9
$STEPSPERSEC
 40
2.0
  9
$STEPSIZE
 40
6.0
  9
$3DDWFPREC
 40
2.0
  9
$PSOLWIDTH
 40
5.0
  9
$PSOLHEIGHT
 40
80.0
  9
$LOFTANG1
 40
1.570796326794897
  9
$LOFTANG2
 40
1.570796326794897
  9
$LOFTMAG1
 40
0.0
  9
$LOFTMAG2
 40
0.0
  9
$LOFTPARAM
 70
     7
  9
$LOFTNORMALS
280
     1
  9
$LATITUDE
 40
37.795
  9
$LONGITUDE
 40
-122.394
  9
$NORTHDIRECTION
 40
0.0
  9
$TIMEZONE
 70
 -8000
  9
$LIGHTGLYPHDISPLAY
280
     1
  9
$TILEMODELIGHTSYNCH
280
     1
  9
$SOLIDHIST
280
     1
  9
$SHOWHIST
280
     1
  9
$DWFFRAME
280
     2
  9
$DGNFRAME
280
     2
  9
$REALWORLDSCALE
290
     1
  9
$INTERFERECOLOR
 62
   256
  9
$CSHADOW
280
     0
  9
$SHADOWPLANELOCATION
 40
0.0
  0
ENDSEC
  0
SECTION
  2
CLASSES
  0
CLASS
  1
ACDBDICTIONARYWDFLT
  2
AcDbDictionaryWithDefault
  3
ObjectDBX Classes
 90
        0
 91
        4
280
     0
281
     0
  0
CLASS
  1
VISUALSTYLE
  2
AcDbVisualStyle
  3
ObjectDBX Classes
 90
     4095
 91
        4
280
     0
281
     0
  0
CLASS
  1
MATERIAL
  2
AcDbMaterial
  3
ObjectDBX Classes
 90
     1153
 91
        4
280
     0
281
     0
  0
ENDSEC
  0
SECTION
  2
TABLES
  0
TABLE
  2
VPORT
  5
8
330
0
100
AcDbSymbolTable
 70
     1
  0
VPORT
  5
29
330
8
100
AcDbSymbolTableRecord
100
AcDbViewportTableRecord
  2
*Active
 70
     0
 10
0.0
 20
0.0
 11
1.0
 21
1.0
 12
0.0
 22
0.0
 13
0.0
 23
0.0
 14
10.0
 24
10.0
 15
10.0
 25
10.0
 16
0.0
 26
0.0
 36
1.0
 17
0.0
 27
0.0
 37
0.0
 40
6930.000000000001
 41
1.414285714285714
 42
50.0
 43
0.0
 44
0.0
 50
0.0
 51
0.0
 71
     0
 72
 10000
 73
     1
 74
     3
 75
     0
 76
     0
 77
     0
 78
     0
281
     0
 65
     1
110
0.0
120
0.0
130
0.0
111
1.0
121
0.0
131
0.0
112
0.0
122
1.0
132
0.0
 79
     0
146
0.0
 60
     3
 61
     5
292
     1
282
     1
141
0.0
142
0.0
 63
   250
  0
ENDTAB
  0
TABLE
  2
LTYPE
  5
5
330
0
100
AcDbSymbolTable
 70
     2
  0
LTYPE
  5
14
330
5
100
AcDbSymbolTableRecord
100
AcDbLinetypeTableRecord
  2
ByBlock
 70
     0
  3

 72
    65
 73
     0
 40
0.0
  0
LTYPE
  5
15
330
5
100
AcDbSymbolTableRecord
100
AcDbLinetypeTableRecord
  2
ByLayer
 70
     0
  3

 72
    65
 73
     0
 40
0.0
  0
LTYPE
  5
16
330
5
100
AcDbSymbolTableRecord
100
AcDbLinetypeTableRecord
  2
Continuous
 70
     0
  3
Solid line
 72
    65
 73
     0
 40
0.0
  0
LTYPE
  5
3F
330
5
100
AcDbSymbolTableRecord
100
AcDbLinetypeTableRecord
  2
JWW_DASHED1
 70
     0
  3
-  --  --  --  --  --  --  --  -
 72
    65
 73
     2
 40
1.693333333333333
 49
0.8466666666666667
 74
     0
 49
-0.8466666666666667
 74
     0
  0
ENDTAB
  0
TABLE
  2
LAYER
  5
2
330
0
100
AcDbSymbolTable
 70
     3
  0
LAYER
  5
10
330
2
100
AcDbSymbolTableRecord
100
AcDbLayerTableRecord
  2
0
 70
     0
 62
     7
  6
Continuous
370
    -3
390
F
347
3E
  0
LAYER
  5
40
330
2
100
AcDbSymbolTableRecord
100
AcDbLayerTableRecord
  2
0-0
 70
     0
 62
     7
  6
Continuous
370
    -3
390
F
347
3E
  0
LAYER
  5
41
330
2
100
AcDbSymbolTableRecord
100
AcDbLayerTableRecord
  2
寸法
 70
     0
 62
     7
  6
Continuous
370
    -3
390
F
347
3E
  0
ENDTAB
  0
TABLE
  2
STYLE
  5
3
330
0
100
AcDbSymbolTable
 70
     1
  0
STYLE
  5
11
330
3
100
AcDbSymbolTableRecord
100
AcDbTextStyleTableRecord
  2
Standard
 70
     0
 40
0.0
 41
1.0
 50
0.0
 71
     0
 42
2.5
  3
txt
  4

  0
ENDTAB
  0
TABLE
  2
VIEW
  5
6
330
0
100
AcDbSymbolTable
 70
     0
  0
ENDTAB
  0
TABLE
  2
UCS
  5
7
330
0
100
AcDbSymbolTable
 70
     0
  0
ENDTAB
  0
TABLE
  2
APPID
  5
9
330
0
100
AcDbSymbolTable
 70
     1
  0
APPID
  5
12
330
9
100
AcDbSymbolTableRecord
100
AcDbRegAppTableRecord
  2
ACAD
 70
     0
  0
ENDTAB
  0
TABLE
  2
DIMSTYLE
  5
A
330
0
100
AcDbSymbolTable
 70
     1
100
AcDbDimStyleTable
  0
DIMSTYLE
105
27
330
A
100
AcDbSymbolTableRecord
100
AcDbDimStyleTableRecord
  2
ISO-25
 70
     0
 41
2.5
 42
0.625
 43
3.75
 44
1.25
 73
     0
 74
     0
 77
     1
 78
     8
140
2.5
141
2.5
143
0.03937007874016
147
0.625
171
     3
172
     1
178
     0
271
     2
272
     2
274
     3
278
    44
283
     0
284
     8
340
11
  0
ENDTAB
  0
TABLE
  2
BLOCK_RECORD
  5
1
330
0
100
AcDbSymbolTable
 70
     1
  0
BLOCK_RECORD
  5
1F
330
1
100
AcDbSymbolTableRecord
100
AcDbBlockTableRecord
  2
*Model_Space
340
22
 70
     0
280
     1
281
     0
  0
BLOCK_RECORD
  5
1B
330
1
100
AcDbSymbolTableRecord
100
AcDbBlockTableRecord
  2
*Paper_Space
340
1E
 70
     0
280
     1
281
     0
  0
BLOCK_RECORD
  5
23
330
1
100
AcDbSymbolTableRecord
100
AcDbBlockTableRecord
  2
*Paper_Space0
340
26
 70
     0
280
     1
281
     0
  0
ENDTAB
  0
ENDSEC
  0
SECTION
  2
BLOCKS
  0
BLOCK
  5
20
330
1F
100
AcDbEntity
  8
0
100
AcDbBlockBegin
  2
*Model_Space
 70
     0
 10
0.0
 20
0.0
 30
0.0
  3
*Model_Space
  1

  0
ENDBLK
  5
21
330
1F
100
AcDbEntity
  8
0
100
AcDbBlockEnd
  0
BLOCK
  5
1C
330
1B
100
AcDbEntity
 67
     1
  8
0
100
AcDbBlockBegin
  2
*Paper_Space
 70
     0
 10
0.0
 20
0.0
 30
0.0
  3
*Paper_Space
  1

  0
ENDBLK
  5
1D
330
1B
100
AcDbEntity
 67
     1
  8
0
100
AcDbBlockEnd
  0
BLOCK
  5
24
330
23
100
AcDbEntity
  8
0
100
AcDbBlockBegin
  2
*Paper_Space0
 70
     0
 10
0.0
 20
0.0
 30
0.0
  3
*Paper_Space0
  1

  0
ENDBLK
  5
25
330
23
100
AcDbEntity
  8
0
100
AcDbBlockEnd
  0
ENDSEC
  0
SECTION
  2
ENTITIES
  0
LINE
  5
42
330
1F
100
AcDbEntity
  8
0-0
  6
Continuous
 62
    92
370
    13
100
AcDbLine
 10
-806.1503968647884
 20
-995.5830894523134
 30
0.0
 11
-806.1503968647884
 21
1051.416910547686
 31
0.0
  0
LINE
  5
43
330
1F
100
AcDbEntity
  8
0-0
  6
Continuous
 62
    92
370
    13
100
AcDbLine
 10
1617.84960313521
 20
-995.5830894523134
 30
0.0
 11
1617.84960313521
 21
1051.416910547686
 31
0.0
  0
LINE
  5
44
330
1F
100
AcDbEntity
  8
0-0
  6
JWW_DASHED1
 62
   120
370
     5
100
AcDbLine
 10
780.8496031352109
 20
-980.5830894523134
 30
0.0
 11
780.8496031352109
 21
1015.416910547687
 31
0.0
  0
LINE
  5
45
330
1F
100
AcDbEntity
  8
0-0
  6
JWW_DASHED1
 62
   120
370
     5
100
AcDbLine
 10
810.8496031352109
 20
-980.5830894523134
 30
0.0
 11
810.8496031352109
 21
1015.416910547687
 31
0.0
  0
LINE
  5
46
330
1F
100
AcDbEntity
  8
0-0
  6
Continuous
 62
    92
370
    13
100
AcDbLine
 10
-776.1503968647884
 20
-995.5830894523134
 30
0.0
 11
-776.1503968647884
 21
1051.416910547686
 31
0.0
  0
LINE
  5
47
330
1F
100
AcDbEntity
  8
0-0
  6
Continuous
 62
    92
370
    13
100
AcDbLine
 10
1587.84960313521
 20
-995.5830894523134
 30
0.0
 11
1587.84960313521
 21
1051.416910547686
 31
0.0
  0
LINE
  5
48
330
1F
100
AcDbEntity
  8
0-0
  6
Continuous
 62
    92
370
    13
100
AcDbLine
 10
-776.1503968647884
 20
1015.416910547687
 30
0.0
 11
1587.84960313521
 21
1015.416910547687
 31
0.0
  0
LINE
  5
49
330
1F
100
AcDbEntity
  8
0-0
  6
Continuous
 62
    92
370
    13
100
AcDbLine
 10
-806.1503968647884
 20
1051.416910547686
 30
0.0
 11
1617.84960313521
 21
1051.416910547686
 31
0.0
  0
LINE
  5
4A
330
1F
100
AcDbEntity
  8
0-0
  6
Continuous
 62
    92
370
    13
100
AcDbLine
 10
1617.84960313521
 20
-995.5830894523134
 30
0.0
 11
-806.1503968647884
 21
-995.5830894523134
 31
0.0
  0
LINE
  5
4B
330
1F
100
AcDbEntity
  8
0-0
  6
Continuous
 62
    92
370
    13
100
AcDbLine
 10
1587.84960313521
 20
-980.5830894523134
 30
0.0
 11
-776.1503968647884
 21
-980.5830894523134
 31
0.0
  0
ARC
  5
4C
330
1F
100
AcDbEntity
  8
0-0
  6
Continuous
 62
    92
370
    13
100
AcDbCircle
 10
-747.6503968647904
 20
41.41691054768735
 30
0.0
 40
1.5
100
AcDbArc
 50
90.0
 51
180.0
  0
LINE
  5
4D
330
1F
100
AcDbEntity
  8
0-0
  6
Continuous
 62
    92
370
    13
100
AcDbLine
 10
-708.6503968647901
 20
42.91691054768684
 30
0.0
 11
-747.6503968647904
 21
42.91691054768684
 31
0.0
  0
ARC
  5
4E
330
1F
100
AcDbEntity
  8
0-0
  6
Continuous
 62
    92
370
    13
100
AcDbCircle
 10
-708.6503968647901
 20
41.41691054768735
 30
0.0
 40
1.5
100
AcDbArc
 50
0.0
 51
90.00000000000001
  0
LINE
  5
4F
330
1F
100
AcDbEntity
  8
0-0
  6
Continuous
 62
    92
370
    13
100
AcDbLine
 10
-707.1503968647932
 20
-77.5830894523127
 30
0.0
 11
-707.1503968647932
 21
41.41691054768735
 31
0.0
  0
ARC
  5
50
330
1F
100
AcDbEntity
  8
0-0
  6
Continuous
 62
    92
370
    13
100
AcDbCircle
 10
-708.6503968647901
 20
-77.5830894523127
 30
0.0
 40
1.5
100
AcDbArc
 50
270.0
 51
0.0
  0
LINE
  5
51
330
1F
100
AcDbEntity
  8
0-0
  6
Continuous
 62
    92
370
    13
100
AcDbLine
 10
-747.6503968647904
 20
-79.08308945231262
 30
0.0
 11
-708.6503968647901
 21
-79.08308945231262
 31
0.0
  0
LINE
  5
52
330
1F
100
AcDbEntity
  8
0-0
  6
Continuous
 62
    92
370
    13
100
AcDbLine
 10
-749.1503968647891
 20
-77.5830894523127
 30
0.0
 11
-749.1503968647891
 21
41.41691054768735
 31
0.0
  0
ARC
  5
53
330
1F
100
AcDbEntity
  8
0-0
  6
Continuous
 62
    92
370
    13
100
AcDbCircle
 10
-747.6503968647904
 20
-77.5830894523127
 30
0.0
 40
1.5
100
AcDbArc
 50
180.0
 51
270.0
  0
ARC
  5
54
330
1F
100
AcDbEntity
  8
0-0
  6
Continuous
 62
     7
370
     9
100
AcDbCircle
 10
-728.1503968647911
 20
-47.68308945231304
 30
0.0
 40
15.0
100
AcDbArc
 50
180.0
 51
0.0
  0
ARC
  5
55
330
1F
100
AcDbEntity
  8
0-0
  6
Continuous
 62
     7
370
     9
100
AcDbCircle
 10
-728.1503968647911
 20
11.51691054768726
 30
0.0
 40
15.0
100
AcDbArc
 50
0.0
 51
180.0
  0
LINE
  5
56
330
1F
100
AcDbEntity
  8
0-0
  6
Continuous
 62
     7
370
     9
100
AcDbLine
 10
-713.1503968647911
 20
-47.68308945231304
 30
0.0
 11
-713.1503968647911
 21
11.51691054768726
 31
0.0
  0
LINE
  5
57
330
1F
100
AcDbEntity
  8
0-0
  6
Continuous
 62
     7
370
     9
100
AcDbLine
 10
-743.1503968647911
 20
11.51691054768726
 30
0.0
 11
-743.1503968647911
 21
-47.68308945231304
 31
0.0
  0
ARC
  5
58
330
1F
100
AcDbEntity
  8
0-0
  6
Continuous
 62
    92
370
    13
100
AcDbCircle
 10
32.34960313520958
 20
41.41691054768735
 30
0.0
 40
1.5
100
AcDbArc
 50
90.0
 51
180.0
  0
LINE
  5
59
330
1F
100
AcDbEntity
  8
0-0
  6
Continuous
 62
    92
370
    13
100
AcDbLine
 10
71.34960313520992
 20
42.91691054768684
 30
0.0
 11
32.34960313520958
 21
42.91691054768684
 31
0.0
  0
ARC
  5
5A
330
1F
100
AcDbEntity
  8
0-0
  6
Continuous
 62
    92
370
    13
100
AcDbCircle
 10
71.34960313520992
 20
41.41691054768735
 30
0.0
 40
1.5
100
AcDbArc
 50
0.0
 51
90.00000000000001
  0
LINE
  5
5B
330
1F
100
AcDbEntity
  8
0-0
  6
Continuous
 62
    92
370
    13
100
AcDbLine
 10
72.84960313520685
 20
-77.5830894523127
 30
0.0
 11
72.84960313520685
 21
41.41691054768735
 31
0.0
  0
ARC
  5
5C
330
1F
100
AcDbEntity
  8
0-0
  6
Continuous
 62
    92
370
    13
100
AcDbCircle
 10
71.34960313520992
 20
-77.5830894523127
 30
0.0
 40
1.5
100
AcDbArc
 50
270.0
 51
0.0
  0
LINE
  5
5D
330
1F
100
AcDbEntity
  8
0-0
  6
Continuous
 62
    92
370
    13
100
AcDbLine
 10
32.34960313520958
 20
-79.08308945231262
 30
0.0
 11
71.34960313520992
 21
-79.08308945231262
 31
0.0
  0
LINE
  5
5E
330
1F
100
AcDbEntity
  8
0-0
  6
Continuous
 62
    92
370
    13
100
AcDbLine
 10
30.84960313521094
 20
-77.5830894523127
 30
0.0
 11
30.84960313521094
 21
41.41691054768735
 31
0.0
  0
ARC
  5
5F
330
1F
100
AcDbEntity
  8
0-0
  6
Continuous
 62
    92
370
    13
100
AcDbCircle
 10
32.34960313520958
 20
-77.5830894523127
 30
0.0
 40
1.5
100
AcDbArc
 50
180.0
 51
270.0
  0
ARC
  5
60
330
1F
100
AcDbEntity
  8
0-0
  6
Continuous
 62
     7
370
     9
100
AcDbCircle
 10
51.84960313520889
 20
-47.68308945231304
 30
0.0
 40
15.0
100
AcDbArc
 50
180.0
 51
0.0
  0
ARC
  5
61
330
1F
100
AcDbEntity
  8
0-0
  6
Continuous
 62
     7
370
     9
100
AcDbCircle
 10
51.84960313520889
 20
11.51691054768726
 30
0.0
 40
15.0
100
AcDbArc
 50
0.0
 51
180.0
  0
LINE
  5
62
330
1F
100
AcDbEntity
  8
0-0
  6
Continuous
 62
     7
370
     9
100
AcDbLine
 10
66.8496031352089
 20
-47.68308945231304
 30
0.0
 11
66.8496031352089
 21
11.51691054768726
 31
0.0
  0
LINE
  5
63
330
1F
100
AcDbEntity
  8
0-0
  6
Continuous
 62
     7
370
     9
100
AcDbLine
 10
36.84960313520889
 20
11.51691054768726
 30
0.0
 11
36.84960313520889
 21
-47.68308945231304
 31
0.0
  0
LINE
  5
64
330
1F
100
AcDbEntity
  8
0-0
  6
JWW_DASHED1
 62
   120
370
     5
100
AcDbLine
 10
-776.1503968647884
 20
-975.5830894523128
 30
0.0
 11
-779.1503968647891
 21
-975.5830894523128
 31
0.0
  0
LINE
  5
65
330
1F
100
AcDbEntity
  8
0-0
  6
JWW_DASHED1
 62
   120
370
     5
100
AcDbLine
 10
-779.1503968647891
 20
-975.5830894523128
 30
0.0
 11
-779.1503968647891
 21
1007.416910547687
 31
0.0
  0
LINE
  5
66
330
1F
100
AcDbEntity
  8
0-0
  6
JWW_DASHED1
 62
   120
370
     5
100
AcDbLine
 10
-779.1503968647891
 20
1007.416910547687
 30
0.0
 11
-776.1503968647884
 21
1007.416910547687
 31
0.0
  0
LINE
  5
67
330
1F
100
AcDbEntity
  8
0-0
  6
JWW_DASHED1
 62
   120
370
     5
100
AcDbLine
 10
30.84960313521094
 20
-975.5830894523128
 30
0.0
 11
30.84960313521094
 21
1007.416910547687
 31
0.0
  0
LINE
  5
68
330
1F
100
AcDbEntity
  8
0-0
  6
Continuous
 62
    92
370
    13
100
AcDbLine
 10
-776.1503968647884
 20
1007.416910547687
 30
0.0
 11
810.8496031352109
 21
1007.416910547687
 31
0.0
  0
LINE
  5
69
330
1F
100
AcDbEntity
  8
0-0
  6
Continuous
 62
    92
370
    13
100
AcDbLine
 10
0.8496031352109412
 20
1007.416910547687
 30
0.0
 11
0.8496031352109412
 21
-975.5830894523128
 31
0.0
  0
LINE
  5
6A
330
1F
100
AcDbEntity
  8
0-0
  6
Continuous
 62
    92
370
    13
100
AcDbLine
 10
-776.1503968647884
 20
-975.5830894523128
 30
0.0
 11
810.8496031352109
 21
-975.5830894523128
 31
0.0
  0
LINE
  5
6B
330
1F
100
AcDbEntity
  8
0-0
  6
Continuous
 62
    92
370
    13
100
AcDbLine
 10
810.8496031352109
 20
-975.5830894523128
 30
0.0
 11
810.8496031352109
 21
1007.416910547687
 31
0.0
  0
LINE
  5
6C
330
1F
100
AcDbEntity
  8
0-0
  6
Continuous
 62
    92
370
    13
100
AcDbLine
 10
-669.1503968647902
 20
-825.5830894523135
 30
0.0
 11
-79.15039686478792
 21
-825.5830894523135
 31
0.0
  0
LINE
  5
6D
330
1F
100
AcDbEntity
  8
0-0
  6
Continuous
 62
    92
370
    13
100
AcDbLine
 10
110.8496031352098
 20
-825.5830894523135
 30
0.0
 11
700.8496031352121
 21
-825.5830894523135
 31
0.0
  0
LINE
  5
6E
330
1F
100
AcDbEntity
  8
0-0
  6
Continuous
 62
    92
370
    13
100
AcDbLine
 10
-669.1503968647902
 20
872.4169105476859
 30
0.0
 11
-79.15039686478792
 21
872.4169105476859
 31
0.0
  0
LINE
  5
6F
330
1F
100
AcDbEntity
  8
0-0
  6
Continuous
 62
    92
370
    13
100
AcDbLine
 10
110.8496031352098
 20
872.4169105476859
 30
0.0
 11
700.8496031352121
 21
872.4169105476859
 31
0.0
  0
LINE
  5
70
330
1F
100
AcDbEntity
  8
0-0
  6
Continuous
 62
    92
370
    13
100
AcDbLine
 10
360.8496031352109
 20
872.4169105476861
 30
0.0
 11
360.8496031352109
 21
-825.5830894523135
 31
0.0
  0
LINE
  5
71
330
1F
100
AcDbEntity
  8
0-0
  6
Continuous
 62
    92
370
    13
100
AcDbLine
 10
450.8496031352109
 20
872.4169105476861
 30
0.0
 11
450.8496031352109
 21
-825.5830894523135
 31
0.0
  0
LINE
  5
72
330
1F
100
AcDbEntity
  8
0-0
  6
Continuous
 62
    92
370
    13
100
AcDbLine
 10
-419.1503968647891
 20
872.4169105476861
 30
0.0
 11
-419.1503968647891
 21
-825.5830894523135
 31
0.0
  0
LINE
  5
73
330
1F
100
AcDbEntity
  8
0-0
  6
Continuous
 62
    92
370
    13
100
AcDbLine
 10
-329.1503968647891
 20
872.4169105476861
 30
0.0
 11
-329.1503968647891
 21
-825.5830894523135
 31
0.0
  0
LINE
  5
74
330
1F
100
AcDbEntity
  8
0-0
  6
JWW_DASHED1
 62
   120
370
     5
100
AcDbLine
 10
-83.21512281234448
 20
-825.583089452305
 30
0.0
 11
-79.15039686479474
 21
-821.5183635047553
 31
0.0
  0
LINE
  5
75
330
1F
100
AcDbEntity
  8
0-0
  6
JWW_DASHED1
 62
   120
370
     5
100
AcDbLine
 10
-90.28619062422138
 20
-825.5830894523152
 30
0.0
 11
-79.15039686478451
 21
-814.4472956928784
 31
0.0
  0
LINE
  5
76
330
1F
100
AcDbEntity
  8
0-0
  6
JWW_DASHED1
 62
   120
370
     5
100
AcDbLine
 10
-97.35725843606758
 20
-825.5830894522948
 30
0.0
 11
-79.15039686480839
 21
-807.3762278810336
 31
0.0
  0
LINE
  5
77
330
1F
100
AcDbEntity
  8
0-0
  6
JWW_DASHED1
 62
   120
370
     5
100
AcDbLine
 10
-104.4283262479445
 20
-825.583089452305
 30
0.0
 11
-79.15039686479815
 21
-800.305160069157
 31
0.0
  0
LINE
  5
78
330
1F
100
AcDbEntity
  8
0-0
  6
JWW_DASHED1
 62
   120
370
     5
100
AcDbLine
 10
-111.499394059818
 20
-825.5830894523128
 30
0.0
 11
-79.15039686478792
 21
-793.2340922572806
 31
0.0
  0
LINE
  5
79
330
1F
100
AcDbEntity
  8
0-0
  6
JWW_DASHED1
 62
   120
370
     5
100
AcDbLine
 10
-118.5704618716676
 20
-825.5830894522941
 30
0.0
 11
-79.15039686480839
 21
-786.1630244454356
 31
0.0
  0
LINE
  5
7A
330
1F
100
AcDbEntity
  8
0-0
  6
JWW_DASHED1
 62
   120
370
     5
100
AcDbLine
 10
-125.6415296835445
 20
-825.5830894523043
 30
0.0
 11
-79.15039686479815
 21
-779.0919566335587
 31
0.0
  0
LINE
  5
7B
330
1F
100
AcDbEntity
  8
0-0
  6
JWW_DASHED1
 62
   120
370
     5
100
AcDbLine
 10
-132.712597495418
 20
-825.5830894523107
 30
0.0
 11
-79.15039686479133
 21
-772.0208888216828
 31
0.0
  0
LINE
  5
7C
330
1F
100
AcDbEntity
  8
0-0
  6
JWW_DASHED1
 62
   120
370
     5
100
AcDbLine
 10
-139.7836653072847
 20
-825.5830894523084
 30
0.0
 11
-79.15039686479474
 21
-764.949821009822
 31
0.0
  0
LINE
  5
7D
330
1F
100
AcDbEntity
  8
0-0
  6
JWW_DASHED1
 62
   120
370
     5
100
AcDbLine
 10
-146.8547331191445
 20
-825.5830894523033
 30
0.0
 11
-79.15039686480156
 21
-757.8787531979605
 31
0.0
  0
LINE
  5
7E
330
1F
100
AcDbEntity
  8
0-0
  6
JWW_DASHED1
 62
   120
370
     5
100
AcDbLine
 10
-153.925800931018
 20
-825.5830894523084
 30
0.0
 11
-79.15039686479133
 21
-750.8076853860836
 31
0.0
  0
LINE
  5
7F
330
1F
100
AcDbEntity
  8
0-0
  6
JWW_DASHED1
 62
   120
370
     5
100
AcDbLine
 10
-160.9968687428812
 20
-825.5830894523077
 30
0.0
 11
-79.15039686479815
 21
-743.7366175742237
 31
0.0
  0
LINE
  5
80
330
1F
100
AcDbEntity
  8
0-0
  6
JWW_DASHED1
 62
   120
370
     5
100
AcDbLine
 10
-168.0679365547445
 20
-825.5830894523021
 30
0.0
 11
-79.15039686480156
 21
-736.6655497623622
 31
0.0
  0
LINE
  5
81
330
1F
100
AcDbEntity
  8
0-0
  6
JWW_DASHED1
 62
   120
370
     5
100
AcDbLine
 10
-175.1390043666112
 20
-825.583089452306
 30
0.0
 11
-79.15039686479133
 21
-729.5944819504853
 31
0.0
  0
LINE
  5
82
330
1F
100
AcDbEntity
  8
0-0
  6
JWW_DASHED1
 62
   120
370
     5
100
AcDbLine
 10
-182.2100721784813
 20
-825.5830894523067
 30
0.0
 11
-79.15039686479815
 21
-722.5234141386254
 31
0.0
  0
LINE
  5
83
330
1F
100
AcDbEntity
  8
0-0
  6
JWW_DASHED1
 62
   120
370
     5
100
AcDbLine
 10
-189.2811399903411
 20
-825.5830894523016
 30
0.0
 11
-79.15039686480497
 21
-715.4523463267639
 31
0.0
  0
LINE
  5
84
330
1F
100
AcDbEntity
  8
0-0
  6
JWW_DASHED1
 62
   120
370
     5
100
AcDbLine
 10
-196.3522078022112
 20
-825.5830894523043
 30
0.0
 11
-79.15039686479474
 21
-708.381278514887
 31
0.0
  0
LINE
  5
85
330
1F
100
AcDbEntity
  8
0-0
  6
JWW_DASHED1
 62
   120
370
     5
100
AcDbLine
 10
-203.4232756140813
 20
-825.5830894523065
 30
0.0
 11
-79.15039686480156
 21
-701.3102107030271
 31
0.0
  0
LINE
  5
86
330
1F
100
AcDbEntity
  8
0-0
  6
JWW_DASHED1
 62
   120
370
     5
100
AcDbLine
 10
-210.4943434259411
 20
-825.5830894522999
 30
0.0
 11
-79.15039686480497
 21
-694.2391428911656
 31
0.0
  0
LINE
  5
87
330
1F
100
AcDbEntity
  8
0-0
  6
JWW_DASHED1
 62
   120
370
     5
100
AcDbLine
 10
-217.565411237818
 20
-825.5830894523101
 30
0.0
 11
-79.15039686479474
 21
-687.1680750792887
 31
0.0
  0
LINE
  5
88
330
1F
100
AcDbEntity
  8
0-0
  6
JWW_DASHED1
 62
   120
370
     5
100
AcDbLine
 10
-224.6364790496847
 20
-825.5830894523118
 30
0.0
 11
-79.15039686478792
 21
-680.0970072674135
 31
0.0
  0
LINE
  5
89
330
1F
100
AcDbEntity
  8
0-0
  6
JWW_DASHED1
 62
   120
370
     5
100
AcDbLine
 10
-231.7075468615377
 20
-825.5830894522992
 30
0.0
 11
-79.15039686480839
 21
-673.0259394555673
 31
0.0
  0
LINE
  5
8A
330
1F
100
AcDbEntity
  8
0-0
  6
JWW_DASHED1
 62
   120
370
     5
100
AcDbLine
 10
-238.778614673418
 20
-825.5830894523094
 30
0.0
 11
-79.15039686479815
 21
-665.9548716436904
 31
0.0
  0
LINE
  5
8B
330
1F
100
AcDbEntity
  8
0-0
  6
JWW_DASHED1
 62
   120
370
     5
100
AcDbLine
 10
-245.8496824852847
 20
-825.5830894523094
 30
0.0
 11
-79.15039686479133
 21
-658.8838038318152
 31
0.0
  0
LINE
  5
8C
330
1F
100
AcDbEntity
  8
0-0
  6
JWW_DASHED1
 62
   120
370
     5
100
AcDbLine
 10
-252.9207502971548
 20
-825.5830894523141
 30
0.0
 11
-79.15039686479474
 21
-651.812736019955
 31
0.0
  0
LINE
  5
8D
330
1F
100
AcDbEntity
  8
0-0
  6
JWW_DASHED1
 62
   120
370
     5
100
AcDbLine
 10
-259.991818109018
 20
-825.5830894523084
 30
0.0
 11
-79.15039686479815
 21
-644.741668208092
 31
0.0
  0
LINE
  5
8E
330
1F
100
AcDbEntity
  8
0-0
  6
JWW_DASHED1
 62
   120
370
     5
100
AcDbLine
 10
-267.0628859208233
 20
-825.583089452303
 30
0.0
 11
-79.15039686479474
 21
-637.6706003962748
 31
0.0
  0
LINE
  5
8F
330
1F
100
AcDbEntity
  8
0-0
  6
JWW_DASHED1
 62
   120
370
     5
100
AcDbLine
 10
-274.1339537326968
 20
-825.5830894523094
 30
0.0
 11
-79.15039686480156
 21
-630.5995325844159
 31
0.0
  0
LINE
  5
90
330
1F
100
AcDbEntity
  8
0-0
  6
JWW_DASHED1
 62
   120
370
     5
100
AcDbLine
 10
-281.2050215445566
 20
-825.5830894523039
 30
0.0
 11
-79.15039686480497
 21
-623.5284647725526
 31
0.0
  0
LINE
  5
91
330
1F
100
AcDbEntity
  8
0-0
  6
JWW_DASHED1
 62
   120
370
     5
100
AcDbLine
 10
-288.2760893564335
 20
-825.5830894523135
 30
0.0
 11
-79.15039686479474
 21
-616.4573969606762
 31
0.0
  0
LINE
  5
92
330
1F
100
AcDbEntity
  8
0-0
  6
JWW_DASHED1
 62
   120
370
     5
100
AcDbLine
 10
-295.3471571682968
 20
-825.5830894523101
 30
0.0
 11
-79.15039686478792
 21
-609.3863291488018
 31
0.0
  0
LINE
  5
93
330
1F
100
AcDbEntity
  8
0-0
  6
JWW_DASHED1
 62
   120
370
     5
100
AcDbLine
 10
-302.4182249801567
 20
-825.5830894523026
 30
0.0
 11
-79.15039686480497
 21
-602.3152613369543
 31
0.0
  0
LINE
  5
94
330
1F
100
AcDbEntity
  8
0-0
  6
JWW_DASHED1
 62
   120
370
     5
100
AcDbLine
 10
-309.4892927920301
 20
-825.5830894523128
 30
0.0
 11
-79.15039686479815
 21
-595.2441935250782
 31
0.0
  0
LINE
  5
95
330
1F
100
AcDbEntity
  8
0-0
  6
JWW_DASHED1
 62
   120
370
     5
100
AcDbLine
 10
-316.5603606038934
 20
-825.5830894523084
 30
0.0
 11
-79.15039686479133
 21
-588.1731257132035
 31
0.0
  0
LINE
  5
96
330
1F
100
AcDbEntity
  8
0-0
  6
JWW_DASHED1
 62
   120
370
     5
100
AcDbLine
 10
-323.6314284157567
 20
-825.5830894523016
 30
0.0
 11
-79.15039686480839
 21
-581.102057901356
 31
0.0
  0
LINE
  5
97
330
1F
100
AcDbEntity
  8
0-0
  6
JWW_DASHED1
 62
   120
370
     5
100
AcDbLine
 10
-329.1503968647891
 20
-824.0309900894717
 30
0.0
 11
-79.15039686479815
 21
-574.0309900894796
 31
0.0
  0
LINE
  5
98
330
1F
100
AcDbEntity
  8
0-0
  6
JWW_DASHED1
 62
   120
370
     5
100
AcDbLine
 10
-329.1503968647959
 20
-816.9599222776102
 30
0.0
 11
-79.15039686479133
 21
-566.9599222776056
 31
0.0
  0
LINE
  5
99
330
1F
100
AcDbEntity
  8
0-0
  6
JWW_DASHED1
 62
   120
370
     5
100
AcDbLine
 10
-329.1503968647856
 20
-809.8888544657337
 30
0.0
 11
-79.15039686479815
 21
-559.8888544657449
 31
0.0
  0
LINE
  5
9A
330
1F
100
AcDbEntity
  8
0-0
  6
JWW_DASHED1
 62
   120
370
     5
100
AcDbLine
 10
-329.1503968647925
 20
-802.817786653873
 30
0.0
 11
-79.15039686480156
 21
-552.8177866538816
 31
0.0
  0
LINE
  5
9B
330
1F
100
AcDbEntity
  8
0-0
  6
JWW_DASHED1
 62
   120
370
     5
100
AcDbLine
 10
-329.1503968647993
 20
-795.7467188420123
 30
0.0
 11
-79.15039686479133
 21
-545.7467188420047
 31
0.0
  0
LINE
  5
9C
330
1F
100
AcDbEntity
  8
0-0
  6
JWW_DASHED1
 62
   120
370
     5
100
AcDbLine
 10
-329.1503968647891
 20
-788.6756510301357
 30
0.0
 11
-79.15039686479815
 21
-538.6756510301466
 31
0.0
  0
LINE
  5
9D
330
1F
100
AcDbEntity
  8
0-0
  6
JWW_DASHED1
 62
   120
370
     5
100
AcDbLine
 10
-329.1503968647959
 20
-781.6045832182741
 30
0.0
 11
-79.15039686480156
 21
-531.6045832182833
 31
0.0
  0
LINE
  5
9E
330
1F
100
AcDbEntity
  8
0-0
  6
JWW_DASHED1
 62
   120
370
     5
100
AcDbLine
 10
-329.1503968647993
 20
-774.533515406414
 30
0.0
 11
-79.15039686479133
 21
-524.5335154064064
 31
0.0
  0
LINE
  5
9F
330
1F
100
AcDbEntity
  8
0-0
  6
JWW_DASHED1
 62
   120
370
     5
100
AcDbLine
 10
-329.1503968647891
 20
-767.4624475945379
 30
0.0
 11
-79.15039686480156
 21
-517.4624475945483
 31
0.0
  0
LINE
  5
A0
330
1F
100
AcDbEntity
  8
0-0
  6
JWW_DASHED1
 62
   120
370
     5
100
AcDbLine
 10
-329.1503968647959
 20
-760.3913797826759
 30
0.0
 11
-79.15039686480497
 21
-510.3913797826851
 31
0.0
  0
LINE
  5
A1
330
1F
100
AcDbEntity
  8
0-0
  6
JWW_DASHED1
 62
   120
370
     5
100
AcDbLine
 10
-329.1503968648027
 20
-753.3203119708153
 30
0.0
 11
-79.15039686479474
 21
-503.3203119708082
 31
0.0
  0
LINE
  5
A2
330
1F
100
AcDbEntity
  8
0-0
  6
JWW_DASHED1
 62
   120
370
     5
100
AcDbLine
 10
-329.1503968647925
 20
-746.2492441589396
 30
0.0
 11
-79.15039686478792
 21
-496.2492441589347
 31
0.0
  0
LINE
  5
A3
330
1F
100
AcDbEntity
  8
0-0
  6
JWW_DASHED1
 62
   120
370
     5
100
AcDbLine
 10
-329.1503968647959
 20
-739.1781763470781
 30
0.0
 11
-79.15039686480497
 21
-489.1781763470868
 31
0.0
  0
LINE
  5
A4
330
1F
100
AcDbEntity
  8
0-0
  6
JWW_DASHED1
 62
   120
370
     5
100
AcDbLine
 10
-422.6263777818934
 20
-825.5830894523077
 30
0.0
 11
-419.1503968647959
 21
-822.1071085352085
 31
0.0
  0
LINE
  5
A5
330
1F
100
AcDbEntity
  8
0-0
  6
JWW_DASHED1
 62
   120
370
     5
100
AcDbLine
 10
-329.1503968647891
 20
-732.1071085352012
 30
0.0
 11
-79.15039686479474
 21
-482.1071085352099
 31
0.0
  0
LINE
  5
A6
330
1F
100
AcDbEntity
  8
0-0
  6
JWW_DASHED1
 62
   120
370
     5
100
AcDbLine
 10
-429.6974455937703
 20
-825.5830894523169
 30
0.0
 11
-419.1503968647856
 21
-815.0360407233322
 31
0.0
  0
LINE
  5
A7
330
1F
100
AcDbEntity
  8
0-0
  6
JWW_DASHED1
 62
   120
370
     5
100
AcDbLine
 10
-329.1503968647959
 20
-725.0360407233413
 30
0.0
 11
-79.15039686478792
 21
-475.0360407233364
 31
0.0
  0
LINE
  5
A8
330
1F
100
AcDbEntity
  8
0-0
  6
JWW_DASHED1
 62
   120
370
     5
100
AcDbLine
 10
-436.7685134056165
 20
-825.5830894522965
 30
0.0
 11
-419.1503968648061
 21
-807.964972911487
 31
0.0
  0
LINE
  5
A9
330
1F
100
AcDbEntity
  8
0-0
  6
JWW_DASHED1
 62
   120
370
     5
100
AcDbLine
 10
-329.1503968647993
 20
-717.9649729114798
 30
0.0
 11
-79.15039686480839
 21
-467.9649729114885
 31
0.0
  0
LINE
  5
AA
330
1F
100
AcDbEntity
  8
0-0
  6
JWW_DASHED1
 62
   120
370
     5
100
AcDbLine
 10
-443.8395812174934
 20
-825.5830894523067
 30
0.0
 11
-419.1503968647959
 21
-800.8939050996102
 31
0.0
  0
LINE
  5
AB
330
1F
100
AcDbEntity
  8
0-0
  6
JWW_DASHED1
 62
   120
370
     5
100
AcDbLine
 10
-329.1503968647891
 20
-710.8939050996033
 30
0.0
 11
-79.15039686479815
 21
-460.8939050996116
 31
0.0
  0
LINE
  5
AC
330
1F
100
AcDbEntity
  8
0-0
  6
JWW_DASHED1
 62
   120
370
     5
100
AcDbLine
 10
-450.9106490293669
 20
-825.5830894523152
 30
0.0
 11
-419.1503968647891
 21
-793.8228372877339
 31
0.0
  0
LINE
  5
AD
330
1F
100
AcDbEntity
  8
0-0
  6
JWW_DASHED1
 62
   120
370
     5
100
AcDbLine
 10
-329.1503968647959
 20
-703.8228372877435
 30
0.0
 11
-79.15039686479133
 21
-453.8228372877385
 31
0.0
  0
LINE
  5
AE
330
1F
100
AcDbEntity
  8
0-0
  6
JWW_DASHED1
 62
   120
370
     5
100
AcDbLine
 10
-457.9817168412302
 20
-825.5830894523111
 30
0.0
 11
-419.1503968647925
 21
-786.7517694758734
 31
0.0
  0
LINE
  5
AF
330
1F
100
AcDbEntity
  8
0-0
  6
JWW_DASHED1
 62
   120
370
     5
100
AcDbLine
 10
-329.1503968647856
 20
-696.7517694758666
 30
0.0
 11
-79.15039686479815
 21
-446.7517694758774
 31
0.0
  0
LINE
  5
B0
330
1F
100
AcDbEntity
  8
0-0
  6
JWW_DASHED1
 62
   120
370
     5
100
AcDbLine
 10
-465.05278465309
 20
-825.583089452306
 30
0.0
 11
-419.1503968647993
 21
-779.6807016640123
 31
0.0
  0
LINE
  5
B1
330
1F
100
AcDbEntity
  8
0-0
  6
JWW_DASHED1
 62
   120
370
     5
100
AcDbLine
 10
-329.1503968647891
 20
-689.680701664005
 30
0.0
 11
-79.15039686479815
 21
-439.6807016640133
 31
0.0
  0
LINE
  5
B2
330
1F
100
AcDbEntity
  8
0-0
  6
JWW_DASHED1
 62
   120
370
     5
100
AcDbLine
 10
-472.1238524649635
 20
-825.5830894523124
 30
0.0
 11
-419.1503968647891
 21
-772.6096338521356
 31
0.0
  0
LINE
  5
B3
330
1F
100
AcDbEntity
  8
0-0
  6
JWW_DASHED1
 62
   120
370
     5
100
AcDbLine
 10
-329.1503968647959
 20
-682.6096338521452
 30
0.0
 11
-79.15039686479133
 21
-432.6096338521406
 31
0.0
  0
LINE
  5
B4
330
1F
100
AcDbEntity
  8
0-0
  6
JWW_DASHED1
 62
   120
370
     5
100
AcDbLine
 10
-479.1949202768302
 20
-825.5830894523101
 30
0.0
 11
-419.1503968647959
 21
-765.5385660402759
 31
0.0
  0
LINE
  5
B5
330
1F
100
AcDbEntity
  8
0-0
  6
JWW_DASHED1
 62
   120
370
     5
100
AcDbLine
 10
-329.1503968647891
 20
-675.5385660402687
 30
0.0
 11
-79.15039686479815
 21
-425.5385660402795
 31
0.0
  0
LINE
  5
B6
330
1F
100
AcDbEntity
  8
0-0
  6
JWW_DASHED1
 62
   120
370
     5
100
AcDbLine
 10
-486.2659880886901
 20
-825.5830894523048
 30
0.0
 11
-419.1503968647993
 21
-758.467498228414
 31
0.0
  0
LINE
  5
B7
330
1F
100
AcDbEntity
  8
0-0
  6
JWW_DASHED1
 62
   120
370
     5
100
AcDbLine
 10
-329.1503968647925
 20
-668.4674982284067
 30
0.0
 11
-79.15039686480156
 21
-418.467498228415
 31
0.0
  0
LINE
  5
B8
330
1F
100
AcDbEntity
  8
0-0
  6
JWW_DASHED1
 62
   120
370
     5
100
AcDbLine
 10
-493.337055900567
 20
-825.5830894523152
 30
0.0
 11
-419.1503968647891
 21
-751.3964304165374
 31
0.0
  0
LINE
  5
B9
330
1F
100
AcDbEntity
  8
0-0
  6
JWW_DASHED1
 62
   120
370
     5
100
AcDbLine
 10
-329.1503968647993
 20
-661.3964304165456
 30
0.0
 11
-79.15039686479133
 21
-411.3964304165381
 31
0.0
  0
LINE
  5
BA
330
1F
100
AcDbEntity
  8
0-0
  6
JWW_DASHED1
 62
   120
370
     5
100
AcDbLine
 10
-500.4081237124404
 20
-825.5830894523201
 30
0.0
 11
-419.1503968647822
 21
-744.3253626046614
 31
0.0
  0
LINE
  5
BB
330
1F
100
AcDbEntity
  8
0-0
  6
JWW_DASHED1
 62
   120
370
     5
100
AcDbLine
 10
-329.1503968647891
 20
-654.3253626046708
 30
0.0
 11
-79.15039686480156
 21
-404.3253626046816
 31
0.0
  0
LINE
  5
BC
330
1F
100
AcDbEntity
  8
0-0
  6
JWW_DASHED1
 62
   120
370
     5
100
AcDbLine
 10
-507.4791915242594
 20
-825.5830894523016
 30
0.0
 11
-419.1503968648027
 21
-737.254294792845
 31
0.0
  0
LINE
  5
BD
330
1F
100
AcDbEntity
  8
0-0
  6
JWW_DASHED1
 62
   120
370
     5
100
AcDbLine
 10
-329.1503968647959
 20
-647.2542947928374
 30
0.0
 11
-79.15039686480497
 21
-397.2542947928461
 31
0.0
  0
LINE
  5
BE
330
1F
100
AcDbEntity
  8
0-0
  6
JWW_DASHED1
 62
   120
370
     5
100
AcDbLine
 10
-514.550259336109
 20
-825.5830894523101
 30
0.0
 11
-419.1503968647959
 21
-730.183226980998
 31
0.0
  0
LINE
  5
BF
330
1F
100
AcDbEntity
  8
0-0
  6
JWW_DASHED1
 62
   120
370
     5
100
AcDbLine
 10
-329.1503968647891
 20
-640.1832269809903
 30
0.0
 11
-79.15039686479815
 21
-390.183226980999
 31
0.0
  0
LINE
  5
C0
330
1F
100
AcDbEntity
  8
0-0
  6
JWW_DASHED1
 62
   120
370
     5
100
AcDbLine
 10
-521.6213271479791
 20
-825.5830894523135
 30
0.0
 11
-419.1503968647891
 21
-723.1121591691224
 31
0.0
  0
LINE
  5
C1
330
1F
100
AcDbEntity
  8
0-0
  6
JWW_DASHED1
 62
   120
370
     5
100
AcDbLine
 10
-329.1503968647959
 20
-633.1121591691314
 30
0.0
 11
-79.15039686479133
 21
-383.1121591691268
 31
0.0
  0
LINE
  5
C2
330
1F
100
AcDbEntity
  8
0-0
  6
JWW_DASHED1
 62
   120
370
     5
100
AcDbLine
 10
-528.6923949598457
 20
-825.5830894523145
 30
0.0
 11
-419.1503968647925
 21
-716.0410913572613
 31
0.0
  0
LINE
  5
C3
330
1F
100
AcDbEntity
  8
0-0
  6
JWW_DASHED1
 62
   120
370
     5
100
AcDbLine
 10
-329.1503968647856
 20
-626.0410913572549
 30
0.0
 11
-79.15039686479815
 21
-376.0410913572653
 31
0.0
  0
LINE
  5
C4
330
1F
100
AcDbEntity
  8
0-0
  6
JWW_DASHED1
 62
   120
370
     5
100
AcDbLine
 10
-535.763462771709
 20
-825.583089452309
 30
0.0
 11
-419.1503968647959
 21
-708.9700235453997
 31
0.0
  0
LINE
  5
C5
330
1F
100
AcDbEntity
  8
0-0
  6
JWW_DASHED1
 62
   120
370
     5
100
AcDbLine
 10
-329.1503968647891
 20
-618.970023545392
 30
0.0
 11
-79.15039686479815
 21
-368.9700235454003
 31
0.0
  0
LINE
  5
C6
330
1F
100
AcDbEntity
  8
0-0
  6
JWW_DASHED1
 62
   120
370
     5
100
AcDbLine
 10
-542.8345305835757
 20
-825.5830894523111
 30
0.0
 11
-419.1503968647891
 21
-701.8989557335245
 31
0.0
  0
LINE
  5
C7
330
1F
100
AcDbEntity
  8
0-0
  6
JWW_DASHED1
 62
   120
370
     5
100
AcDbLine
 10
-329.1503968647959
 20
-611.8989557335331
 30
0.0
 11
-79.15039686479133
 21
-361.8989557335285
 31
0.0
  0
LINE
  5
C8
330
1F
100
AcDbEntity
  8
0-0
  6
JWW_DASHED1
 62
   120
370
     5
100
AcDbLine
 10
-549.9055983954457
 20
-825.5830894523135
 30
0.0
 11
-419.1503968647959
 21
-694.8278879216638
 31
0.0
  0
LINE
  5
C9
330
1F
100
AcDbEntity
  8
0-0
  6
JWW_DASHED1
 62
   120
370
     5
100
AcDbLine
 10
-329.1503968647891
 20
-604.827887921657
 30
0.0
 11
-79.15039686479815
 21
-354.8278879216678
 31
0.0
  0
LINE
  5
CA
330
1F
100
AcDbEntity
  8
0-0
  6
JWW_DASHED1
 62
   120
370
     5
100
AcDbLine
 10
-556.9766662073056
 20
-825.5830894523077
 30
0.0
 11
-419.1503968647993
 21
-687.7568201098014
 31
0.0
  0
LINE
  5
CB
330
1F
100
AcDbEntity
  8
0-0
  6
JWW_DASHED1
 62
   120
370
     5
100
AcDbLine
 10
-329.1503968647925
 20
-597.7568201097937
 30
0.0
 11
-79.15039686480156
 21
-347.7568201098024
 31
0.0
  0
LINE
  5
CC
330
1F
100
AcDbEntity
  8
0-0
  6
JWW_DASHED1
 62
   120
370
     5
100
AcDbLine
 10
-564.0477340191757
 20
-825.5830894523094
 30
0.0
 11
-419.1503968647891
 21
-680.6857522979245
 31
0.0
  0
LINE
  5
CD
330
1F
100
AcDbEntity
  8
0-0
  6
JWW_DASHED1
 62
   120
370
     5
100
AcDbLine
 10
-329.1503968647959
 20
-590.685752297933
 30
0.0
 11
-79.15039686479133
 21
-340.6857522979259
 31
0.0
  0
LINE
  5
CE
330
1F
100
AcDbEntity
  8
0-0
  6
JWW_DASHED1
 62
   120
370
     5
100
AcDbLine
 10
-571.1188018310492
 20
-825.5830894523186
 30
0.0
 11
-419.1503968647822
 21
-673.6146844860493
 31
0.0
  0
LINE
  5
CF
330
1F
100
AcDbEntity
  8
0-0
  6
JWW_DASHED1
 62
   120
370
     5
100
AcDbLine
 10
-329.1503968647891
 20
-583.6146844860586
 30
0.0
 11
-79.15039686480156
 21
-333.6146844860695
 31
0.0
  0
LINE
  5
D0
330
1F
100
AcDbEntity
  8
0-0
  6
JWW_DASHED1
 62
   120
370
     5
100
AcDbLine
 10
-578.1898696429056
 20
-825.5830894523073
 30
0.0
 11
-419.1503968648027
 21
-666.5436166742031
 31
0.0
  0
LINE
  5
D1
330
1F
100
AcDbEntity
  8
0-0
  6
JWW_DASHED1
 62
   120
370
     5
100
AcDbLine
 10
-329.1503968647959
 20
-576.5436166741954
 30
0.0
 11
-79.15039686480156
 21
-326.5436166742037
 31
0.0
  0
LINE
  5
D2
330
1F
100
AcDbEntity
  8
0-0
  6
JWW_DASHED1
 62
   120
370
     5
100
AcDbLine
 10
-585.2609374547825
 20
-825.5830894523169
 30
0.0
 11
-419.1503968647891
 21
-659.4725488623262
 31
0.0
  0
LINE
  5
D3
330
1F
100
AcDbEntity
  8
0-0
  6
JWW_DASHED1
 62
   120
370
     5
100
AcDbLine
 10
-329.1503968647993
 20
-569.4725488623347
 30
0.0
 11
-79.15039686479133
 21
-319.4725488623276
 31
0.0
  0
LINE
  5
D4
330
1F
100
AcDbEntity
  8
0-0
  6
JWW_DASHED1
 62
   120
370
     5
100
AcDbLine
 10
-592.3320052666492
 20
-825.5830894523162
 30
0.0
 11
-419.1503968647822
 21
-652.4014810504515
 31
0.0
  0
LINE
  5
D5
330
1F
100
AcDbEntity
  8
0-0
  6
JWW_DASHED1
 62
   120
370
     5
100
AcDbLine
 10
-329.1503968647925
 20
-562.4014810504603
 30
0.0
 11
-79.15039686480156
 21
-312.4014810504712
 31
0.0
  0
LINE
  5
D6
330
1F
100
AcDbEntity
  8
0-0
  6
JWW_DASHED1
 62
   120
370
     5
100
AcDbLine
 10
-599.4030730785022
 20
-825.583089452306
 30
0.0
 11
-419.1503968648027
 21
-645.3304132386048
 31
0.0
  0
LINE
  5
D7
330
1F
100
AcDbEntity
  8
0-0
  6
JWW_DASHED1
 62
   120
370
     5
100
AcDbLine
 10
-329.1503968647959
 20
-555.3304132385971
 30
0.0
 11
-79.15039686480497
 21
-305.3304132386054
 31
0.0
  0
LINE
  5
D8
330
1F
100
AcDbEntity
  8
0-0
  6
JWW_DASHED1
 62
   120
370
     5
100
AcDbLine
 10
-606.4741408903825
 20
-825.5830894523162
 30
0.0
 11
-419.1503968647925
 21
-638.2593454267279
 31
0.0
  0
LINE
  5
D9
330
1F
100
AcDbEntity
  8
0-0
  6
JWW_DASHED1
 62
   120
370
     5
100
AcDbLine
 10
-329.1503968648027
 20
-548.2593454267364
 30
0.0
 11
-79.15039686479474
 21
-298.2593454267293
 31
0.0
  0
LINE
  5
DA
330
1F
100
AcDbEntity
  8
0-0
  6
JWW_DASHED1
 62
   120
370
     5
100
AcDbLine
 10
-613.5452087022458
 20
-825.5830894523141
 30
0.0
 11
-419.1503968647856
 21
-631.1882776148532
 31
0.0
  0
LINE
  5
DB
330
1F
100
AcDbEntity
  8
0-0
  6
JWW_DASHED1
 62
   120
370
     5
100
AcDbLine
 10
-329.1503968647959
 20
-541.188277614862
 30
0.0
 11
-79.15039686478792
 21
-291.1882776148576
 31
0.0
  0
LINE
  5
DC
330
1F
100
AcDbEntity
  8
0-0
  6
JWW_DASHED1
 62
   120
370
     5
100
AcDbLine
 10
-620.6162765141022
 20
-825.583089452305
 30
0.0
 11
-419.1503968648027
 21
-624.1172098030065
 31
0.0
  0
LINE
  5
DD
330
1F
100
AcDbEntity
  8
0-0
  6
JWW_DASHED1
 62
   120
370
     5
100
AcDbLine
 10
-329.1503968647959
 20
-534.1172098029988
 30
0.0
 11
-79.15039686480497
 21
-284.1172098030075
 31
0.0
  0
LINE
  5
DE
330
1F
100
AcDbEntity
  8
0-0
  6
JWW_DASHED1
 62
   120
370
     5
100
AcDbLine
 10
-627.6873443259825
 20
-825.5830894523152
 30
0.0
 11
-419.1503968647959
 21
-617.0461419911296
 31
0.0
  0
LINE
  5
DF
330
1F
100
AcDbEntity
  8
0-0
  6
JWW_DASHED1
 62
   120
370
     5
100
AcDbLine
 10
-329.1503968647891
 20
-527.0461419911223
 30
0.0
 11
-79.15039686479474
 21
-277.046141991131
 31
0.0
  0
LINE
  5
E0
330
1F
100
AcDbEntity
  8
0-0
  6
JWW_DASHED1
 62
   120
370
     5
100
AcDbLine
 10
-634.7584121378424
 20
-825.5830894523118
 30
0.0
 11
-419.1503968647856
 21
-609.9750741792552
 31
0.0
  0
LINE
  5
E1
330
1F
100
AcDbEntity
  8
0-0
  6
JWW_DASHED1
 62
   120
370
     5
100
AcDbLine
 10
-329.1503968647959
 20
-519.9750741792647
 30
0.0
 11
-79.15039686479133
 21
-269.9750741792593
 31
0.0
  0
LINE
  5
E2
330
1F
100
AcDbEntity
  8
0-0
  6
JWW_DASHED1
 62
   120
370
     5
100
AcDbLine
 10
-641.8294799497022
 20
-825.5830894523043
 30
0.0
 11
-419.1503968648061
 21
-602.9040063674082
 31
0.0
  0
LINE
  5
E3
330
1F
100
AcDbEntity
  8
0-0
  6
JWW_DASHED1
 62
   120
370
     5
100
AcDbLine
 10
-329.1503968647993
 20
-512.9040063674005
 30
0.0
 11
-79.15039686480839
 21
-262.9040063674096
 31
0.0
  0
LINE
  5
E4
330
1F
100
AcDbEntity
  8
0-0
  6
JWW_DASHED1
 62
   120
370
     5
100
AcDbLine
 10
-648.9005477615791
 20
-825.5830894523145
 30
0.0
 11
-419.1503968647959
 21
-595.8329385555318
 31
0.0
  0
LINE
  5
E5
330
1F
100
AcDbEntity
  8
0-0
  6
JWW_DASHED1
 62
   120
370
     5
100
AcDbLine
 10
-329.1503968647891
 20
-505.832938555524
 30
0.0
 11
-79.15039686479815
 21
-255.8329385555327
 31
0.0
  0
LINE
  5
E6
330
1F
100
AcDbEntity
  8
0-0
  6
JWW_DASHED1
 62
   120
370
     5
100
AcDbLine
 10
-655.9716155734424
 20
-825.5830894523094
 30
0.0
 11
-419.1503968647891
 21
-588.7618707436569
 31
0.0
  0
LINE
  5
E7
330
1F
100
AcDbEntity
  8
0-0
  6
JWW_DASHED1
 62
   120
370
     5
100
AcDbLine
 10
-329.1503968647959
 20
-498.7618707436663
 30
0.0
 11
-79.15039686479133
 21
-248.7618707436609
 31
0.0
  0
LINE
  5
E8
330
1F
100
AcDbEntity
  8
0-0
  6
JWW_DASHED1
 62
   120
370
     5
100
AcDbLine
 10
-663.0426833853159
 20
-825.5830894523186
 30
0.0
 11
-419.1503968647959
 21
-581.6908029317963
 31
0.0
  0
LINE
  5
E9
330
1F
100
AcDbEntity
  8
0-0
  6
JWW_DASHED1
 62
   120
370
     5
100
AcDbLine
 10
-329.1503968647891
 20
-491.6908029317894
 30
0.0
 11
-79.15039686479815
 21
-241.6908029318006
 31
0.0
  0
LINE
  5
EA
330
1F
100
AcDbEntity
  8
0-0
  6
JWW_DASHED1
 62
   120
370
     5
100
AcDbLine
 10
-669.1503968647902
 20
-824.6197351199244
 30
0.0
 11
-419.1503968647959
 21
-574.619735119933
 31
0.0
  0
LINE
  5
EB
330
1F
100
AcDbEntity
  8
0-0
  6
JWW_DASHED1
 62
   120
370
     5
100
AcDbLine
 10
-329.1503968647891
 20
-484.6197351199257
 30
0.0
 11
-79.15039686479815
 21
-234.6197351199344
 31
0.0
  0
LINE
  5
EC
330
1F
100
AcDbEntity
  8
0-0
  6
JWW_DASHED1
 62
   120
370
     5
100
AcDbLine
 10
-669.1503968647936
 20
-817.548667308063
 30
0.0
 11
-419.1503968647891
 21
-567.5486673080569
 31
0.0
  0
LINE
  5
ED
330
1F
100
AcDbEntity
  8
0-0
  6
JWW_DASHED1
 62
   120
370
     5
100
AcDbLine
 10
-329.1503968647959
 20
-477.548667308065
 30
0.0
 11
-79.15039686478792
 21
-227.5486673080575
 31
0.0
  0
LINE
  5
EE
330
1F
100
AcDbEntity
  8
0-0
  6
JWW_DASHED1
 62
   120
370
     5
100
AcDbLine
 10
-669.1503968647868
 20
-810.4775994961872
 30
0.0
 11
-419.1503968647959
 21
-560.4775994961984
 31
0.0
  0
LINE
  5
EF
330
1F
100
AcDbEntity
  8
0-0
  6
JWW_DASHED1
 62
   120
370
     5
100
AcDbLine
 10
-329.1503968647891
 20
-470.4775994961915
 30
0.0
 11
-79.15039686480156
 21
-220.4775994962028
 31
0.0
  0
LINE
  5
F0
330
1F
100
AcDbEntity
  8
0-0
  6
JWW_DASHED1
 62
   120
370
     5
100
AcDbLine
 10
-669.1503968647902
 20
-803.4065316843263
 30
0.0
 11
-419.1503968647993
 21
-553.4065316843347
 31
0.0
  0
LINE
  5
F1
330
1F
100
AcDbEntity
  8
0-0
  6
JWW_DASHED1
 62
   120
370
     5
100
AcDbLine
 10
-329.1503968647925
 20
-463.4065316843279
 30
0.0
 11
-79.15039686480156
 21
-213.4065316843361
 31
0.0
  0
LINE
  5
F2
330
1F
100
AcDbEntity
  8
0-0
  6
JWW_DASHED1
 62
   120
370
     5
100
AcDbLine
 10
-669.15039686478
 20
-796.3354638724494
 30
0.0
 11
-419.1503968647891
 21
-546.3354638724586
 31
0.0
  0
LINE
  5
F3
330
1F
100
AcDbEntity
  8
0-0
  6
JWW_DASHED1
 62
   120
370
     5
100
AcDbLine
 10
-329.1503968647959
 20
-456.3354638724663
 30
0.0
 11
-79.15039686479133
 21
-206.3354638724592
 31
0.0
  0
LINE
  5
F4
330
1F
100
AcDbEntity
  8
0-0
  6
JWW_DASHED1
 62
   120
370
     5
100
AcDbLine
 10
-669.1503968647868
 20
-789.2643960605889
 30
0.0
 11
-419.1503968647822
 21
-539.2643960605843
 31
0.0
  0
LINE
  5
F5
330
1F
100
AcDbEntity
  8
0-0
  6
JWW_DASHED1
 62
   120
370
     5
100
AcDbLine
 10
-329.1503968647925
 20
-449.2643960605937
 30
0.0
 11
-79.15039686480156
 21
-199.2643960606045
 31
0.0
  0
LINE
  5
F6
330
1F
100
AcDbEntity
  8
0-0
  6
JWW_DASHED1
 62
   120
370
     5
100
AcDbLine
 10
-669.1503968647936
 20
-782.193328248728
 30
0.0
 11
-419.1503968648027
 21
-532.1933282487364
 31
0.0
  0
LINE
  5
F7
330
1F
100
AcDbEntity
  8
0-0
  6
JWW_DASHED1
 62
   120
370
     5
100
AcDbLine
 10
-329.1503968647959
 20
-442.1933282487291
 30
0.0
 11
-79.15039686480156
 21
-192.1933282487378
 31
0.0
  0
LINE
  5
F8
330
1F
100
AcDbEntity
  8
0-0
  6
JWW_DASHED1
 62
   120
370
     5
100
AcDbLine
 10
-669.1503968647834
 20
-775.1222604368511
 30
0.0
 11
-419.1503968647925
 21
-525.12226043686
 31
0.0
  0
LINE
  5
F9
330
1F
100
AcDbEntity
  8
0-0
  6
JWW_DASHED1
 62
   120
370
     5
100
AcDbLine
 10
-329.1503968647993
 20
-435.122260436868
 30
0.0
 11
-79.15039686479133
 21
-185.1222604368609
 31
0.0
  0
LINE
  5
FA
330
1F
100
AcDbEntity
  8
0-0
  6
JWW_DASHED1
 62
   120
370
     5
100
AcDbLine
 10
-669.1503968647868
 20
-768.0511926249906
 30
0.0
 11
-419.1503968647822
 21
-518.051192624986
 31
0.0
  0
LINE
  5
FB
330
1F
100
AcDbEntity
  8
0-0
  6
JWW_DASHED1
 62
   120
370
     5
100
AcDbLine
 10
-329.1503968647925
 20
-428.0511926249954
 30
0.0
 11
-79.15039686480497
 21
-178.0511926250062
 31
0.0
  0
LINE
  5
FC
330
1F
100
AcDbEntity
  8
0-0
  6
JWW_DASHED1
 62
   120
370
     5
100
AcDbLine
 10
-669.1503968647936
 20
-760.9801248131295
 30
0.0
 11
-419.1503968648027
 21
-510.9801248131385
 31
0.0
  0
LINE
  5
FD
330
1F
100
AcDbEntity
  8
0-0
  6
JWW_DASHED1
 62
   120
370
     5
100
AcDbLine
 10
-329.1503968647959
 20
-420.9801248131308
 30
0.0
 11
-79.15039686480497
 21
-170.9801248131395
 31
0.0
  0
LINE
  5
FE
330
1F
100
AcDbEntity
  8
0-0
  6
JWW_DASHED1
 62
   120
370
     5
100
AcDbLine
 10
-669.1503968647834
 20
-753.9090570012529
 30
0.0
 11
-419.1503968647925
 21
-503.9090570012621
 31
0.0
  0
LINE
  5
FF
330
1F
100
AcDbEntity
  8
0-0
  6
JWW_DASHED1
 62
   120
370
     5
100
AcDbLine
 10
-329.1503968647856
 20
-413.9090570012544
 30
0.0
 11
-79.15039686479474
 21
-163.9090570012626
 31
0.0
  0
LINE
  5
100
330
1F
100
AcDbEntity
  8
0-0
  6
JWW_DASHED1
 62
   120
370
     5
100
AcDbLine
 10
-669.1503968647902
 20
-746.8379891893927
 30
0.0
 11
-419.1503968647856
 21
-496.8379891893881
 31
0.0
  0
LINE
  5
101
330
1F
100
AcDbEntity
  8
0-0
  6
JWW_DASHED1
 62
   120
370
     5
100
AcDbLine
 10
-329.1503968647959
 20
-406.8379891893971
 30
0.0
 11
-79.15039686479133
 21
-156.8379891893925
 31
0.0
  0
LINE
  5
102
330
1F
100
AcDbEntity
  8
0-0
  6
JWW_DASHED1
 62
   120
370
     5
100
AcDbLine
 10
-669.1503968647868
 20
-739.766921377575
 30
0.0
 11
-419.1503968647959
 21
-489.7669213775862
 31
0.0
  0
LINE
  5
103
330
1F
100
AcDbEntity
  8
0-0
  6
JWW_DASHED1
 62
   120
370
     5
100
AcDbLine
 10
-329.1503968647891
 20
-399.7669213775799
 30
0.0
 11
-79.15039686480156
 21
-149.7669213775907
 31
0.0
  0
LINE
  5
104
330
1F
100
AcDbEntity
  8
0-0
  6
JWW_DASHED1
 62
   120
370
     5
100
AcDbLine
 10
-669.1503968647902
 20
-732.6958535657135
 30
0.0
 11
-419.1503968647993
 21
-482.6958535657221
 31
0.0
  0
LINE
  5
105
330
1F
100
AcDbEntity
  8
0-0
  6
JWW_DASHED1
 62
   120
370
     5
100
AcDbLine
 10
-329.1503968647925
 20
-392.6958535657149
 30
0.0
 11
-79.15039686480156
 21
-142.6958535657236
 31
0.0
  0
LINE
  5
106
330
1F
100
AcDbEntity
  8
0-0
  6
JWW_DASHED1
 62
   120
370
     5
100
AcDbLine
 10
-669.15039686478
 20
-725.6247857538366
 30
0.0
 11
-419.1503968647891
 21
-475.6247857538457
 31
0.0
  0
LINE
  5
107
330
1F
100
AcDbEntity
  8
0-0
  6
JWW_DASHED1
 62
   120
370
     5
100
AcDbLine
 10
-329.1503968647959
 20
-385.6247857538542
 30
0.0
 11
-79.15039686479133
 21
-135.6247857538467
 31
0.0
  0
LINE
  5
108
330
1F
100
AcDbEntity
  8
0-0
  6
JWW_DASHED1
 62
   120
370
     5
100
AcDbLine
 10
-669.1503968647868
 20
-718.5537179419767
 30
0.0
 11
-419.1503968647822
 21
-468.5537179419722
 31
0.0
  0
LINE
  5
109
330
1F
100
AcDbEntity
  8
0-0
  6
JWW_DASHED1
 62
   120
370
     5
100
AcDbLine
 10
-329.1503968647925
 20
-378.5537179419816
 30
0.0
 11
-79.15039686480156
 21
-128.5537179419924
 31
0.0
  0
LINE
  5
10A
330
1F
100
AcDbEntity
  8
0-0
  6
JWW_DASHED1
 62
   120
370
     5
100
AcDbLine
 10
-669.1503968647936
 20
-711.4826501301152
 30
0.0
 11
-419.1503968648027
 21
-461.4826501301243
 31
0.0
  0
LINE
  5
10B
330
1F
100
AcDbEntity
  8
0-0
  6
JWW_DASHED1
 62
   120
370
     5
100
AcDbLine
 10
-329.1503968647925
 20
-371.4826501301166
 30
0.0
 11
-79.15039686480156
 21
-121.4826501301248
 31
0.0
  0
LINE
  5
10C
330
1F
100
AcDbEntity
  8
0-0
  6
JWW_DASHED1
 62
   120
370
     5
100
AcDbLine
 10
-669.15039686478
 20
-704.4115823182383
 30
0.0
 11
-419.1503968647891
 21
-454.4115823182474
 31
0.0
  0
LINE
  5
10D
330
1F
100
AcDbEntity
  8
0-0
  6
JWW_DASHED1
 62
   120
370
     5
100
AcDbLine
 10
-329.1503968647993
 20
-364.4115823182559
 30
0.0
 11
-79.15039686479133
 21
-114.4115823182484
 31
0.0
  0
LINE
  5
10E
330
1F
100
AcDbEntity
  8
0-0
  6
JWW_DASHED1
 62
   120
370
     5
100
AcDbLine
 10
-669.1503968647902
 20
-697.3405145063789
 30
0.0
 11
-419.1503968647856
 21
-447.3405145063747
 31
0.0
  0
LINE
  5
10F
330
1F
100
AcDbEntity
  8
0-0
  6
JWW_DASHED1
 62
   120
370
     5
100
AcDbLine
 10
-329.1503968647959
 20
-357.3405145063837
 30
0.0
 11
-79.15039686480497
 21
-107.3405145063941
 31
0.0
  0
LINE
  5
110
330
1F
100
AcDbEntity
  8
0-0
  6
JWW_DASHED1
 62
   120
370
     5
100
AcDbLine
 10
-669.1503968647936
 20
-690.2694466945169
 30
0.0
 11
-419.1503968648027
 21
-440.269446694526
 31
0.0
  0
LINE
  5
111
330
1F
100
AcDbEntity
  8
0-0
  6
JWW_DASHED1
 62
   120
370
     5
100
AcDbLine
 10
-329.1503968647959
 20
-350.2694466945183
 30
0.0
 11
-79.15039686480497
 21
-100.269446694527
 31
0.0
  0
LINE
  5
112
330
1F
100
AcDbEntity
  8
0-0
  6
JWW_DASHED1
 62
   120
370
     5
100
AcDbLine
 10
-669.1503968647834
 20
-683.19837888264
 30
0.0
 11
-419.1503968647925
 21
-433.1983788826491
 31
0.0
  0
LINE
  5
113
330
1F
100
AcDbEntity
  8
0-0
  6
JWW_DASHED1
 62
   120
370
     5
100
AcDbLine
 10
-329.1503968647856
 20
-343.1983788826414
 30
0.0
 11
-79.15039686479474
 21
-93.19837888265006
 31
0.0
  0
LINE
  5
114
330
1F
100
AcDbEntity
  8
0-0
  6
JWW_DASHED1
 62
   120
370
     5
100
AcDbLine
 10
-669.1503968647902
 20
-676.1273110707809
 30
0.0
 11
-419.1503968647856
 21
-426.1273110707764
 31
0.0
  0
LINE
  5
115
330
1F
100
AcDbEntity
  8
0-0
  6
JWW_DASHED1
 62
   120
370
     5
100
AcDbLine
 10
-329.1503968647959
 20
-336.1273110707854
 30
0.0
 11
-79.15039686479133
 21
-86.12731107078041
 31
0.0
  0
LINE
  5
116
330
1F
100
AcDbEntity
  8
0-0
  6
JWW_DASHED1
 62
   120
370
     5
100
AcDbLine
 10
-669.1503968647936
 20
-669.0562432589186
 30
0.0
 11
-419.1503968648027
 21
-419.0562432589277
 31
0.0
  0
LINE
  5
117
330
1F
100
AcDbEntity
  8
0-0
  6
JWW_DASHED1
 62
   120
370
     5
100
AcDbLine
 10
-329.1503968647959
 20
-329.05624325892
 30
0.0
 11
-79.15039686480497
 21
-79.05624325892866
 31
0.0
  0
LINE
  5
118
330
1F
100
AcDbEntity
  8
0-0
  6
JWW_DASHED1
 62
   120
370
     5
100
AcDbLine
 10
-669.1503968647868
 20
-661.9851754470421
 30
0.0
 11
-419.1503968647959
 21
-411.9851754470508
 31
0.0
  0
LINE
  5
119
330
1F
100
AcDbEntity
  8
0-0
  6
JWW_DASHED1
 62
   120
370
     5
100
AcDbLine
 10
-329.1503968647891
 20
-321.9851754470435
 30
0.0
 11
-79.15039686479474
 21
-71.98517544705219
 31
0.0
  0
LINE
  5
11A
330
1F
100
AcDbEntity
  8
0-0
  6
JWW_DASHED1
 62
   120
370
     5
100
AcDbLine
 10
-669.1503968647936
 20
-654.9141076351826
 30
0.0
 11
-419.1503968647891
 21
-404.9141076351781
 31
0.0
  0
LINE
  5
11B
330
1F
100
AcDbEntity
  8
0-0
  6
JWW_DASHED1
 62
   120
370
     5
100
AcDbLine
 10
-329.1503968647959
 20
-314.9141076351875
 30
0.0
 11
-79.15039686479133
 21
-64.9141076351821
 31
0.0
  0
LINE
  5
11C
330
1F
100
AcDbEntity
  8
0-0
  6
JWW_DASHED1
 62
   120
370
     5
100
AcDbLine
 10
-669.150396864797
 20
-647.8430398233203
 30
0.0
 11
-419.1503968648061
 21
-397.8430398233294
 31
0.0
  0
LINE
  5
11D
330
1F
100
AcDbEntity
  8
0-0
  6
JWW_DASHED1
 62
   120
370
     5
100
AcDbLine
 10
-329.1503968647993
 20
-307.8430398233217
 30
0.0
 11
-79.15039686480839
 21
-57.84303982333036
 31
0.0
  0
LINE
  5
11E
330
1F
100
AcDbEntity
  8
0-0
  6
JWW_DASHED1
 62
   120
370
     5
100
AcDbLine
 10
-669.1503968647868
 20
-640.7719720114438
 30
0.0
 11
-419.1503968647959
 21
-390.7719720114525
 31
0.0
  0
LINE
  5
11F
330
1F
100
AcDbEntity
  8
0-0
  6
JWW_DASHED1
 62
   120
370
     5
100
AcDbLine
 10
-329.1503968647891
 20
-300.7719720114448
 30
0.0
 11
-79.15039686479815
 21
-50.77197201145346
 31
0.0
  0
LINE
  5
120
330
1F
100
AcDbEntity
  8
0-0
  6
JWW_DASHED1
 62
   120
370
     5
100
AcDbLine
 10
-669.1503968647936
 20
-633.7009041995843
 30
0.0
 11
-419.1503968647891
 21
-383.7009041995798
 31
0.0
  0
LINE
  5
121
330
1F
100
AcDbEntity
  8
0-0
  6
JWW_DASHED1
 62
   120
370
     5
100
AcDbLine
 10
-329.1503968647993
 20
-293.7009041995892
 30
0.0
 11
-79.15039686479474
 21
-43.70090419958423
 31
0.0
  0
LINE
  5
122
330
1F
100
AcDbEntity
  8
0-0
  6
JWW_DASHED1
 62
   120
370
     5
100
AcDbLine
 10
-669.1503968647868
 20
-626.6298363877079
 30
0.0
 11
-419.1503968647959
 21
-376.6298363877191
 31
0.0
  0
LINE
  5
123
330
1F
100
AcDbEntity
  8
0-0
  6
JWW_DASHED1
 62
   120
370
     5
100
AcDbLine
 10
-329.1503968647891
 20
-286.6298363877123
 30
0.0
 11
-79.15039686480156
 21
-36.62983638772353
 31
0.0
  0
LINE
  5
124
330
1F
100
AcDbEntity
  8
0-0
  6
JWW_DASHED1
 62
   120
370
     5
100
AcDbLine
 10
-669.1503968647868
 20
-619.5587685758451
 30
0.0
 11
-419.1503968647959
 21
-369.5587685758542
 31
0.0
  0
LINE
  5
125
330
1F
100
AcDbEntity
  8
0-0
  6
JWW_DASHED1
 62
   120
370
     5
100
AcDbLine
 10
-329.1503968647891
 20
-279.5587685758465
 30
0.0
 11
-79.15039686479815
 21
-29.55876857585515
 31
0.0
  0
LINE
  5
126
330
1F
100
AcDbEntity
  8
0-0
  6
JWW_DASHED1
 62
   120
370
     5
100
AcDbLine
 10
-669.1503968647936
 20
-612.4877007639843
 30
0.0
 11
-419.1503968647891
 21
-362.4877007639773
 31
0.0
  0
LINE
  5
127
330
1F
100
AcDbEntity
  8
0-0
  6
JWW_DASHED1
 62
   120
370
     5
100
AcDbLine
 10
-329.1503968647959
 20
-272.4877007639858
 30
0.0
 11
-79.15039686478792
 21
-22.48770076397868
 31
0.0
  0
LINE
  5
128
330
1F
100
AcDbEntity
  8
0-0
  6
JWW_DASHED1
 62
   120
370
     5
100
AcDbLine
 10
-669.1503968647868
 20
-605.41663295211
 30
0.0
 11
-419.1503968647822
 21
-355.4166329521055
 31
0.0
  0
LINE
  5
129
330
1F
100
AcDbEntity
  8
0-0
  6
JWW_DASHED1
 62
   120
370
     5
100
AcDbLine
 10
-329.1503968647925
 20
-265.4166329521149
 30
0.0
 11
-79.15039686480156
 21
-15.41663295212523
 31
0.0
  0
LINE
  5
12A
330
1F
100
AcDbEntity
  8
0-0
  6
JWW_DASHED1
 62
   120
370
     5
100
AcDbLine
 10
-669.1503968647902
 20
-598.3455651402472
 30
0.0
 11
-419.1503968647993
 21
-348.3455651402559
 31
0.0
  0
LINE
  5
12B
330
1F
100
AcDbEntity
  8
0-0
  6
JWW_DASHED1
 62
   120
370
     5
100
AcDbLine
 10
-329.1503968647925
 20
-258.3455651402486
 30
0.0
 11
-79.15039686480156
 21
-8.345565140256852
 31
0.0
  0
LINE
  5
12C
330
1F
100
AcDbEntity
  8
0-0
  6
JWW_DASHED1
 62
   120
370
     5
100
AcDbLine
 10
-669.15039686478
 20
-591.2744973283703
 30
0.0
 11
-419.1503968647891
 21
-341.2744973283794
 31
0.0
  0
LINE
  5
12D
330
1F
100
AcDbEntity
  8
0-0
  6
JWW_DASHED1
 62
   120
370
     5
100
AcDbLine
 10
-329.1503968647959
 20
-251.2744973283875
 30
0.0
 11
-79.15039686479133
 21
-1.274497328380377
 31
0.0
  0
LINE
  5
12E
330
1F
100
AcDbEntity
  8
0-0
  6
JWW_DASHED1
 62
   120
370
     5
100
AcDbLine
 10
-669.1503968647902
 20
-584.2034295165122
 30
0.0
 11
-419.1503968647822
 21
-334.2034295165072
 31
0.0
  0
LINE
  5
12F
330
1F
100
AcDbEntity
  8
0-0
  6
JWW_DASHED1
 62
   120
370
     5
100
AcDbLine
 10
-329.1503968647925
 20
-244.2034295165166
 30
0.0
 11
-79.15039686480497
 21
5.796570483472649
 31
0.0
  0
LINE
  5
130
330
1F
100
AcDbEntity
  8
0-0
  6
JWW_DASHED1
 62
   120
370
     5
100
AcDbLine
 10
-669.1503968647936
 20
-577.1323617046485
 30
0.0
 11
-419.1503968648027
 21
-327.1323617046576
 31
0.0
  0
LINE
  5
131
330
1F
100
AcDbEntity
  8
0-0
  6
JWW_DASHED1
 62
   120
370
     5
100
AcDbLine
 10
-329.1503968647959
 20
-237.1323617046503
 30
0.0
 11
-79.15039686480156
 21
12.86763829534102
 31
0.0
  0
LINE
  5
132
330
1F
100
AcDbEntity
  8
0-0
  6
JWW_DASHED1
 62
   120
370
     5
100
AcDbLine
 10
-669.1503968647834
 20
-570.0612938927724
 30
0.0
 11
-419.1503968647891
 21
-320.0612938927807
 31
0.0
  0
LINE
  5
133
330
1F
100
AcDbEntity
  8
0-0
  6
JWW_DASHED1
 62
   120
370
     5
100
AcDbLine
 10
-329.1503968647993
 20
-230.0612938927896
 30
0.0
 11
-79.15039686479133
 21
19.93870610721793
 31
0.0
  0
LINE
  5
134
330
1F
100
AcDbEntity
  8
0-0
  6
JWW_DASHED1
 62
   120
370
     5
100
AcDbLine
 10
-669.1503968647902
 20
-562.9902260809139
 30
0.0
 11
-419.1503968647856
 21
-312.9902260809089
 31
0.0
  0
LINE
  5
135
330
1F
100
AcDbEntity
  8
0-0
  6
JWW_DASHED1
 62
   120
370
     5
100
AcDbLine
 10
-329.1503968647959
 20
-222.9902260809183
 30
0.0
 11
-79.15039686479133
 21
27.00977391908673
 31
0.0
  0
LINE
  5
136
330
1F
100
AcDbEntity
  8
0-0
  6
JWW_DASHED1
 62
   120
370
     5
100
AcDbLine
 10
-669.1503968647936
 20
-555.9191582690502
 30
0.0
 11
-419.1503968648027
 21
-305.9191582690593
 31
0.0
  0
LINE
  5
137
330
1F
100
AcDbEntity
  8
0-0
  6
JWW_DASHED1
 62
   120
370
     5
100
AcDbLine
 10
-329.1503968647959
 20
-215.919158269052
 30
0.0
 11
-79.15039686480497
 21
34.08084173093975
 31
0.0
  0
LINE
  5
138
330
1F
100
AcDbEntity
  8
0-0
  6
JWW_DASHED1
 62
   120
370
     5
100
AcDbLine
 10
-669.1503968647834
 20
-548.8480904571737
 30
0.0
 11
-419.1503968647925
 21
-298.8480904571828
 31
0.0
  0
LINE
  5
139
330
1F
100
AcDbEntity
  8
0-0
  6
JWW_DASHED1
 62
   120
370
     5
100
AcDbLine
 10
-329.1503968647856
 20
-208.8480904571755
 30
0.0
 11
-79.15039686479474
 21
41.15190954281623
 31
0.0
  0
LINE
  5
13A
330
1F
100
AcDbEntity
  8
0-0
  6
JWW_DASHED1
 62
   120
370
     5
100
AcDbLine
 10
-669.1503968647936
 20
-541.7770226453156
 30
0.0
 11
-419.1503968647891
 21
-291.7770226453114
 31
0.0
  0
LINE
  5
13B
330
1F
100
AcDbEntity
  8
0-0
  6
JWW_DASHED1
 62
   120
370
     5
100
AcDbLine
 10
-329.1503968647959
 20
-201.7770226453204
 30
0.0
 11
-79.15039686479133
 21
48.2229773546846
 31
0.0
  0
LINE
  5
13C
330
1F
100
AcDbEntity
  8
0-0
  6
JWW_DASHED1
 62
   120
370
     5
100
AcDbLine
 10
-669.150396864797
 20
-534.7059548334519
 30
0.0
 11
-419.1503968648027
 21
-284.705954833461
 31
0.0
  0
LINE
  5
13D
330
1F
100
AcDbEntity
  8
0-0
  6
JWW_DASHED1
 62
   120
370
     5
100
AcDbLine
 10
-329.1503968647959
 20
-194.7059548334533
 30
0.0
 11
-79.15039686480497
 21
55.29404516653806
 31
0.0
  0
LINE
  5
13E
330
1F
100
AcDbEntity
  8
0-0
  6
JWW_DASHED1
 62
   120
370
     5
100
AcDbLine
 10
-669.1503968647868
 20
-527.6348870215754
 30
0.0
 11
-419.1503968647959
 21
-277.6348870215841
 31
0.0
  0
LINE
  5
13F
330
1F
100
AcDbEntity
  8
0-0
  6
JWW_DASHED1
 62
   120
370
     5
100
AcDbLine
 10
-329.1503968647891
 20
-187.6348870215772
 30
0.0
 11
-79.15039686479474
 21
62.36511297841453
 31
0.0
  0
LINE
  5
140
330
1F
100
AcDbEntity
  8
0-0
  6
JWW_DASHED1
 62
   120
370
     5
100
AcDbLine
 10
-669.1503968647936
 20
-520.5638192097176
 30
0.0
 11
-419.1503968647891
 21
-270.5638192097131
 31
0.0
  0
LINE
  5
141
330
1F
100
AcDbEntity
  8
0-0
  6
JWW_DASHED1
 62
   120
370
     5
100
AcDbLine
 10
-329.1503968647993
 20
-180.5638192097221
 30
0.0
 11
-79.15039686479474
 21
69.4361807902829
 31
0.0
  0
LINE
  5
142
330
1F
100
AcDbEntity
  8
0-0
  6
JWW_DASHED1
 62
   120
370
     5
100
AcDbLine
 10
-669.1503968647868
 20
-513.4927513978407
 30
0.0
 11
-419.1503968647959
 21
-263.4927513978524
 31
0.0
  0
LINE
  5
143
330
1F
100
AcDbEntity
  8
0-0
  6
JWW_DASHED1
 62
   120
370
     5
100
AcDbLine
 10
-329.1503968647891
 20
-173.4927513978456
 30
0.0
 11
-79.15039686479815
 21
76.5072486021436
 31
0.0
  0
LINE
  5
144
330
1F
100
AcDbEntity
  8
0-0
  6
JWW_DASHED1
 62
   120
370
     5
100
AcDbLine
 10
-669.1503968647902
 20
-506.4216835860065
 30
0.0
 11
-419.1503968647993
 21
-256.4216835860156
 31
0.0
  0
LINE
  5
145
330
1F
100
AcDbEntity
  8
0-0
  6
JWW_DASHED1
 62
   120
370
     5
100
AcDbLine
 10
-329.1503968647891
 20
-166.4216835860079
 30
0.0
 11
-79.15039686479815
 21
83.57831641398342
 31
0.0
  0
LINE
  5
146
330
1F
100
AcDbEntity
  8
0-0
  6
JWW_DASHED1
 62
   120
370
     5
100
AcDbLine
 10
-669.15039686478
 20
-499.3506157741595
 30
0.0
 11
-419.1503968647891
 21
-249.3506157741685
 31
0.0
  0
LINE
  5
147
330
1F
100
AcDbEntity
  8
0-0
  6
JWW_DASHED1
 62
   120
370
     5
100
AcDbLine
 10
-329.1503968647993
 20
-159.3506157741771
 30
0.0
 11
-79.15039686479133
 21
90.64938422583047
 31
0.0
  0
LINE
  5
148
330
1F
100
AcDbEntity
  8
0-0
  6
JWW_DASHED1
 62
   120
370
     5
100
AcDbLine
 10
-669.1503968647902
 20
-492.2795479623017
 30
0.0
 11
-419.1503968647856
 21
-242.2795479622972
 31
0.0
  0
LINE
  5
149
330
1F
100
AcDbEntity
  8
0-0
  6
JWW_DASHED1
 62
   120
370
     5
100
AcDbLine
 10
-329.1503968647959
 20
-152.2795479623061
 30
0.0
 11
-79.15039686479133
 21
97.72045203769842
 31
0.0
  0
LINE
  5
14A
330
1F
100
AcDbEntity
  8
0-0
  6
JWW_DASHED1
 62
   120
370
     5
100
AcDbLine
 10
-669.1503968647936
 20
-485.208480150438
 30
0.0
 11
-419.1503968648027
 21
-235.2084801504467
 31
0.0
  0
LINE
  5
14B
330
1F
100
AcDbEntity
  8
0-0
  6
JWW_DASHED1
 62
   120
370
     5
100
AcDbLine
 10
-329.1503968647959
 20
-145.2084801504395
 30
0.0
 11
-79.15039686480497
 21
104.7915198495523
 31
0.0
  0
LINE
  5
14C
330
1F
100
AcDbEntity
  8
0-0
  6
JWW_DASHED1
 62
   120
370
     5
100
AcDbLine
 10
-669.1503968647834
 20
-478.1374123385611
 30
0.0
 11
-419.1503968647925
 21
-228.1374123385702
 31
0.0
  0
LINE
  5
14D
330
1F
100
AcDbEntity
  8
0-0
  6
JWW_DASHED1
 62
   120
370
     5
100
AcDbLine
 10
-329.1503968647856
 20
-138.1374123385626
 30
0.0
 11
-79.15039686479133
 21
111.8625876614288
 31
0.0
  0
LINE
  5
14E
330
1F
100
AcDbEntity
  8
0-0
  6
JWW_DASHED1
 62
   120
370
     5
100
AcDbLine
 10
-669.1503968647936
 20
-471.0663445267039
 30
0.0
 11
-419.1503968647891
 21
-221.0663445266993
 31
0.0
  0
LINE
  5
14F
330
1F
100
AcDbEntity
  8
0-0
  6
JWW_DASHED1
 62
   120
370
     5
100
AcDbLine
 10
-329.1503968647959
 20
-131.0663445267082
 30
0.0
 11
-79.15039686479133
 21
118.9336554732967
 31
0.0
  0
LINE
  5
150
330
1F
100
AcDbEntity
  8
0-0
  6
JWW_DASHED1
 62
   120
370
     5
100
AcDbLine
 10
-669.1503968647936
 20
-463.9952767148397
 30
0.0
 11
-419.1503968648027
 21
-213.9952767148484
 31
0.0
  0
LINE
  5
151
330
1F
100
AcDbEntity
  8
0-0
  6
JWW_DASHED1
 62
   120
370
     5
100
AcDbLine
 10
-329.1503968647959
 20
-123.9952767148412
 30
0.0
 11
-79.15039686480497
 21
126.0047232851506
 31
0.0
  0
LINE
  5
152
330
1F
100
AcDbEntity
  8
0-0
  6
JWW_DASHED1
 62
   120
370
     5
100
AcDbLine
 10
-669.1503968647868
 20
-456.9242089029628
 30
0.0
 11
-419.1503968647959
 21
-206.9242089029719
 31
0.0
  0
LINE
  5
153
330
1F
100
AcDbEntity
  8
0-0
  6
JWW_DASHED1
 62
   120
370
     5
100
AcDbLine
 10
-329.1503968647891
 20
-116.9242089029643
 30
0.0
 11
-79.15039686479474
 21
133.0757910970271
 31
0.0
  0
LINE
  5
154
330
1F
100
AcDbEntity
  8
0-0
  6
JWW_DASHED1
 62
   120
370
     5
100
AcDbLine
 10
-669.1503968647936
 20
-449.8531410911056
 30
0.0
 11
-419.1503968647891
 21
-199.853141091101
 31
0.0
  0
LINE
  5
155
330
1F
100
AcDbEntity
  8
0-0
  6
JWW_DASHED1
 62
   120
370
     5
100
AcDbLine
 10
-329.1503968647993
 20
-109.8531410911104
 30
0.0
 11
-79.15039686479474
 21
140.1468589088946
 31
0.0
  0
LINE
  5
156
330
1F
100
AcDbEntity
  8
0-0
  6
JWW_DASHED1
 62
   120
370
     5
100
AcDbLine
 10
-669.1503968647868
 20
-442.7820732792287
 30
0.0
 11
-419.1503968647959
 21
-192.7820732792403
 31
0.0
  0
LINE
  5
157
330
1F
100
AcDbEntity
  8
0-0
  6
JWW_DASHED1
 62
   120
370
     5
100
AcDbLine
 10
-329.1503968647891
 20
-102.7820732792335
 30
0.0
 11
-79.15039686479815
 21
147.2179267207557
 31
0.0
  0
LINE
  5
158
330
1F
100
AcDbEntity
  8
0-0
  6
JWW_DASHED1
 62
   120
370
     5
100
AcDbLine
 10
-669.1503968647868
 20
-435.7110054673645
 30
0.0
 11
-419.1503968647959
 21
-185.7110054673736
 31
0.0
  0
LINE
  5
159
330
1F
100
AcDbEntity
  8
0-0
  6
JWW_DASHED1
 62
   120
370
     5
100
AcDbLine
 10
-329.1503968647891
 20
-95.71100546736595
 30
0.0
 11
-79.15039686479815
 21
154.2889945326254
 31
0.0
  0
LINE
  5
15A
330
1F
100
AcDbEntity
  8
0-0
  6
JWW_DASHED1
 62
   120
370
     5
100
AcDbLine
 10
-669.150396864797
 20
-428.6399376555077
 30
0.0
 11
-419.1503968647925
 21
-178.6399376555027
 31
0.0
  0
LINE
  5
15B
330
1F
100
AcDbEntity
  8
0-0
  6
JWW_DASHED1
 62
   120
370
     5
100
AcDbLine
 10
-329.1503968648027
 20
-88.63993765551207
 30
0.0
 11
-79.15039686479815
 21
161.3600623444929
 31
0.0
  0
LINE
  5
15C
330
1F
100
AcDbEntity
  8
0-0
  6
JWW_DASHED1
 62
   120
370
     5
100
AcDbLine
 10
-669.1503968647868
 20
-421.5688698436312
 30
0.0
 11
-419.1503968647959
 21
-171.568869843642
 31
0.0
  0
LINE
  5
15D
330
1F
100
AcDbEntity
  8
0-0
  6
JWW_DASHED1
 62
   120
370
     5
100
AcDbLine
 10
-329.1503968647891
 20
-81.56886984363517
 30
0.0
 11
-79.15039686480156
 21
168.4311301563536
 31
0.0
  0
LINE
  5
15E
330
1F
100
AcDbEntity
  8
0-0
  6
JWW_DASHED1
 62
   120
370
     5
100
AcDbLine
 10
-669.1503968647868
 20
-414.4978020317662
 30
0.0
 11
-419.1503968647959
 21
-164.4978020317753
 31
0.0
  0
LINE
  5
15F
330
1F
100
AcDbEntity
  8
0-0
  6
JWW_DASHED1
 62
   120
370
     5
100
AcDbLine
 10
-329.1503968647891
 20
-74.49780203176765
 30
0.0
 11
-79.15039686479815
 21
175.5021979682241
 31
0.0
  0
LINE
  5
160
330
1F
100
AcDbEntity
  8
0-0
  6
JWW_DASHED1
 62
   120
370
     5
100
AcDbLine
 10
-669.1503968647936
 20
-407.4267342199055
 30
0.0
 11
-419.1503968647891
 21
-157.4267342198988
 31
0.0
  0
LINE
  5
161
330
1F
100
AcDbEntity
  8
0-0
  6
JWW_DASHED1
 62
   120
370
     5
100
AcDbLine
 10
-329.1503968647959
 20
-67.42673421990695
 30
0.0
 11
-79.15039686478792
 21
182.5732657801001
 31
0.0
  0
LINE
  5
162
330
1F
100
AcDbEntity
  8
0-0
  6
JWW_DASHED1
 62
   120
370
     5
100
AcDbLine
 10
-669.1503968647868
 20
-400.3556664080329
 30
0.0
 11
-419.1503968647822
 21
-150.3556664080284
 31
0.0
  0
LINE
  5
163
330
1F
100
AcDbEntity
  8
0-0
  6
JWW_DASHED1
 62
   120
370
     5
100
AcDbLine
 10
-329.1503968647925
 20
-60.35566640803772
 30
0.0
 11
-79.15039686480497
 21
189.6443335919515
 31
0.0
  0
LINE
  5
164
330
1F
100
AcDbEntity
  8
0-0
  6
JWW_DASHED1
 62
   120
370
     5
100
AcDbLine
 10
-669.1503968647902
 20
-393.2845985961679
 30
0.0
 11
-419.1503968647993
 21
-143.284598596177
 31
0.0
  0
LINE
  5
165
330
1F
100
AcDbEntity
  8
0-0
  6
JWW_DASHED1
 62
   120
370
     5
100
AcDbLine
 10
-329.1503968647925
 20
-53.28459859616935
 30
0.0
 11
-79.15039686479815
 21
196.715401403822
 31
0.0
  0
LINE
  5
166
330
1F
100
AcDbEntity
  8
0-0
  6
JWW_DASHED1
 62
   120
370
     5
100
AcDbLine
 10
-669.15039686478
 20
-386.213530784291
 30
0.0
 11
-419.1503968647891
 21
-136.2135307843001
 31
0.0
  0
LINE
  5
167
330
1F
100
AcDbEntity
  8
0-0
  6
JWW_DASHED1
 62
   120
370
     5
100
AcDbLine
 10
-329.1503968647959
 20
-46.21353078430865
 30
0.0
 11
-79.15039686479133
 21
203.7864692156984
 31
0.0
  0
LINE
  5
168
330
1F
100
AcDbEntity
  8
0-0
  6
JWW_DASHED1
 62
   120
370
     5
100
AcDbLine
 10
-669.1503968647902
 20
-379.1424629724346
 30
0.0
 11
-419.1503968647856
 21
-129.1424629724301
 31
0.0
  0
LINE
  5
169
330
1F
100
AcDbEntity
  8
0-0
  6
JWW_DASHED1
 62
   120
370
     5
100
AcDbLine
 10
-329.1503968647959
 20
-39.14246297243942
 30
0.0
 11
-79.15039686480497
 21
210.8575370275498
 31
0.0
  0
LINE
  5
16A
330
1F
100
AcDbEntity
  8
0-0
  6
JWW_DASHED1
 62
   120
370
     5
100
AcDbLine
 10
-669.1503968647936
 20
-372.0713951605696
 30
0.0
 11
-419.1503968648027
 21
-122.0713951605787
 31
0.0
  0
LINE
  5
16B
330
1F
100
AcDbEntity
  8
0-0
  6
JWW_DASHED1
 62
   120
370
     5
100
AcDbLine
 10
-329.1503968647959
 20
-32.07139516057104
 30
0.0
 11
-79.15039686480156
 21
217.9286048394203
 31
0.0
  0
LINE
  5
16C
330
1F
100
AcDbEntity
  8
0-0
  6
JWW_DASHED1
 62
   120
370
     5
100
AcDbLine
 10
-669.1503968647834
 20
-365.0003273486931
 30
0.0
 11
-419.1503968647925
 21
-115.0003273487022
 31
0.0
  0
LINE
  5
16D
330
1F
100
AcDbEntity
  8
0-0
  6
JWW_DASHED1
 62
   120
370
     5
100
AcDbLine
 10
-329.1503968647993
 20
-25.00032734871034
 30
0.0
 11
-79.15039686479133
 21
224.9996726512967
 31
0.0
  0
LINE
  5
16E
330
1F
100
AcDbEntity
  8
0-0
  6
JWW_DASHED1
 62
   120
370
     5
100
AcDbLine
 10
-669.1503968647936
 20
-357.9292595368363
 30
0.0
 11
-419.1503968647891
 21
-107.9292595368322
 31
0.0
  0
LINE
  5
16F
330
1F
100
AcDbEntity
  8
0-0
  6
JWW_DASHED1
 62
   120
370
     5
100
AcDbLine
 10
-329.1503968647959
 20
-17.92925953684112
 30
0.0
 11
-79.15039686479133
 21
232.0707404631639
 31
0.0
  0
LINE
  5
170
330
1F
100
AcDbEntity
  8
0-0
  6
JWW_DASHED1
 62
   120
370
     5
100
AcDbLine
 10
-669.1503968647936
 20
-350.8581917249713
 30
0.0
 11
-419.1503968648027
 21
-100.8581917249804
 31
0.0
  0
LINE
  5
171
330
1F
100
AcDbEntity
  8
0-0
  6
JWW_DASHED1
 62
   120
370
     5
100
AcDbLine
 10
-329.1503968647959
 20
-10.85819172497274
 30
0.0
 11
-79.15039686480497
 21
239.1418082750186
 31
0.0
  0
LINE
  5
172
330
1F
100
AcDbEntity
  8
0-0
  6
JWW_DASHED1
 62
   120
370
     5
100
AcDbLine
 10
-669.1503968647834
 20
-343.7871239130948
 30
0.0
 11
-419.1503968647925
 21
-93.78712391310351
 31
0.0
  0
LINE
  5
173
330
1F
100
AcDbEntity
  8
0-0
  6
JWW_DASHED1
 62
   120
370
     5
100
AcDbLine
 10
-329.1503968647856
 20
-3.787123913096266
 30
0.0
 11
-79.15039686479474
 21
246.2128760868951
 31
0.0
  0
LINE
  5
174
330
1F
100
AcDbEntity
  8
0-0
  6
JWW_DASHED1
 62
   120
370
     5
100
AcDbLine
 10
-669.1503968647936
 20
-336.7160561012388
 30
0.0
 11
-419.1503968647891
 21
-86.71605610123386
 31
0.0
  0
LINE
  5
175
330
1F
100
AcDbEntity
  8
0-0
  6
JWW_DASHED1
 62
   120
370
     5
100
AcDbLine
 10
-329.1503968647993
 20
3.283943898757187
 30
0.0
 11
-79.15039686479474
 21
253.2839438987617
 31
0.0
  0
LINE
  5
176
330
1F
100
AcDbEntity
  8
0-0
  6
JWW_DASHED1
 62
   120
370
     5
100
AcDbLine
 10
-669.1503968647936
 20
-329.644988289373
 30
0.0
 11
-419.1503968648027
 21
-79.64498828938211
 31
0.0
  0
LINE
  5
177
330
1F
100
AcDbEntity
  8
0-0
  6
JWW_DASHED1
 62
   120
370
     5
100
AcDbLine
 10
-329.1503968647959
 20
10.35501171062556
 30
0.0
 11
-79.15039686480497
 21
260.3550117106169
 31
0.0
  0
LINE
  5
178
330
1F
100
AcDbEntity
  8
0-0
  6
JWW_DASHED1
 62
   120
370
     5
100
AcDbLine
 10
-669.1503968647868
 20
-322.573920477497
 30
0.0
 11
-419.1503968647959
 21
-72.57392047750521
 31
0.0
  0
LINE
  5
179
330
1F
100
AcDbEntity
  8
0-0
  6
JWW_DASHED1
 62
   120
370
     5
100
AcDbLine
 10
-329.1503968647891
 20
17.42607952250246
 30
0.0
 11
-79.15039686479474
 21
267.4260795224934
 31
0.0
  0
LINE
  5
17A
330
1F
100
AcDbEntity
  8
0-0
  6
JWW_DASHED1
 62
   120
370
     5
100
AcDbLine
 10
-669.150396864797
 20
-315.5028526656405
 30
0.0
 11
-419.1503968647925
 21
-65.50285266563598
 31
0.0
  0
LINE
  5
17B
330
1F
100
AcDbEntity
  8
0-0
  6
JWW_DASHED1
 62
   120
370
     5
100
AcDbLine
 10
-329.1503968648027
 20
24.49714733435506
 30
0.0
 11
-79.15039686479474
 21
274.49714733436
 31
0.0
  0
LINE
  5
17C
330
1F
100
AcDbEntity
  8
0-0
  6
JWW_DASHED1
 62
   120
370
     5
100
AcDbLine
 10
-669.1503968647868
 20
-308.431784853764
 30
0.0
 11
-419.1503968647959
 21
-58.43178485377528
 31
0.0
  0
LINE
  5
17D
330
1F
100
AcDbEntity
  8
0-0
  6
JWW_DASHED1
 62
   120
370
     5
100
AcDbLine
 10
-329.1503968647891
 20
31.56821514623154
 30
0.0
 11
-79.15039686480156
 21
281.5682151462207
 31
0.0
  0
LINE
  5
17E
330
1F
100
AcDbEntity
  8
0-0
  6
JWW_DASHED1
 62
   120
370
     5
100
AcDbLine
 10
-669.1503968647868
 20
-301.3607170418982
 30
0.0
 11
-419.1503968647959
 21
-51.36071704190734
 31
0.0
  0
LINE
  5
17F
330
1F
100
AcDbEntity
  8
0-0
  6
JWW_DASHED1
 62
   120
370
     5
100
AcDbLine
 10
-329.1503968647891
 20
38.63928295810034
 30
0.0
 11
-79.15039686479815
 21
288.6392829580917
 31
0.0
  0
LINE
  5
180
330
1F
100
AcDbEntity
  8
0-0
  6
JWW_DASHED1
 62
   120
370
     5
100
AcDbLine
 10
-669.1503968647936
 20
-294.2896492300371
 30
0.0
 11
-419.1503968647856
 21
-44.28964923003043
 31
0.0
  0
LINE
  5
181
330
1F
100
AcDbEntity
  8
0-0
  6
JWW_DASHED1
 62
   120
370
     5
100
AcDbLine
 10
-329.1503968647959
 20
45.71035076996147
 30
0.0
 11
-79.15039686478792
 21
295.7103507699686
 31
0.0
  0
LINE
  5
182
330
1F
100
AcDbEntity
  8
0-0
  6
JWW_DASHED1
 62
   120
370
     5
100
AcDbLine
 10
-669.1503968647868
 20
-287.2185814181657
 30
0.0
 11
-419.1503968647993
 21
-37.21858141817698
 31
0.0
  0
LINE
  5
183
330
1F
100
AcDbEntity
  8
0-0
  6
JWW_DASHED1
 62
   120
370
     5
100
AcDbLine
 10
-329.1503968647925
 20
52.78141858182984
 30
0.0
 11
-79.15039686480497
 21
302.7814185818186
 31
0.0
  0
LINE
  5
184
330
1F
100
AcDbEntity
  8
0-0
  6
JWW_DASHED1
 62
   120
370
     5
100
AcDbLine
 10
-669.1503968647902
 20
-280.1475136062999
 30
0.0
 11
-419.1503968647993
 21
-30.14751360630903
 31
0.0
  0
LINE
  5
185
330
1F
100
AcDbEntity
  8
0-0
  6
JWW_DASHED1
 62
   120
370
     5
100
AcDbLine
 10
-329.1503968647891
 20
59.85248639369864
 30
0.0
 11
-79.15039686479815
 21
309.85248639369
 31
0.0
  0
LINE
  5
186
330
1F
100
AcDbEntity
  8
0-0
  6
JWW_DASHED1
 62
   120
370
     5
100
AcDbLine
 10
-669.15039686478
 20
-273.0764457944235
 30
0.0
 11
-419.1503968647891
 21
-23.07644579443256
 31
0.0
  0
LINE
  5
187
330
1F
100
AcDbEntity
  8
0-0
  6
JWW_DASHED1
 62
   120
370
     5
100
AcDbLine
 10
-329.1503968647959
 20
66.92355420555934
 30
0.0
 11
-79.15039686478792
 21
316.9235542055669
 31
0.0
  0
LINE
  5
188
330
1F
100
AcDbEntity
  8
0-0
  6
JWW_DASHED1
 62
   120
370
     5
100
AcDbLine
 10
-669.1503968647902
 20
-266.0053779825679
 30
0.0
 11
-419.1503968647856
 21
-16.00537798256333
 31
0.0
  0
LINE
  5
189
330
1F
100
AcDbEntity
  8
0-0
  6
JWW_DASHED1
 62
   120
370
     5
100
AcDbLine
 10
-329.1503968647959
 20
73.99462201742772
 30
0.0
 11
-79.15039686480497
 21
323.9946220174173
 31
0.0
  0
LINE
  5
18A
330
1F
100
AcDbEntity
  8
0-0
  6
JWW_DASHED1
 62
   120
370
     5
100
AcDbLine
 10
-669.1503968647936
 20
-258.9343101707311
 30
0.0
 11
-419.1503968648027
 21
-8.934310170740147
 31
0.0
  0
LINE
  5
18B
330
1F
100
AcDbEntity
  8
0-0
  6
JWW_DASHED1
 62
   120
370
     5
100
AcDbLine
 10
-329.1503968647959
 20
81.06568982926753
 30
0.0
 11
-79.15039686480497
 21
331.0656898292589
 31
0.0
  0
LINE
  5
18C
330
1F
100
AcDbEntity
  8
0-0
  6
JWW_DASHED1
 62
   120
370
     5
100
AcDbLine
 10
-669.1503968647868
 20
-251.863242358884
 30
0.0
 11
-419.1503968647959
 21
-1.863242358893089
 31
0.0
  0
LINE
  5
18D
330
1F
100
AcDbEntity
  8
0-0
  6
JWW_DASHED1
 62
   120
370
     5
100
AcDbLine
 10
-329.1503968647856
 20
88.13675764111458
 30
0.0
 11
-79.15039686479474
 21
338.1367576411059
 31
0.0
  0
LINE
  5
18E
330
1F
100
AcDbEntity
  8
0-0
  6
JWW_DASHED1
 62
   120
370
     5
100
AcDbLine
 10
-669.150396864797
 20
-244.7921745470284
 30
0.0
 11
-419.1503968647925
 21
5.207825452976138
 31
0.0
  0
LINE
  5
18F
330
1F
100
AcDbEntity
  8
0-0
  6
JWW_DASHED1
 62
   120
370
     5
100
AcDbLine
 10
-329.1503968648027
 20
95.20782545296676
 30
0.0
 11
-79.15039686479815
 21
345.2078254529717
 31
0.0
  0
LINE
  5
190
330
1F
100
AcDbEntity
  8
0-0
  6
JWW_DASHED1
 62
   120
370
     5
100
AcDbLine
 10
-669.1503968647868
 20
-237.7211067351519
 30
0.0
 11
-419.1503968647959
 21
12.27889326483684
 31
0.0
  0
LINE
  5
191
330
1F
100
AcDbEntity
  8
0-0
  6
JWW_DASHED1
 62
   120
370
     5
100
AcDbLine
 10
-329.1503968647891
 20
102.2788932648437
 30
0.0
 11
-79.15039686480156
 21
352.2788932648328
 31
0.0
  0
LINE
  5
192
330
1F
100
AcDbEntity
  8
0-0
  6
JWW_DASHED1
 62
   120
370
     5
100
AcDbLine
 10
-669.1503968647868
 20
-230.6500389232857
 30
0.0
 11
-419.1503968647959
 21
19.34996107670521
 31
0.0
  0
LINE
  5
193
330
1F
100
AcDbEntity
  8
0-0
  6
JWW_DASHED1
 62
   120
370
     5
100
AcDbLine
 10
-329.1503968647891
 20
109.3499610767129
 30
0.0
 11
-79.15039686479815
 21
359.3499610767042
 31
0.0
  0
LINE
  5
194
330
1F
100
AcDbEntity
  8
0-0
  6
JWW_DASHED1
 62
   120
370
     5
100
AcDbLine
 10
-669.1503968647936
 20
-223.578971111425
 30
0.0
 11
-419.1503968647856
 21
26.42102888858211
 31
0.0
  0
LINE
  5
195
330
1F
100
AcDbEntity
  8
0-0
  6
JWW_DASHED1
 62
   120
370
     5
100
AcDbLine
 10
-329.1503968647959
 20
116.4210288885736
 30
0.0
 11
-79.15039686478792
 21
366.4210288885811
 31
0.0
  0
LINE
  5
196
330
1F
100
AcDbEntity
  8
0-0
  6
JWW_DASHED1
 62
   120
370
     5
100
AcDbLine
 10
-669.1503968647868
 20
-216.5079032995536
 30
0.0
 11
-419.1503968647993
 21
33.49209670043514
 31
0.0
  0
LINE
  5
197
330
1F
100
AcDbEntity
  8
0-0
  6
JWW_DASHED1
 62
   120
370
     5
100
AcDbLine
 10
-329.1503968647925
 20
123.4920967004415
 30
0.0
 11
-79.15039686480497
 21
373.4920967004307
 31
0.0
  0
LINE
  5
198
330
1F
100
AcDbEntity
  8
0-0
  6
JWW_DASHED1
 62
   120
370
     5
100
AcDbLine
 10
-669.1503968647868
 20
-209.4368354876874
 30
0.0
 11
-419.1503968647959
 21
40.56316451230352
 31
0.0
  0
LINE
  5
199
330
1F
100
AcDbEntity
  8
0-0
  6
JWW_DASHED1
 62
   120
370
     5
100
AcDbLine
 10
-329.1503968647891
 20
130.5631645123112
 30
0.0
 11
-79.15039686479815
 21
380.5631645123029
 31
0.0
  0
LINE
  5
19A
330
1F
100
AcDbEntity
  8
0-0
  6
JWW_DASHED1
 62
   120
370
     5
100
AcDbLine
 10
-669.15039686478
 20
-202.3657676758105
 30
0.0
 11
-419.1503968647891
 21
47.63423232418042
 31
0.0
  0
LINE
  5
19B
330
1F
100
AcDbEntity
  8
0-0
  6
JWW_DASHED1
 62
   120
370
     5
100
AcDbLine
 10
-329.1503968647959
 20
137.6342323241719
 30
0.0
 11
-79.15039686478792
 21
387.6342323241794
 31
0.0
  0
LINE
  5
19C
330
1F
100
AcDbEntity
  8
0-0
  6
JWW_DASHED1
 62
   120
370
     5
100
AcDbLine
 10
-669.1503968647902
 20
-195.2946998639558
 30
0.0
 11
-419.1503968647856
 21
54.70530013604879
 31
0.0
  0
LINE
  5
19D
330
1F
100
AcDbEntity
  8
0-0
  6
JWW_DASHED1
 62
   120
370
     5
100
AcDbLine
 10
-329.1503968647959
 20
144.7053001360399
 30
0.0
 11
-79.15039686480497
 21
394.7053001360291
 31
0.0
  0
LINE
  5
19E
330
1F
100
AcDbEntity
  8
0-0
  6
JWW_DASHED1
 62
   120
370
     5
100
AcDbLine
 10
-669.1503968647902
 20
-188.2236320520891
 30
0.0
 11
-419.1503968647993
 21
61.77636794790182
 31
0.0
  0
LINE
  5
19F
330
1F
100
AcDbEntity
  8
0-0
  6
JWW_DASHED1
 62
   120
370
     5
100
AcDbLine
 10
-329.1503968647925
 20
151.7763679479095
 30
0.0
 11
-79.15039686480156
 21
401.7763679479008
 31
0.0
  0
LINE
  5
1A0
330
1F
100
AcDbEntity
  8
0-0
  6
JWW_DASHED1
 62
   120
370
     5
100
AcDbLine
 10
-669.15039686478
 20
-181.1525642402122
 30
0.0
 11
-419.1503968647891
 21
68.84743575977872
 31
0.0
  0
LINE
  5
1A1
330
1F
100
AcDbEntity
  8
0-0
  6
JWW_DASHED1
 62
   120
370
     5
100
AcDbLine
 10
-329.1503968647959
 20
158.8474357597702
 30
0.0
 11
-79.15039686479133
 21
408.8474357597777
 31
0.0
  0
LINE
  5
1A2
330
1F
100
AcDbEntity
  8
0-0
  6
JWW_DASHED1
 62
   120
370
     5
100
AcDbLine
 10
-669.1503968647936
 20
-174.0814964283575
 30
0.0
 11
-419.1503968647891
 21
75.9185035716471
 31
0.0
  0
LINE
  5
1A3
330
1F
100
AcDbEntity
  8
0-0
  6
JWW_DASHED1
 62
   120
370
     5
100
AcDbLine
 10
-329.1503968647959
 20
165.9185035716377
 30
0.0
 11
-79.15039686480839
 21
415.9185035716269
 31
0.0
  0
LINE
  5
1A4
330
1F
100
AcDbEntity
  8
0-0
  6
JWW_DASHED1
 62
   120
370
     5
100
AcDbLine
 10
-669.1503968647936
 20
-167.0104286164908
 30
0.0
 11
-419.1503968648027
 21
82.98957138350012
 31
0.0
  0
LINE
  5
1A5
330
1F
100
AcDbEntity
  8
0-0
  6
JWW_DASHED1
 62
   120
370
     5
100
AcDbLine
 10
-329.1503968647925
 20
172.9895713835078
 30
0.0
 11
-79.15039686480156
 21
422.9895713834991
 31
0.0
  0
LINE
  5
1A6
330
1F
100
AcDbEntity
  8
0-0
  6
JWW_DASHED1
 62
   120
370
     5
100
AcDbLine
 10
-669.1503968647834
 20
-159.9393608046143
 30
0.0
 11
-419.1503968647891
 21
90.06063919537702
 31
0.0
  0
LINE
  5
1A7
330
1F
100
AcDbEntity
  8
0-0
  6
JWW_DASHED1
 62
   120
370
     5
100
AcDbLine
 10
-329.1503968647822
 20
180.0606391953843
 30
0.0
 11
-79.15039686479133
 21
430.060639195376
 31
0.0
  0
LINE
  5
1A8
330
1F
100
AcDbEntity
  8
0-0
  6
JWW_DASHED1
 62
   120
370
     5
100
AcDbLine
 10
-669.1503968647936
 20
-152.8682929927592
 30
0.0
 11
-419.1503968647891
 21
97.1317070072454
 31
0.0
  0
LINE
  5
1A9
330
1F
100
AcDbEntity
  8
0-0
  6
JWW_DASHED1
 62
   120
370
     5
100
AcDbLine
 10
-329.1503968647993
 20
187.131707007236
 30
0.0
 11
-79.15039686479474
 21
437.131707007241
 31
0.0
  0
LINE
  5
1AA
330
1F
100
AcDbEntity
  8
0-0
  6
JWW_DASHED1
 62
   120
370
     5
100
AcDbLine
 10
-669.1503968647936
 20
-145.7972251808925
 30
0.0
 11
-419.1503968648027
 21
104.2027748190984
 31
0.0
  0
LINE
  5
1AB
330
1F
100
AcDbEntity
  8
0-0
  6
JWW_DASHED1
 62
   120
370
     5
100
AcDbLine
 10
-329.1503968647959
 20
194.2027748191061
 30
0.0
 11
-79.15039686480497
 21
444.2027748190974
 31
0.0
  0
LINE
  5
1AC
330
1F
100
AcDbEntity
  8
0-0
  6
JWW_DASHED1
 62
   120
370
     5
100
AcDbLine
 10
-669.1503968647834
 20
-138.7261573690156
 30
0.0
 11
-419.1503968647925
 21
111.2738426309753
 31
0.0
  0
LINE
  5
1AD
330
1F
100
AcDbEntity
  8
0-0
  6
JWW_DASHED1
 62
   120
370
     5
100
AcDbLine
 10
-329.1503968647856
 20
201.273842630983
 30
0.0
 11
-79.15039686479474
 21
451.2738426309739
 31
0.0
  0
LINE
  5
1AE
330
1F
100
AcDbEntity
  8
0-0
  6
JWW_DASHED1
 62
   120
370
     5
100
AcDbLine
 10
-669.150396864797
 20
-131.6550895571617
 30
0.0
 11
-419.1503968647925
 21
118.3449104428433
 31
0.0
  0
LINE
  5
1AF
330
1F
100
AcDbEntity
  8
0-0
  6
JWW_DASHED1
 62
   120
370
     5
100
AcDbLine
 10
-329.1503968648027
 20
208.3449104428339
 30
0.0
 11
-79.15039686479474
 21
458.3449104428389
 31
0.0
  0
LINE
  5
1B0
330
1F
100
AcDbEntity
  8
0-0
  6
JWW_DASHED1
 62
   120
370
     5
100
AcDbLine
 10
-669.1503968647868
 20
-124.5840217452848
 30
0.0
 11
-419.1503968647959
 21
125.4159782547044
 31
0.0
  0
LINE
  5
1B1
330
1F
100
AcDbEntity
  8
0-0
  6
JWW_DASHED1
 62
   120
370
     5
100
AcDbLine
 10
-329.1503968647891
 20
215.4159782547104
 30
0.0
 11
-79.15039686480156
 21
465.4159782546996
 31
0.0
  0
LINE
  5
1B2
330
1F
100
AcDbEntity
  8
0-0
  6
JWW_DASHED1
 62
   120
370
     5
100
AcDbLine
 10
-669.1503968647868
 20
-117.5129539334177
 30
0.0
 11
-419.1503968647959
 21
132.4870460665736
 31
0.0
  0
LINE
  5
1B3
330
1F
100
AcDbEntity
  8
0-0
  6
JWW_DASHED1
 62
   120
370
     5
100
AcDbLine
 10
-329.1503968647891
 20
222.4870460665809
 30
0.0
 11
-79.15039686479474
 21
472.4870460665726
 31
0.0
  0
LINE
  5
1B4
330
1F
100
AcDbEntity
  8
0-0
  6
JWW_DASHED1
 62
   120
370
     5
100
AcDbLine
 10
-669.150396864797
 20
-110.4418861215634
 30
0.0
 11
-419.1503968647925
 21
139.5581138784411
 31
0.0
  0
LINE
  5
1B5
330
1F
100
AcDbEntity
  8
0-0
  6
JWW_DASHED1
 62
   120
370
     5
100
AcDbLine
 10
-329.1503968648027
 20
229.5581138784322
 30
0.0
 11
-79.15039686479815
 21
479.5581138784372
 31
0.0
  0
LINE
  5
1B6
330
1F
100
AcDbEntity
  8
0-0
  6
JWW_DASHED1
 62
   120
370
     5
100
AcDbLine
 10
-669.1503968647868
 20
-103.3708183096865
 30
0.0
 11
-419.1503968647993
 21
146.6291816903018
 31
0.0
  0
LINE
  5
1B7
330
1F
100
AcDbEntity
  8
0-0
  6
JWW_DASHED1
 62
   120
370
     5
100
AcDbLine
 10
-329.1503968647925
 20
236.6291816903087
 30
0.0
 11
-79.15039686480497
 21
486.6291816902979
 31
0.0
  0
LINE
  5
1B8
330
1F
100
AcDbEntity
  8
0-0
  6
JWW_DASHED1
 62
   120
370
     5
100
AcDbLine
 10
-669.1503968647868
 20
-96.29975049781898
 30
0.0
 11
-419.1503968647959
 21
153.7002495021719
 31
0.0
  0
LINE
  5
1B9
330
1F
100
AcDbEntity
  8
0-0
  6
JWW_DASHED1
 62
   120
370
     5
100
AcDbLine
 10
-329.1503968647891
 20
243.7002495021792
 30
0.0
 11
-79.15039686479815
 21
493.7002495021709
 31
0.0
  0
LINE
  5
1BA
330
1F
100
AcDbEntity
  8
0-0
  6
JWW_DASHED1
 62
   120
370
     5
100
AcDbLine
 10
-669.1503968647936
 20
-89.22868268595828
 30
0.0
 11
-419.1503968647856
 21
160.7713173140488
 31
0.0
  0
LINE
  5
1BB
330
1F
100
AcDbEntity
  8
0-0
  6
JWW_DASHED1
 62
   120
370
     5
100
AcDbLine
 10
-329.1503968647959
 20
250.7713173140403
 30
0.0
 11
-79.15039686478792
 21
500.7713173140474
 31
0.0
  0
LINE
  5
1BC
330
1F
100
AcDbEntity
  8
0-0
  6
JWW_DASHED1
 62
   120
370
     5
100
AcDbLine
 10
-669.1503968647902
 20
-82.15761487408862
 30
0.0
 11
-419.1503968647856
 21
167.8423851259163
 31
0.0
  0
LINE
  5
1BD
330
1F
100
AcDbEntity
  8
0-0
  6
JWW_DASHED1
 62
   120
370
     5
100
AcDbLine
 10
-329.1503968647959
 20
257.842385125907
 30
0.0
 11
-79.15039686480497
 21
507.8423851258958
 31
0.0
  0
LINE
  5
1BE
330
1F
100
AcDbEntity
  8
0-0
  6
JWW_DASHED1
 62
   120
370
     5
100
AcDbLine
 10
-669.1503968647868
 20
-75.08654706222067
 30
0.0
 11
-419.1503968647959
 21
174.9134529377702
 31
0.0
  0
LINE
  5
1BF
330
1F
100
AcDbEntity
  8
0-0
  6
JWW_DASHED1
 62
   120
370
     5
100
AcDbLine
 10
-329.1503968647891
 20
264.9134529377775
 30
0.0
 11
-79.15039686479815
 21
514.9134529377692
 31
0.0
  0
LINE
  5
1C0
330
1F
100
AcDbEntity
  8
0-0
  6
JWW_DASHED1
 62
   120
370
     5
100
AcDbLine
 10
-669.15039686478
 20
-68.01547925034463
 30
0.0
 11
-419.1503968647891
 21
181.9845207496467
 31
0.0
  0
LINE
  5
1C1
330
1F
100
AcDbEntity
  8
0-0
  6
JWW_DASHED1
 62
   120
370
     5
100
AcDbLine
 10
-329.1503968647959
 20
271.9845207496386
 30
0.0
 11
-79.15039686478792
 21
521.9845207496458
 31
0.0
  0
LINE
  5
1C2
330
1F
100
AcDbEntity
  8
0-0
  6
JWW_DASHED1
 62
   120
370
     5
100
AcDbLine
 10
-669.1503968647936
 20
-60.94441143849075
 30
0.0
 11
-419.1503968647891
 21
189.0555885615138
 31
0.0
  0
LINE
  5
1C3
330
1F
100
AcDbEntity
  8
0-0
  6
JWW_DASHED1
 62
   120
370
     5
100
AcDbLine
 10
-329.1503968647959
 20
279.0555885615049
 30
0.0
 11
-79.15039686480497
 21
529.055588561494
 31
0.0
  0
LINE
  5
1C4
330
1F
100
AcDbEntity
  8
0-0
  6
JWW_DASHED1
 62
   120
370
     5
100
AcDbLine
 10
-669.1503968647902
 20
-53.87334362662237
 30
0.0
 11
-419.1503968647993
 21
196.1266563733685
 31
0.0
  0
LINE
  5
1C5
330
1F
100
AcDbEntity
  8
0-0
  6
JWW_DASHED1
 62
   120
370
     5
100
AcDbLine
 10
-329.1503968647925
 20
286.1266563733758
 30
0.0
 11
-79.15039686480156
 21
536.1266563733672
 31
0.0
  0
LINE
  5
1C6
330
1F
100
AcDbEntity
  8
0-0
  6
JWW_DASHED1
 62
   120
370
     5
100
AcDbLine
 10
-669.15039686478
 20
-46.8022758147459
 30
0.0
 11
-419.1503968647891
 21
203.197724185245
 31
0.0
  0
LINE
  5
1C7
330
1F
100
AcDbEntity
  8
0-0
  6
JWW_DASHED1
 62
   120
370
     5
100
AcDbLine
 10
-329.1503968647959
 20
293.1977241852369
 30
0.0
 11
-79.15039686479133
 21
543.197724185244
 31
0.0
  0
LINE
  5
1C8
330
1F
100
AcDbEntity
  8
0-0
  6
JWW_DASHED1
 62
   120
370
     5
100
AcDbLine
 10
-669.1503968647936
 20
-39.73120800289244
 30
0.0
 11
-419.1503968647891
 21
210.2687919971121
 31
0.0
  0
LINE
  5
1C9
330
1F
100
AcDbEntity
  8
0-0
  6
JWW_DASHED1
 62
   120
370
     5
100
AcDbLine
 10
-329.1503968647993
 20
300.2687919971032
 30
0.0
 11
-79.15039686479133
 21
550.2687919971081
 31
0.0
  0
LINE
  5
1CA
330
1F
100
AcDbEntity
  8
0-0
  6
JWW_DASHED1
 62
   120
370
     5
100
AcDbLine
 10
-669.1503968647936
 20
-32.6601401910245
 30
0.0
 11
-419.1503968648027
 21
217.3398598089668
 31
0.0
  0
LINE
  5
1CB
330
1F
100
AcDbEntity
  8
0-0
  6
JWW_DASHED1
 62
   120
370
     5
100
AcDbLine
 10
-329.1503968647959
 20
307.3398598089741
 30
0.0
 11
-79.15039686480156
 21
557.3398598089655
 31
0.0
  0
LINE
  5
1CC
330
1F
100
AcDbEntity
  8
0-0
  6
JWW_DASHED1
 62
   120
370
     5
100
AcDbLine
 10
-669.1503968647834
 20
-25.58907237914802
 30
0.0
 11
-419.1503968647891
 21
224.4109276208437
 31
0.0
  0
LINE
  5
1CD
330
1F
100
AcDbEntity
  8
0-0
  6
JWW_DASHED1
 62
   120
370
     5
100
AcDbLine
 10
-329.1503968647822
 20
314.410927620851
 30
0.0
 11
-79.15039686479133
 21
564.4109276208424
 31
0.0
  0
LINE
  5
1CE
330
1F
100
AcDbEntity
  8
0-0
  6
JWW_DASHED1
 62
   120
370
     5
100
AcDbLine
 10
-669.1503968647936
 20
-18.51800456734615
 30
0.0
 11
-419.1503968647856
 21
231.4819954326609
 31
0.0
  0
LINE
  5
1CF
330
1F
100
AcDbEntity
  8
0-0
  6
JWW_DASHED1
 62
   120
370
     5
100
AcDbLine
 10
-329.1503968647959
 20
321.4819954326524
 30
0.0
 11
-79.15039686478451
 21
571.4819954326599
 31
0.0
  0
LINE
  5
1D0
330
1F
100
AcDbEntity
  8
0-0
  6
JWW_DASHED1
 62
   120
370
     5
100
AcDbLine
 10
-669.1503968647902
 20
-11.44693675547693
 30
0.0
 11
-419.1503968647856
 21
238.5530632445281
 31
0.0
  0
LINE
  5
1D1
330
1F
100
AcDbEntity
  8
0-0
  6
JWW_DASHED1
 62
   120
370
     5
100
AcDbLine
 10
-329.1503968647959
 20
328.5530632445187
 30
0.0
 11
-79.15039686480497
 21
578.5530632445078
 31
0.0
  0
LINE
  5
1D2
330
1F
100
AcDbEntity
  8
0-0
  6
JWW_DASHED1
 62
   120
370
     5
100
AcDbLine
 10
-669.1503968647868
 20
-4.375868943608552
 30
0.0
 11
-419.1503968647959
 21
245.6241310563828
 31
0.0
  0
LINE
  5
1D3
330
1F
100
AcDbEntity
  8
0-0
  6
JWW_DASHED1
 62
   120
370
     5
100
AcDbLine
 10
-329.1503968647891
 20
335.62413105639
 30
0.0
 11
-79.15039686479815
 21
585.6241310563818
 31
0.0
  0
LINE
  5
1D4
330
1F
100
AcDbEntity
  8
0-0
  6
JWW_DASHED1
 62
   120
370
     5
100
AcDbLine
 10
-669.15039686478
 20
2.695198868268349
 30
0.0
 11
-419.1503968647891
 21
252.6951988682592
 31
0.0
  0
LINE
  5
1D5
330
1F
100
AcDbEntity
  8
0-0
  6
JWW_DASHED1
 62
   120
370
     5
100
AcDbLine
 10
-329.1503968647959
 20
342.6951988682512
 30
0.0
 11
-79.15039686478792
 21
592.6951988682582
 31
0.0
  0
LINE
  5
1D6
330
1F
100
AcDbEntity
  8
0-0
  6
JWW_DASHED1
 62
   120
370
     5
100
AcDbLine
 10
-669.1503968647936
 20
9.766266680121376
 30
0.0
 11
-419.1503968647891
 21
259.7662666801259
 31
0.0
  0
LINE
  5
1D7
330
1F
100
AcDbEntity
  8
0-0
  6
JWW_DASHED1
 62
   120
370
     5
100
AcDbLine
 10
-329.1503968647959
 20
349.766266680117
 30
0.0
 11
-79.15039686480839
 21
599.7662666801061
 31
0.0
  0
LINE
  5
1D8
330
1F
100
AcDbEntity
  8
0-0
  6
JWW_DASHED1
 62
   120
370
     5
100
AcDbLine
 10
-669.1503968647902
 20
16.83733449198975
 30
0.0
 11
-419.1503968647993
 21
266.8373344919815
 31
0.0
  0
LINE
  5
1D9
330
1F
100
AcDbEntity
  8
0-0
  6
JWW_DASHED1
 62
   120
370
     5
100
AcDbLine
 10
-329.1503968647925
 20
356.8373344919883
 30
0.0
 11
-79.15039686479815
 21
606.8373344919801
 31
0.0
  0
LINE
  5
1DA
330
1F
100
AcDbEntity
  8
0-0
  6
JWW_DASHED1
 62
   120
370
     5
100
AcDbLine
 10
-669.15039686478
 20
23.90840230386665
 30
0.0
 11
-419.1503968647891
 21
273.9084023038575
 31
0.0
  0
LINE
  5
1DB
330
1F
100
AcDbEntity
  8
0-0
  6
JWW_DASHED1
 62
   120
370
     5
100
AcDbLine
 10
-329.1503968647959
 20
363.9084023038495
 30
0.0
 11
-79.15039686479133
 21
613.9084023038565
 31
0.0
  0
LINE
  5
1DC
330
1F
100
AcDbEntity
  8
0-0
  6
JWW_DASHED1
 62
   120
370
     5
100
AcDbLine
 10
-669.1503968647936
 20
30.97947011571968
 30
0.0
 11
-419.1503968647891
 21
280.9794701157242
 31
0.0
  0
LINE
  5
1DD
330
1F
100
AcDbEntity
  8
0-0
  6
JWW_DASHED1
 62
   120
370
     5
100
AcDbLine
 10
-329.1503968647993
 20
370.9794701157148
 30
0.0
 11
-79.15039686479133
 21
620.9794701157198
 31
0.0
  0
LINE
  5
1DE
330
1F
100
AcDbEntity
  8
0-0
  6
JWW_DASHED1
 62
   120
370
     5
100
AcDbLine
 10
-669.1503968647936
 20
38.05053792758805
 30
0.0
 11
-419.1503968648027
 21
288.0505379275789
 31
0.0
  0
LINE
  5
1DF
330
1F
100
AcDbEntity
  8
0-0
  6
JWW_DASHED1
 62
   120
370
     5
100
AcDbLine
 10
-329.1503968647925
 20
378.0505379275866
 30
0.0
 11
-79.15039686480156
 21
628.0505379275784
 31
0.0
  0
LINE
  5
1E0
330
1F
100
AcDbEntity
  8
0-0
  6
JWW_DASHED1
 62
   120
370
     5
100
AcDbLine
 10
-669.15039686478
 20
45.12160573946495
 30
0.0
 11
-419.1503968647891
 21
295.1216057394558
 31
0.0
  0
LINE
  5
1E1
330
1F
100
AcDbEntity
  8
0-0
  6
JWW_DASHED1
 62
   120
370
     5
100
AcDbLine
 10
-329.1503968647822
 20
385.1216057394635
 30
0.0
 11
-79.15039686479133
 21
635.1216057394548
 31
0.0
  0
LINE
  5
1E2
330
1F
100
AcDbEntity
  8
0-0
  6
JWW_DASHED1
 62
   120
370
     5
100
AcDbLine
 10
-669.150396864797
 20
52.19267355131755
 30
0.0
 11
-419.1503968647925
 21
302.1926735513221
 31
0.0
  0
LINE
  5
1E3
330
1F
100
AcDbEntity
  8
0-0
  6
JWW_DASHED1
 62
   120
370
     5
100
AcDbLine
 10
-329.1503968648027
 20
392.1926735513127
 30
0.0
 11
-79.15039686479474
 21
642.1926735513181
 31
0.0
  0
LINE
  5
1E4
330
1F
100
AcDbEntity
  8
0-0
  6
JWW_DASHED1
 62
   120
370
     5
100
AcDbLine
 10
-669.1503968647936
 20
59.26374136318636
 30
0.0
 11
-419.1503968648027
 21
309.2637413631777
 31
0.0
  0
LINE
  5
1E5
330
1F
100
AcDbEntity
  8
0-0
  6
JWW_DASHED1
 62
   120
370
     5
100
AcDbLine
 10
-329.1503968647959
 20
399.2637413631849
 30
0.0
 11
-79.15039686480497
 21
649.2637413631767
 31
0.0
  0
LINE
  5
1E6
330
1F
100
AcDbEntity
  8
0-0
  6
JWW_DASHED1
 62
   120
370
     5
100
AcDbLine
 10
-669.1503968647834
 20
66.33480917506326
 30
0.0
 11
-419.1503968647925
 21
316.3348091750541
 31
0.0
  0
LINE
  5
1E7
330
1F
100
AcDbEntity
  8
0-0
  6
JWW_DASHED1
 62
   120
370
     5
100
AcDbLine
 10
-329.1503968647856
 20
406.3348091750618
 30
0.0
 11
-79.15039686479474
 21
656.3348091750531
 31
0.0
  0
LINE
  5
1E8
330
1F
100
AcDbEntity
  8
0-0
  6
JWW_DASHED1
 62
   120
370
     5
100
AcDbLine
 10
-669.150396864797
 20
73.40587698691586
 30
0.0
 11
-419.1503968647925
 21
323.4058769869204
 31
0.0
  0
LINE
  5
1E9
330
1F
100
AcDbEntity
  8
0-0
  6
JWW_DASHED1
 62
   120
370
     5
100
AcDbLine
 10
-329.1503968648027
 20
413.405876986911
 30
0.0
 11
-79.15039686479815
 21
663.405876986916
 31
0.0
  0
LINE
  5
1EA
330
1F
100
AcDbEntity
  8
0-0
  6
JWW_DASHED1
 62
   120
370
     5
100
AcDbLine
 10
-669.1503968647868
 20
80.47694479879233
 30
0.0
 11
-419.1503968647993
 21
330.4769447987807
 31
0.0
  0
LINE
  5
1EB
330
1F
100
AcDbEntity
  8
0-0
  6
JWW_DASHED1
 62
   120
370
     5
100
AcDbLine
 10
-329.1503968647925
 20
420.4769447987875
 30
0.0
 11
-79.15039686480497
 21
670.4769447987767
 31
0.0
  0
LINE
  5
1EC
330
1F
100
AcDbEntity
  8
0-0
  6
JWW_DASHED1
 62
   120
370
     5
100
AcDbLine
 10
-669.1503968647868
 20
87.54801261066156
 30
0.0
 11
-419.1503968647959
 21
337.5480126106524
 31
0.0
  0
LINE
  5
1ED
330
1F
100
AcDbEntity
  8
0-0
  6
JWW_DASHED1
 62
   120
370
     5
100
AcDbLine
 10
-329.1503968647856
 20
427.5480126106601
 30
0.0
 11
-79.15039686479474
 21
677.5480126106514
 31
0.0
  0
LINE
  5
1EE
330
1F
100
AcDbEntity
  8
0-0
  6
JWW_DASHED1
 62
   120
370
     5
100
AcDbLine
 10
-669.1503968647902
 20
94.61908042252226
 30
0.0
 11
-419.1503968647822
 21
344.6190804225294
 31
0.0
  0
LINE
  5
1EF
330
1F
100
AcDbEntity
  8
0-0
  6
JWW_DASHED1
 62
   120
370
     5
100
AcDbLine
 10
-329.1503968647925
 20
434.6190804225208
 30
0.0
 11
-79.15039686478451
 21
684.619080422528
 31
0.0
  0
LINE
  5
1F0
330
1F
100
AcDbEntity
  8
0-0
  6
JWW_DASHED1
 62
   120
370
     5
100
AcDbLine
 10
-669.1503968647902
 20
101.6901482343902
 30
0.0
 11
-419.1503968648027
 21
351.690148234379
 31
0.0
  0
LINE
  5
1F1
330
1F
100
AcDbEntity
  8
0-0
  6
JWW_DASHED1
 62
   120
370
     5
100
AcDbLine
 10
-329.1503968647959
 20
441.6901482343858
 30
0.0
 11
-79.15039686480497
 21
691.690148234375
 31
0.0
  0
LINE
  5
1F2
330
1F
100
AcDbEntity
  8
0-0
  6
JWW_DASHED1
 62
   120
370
     5
100
AcDbLine
 10
-669.1503968647868
 20
108.7612160462599
 30
0.0
 11
-419.1503968647959
 21
358.7612160462508
 31
0.0
  0
LINE
  5
1F3
330
1F
100
AcDbEntity
  8
0-0
  6
JWW_DASHED1
 62
   120
370
     5
100
AcDbLine
 10
-329.1503968647891
 20
448.7612160462584
 30
0.0
 11
-79.15039686479815
 21
698.7612160462497
 31
0.0
  0
LINE
  5
1F4
330
1F
100
AcDbEntity
  8
0-0
  6
JWW_DASHED1
 62
   120
370
     5
100
AcDbLine
 10
-669.1503968647766
 20
115.8322838581363
 30
0.0
 11
-419.1503968647856
 21
365.8322838581273
 31
0.0
  0
LINE
  5
1F5
330
1F
100
AcDbEntity
  8
0-0
  6
JWW_DASHED1
 62
   120
370
     5
100
AcDbLine
 10
-329.1503968647959
 20
455.8322838581191
 30
0.0
 11
-79.15039686478792
 21
705.8322838581263
 31
0.0
  0
LINE
  5
1F6
330
1F
100
AcDbEntity
  8
0-0
  6
JWW_DASHED1
 62
   120
370
     5
100
AcDbLine
 10
-669.1503968647936
 20
122.9033516699881
 30
0.0
 11
-419.1503968647891
 21
372.9033516699931
 31
0.0
  0
LINE
  5
1F7
330
1F
100
AcDbEntity
  8
0-0
  6
JWW_DASHED1
 62
   120
370
     5
100
AcDbLine
 10
-329.1503968647959
 20
462.9033516699841
 30
0.0
 11
-79.15039686480497
 21
712.9033516699728
 31
0.0
  0
LINE
  5
1F8
330
1F
100
AcDbEntity
  8
0-0
  6
JWW_DASHED1
 62
   120
370
     5
100
AcDbLine
 10
-669.1503968647868
 20
129.9744194818581
 30
0.0
 11
-419.1503968647959
 21
379.9744194818491
 31
0.0
  0
LINE
  5
1F9
330
1F
100
AcDbEntity
  8
0-0
  6
JWW_DASHED1
 62
   120
370
     5
100
AcDbLine
 10
-329.1503968647891
 20
469.9744194818567
 30
0.0
 11
-79.15039686479815
 21
719.974419481848
 31
0.0
  0
LINE
  5
1FA
330
1F
100
AcDbEntity
  8
0-0
  6
JWW_DASHED1
 62
   120
370
     5
100
AcDbLine
 10
-669.15039686478
 20
137.0454872937347
 30
0.0
 11
-419.1503968647891
 21
387.0454872937256
 31
0.0
  0
LINE
  5
1FB
330
1F
100
AcDbEntity
  8
0-0
  6
JWW_DASHED1
 62
   120
370
     5
100
AcDbLine
 10
-329.1503968647959
 20
477.0454872937174
 30
0.0
 11
-79.15039686478792
 21
727.0454872937246
 31
0.0
  0
LINE
  5
1FC
330
1F
100
AcDbEntity
  8
0-0
  6
JWW_DASHED1
 62
   120
370
     5
100
AcDbLine
 10
-669.1503968647936
 20
144.1165551055864
 30
0.0
 11
-419.1503968647891
 21
394.1165551055909
 31
0.0
  0
LINE
  5
1FD
330
1F
100
AcDbEntity
  8
0-0
  6
JWW_DASHED1
 62
   120
370
     5
100
AcDbLine
 10
-329.1503968647993
 20
484.116555105582
 30
0.0
 11
-79.15039686480839
 21
734.1165551055711
 31
0.0
  0
LINE
  5
1FE
330
1F
100
AcDbEntity
  8
0-0
  6
JWW_DASHED1
 62
   120
370
     5
100
AcDbLine
 10
-669.1503968647902
 20
151.1876229174565
 30
0.0
 11
-419.1503968647993
 21
401.1876229174474
 31
0.0
  0
LINE
  5
1FF
330
1F
100
AcDbEntity
  8
0-0
  6
JWW_DASHED1
 62
   120
370
     5
100
AcDbLine
 10
-329.1503968647925
 20
491.187622917455
 30
0.0
 11
-79.15039686480156
 21
741.1876229174463
 31
0.0
  0
LINE
  5
200
330
1F
100
AcDbEntity
  8
0-0
  6
JWW_DASHED1
 62
   120
370
     5
100
AcDbLine
 10
-669.15039686478
 20
158.2586907293334
 30
0.0
 11
-419.1503968647891
 21
408.2586907293243
 31
0.0
  0
LINE
  5
201
330
1F
100
AcDbEntity
  8
0-0
  6
JWW_DASHED1
 62
   120
370
     5
100
AcDbLine
 10
-329.1503968647822
 20
498.2586907293319
 30
0.0
 11
-79.15039686479133
 21
748.2586907293229
 31
0.0
  0
LINE
  5
202
330
1F
100
AcDbEntity
  8
0-0
  6
JWW_DASHED1
 62
   120
370
     5
100
AcDbLine
 10
-669.1503968647936
 20
165.3297585411847
 30
0.0
 11
-419.1503968647891
 21
415.3297585411892
 31
0.0
  0
LINE
  5
203
330
1F
100
AcDbEntity
  8
0-0
  6
JWW_DASHED1
 62
   120
370
     5
100
AcDbLine
 10
-329.1503968647993
 20
505.3297585411798
 30
0.0
 11
-79.15039686479474
 21
755.3297585411848
 31
0.0
  0
LINE
  5
204
330
1F
100
AcDbEntity
  8
0-0
  6
JWW_DASHED1
 62
   120
370
     5
100
AcDbLine
 10
-669.1503968647936
 20
172.4008263530548
 30
0.0
 11
-419.1503968648027
 21
422.4008263530457
 31
0.0
  0
LINE
  5
205
330
1F
100
AcDbEntity
  8
0-0
  6
JWW_DASHED1
 62
   120
370
     5
100
AcDbLine
 10
-329.1503968647925
 20
512.4008263530534
 30
0.0
 11
-79.15039686480156
 21
762.4008263530446
 31
0.0
  0
LINE
  5
206
330
1F
100
AcDbEntity
  8
0-0
  6
JWW_DASHED1
 62
   120
370
     5
100
AcDbLine
 10
-669.1503968647834
 20
179.4718941649313
 30
0.0
 11
-419.1503968647891
 21
429.4718941649222
 31
0.0
  0
LINE
  5
207
330
1F
100
AcDbEntity
  8
0-0
  6
JWW_DASHED1
 62
   120
370
     5
100
AcDbLine
 10
-329.1503968647822
 20
519.4718941649298
 30
0.0
 11
-79.15039686479133
 21
769.4718941649212
 31
0.0
  0
LINE
  5
208
330
1F
100
AcDbEntity
  8
0-0
  6
JWW_DASHED1
 62
   120
370
     5
100
AcDbLine
 10
-669.150396864797
 20
186.542961976783
 30
0.0
 11
-419.1503968647925
 21
436.5429619767871
 31
0.0
  0
LINE
  5
209
330
1F
100
AcDbEntity
  8
0-0
  6
JWW_DASHED1
 62
   120
370
     5
100
AcDbLine
 10
-329.1503968648027
 20
526.5429619767782
 30
0.0
 11
-79.15039686479815
 21
776.542961976783
 31
0.0
  0
LINE
  5
20A
330
1F
100
AcDbEntity
  8
0-0
  6
JWW_DASHED1
 62
   120
370
     5
100
AcDbLine
 10
-669.1503968647936
 20
193.6140297886531
 30
0.0
 11
-419.1503968648027
 21
443.614029788644
 31
0.0
  0
LINE
  5
20B
330
1F
100
AcDbEntity
  8
0-0
  6
JWW_DASHED1
 62
   120
370
     5
100
AcDbLine
 10
-329.1503968647959
 20
533.6140297886517
 30
0.0
 11
-79.15039686480497
 21
783.6140297886428
 31
0.0
  0
LINE
  5
20C
330
1F
100
AcDbEntity
  8
0-0
  6
JWW_DASHED1
 62
   120
370
     5
100
AcDbLine
 10
-669.1503968647834
 20
200.68509760053
 30
0.0
 11
-419.1503968647925
 21
450.6850976005205
 31
0.0
  0
LINE
  5
20D
330
1F
100
AcDbEntity
  8
0-0
  6
JWW_DASHED1
 62
   120
370
     5
100
AcDbLine
 10
-329.1503968647856
 20
540.6850976005281
 30
0.0
 11
-79.15039686479474
 21
790.6850976005197
 31
0.0
  0
LINE
  5
20E
330
1F
100
AcDbEntity
  8
0-0
  6
JWW_DASHED1
 62
   120
370
     5
100
AcDbLine
 10
-669.1503968648004
 20
207.7561654123809
 30
0.0
 11
-419.1503968647959
 21
457.7561654123854
 31
0.0
  0
LINE
  5
20F
330
1F
100
AcDbEntity
  8
0-0
  6
JWW_DASHED1
 62
   120
370
     5
100
AcDbLine
 10
-329.1503968648027
 20
547.7561654123765
 30
0.0
 11
-79.15039686479815
 21
797.7561654123813
 31
0.0
  0
LINE
  5
210
330
1F
100
AcDbEntity
  8
0-0
  6
JWW_DASHED1
 62
   120
370
     5
100
AcDbLine
 10
-669.1503968647902
 20
214.8272332242573
 30
0.0
 11
-419.1503968648027
 21
464.8272332242461
 31
0.0
  0
LINE
  5
211
330
1F
100
AcDbEntity
  8
0-0
  6
JWW_DASHED1
 62
   120
370
     5
100
AcDbLine
 10
-329.1503968647959
 20
554.8272332242525
 30
0.0
 11
-79.15039686480497
 21
804.8272332242421
 31
0.0
  0
LINE
  5
212
330
1F
100
AcDbEntity
  8
0-0
  6
JWW_DASHED1
 62
   120
370
     5
100
AcDbLine
 10
-669.1503968647868
 20
221.8983010360984
 30
0.0
 11
-419.1503968647959
 21
471.8983010360893
 31
0.0
  0
LINE
  5
213
330
1F
100
AcDbEntity
  8
0-0
  6
JWW_DASHED1
 62
   120
370
     5
100
AcDbLine
 10
-329.1503968647891
 20
561.898301036097
 30
0.0
 11
-79.15039686479815
 21
811.8983010360884
 31
0.0
  0
LINE
  5
214
330
1F
100
AcDbEntity
  8
0-0
  6
JWW_DASHED1
 62
   120
370
     5
100
AcDbLine
 10
-669.15039686478
 20
228.9693688479455
 30
0.0
 11
-419.1503968647891
 21
478.9693688479368
 31
0.0
  0
LINE
  5
215
330
1F
100
AcDbEntity
  8
0-0
  6
JWW_DASHED1
 62
   120
370
     5
100
AcDbLine
 10
-329.1503968647959
 20
568.9693688479283
 30
0.0
 11
-79.15039686479133
 21
818.9693688479358
 31
0.0
  0
LINE
  5
216
330
1F
100
AcDbEntity
  8
0-0
  6
JWW_DASHED1
 62
   120
370
     5
100
AcDbLine
 10
-669.1503968647936
 20
236.0404366597964
 30
0.0
 11
-419.1503968647891
 21
486.0404366598013
 31
0.0
  0
LINE
  5
217
330
1F
100
AcDbEntity
  8
0-0
  6
JWW_DASHED1
 62
   120
370
     5
100
AcDbLine
 10
-329.1503968647993
 20
576.040436659792
 30
0.0
 11
-79.15039686479474
 21
826.0404366597968
 31
0.0
  0
LINE
  5
218
330
1F
100
AcDbEntity
  8
0-0
  6
JWW_DASHED1
 62
   120
370
     5
100
AcDbLine
 10
-669.1503968647936
 20
243.1115044716669
 30
0.0
 11
-419.1503968648027
 21
493.1115044716582
 31
0.0
  0
LINE
  5
219
330
1F
100
AcDbEntity
  8
0-0
  6
JWW_DASHED1
 62
   120
370
     5
100
AcDbLine
 10
-329.1503968647925
 20
583.1115044716655
 30
0.0
 11
-79.15039686480156
 21
833.1115044716572
 31
0.0
  0
LINE
  5
21A
330
1F
100
AcDbEntity
  8
0-0
  6
JWW_DASHED1
 62
   120
370
     5
100
AcDbLine
 10
-669.15039686478
 20
250.1825722835438
 30
0.0
 11
-419.1503968647891
 21
500.1825722835351
 31
0.0
  0
LINE
  5
21B
330
1F
100
AcDbEntity
  8
0-0
  6
JWW_DASHED1
 62
   120
370
     5
100
AcDbLine
 10
-329.1503968647822
 20
590.1825722835424
 30
0.0
 11
-79.15039686479133
 21
840.1825722835335
 31
0.0
  0
LINE
  5
21C
330
1F
100
AcDbEntity
  8
0-0
  6
JWW_DASHED1
 62
   120
370
     5
100
AcDbLine
 10
-669.150396864797
 20
257.2536400953951
 30
0.0
 11
-419.1503968647925
 21
507.2536400953992
 31
0.0
  0
LINE
  5
21D
330
1F
100
AcDbEntity
  8
0-0
  6
JWW_DASHED1
 62
   120
370
     5
100
AcDbLine
 10
-329.1503968648027
 20
597.2536400953903
 30
0.0
 11
-79.15039686479815
 21
847.2536400953951
 31
0.0
  0
LINE
  5
21E
330
1F
100
AcDbEntity
  8
0-0
  6
JWW_DASHED1
 62
   120
370
     5
100
AcDbLine
 10
-669.1503968647936
 20
264.3247079072656
 30
0.0
 11
-419.1503968648027
 21
514.3247079072565
 31
0.0
  0
LINE
  5
21F
330
1F
100
AcDbEntity
  8
0-0
  6
JWW_DASHED1
 62
   120
370
     5
100
AcDbLine
 10
-329.1503968647959
 20
604.3247079072642
 30
0.0
 11
-79.15039686480497
 21
854.3247079072555
 31
0.0
  0
LINE
  5
220
330
1F
100
AcDbEntity
  8
0-0
  6
JWW_DASHED1
 62
   120
370
     5
100
AcDbLine
 10
-669.1503968647834
 20
271.3957757191421
 30
0.0
 11
-419.1503968647925
 21
521.395775719133
 31
0.0
  0
LINE
  5
221
330
1F
100
AcDbEntity
  8
0-0
  6
JWW_DASHED1
 62
   120
370
     5
100
AcDbLine
 10
-329.1503968647856
 20
611.3957757191407
 30
0.0
 11
-79.15039686479133
 21
861.3957757191324
 31
0.0
  0
LINE
  5
222
330
1F
100
AcDbEntity
  8
0-0
  6
JWW_DASHED1
 62
   120
370
     5
100
AcDbLine
 10
-669.1503968648004
 20
278.4668435309925
 30
0.0
 11
-419.1503968647959
 21
528.4668435309975
 31
0.0
  0
LINE
  5
223
330
1F
100
AcDbEntity
  8
0-0
  6
JWW_DASHED1
 62
   120
370
     5
100
AcDbLine
 10
-329.1503968648027
 20
618.4668435309886
 30
0.0
 11
-79.15039686479815
 21
868.4668435309932
 31
0.0
  0
LINE
  5
224
330
1F
100
AcDbEntity
  8
0-0
  6
JWW_DASHED1
 62
   120
370
     5
100
AcDbLine
 10
-669.1503968647902
 20
285.5379113428694
 30
0.0
 11
-419.1503968648027
 21
535.5379113428578
 31
0.0
  0
LINE
  5
225
330
1F
100
AcDbEntity
  8
0-0
  6
JWW_DASHED1
 62
   120
370
     5
100
AcDbLine
 10
-669.1503968647868
 20
292.6089791547404
 30
0.0
 11
-419.1503968647959
 21
542.6089791547313
 31
0.0
  0
LINE
  5
226
330
1F
100
AcDbEntity
  8
0-0
  6
JWW_DASHED1
 62
   120
370
     5
100
AcDbLine
 10
-669.1503968647902
 20
299.6800469666011
 30
0.0
 11
-419.1503968647822
 21
549.6800469666082
 31
0.0
  0
LINE
  5
227
330
1F
100
AcDbEntity
  8
0-0
  6
JWW_DASHED1
 62
   120
370
     5
100
AcDbLine
 10
-669.1503968647936
 20
306.7511147784674
 30
0.0
 11
-419.1503968648027
 21
556.7511147784561
 31
0.0
  0
LINE
  5
228
330
1F
100
AcDbEntity
  8
0-0
  6
JWW_DASHED1
 62
   120
370
     5
100
AcDbLine
 10
-669.1503968647868
 20
313.8221825903387
 30
0.0
 11
-419.1503968647959
 21
563.82218259033
 31
0.0
  0
LINE
  5
229
330
1F
100
AcDbEntity
  8
0-0
  6
JWW_DASHED1
 62
   120
370
     5
100
AcDbLine
 10
-669.1503968647766
 20
320.8932504022156
 30
0.0
 11
-419.1503968647856
 21
570.8932504022065
 31
0.0
  0
LINE
  5
22A
330
1F
100
AcDbEntity
  8
0-0
  6
JWW_DASHED1
 62
   120
370
     5
100
AcDbLine
 10
-669.1503968647936
 20
327.9643182140657
 30
0.0
 11
-419.1503968647891
 21
577.9643182140702
 31
0.0
  0
LINE
  5
22B
330
1F
100
AcDbEntity
  8
0-0
  6
JWW_DASHED1
 62
   120
370
     5
100
AcDbLine
 10
-669.1503968647868
 20
335.035386025937
 30
0.0
 11
-419.1503968647959
 21
585.0353860259279
 31
0.0
  0
LINE
  5
22C
330
1F
100
AcDbEntity
  8
0-0
  6
JWW_DASHED1
 62
   120
370
     5
100
AcDbLine
 10
-669.15039686478
 20
342.1064538378139
 30
0.0
 11
-419.1503968647891
 21
592.1064538378048
 31
0.0
  0
LINE
  5
22D
330
1F
100
AcDbEntity
  8
0-0
  6
JWW_DASHED1
 62
   120
370
     5
100
AcDbLine
 10
-669.1503968647936
 20
349.1775216496635
 30
0.0
 11
-419.1503968647891
 21
599.177521649668
 31
0.0
  0
LINE
  5
22E
330
1F
100
AcDbEntity
  8
0-0
  6
JWW_DASHED1
 62
   120
370
     5
100
AcDbLine
 10
-669.1503968647902
 20
356.2485894615353
 30
0.0
 11
-419.1503968647993
 21
606.2485894615266
 31
0.0
  0
LINE
  5
22F
330
1F
100
AcDbEntity
  8
0-0
  6
JWW_DASHED1
 62
   120
370
     5
100
AcDbLine
 10
-669.15039686478
 20
363.3196572734118
 30
0.0
 11
-419.1503968647891
 21
613.3196572734031
 31
0.0
  0
LINE
  5
230
330
1F
100
AcDbEntity
  8
0-0
  6
JWW_DASHED1
 62
   120
370
     5
100
AcDbLine
 10
-669.150396864797
 20
370.3907250852618
 30
0.0
 11
-419.1503968647925
 21
620.3907250852664
 31
0.0
  0
LINE
  5
231
330
1F
100
AcDbEntity
  8
0-0
  6
JWW_DASHED1
 62
   120
370
     5
100
AcDbLine
 10
-669.1503968647936
 20
377.4617928971336
 30
0.0
 11
-419.1503968648027
 21
627.461792897125
 31
0.0
  0
LINE
  5
232
330
1F
100
AcDbEntity
  8
0-0
  6
JWW_DASHED1
 62
   120
370
     5
100
AcDbLine
 10
-669.1503968647834
 20
384.5328607090101
 30
0.0
 11
-419.1503968647891
 21
634.5328607090014
 31
0.0
  0
LINE
  5
233
330
1F
100
AcDbEntity
  8
0-0
  6
JWW_DASHED1
 62
   120
370
     5
100
AcDbLine
 10
-669.1503968648004
 20
391.6039285208597
 30
0.0
 11
-419.1503968647959
 21
641.6039285208642
 31
0.0
  0
LINE
  5
234
330
1F
100
AcDbEntity
  8
0-0
  6
JWW_DASHED1
 62
   120
370
     5
100
AcDbLine
 10
-669.1503968647902
 20
398.6749963327366
 30
0.0
 11
-419.1503968647993
 21
648.6749963327254
 31
0.0
  0
LINE
  5
235
330
1F
100
AcDbEntity
  8
0-0
  6
JWW_DASHED1
 62
   120
370
     5
100
AcDbLine
 10
-669.1503968647834
 20
405.7460641446088
 30
0.0
 11
-419.1503968647925
 21
655.7460641445997
 31
0.0
  0
LINE
  5
236
330
1F
100
AcDbEntity
  8
0-0
  6
JWW_DASHED1
 62
   120
370
     5
100
AcDbLine
 10
-669.1503968648004
 20
412.8171319564584
 30
0.0
 11
-419.1503968647959
 21
662.8171319564625
 31
0.0
  0
LINE
  5
237
330
1F
100
AcDbEntity
  8
0-0
  6
JWW_DASHED1
 62
   120
370
     5
100
AcDbLine
 10
-669.1503968647902
 20
419.8881997683345
 30
0.0
 11
-419.1503968648027
 21
669.8881997683237
 31
0.0
  0
LINE
  5
238
330
1F
100
AcDbEntity
  8
0-0
  6
JWW_DASHED1
 62
   120
370
     5
100
AcDbLine
 10
-669.1503968647868
 20
426.9592675802067
 30
0.0
 11
-419.1503968647959
 21
676.959267580198
 31
0.0
  0
LINE
  5
239
330
1F
100
AcDbEntity
  8
0-0
  6
JWW_DASHED1
 62
   120
370
     5
100
AcDbLine
 10
-669.1503968647902
 20
434.0303353920678
 30
0.0
 11
-419.1503968647856
 21
684.0303353920744
 31
0.0
  0
LINE
  5
23A
330
1F
100
AcDbEntity
  8
0-0
  6
JWW_DASHED1
 62
   120
370
     5
100
AcDbLine
 10
-669.1503968647936
 20
441.1014032039328
 30
0.0
 11
-419.1503968647891
 21
691.1014032039374
 31
0.0
  0
LINE
  5
23B
330
1F
100
AcDbEntity
  8
0-0
  6
JWW_DASHED1
 62
   120
370
     5
100
AcDbLine
 10
-669.1503968647868
 20
448.172471015805
 30
0.0
 11
-419.1503968647959
 21
698.1724710157963
 31
0.0
  0
LINE
  5
23C
330
1F
100
AcDbEntity
  8
0-0
  6
JWW_DASHED1
 62
   120
370
     5
100
AcDbLine
 10
-669.1503968647766
 20
455.2435388276819
 30
0.0
 11
-419.1503968647856
 21
705.2435388276728
 31
0.0
  0
LINE
  5
23D
330
1F
100
AcDbEntity
  8
0-0
  6
JWW_DASHED1
 62
   120
370
     5
100
AcDbLine
 10
-669.1503968647936
 20
462.3146066395307
 30
0.0
 11
-419.1503968647891
 21
712.3146066395352
 31
0.0
  0
LINE
  5
23E
330
1F
100
AcDbEntity
  8
0-0
  6
JWW_DASHED1
 62
   120
370
     5
100
AcDbLine
 10
-669.1503968647902
 20
469.3856744513483
 30
0.0
 11
-419.1503968648027
 21
719.3856744513371
 31
0.0
  0
LINE
  5
23F
330
1F
100
AcDbEntity
  8
0-0
  6
JWW_DASHED1
 62
   120
370
     5
100
AcDbLine
 10
-669.1503968647834
 20
476.4567422632214
 30
0.0
 11
-419.1503968647925
 21
726.4567422632123
 31
0.0
  0
LINE
  5
240
330
1F
100
AcDbEntity
  8
0-0
  6
JWW_DASHED1
 62
   120
370
     5
100
AcDbLine
 10
-669.1503968648004
 20
483.5278100750697
 30
0.0
 11
-419.1503968647959
 21
733.5278100750743
 31
0.0
  0
LINE
  5
241
330
1F
100
AcDbEntity
  8
0-0
  6
JWW_DASHED1
 62
   120
370
     5
100
AcDbLine
 10
-669.1503968647902
 20
490.5988778869466
 30
0.0
 11
-419.1503968648027
 21
740.5988778869354
 31
0.0
  0
LINE
  5
242
330
1F
100
AcDbEntity
  8
0-0
  6
JWW_DASHED1
 62
   120
370
     5
100
AcDbLine
 10
-669.1503968647868
 20
497.6699456988192
 30
0.0
 11
-419.1503968647959
 21
747.6699456988106
 31
0.0
  0
LINE
  5
243
330
1F
100
AcDbEntity
  8
0-0
  6
JWW_DASHED1
 62
   120
370
     5
100
AcDbLine
 10
-669.1503968647902
 20
504.7410135106804
 30
0.0
 11
-419.1503968647822
 21
754.741013510687
 31
0.0
  0
LINE
  5
244
330
1F
100
AcDbEntity
  8
0-0
  6
JWW_DASHED1
 62
   120
370
     5
100
AcDbLine
 10
-669.1503968647936
 20
511.8120813225449
 30
0.0
 11
-419.1503968647891
 21
761.812081322549
 31
0.0
  0
LINE
  5
245
330
1F
100
AcDbEntity
  8
0-0
  6
JWW_DASHED1
 62
   120
370
     5
100
AcDbLine
 10
-669.1503968647868
 20
518.8831491344175
 30
0.0
 11
-419.1503968647959
 21
768.8831491344089
 31
0.0
  0
LINE
  5
246
330
1F
100
AcDbEntity
  8
0-0
  6
JWW_DASHED1
 62
   120
370
     5
100
AcDbLine
 10
-669.1503968647766
 20
525.9542169462944
 30
0.0
 11
-419.1503968647856
 21
775.9542169462853
 31
0.0
  0
LINE
  5
247
330
1F
100
AcDbEntity
  8
0-0
  6
JWW_DASHED1
 62
   120
370
     5
100
AcDbLine
 10
-669.1503968647936
 20
533.0252847581423
 30
0.0
 11
-419.1503968647891
 21
783.0252847581473
 31
0.0
  0
LINE
  5
248
330
1F
100
AcDbEntity
  8
0-0
  6
JWW_DASHED1
 62
   120
370
     5
100
AcDbLine
 10
-669.1503968647868
 20
540.0963525700158
 30
0.0
 11
-419.1503968647959
 21
790.0963525700072
 31
0.0
  0
LINE
  5
249
330
1F
100
AcDbEntity
  8
0-0
  6
JWW_DASHED1
 62
   120
370
     5
100
AcDbLine
 10
-669.15039686478
 20
547.1674203818927
 30
0.0
 11
-419.1503968647891
 21
797.1674203818836
 31
0.0
  0
LINE
  5
24A
330
1F
100
AcDbEntity
  8
0-0
  6
JWW_DASHED1
 62
   120
370
     5
100
AcDbLine
 10
-669.150396864797
 20
554.2384881937406
 30
0.0
 11
-419.1503968647925
 21
804.2384881937452
 31
0.0
  0
LINE
  5
24B
330
1F
100
AcDbEntity
  8
0-0
  6
JWW_DASHED1
 62
   120
370
     5
100
AcDbLine
 10
-669.1503968647902
 20
561.3095560056141
 30
0.0
 11
-419.1503968647993
 21
811.3095560056055
 31
0.0
  0
LINE
  5
24C
330
1F
100
AcDbEntity
  8
0-0
  6
JWW_DASHED1
 62
   120
370
     5
100
AcDbLine
 10
-669.15039686478
 20
568.380623817491
 30
0.0
 11
-419.1503968647891
 21
818.3806238174819
 31
0.0
  0
LINE
  5
24D
330
1F
100
AcDbEntity
  8
0-0
  6
JWW_DASHED1
 62
   120
370
     5
100
AcDbLine
 10
-669.1503968648004
 20
575.4516916293389
 30
0.0
 11
-419.1503968647959
 21
825.4516916293435
 31
0.0
  0
LINE
  5
24E
330
1F
100
AcDbEntity
  8
0-0
  6
JWW_DASHED1
 62
   120
370
     5
100
AcDbLine
 10
-669.1503968647936
 20
582.5227594412124
 30
0.0
 11
-419.1503968648027
 21
832.5227594412038
 31
0.0
  0
LINE
  5
24F
330
1F
100
AcDbEntity
  8
0-0
  6
JWW_DASHED1
 62
   120
370
     5
100
AcDbLine
 10
-669.15039686478
 20
589.5938272530893
 30
0.0
 11
-419.1503968647891
 21
839.5938272530802
 31
0.0
  0
LINE
  5
250
330
1F
100
AcDbEntity
  8
0-0
  6
JWW_DASHED1
 62
   120
370
     5
100
AcDbLine
 10
-669.1503968648004
 20
596.6648950649368
 30
0.0
 11
-419.1503968647959
 21
846.6648950649412
 31
0.0
  0
LINE
  5
251
330
1F
100
AcDbEntity
  8
0-0
  6
JWW_DASHED1
 62
   120
370
     5
100
AcDbLine
 10
-669.1503968647902
 20
603.7359628768137
 30
0.0
 11
-419.1503968648027
 21
853.7359628768025
 31
0.0
  0
LINE
  5
252
330
1F
100
AcDbEntity
  8
0-0
  6
JWW_DASHED1
 62
   120
370
     5
100
AcDbLine
 10
-669.1503968647834
 20
610.8070306886876
 30
0.0
 11
-419.1503968647925
 21
860.8070306886785
 31
0.0
  0
LINE
  5
253
330
1F
100
AcDbEntity
  8
0-0
  6
JWW_DASHED1
 62
   120
370
     5
100
AcDbLine
 10
-669.1503968647902
 20
617.8780985005484
 30
0.0
 11
-419.1503968647822
 21
867.8780985005554
 31
0.0
  0
LINE
  5
254
330
1F
100
AcDbEntity
  8
0-0
  6
JWW_DASHED1
 62
   120
370
     5
100
AcDbLine
 10
-669.1503968647766
 20
865.36547191584
 30
0.0
 11
-662.0989582329304
 21
872.4169105476861
 31
0.0
  0
LINE
  5
255
330
1F
100
AcDbEntity
  8
0-0
  6
JWW_DASHED1
 62
   120
370
     5
100
AcDbLine
 10
-329.1503968647959
 20
625.5379113428646
 30
0.0
 11
-82.27139765997265
 21
872.4169105476861
 31
0.0
  0
LINE
  5
256
330
1F
100
AcDbEntity
  8
0-0
  6
JWW_DASHED1
 62
   120
370
     5
100
AcDbLine
 10
-329.1503968647856
 20
632.608979154739
 30
0.0
 11
-89.34246547183932
 21
872.4169105476861
 31
0.0
  0
LINE
  5
257
330
1F
100
AcDbEntity
  8
0-0
  6
JWW_DASHED1
 62
   120
370
     5
100
AcDbLine
 10
-329.1503968647925
 20
639.6800469665997
 30
0.0
 11
-96.41353328370599
 21
872.4169105476861
 31
0.0
  0
LINE
  5
258
330
1F
100
AcDbEntity
  8
0-0
  6
JWW_DASHED1
 62
   120
370
     5
100
AcDbLine
 10
-329.1503968647959
 20
646.7511147784629
 30
0.0
 11
-103.4846010955727
 21
872.4169105476861
 31
0.0
  0
LINE
  5
259
330
1F
100
AcDbEntity
  8
0-0
  6
JWW_DASHED1
 62
   120
370
     5
100
AcDbLine
 10
-329.1503968647891
 20
653.8221825903373
 30
0.0
 11
-110.5556689074393
 21
872.4169105476861
 31
0.0
  0
LINE
  5
25A
330
1F
100
AcDbEntity
  8
0-0
  6
JWW_DASHED1
 62
   120
370
     5
100
AcDbLine
 10
-329.1503968647959
 20
660.893250402198
 30
0.0
 11
-117.626736719306
 21
872.4169105476861
 31
0.0
  0
LINE
  5
25B
330
1F
100
AcDbEntity
  8
0-0
  6
JWW_DASHED1
 62
   120
370
     5
100
AcDbLine
 10
-329.1503968647959
 20
667.9643182140612
 30
0.0
 11
-124.6978045311727
 21
872.4169105476861
 31
0.0
  0
LINE
  5
25C
330
1F
100
AcDbEntity
  8
0-0
  6
JWW_DASHED1
 62
   120
370
     5
100
AcDbLine
 10
-329.1503968647891
 20
675.0353860259356
 30
0.0
 11
-131.7688723430393
 21
872.4169105476861
 31
0.0
  0
LINE
  5
25D
330
1F
100
AcDbEntity
  8
0-0
  6
JWW_DASHED1
 62
   120
370
     5
100
AcDbLine
 10
-329.1503968647959
 20
682.1064538377963
 30
0.0
 11
-138.839940154906
 21
872.4169105476861
 31
0.0
  0
LINE
  5
25E
330
1F
100
AcDbEntity
  8
0-0
  6
JWW_DASHED1
 62
   120
370
     5
100
AcDbLine
 10
-329.1503968647993
 20
689.1775216496591
 30
0.0
 11
-145.9110079667727
 21
872.4169105476861
 31
0.0
  0
LINE
  5
25F
330
1F
100
AcDbEntity
  8
0-0
  6
JWW_DASHED1
 62
   120
370
     5
100
AcDbLine
 10
-329.1503968647925
 20
696.2485894615339
 30
0.0
 11
-152.9820757786393
 21
872.4169105476861
 31
0.0
  0
LINE
  5
260
330
1F
100
AcDbEntity
  8
0-0
  6
JWW_DASHED1
 62
   120
370
     5
100
AcDbLine
 10
-329.1503968647822
 20
703.3196572734108
 30
0.0
 11
-160.053143590506
 21
872.4169105476861
 31
0.0
  0
LINE
  5
261
330
1F
100
AcDbEntity
  8
0-0
  6
JWW_DASHED1
 62
   120
370
     5
100
AcDbLine
 10
-329.1503968648027
 20
710.3907250852574
 30
0.0
 11
-167.1242114023727
 21
872.4169105476861
 31
0.0
  0
LINE
  5
262
330
1F
100
AcDbEntity
  8
0-0
  6
JWW_DASHED1
 62
   120
370
     5
100
AcDbLine
 10
-329.1503968647925
 20
717.4617928971322
 30
0.0
 11
-174.1952792142393
 21
872.4169105476861
 31
0.0
  0
LINE
  5
263
330
1F
100
AcDbEntity
  8
0-0
  6
JWW_DASHED1
 62
   120
370
     5
100
AcDbLine
 10
-329.1503968647822
 20
724.5328607090087
 30
0.0
 11
-181.266347026106
 21
872.4169105476861
 31
0.0
  0
LINE
  5
264
330
1F
100
AcDbEntity
  8
0-0
  6
JWW_DASHED1
 62
   120
370
     5
100
AcDbLine
 10
-329.1503968648027
 20
731.6039285208553
 30
0.0
 11
-188.3374148379727
 21
872.4169105476861
 31
0.0
  0
LINE
  5
265
330
1F
100
AcDbEntity
  8
0-0
  6
JWW_DASHED1
 62
   120
370
     5
100
AcDbLine
 10
-329.1503968647959
 20
738.6749963327318
 30
0.0
 11
-195.4084826498394
 21
872.4169105476861
 31
0.0
  0
LINE
  5
266
330
1F
100
AcDbEntity
  8
0-0
  6
JWW_DASHED1
 62
   120
370
     5
100
AcDbLine
 10
-329.1503968647856
 20
745.746064144607
 30
0.0
 11
-202.479550461706
 21
872.4169105476861
 31
0.0
  0
LINE
  5
267
330
1F
100
AcDbEntity
  8
0-0
  6
JWW_DASHED1
 62
   120
370
     5
100
AcDbLine
 10
-329.1503968648061
 20
752.8171319564536
 30
0.0
 11
-209.5506182735727
 21
872.4169105476861
 31
0.0
  0
LINE
  5
268
330
1F
100
AcDbEntity
  8
0-0
  6
JWW_DASHED1
 62
   120
370
     5
100
AcDbLine
 10
-329.1503968647959
 20
759.8881997683301
 30
0.0
 11
-216.6216860854394
 21
872.4169105476861
 31
0.0
  0
LINE
  5
269
330
1F
100
AcDbEntity
  8
0-0
  6
JWW_DASHED1
 62
   120
370
     5
100
AcDbLine
 10
-329.1503968647891
 20
766.9592675802053
 30
0.0
 11
-223.692753897306
 21
872.4169105476861
 31
0.0
  0
LINE
  5
26A
330
1F
100
AcDbEntity
  8
0-0
  6
JWW_DASHED1
 62
   120
370
     5
100
AcDbLine
 10
-329.1503968647925
 20
774.0303353920664
 30
0.0
 11
-230.7638217091727
 21
872.4169105476861
 31
0.0
  0
LINE
  5
26B
330
1F
100
AcDbEntity
  8
0-0
  6
JWW_DASHED1
 62
   120
370
     5
100
AcDbLine
 10
-329.1503968647959
 20
781.1014032039279
 30
0.0
 11
-237.8348895210394
 21
872.4169105476861
 31
0.0
  0
LINE
  5
26C
330
1F
100
AcDbEntity
  8
0-0
  6
JWW_DASHED1
 62
   120
370
     5
100
AcDbLine
 10
-329.1503968647891
 20
788.1724710158036
 30
0.0
 11
-244.905957332906
 21
872.4169105476861
 31
0.0
  0
LINE
  5
26D
330
1F
100
AcDbEntity
  8
0-0
  6
JWW_DASHED1
 62
   120
370
     5
100
AcDbLine
 10
-329.1503968647959
 20
795.2435388276647
 30
0.0
 11
-251.9770251447727
 21
872.4169105476861
 31
0.0
  0
LINE
  5
26E
330
1F
100
AcDbEntity
  8
0-0
  6
JWW_DASHED1
 62
   120
370
     5
100
AcDbLine
 10
-329.1503968647993
 20
802.3146066395262
 30
0.0
 11
-259.0480929566394
 21
872.4169105476861
 31
0.0
  0
LINE
  5
26F
330
1F
100
AcDbEntity
  8
0-0
  6
JWW_DASHED1
 62
   120
370
     5
100
AcDbLine
 10
-329.1503968647959
 20
809.3856744513439
 30
0.0
 11
-266.1191607684515
 21
872.4169105476861
 31
0.0
  0
LINE
  5
270
330
1F
100
AcDbEntity
  8
0-0
  6
JWW_DASHED1
 62
   120
370
     5
100
AcDbLine
 10
-329.1503968647856
 20
816.4567422632196
 30
0.0
 11
-273.1902285803181
 21
872.4169105476861
 31
0.0
  0
LINE
  5
271
330
1F
100
AcDbEntity
  8
0-0
  6
JWW_DASHED1
 62
   120
370
     5
100
AcDbLine
 10
-329.1503968648061
 20
823.5278100750653
 30
0.0
 11
-280.2612963921848
 21
872.4169105476861
 31
0.0
  0
LINE
  5
272
330
1F
100
AcDbEntity
  8
0-0
  6
JWW_DASHED1
 62
   120
370
     5
100
AcDbLine
 10
-329.1503968647959
 20
830.5988778869418
 30
0.0
 11
-287.3323642040515
 21
872.4169105476861
 31
0.0
  0
LINE
  5
273
330
1F
100
AcDbEntity
  8
0-0
  6
JWW_DASHED1
 62
   120
370
     5
100
AcDbLine
 10
-329.1503968647856
 20
837.6699456988181
 30
0.0
 11
-294.4034320159182
 21
872.4169105476861
 31
0.0
  0
LINE
  5
274
330
1F
100
AcDbEntity
  8
0-0
  6
JWW_DASHED1
 62
   120
370
     5
100
AcDbLine
 10
-329.1503968647925
 20
844.741013510679
 30
0.0
 11
-301.4744998277848
 21
872.4169105476861
 31
0.0
  0
LINE
  5
275
330
1F
100
AcDbEntity
  8
0-0
  6
JWW_DASHED1
 62
   120
370
     5
100
AcDbLine
 10
-329.1503968647959
 20
851.81208132254
 30
0.0
 11
-308.5455676396515
 21
872.4169105476861
 31
0.0
  0
LINE
  5
276
330
1F
100
AcDbEntity
  8
0-0
  6
JWW_DASHED1
 62
   120
370
     5
100
AcDbLine
 10
-329.1503968647891
 20
858.8831491344162
 30
0.0
 11
-315.6166354515182
 21
872.4169105476861
 31
0.0
  0
LINE
  5
277
330
1F
100
AcDbEntity
  8
0-0
  6
JWW_DASHED1
 62
   120
370
     5
100
AcDbLine
 10
-329.1503968647959
 20
865.9542169462768
 30
0.0
 11
-322.6877032633848
 21
872.4169105476861
 31
0.0
  0
LINE
  5
278
330
1F
100
AcDbEntity
  8
0-0
  6
JWW_DASHED1
 62
   120
370
     5
100
AcDbLine
 10
-669.1503968647936
 20
624.9491663124116
 30
0.0
 11
-421.6826526295182
 21
872.4169105476861
 31
0.0
  0
LINE
  5
279
330
1F
100
AcDbEntity
  8
0-0
  6
JWW_DASHED1
 62
   120
370
     5
100
AcDbLine
 10
-669.1503968647868
 20
632.0202341242859
 30
0.0
 11
-428.7537204413849
 21
872.4169105476861
 31
0.0
  0
LINE
  5
27A
330
1F
100
AcDbEntity
  8
0-0
  6
JWW_DASHED1
 62
   120
370
     5
100
AcDbLine
 10
-669.1503968647731
 20
639.0913019361624
 30
0.0
 11
-435.8247882532515
 21
872.4169105476861
 31
0.0
  0
LINE
  5
27B
330
1F
100
AcDbEntity
  8
0-0
  6
JWW_DASHED1
 62
   120
370
     5
100
AcDbLine
 10
-669.1503968647936
 20
646.1623697480095
 30
0.0
 11
-442.8958560651182
 21
872.4169105476861
 31
0.0
  0
LINE
  5
27C
330
1F
100
AcDbEntity
  8
0-0
  6
JWW_DASHED1
 62
   120
370
     5
100
AcDbLine
 10
-669.1503968647868
 20
653.2334375598842
 30
0.0
 11
-449.9669238769849
 21
872.4169105476861
 31
0.0
  0
LINE
  5
27D
330
1F
100
AcDbEntity
  8
0-0
  6
JWW_DASHED1
 62
   120
370
     5
100
AcDbLine
 10
-669.1503968647766
 20
660.3045053717607
 30
0.0
 11
-457.0379916888515
 21
872.4169105476861
 31
0.0
  0
LINE
  5
27E
330
1F
100
AcDbEntity
  8
0-0
  6
JWW_DASHED1
 62
   120
370
     5
100
AcDbLine
 10
-669.150396864797
 20
667.3755731836083
 30
0.0
 11
-464.1090595007182
 21
872.4169105476861
 31
0.0
  0
LINE
  5
27F
330
1F
100
AcDbEntity
  8
0-0
  6
JWW_DASHED1
 62
   120
370
     5
100
AcDbLine
 10
-669.1503968647868
 20
674.4466409954825
 30
0.0
 11
-471.1801273125849
 21
872.4169105476861
 31
0.0
  0
LINE
  5
280
330
1F
100
AcDbEntity
  8
0-0
  6
JWW_DASHED1
 62
   120
370
     5
100
AcDbLine
 10
-669.15039686478
 20
681.517708807359
 30
0.0
 11
-478.2511951244516
 21
872.4169105476861
 31
0.0
  0
LINE
  5
281
330
1F
100
AcDbEntity
  8
0-0
  6
JWW_DASHED1
 62
   120
370
     5
100
AcDbLine
 10
-669.1503968648004
 20
688.5887766192056
 30
0.0
 11
-485.3222629363182
 21
872.4169105476861
 31
0.0
  0
LINE
  5
282
330
1F
100
AcDbEntity
  8
0-0
  6
JWW_DASHED1
 62
   120
370
     5
100
AcDbLine
 10
-669.1503968647902
 20
695.6598444310808
 30
0.0
 11
-492.3933307481849
 21
872.4169105476861
 31
0.0
  0
LINE
  5
283
330
1F
100
AcDbEntity
  8
0-0
  6
JWW_DASHED1
 62
   120
370
     5
100
AcDbLine
 10
-669.1503968647834
 20
702.730912242928
 30
0.0
 11
-499.4643985600243
 21
872.4169105476861
 31
0.0
  0
LINE
  5
284
330
1F
100
AcDbEntity
  8
0-0
  6
JWW_DASHED1
 62
   120
370
     5
100
AcDbLine
 10
-669.1503968647902
 20
709.8019800547592
 30
0.0
 11
-506.5354663718637
 21
872.4169105476861
 31
0.0
  0
LINE
  5
285
330
1F
100
AcDbEntity
  8
0-0
  6
JWW_DASHED1
 62
   120
370
     5
100
AcDbLine
 10
-669.1503968647936
 20
716.8730478666216
 30
0.0
 11
-513.6065341837303
 21
872.4169105476861
 31
0.0
  0
LINE
  5
286
330
1F
100
AcDbEntity
  8
0-0
  6
JWW_DASHED1
 62
   120
370
     5
100
AcDbLine
 10
-669.1503968647868
 20
723.9441156784968
 30
0.0
 11
-520.677601995597
 21
872.4169105476861
 31
0.0
  0
LINE
  5
287
330
1F
100
AcDbEntity
  8
0-0
  6
JWW_DASHED1
 62
   120
370
     5
100
AcDbLine
 10
-669.1503968647766
 20
731.0151834903733
 30
0.0
 11
-527.7486698074637
 21
872.4169105476861
 31
0.0
  0
LINE
  5
288
330
1F
100
AcDbEntity
  8
0-0
  6
JWW_DASHED1
 62
   120
370
     5
100
AcDbLine
 10
-669.150396864797
 20
738.0862513022199
 30
0.0
 11
-534.8197376193303
 21
872.4169105476861
 31
0.0
  0
LINE
  5
289
330
1F
100
AcDbEntity
  8
0-0
  6
JWW_DASHED1
 62
   120
370
     5
100
AcDbLine
 10
-669.1503968647868
 20
745.1573191140951
 30
0.0
 11
-541.890805431197
 21
872.4169105476861
 31
0.0
  0
LINE
  5
28A
330
1F
100
AcDbEntity
  8
0-0
  6
JWW_DASHED1
 62
   120
370
     5
100
AcDbLine
 10
-669.15039686478
 20
752.2283869259716
 30
0.0
 11
-548.9618732430637
 21
872.4169105476861
 31
0.0
  0
LINE
  5
28B
330
1F
100
AcDbEntity
  8
0-0
  6
JWW_DASHED1
 62
   120
370
     5
100
AcDbLine
 10
-669.1503968648004
 20
759.2994547378178
 30
0.0
 11
-556.0329410549303
 21
872.4169105476861
 31
0.0
  0
LINE
  5
28C
330
1F
100
AcDbEntity
  8
0-0
  6
JWW_DASHED1
 62
   120
370
     5
100
AcDbLine
 10
-669.1503968647902
 20
766.3705225496934
 30
0.0
 11
-563.104008866797
 21
872.4169105476861
 31
0.0
  0
LINE
  5
28D
330
1F
100
AcDbEntity
  8
0-0
  6
JWW_DASHED1
 62
   120
370
     5
100
AcDbLine
 10
-669.15039686478
 20
773.4415903615699
 30
0.0
 11
-570.1750766786637
 21
872.4169105476861
 31
0.0
  0
LINE
  5
28E
330
1F
100
AcDbEntity
  8
0-0
  6
JWW_DASHED1
 62
   120
370
     5
100
AcDbLine
 10
-669.1503968648004
 20
780.5126581734161
 30
0.0
 11
-577.2461444905304
 21
872.4169105476861
 31
0.0
  0
LINE
  5
28F
330
1F
100
AcDbEntity
  8
0-0
  6
JWW_DASHED1
 62
   120
370
     5
100
AcDbLine
 10
-669.1503968647936
 20
787.5837259852917
 30
0.0
 11
-584.317212302397
 21
872.4169105476861
 31
0.0
  0
LINE
  5
290
330
1F
100
AcDbEntity
  8
0-0
  6
JWW_DASHED1
 62
   120
370
     5
100
AcDbLine
 10
-669.15039686478
 20
794.6547937971682
 30
0.0
 11
-591.3882801142637
 21
872.4169105476861
 31
0.0
  0
LINE
  5
291
330
1F
100
AcDbEntity
  8
0-0
  6
JWW_DASHED1
 62
   120
370
     5
100
AcDbLine
 10
-669.1503968648004
 20
801.7258616090144
 30
0.0
 11
-598.4593479261304
 21
872.4169105476861
 31
0.0
  0
LINE
  5
292
330
1F
100
AcDbEntity
  8
0-0
  6
JWW_DASHED1
 62
   120
370
     5
100
AcDbLine
 10
-669.1503968647936
 20
808.7969294208905
 30
0.0
 11
-605.530415737997
 21
872.4169105476861
 31
0.0
  0
LINE
  5
293
330
1F
100
AcDbEntity
  8
0-0
  6
JWW_DASHED1
 62
   120
370
     5
100
AcDbLine
 10
-669.1503968647834
 20
815.8679972327665
 30
0.0
 11
-612.6014835498637
 21
872.4169105476861
 31
0.0
  0
LINE
  5
294
330
1F
100
AcDbEntity
  8
0-0
  6
JWW_DASHED1
 62
   120
370
     5
100
AcDbLine
 10
-669.1503968647902
 20
822.9390650446272
 30
0.0
 11
-619.6725513617304
 21
872.4169105476861
 31
0.0
  0
LINE
  5
295
330
1F
100
AcDbEntity
  8
0-0
  6
JWW_DASHED1
 62
   120
370
     5
100
AcDbLine
 10
-669.1503968647936
 20
830.0101328564888
 30
0.0
 11
-626.743619173597
 21
872.4169105476861
 31
0.0
  0
LINE
  5
296
330
1F
100
AcDbEntity
  8
0-0
  6
JWW_DASHED1
 62
   120
370
     5
100
AcDbLine
 10
-669.1503968647868
 20
837.0812006683648
 30
0.0
 11
-633.8146869854637
 21
872.4169105476861
 31
0.0
  0
LINE
  5
297
330
1F
100
AcDbEntity
  8
0-0
  6
JWW_DASHED1
 62
   120
370
     5
100
AcDbLine
 10
-669.1503968647731
 20
844.1522684802417
 30
0.0
 11
-640.8857547973304
 21
872.4169105476861
 31
0.0
  0
LINE
  5
298
330
1F
100
AcDbEntity
  8
0-0
  6
JWW_DASHED1
 62
   120
370
     5
100
AcDbLine
 10
-669.150396864797
 20
851.2233362920866
 30
0.0
 11
-647.956822609197
 21
872.4169105476861
 31
0.0
  0
LINE
  5
299
330
1F
100
AcDbEntity
  8
0-0
  6
JWW_DASHED1
 62
   120
370
     5
100
AcDbLine
 10
-669.1503968647868
 20
858.2944041039631
 30
0.0
 11
-655.0278904210637
 21
872.4169105476861
 31
0.0
  0
LINE
  5
29A
330
1F
100
AcDbEntity
  8
0-0
  6
JWW_DASHED1
 62
   120
370
     5
100
AcDbLine
 10
696.7848771876555
 20
-825.583089452305
 30
0.0
 11
700.8496031352053
 21
-821.5183635047553
 31
0.0
  0
LINE
  5
29B
330
1F
100
AcDbEntity
  8
0-0
  6
JWW_DASHED1
 62
   120
370
     5
100
AcDbLine
 10
689.7138093757786
 20
-825.5830894523152
 30
0.0
 11
700.8496031352155
 21
-814.4472956928784
 31
0.0
  0
LINE
  5
29C
330
1F
100
AcDbEntity
  8
0-0
  6
JWW_DASHED1
 62
   120
370
     5
100
AcDbLine
 10
682.6427415639324
 20
-825.5830894522948
 30
0.0
 11
700.8496031351916
 21
-807.3762278810336
 31
0.0
  0
LINE
  5
29D
330
1F
100
AcDbEntity
  8
0-0
  6
JWW_DASHED1
 62
   120
370
     5
100
AcDbLine
 10
675.5716737520555
 20
-825.583089452305
 30
0.0
 11
700.8496031352018
 21
-800.305160069157
 31
0.0
  0
LINE
  5
29E
330
1F
100
AcDbEntity
  8
0-0
  6
JWW_DASHED1
 62
   120
370
     5
100
AcDbLine
 10
668.500605940182
 20
-825.5830894523128
 30
0.0
 11
700.8496031352121
 21
-793.2340922572806
 31
0.0
  0
LINE
  5
29F
330
1F
100
AcDbEntity
  8
0-0
  6
JWW_DASHED1
 62
   120
370
     5
100
AcDbLine
 10
661.4295381283324
 20
-825.5830894522941
 30
0.0
 11
700.8496031351916
 21
-786.1630244454356
 31
0.0
  0
LINE
  5
2A0
330
1F
100
AcDbEntity
  8
0-0
  6
JWW_DASHED1
 62
   120
370
     5
100
AcDbLine
 10
654.3584703164555
 20
-825.5830894523043
 30
0.0
 11
700.8496031352018
 21
-779.0919566335587
 31
0.0
  0
LINE
  5
2A1
330
1F
100
AcDbEntity
  8
0-0
  6
JWW_DASHED1
 62
   120
370
     5
100
AcDbLine
 10
647.287402504582
 20
-825.5830894523107
 30
0.0
 11
700.8496031352087
 21
-772.0208888216828
 31
0.0
  0
LINE
  5
2A2
330
1F
100
AcDbEntity
  8
0-0
  6
JWW_DASHED1
 62
   120
370
     5
100
AcDbLine
 10
640.2163346927153
 20
-825.5830894523084
 30
0.0
 11
700.8496031352053
 21
-764.949821009822
 31
0.0
  0
LINE
  5
2A3
330
1F
100
AcDbEntity
  8
0-0
  6
JWW_DASHED1
 62
   120
370
     5
100
AcDbLine
 10
633.1452668808555
 20
-825.5830894523033
 30
0.0
 11
700.8496031351984
 21
-757.8787531979605
 31
0.0
  0
LINE
  5
2A4
330
1F
100
AcDbEntity
  8
0-0
  6
JWW_DASHED1
 62
   120
370
     5
100
AcDbLine
 10
626.074199068982
 20
-825.5830894523084
 30
0.0
 11
700.8496031352087
 21
-750.8076853860836
 31
0.0
  0
LINE
  5
2A5
330
1F
100
AcDbEntity
  8
0-0
  6
JWW_DASHED1
 62
   120
370
     5
100
AcDbLine
 10
619.0031312571188
 20
-825.5830894523077
 30
0.0
 11
700.8496031352018
 21
-743.7366175742237
 31
0.0
  0
LINE
  5
2A6
330
1F
100
AcDbEntity
  8
0-0
  6
JWW_DASHED1
 62
   120
370
     5
100
AcDbLine
 10
611.9320634452555
 20
-825.5830894523021
 30
0.0
 11
700.8496031351984
 21
-736.6655497623622
 31
0.0
  0
LINE
  5
2A7
330
1F
100
AcDbEntity
  8
0-0
  6
JWW_DASHED1
 62
   120
370
     5
100
AcDbLine
 10
604.8609956333888
 20
-825.583089452306
 30
0.0
 11
700.8496031352087
 21
-729.5944819504853
 31
0.0
  0
LINE
  5
2A8
330
1F
100
AcDbEntity
  8
0-0
  6
JWW_DASHED1
 62
   120
370
     5
100
AcDbLine
 10
597.7899278215187
 20
-825.5830894523067
 30
0.0
 11
700.8496031352018
 21
-722.5234141386254
 31
0.0
  0
LINE
  5
2A9
330
1F
100
AcDbEntity
  8
0-0
  6
JWW_DASHED1
 62
   120
370
     5
100
AcDbLine
 10
590.7188600096589
 20
-825.5830894523016
 30
0.0
 11
700.849603135195
 21
-715.4523463267639
 31
0.0
  0
LINE
  5
2AA
330
1F
100
AcDbEntity
  8
0-0
  6
JWW_DASHED1
 62
   120
370
     5
100
AcDbLine
 10
583.6477921977888
 20
-825.5830894523043
 30
0.0
 11
700.8496031352053
 21
-708.381278514887
 31
0.0
  0
LINE
  5
2AB
330
1F
100
AcDbEntity
  8
0-0
  6
JWW_DASHED1
 62
   120
370
     5
100
AcDbLine
 10
576.5767243859187
 20
-825.5830894523065
 30
0.0
 11
700.8496031351984
 21
-701.3102107030271
 31
0.0
  0
LINE
  5
2AC
330
1F
100
AcDbEntity
  8
0-0
  6
JWW_DASHED1
 62
   120
370
     5
100
AcDbLine
 10
569.5056565740589
 20
-825.5830894522999
 30
0.0
 11
700.849603135195
 21
-694.2391428911656
 31
0.0
  0
LINE
  5
2AD
330
1F
100
AcDbEntity
  8
0-0
  6
JWW_DASHED1
 62
   120
370
     5
100
AcDbLine
 10
562.434588762182
 20
-825.5830894523101
 30
0.0
 11
700.8496031352053
 21
-687.1680750792887
 31
0.0
  0
LINE
  5
2AE
330
1F
100
AcDbEntity
  8
0-0
  6
JWW_DASHED1
 62
   120
370
     5
100
AcDbLine
 10
555.3635209503153
 20
-825.5830894523118
 30
0.0
 11
700.8496031352121
 21
-680.0970072674135
 31
0.0
  0
LINE
  5
2AF
330
1F
100
AcDbEntity
  8
0-0
  6
JWW_DASHED1
 62
   120
370
     5
100
AcDbLine
 10
548.2924531384623
 20
-825.5830894522992
 30
0.0
 11
700.8496031351916
 21
-673.0259394555673
 31
0.0
  0
LINE
  5
2B0
330
1F
100
AcDbEntity
  8
0-0
  6
JWW_DASHED1
 62
   120
370
     5
100
AcDbLine
 10
541.221385326582
 20
-825.5830894523094
 30
0.0
 11
700.8496031352018
 21
-665.9548716436904
 31
0.0
  0
LINE
  5
2B1
330
1F
100
AcDbEntity
  8
0-0
  6
JWW_DASHED1
 62
   120
370
     5
100
AcDbLine
 10
534.1503175147153
 20
-825.5830894523094
 30
0.0
 11
700.8496031352087
 21
-658.8838038318152
 31
0.0
  0
LINE
  5
2B2
330
1F
100
AcDbEntity
  8
0-0
  6
JWW_DASHED1
 62
   120
370
     5
100
AcDbLine
 10
527.0792497028452
 20
-825.5830894523141
 30
0.0
 11
700.8496031352053
 21
-651.812736019955
 31
0.0
  0
LINE
  5
2B3
330
1F
100
AcDbEntity
  8
0-0
  6
JWW_DASHED1
 62
   120
370
     5
100
AcDbLine
 10
520.008181890982
 20
-825.5830894523084
 30
0.0
 11
700.8496031352018
 21
-644.741668208092
 31
0.0
  0
LINE
  5
2B4
330
1F
100
AcDbEntity
  8
0-0
  6
JWW_DASHED1
 62
   120
370
     5
100
AcDbLine
 10
512.9371140791767
 20
-825.583089452303
 30
0.0
 11
700.8496031352053
 21
-637.6706003962748
 31
0.0
  0
LINE
  5
2B5
330
1F
100
AcDbEntity
  8
0-0
  6
JWW_DASHED1
 62
   120
370
     5
100
AcDbLine
 10
505.8660462673032
 20
-825.5830894523094
 30
0.0
 11
700.8496031351984
 21
-630.5995325844159
 31
0.0
  0
LINE
  5
2B6
330
1F
100
AcDbEntity
  8
0-0
  6
JWW_DASHED1
 62
   120
370
     5
100
AcDbLine
 10
498.7949784554434
 20
-825.5830894523039
 30
0.0
 11
700.849603135195
 21
-623.5284647725526
 31
0.0
  0
LINE
  5
2B7
330
1F
100
AcDbEntity
  8
0-0
  6
JWW_DASHED1
 62
   120
370
     5
100
AcDbLine
 10
491.7239106435665
 20
-825.5830894523135
 30
0.0
 11
700.8496031352053
 21
-616.4573969606762
 31
0.0
  0
LINE
  5
2B8
330
1F
100
AcDbEntity
  8
0-0
  6
JWW_DASHED1
 62
   120
370
     5
100
AcDbLine
 10
484.6528428317032
 20
-825.5830894523101
 30
0.0
 11
700.8496031352121
 21
-609.3863291488018
 31
0.0
  0
LINE
  5
2B9
330
1F
100
AcDbEntity
  8
0-0
  6
JWW_DASHED1
 62
   120
370
     5
100
AcDbLine
 10
477.5817750198433
 20
-825.5830894523026
 30
0.0
 11
700.849603135195
 21
-602.3152613369543
 31
0.0
  0
LINE
  5
2BA
330
1F
100
AcDbEntity
  8
0-0
  6
JWW_DASHED1
 62
   120
370
     5
100
AcDbLine
 10
470.5107072079699
 20
-825.5830894523128
 30
0.0
 11
700.8496031352018
 21
-595.2441935250782
 31
0.0
  0
LINE
  5
2BB
330
1F
100
AcDbEntity
  8
0-0
  6
JWW_DASHED1
 62
   120
370
     5
100
AcDbLine
 10
463.4396393961066
 20
-825.5830894523084
 30
0.0
 11
700.8496031352087
 21
-588.1731257132035
 31
0.0
  0
LINE
  5
2BC
330
1F
100
AcDbEntity
  8
0-0
  6
JWW_DASHED1
 62
   120
370
     5
100
AcDbLine
 10
456.3685715842433
 20
-825.5830894523016
 30
0.0
 11
700.8496031351916
 21
-581.102057901356
 31
0.0
  0
LINE
  5
2BD
330
1F
100
AcDbEntity
  8
0-0
  6
JWW_DASHED1
 62
   120
370
     5
100
AcDbLine
 10
450.8496031352109
 20
-824.0309900894717
 30
0.0
 11
700.8496031352018
 21
-574.0309900894796
 31
0.0
  0
LINE
  5
2BE
330
1F
100
AcDbEntity
  8
0-0
  6
JWW_DASHED1
 62
   120
370
     5
100
AcDbLine
 10
450.8496031352041
 20
-816.9599222776102
 30
0.0
 11
700.8496031352087
 21
-566.9599222776056
 31
0.0
  0
LINE
  5
2BF
330
1F
100
AcDbEntity
  8
0-0
  6
JWW_DASHED1
 62
   120
370
     5
100
AcDbLine
 10
450.8496031352144
 20
-809.8888544657337
 30
0.0
 11
700.8496031352018
 21
-559.8888544657449
 31
0.0
  0
LINE
  5
2C0
330
1F
100
AcDbEntity
  8
0-0
  6
JWW_DASHED1
 62
   120
370
     5
100
AcDbLine
 10
450.8496031352075
 20
-802.817786653873
 30
0.0
 11
700.8496031351984
 21
-552.8177866538816
 31
0.0
  0
LINE
  5
2C1
330
1F
100
AcDbEntity
  8
0-0
  6
JWW_DASHED1
 62
   120
370
     5
100
AcDbLine
 10
450.8496031352007
 20
-795.7467188420123
 30
0.0
 11
700.8496031352087
 21
-545.7467188420047
 31
0.0
  0
LINE
  5
2C2
330
1F
100
AcDbEntity
  8
0-0
  6
JWW_DASHED1
 62
   120
370
     5
100
AcDbLine
 10
450.8496031352109
 20
-788.6756510301357
 30
0.0
 11
700.8496031352018
 21
-538.6756510301466
 31
0.0
  0
LINE
  5
2C3
330
1F
100
AcDbEntity
  8
0-0
  6
JWW_DASHED1
 62
   120
370
     5
100
AcDbLine
 10
450.8496031352041
 20
-781.6045832182741
 30
0.0
 11
700.8496031351984
 21
-531.6045832182833
 31
0.0
  0
LINE
  5
2C4
330
1F
100
AcDbEntity
  8
0-0
  6
JWW_DASHED1
 62
   120
370
     5
100
AcDbLine
 10
450.8496031352007
 20
-774.533515406414
 30
0.0
 11
700.8496031352087
 21
-524.5335154064064
 31
0.0
  0
LINE
  5
2C5
330
1F
100
AcDbEntity
  8
0-0
  6
JWW_DASHED1
 62
   120
370
     5
100
AcDbLine
 10
450.8496031352109
 20
-767.4624475945379
 30
0.0
 11
700.8496031351984
 21
-517.4624475945483
 31
0.0
  0
LINE
  5
2C6
330
1F
100
AcDbEntity
  8
0-0
  6
JWW_DASHED1
 62
   120
370
     5
100
AcDbLine
 10
450.8496031352041
 20
-760.3913797826759
 30
0.0
 11
700.849603135195
 21
-510.3913797826851
 31
0.0
  0
LINE
  5
2C7
330
1F
100
AcDbEntity
  8
0-0
  6
JWW_DASHED1
 62
   120
370
     5
100
AcDbLine
 10
450.8496031351973
 20
-753.3203119708153
 30
0.0
 11
700.8496031352053
 21
-503.3203119708082
 31
0.0
  0
LINE
  5
2C8
330
1F
100
AcDbEntity
  8
0-0
  6
JWW_DASHED1
 62
   120
370
     5
100
AcDbLine
 10
450.8496031352075
 20
-746.2492441589396
 30
0.0
 11
700.8496031352121
 21
-496.2492441589347
 31
0.0
  0
LINE
  5
2C9
330
1F
100
AcDbEntity
  8
0-0
  6
JWW_DASHED1
 62
   120
370
     5
100
AcDbLine
 10
450.8496031352041
 20
-739.1781763470781
 30
0.0
 11
700.849603135195
 21
-489.1781763470868
 31
0.0
  0
LINE
  5
2CA
330
1F
100
AcDbEntity
  8
0-0
  6
JWW_DASHED1
 62
   120
370
     5
100
AcDbLine
 10
357.3736222181066
 20
-825.5830894523077
 30
0.0
 11
360.8496031352041
 21
-822.1071085352085
 31
0.0
  0
LINE
  5
2CB
330
1F
100
AcDbEntity
  8
0-0
  6
JWW_DASHED1
 62
   120
370
     5
100
AcDbLine
 10
450.8496031352109
 20
-732.1071085352012
 30
0.0
 11
700.8496031352053
 21
-482.1071085352099
 31
0.0
  0
LINE
  5
2CC
330
1F
100
AcDbEntity
  8
0-0
  6
JWW_DASHED1
 62
   120
370
     5
100
AcDbLine
 10
350.3025544062297
 20
-825.5830894523169
 30
0.0
 11
360.8496031352144
 21
-815.0360407233322
 31
0.0
  0
LINE
  5
2CD
330
1F
100
AcDbEntity
  8
0-0
  6
JWW_DASHED1
 62
   120
370
     5
100
AcDbLine
 10
450.8496031352041
 20
-725.0360407233413
 30
0.0
 11
700.8496031352121
 21
-475.0360407233364
 31
0.0
  0
LINE
  5
2CE
330
1F
100
AcDbEntity
  8
0-0
  6
JWW_DASHED1
 62
   120
370
     5
100
AcDbLine
 10
343.2314865943835
 20
-825.5830894522965
 30
0.0
 11
360.8496031351939
 21
-807.964972911487
 31
0.0
  0
LINE
  5
2CF
330
1F
100
AcDbEntity
  8
0-0
  6
JWW_DASHED1
 62
   120
370
     5
100
AcDbLine
 10
450.8496031352007
 20
-717.9649729114798
 30
0.0
 11
700.8496031351916
 21
-467.9649729114885
 31
0.0
  0
LINE
  5
2D0
330
1F
100
AcDbEntity
  8
0-0
  6
JWW_DASHED1
 62
   120
370
     5
100
AcDbLine
 10
336.1604187825066
 20
-825.5830894523067
 30
0.0
 11
360.8496031352041
 21
-800.8939050996102
 31
0.0
  0
LINE
  5
2D1
330
1F
100
AcDbEntity
  8
0-0
  6
JWW_DASHED1
 62
   120
370
     5
100
AcDbLine
 10
450.8496031352109
 20
-710.8939050996033
 30
0.0
 11
700.8496031352018
 21
-460.8939050996116
 31
0.0
  0
LINE
  5
2D2
330
1F
100
AcDbEntity
  8
0-0
  6
JWW_DASHED1
 62
   120
370
     5
100
AcDbLine
 10
329.0893509706331
 20
-825.5830894523152
 30
0.0
 11
360.8496031352109
 21
-793.8228372877339
 31
0.0
  0
LINE
  5
2D3
330
1F
100
AcDbEntity
  8
0-0
  6
JWW_DASHED1
 62
   120
370
     5
100
AcDbLine
 10
450.8496031352041
 20
-703.8228372877435
 30
0.0
 11
700.8496031352087
 21
-453.8228372877385
 31
0.0
  0
LINE
  5
2D4
330
1F
100
AcDbEntity
  8
0-0
  6
JWW_DASHED1
 62
   120
370
     5
100
AcDbLine
 10
322.0182831587698
 20
-825.5830894523111
 30
0.0
 11
360.8496031352075
 21
-786.7517694758734
 31
0.0
  0
LINE
  5
2D5
330
1F
100
AcDbEntity
  8
0-0
  6
JWW_DASHED1
 62
   120
370
     5
100
AcDbLine
 10
450.8496031352144
 20
-696.7517694758666
 30
0.0
 11
700.8496031352018
 21
-446.7517694758774
 31
0.0
  0
LINE
  5
2D6
330
1F
100
AcDbEntity
  8
0-0
  6
JWW_DASHED1
 62
   120
370
     5
100
AcDbLine
 10
314.94721534691
 20
-825.583089452306
 30
0.0
 11
360.8496031352007
 21
-779.6807016640123
 31
0.0
  0
LINE
  5
2D7
330
1F
100
AcDbEntity
  8
0-0
  6
JWW_DASHED1
 62
   120
370
     5
100
AcDbLine
 10
450.8496031352109
 20
-689.680701664005
 30
0.0
 11
700.8496031352018
 21
-439.6807016640133
 31
0.0
  0
LINE
  5
2D8
330
1F
100
AcDbEntity
  8
0-0
  6
JWW_DASHED1
 62
   120
370
     5
100
AcDbLine
 10
307.8761475350365
 20
-825.5830894523124
 30
0.0
 11
360.8496031352109
 21
-772.6096338521356
 31
0.0
  0
LINE
  5
2D9
330
1F
100
AcDbEntity
  8
0-0
  6
JWW_DASHED1
 62
   120
370
     5
100
AcDbLine
 10
450.8496031352041
 20
-682.6096338521452
 30
0.0
 11
700.8496031352087
 21
-432.6096338521406
 31
0.0
  0
LINE
  5
2DA
330
1F
100
AcDbEntity
  8
0-0
  6
JWW_DASHED1
 62
   120
370
     5
100
AcDbLine
 10
300.8050797231698
 20
-825.5830894523101
 30
0.0
 11
360.8496031352041
 21
-765.5385660402759
 31
0.0
  0
LINE
  5
2DB
330
1F
100
AcDbEntity
  8
0-0
  6
JWW_DASHED1
 62
   120
370
     5
100
AcDbLine
 10
450.8496031352109
 20
-675.5385660402687
 30
0.0
 11
700.8496031352018
 21
-425.5385660402795
 31
0.0
  0
LINE
  5
2DC
330
1F
100
AcDbEntity
  8
0-0
  6
JWW_DASHED1
 62
   120
370
     5
100
AcDbLine
 10
293.7340119113099
 20
-825.5830894523048
 30
0.0
 11
360.8496031352007
 21
-758.467498228414
 31
0.0
  0
LINE
  5
2DD
330
1F
100
AcDbEntity
  8
0-0
  6
JWW_DASHED1
 62
   120
370
     5
100
AcDbLine
 10
450.8496031352075
 20
-668.4674982284067
 30
0.0
 11
700.8496031351984
 21
-418.467498228415
 31
0.0
  0
LINE
  5
2DE
330
1F
100
AcDbEntity
  8
0-0
  6
JWW_DASHED1
 62
   120
370
     5
100
AcDbLine
 10
286.662944099433
 20
-825.5830894523152
 30
0.0
 11
360.8496031352109
 21
-751.3964304165374
 31
0.0
  0
LINE
  5
2DF
330
1F
100
AcDbEntity
  8
0-0
  6
JWW_DASHED1
 62
   120
370
     5
100
AcDbLine
 10
450.8496031352007
 20
-661.3964304165456
 30
0.0
 11
700.8496031352087
 21
-411.3964304165381
 31
0.0
  0
LINE
  5
2E0
330
1F
100
AcDbEntity
  8
0-0
  6
JWW_DASHED1
 62
   120
370
     5
100
AcDbLine
 10
279.5918762875596
 20
-825.5830894523201
 30
0.0
 11
360.8496031352178
 21
-744.3253626046614
 31
0.0
  0
LINE
  5
2E1
330
1F
100
AcDbEntity
  8
0-0
  6
JWW_DASHED1
 62
   120
370
     5
100
AcDbLine
 10
450.8496031352109
 20
-654.3253626046708
 30
0.0
 11
700.8496031351984
 21
-404.3253626046816
 31
0.0
  0
LINE
  5
2E2
330
1F
100
AcDbEntity
  8
0-0
  6
JWW_DASHED1
 62
   120
370
     5
100
AcDbLine
 10
272.5208084757406
 20
-825.5830894523016
 30
0.0
 11
360.8496031351973
 21
-737.254294792845
 31
0.0
  0
LINE
  5
2E3
330
1F
100
AcDbEntity
  8
0-0
  6
JWW_DASHED1
 62
   120
370
     5
100
AcDbLine
 10
450.8496031352041
 20
-647.2542947928374
 30
0.0
 11
700.849603135195
 21
-397.2542947928461
 31
0.0
  0
LINE
  5
2E4
330
1F
100
AcDbEntity
  8
0-0
  6
JWW_DASHED1
 62
   120
370
     5
100
AcDbLine
 10
265.449740663891
 20
-825.5830894523101
 30
0.0
 11
360.8496031352041
 21
-730.183226980998
 31
0.0
  0
LINE
  5
2E5
330
1F
100
AcDbEntity
  8
0-0
  6
JWW_DASHED1
 62
   120
370
     5
100
AcDbLine
 10
450.8496031352109
 20
-640.1832269809903
 30
0.0
 11
700.8496031352018
 21
-390.183226980999
 31
0.0
  0
LINE
  5
2E6
330
1F
100
AcDbEntity
  8
0-0
  6
JWW_DASHED1
 62
   120
370
     5
100
AcDbLine
 10
258.3786728520209
 20
-825.5830894523135
 30
0.0
 11
360.8496031352109
 21
-723.1121591691224
 31
0.0
  0
LINE
  5
2E7
330
1F
100
AcDbEntity
  8
0-0
  6
JWW_DASHED1
 62
   120
370
     5
100
AcDbLine
 10
450.8496031352041
 20
-633.1121591691314
 30
0.0
 11
700.8496031352087
 21
-383.1121591691268
 31
0.0
  0
LINE
  5
2E8
330
1F
100
AcDbEntity
  8
0-0
  6
JWW_DASHED1
 62
   120
370
     5
100
AcDbLine
 10
251.3076050401543
 20
-825.5830894523145
 30
0.0
 11
360.8496031352075
 21
-716.0410913572613
 31
0.0
  0
LINE
  5
2E9
330
1F
100
AcDbEntity
  8
0-0
  6
JWW_DASHED1
 62
   120
370
     5
100
AcDbLine
 10
450.8496031352144
 20
-626.0410913572549
 30
0.0
 11
700.8496031352018
 21
-376.0410913572653
 31
0.0
  0
LINE
  5
2EA
330
1F
100
AcDbEntity
  8
0-0
  6
JWW_DASHED1
 62
   120
370
     5
100
AcDbLine
 10
244.236537228291
 20
-825.583089452309
 30
0.0
 11
360.8496031352041
 21
-708.9700235453997
 31
0.0
  0
LINE
  5
2EB
330
1F
100
AcDbEntity
  8
0-0
  6
JWW_DASHED1
 62
   120
370
     5
100
AcDbLine
 10
450.8496031352109
 20
-618.970023545392
 30
0.0
 11
700.8496031352018
 21
-368.9700235454003
 31
0.0
  0
LINE
  5
2EC
330
1F
100
AcDbEntity
  8
0-0
  6
JWW_DASHED1
 62
   120
370
     5
100
AcDbLine
 10
237.1654694164243
 20
-825.5830894523111
 30
0.0
 11
360.8496031352109
 21
-701.8989557335245
 31
0.0
  0
LINE
  5
2ED
330
1F
100
AcDbEntity
  8
0-0
  6
JWW_DASHED1
 62
   120
370
     5
100
AcDbLine
 10
450.8496031352041
 20
-611.8989557335331
 30
0.0
 11
700.8496031352087
 21
-361.8989557335285
 31
0.0
  0
LINE
  5
2EE
330
1F
100
AcDbEntity
  8
0-0
  6
JWW_DASHED1
 62
   120
370
     5
100
AcDbLine
 10
230.0944016045543
 20
-825.5830894523135
 30
0.0
 11
360.8496031352041
 21
-694.8278879216638
 31
0.0
  0
LINE
  5
2EF
330
1F
100
AcDbEntity
  8
0-0
  6
JWW_DASHED1
 62
   120
370
     5
100
AcDbLine
 10
450.8496031352109
 20
-604.827887921657
 30
0.0
 11
700.8496031352018
 21
-354.8278879216678
 31
0.0
  0
LINE
  5
2F0
330
1F
100
AcDbEntity
  8
0-0
  6
JWW_DASHED1
 62
   120
370
     5
100
AcDbLine
 10
223.0233337926944
 20
-825.5830894523077
 30
0.0
 11
360.8496031352007
 21
-687.7568201098014
 31
0.0
  0
LINE
  5
2F1
330
1F
100
AcDbEntity
  8
0-0
  6
JWW_DASHED1
 62
   120
370
     5
100
AcDbLine
 10
450.8496031352075
 20
-597.7568201097937
 30
0.0
 11
700.8496031351984
 21
-347.7568201098024
 31
0.0
  0
LINE
  5
2F2
330
1F
100
AcDbEntity
  8
0-0
  6
JWW_DASHED1
 62
   120
370
     5
100
AcDbLine
 10
215.9522659808243
 20
-825.5830894523094
 30
0.0
 11
360.8496031352109
 21
-680.6857522979245
 31
0.0
  0
LINE
  5
2F3
330
1F
100
AcDbEntity
  8
0-0
  6
JWW_DASHED1
 62
   120
370
     5
100
AcDbLine
 10
450.8496031352041
 20
-590.685752297933
 30
0.0
 11
700.8496031352087
 21
-340.6857522979259
 31
0.0
  0
LINE
  5
2F4
330
1F
100
AcDbEntity
  8
0-0
  6
JWW_DASHED1
 62
   120
370
     5
100
AcDbLine
 10
208.8811981689508
 20
-825.5830894523186
 30
0.0
 11
360.8496031352178
 21
-673.6146844860493
 31
0.0
  0
LINE
  5
2F5
330
1F
100
AcDbEntity
  8
0-0
  6
JWW_DASHED1
 62
   120
370
     5
100
AcDbLine
 10
450.8496031352109
 20
-583.6146844860586
 30
0.0
 11
700.8496031351984
 21
-333.6146844860695
 31
0.0
  0
LINE
  5
2F6
330
1F
100
AcDbEntity
  8
0-0
  6
JWW_DASHED1
 62
   120
370
     5
100
AcDbLine
 10
201.8101303570944
 20
-825.5830894523073
 30
0.0
 11
360.8496031351973
 21
-666.5436166742031
 31
0.0
  0
LINE
  5
2F7
330
1F
100
AcDbEntity
  8
0-0
  6
JWW_DASHED1
 62
   120
370
     5
100
AcDbLine
 10
450.8496031352041
 20
-576.5436166741954
 30
0.0
 11
700.8496031351984
 21
-326.5436166742037
 31
0.0
  0
LINE
  5
2F8
330
1F
100
AcDbEntity
  8
0-0
  6
JWW_DASHED1
 62
   120
370
     5
100
AcDbLine
 10
194.7390625452175
 20
-825.5830894523169
 30
0.0
 11
360.8496031352109
 21
-659.4725488623262
 31
0.0
  0
LINE
  5
2F9
330
1F
100
AcDbEntity
  8
0-0
  6
JWW_DASHED1
 62
   120
370
     5
100
AcDbLine
 10
450.8496031352007
 20
-569.4725488623347
 30
0.0
 11
700.8496031352087
 21
-319.4725488623276
 31
0.0
  0
LINE
  5
2FA
330
1F
100
AcDbEntity
  8
0-0
  6
JWW_DASHED1
 62
   120
370
     5
100
AcDbLine
 10
187.6679947333508
 20
-825.5830894523162
 30
0.0
 11
360.8496031352178
 21
-652.4014810504515
 31
0.0
  0
LINE
  5
2FB
330
1F
100
AcDbEntity
  8
0-0
  6
JWW_DASHED1
 62
   120
370
     5
100
AcDbLine
 10
450.8496031352075
 20
-562.4014810504603
 30
0.0
 11
700.8496031351984
 21
-312.4014810504712
 31
0.0
  0
LINE
  5
2FC
330
1F
100
AcDbEntity
  8
0-0
  6
JWW_DASHED1
 62
   120
370
     5
100
AcDbLine
 10
180.5969269214978
 20
-825.583089452306
 30
0.0
 11
360.8496031351973
 21
-645.3304132386048
 31
0.0
  0
LINE
  5
2FD
330
1F
100
AcDbEntity
  8
0-0
  6
JWW_DASHED1
 62
   120
370
     5
100
AcDbLine
 10
450.8496031352041
 20
-555.3304132385971
 30
0.0
 11
700.849603135195
 21
-305.3304132386054
 31
0.0
  0
LINE
  5
2FE
330
1F
100
AcDbEntity
  8
0-0
  6
JWW_DASHED1
 62
   120
370
     5
100
AcDbLine
 10
173.5258591096175
 20
-825.5830894523162
 30
0.0
 11
360.8496031352075
 21
-638.2593454267279
 31
0.0
  0
LINE
  5
2FF
330
1F
100
AcDbEntity
  8
0-0
  6
JWW_DASHED1
 62
   120
370
     5
100
AcDbLine
 10
450.8496031351973
 20
-548.2593454267364
 30
0.0
 11
700.8496031352053
 21
-298.2593454267293
 31
0.0
  0
LINE
  5
300
330
1F
100
AcDbEntity
  8
0-0
  6
JWW_DASHED1
 62
   120
370
     5
100
AcDbLine
 10
166.4547912977542
 20
-825.5830894523141
 30
0.0
 11
360.8496031352144
 21
-631.1882776148532
 31
0.0
  0
LINE
  5
301
330
1F
100
AcDbEntity
  8
0-0
  6
JWW_DASHED1
 62
   120
370
     5
100
AcDbLine
 10
450.8496031352041
 20
-541.188277614862
 30
0.0
 11
700.8496031352121
 21
-291.1882776148576
 31
0.0
  0
LINE
  5
302
330
1F
100
AcDbEntity
  8
0-0
  6
JWW_DASHED1
 62
   120
370
     5
100
AcDbLine
 10
159.3837234858978
 20
-825.583089452305
 30
0.0
 11
360.8496031351973
 21
-624.1172098030065
 31
0.0
  0
LINE
  5
303
330
1F
100
AcDbEntity
  8
0-0
  6
JWW_DASHED1
 62
   120
370
     5
100
AcDbLine
 10
450.8496031352041
 20
-534.1172098029988
 30
0.0
 11
700.849603135195
 21
-284.1172098030075
 31
0.0
  0
LINE
  5
304
330
1F
100
AcDbEntity
  8
0-0
  6
JWW_DASHED1
 62
   120
370
     5
100
AcDbLine
 10
152.3126556740175
 20
-825.5830894523152
 30
0.0
 11
360.8496031352041
 21
-617.0461419911296
 31
0.0
  0
LINE
  5
305
330
1F
100
AcDbEntity
  8
0-0
  6
JWW_DASHED1
 62
   120
370
     5
100
AcDbLine
 10
450.8496031352109
 20
-527.0461419911223
 30
0.0
 11
700.8496031352053
 21
-277.046141991131
 31
0.0
  0
LINE
  5
306
330
1F
100
AcDbEntity
  8
0-0
  6
JWW_DASHED1
 62
   120
370
     5
100
AcDbLine
 10
145.2415878621576
 20
-825.5830894523118
 30
0.0
 11
360.8496031352144
 21
-609.9750741792552
 31
0.0
  0
LINE
  5
307
330
1F
100
AcDbEntity
  8
0-0
  6
JWW_DASHED1
 62
   120
370
     5
100
AcDbLine
 10
450.8496031352041
 20
-519.9750741792647
 30
0.0
 11
700.8496031352087
 21
-269.9750741792593
 31
0.0
  0
LINE
  5
308
330
1F
100
AcDbEntity
  8
0-0
  6
JWW_DASHED1
 62
   120
370
     5
100
AcDbLine
 10
138.1705200502978
 20
-825.5830894523043
 30
0.0
 11
360.8496031351939
 21
-602.9040063674082
 31
0.0
  0
LINE
  5
309
330
1F
100
AcDbEntity
  8
0-0
  6
JWW_DASHED1
 62
   120
370
     5
100
AcDbLine
 10
450.8496031352007
 20
-512.9040063674005
 30
0.0
 11
700.8496031351916
 21
-262.9040063674096
 31
0.0
  0
LINE
  5
30A
330
1F
100
AcDbEntity
  8
0-0
  6
JWW_DASHED1
 62
   120
370
     5
100
AcDbLine
 10
131.0994522384209
 20
-825.5830894523145
 30
0.0
 11
360.8496031352041
 21
-595.8329385555318
 31
0.0
  0
LINE
  5
30B
330
1F
100
AcDbEntity
  8
0-0
  6
JWW_DASHED1
 62
   120
370
     5
100
AcDbLine
 10
450.8496031352109
 20
-505.832938555524
 30
0.0
 11
700.8496031352018
 21
-255.8329385555327
 31
0.0
  0
LINE
  5
30C
330
1F
100
AcDbEntity
  8
0-0
  6
JWW_DASHED1
 62
   120
370
     5
100
AcDbLine
 10
124.0283844265576
 20
-825.5830894523094
 30
0.0
 11
360.8496031352109
 21
-588.7618707436569
 31
0.0
  0
LINE
  5
30D
330
1F
100
AcDbEntity
  8
0-0
  6
JWW_DASHED1
 62
   120
370
     5
100
AcDbLine
 10
450.8496031352041
 20
-498.7618707436663
 30
0.0
 11
700.8496031352087
 21
-248.7618707436609
 31
0.0
  0
LINE
  5
30E
330
1F
100
AcDbEntity
  8
0-0
  6
JWW_DASHED1
 62
   120
370
     5
100
AcDbLine
 10
116.9573166146841
 20
-825.5830894523186
 30
0.0
 11
360.8496031352041
 21
-581.6908029317963
 31
0.0
  0
LINE
  5
30F
330
1F
100
AcDbEntity
  8
0-0
  6
JWW_DASHED1
 62
   120
370
     5
100
AcDbLine
 10
450.8496031352109
 20
-491.6908029317894
 30
0.0
 11
700.8496031352018
 21
-241.6908029318006
 31
0.0
  0
LINE
  5
310
330
1F
100
AcDbEntity
  8
0-0
  6
JWW_DASHED1
 62
   120
370
     5
100
AcDbLine
 10
110.8496031352098
 20
-824.6197351199244
 30
0.0
 11
360.8496031352041
 21
-574.619735119933
 31
0.0
  0
LINE
  5
311
330
1F
100
AcDbEntity
  8
0-0
  6
JWW_DASHED1
 62
   120
370
     5
100
AcDbLine
 10
450.8496031352109
 20
-484.6197351199257
 30
0.0
 11
700.8496031352018
 21
-234.6197351199344
 31
0.0
  0
LINE
  5
312
330
1F
100
AcDbEntity
  8
0-0
  6
JWW_DASHED1
 62
   120
370
     5
100
AcDbLine
 10
110.8496031352064
 20
-817.548667308063
 30
0.0
 11
360.8496031352109
 21
-567.5486673080569
 31
0.0
  0
LINE
  5
313
330
1F
100
AcDbEntity
  8
0-0
  6
JWW_DASHED1
 62
   120
370
     5
100
AcDbLine
 10
450.8496031352041
 20
-477.548667308065
 30
0.0
 11
700.8496031352121
 21
-227.5486673080575
 31
0.0
  0
LINE
  5
314
330
1F
100
AcDbEntity
  8
0-0
  6
JWW_DASHED1
 62
   120
370
     5
100
AcDbLine
 10
110.8496031352132
 20
-810.4775994961872
 30
0.0
 11
360.8496031352041
 21
-560.4775994961984
 31
0.0
  0
LINE
  5
315
330
1F
100
AcDbEntity
  8
0-0
  6
JWW_DASHED1
 62
   120
370
     5
100
AcDbLine
 10
450.8496031352109
 20
-470.4775994961915
 30
0.0
 11
700.8496031351984
 21
-220.4775994962028
 31
0.0
  0
LINE
  5
316
330
1F
100
AcDbEntity
  8
0-0
  6
JWW_DASHED1
 62
   120
370
     5
100
AcDbLine
 10
110.8496031352098
 20
-803.4065316843263
 30
0.0
 11
360.8496031352007
 21
-553.4065316843347
 31
0.0
  0
LINE
  5
317
330
1F
100
AcDbEntity
  8
0-0
  6
JWW_DASHED1
 62
   120
370
     5
100
AcDbLine
 10
450.8496031352075
 20
-463.4065316843279
 30
0.0
 11
700.8496031351984
 21
-213.4065316843361
 31
0.0
  0
LINE
  5
318
330
1F
100
AcDbEntity
  8
0-0
  6
JWW_DASHED1
 62
   120
370
     5
100
AcDbLine
 10
110.84960313522
 20
-796.3354638724494
 30
0.0
 11
360.8496031352109
 21
-546.3354638724586
 31
0.0
  0
LINE
  5
319
330
1F
100
AcDbEntity
  8
0-0
  6
JWW_DASHED1
 62
   120
370
     5
100
AcDbLine
 10
450.8496031352041
 20
-456.3354638724663
 30
0.0
 11
700.8496031352087
 21
-206.3354638724592
 31
0.0
  0
LINE
  5
31A
330
1F
100
AcDbEntity
  8
0-0
  6
JWW_DASHED1
 62
   120
370
     5
100
AcDbLine
 10
110.8496031352132
 20
-789.2643960605889
 30
0.0
 11
360.8496031352178
 21
-539.2643960605843
 31
0.0
  0
LINE
  5
31B
330
1F
100
AcDbEntity
  8
0-0
  6
JWW_DASHED1
 62
   120
370
     5
100
AcDbLine
 10
450.8496031352075
 20
-449.2643960605937
 30
0.0
 11
700.8496031351984
 21
-199.2643960606045
 31
0.0
  0
LINE
  5
31C
330
1F
100
AcDbEntity
  8
0-0
  6
JWW_DASHED1
 62
   120
370
     5
100
AcDbLine
 10
110.8496031352064
 20
-782.193328248728
 30
0.0
 11
360.8496031351973
 21
-532.1933282487364
 31
0.0
  0
LINE
  5
31D
330
1F
100
AcDbEntity
  8
0-0
  6
JWW_DASHED1
 62
   120
370
     5
100
AcDbLine
 10
450.8496031352041
 20
-442.1933282487291
 30
0.0
 11
700.8496031351984
 21
-192.1933282487378
 31
0.0
  0
LINE
  5
31E
330
1F
100
AcDbEntity
  8
0-0
  6
JWW_DASHED1
 62
   120
370
     5
100
AcDbLine
 10
110.8496031352166
 20
-775.1222604368511
 30
0.0
 11
360.8496031352075
 21
-525.12226043686
 31
0.0
  0
LINE
  5
31F
330
1F
100
AcDbEntity
  8
0-0
  6
JWW_DASHED1
 62
   120
370
     5
100
AcDbLine
 10
450.8496031352007
 20
-435.122260436868
 30
0.0
 11
700.8496031352087
 21
-185.1222604368609
 31
0.0
  0
LINE
  5
320
330
1F
100
AcDbEntity
  8
0-0
  6
JWW_DASHED1
 62
   120
370
     5
100
AcDbLine
 10
110.8496031352132
 20
-768.0511926249906
 30
0.0
 11
360.8496031352178
 21
-518.051192624986
 31
0.0
  0
LINE
  5
321
330
1F
100
AcDbEntity
  8
0-0
  6
JWW_DASHED1
 62
   120
370
     5
100
AcDbLine
 10
450.8496031352075
 20
-428.0511926249954
 30
0.0
 11
700.849603135195
 21
-178.0511926250062
 31
0.0
  0
LINE
  5
322
330
1F
100
AcDbEntity
  8
0-0
  6
JWW_DASHED1
 62
   120
370
     5
100
AcDbLine
 10
110.8496031352064
 20
-760.9801248131295
 30
0.0
 11
360.8496031351973
 21
-510.9801248131385
 31
0.0
  0
LINE
  5
323
330
1F
100
AcDbEntity
  8
0-0
  6
JWW_DASHED1
 62
   120
370
     5
100
AcDbLine
 10
450.8496031352041
 20
-420.9801248131308
 30
0.0
 11
700.849603135195
 21
-170.9801248131395
 31
0.0
  0
LINE
  5
324
330
1F
100
AcDbEntity
  8
0-0
  6
JWW_DASHED1
 62
   120
370
     5
100
AcDbLine
 10
110.8496031352166
 20
-753.9090570012529
 30
0.0
 11
360.8496031352075
 21
-503.9090570012621
 31
0.0
  0
LINE
  5
325
330
1F
100
AcDbEntity
  8
0-0
  6
JWW_DASHED1
 62
   120
370
     5
100
AcDbLine
 10
450.8496031352144
 20
-413.9090570012544
 30
0.0
 11
700.8496031352053
 21
-163.9090570012626
 31
0.0
  0
LINE
  5
326
330
1F
100
AcDbEntity
  8
0-0
  6
JWW_DASHED1
 62
   120
370
     5
100
AcDbLine
 10
110.8496031352098
 20
-746.8379891893927
 30
0.0
 11
360.8496031352144
 21
-496.8379891893881
 31
0.0
  0
LINE
  5
327
330
1F
100
AcDbEntity
  8
0-0
  6
JWW_DASHED1
 62
   120
370
     5
100
AcDbLine
 10
450.8496031352041
 20
-406.8379891893971
 30
0.0
 11
700.8496031352087
 21
-156.8379891893925
 31
0.0
  0
LINE
  5
328
330
1F
100
AcDbEntity
  8
0-0
  6
JWW_DASHED1
 62
   120
370
     5
100
AcDbLine
 10
110.8496031352132
 20
-739.766921377575
 30
0.0
 11
360.8496031352041
 21
-489.7669213775862
 31
0.0
  0
LINE
  5
329
330
1F
100
AcDbEntity
  8
0-0
  6
JWW_DASHED1
 62
   120
370
     5
100
AcDbLine
 10
450.8496031352109
 20
-399.7669213775799
 30
0.0
 11
700.8496031351984
 21
-149.7669213775907
 31
0.0
  0
LINE
  5
32A
330
1F
100
AcDbEntity
  8
0-0
  6
JWW_DASHED1
 62
   120
370
     5
100
AcDbLine
 10
110.8496031352098
 20
-732.6958535657135
 30
0.0
 11
360.8496031352007
 21
-482.6958535657221
 31
0.0
  0
LINE
  5
32B
330
1F
100
AcDbEntity
  8
0-0
  6
JWW_DASHED1
 62
   120
370
     5
100
AcDbLine
 10
450.8496031352075
 20
-392.6958535657149
 30
0.0
 11
700.8496031351984
 21
-142.6958535657236
 31
0.0
  0
LINE
  5
32C
330
1F
100
AcDbEntity
  8
0-0
  6
JWW_DASHED1
 62
   120
370
     5
100
AcDbLine
 10
110.84960313522
 20
-725.6247857538366
 30
0.0
 11
360.8496031352109
 21
-475.6247857538457
 31
0.0
  0
LINE
  5
32D
330
1F
100
AcDbEntity
  8
0-0
  6
JWW_DASHED1
 62
   120
370
     5
100
AcDbLine
 10
450.8496031352041
 20
-385.6247857538542
 30
0.0
 11
700.8496031352087
 21
-135.6247857538467
 31
0.0
  0
LINE
  5
32E
330
1F
100
AcDbEntity
  8
0-0
  6
JWW_DASHED1
 62
   120
370
     5
100
AcDbLine
 10
110.8496031352132
 20
-718.5537179419767
 30
0.0
 11
360.8496031352178
 21
-468.5537179419722
 31
0.0
  0
LINE
  5
32F
330
1F
100
AcDbEntity
  8
0-0
  6
JWW_DASHED1
 62
   120
370
     5
100
AcDbLine
 10
450.8496031352075
 20
-378.5537179419816
 30
0.0
 11
700.8496031351984
 21
-128.5537179419924
 31
0.0
  0
LINE
  5
330
330
1F
100
AcDbEntity
  8
0-0
  6
JWW_DASHED1
 62
   120
370
     5
100
AcDbLine
 10
110.8496031352064
 20
-711.4826501301152
 30
0.0
 11
360.8496031351973
 21
-461.4826501301243
 31
0.0
  0
LINE
  5
331
330
1F
100
AcDbEntity
  8
0-0
  6
JWW_DASHED1
 62
   120
370
     5
100
AcDbLine
 10
450.8496031352075
 20
-371.4826501301166
 30
0.0
 11
700.8496031351984
 21
-121.4826501301248
 31
0.0
  0
LINE
  5
332
330
1F
100
AcDbEntity
  8
0-0
  6
JWW_DASHED1
 62
   120
370
     5
100
AcDbLine
 10
110.84960313522
 20
-704.4115823182383
 30
0.0
 11
360.8496031352109
 21
-454.4115823182474
 31
0.0
  0
LINE
  5
333
330
1F
100
AcDbEntity
  8
0-0
  6
JWW_DASHED1
 62
   120
370
     5
100
AcDbLine
 10
450.8496031352007
 20
-364.4115823182559
 30
0.0
 11
700.8496031352087
 21
-114.4115823182484
 31
0.0
  0
LINE
  5
334
330
1F
100
AcDbEntity
  8
0-0
  6
JWW_DASHED1
 62
   120
370
     5
100
AcDbLine
 10
110.8496031352098
 20
-697.3405145063789
 30
0.0
 11
360.8496031352144
 21
-447.3405145063747
 31
0.0
  0
LINE
  5
335
330
1F
100
AcDbEntity
  8
0-0
  6
JWW_DASHED1
 62
   120
370
     5
100
AcDbLine
 10
450.8496031352041
 20
-357.3405145063837
 30
0.0
 11
700.849603135195
 21
-107.3405145063941
 31
0.0
  0
LINE
  5
336
330
1F
100
AcDbEntity
  8
0-0
  6
JWW_DASHED1
 62
   120
370
     5
100
AcDbLine
 10
110.8496031352064
 20
-690.2694466945169
 30
0.0
 11
360.8496031351973
 21
-440.269446694526
 31
0.0
  0
LINE
  5
337
330
1F
100
AcDbEntity
  8
0-0
  6
JWW_DASHED1
 62
   120
370
     5
100
AcDbLine
 10
450.8496031352041
 20
-350.2694466945183
 30
0.0
 11
700.849603135195
 21
-100.269446694527
 31
0.0
  0
LINE
  5
338
330
1F
100
AcDbEntity
  8
0-0
  6
JWW_DASHED1
 62
   120
370
     5
100
AcDbLine
 10
110.8496031352166
 20
-683.19837888264
 30
0.0
 11
360.8496031352075
 21
-433.1983788826491
 31
0.0
  0
LINE
  5
339
330
1F
100
AcDbEntity
  8
0-0
  6
JWW_DASHED1
 62
   120
370
     5
100
AcDbLine
 10
450.8496031352144
 20
-343.1983788826414
 30
0.0
 11
700.8496031352053
 21
-93.19837888265006
 31
0.0
  0
LINE
  5
33A
330
1F
100
AcDbEntity
  8
0-0
  6
JWW_DASHED1
 62
   120
370
     5
100
AcDbLine
 10
110.8496031352098
 20
-676.1273110707809
 30
0.0
 11
360.8496031352144
 21
-426.1273110707764
 31
0.0
  0
LINE
  5
33B
330
1F
100
AcDbEntity
  8
0-0
  6
JWW_DASHED1
 62
   120
370
     5
100
AcDbLine
 10
450.8496031352041
 20
-336.1273110707854
 30
0.0
 11
700.8496031352087
 21
-86.12731107078041
 31
0.0
  0
LINE
  5
33C
330
1F
100
AcDbEntity
  8
0-0
  6
JWW_DASHED1
 62
   120
370
     5
100
AcDbLine
 10
110.8496031352064
 20
-669.0562432589186
 30
0.0
 11
360.8496031351973
 21
-419.0562432589277
 31
0.0
  0
LINE
  5
33D
330
1F
100
AcDbEntity
  8
0-0
  6
JWW_DASHED1
 62
   120
370
     5
100
AcDbLine
 10
450.8496031352041
 20
-329.05624325892
 30
0.0
 11
700.849603135195
 21
-79.05624325892866
 31
0.0
  0
LINE
  5
33E
330
1F
100
AcDbEntity
  8
0-0
  6
JWW_DASHED1
 62
   120
370
     5
100
AcDbLine
 10
110.8496031352132
 20
-661.9851754470421
 30
0.0
 11
360.8496031352041
 21
-411.9851754470508
 31
0.0
  0
LINE
  5
33F
330
1F
100
AcDbEntity
  8
0-0
  6
JWW_DASHED1
 62
   120
370
     5
100
AcDbLine
 10
450.8496031352109
 20
-321.9851754470435
 30
0.0
 11
700.8496031352053
 21
-71.98517544705219
 31
0.0
  0
LINE
  5
340
330
1F
100
AcDbEntity
  8
0-0
  6
JWW_DASHED1
 62
   120
370
     5
100
AcDbLine
 10
110.8496031352064
 20
-654.9141076351826
 30
0.0
 11
360.8496031352109
 21
-404.9141076351781
 31
0.0
  0
LINE
  5
341
330
1F
100
AcDbEntity
  8
0-0
  6
JWW_DASHED1
 62
   120
370
     5
100
AcDbLine
 10
450.8496031352041
 20
-314.9141076351875
 30
0.0
 11
700.8496031352087
 21
-64.9141076351821
 31
0.0
  0
LINE
  5
342
330
1F
100
AcDbEntity
  8
0-0
  6
JWW_DASHED1
 62
   120
370
     5
100
AcDbLine
 10
110.849603135203
 20
-647.8430398233203
 30
0.0
 11
360.8496031351939
 21
-397.8430398233294
 31
0.0
  0
LINE
  5
343
330
1F
100
AcDbEntity
  8
0-0
  6
JWW_DASHED1
 62
   120
370
     5
100
AcDbLine
 10
450.8496031352007
 20
-307.8430398233217
 30
0.0
 11
700.8496031351916
 21
-57.84303982333036
 31
0.0
  0
LINE
  5
344
330
1F
100
AcDbEntity
  8
0-0
  6
JWW_DASHED1
 62
   120
370
     5
100
AcDbLine
 10
110.8496031352132
 20
-640.7719720114438
 30
0.0
 11
360.8496031352041
 21
-390.7719720114525
 31
0.0
  0
LINE
  5
345
330
1F
100
AcDbEntity
  8
0-0
  6
JWW_DASHED1
 62
   120
370
     5
100
AcDbLine
 10
450.8496031352109
 20
-300.7719720114448
 30
0.0
 11
700.8496031352018
 21
-50.77197201145346
 31
0.0
  0
LINE
  5
346
330
1F
100
AcDbEntity
  8
0-0
  6
JWW_DASHED1
 62
   120
370
     5
100
AcDbLine
 10
110.8496031352064
 20
-633.7009041995843
 30
0.0
 11
360.8496031352109
 21
-383.7009041995798
 31
0.0
  0
LINE
  5
347
330
1F
100
AcDbEntity
  8
0-0
  6
JWW_DASHED1
 62
   120
370
     5
100
AcDbLine
 10
450.8496031352007
 20
-293.7009041995892
 30
0.0
 11
700.8496031352053
 21
-43.70090419958423
 31
0.0
  0
LINE
  5
348
330
1F
100
AcDbEntity
  8
0-0
  6
JWW_DASHED1
 62
   120
370
     5
100
AcDbLine
 10
110.8496031352132
 20
-626.6298363877079
 30
0.0
 11
360.8496031352041
 21
-376.6298363877191
 31
0.0
  0
LINE
  5
349
330
1F
100
AcDbEntity
  8
0-0
  6
JWW_DASHED1
 62
   120
370
     5
100
AcDbLine
 10
450.8496031352109
 20
-286.6298363877123
 30
0.0
 11
700.8496031351984
 21
-36.62983638772353
 31
0.0
  0
LINE
  5
34A
330
1F
100
AcDbEntity
  8
0-0
  6
JWW_DASHED1
 62
   120
370
     5
100
AcDbLine
 10
110.8496031352132
 20
-619.5587685758451
 30
0.0
 11
360.8496031352041
 21
-369.5587685758542
 31
0.0
  0
LINE
  5
34B
330
1F
100
AcDbEntity
  8
0-0
  6
JWW_DASHED1
 62
   120
370
     5
100
AcDbLine
 10
450.8496031352109
 20
-279.5587685758465
 30
0.0
 11
700.8496031352018
 21
-29.55876857585515
 31
0.0
  0
LINE
  5
34C
330
1F
100
AcDbEntity
  8
0-0
  6
JWW_DASHED1
 62
   120
370
     5
100
AcDbLine
 10
110.8496031352064
 20
-612.4877007639843
 30
0.0
 11
360.8496031352109
 21
-362.4877007639773
 31
0.0
  0
LINE
  5
34D
330
1F
100
AcDbEntity
  8
0-0
  6
JWW_DASHED1
 62
   120
370
     5
100
AcDbLine
 10
450.8496031352041
 20
-272.4877007639858
 30
0.0
 11
700.8496031352121
 21
-22.48770076397868
 31
0.0
  0
LINE
  5
34E
330
1F
100
AcDbEntity
  8
0-0
  6
JWW_DASHED1
 62
   120
370
     5
100
AcDbLine
 10
110.8496031352132
 20
-605.41663295211
 30
0.0
 11
360.8496031352178
 21
-355.4166329521055
 31
0.0
  0
LINE
  5
34F
330
1F
100
AcDbEntity
  8
0-0
  6
JWW_DASHED1
 62
   120
370
     5
100
AcDbLine
 10
450.8496031352075
 20
-265.4166329521149
 30
0.0
 11
700.8496031351984
 21
-15.41663295212523
 31
0.0
  0
LINE
  5
350
330
1F
100
AcDbEntity
  8
0-0
  6
JWW_DASHED1
 62
   120
370
     5
100
AcDbLine
 10
110.8496031352098
 20
-598.3455651402472
 30
0.0
 11
360.8496031352007
 21
-348.3455651402559
 31
0.0
  0
LINE
  5
351
330
1F
100
AcDbEntity
  8
0-0
  6
JWW_DASHED1
 62
   120
370
     5
100
AcDbLine
 10
450.8496031352075
 20
-258.3455651402486
 30
0.0
 11
700.8496031351984
 21
-8.345565140256852
 31
0.0
  0
LINE
  5
352
330
1F
100
AcDbEntity
  8
0-0
  6
JWW_DASHED1
 62
   120
370
     5
100
AcDbLine
 10
110.84960313522
 20
-591.2744973283703
 30
0.0
 11
360.8496031352109
 21
-341.2744973283794
 31
0.0
  0
LINE
  5
353
330
1F
100
AcDbEntity
  8
0-0
  6
JWW_DASHED1
 62
   120
370
     5
100
AcDbLine
 10
450.8496031352041
 20
-251.2744973283875
 30
0.0
 11
700.8496031352087
 21
-1.274497328380377
 31
0.0
  0
LINE
  5
354
330
1F
100
AcDbEntity
  8
0-0
  6
JWW_DASHED1
 62
   120
370
     5
100
AcDbLine
 10
110.8496031352098
 20
-584.2034295165122
 30
0.0
 11
360.8496031352178
 21
-334.2034295165072
 31
0.0
  0
LINE
  5
355
330
1F
100
AcDbEntity
  8
0-0
  6
JWW_DASHED1
 62
   120
370
     5
100
AcDbLine
 10
450.8496031352075
 20
-244.2034295165166
 30
0.0
 11
700.849603135195
 21
5.796570483472649
 31
0.0
  0
LINE
  5
356
330
1F
100
AcDbEntity
  8
0-0
  6
JWW_DASHED1
 62
   120
370
     5
100
AcDbLine
 10
110.8496031352064
 20
-577.1323617046485
 30
0.0
 11
360.8496031351973
 21
-327.1323617046576
 31
0.0
  0
LINE
  5
357
330
1F
100
AcDbEntity
  8
0-0
  6
JWW_DASHED1
 62
   120
370
     5
100
AcDbLine
 10
450.8496031352041
 20
-237.1323617046503
 30
0.0
 11
700.8496031351984
 21
12.86763829534102
 31
0.0
  0
LINE
  5
358
330
1F
100
AcDbEntity
  8
0-0
  6
JWW_DASHED1
 62
   120
370
     5
100
AcDbLine
 10
110.8496031352166
 20
-570.0612938927724
 30
0.0
 11
360.8496031352109
 21
-320.0612938927807
 31
0.0
  0
LINE
  5
359
330
1F
100
AcDbEntity
  8
0-0
  6
JWW_DASHED1
 62
   120
370
     5
100
AcDbLine
 10
450.8496031352007
 20
-230.0612938927896
 30
0.0
 11
700.8496031352087
 21
19.93870610721793
 31
0.0
  0
LINE
  5
35A
330
1F
100
AcDbEntity
  8
0-0
  6
JWW_DASHED1
 62
   120
370
     5
100
AcDbLine
 10
110.8496031352098
 20
-562.9902260809139
 30
0.0
 11
360.8496031352144
 21
-312.9902260809089
 31
0.0
  0
LINE
  5
35B
330
1F
100
AcDbEntity
  8
0-0
  6
JWW_DASHED1
 62
   120
370
     5
100
AcDbLine
 10
450.8496031352041
 20
-222.9902260809183
 30
0.0
 11
700.8496031352087
 21
27.00977391908673
 31
0.0
  0
LINE
  5
35C
330
1F
100
AcDbEntity
  8
0-0
  6
JWW_DASHED1
 62
   120
370
     5
100
AcDbLine
 10
110.8496031352064
 20
-555.9191582690502
 30
0.0
 11
360.8496031351973
 21
-305.9191582690593
 31
0.0
  0
LINE
  5
35D
330
1F
100
AcDbEntity
  8
0-0
  6
JWW_DASHED1
 62
   120
370
     5
100
AcDbLine
 10
450.8496031352041
 20
-215.919158269052
 30
0.0
 11
700.849603135195
 21
34.08084173093975
 31
0.0
  0
LINE
  5
35E
330
1F
100
AcDbEntity
  8
0-0
  6
JWW_DASHED1
 62
   120
370
     5
100
AcDbLine
 10
110.8496031352166
 20
-548.8480904571737
 30
0.0
 11
360.8496031352075
 21
-298.8480904571828
 31
0.0
  0
LINE
  5
35F
330
1F
100
AcDbEntity
  8
0-0
  6
JWW_DASHED1
 62
   120
370
     5
100
AcDbLine
 10
450.8496031352144
 20
-208.8480904571755
 30
0.0
 11
700.8496031352053
 21
41.15190954281623
 31
0.0
  0
LINE
  5
360
330
1F
100
AcDbEntity
  8
0-0
  6
JWW_DASHED1
 62
   120
370
     5
100
AcDbLine
 10
110.8496031352064
 20
-541.7770226453156
 30
0.0
 11
360.8496031352109
 21
-291.7770226453114
 31
0.0
  0
LINE
  5
361
330
1F
100
AcDbEntity
  8
0-0
  6
JWW_DASHED1
 62
   120
370
     5
100
AcDbLine
 10
450.8496031352041
 20
-201.7770226453204
 30
0.0
 11
700.8496031352087
 21
48.2229773546846
 31
0.0
  0
LINE
  5
362
330
1F
100
AcDbEntity
  8
0-0
  6
JWW_DASHED1
 62
   120
370
     5
100
AcDbLine
 10
110.849603135203
 20
-534.7059548334519
 30
0.0
 11
360.8496031351973
 21
-284.705954833461
 31
0.0
  0
LINE
  5
363
330
1F
100
AcDbEntity
  8
0-0
  6
JWW_DASHED1
 62
   120
370
     5
100
AcDbLine
 10
450.8496031352041
 20
-194.7059548334533
 30
0.0
 11
700.849603135195
 21
55.29404516653806
 31
0.0
  0
LINE
  5
364
330
1F
100
AcDbEntity
  8
0-0
  6
JWW_DASHED1
 62
   120
370
     5
100
AcDbLine
 10
110.8496031352132
 20
-527.6348870215754
 30
0.0
 11
360.8496031352041
 21
-277.6348870215841
 31
0.0
  0
LINE
  5
365
330
1F
100
AcDbEntity
  8
0-0
  6
JWW_DASHED1
 62
   120
370
     5
100
AcDbLine
 10
450.8496031352109
 20
-187.6348870215772
 30
0.0
 11
700.8496031352053
 21
62.36511297841453
 31
0.0
  0
LINE
  5
366
330
1F
100
AcDbEntity
  8
0-0
  6
JWW_DASHED1
 62
   120
370
     5
100
AcDbLine
 10
110.8496031352064
 20
-520.5638192097176
 30
0.0
 11
360.8496031352109
 21
-270.5638192097131
 31
0.0
  0
LINE
  5
367
330
1F
100
AcDbEntity
  8
0-0
  6
JWW_DASHED1
 62
   120
370
     5
100
AcDbLine
 10
450.8496031352007
 20
-180.5638192097221
 30
0.0
 11
700.8496031352053
 21
69.4361807902829
 31
0.0
  0
LINE
  5
368
330
1F
100
AcDbEntity
  8
0-0
  6
JWW_DASHED1
 62
   120
370
     5
100
AcDbLine
 10
110.8496031352132
 20
-513.4927513978407
 30
0.0
 11
360.8496031352041
 21
-263.4927513978524
 31
0.0
  0
LINE
  5
369
330
1F
100
AcDbEntity
  8
0-0
  6
JWW_DASHED1
 62
   120
370
     5
100
AcDbLine
 10
450.8496031352109
 20
-173.4927513978456
 30
0.0
 11
700.8496031352018
 21
76.5072486021436
 31
0.0
  0
LINE
  5
36A
330
1F
100
AcDbEntity
  8
0-0
  6
JWW_DASHED1
 62
   120
370
     5
100
AcDbLine
 10
110.8496031352098
 20
-506.4216835860065
 30
0.0
 11
360.8496031352007
 21
-256.4216835860156
 31
0.0
  0
LINE
  5
36B
330
1F
100
AcDbEntity
  8
0-0
  6
JWW_DASHED1
 62
   120
370
     5
100
AcDbLine
 10
450.8496031352109
 20
-166.4216835860079
 30
0.0
 11
700.8496031352018
 21
83.57831641398342
 31
0.0
  0
LINE
  5
36C
330
1F
100
AcDbEntity
  8
0-0
  6
JWW_DASHED1
 62
   120
370
     5
100
AcDbLine
 10
110.84960313522
 20
-499.3506157741595
 30
0.0
 11
360.8496031352109
 21
-249.3506157741685
 31
0.0
  0
LINE
  5
36D
330
1F
100
AcDbEntity
  8
0-0
  6
JWW_DASHED1
 62
   120
370
     5
100
AcDbLine
 10
450.8496031352007
 20
-159.3506157741771
 30
0.0
 11
700.8496031352087
 21
90.64938422583047
 31
0.0
  0
LINE
  5
36E
330
1F
100
AcDbEntity
  8
0-0
  6
JWW_DASHED1
 62
   120
370
     5
100
AcDbLine
 10
110.8496031352098
 20
-492.2795479623017
 30
0.0
 11
360.8496031352144
 21
-242.2795479622972
 31
0.0
  0
LINE
  5
36F
330
1F
100
AcDbEntity
  8
0-0
  6
JWW_DASHED1
 62
   120
370
     5
100
AcDbLine
 10
450.8496031352041
 20
-152.2795479623061
 30
0.0
 11
700.8496031352087
 21
97.72045203769842
 31
0.0
  0
LINE
  5
370
330
1F
100
AcDbEntity
  8
0-0
  6
JWW_DASHED1
 62
   120
370
     5
100
AcDbLine
 10
110.8496031352064
 20
-485.208480150438
 30
0.0
 11
360.8496031351973
 21
-235.2084801504467
 31
0.0
  0
LINE
  5
371
330
1F
100
AcDbEntity
  8
0-0
  6
JWW_DASHED1
 62
   120
370
     5
100
AcDbLine
 10
450.8496031352041
 20
-145.2084801504395
 30
0.0
 11
700.849603135195
 21
104.7915198495523
 31
0.0
  0
LINE
  5
372
330
1F
100
AcDbEntity
  8
0-0
  6
JWW_DASHED1
 62
   120
370
     5
100
AcDbLine
 10
110.8496031352166
 20
-478.1374123385611
 30
0.0
 11
360.8496031352075
 21
-228.1374123385702
 31
0.0
  0
LINE
  5
373
330
1F
100
AcDbEntity
  8
0-0
  6
JWW_DASHED1
 62
   120
370
     5
100
AcDbLine
 10
450.8496031352144
 20
-138.1374123385626
 30
0.0
 11
700.8496031352087
 21
111.8625876614288
 31
0.0
  0
LINE
  5
374
330
1F
100
AcDbEntity
  8
0-0
  6
JWW_DASHED1
 62
   120
370
     5
100
AcDbLine
 10
110.8496031352064
 20
-471.0663445267039
 30
0.0
 11
360.8496031352109
 21
-221.0663445266993
 31
0.0
  0
LINE
  5
375
330
1F
100
AcDbEntity
  8
0-0
  6
JWW_DASHED1
 62
   120
370
     5
100
AcDbLine
 10
450.8496031352041
 20
-131.0663445267082
 30
0.0
 11
700.8496031352087
 21
118.9336554732967
 31
0.0
  0
LINE
  5
376
330
1F
100
AcDbEntity
  8
0-0
  6
JWW_DASHED1
 62
   120
370
     5
100
AcDbLine
 10
110.8496031352064
 20
-463.9952767148397
 30
0.0
 11
360.8496031351973
 21
-213.9952767148484
 31
0.0
  0
LINE
  5
377
330
1F
100
AcDbEntity
  8
0-0
  6
JWW_DASHED1
 62
   120
370
     5
100
AcDbLine
 10
450.8496031352041
 20
-123.9952767148412
 30
0.0
 11
700.849603135195
 21
126.0047232851506
 31
0.0
  0
LINE
  5
378
330
1F
100
AcDbEntity
  8
0-0
  6
JWW_DASHED1
 62
   120
370
     5
100
AcDbLine
 10
110.8496031352132
 20
-456.9242089029628
 30
0.0
 11
360.8496031352041
 21
-206.9242089029719
 31
0.0
  0
LINE
  5
379
330
1F
100
AcDbEntity
  8
0-0
  6
JWW_DASHED1
 62
   120
370
     5
100
AcDbLine
 10
450.8496031352109
 20
-116.9242089029643
 30
0.0
 11
700.8496031352053
 21
133.0757910970271
 31
0.0
  0
LINE
  5
37A
330
1F
100
AcDbEntity
  8
0-0
  6
JWW_DASHED1
 62
   120
370
     5
100
AcDbLine
 10
110.8496031352064
 20
-449.8531410911056
 30
0.0
 11
360.8496031352109
 21
-199.853141091101
 31
0.0
  0
LINE
  5
37B
330
1F
100
AcDbEntity
  8
0-0
  6
JWW_DASHED1
 62
   120
370
     5
100
AcDbLine
 10
450.8496031352007
 20
-109.8531410911104
 30
0.0
 11
700.8496031352053
 21
140.1468589088946
 31
0.0
  0
LINE
  5
37C
330
1F
100
AcDbEntity
  8
0-0
  6
JWW_DASHED1
 62
   120
370
     5
100
AcDbLine
 10
110.8496031352132
 20
-442.7820732792287
 30
0.0
 11
360.8496031352041
 21
-192.7820732792403
 31
0.0
  0
LINE
  5
37D
330
1F
100
AcDbEntity
  8
0-0
  6
JWW_DASHED1
 62
   120
370
     5
100
AcDbLine
 10
450.8496031352109
 20
-102.7820732792335
 30
0.0
 11
700.8496031352018
 21
147.2179267207557
 31
0.0
  0
LINE
  5
37E
330
1F
100
AcDbEntity
  8
0-0
  6
JWW_DASHED1
 62
   120
370
     5
100
AcDbLine
 10
110.8496031352132
 20
-435.7110054673645
 30
0.0
 11
360.8496031352041
 21
-185.7110054673736
 31
0.0
  0
LINE
  5
37F
330
1F
100
AcDbEntity
  8
0-0
  6
JWW_DASHED1
 62
   120
370
     5
100
AcDbLine
 10
450.8496031352109
 20
-95.71100546736595
 30
0.0
 11
700.8496031352018
 21
154.2889945326254
 31
0.0
  0
LINE
  5
380
330
1F
100
AcDbEntity
  8
0-0
  6
JWW_DASHED1
 62
   120
370
     5
100
AcDbLine
 10
110.849603135203
 20
-428.6399376555077
 30
0.0
 11
360.8496031352075
 21
-178.6399376555027
 31
0.0
  0
LINE
  5
381
330
1F
100
AcDbEntity
  8
0-0
  6
JWW_DASHED1
 62
   120
370
     5
100
AcDbLine
 10
450.8496031351973
 20
-88.63993765551207
 30
0.0
 11
700.8496031352018
 21
161.3600623444929
 31
0.0
  0
LINE
  5
382
330
1F
100
AcDbEntity
  8
0-0
  6
JWW_DASHED1
 62
   120
370
     5
100
AcDbLine
 10
110.8496031352132
 20
-421.5688698436312
 30
0.0
 11
360.8496031352041
 21
-171.568869843642
 31
0.0
  0
LINE
  5
383
330
1F
100
AcDbEntity
  8
0-0
  6
JWW_DASHED1
 62
   120
370
     5
100
AcDbLine
 10
450.8496031352109
 20
-81.56886984363517
 30
0.0
 11
700.8496031351984
 21
168.4311301563536
 31
0.0
  0
LINE
  5
384
330
1F
100
AcDbEntity
  8
0-0
  6
JWW_DASHED1
 62
   120
370
     5
100
AcDbLine
 10
110.8496031352132
 20
-414.4978020317662
 30
0.0
 11
360.8496031352041
 21
-164.4978020317753
 31
0.0
  0
LINE
  5
385
330
1F
100
AcDbEntity
  8
0-0
  6
JWW_DASHED1
 62
   120
370
     5
100
AcDbLine
 10
450.8496031352109
 20
-74.49780203176765
 30
0.0
 11
700.8496031352018
 21
175.5021979682241
 31
0.0
  0
LINE
  5
386
330
1F
100
AcDbEntity
  8
0-0
  6
JWW_DASHED1
 62
   120
370
     5
100
AcDbLine
 10
110.8496031352064
 20
-407.4267342199055
 30
0.0
 11
360.8496031352109
 21
-157.4267342198988
 31
0.0
  0
LINE
  5
387
330
1F
100
AcDbEntity
  8
0-0
  6
JWW_DASHED1
 62
   120
370
     5
100
AcDbLine
 10
450.8496031352041
 20
-67.42673421990695
 30
0.0
 11
700.8496031352121
 21
182.5732657801001
 31
0.0
  0
LINE
  5
388
330
1F
100
AcDbEntity
  8
0-0
  6
JWW_DASHED1
 62
   120
370
     5
100
AcDbLine
 10
110.8496031352132
 20
-400.3556664080329
 30
0.0
 11
360.8496031352178
 21
-150.3556664080284
 31
0.0
  0
LINE
  5
389
330
1F
100
AcDbEntity
  8
0-0
  6
JWW_DASHED1
 62
   120
370
     5
100
AcDbLine
 10
450.8496031352075
 20
-60.35566640803772
 30
0.0
 11
700.849603135195
 21
189.6443335919515
 31
0.0
  0
LINE
  5
38A
330
1F
100
AcDbEntity
  8
0-0
  6
JWW_DASHED1
 62
   120
370
     5
100
AcDbLine
 10
110.8496031352098
 20
-393.2845985961679
 30
0.0
 11
360.8496031352007
 21
-143.284598596177
 31
0.0
  0
LINE
  5
38B
330
1F
100
AcDbEntity
  8
0-0
  6
JWW_DASHED1
 62
   120
370
     5
100
AcDbLine
 10
450.8496031352075
 20
-53.28459859616935
 30
0.0
 11
700.8496031352018
 21
196.715401403822
 31
0.0
  0
LINE
  5
38C
330
1F
100
AcDbEntity
  8
0-0
  6
JWW_DASHED1
 62
   120
370
     5
100
AcDbLine
 10
110.84960313522
 20
-386.213530784291
 30
0.0
 11
360.8496031352109
 21
-136.2135307843001
 31
0.0
  0
LINE
  5
38D
330
1F
100
AcDbEntity
  8
0-0
  6
JWW_DASHED1
 62
   120
370
     5
100
AcDbLine
 10
450.8496031352041
 20
-46.21353078430865
 30
0.0
 11
700.8496031352087
 21
203.7864692156984
 31
0.0
  0
LINE
  5
38E
330
1F
100
AcDbEntity
  8
0-0
  6
JWW_DASHED1
 62
   120
370
     5
100
AcDbLine
 10
110.8496031352098
 20
-379.1424629724346
 30
0.0
 11
360.8496031352144
 21
-129.1424629724301
 31
0.0
  0
LINE
  5
38F
330
1F
100
AcDbEntity
  8
0-0
  6
JWW_DASHED1
 62
   120
370
     5
100
AcDbLine
 10
450.8496031352041
 20
-39.14246297243942
 30
0.0
 11
700.849603135195
 21
210.8575370275498
 31
0.0
  0
LINE
  5
390
330
1F
100
AcDbEntity
  8
0-0
  6
JWW_DASHED1
 62
   120
370
     5
100
AcDbLine
 10
110.8496031352064
 20
-372.0713951605696
 30
0.0
 11
360.8496031351973
 21
-122.0713951605787
 31
0.0
  0
LINE
  5
391
330
1F
100
AcDbEntity
  8
0-0
  6
JWW_DASHED1
 62
   120
370
     5
100
AcDbLine
 10
450.8496031352041
 20
-32.07139516057104
 30
0.0
 11
700.8496031351984
 21
217.9286048394203
 31
0.0
  0
LINE
  5
392
330
1F
100
AcDbEntity
  8
0-0
  6
JWW_DASHED1
 62
   120
370
     5
100
AcDbLine
 10
110.8496031352166
 20
-365.0003273486931
 30
0.0
 11
360.8496031352075
 21
-115.0003273487022
 31
0.0
  0
LINE
  5
393
330
1F
100
AcDbEntity
  8
0-0
  6
JWW_DASHED1
 62
   120
370
     5
100
AcDbLine
 10
450.8496031352007
 20
-25.00032734871034
 30
0.0
 11
700.8496031352087
 21
224.9996726512967
 31
0.0
  0
LINE
  5
394
330
1F
100
AcDbEntity
  8
0-0
  6
JWW_DASHED1
 62
   120
370
     5
100
AcDbLine
 10
110.8496031352064
 20
-357.9292595368363
 30
0.0
 11
360.8496031352109
 21
-107.9292595368322
 31
0.0
  0
LINE
  5
395
330
1F
100
AcDbEntity
  8
0-0
  6
JWW_DASHED1
 62
   120
370
     5
100
AcDbLine
 10
450.8496031352041
 20
-17.92925953684112
 30
0.0
 11
700.8496031352087
 21
232.0707404631639
 31
0.0
  0
LINE
  5
396
330
1F
100
AcDbEntity
  8
0-0
  6
JWW_DASHED1
 62
   120
370
     5
100
AcDbLine
 10
110.8496031352064
 20
-350.8581917249713
 30
0.0
 11
360.8496031351973
 21
-100.8581917249804
 31
0.0
  0
LINE
  5
397
330
1F
100
AcDbEntity
  8
0-0
  6
JWW_DASHED1
 62
   120
370
     5
100
AcDbLine
 10
450.8496031352041
 20
-10.85819172497274
 30
0.0
 11
700.849603135195
 21
239.1418082750186
 31
0.0
  0
LINE
  5
398
330
1F
100
AcDbEntity
  8
0-0
  6
JWW_DASHED1
 62
   120
370
     5
100
AcDbLine
 10
110.8496031352166
 20
-343.7871239130948
 30
0.0
 11
360.8496031352075
 21
-93.78712391310351
 31
0.0
  0
LINE
  5
399
330
1F
100
AcDbEntity
  8
0-0
  6
JWW_DASHED1
 62
   120
370
     5
100
AcDbLine
 10
450.8496031352144
 20
-3.787123913096266
 30
0.0
 11
700.8496031352053
 21
246.2128760868951
 31
0.0
  0
LINE
  5
39A
330
1F
100
AcDbEntity
  8
0-0
  6
JWW_DASHED1
 62
   120
370
     5
100
AcDbLine
 10
110.8496031352064
 20
-336.7160561012388
 30
0.0
 11
360.8496031352109
 21
-86.71605610123386
 31
0.0
  0
LINE
  5
39B
330
1F
100
AcDbEntity
  8
0-0
  6
JWW_DASHED1
 62
   120
370
     5
100
AcDbLine
 10
450.8496031352007
 20
3.283943898757187
 30
0.0
 11
700.8496031352053
 21
253.2839438987617
 31
0.0
  0
LINE
  5
39C
330
1F
100
AcDbEntity
  8
0-0
  6
JWW_DASHED1
 62
   120
370
     5
100
AcDbLine
 10
110.8496031352064
 20
-329.644988289373
 30
0.0
 11
360.8496031351973
 21
-79.64498828938211
 31
0.0
  0
LINE
  5
39D
330
1F
100
AcDbEntity
  8
0-0
  6
JWW_DASHED1
 62
   120
370
     5
100
AcDbLine
 10
450.8496031352041
 20
10.35501171062556
 30
0.0
 11
700.849603135195
 21
260.3550117106169
 31
0.0
  0
LINE
  5
39E
330
1F
100
AcDbEntity
  8
0-0
  6
JWW_DASHED1
 62
   120
370
     5
100
AcDbLine
 10
110.8496031352132
 20
-322.573920477497
 30
0.0
 11
360.8496031352041
 21
-72.57392047750521
 31
0.0
  0
LINE
  5
39F
330
1F
100
AcDbEntity
  8
0-0
  6
JWW_DASHED1
 62
   120
370
     5
100
AcDbLine
 10
450.8496031352109
 20
17.42607952250246
 30
0.0
 11
700.8496031352053
 21
267.4260795224934
 31
0.0
  0
LINE
  5
3A0
330
1F
100
AcDbEntity
  8
0-0
  6
JWW_DASHED1
 62
   120
370
     5
100
AcDbLine
 10
110.849603135203
 20
-315.5028526656405
 30
0.0
 11
360.8496031352075
 21
-65.50285266563598
 31
0.0
  0
LINE
  5
3A1
330
1F
100
AcDbEntity
  8
0-0
  6
JWW_DASHED1
 62
   120
370
     5
100
AcDbLine
 10
450.8496031351973
 20
24.49714733435506
 30
0.0
 11
700.8496031352053
 21
274.49714733436
 31
0.0
  0
LINE
  5
3A2
330
1F
100
AcDbEntity
  8
0-0
  6
JWW_DASHED1
 62
   120
370
     5
100
AcDbLine
 10
110.8496031352132
 20
-308.431784853764
 30
0.0
 11
360.8496031352041
 21
-58.43178485377528
 31
0.0
  0
LINE
  5
3A3
330
1F
100
AcDbEntity
  8
0-0
  6
JWW_DASHED1
 62
   120
370
     5
100
AcDbLine
 10
450.8496031352109
 20
31.56821514623154
 30
0.0
 11
700.8496031351984
 21
281.5682151462207
 31
0.0
  0
LINE
  5
3A4
330
1F
100
AcDbEntity
  8
0-0
  6
JWW_DASHED1
 62
   120
370
     5
100
AcDbLine
 10
110.8496031352132
 20
-301.3607170418982
 30
0.0
 11
360.8496031352041
 21
-51.36071704190734
 31
0.0
  0
LINE
  5
3A5
330
1F
100
AcDbEntity
  8
0-0
  6
JWW_DASHED1
 62
   120
370
     5
100
AcDbLine
 10
450.8496031352109
 20
38.63928295810034
 30
0.0
 11
700.8496031352018
 21
288.6392829580917
 31
0.0
  0
LINE
  5
3A6
330
1F
100
AcDbEntity
  8
0-0
  6
JWW_DASHED1
 62
   120
370
     5
100
AcDbLine
 10
110.8496031352064
 20
-294.2896492300371
 30
0.0
 11
360.8496031352144
 21
-44.28964923003043
 31
0.0
  0
LINE
  5
3A7
330
1F
100
AcDbEntity
  8
0-0
  6
JWW_DASHED1
 62
   120
370
     5
100
AcDbLine
 10
450.8496031352041
 20
45.71035076996147
 30
0.0
 11
700.8496031352121
 21
295.7103507699686
 31
0.0
  0
LINE
  5
3A8
330
1F
100
AcDbEntity
  8
0-0
  6
JWW_DASHED1
 62
   120
370
     5
100
AcDbLine
 10
110.8496031352132
 20
-287.2185814181657
 30
0.0
 11
360.8496031352007
 21
-37.21858141817698
 31
0.0
  0
LINE
  5
3A9
330
1F
100
AcDbEntity
  8
0-0
  6
JWW_DASHED1
 62
   120
370
     5
100
AcDbLine
 10
450.8496031352075
 20
52.78141858182984
 30
0.0
 11
700.849603135195
 21
302.7814185818186
 31
0.0
  0
LINE
  5
3AA
330
1F
100
AcDbEntity
  8
0-0
  6
JWW_DASHED1
 62
   120
370
     5
100
AcDbLine
 10
110.8496031352098
 20
-280.1475136062999
 30
0.0
 11
360.8496031352007
 21
-30.14751360630903
 31
0.0
  0
LINE
  5
3AB
330
1F
100
AcDbEntity
  8
0-0
  6
JWW_DASHED1
 62
   120
370
     5
100
AcDbLine
 10
450.8496031352109
 20
59.85248639369864
 30
0.0
 11
700.8496031352018
 21
309.85248639369
 31
0.0
  0
LINE
  5
3AC
330
1F
100
AcDbEntity
  8
0-0
  6
JWW_DASHED1
 62
   120
370
     5
100
AcDbLine
 10
110.84960313522
 20
-273.0764457944235
 30
0.0
 11
360.8496031352109
 21
-23.07644579443256
 31
0.0
  0
LINE
  5
3AD
330
1F
100
AcDbEntity
  8
0-0
  6
JWW_DASHED1
 62
   120
370
     5
100
AcDbLine
 10
450.8496031352041
 20
66.92355420555934
 30
0.0
 11
700.8496031352121
 21
316.9235542055669
 31
0.0
  0
LINE
  5
3AE
330
1F
100
AcDbEntity
  8
0-0
  6
JWW_DASHED1
 62
   120
370
     5
100
AcDbLine
 10
110.8496031352098
 20
-266.0053779825679
 30
0.0
 11
360.8496031352144
 21
-16.00537798256333
 31
0.0
  0
LINE
  5
3AF
330
1F
100
AcDbEntity
  8
0-0
  6
JWW_DASHED1
 62
   120
370
     5
100
AcDbLine
 10
450.8496031352041
 20
73.99462201742772
 30
0.0
 11
700.849603135195
 21
323.9946220174173
 31
0.0
  0
LINE
  5
3B0
330
1F
100
AcDbEntity
  8
0-0
  6
JWW_DASHED1
 62
   120
370
     5
100
AcDbLine
 10
110.8496031352064
 20
-258.9343101707311
 30
0.0
 11
360.8496031351973
 21
-8.934310170740147
 31
0.0
  0
LINE
  5
3B1
330
1F
100
AcDbEntity
  8
0-0
  6
JWW_DASHED1
 62
   120
370
     5
100
AcDbLine
 10
450.8496031352041
 20
81.06568982926753
 30
0.0
 11
700.849603135195
 21
331.0656898292589
 31
0.0
  0
LINE
  5
3B2
330
1F
100
AcDbEntity
  8
0-0
  6
JWW_DASHED1
 62
   120
370
     5
100
AcDbLine
 10
110.8496031352132
 20
-251.863242358884
 30
0.0
 11
360.8496031352041
 21
-1.863242358893089
 31
0.0
  0
LINE
  5
3B3
330
1F
100
AcDbEntity
  8
0-0
  6
JWW_DASHED1
 62
   120
370
     5
100
AcDbLine
 10
450.8496031352144
 20
88.13675764111458
 30
0.0
 11
700.8496031352053
 21
338.1367576411059
 31
0.0
  0
LINE
  5
3B4
330
1F
100
AcDbEntity
  8
0-0
  6
JWW_DASHED1
 62
   120
370
     5
100
AcDbLine
 10
110.849603135203
 20
-244.7921745470284
 30
0.0
 11
360.8496031352075
 21
5.207825452976138
 31
0.0
  0
LINE
  5
3B5
330
1F
100
AcDbEntity
  8
0-0
  6
JWW_DASHED1
 62
   120
370
     5
100
AcDbLine
 10
450.8496031351973
 20
95.20782545296676
 30
0.0
 11
700.8496031352018
 21
345.2078254529717
 31
0.0
  0
LINE
  5
3B6
330
1F
100
AcDbEntity
  8
0-0
  6
JWW_DASHED1
 62
   120
370
     5
100
AcDbLine
 10
110.8496031352132
 20
-237.7211067351519
 30
0.0
 11
360.8496031352041
 21
12.27889326483684
 31
0.0
  0
LINE
  5
3B7
330
1F
100
AcDbEntity
  8
0-0
  6
JWW_DASHED1
 62
   120
370
     5
100
AcDbLine
 10
450.8496031352109
 20
102.2788932648437
 30
0.0
 11
700.8496031351984
 21
352.2788932648328
 31
0.0
  0
LINE
  5
3B8
330
1F
100
AcDbEntity
  8
0-0
  6
JWW_DASHED1
 62
   120
370
     5
100
AcDbLine
 10
110.8496031352132
 20
-230.6500389232857
 30
0.0
 11
360.8496031352041
 21
19.34996107670521
 31
0.0
  0
LINE
  5
3B9
330
1F
100
AcDbEntity
  8
0-0
  6
JWW_DASHED1
 62
   120
370
     5
100
AcDbLine
 10
450.8496031352109
 20
109.3499610767129
 30
0.0
 11
700.8496031352018
 21
359.3499610767042
 31
0.0
  0
LINE
  5
3BA
330
1F
100
AcDbEntity
  8
0-0
  6
JWW_DASHED1
 62
   120
370
     5
100
AcDbLine
 10
110.8496031352064
 20
-223.578971111425
 30
0.0
 11
360.8496031352144
 21
26.42102888858211
 31
0.0
  0
LINE
  5
3BB
330
1F
100
AcDbEntity
  8
0-0
  6
JWW_DASHED1
 62
   120
370
     5
100
AcDbLine
 10
450.8496031352041
 20
116.4210288885736
 30
0.0
 11
700.8496031352121
 21
366.4210288885811
 31
0.0
  0
LINE
  5
3BC
330
1F
100
AcDbEntity
  8
0-0
  6
JWW_DASHED1
 62
   120
370
     5
100
AcDbLine
 10
110.8496031352132
 20
-216.5079032995536
 30
0.0
 11
360.8496031352007
 21
33.49209670043514
 31
0.0
  0
LINE
  5
3BD
330
1F
100
AcDbEntity
  8
0-0
  6
JWW_DASHED1
 62
   120
370
     5
100
AcDbLine
 10
450.8496031352075
 20
123.4920967004415
 30
0.0
 11
700.849603135195
 21
373.4920967004307
 31
0.0
  0
LINE
  5
3BE
330
1F
100
AcDbEntity
  8
0-0
  6
JWW_DASHED1
 62
   120
370
     5
100
AcDbLine
 10
110.8496031352132
 20
-209.4368354876874
 30
0.0
 11
360.8496031352041
 21
40.56316451230352
 31
0.0
  0
LINE
  5
3BF
330
1F
100
AcDbEntity
  8
0-0
  6
JWW_DASHED1
 62
   120
370
     5
100
AcDbLine
 10
450.8496031352109
 20
130.5631645123112
 30
0.0
 11
700.8496031352018
 21
380.5631645123029
 31
0.0
  0
LINE
  5
3C0
330
1F
100
AcDbEntity
  8
0-0
  6
JWW_DASHED1
 62
   120
370
     5
100
AcDbLine
 10
110.84960313522
 20
-202.3657676758105
 30
0.0
 11
360.8496031352109
 21
47.63423232418042
 31
0.0
  0
LINE
  5
3C1
330
1F
100
AcDbEntity
  8
0-0
  6
JWW_DASHED1
 62
   120
370
     5
100
AcDbLine
 10
450.8496031352041
 20
137.6342323241719
 30
0.0
 11
700.8496031352121
 21
387.6342323241794
 31
0.0
  0
LINE
  5
3C2
330
1F
100
AcDbEntity
  8
0-0
  6
JWW_DASHED1
 62
   120
370
     5
100
AcDbLine
 10
110.8496031352098
 20
-195.2946998639558
 30
0.0
 11
360.8496031352144
 21
54.70530013604879
 31
0.0
  0
LINE
  5
3C3
330
1F
100
AcDbEntity
  8
0-0
  6
JWW_DASHED1
 62
   120
370
     5
100
AcDbLine
 10
450.8496031352041
 20
144.7053001360399
 30
0.0
 11
700.849603135195
 21
394.7053001360291
 31
0.0
  0
LINE
  5
3C4
330
1F
100
AcDbEntity
  8
0-0
  6
JWW_DASHED1
 62
   120
370
     5
100
AcDbLine
 10
110.8496031352098
 20
-188.2236320520891
 30
0.0
 11
360.8496031352007
 21
61.77636794790182
 31
0.0
  0
LINE
  5
3C5
330
1F
100
AcDbEntity
  8
0-0
  6
JWW_DASHED1
 62
   120
370
     5
100
AcDbLine
 10
450.8496031352075
 20
151.7763679479095
 30
0.0
 11
700.8496031351984
 21
401.7763679479008
 31
0.0
  0
LINE
  5
3C6
330
1F
100
AcDbEntity
  8
0-0
  6
JWW_DASHED1
 62
   120
370
     5
100
AcDbLine
 10
110.84960313522
 20
-181.1525642402122
 30
0.0
 11
360.8496031352109
 21
68.84743575977872
 31
0.0
  0
LINE
  5
3C7
330
1F
100
AcDbEntity
  8
0-0
  6
JWW_DASHED1
 62
   120
370
     5
100
AcDbLine
 10
450.8496031352041
 20
158.8474357597702
 30
0.0
 11
700.8496031352087
 21
408.8474357597777
 31
0.0
  0
LINE
  5
3C8
330
1F
100
AcDbEntity
  8
0-0
  6
JWW_DASHED1
 62
   120
370
     5
100
AcDbLine
 10
110.8496031352064
 20
-174.0814964283575
 30
0.0
 11
360.8496031352109
 21
75.9185035716471
 31
0.0
  0
LINE
  5
3C9
330
1F
100
AcDbEntity
  8
0-0
  6
JWW_DASHED1
 62
   120
370
     5
100
AcDbLine
 10
450.8496031352041
 20
165.9185035716377
 30
0.0
 11
700.8496031351916
 21
415.9185035716269
 31
0.0
  0
LINE
  5
3CA
330
1F
100
AcDbEntity
  8
0-0
  6
JWW_DASHED1
 62
   120
370
     5
100
AcDbLine
 10
110.8496031352064
 20
-167.0104286164908
 30
0.0
 11
360.8496031351973
 21
82.98957138350012
 31
0.0
  0
LINE
  5
3CB
330
1F
100
AcDbEntity
  8
0-0
  6
JWW_DASHED1
 62
   120
370
     5
100
AcDbLine
 10
450.8496031352075
 20
172.9895713835078
 30
0.0
 11
700.8496031351984
 21
422.9895713834991
 31
0.0
  0
LINE
  5
3CC
330
1F
100
AcDbEntity
  8
0-0
  6
JWW_DASHED1
 62
   120
370
     5
100
AcDbLine
 10
110.8496031352166
 20
-159.9393608046143
 30
0.0
 11
360.8496031352109
 21
90.06063919537702
 31
0.0
  0
LINE
  5
3CD
330
1F
100
AcDbEntity
  8
0-0
  6
JWW_DASHED1
 62
   120
370
     5
100
AcDbLine
 10
450.8496031352178
 20
180.0606391953843
 30
0.0
 11
700.8496031352087
 21
430.060639195376
 31
0.0
  0
LINE
  5
3CE
330
1F
100
AcDbEntity
  8
0-0
  6
JWW_DASHED1
 62
   120
370
     5
100
AcDbLine
 10
110.8496031352064
 20
-152.8682929927592
 30
0.0
 11
360.8496031352109
 21
97.1317070072454
 31
0.0
  0
LINE
  5
3CF
330
1F
100
AcDbEntity
  8
0-0
  6
JWW_DASHED1
 62
   120
370
     5
100
AcDbLine
 10
450.8496031352007
 20
187.131707007236
 30
0.0
 11
700.8496031352053
 21
437.131707007241
 31
0.0
  0
LINE
  5
3D0
330
1F
100
AcDbEntity
  8
0-0
  6
JWW_DASHED1
 62
   120
370
     5
100
AcDbLine
 10
110.8496031352064
 20
-145.7972251808925
 30
0.0
 11
360.8496031351973
 21
104.2027748190984
 31
0.0
  0
LINE
  5
3D1
330
1F
100
AcDbEntity
  8
0-0
  6
JWW_DASHED1
 62
   120
370
     5
100
AcDbLine
 10
450.8496031352041
 20
194.2027748191061
 30
0.0
 11
700.849603135195
 21
444.2027748190974
 31
0.0
  0
LINE
  5
3D2
330
1F
100
AcDbEntity
  8
0-0
  6
JWW_DASHED1
 62
   120
370
     5
100
AcDbLine
 10
110.8496031352166
 20
-138.7261573690156
 30
0.0
 11
360.8496031352075
 21
111.2738426309753
 31
0.0
  0
LINE
  5
3D3
330
1F
100
AcDbEntity
  8
0-0
  6
JWW_DASHED1
 62
   120
370
     5
100
AcDbLine
 10
450.8496031352144
 20
201.273842630983
 30
0.0
 11
700.8496031352053
 21
451.2738426309739
 31
0.0
  0
LINE
  5
3D4
330
1F
100
AcDbEntity
  8
0-0
  6
JWW_DASHED1
 62
   120
370
     5
100
AcDbLine
 10
110.849603135203
 20
-131.6550895571617
 30
0.0
 11
360.8496031352075
 21
118.3449104428433
 31
0.0
  0
LINE
  5
3D5
330
1F
100
AcDbEntity
  8
0-0
  6
JWW_DASHED1
 62
   120
370
     5
100
AcDbLine
 10
450.8496031351973
 20
208.3449104428339
 30
0.0
 11
700.8496031352053
 21
458.3449104428389
 31
0.0
  0
LINE
  5
3D6
330
1F
100
AcDbEntity
  8
0-0
  6
JWW_DASHED1
 62
   120
370
     5
100
AcDbLine
 10
110.8496031352132
 20
-124.5840217452848
 30
0.0
 11
360.8496031352041
 21
125.4159782547044
 31
0.0
  0
LINE
  5
3D7
330
1F
100
AcDbEntity
  8
0-0
  6
JWW_DASHED1
 62
   120
370
     5
100
AcDbLine
 10
450.8496031352109
 20
215.4159782547104
 30
0.0
 11
700.8496031351984
 21
465.4159782546996
 31
0.0
  0
LINE
  5
3D8
330
1F
100
AcDbEntity
  8
0-0
  6
JWW_DASHED1
 62
   120
370
     5
100
AcDbLine
 10
110.8496031352132
 20
-117.5129539334177
 30
0.0
 11
360.8496031352041
 21
132.4870460665736
 31
0.0
  0
LINE
  5
3D9
330
1F
100
AcDbEntity
  8
0-0
  6
JWW_DASHED1
 62
   120
370
     5
100
AcDbLine
 10
450.8496031352109
 20
222.4870460665809
 30
0.0
 11
700.8496031352053
 21
472.4870460665726
 31
0.0
  0
LINE
  5
3DA
330
1F
100
AcDbEntity
  8
0-0
  6
JWW_DASHED1
 62
   120
370
     5
100
AcDbLine
 10
110.849603135203
 20
-110.4418861215634
 30
0.0
 11
360.8496031352075
 21
139.5581138784411
 31
0.0
  0
LINE
  5
3DB
330
1F
100
AcDbEntity
  8
0-0
  6
JWW_DASHED1
 62
   120
370
     5
100
AcDbLine
 10
450.8496031351973
 20
229.5581138784322
 30
0.0
 11
700.8496031352018
 21
479.5581138784372
 31
0.0
  0
LINE
  5
3DC
330
1F
100
AcDbEntity
  8
0-0
  6
JWW_DASHED1
 62
   120
370
     5
100
AcDbLine
 10
110.8496031352132
 20
-103.3708183096865
 30
0.0
 11
360.8496031352007
 21
146.6291816903018
 31
0.0
  0
LINE
  5
3DD
330
1F
100
AcDbEntity
  8
0-0
  6
JWW_DASHED1
 62
   120
370
     5
100
AcDbLine
 10
450.8496031352075
 20
236.6291816903087
 30
0.0
 11
700.849603135195
 21
486.6291816902979
 31
0.0
  0
LINE
  5
3DE
330
1F
100
AcDbEntity
  8
0-0
  6
JWW_DASHED1
 62
   120
370
     5
100
AcDbLine
 10
110.8496031352132
 20
-96.29975049781898
 30
0.0
 11
360.8496031352041
 21
153.7002495021719
 31
0.0
  0
LINE
  5
3DF
330
1F
100
AcDbEntity
  8
0-0
  6
JWW_DASHED1
 62
   120
370
     5
100
AcDbLine
 10
450.8496031352109
 20
243.7002495021792
 30
0.0
 11
700.8496031352018
 21
493.7002495021709
 31
0.0
  0
LINE
  5
3E0
330
1F
100
AcDbEntity
  8
0-0
  6
JWW_DASHED1
 62
   120
370
     5
100
AcDbLine
 10
110.8496031352064
 20
-89.22868268595828
 30
0.0
 11
360.8496031352144
 21
160.7713173140488
 31
0.0
  0
LINE
  5
3E1
330
1F
100
AcDbEntity
  8
0-0
  6
JWW_DASHED1
 62
   120
370
     5
100
AcDbLine
 10
450.8496031352041
 20
250.7713173140403
 30
0.0
 11
700.8496031352121
 21
500.7713173140474
 31
0.0
  0
LINE
  5
3E2
330
1F
100
AcDbEntity
  8
0-0
  6
JWW_DASHED1
 62
   120
370
     5
100
AcDbLine
 10
110.8496031352098
 20
-82.15761487408862
 30
0.0
 11
360.8496031352144
 21
167.8423851259163
 31
0.0
  0
LINE
  5
3E3
330
1F
100
AcDbEntity
  8
0-0
  6
JWW_DASHED1
 62
   120
370
     5
100
AcDbLine
 10
450.8496031352041
 20
257.842385125907
 30
0.0
 11
700.849603135195
 21
507.8423851258958
 31
0.0
  0
LINE
  5
3E4
330
1F
100
AcDbEntity
  8
0-0
  6
JWW_DASHED1
 62
   120
370
     5
100
AcDbLine
 10
110.8496031352132
 20
-75.08654706222067
 30
0.0
 11
360.8496031352041
 21
174.9134529377702
 31
0.0
  0
LINE
  5
3E5
330
1F
100
AcDbEntity
  8
0-0
  6
JWW_DASHED1
 62
   120
370
     5
100
AcDbLine
 10
450.8496031352109
 20
264.9134529377775
 30
0.0
 11
700.8496031352018
 21
514.9134529377692
 31
0.0
  0
LINE
  5
3E6
330
1F
100
AcDbEntity
  8
0-0
  6
JWW_DASHED1
 62
   120
370
     5
100
AcDbLine
 10
110.84960313522
 20
-68.01547925034463
 30
0.0
 11
360.8496031352109
 21
181.9845207496467
 31
0.0
  0
LINE
  5
3E7
330
1F
100
AcDbEntity
  8
0-0
  6
JWW_DASHED1
 62
   120
370
     5
100
AcDbLine
 10
450.8496031352041
 20
271.9845207496386
 30
0.0
 11
700.8496031352121
 21
521.9845207496458
 31
0.0
  0
LINE
  5
3E8
330
1F
100
AcDbEntity
  8
0-0
  6
JWW_DASHED1
 62
   120
370
     5
100
AcDbLine
 10
110.8496031352064
 20
-60.94441143849075
 30
0.0
 11
360.8496031352109
 21
189.0555885615138
 31
0.0
  0
LINE
  5
3E9
330
1F
100
AcDbEntity
  8
0-0
  6
JWW_DASHED1
 62
   120
370
     5
100
AcDbLine
 10
450.8496031352041
 20
279.0555885615049
 30
0.0
 11
700.849603135195
 21
529.055588561494
 31
0.0
  0
LINE
  5
3EA
330
1F
100
AcDbEntity
  8
0-0
  6
JWW_DASHED1
 62
   120
370
     5
100
AcDbLine
 10
110.8496031352098
 20
-53.87334362662237
 30
0.0
 11
360.8496031352007
 21
196.1266563733685
 31
0.0
  0
LINE
  5
3EB
330
1F
100
AcDbEntity
  8
0-0
  6
JWW_DASHED1
 62
   120
370
     5
100
AcDbLine
 10
450.8496031352075
 20
286.1266563733758
 30
0.0
 11
700.8496031351984
 21
536.1266563733672
 31
0.0
  0
LINE
  5
3EC
330
1F
100
AcDbEntity
  8
0-0
  6
JWW_DASHED1
 62
   120
370
     5
100
AcDbLine
 10
110.84960313522
 20
-46.8022758147459
 30
0.0
 11
360.8496031352109
 21
203.197724185245
 31
0.0
  0
LINE
  5
3ED
330
1F
100
AcDbEntity
  8
0-0
  6
JWW_DASHED1
 62
   120
370
     5
100
AcDbLine
 10
450.8496031352041
 20
293.1977241852369
 30
0.0
 11
700.8496031352087
 21
543.197724185244
 31
0.0
  0
LINE
  5
3EE
330
1F
100
AcDbEntity
  8
0-0
  6
JWW_DASHED1
 62
   120
370
     5
100
AcDbLine
 10
110.8496031352064
 20
-39.73120800289244
 30
0.0
 11
360.8496031352109
 21
210.2687919971121
 31
0.0
  0
LINE
  5
3EF
330
1F
100
AcDbEntity
  8
0-0
  6
JWW_DASHED1
 62
   120
370
     5
100
AcDbLine
 10
450.8496031352007
 20
300.2687919971032
 30
0.0
 11
700.8496031352087
 21
550.2687919971081
 31
0.0
  0
LINE
  5
3F0
330
1F
100
AcDbEntity
  8
0-0
  6
JWW_DASHED1
 62
   120
370
     5
100
AcDbLine
 10
110.8496031352064
 20
-32.6601401910245
 30
0.0
 11
360.8496031351973
 21
217.3398598089668
 31
0.0
  0
LINE
  5
3F1
330
1F
100
AcDbEntity
  8
0-0
  6
JWW_DASHED1
 62
   120
370
     5
100
AcDbLine
 10
450.8496031352041
 20
307.3398598089741
 30
0.0
 11
700.8496031351984
 21
557.3398598089655
 31
0.0
  0
LINE
  5
3F2
330
1F
100
AcDbEntity
  8
0-0
  6
JWW_DASHED1
 62
   120
370
     5
100
AcDbLine
 10
110.8496031352166
 20
-25.58907237914802
 30
0.0
 11
360.8496031352109
 21
224.4109276208437
 31
0.0
  0
LINE
  5
3F3
330
1F
100
AcDbEntity
  8
0-0
  6
JWW_DASHED1
 62
   120
370
     5
100
AcDbLine
 10
450.8496031352178
 20
314.410927620851
 30
0.0
 11
700.8496031352087
 21
564.4109276208424
 31
0.0
  0
LINE
  5
3F4
330
1F
100
AcDbEntity
  8
0-0
  6
JWW_DASHED1
 62
   120
370
     5
100
AcDbLine
 10
110.8496031352064
 20
-18.51800456734615
 30
0.0
 11
360.8496031352144
 21
231.4819954326609
 31
0.0
  0
LINE
  5
3F5
330
1F
100
AcDbEntity
  8
0-0
  6
JWW_DASHED1
 62
   120
370
     5
100
AcDbLine
 10
450.8496031352041
 20
321.4819954326524
 30
0.0
 11
700.8496031352155
 21
571.4819954326599
 31
0.0
  0
LINE
  5
3F6
330
1F
100
AcDbEntity
  8
0-0
  6
JWW_DASHED1
 62
   120
370
     5
100
AcDbLine
 10
110.8496031352098
 20
-11.44693675547693
 30
0.0
 11
360.8496031352144
 21
238.5530632445281
 31
0.0
  0
LINE
  5
3F7
330
1F
100
AcDbEntity
  8
0-0
  6
JWW_DASHED1
 62
   120
370
     5
100
AcDbLine
 10
450.8496031352041
 20
328.5530632445187
 30
0.0
 11
700.849603135195
 21
578.5530632445078
 31
0.0
  0
LINE
  5
3F8
330
1F
100
AcDbEntity
  8
0-0
  6
JWW_DASHED1
 62
   120
370
     5
100
AcDbLine
 10
110.8496031352132
 20
-4.375868943608552
 30
0.0
 11
360.8496031352041
 21
245.6241310563828
 31
0.0
  0
LINE
  5
3F9
330
1F
100
AcDbEntity
  8
0-0
  6
JWW_DASHED1
 62
   120
370
     5
100
AcDbLine
 10
450.8496031352109
 20
335.62413105639
 30
0.0
 11
700.8496031352018
 21
585.6241310563818
 31
0.0
  0
LINE
  5
3FA
330
1F
100
AcDbEntity
  8
0-0
  6
JWW_DASHED1
 62
   120
370
     5
100
AcDbLine
 10
110.84960313522
 20
2.695198868268349
 30
0.0
 11
360.8496031352109
 21
252.6951988682592
 31
0.0
  0
LINE
  5
3FB
330
1F
100
AcDbEntity
  8
0-0
  6
JWW_DASHED1
 62
   120
370
     5
100
AcDbLine
 10
450.8496031352041
 20
342.6951988682512
 30
0.0
 11
700.8496031352121
 21
592.6951988682582
 31
0.0
  0
LINE
  5
3FC
330
1F
100
AcDbEntity
  8
0-0
  6
JWW_DASHED1
 62
   120
370
     5
100
AcDbLine
 10
110.8496031352064
 20
9.766266680121376
 30
0.0
 11
360.8496031352109
 21
259.7662666801259
 31
0.0
  0
LINE
  5
3FD
330
1F
100
AcDbEntity
  8
0-0
  6
JWW_DASHED1
 62
   120
370
     5
100
AcDbLine
 10
450.8496031352041
 20
349.766266680117
 30
0.0
 11
700.8496031351916
 21
599.7662666801061
 31
0.0
  0
LINE
  5
3FE
330
1F
100
AcDbEntity
  8
0-0
  6
JWW_DASHED1
 62
   120
370
     5
100
AcDbLine
 10
110.8496031352098
 20
16.83733449198975
 30
0.0
 11
360.8496031352007
 21
266.8373344919815
 31
0.0
  0
LINE
  5
3FF
330
1F
100
AcDbEntity
  8
0-0
  6
JWW_DASHED1
 62
   120
370
     5
100
AcDbLine
 10
450.8496031352075
 20
356.8373344919883
 30
0.0
 11
700.8496031352018
 21
606.8373344919801
 31
0.0
  0
LINE
  5
400
330
1F
100
AcDbEntity
  8
0-0
  6
JWW_DASHED1
 62
   120
370
     5
100
AcDbLine
 10
110.84960313522
 20
23.90840230386665
 30
0.0
 11
360.8496031352109
 21
273.9084023038575
 31
0.0
  0
LINE
  5
401
330
1F
100
AcDbEntity
  8
0-0
  6
JWW_DASHED1
 62
   120
370
     5
100
AcDbLine
 10
450.8496031352041
 20
363.9084023038495
 30
0.0
 11
700.8496031352087
 21
613.9084023038565
 31
0.0
  0
LINE
  5
402
330
1F
100
AcDbEntity
  8
0-0
  6
JWW_DASHED1
 62
   120
370
     5
100
AcDbLine
 10
110.8496031352064
 20
30.97947011571968
 30
0.0
 11
360.8496031352109
 21
280.9794701157242
 31
0.0
  0
LINE
  5
403
330
1F
100
AcDbEntity
  8
0-0
  6
JWW_DASHED1
 62
   120
370
     5
100
AcDbLine
 10
450.8496031352007
 20
370.9794701157148
 30
0.0
 11
700.8496031352087
 21
620.9794701157198
 31
0.0
  0
LINE
  5
404
330
1F
100
AcDbEntity
  8
0-0
  6
JWW_DASHED1
 62
   120
370
     5
100
AcDbLine
 10
110.8496031352064
 20
38.05053792758805
 30
0.0
 11
360.8496031351973
 21
288.0505379275789
 31
0.0
  0
LINE
  5
405
330
1F
100
AcDbEntity
  8
0-0
  6
JWW_DASHED1
 62
   120
370
     5
100
AcDbLine
 10
450.8496031352075
 20
378.0505379275866
 30
0.0
 11
700.8496031351984
 21
628.0505379275784
 31
0.0
  0
LINE
  5
406
330
1F
100
AcDbEntity
  8
0-0
  6
JWW_DASHED1
 62
   120
370
     5
100
AcDbLine
 10
110.84960313522
 20
45.12160573946495
 30
0.0
 11
360.8496031352109
 21
295.1216057394558
 31
0.0
  0
LINE
  5
407
330
1F
100
AcDbEntity
  8
0-0
  6
JWW_DASHED1
 62
   120
370
     5
100
AcDbLine
 10
450.8496031352178
 20
385.1216057394635
 30
0.0
 11
700.8496031352087
 21
635.1216057394548
 31
0.0
  0
LINE
  5
408
330
1F
100
AcDbEntity
  8
0-0
  6
JWW_DASHED1
 62
   120
370
     5
100
AcDbLine
 10
110.849603135203
 20
52.19267355131755
 30
0.0
 11
360.8496031352075
 21
302.1926735513221
 31
0.0
  0
LINE
  5
409
330
1F
100
AcDbEntity
  8
0-0
  6
JWW_DASHED1
 62
   120
370
     5
100
AcDbLine
 10
450.8496031351973
 20
392.1926735513127
 30
0.0
 11
700.8496031352053
 21
642.1926735513181
 31
0.0
  0
LINE
  5
40A
330
1F
100
AcDbEntity
  8
0-0
  6
JWW_DASHED1
 62
   120
370
     5
100
AcDbLine
 10
110.8496031352064
 20
59.26374136318636
 30
0.0
 11
360.8496031351973
 21
309.2637413631777
 31
0.0
  0
LINE
  5
40B
330
1F
100
AcDbEntity
  8
0-0
  6
JWW_DASHED1
 62
   120
370
     5
100
AcDbLine
 10
450.8496031352041
 20
399.2637413631849
 30
0.0
 11
700.849603135195
 21
649.2637413631767
 31
0.0
  0
LINE
  5
40C
330
1F
100
AcDbEntity
  8
0-0
  6
JWW_DASHED1
 62
   120
370
     5
100
AcDbLine
 10
110.8496031352166
 20
66.33480917506326
 30
0.0
 11
360.8496031352075
 21
316.3348091750541
 31
0.0
  0
LINE
  5
40D
330
1F
100
AcDbEntity
  8
0-0
  6
JWW_DASHED1
 62
   120
370
     5
100
AcDbLine
 10
450.8496031352144
 20
406.3348091750618
 30
0.0
 11
700.8496031352053
 21
656.3348091750531
 31
0.0
  0
LINE
  5
40E
330
1F
100
AcDbEntity
  8
0-0
  6
JWW_DASHED1
 62
   120
370
     5
100
AcDbLine
 10
110.849603135203
 20
73.40587698691586
 30
0.0
 11
360.8496031352075
 21
323.4058769869204
 31
0.0
  0
LINE
  5
40F
330
1F
100
AcDbEntity
  8
0-0
  6
JWW_DASHED1
 62
   120
370
     5
100
AcDbLine
 10
450.8496031351973
 20
413.405876986911
 30
0.0
 11
700.8496031352018
 21
663.405876986916
 31
0.0
  0
LINE
  5
410
330
1F
100
AcDbEntity
  8
0-0
  6
JWW_DASHED1
 62
   120
370
     5
100
AcDbLine
 10
110.8496031352132
 20
80.47694479879233
 30
0.0
 11
360.8496031352007
 21
330.4769447987807
 31
0.0
  0
LINE
  5
411
330
1F
100
AcDbEntity
  8
0-0
  6
JWW_DASHED1
 62
   120
370
     5
100
AcDbLine
 10
450.8496031352075
 20
420.4769447987875
 30
0.0
 11
700.849603135195
 21
670.4769447987767
 31
0.0
  0
LINE
  5
412
330
1F
100
AcDbEntity
  8
0-0
  6
JWW_DASHED1
 62
   120
370
     5
100
AcDbLine
 10
110.8496031352132
 20
87.54801261066156
 30
0.0
 11
360.8496031352041
 21
337.5480126106524
 31
0.0
  0
LINE
  5
413
330
1F
100
AcDbEntity
  8
0-0
  6
JWW_DASHED1
 62
   120
370
     5
100
AcDbLine
 10
450.8496031352144
 20
427.5480126106601
 30
0.0
 11
700.8496031352053
 21
677.5480126106514
 31
0.0
  0
LINE
  5
414
330
1F
100
AcDbEntity
  8
0-0
  6
JWW_DASHED1
 62
   120
370
     5
100
AcDbLine
 10
110.8496031352098
 20
94.61908042252226
 30
0.0
 11
360.8496031352178
 21
344.6190804225294
 31
0.0
  0
LINE
  5
415
330
1F
100
AcDbEntity
  8
0-0
  6
JWW_DASHED1
 62
   120
370
     5
100
AcDbLine
 10
450.8496031352075
 20
434.6190804225208
 30
0.0
 11
700.8496031352155
 21
684.619080422528
 31
0.0
  0
LINE
  5
416
330
1F
100
AcDbEntity
  8
0-0
  6
JWW_DASHED1
 62
   120
370
     5
100
AcDbLine
 10
110.8496031352098
 20
101.6901482343902
 30
0.0
 11
360.8496031351973
 21
351.690148234379
 31
0.0
  0
LINE
  5
417
330
1F
100
AcDbEntity
  8
0-0
  6
JWW_DASHED1
 62
   120
370
     5
100
AcDbLine
 10
450.8496031352041
 20
441.6901482343858
 30
0.0
 11
700.849603135195
 21
691.690148234375
 31
0.0
  0
LINE
  5
418
330
1F
100
AcDbEntity
  8
0-0
  6
JWW_DASHED1
 62
   120
370
     5
100
AcDbLine
 10
110.8496031352132
 20
108.7612160462599
 30
0.0
 11
360.8496031352041
 21
358.7612160462508
 31
0.0
  0
LINE
  5
419
330
1F
100
AcDbEntity
  8
0-0
  6
JWW_DASHED1
 62
   120
370
     5
100
AcDbLine
 10
450.8496031352109
 20
448.7612160462584
 30
0.0
 11
700.8496031352018
 21
698.7612160462497
 31
0.0
  0
LINE
  5
41A
330
1F
100
AcDbEntity
  8
0-0
  6
JWW_DASHED1
 62
   120
370
     5
100
AcDbLine
 10
110.8496031352234
 20
115.8322838581363
 30
0.0
 11
360.8496031352144
 21
365.8322838581273
 31
0.0
  0
LINE
  5
41B
330
1F
100
AcDbEntity
  8
0-0
  6
JWW_DASHED1
 62
   120
370
     5
100
AcDbLine
 10
450.8496031352041
 20
455.8322838581191
 30
0.0
 11
700.8496031352121
 21
705.8322838581263
 31
0.0
  0
LINE
  5
41C
330
1F
100
AcDbEntity
  8
0-0
  6
JWW_DASHED1
 62
   120
370
     5
100
AcDbLine
 10
110.8496031352064
 20
122.9033516699881
 30
0.0
 11
360.8496031352109
 21
372.9033516699931
 31
0.0
  0
LINE
  5
41D
330
1F
100
AcDbEntity
  8
0-0
  6
JWW_DASHED1
 62
   120
370
     5
100
AcDbLine
 10
450.8496031352041
 20
462.9033516699841
 30
0.0
 11
700.849603135195
 21
712.9033516699728
 31
0.0
  0
LINE
  5
41E
330
1F
100
AcDbEntity
  8
0-0
  6
JWW_DASHED1
 62
   120
370
     5
100
AcDbLine
 10
110.8496031352132
 20
129.9744194818581
 30
0.0
 11
360.8496031352041
 21
379.9744194818491
 31
0.0
  0
LINE
  5
41F
330
1F
100
AcDbEntity
  8
0-0
  6
JWW_DASHED1
 62
   120
370
     5
100
AcDbLine
 10
450.8496031352109
 20
469.9744194818567
 30
0.0
 11
700.8496031352018
 21
719.974419481848
 31
0.0
  0
LINE
  5
420
330
1F
100
AcDbEntity
  8
0-0
  6
JWW_DASHED1
 62
   120
370
     5
100
AcDbLine
 10
110.84960313522
 20
137.0454872937347
 30
0.0
 11
360.8496031352109
 21
387.0454872937256
 31
0.0
  0
LINE
  5
421
330
1F
100
AcDbEntity
  8
0-0
  6
JWW_DASHED1
 62
   120
370
     5
100
AcDbLine
 10
450.8496031352041
 20
477.0454872937174
 30
0.0
 11
700.8496031352121
 21
727.0454872937246
 31
0.0
  0
LINE
  5
422
330
1F
100
AcDbEntity
  8
0-0
  6
JWW_DASHED1
 62
   120
370
     5
100
AcDbLine
 10
110.8496031352064
 20
144.1165551055864
 30
0.0
 11
360.8496031352109
 21
394.1165551055909
 31
0.0
  0
LINE
  5
423
330
1F
100
AcDbEntity
  8
0-0
  6
JWW_DASHED1
 62
   120
370
     5
100
AcDbLine
 10
450.8496031352007
 20
484.116555105582
 30
0.0
 11
700.8496031351916
 21
734.1165551055711
 31
0.0
  0
LINE
  5
424
330
1F
100
AcDbEntity
  8
0-0
  6
JWW_DASHED1
 62
   120
370
     5
100
AcDbLine
 10
110.8496031352098
 20
151.1876229174565
 30
0.0
 11
360.8496031352007
 21
401.1876229174474
 31
0.0
  0
LINE
  5
425
330
1F
100
AcDbEntity
  8
0-0
  6
JWW_DASHED1
 62
   120
370
     5
100
AcDbLine
 10
450.8496031352075
 20
491.187622917455
 30
0.0
 11
700.8496031351984
 21
741.1876229174463
 31
0.0
  0
LINE
  5
426
330
1F
100
AcDbEntity
  8
0-0
  6
JWW_DASHED1
 62
   120
370
     5
100
AcDbLine
 10
110.84960313522
 20
158.2586907293334
 30
0.0
 11
360.8496031352109
 21
408.2586907293243
 31
0.0
  0
LINE
  5
427
330
1F
100
AcDbEntity
  8
0-0
  6
JWW_DASHED1
 62
   120
370
     5
100
AcDbLine
 10
450.8496031352178
 20
498.2586907293319
 30
0.0
 11
700.8496031352087
 21
748.2586907293229
 31
0.0
  0
LINE
  5
428
330
1F
100
AcDbEntity
  8
0-0
  6
JWW_DASHED1
 62
   120
370
     5
100
AcDbLine
 10
110.8496031352064
 20
165.3297585411847
 30
0.0
 11
360.8496031352109
 21
415.3297585411892
 31
0.0
  0
LINE
  5
429
330
1F
100
AcDbEntity
  8
0-0
  6
JWW_DASHED1
 62
   120
370
     5
100
AcDbLine
 10
450.8496031352007
 20
505.3297585411798
 30
0.0
 11
700.8496031352053
 21
755.3297585411848
 31
0.0
  0
LINE
  5
42A
330
1F
100
AcDbEntity
  8
0-0
  6
JWW_DASHED1
 62
   120
370
     5
100
AcDbLine
 10
110.8496031352064
 20
172.4008263530548
 30
0.0
 11
360.8496031351973
 21
422.4008263530457
 31
0.0
  0
LINE
  5
42B
330
1F
100
AcDbEntity
  8
0-0
  6
JWW_DASHED1
 62
   120
370
     5
100
AcDbLine
 10
450.8496031352075
 20
512.4008263530534
 30
0.0
 11
700.8496031351984
 21
762.4008263530446
 31
0.0
  0
LINE
  5
42C
330
1F
100
AcDbEntity
  8
0-0
  6
JWW_DASHED1
 62
   120
370
     5
100
AcDbLine
 10
110.8496031352166
 20
179.4718941649313
 30
0.0
 11
360.8496031352109
 21
429.4718941649222
 31
0.0
  0
LINE
  5
42D
330
1F
100
AcDbEntity
  8
0-0
  6
JWW_DASHED1
 62
   120
370
     5
100
AcDbLine
 10
450.8496031352178
 20
519.4718941649298
 30
0.0
 11
700.8496031352087
 21
769.4718941649212
 31
0.0
  0
LINE
  5
42E
330
1F
100
AcDbEntity
  8
0-0
  6
JWW_DASHED1
 62
   120
370
     5
100
AcDbLine
 10
110.849603135203
 20
186.542961976783
 30
0.0
 11
360.8496031352075
 21
436.5429619767871
 31
0.0
  0
LINE
  5
42F
330
1F
100
AcDbEntity
  8
0-0
  6
JWW_DASHED1
 62
   120
370
     5
100
AcDbLine
 10
450.8496031351973
 20
526.5429619767782
 30
0.0
 11
700.8496031352018
 21
776.542961976783
 31
0.0
  0
LINE
  5
430
330
1F
100
AcDbEntity
  8
0-0
  6
JWW_DASHED1
 62
   120
370
     5
100
AcDbLine
 10
110.8496031352064
 20
193.6140297886531
 30
0.0
 11
360.8496031351973
 21
443.614029788644
 31
0.0
  0
LINE
  5
431
330
1F
100
AcDbEntity
  8
0-0
  6
JWW_DASHED1
 62
   120
370
     5
100
AcDbLine
 10
450.8496031352041
 20
533.6140297886517
 30
0.0
 11
700.849603135195
 21
783.6140297886428
 31
0.0
  0
LINE
  5
432
330
1F
100
AcDbEntity
  8
0-0
  6
JWW_DASHED1
 62
   120
370
     5
100
AcDbLine
 10
110.8496031352166
 20
200.68509760053
 30
0.0
 11
360.8496031352075
 21
450.6850976005205
 31
0.0
  0
LINE
  5
433
330
1F
100
AcDbEntity
  8
0-0
  6
JWW_DASHED1
 62
   120
370
     5
100
AcDbLine
 10
450.8496031352144
 20
540.6850976005281
 30
0.0
 11
700.8496031352053
 21
790.6850976005197
 31
0.0
  0
LINE
  5
434
330
1F
100
AcDbEntity
  8
0-0
  6
JWW_DASHED1
 62
   120
370
     5
100
AcDbLine
 10
110.8496031351996
 20
207.7561654123809
 30
0.0
 11
360.8496031352041
 21
457.7561654123854
 31
0.0
  0
LINE
  5
435
330
1F
100
AcDbEntity
  8
0-0
  6
JWW_DASHED1
 62
   120
370
     5
100
AcDbLine
 10
450.8496031351973
 20
547.7561654123765
 30
0.0
 11
700.8496031352018
 21
797.7561654123813
 31
0.0
  0
LINE
  5
436
330
1F
100
AcDbEntity
  8
0-0
  6
JWW_DASHED1
 62
   120
370
     5
100
AcDbLine
 10
110.8496031352098
 20
214.8272332242573
 30
0.0
 11
360.8496031351973
 21
464.8272332242461
 31
0.0
  0
LINE
  5
437
330
1F
100
AcDbEntity
  8
0-0
  6
JWW_DASHED1
 62
   120
370
     5
100
AcDbLine
 10
450.8496031352041
 20
554.8272332242525
 30
0.0
 11
700.849603135195
 21
804.8272332242421
 31
0.0
  0
LINE
  5
438
330
1F
100
AcDbEntity
  8
0-0
  6
JWW_DASHED1
 62
   120
370
     5
100
AcDbLine
 10
110.8496031352132
 20
221.8983010360984
 30
0.0
 11
360.8496031352041
 21
471.8983010360893
 31
0.0
  0
LINE
  5
439
330
1F
100
AcDbEntity
  8
0-0
  6
JWW_DASHED1
 62
   120
370
     5
100
AcDbLine
 10
450.8496031352109
 20
561.898301036097
 30
0.0
 11
700.8496031352018
 21
811.8983010360884
 31
0.0
  0
LINE
  5
43A
330
1F
100
AcDbEntity
  8
0-0
  6
JWW_DASHED1
 62
   120
370
     5
100
AcDbLine
 10
110.84960313522
 20
228.9693688479455
 30
0.0
 11
360.8496031352109
 21
478.9693688479368
 31
0.0
  0
LINE
  5
43B
330
1F
100
AcDbEntity
  8
0-0
  6
JWW_DASHED1
 62
   120
370
     5
100
AcDbLine
 10
450.8496031352041
 20
568.9693688479283
 30
0.0
 11
700.8496031352087
 21
818.9693688479358
 31
0.0
  0
LINE
  5
43C
330
1F
100
AcDbEntity
  8
0-0
  6
JWW_DASHED1
 62
   120
370
     5
100
AcDbLine
 10
110.8496031352064
 20
236.0404366597964
 30
0.0
 11
360.8496031352109
 21
486.0404366598013
 31
0.0
  0
LINE
  5
43D
330
1F
100
AcDbEntity
  8
0-0
  6
JWW_DASHED1
 62
   120
370
     5
100
AcDbLine
 10
450.8496031352007
 20
576.040436659792
 30
0.0
 11
700.8496031352053
 21
826.0404366597968
 31
0.0
  0
LINE
  5
43E
330
1F
100
AcDbEntity
  8
0-0
  6
JWW_DASHED1
 62
   120
370
     5
100
AcDbLine
 10
110.8496031352064
 20
243.1115044716669
 30
0.0
 11
360.8496031351973
 21
493.1115044716582
 31
0.0
  0
LINE
  5
43F
330
1F
100
AcDbEntity
  8
0-0
  6
JWW_DASHED1
 62
   120
370
     5
100
AcDbLine
 10
450.8496031352075
 20
583.1115044716655
 30
0.0
 11
700.8496031351984
 21
833.1115044716572
 31
0.0
  0
LINE
  5
440
330
1F
100
AcDbEntity
  8
0-0
  6
JWW_DASHED1
 62
   120
370
     5
100
AcDbLine
 10
110.84960313522
 20
250.1825722835438
 30
0.0
 11
360.8496031352109
 21
500.1825722835351
 31
0.0
  0
LINE
  5
441
330
1F
100
AcDbEntity
  8
0-0
  6
JWW_DASHED1
 62
   120
370
     5
100
AcDbLine
 10
450.8496031352178
 20
590.1825722835424
 30
0.0
 11
700.8496031352087
 21
840.1825722835335
 31
0.0
  0
LINE
  5
442
330
1F
100
AcDbEntity
  8
0-0
  6
JWW_DASHED1
 62
   120
370
     5
100
AcDbLine
 10
110.849603135203
 20
257.2536400953951
 30
0.0
 11
360.8496031352075
 21
507.2536400953992
 31
0.0
  0
LINE
  5
443
330
1F
100
AcDbEntity
  8
0-0
  6
JWW_DASHED1
 62
   120
370
     5
100
AcDbLine
 10
450.8496031351973
 20
597.2536400953903
 30
0.0
 11
700.8496031352018
 21
847.2536400953951
 31
0.0
  0
LINE
  5
444
330
1F
100
AcDbEntity
  8
0-0
  6
JWW_DASHED1
 62
   120
370
     5
100
AcDbLine
 10
110.8496031352064
 20
264.3247079072656
 30
0.0
 11
360.8496031351973
 21
514.3247079072565
 31
0.0
  0
LINE
  5
445
330
1F
100
AcDbEntity
  8
0-0
  6
JWW_DASHED1
 62
   120
370
     5
100
AcDbLine
 10
450.8496031352041
 20
604.3247079072642
 30
0.0
 11
700.849603135195
 21
854.3247079072555
 31
0.0
  0
LINE
  5
446
330
1F
100
AcDbEntity
  8
0-0
  6
JWW_DASHED1
 62
   120
370
     5
100
AcDbLine
 10
110.8496031352166
 20
271.3957757191421
 30
0.0
 11
360.8496031352075
 21
521.395775719133
 31
0.0
  0
LINE
  5
447
330
1F
100
AcDbEntity
  8
0-0
  6
JWW_DASHED1
 62
   120
370
     5
100
AcDbLine
 10
450.8496031352144
 20
611.3957757191407
 30
0.0
 11
700.8496031352087
 21
861.3957757191324
 31
0.0
  0
LINE
  5
448
330
1F
100
AcDbEntity
  8
0-0
  6
JWW_DASHED1
 62
   120
370
     5
100
AcDbLine
 10
110.8496031351996
 20
278.4668435309925
 30
0.0
 11
360.8496031352041
 21
528.4668435309975
 31
0.0
  0
LINE
  5
449
330
1F
100
AcDbEntity
  8
0-0
  6
JWW_DASHED1
 62
   120
370
     5
100
AcDbLine
 10
450.8496031351973
 20
618.4668435309886
 30
0.0
 11
700.8496031352018
 21
868.4668435309932
 31
0.0
  0
LINE
  5
44A
330
1F
100
AcDbEntity
  8
0-0
  6
JWW_DASHED1
 62
   120
370
     5
100
AcDbLine
 10
110.8496031352098
 20
285.5379113428694
 30
0.0
 11
360.8496031351973
 21
535.5379113428578
 31
0.0
  0
LINE
  5
44B
330
1F
100
AcDbEntity
  8
0-0
  6
JWW_DASHED1
 62
   120
370
     5
100
AcDbLine
 10
110.8496031352132
 20
292.6089791547404
 30
0.0
 11
360.8496031352041
 21
542.6089791547313
 31
0.0
  0
LINE
  5
44C
330
1F
100
AcDbEntity
  8
0-0
  6
JWW_DASHED1
 62
   120
370
     5
100
AcDbLine
 10
110.8496031352098
 20
299.6800469666011
 30
0.0
 11
360.8496031352178
 21
549.6800469666082
 31
0.0
  0
LINE
  5
44D
330
1F
100
AcDbEntity
  8
0-0
  6
JWW_DASHED1
 62
   120
370
     5
100
AcDbLine
 10
110.8496031352064
 20
306.7511147784674
 30
0.0
 11
360.8496031351973
 21
556.7511147784561
 31
0.0
  0
LINE
  5
44E
330
1F
100
AcDbEntity
  8
0-0
  6
JWW_DASHED1
 62
   120
370
     5
100
AcDbLine
 10
110.8496031352132
 20
313.8221825903387
 30
0.0
 11
360.8496031352041
 21
563.82218259033
 31
0.0
  0
LINE
  5
44F
330
1F
100
AcDbEntity
  8
0-0
  6
JWW_DASHED1
 62
   120
370
     5
100
AcDbLine
 10
110.8496031352234
 20
320.8932504022156
 30
0.0
 11
360.8496031352144
 21
570.8932504022065
 31
0.0
  0
LINE
  5
450
330
1F
100
AcDbEntity
  8
0-0
  6
JWW_DASHED1
 62
   120
370
     5
100
AcDbLine
 10
110.8496031352064
 20
327.9643182140657
 30
0.0
 11
360.8496031352109
 21
577.9643182140702
 31
0.0
  0
LINE
  5
451
330
1F
100
AcDbEntity
  8
0-0
  6
JWW_DASHED1
 62
   120
370
     5
100
AcDbLine
 10
110.8496031352132
 20
335.035386025937
 30
0.0
 11
360.8496031352041
 21
585.0353860259279
 31
0.0
  0
LINE
  5
452
330
1F
100
AcDbEntity
  8
0-0
  6
JWW_DASHED1
 62
   120
370
     5
100
AcDbLine
 10
110.84960313522
 20
342.1064538378139
 30
0.0
 11
360.8496031352109
 21
592.1064538378048
 31
0.0
  0
LINE
  5
453
330
1F
100
AcDbEntity
  8
0-0
  6
JWW_DASHED1
 62
   120
370
     5
100
AcDbLine
 10
110.8496031352064
 20
349.1775216496635
 30
0.0
 11
360.8496031352109
 21
599.177521649668
 31
0.0
  0
LINE
  5
454
330
1F
100
AcDbEntity
  8
0-0
  6
JWW_DASHED1
 62
   120
370
     5
100
AcDbLine
 10
110.8496031352098
 20
356.2485894615353
 30
0.0
 11
360.8496031352007
 21
606.2485894615266
 31
0.0
  0
LINE
  5
455
330
1F
100
AcDbEntity
  8
0-0
  6
JWW_DASHED1
 62
   120
370
     5
100
AcDbLine
 10
110.84960313522
 20
363.3196572734118
 30
0.0
 11
360.8496031352109
 21
613.3196572734031
 31
0.0
  0
LINE
  5
456
330
1F
100
AcDbEntity
  8
0-0
  6
JWW_DASHED1
 62
   120
370
     5
100
AcDbLine
 10
110.849603135203
 20
370.3907250852618
 30
0.0
 11
360.8496031352075
 21
620.3907250852664
 31
0.0
  0
LINE
  5
457
330
1F
100
AcDbEntity
  8
0-0
  6
JWW_DASHED1
 62
   120
370
     5
100
AcDbLine
 10
110.8496031352064
 20
377.4617928971336
 30
0.0
 11
360.8496031351973
 21
627.461792897125
 31
0.0
  0
LINE
  5
458
330
1F
100
AcDbEntity
  8
0-0
  6
JWW_DASHED1
 62
   120
370
     5
100
AcDbLine
 10
110.8496031352166
 20
384.5328607090101
 30
0.0
 11
360.8496031352109
 21
634.5328607090014
 31
0.0
  0
LINE
  5
459
330
1F
100
AcDbEntity
  8
0-0
  6
JWW_DASHED1
 62
   120
370
     5
100
AcDbLine
 10
110.8496031351996
 20
391.6039285208597
 30
0.0
 11
360.8496031352041
 21
641.6039285208642
 31
0.0
  0
LINE
  5
45A
330
1F
100
AcDbEntity
  8
0-0
  6
JWW_DASHED1
 62
   120
370
     5
100
AcDbLine
 10
110.8496031352098
 20
398.6749963327366
 30
0.0
 11
360.8496031352007
 21
648.6749963327254
 31
0.0
  0
LINE
  5
45B
330
1F
100
AcDbEntity
  8
0-0
  6
JWW_DASHED1
 62
   120
370
     5
100
AcDbLine
 10
110.8496031352166
 20
405.7460641446088
 30
0.0
 11
360.8496031352075
 21
655.7460641445997
 31
0.0
  0
LINE
  5
45C
330
1F
100
AcDbEntity
  8
0-0
  6
JWW_DASHED1
 62
   120
370
     5
100
AcDbLine
 10
110.8496031351996
 20
412.8171319564584
 30
0.0
 11
360.8496031352041
 21
662.8171319564625
 31
0.0
  0
LINE
  5
45D
330
1F
100
AcDbEntity
  8
0-0
  6
JWW_DASHED1
 62
   120
370
     5
100
AcDbLine
 10
110.8496031352098
 20
419.8881997683345
 30
0.0
 11
360.8496031351973
 21
669.8881997683237
 31
0.0
  0
LINE
  5
45E
330
1F
100
AcDbEntity
  8
0-0
  6
JWW_DASHED1
 62
   120
370
     5
100
AcDbLine
 10
110.8496031352132
 20
426.9592675802067
 30
0.0
 11
360.8496031352041
 21
676.959267580198
 31
0.0
  0
LINE
  5
45F
330
1F
100
AcDbEntity
  8
0-0
  6
JWW_DASHED1
 62
   120
370
     5
100
AcDbLine
 10
110.8496031352098
 20
434.0303353920678
 30
0.0
 11
360.8496031352144
 21
684.0303353920744
 31
0.0
  0
LINE
  5
460
330
1F
100
AcDbEntity
  8
0-0
  6
JWW_DASHED1
 62
   120
370
     5
100
AcDbLine
 10
110.8496031352064
 20
441.1014032039328
 30
0.0
 11
360.8496031352109
 21
691.1014032039374
 31
0.0
  0
LINE
  5
461
330
1F
100
AcDbEntity
  8
0-0
  6
JWW_DASHED1
 62
   120
370
     5
100
AcDbLine
 10
110.8496031352132
 20
448.172471015805
 30
0.0
 11
360.8496031352041
 21
698.1724710157963
 31
0.0
  0
LINE
  5
462
330
1F
100
AcDbEntity
  8
0-0
  6
JWW_DASHED1
 62
   120
370
     5
100
AcDbLine
 10
110.8496031352234
 20
455.2435388276819
 30
0.0
 11
360.8496031352144
 21
705.2435388276728
 31
0.0
  0
LINE
  5
463
330
1F
100
AcDbEntity
  8
0-0
  6
JWW_DASHED1
 62
   120
370
     5
100
AcDbLine
 10
110.8496031352064
 20
462.3146066395307
 30
0.0
 11
360.8496031352109
 21
712.3146066395352
 31
0.0
  0
LINE
  5
464
330
1F
100
AcDbEntity
  8
0-0
  6
JWW_DASHED1
 62
   120
370
     5
100
AcDbLine
 10
110.8496031352098
 20
469.3856744513483
 30
0.0
 11
360.8496031351973
 21
719.3856744513371
 31
0.0
  0
LINE
  5
465
330
1F
100
AcDbEntity
  8
0-0
  6
JWW_DASHED1
 62
   120
370
     5
100
AcDbLine
 10
110.8496031352166
 20
476.4567422632214
 30
0.0
 11
360.8496031352075
 21
726.4567422632123
 31
0.0
  0
LINE
  5
466
330
1F
100
AcDbEntity
  8
0-0
  6
JWW_DASHED1
 62
   120
370
     5
100
AcDbLine
 10
110.8496031351996
 20
483.5278100750697
 30
0.0
 11
360.8496031352041
 21
733.5278100750743
 31
0.0
  0
LINE
  5
467
330
1F
100
AcDbEntity
  8
0-0
  6
JWW_DASHED1
 62
   120
370
     5
100
AcDbLine
 10
110.8496031352098
 20
490.5988778869466
 30
0.0
 11
360.8496031351973
 21
740.5988778869354
 31
0.0
  0
LINE
  5
468
330
1F
100
AcDbEntity
  8
0-0
  6
JWW_DASHED1
 62
   120
370
     5
100
AcDbLine
 10
110.8496031352132
 20
497.6699456988192
 30
0.0
 11
360.8496031352041
 21
747.6699456988106
 31
0.0
  0
LINE
  5
469
330
1F
100
AcDbEntity
  8
0-0
  6
JWW_DASHED1
 62
   120
370
     5
100
AcDbLine
 10
110.8496031352098
 20
504.7410135106804
 30
0.0
 11
360.8496031352178
 21
754.741013510687
 31
0.0
  0
LINE
  5
46A
330
1F
100
AcDbEntity
  8
0-0
  6
JWW_DASHED1
 62
   120
370
     5
100
AcDbLine
 10
110.8496031352064
 20
511.8120813225449
 30
0.0
 11
360.8496031352109
 21
761.812081322549
 31
0.0
  0
LINE
  5
46B
330
1F
100
AcDbEntity
  8
0-0
  6
JWW_DASHED1
 62
   120
370
     5
100
AcDbLine
 10
110.8496031352132
 20
518.8831491344175
 30
0.0
 11
360.8496031352041
 21
768.8831491344089
 31
0.0
  0
LINE
  5
46C
330
1F
100
AcDbEntity
  8
0-0
  6
JWW_DASHED1
 62
   120
370
     5
100
AcDbLine
 10
110.8496031352234
 20
525.9542169462944
 30
0.0
 11
360.8496031352144
 21
775.9542169462853
 31
0.0
  0
LINE
  5
46D
330
1F
100
AcDbEntity
  8
0-0
  6
JWW_DASHED1
 62
   120
370
     5
100
AcDbLine
 10
110.8496031352064
 20
533.0252847581423
 30
0.0
 11
360.8496031352109
 21
783.0252847581473
 31
0.0
  0
LINE
  5
46E
330
1F
100
AcDbEntity
  8
0-0
  6
JWW_DASHED1
 62
   120
370
     5
100
AcDbLine
 10
110.8496031352132
 20
540.0963525700158
 30
0.0
 11
360.8496031352041
 21
790.0963525700072
 31
0.0
  0
LINE
  5
46F
330
1F
100
AcDbEntity
  8
0-0
  6
JWW_DASHED1
 62
   120
370
     5
100
AcDbLine
 10
110.84960313522
 20
547.1674203818927
 30
0.0
 11
360.8496031352109
 21
797.1674203818836
 31
0.0
  0
LINE
  5
470
330
1F
100
AcDbEntity
  8
0-0
  6
JWW_DASHED1
 62
   120
370
     5
100
AcDbLine
 10
110.849603135203
 20
554.2384881937406
 30
0.0
 11
360.8496031352075
 21
804.2384881937452
 31
0.0
  0
LINE
  5
471
330
1F
100
AcDbEntity
  8
0-0
  6
JWW_DASHED1
 62
   120
370
     5
100
AcDbLine
 10
110.8496031352098
 20
561.3095560056141
 30
0.0
 11
360.8496031352007
 21
811.3095560056055
 31
0.0
  0
LINE
  5
472
330
1F
100
AcDbEntity
  8
0-0
  6
JWW_DASHED1
 62
   120
370
     5
100
AcDbLine
 10
110.84960313522
 20
568.380623817491
 30
0.0
 11
360.8496031352109
 21
818.3806238174819
 31
0.0
  0
LINE
  5
473
330
1F
100
AcDbEntity
  8
0-0
  6
JWW_DASHED1
 62
   120
370
     5
100
AcDbLine
 10
110.8496031351996
 20
575.4516916293389
 30
0.0
 11
360.8496031352041
 21
825.4516916293435
 31
0.0
  0
LINE
  5
474
330
1F
100
AcDbEntity
  8
0-0
  6
JWW_DASHED1
 62
   120
370
     5
100
AcDbLine
 10
110.8496031352064
 20
582.5227594412124
 30
0.0
 11
360.8496031351973
 21
832.5227594412038
 31
0.0
  0
LINE
  5
475
330
1F
100
AcDbEntity
  8
0-0
  6
JWW_DASHED1
 62
   120
370
     5
100
AcDbLine
 10
110.84960313522
 20
589.5938272530893
 30
0.0
 11
360.8496031352109
 21
839.5938272530802
 31
0.0
  0
LINE
  5
476
330
1F
100
AcDbEntity
  8
0-0
  6
JWW_DASHED1
 62
   120
370
     5
100
AcDbLine
 10
110.8496031351996
 20
596.6648950649368
 30
0.0
 11
360.8496031352041
 21
846.6648950649412
 31
0.0
  0
LINE
  5
477
330
1F
100
AcDbEntity
  8
0-0
  6
JWW_DASHED1
 62
   120
370
     5
100
AcDbLine
 10
110.8496031352098
 20
603.7359628768137
 30
0.0
 11
360.8496031351973
 21
853.7359628768025
 31
0.0
  0
LINE
  5
478
330
1F
100
AcDbEntity
  8
0-0
  6
JWW_DASHED1
 62
   120
370
     5
100
AcDbLine
 10
110.8496031352166
 20
610.8070306886876
 30
0.0
 11
360.8496031352075
 21
860.8070306886785
 31
0.0
  0
LINE
  5
479
330
1F
100
AcDbEntity
  8
0-0
  6
JWW_DASHED1
 62
   120
370
     5
100
AcDbLine
 10
110.8496031352098
 20
617.8780985005484
 30
0.0
 11
360.8496031352178
 21
867.8780985005554
 31
0.0
  0
LINE
  5
47A
330
1F
100
AcDbEntity
  8
0-0
  6
JWW_DASHED1
 62
   120
370
     5
100
AcDbLine
 10
110.8496031352234
 20
865.36547191584
 30
0.0
 11
117.9010417670696
 21
872.4169105476861
 31
0.0
  0
LINE
  5
47B
330
1F
100
AcDbEntity
  8
0-0
  6
JWW_DASHED1
 62
   120
370
     5
100
AcDbLine
 10
450.8496031352041
 20
625.5379113428646
 30
0.0
 11
697.7286023400274
 21
872.4169105476861
 31
0.0
  0
LINE
  5
47C
330
1F
100
AcDbEntity
  8
0-0
  6
JWW_DASHED1
 62
   120
370
     5
100
AcDbLine
 10
450.8496031352144
 20
632.608979154739
 30
0.0
 11
690.6575345281607
 21
872.4169105476861
 31
0.0
  0
LINE
  5
47D
330
1F
100
AcDbEntity
  8
0-0
  6
JWW_DASHED1
 62
   120
370
     5
100
AcDbLine
 10
450.8496031352075
 20
639.6800469665997
 30
0.0
 11
683.586466716294
 21
872.4169105476861
 31
0.0
  0
LINE
  5
47E
330
1F
100
AcDbEntity
  8
0-0
  6
JWW_DASHED1
 62
   120
370
     5
100
AcDbLine
 10
450.8496031352041
 20
646.7511147784629
 30
0.0
 11
676.5153989044273
 21
872.4169105476861
 31
0.0
  0
LINE
  5
47F
330
1F
100
AcDbEntity
  8
0-0
  6
JWW_DASHED1
 62
   120
370
     5
100
AcDbLine
 10
450.8496031352109
 20
653.8221825903373
 30
0.0
 11
669.4443310925607
 21
872.4169105476861
 31
0.0
  0
LINE
  5
480
330
1F
100
AcDbEntity
  8
0-0
  6
JWW_DASHED1
 62
   120
370
     5
100
AcDbLine
 10
450.8496031352041
 20
660.893250402198
 30
0.0
 11
662.373263280694
 21
872.4169105476861
 31
0.0
  0
LINE
  5
481
330
1F
100
AcDbEntity
  8
0-0
  6
JWW_DASHED1
 62
   120
370
     5
100
AcDbLine
 10
450.8496031352041
 20
667.9643182140612
 30
0.0
 11
655.3021954688273
 21
872.4169105476861
 31
0.0
  0
LINE
  5
482
330
1F
100
AcDbEntity
  8
0-0
  6
JWW_DASHED1
 62
   120
370
     5
100
AcDbLine
 10
450.8496031352109
 20
675.0353860259356
 30
0.0
 11
648.2311276569607
 21
872.4169105476861
 31
0.0
  0
LINE
  5
483
330
1F
100
AcDbEntity
  8
0-0
  6
JWW_DASHED1
 62
   120
370
     5
100
AcDbLine
 10
450.8496031352041
 20
682.1064538377963
 30
0.0
 11
641.160059845094
 21
872.4169105476861
 31
0.0
  0
LINE
  5
484
330
1F
100
AcDbEntity
  8
0-0
  6
JWW_DASHED1
 62
   120
370
     5
100
AcDbLine
 10
450.8496031352007
 20
689.1775216496591
 30
0.0
 11
634.0889920332273
 21
872.4169105476861
 31
0.0
  0
LINE
  5
485
330
1F
100
AcDbEntity
  8
0-0
  6
JWW_DASHED1
 62
   120
370
     5
100
AcDbLine
 10
450.8496031352075
 20
696.2485894615339
 30
0.0
 11
627.0179242213607
 21
872.4169105476861
 31
0.0
  0
LINE
  5
486
330
1F
100
AcDbEntity
  8
0-0
  6
JWW_DASHED1
 62
   120
370
     5
100
AcDbLine
 10
450.8496031352178
 20
703.3196572734108
 30
0.0
 11
619.946856409494
 21
872.4169105476861
 31
0.0
  0
LINE
  5
487
330
1F
100
AcDbEntity
  8
0-0
  6
JWW_DASHED1
 62
   120
370
     5
100
AcDbLine
 10
450.8496031351973
 20
710.3907250852574
 30
0.0
 11
612.8757885976273
 21
872.4169105476861
 31
0.0
  0
LINE
  5
488
330
1F
100
AcDbEntity
  8
0-0
  6
JWW_DASHED1
 62
   120
370
     5
100
AcDbLine
 10
450.8496031352075
 20
717.4617928971322
 30
0.0
 11
605.8047207857607
 21
872.4169105476861
 31
0.0
  0
LINE
  5
489
330
1F
100
AcDbEntity
  8
0-0
  6
JWW_DASHED1
 62
   120
370
     5
100
AcDbLine
 10
450.8496031352178
 20
724.5328607090087
 30
0.0
 11
598.733652973894
 21
872.4169105476861
 31
0.0
  0
LINE
  5
48A
330
1F
100
AcDbEntity
  8
0-0
  6
JWW_DASHED1
 62
   120
370
     5
100
AcDbLine
 10
450.8496031351973
 20
731.6039285208553
 30
0.0
 11
591.6625851620273
 21
872.4169105476861
 31
0.0
  0
LINE
  5
48B
330
1F
100
AcDbEntity
  8
0-0
  6
JWW_DASHED1
 62
   120
370
     5
100
AcDbLine
 10
450.8496031352041
 20
738.6749963327318
 30
0.0
 11
584.5915173501606
 21
872.4169105476861
 31
0.0
  0
LINE
  5
48C
330
1F
100
AcDbEntity
  8
0-0
  6
JWW_DASHED1
 62
   120
370
     5
100
AcDbLine
 10
450.8496031352144
 20
745.746064144607
 30
0.0
 11
577.520449538294
 21
872.4169105476861
 31
0.0
  0
LINE
  5
48D
330
1F
100
AcDbEntity
  8
0-0
  6
JWW_DASHED1
 62
   120
370
     5
100
AcDbLine
 10
450.8496031351939
 20
752.8171319564536
 30
0.0
 11
570.4493817264273
 21
872.4169105476861
 31
0.0
  0
LINE
  5
48E
330
1F
100
AcDbEntity
  8
0-0
  6
JWW_DASHED1
 62
   120
370
     5
100
AcDbLine
 10
450.8496031352041
 20
759.8881997683301
 30
0.0
 11
563.3783139145606
 21
872.4169105476861
 31
0.0
  0
LINE
  5
48F
330
1F
100
AcDbEntity
  8
0-0
  6
JWW_DASHED1
 62
   120
370
     5
100
AcDbLine
 10
450.8496031352109
 20
766.9592675802053
 30
0.0
 11
556.307246102694
 21
872.4169105476861
 31
0.0
  0
LINE
  5
490
330
1F
100
AcDbEntity
  8
0-0
  6
JWW_DASHED1
 62
   120
370
     5
100
AcDbLine
 10
450.8496031352075
 20
774.0303353920664
 30
0.0
 11
549.2361782908273
 21
872.4169105476861
 31
0.0
  0
LINE
  5
491
330
1F
100
AcDbEntity
  8
0-0
  6
JWW_DASHED1
 62
   120
370
     5
100
AcDbLine
 10
450.8496031352041
 20
781.1014032039279
 30
0.0
 11
542.1651104789606
 21
872.4169105476861
 31
0.0
  0
LINE
  5
492
330
1F
100
AcDbEntity
  8
0-0
  6
JWW_DASHED1
 62
   120
370
     5
100
AcDbLine
 10
450.8496031352109
 20
788.1724710158036
 30
0.0
 11
535.094042667094
 21
872.4169105476861
 31
0.0
  0
LINE
  5
493
330
1F
100
AcDbEntity
  8
0-0
  6
JWW_DASHED1
 62
   120
370
     5
100
AcDbLine
 10
450.8496031352041
 20
795.2435388276647
 30
0.0
 11
528.0229748552273
 21
872.4169105476861
 31
0.0
  0
LINE
  5
494
330
1F
100
AcDbEntity
  8
0-0
  6
JWW_DASHED1
 62
   120
370
     5
100
AcDbLine
 10
450.8496031352007
 20
802.3146066395262
 30
0.0
 11
520.9519070433606
 21
872.4169105476861
 31
0.0
  0
LINE
  5
495
330
1F
100
AcDbEntity
  8
0-0
  6
JWW_DASHED1
 62
   120
370
     5
100
AcDbLine
 10
450.8496031352041
 20
809.3856744513439
 30
0.0
 11
513.8808392315485
 21
872.4169105476861
 31
0.0
  0
LINE
  5
496
330
1F
100
AcDbEntity
  8
0-0
  6
JWW_DASHED1
 62
   120
370
     5
100
AcDbLine
 10
450.8496031352144
 20
816.4567422632196
 30
0.0
 11
506.8097714196819
 21
872.4169105476861
 31
0.0
  0
LINE
  5
497
330
1F
100
AcDbEntity
  8
0-0
  6
JWW_DASHED1
 62
   120
370
     5
100
AcDbLine
 10
450.8496031351939
 20
823.5278100750653
 30
0.0
 11
499.7387036078152
 21
872.4169105476861
 31
0.0
  0
LINE
  5
498
330
1F
100
AcDbEntity
  8
0-0
  6
JWW_DASHED1
 62
   120
370
     5
100
AcDbLine
 10
450.8496031352041
 20
830.5988778869418
 30
0.0
 11
492.6676357959485
 21
872.4169105476861
 31
0.0
  0
LINE
  5
499
330
1F
100
AcDbEntity
  8
0-0
  6
JWW_DASHED1
 62
   120
370
     5
100
AcDbLine
 10
450.8496031352144
 20
837.6699456988181
 30
0.0
 11
485.5965679840818
 21
872.4169105476861
 31
0.0
  0
LINE
  5
49A
330
1F
100
AcDbEntity
  8
0-0
  6
JWW_DASHED1
 62
   120
370
     5
100
AcDbLine
 10
450.8496031352075
 20
844.741013510679
 30
0.0
 11
478.5255001722152
 21
872.4169105476861
 31
0.0
  0
LINE
  5
49B
330
1F
100
AcDbEntity
  8
0-0
  6
JWW_DASHED1
 62
   120
370
     5
100
AcDbLine
 10
450.8496031352041
 20
851.81208132254
 30
0.0
 11
471.4544323603485
 21
872.4169105476861
 31
0.0
  0
LINE
  5
49C
330
1F
100
AcDbEntity
  8
0-0
  6
JWW_DASHED1
 62
   120
370
     5
100
AcDbLine
 10
450.8496031352109
 20
858.8831491344162
 30
0.0
 11
464.3833645484818
 21
872.4169105476861
 31
0.0
  0
LINE
  5
49D
330
1F
100
AcDbEntity
  8
0-0
  6
JWW_DASHED1
 62
   120
370
     5
100
AcDbLine
 10
450.8496031352041
 20
865.9542169462768
 30
0.0
 11
457.3122967366152
 21
872.4169105476861
 31
0.0
  0
LINE
  5
49E
330
1F
100
AcDbEntity
  8
0-0
  6
JWW_DASHED1
 62
   120
370
     5
100
AcDbLine
 10
110.8496031352064
 20
624.9491663124116
 30
0.0
 11
358.3173473704818
 21
872.4169105476861
 31
0.0
  0
LINE
  5
49F
330
1F
100
AcDbEntity
  8
0-0
  6
JWW_DASHED1
 62
   120
370
     5
100
AcDbLine
 10
110.8496031352132
 20
632.0202341242859
 30
0.0
 11
351.2462795586151
 21
872.4169105476861
 31
0.0
  0
LINE
  5
4A0
330
1F
100
AcDbEntity
  8
0-0
  6
JWW_DASHED1
 62
   120
370
     5
100
AcDbLine
 10
110.8496031352269
 20
639.0913019361624
 30
0.0
 11
344.1752117467485
 21
872.4169105476861
 31
0.0
  0
LINE
  5
4A1
330
1F
100
AcDbEntity
  8
0-0
  6
JWW_DASHED1
 62
   120
370
     5
100
AcDbLine
 10
110.8496031352064
 20
646.1623697480095
 30
0.0
 11
337.1041439348818
 21
872.4169105476861
 31
0.0
  0
LINE
  5
4A2
330
1F
100
AcDbEntity
  8
0-0
  6
JWW_DASHED1
 62
   120
370
     5
100
AcDbLine
 10
110.8496031352132
 20
653.2334375598842
 30
0.0
 11
330.0330761230151
 21
872.4169105476861
 31
0.0
  0
LINE
  5
4A3
330
1F
100
AcDbEntity
  8
0-0
  6
JWW_DASHED1
 62
   120
370
     5
100
AcDbLine
 10
110.8496031352234
 20
660.3045053717607
 30
0.0
 11
322.9620083111485
 21
872.4169105476861
 31
0.0
  0
LINE
  5
4A4
330
1F
100
AcDbEntity
  8
0-0
  6
JWW_DASHED1
 62
   120
370
     5
100
AcDbLine
 10
110.849603135203
 20
667.3755731836083
 30
0.0
 11
315.8909404992818
 21
872.4169105476861
 31
0.0
  0
LINE
  5
4A5
330
1F
100
AcDbEntity
  8
0-0
  6
JWW_DASHED1
 62
   120
370
     5
100
AcDbLine
 10
110.8496031352132
 20
674.4466409954825
 30
0.0
 11
308.8198726874151
 21
872.4169105476861
 31
0.0
  0
LINE
  5
4A6
330
1F
100
AcDbEntity
  8
0-0
  6
JWW_DASHED1
 62
   120
370
     5
100
AcDbLine
 10
110.84960313522
 20
681.517708807359
 30
0.0
 11
301.7488048755484
 21
872.4169105476861
 31
0.0
  0
LINE
  5
4A7
330
1F
100
AcDbEntity
  8
0-0
  6
JWW_DASHED1
 62
   120
370
     5
100
AcDbLine
 10
110.8496031351996
 20
688.5887766192056
 30
0.0
 11
294.6777370636818
 21
872.4169105476861
 31
0.0
  0
LINE
  5
4A8
330
1F
100
AcDbEntity
  8
0-0
  6
JWW_DASHED1
 62
   120
370
     5
100
AcDbLine
 10
110.8496031352098
 20
695.6598444310808
 30
0.0
 11
287.6066692518151
 21
872.4169105476861
 31
0.0
  0
LINE
  5
4A9
330
1F
100
AcDbEntity
  8
0-0
  6
JWW_DASHED1
 62
   120
370
     5
100
AcDbLine
 10
110.8496031352166
 20
702.730912242928
 30
0.0
 11
280.5356014399757
 21
872.4169105476861
 31
0.0
  0
LINE
  5
4AA
330
1F
100
AcDbEntity
  8
0-0
  6
JWW_DASHED1
 62
   120
370
     5
100
AcDbLine
 10
110.8496031352098
 20
709.8019800547592
 30
0.0
 11
273.4645336281363
 21
872.4169105476861
 31
0.0
  0
LINE
  5
4AB
330
1F
100
AcDbEntity
  8
0-0
  6
JWW_DASHED1
 62
   120
370
     5
100
AcDbLine
 10
110.8496031352064
 20
716.8730478666216
 30
0.0
 11
266.3934658162697
 21
872.4169105476861
 31
0.0
  0
LINE
  5
4AC
330
1F
100
AcDbEntity
  8
0-0
  6
JWW_DASHED1
 62
   120
370
     5
100
AcDbLine
 10
110.8496031352132
 20
723.9441156784968
 30
0.0
 11
259.322398004403
 21
872.4169105476861
 31
0.0
  0
LINE
  5
4AD
330
1F
100
AcDbEntity
  8
0-0
  6
JWW_DASHED1
 62
   120
370
     5
100
AcDbLine
 10
110.8496031352234
 20
731.0151834903733
 30
0.0
 11
252.2513301925363
 21
872.4169105476861
 31
0.0
  0
LINE
  5
4AE
330
1F
100
AcDbEntity
  8
0-0
  6
JWW_DASHED1
 62
   120
370
     5
100
AcDbLine
 10
110.849603135203
 20
738.0862513022199
 30
0.0
 11
245.1802623806697
 21
872.4169105476861
 31
0.0
  0
LINE
  5
4AF
330
1F
100
AcDbEntity
  8
0-0
  6
JWW_DASHED1
 62
   120
370
     5
100
AcDbLine
 10
110.8496031352132
 20
745.1573191140951
 30
0.0
 11
238.109194568803
 21
872.4169105476861
 31
0.0
  0
LINE
  5
4B0
330
1F
100
AcDbEntity
  8
0-0
  6
JWW_DASHED1
 62
   120
370
     5
100
AcDbLine
 10
110.84960313522
 20
752.2283869259716
 30
0.0
 11
231.0381267569363
 21
872.4169105476861
 31
0.0
  0
LINE
  5
4B1
330
1F
100
AcDbEntity
  8
0-0
  6
JWW_DASHED1
 62
   120
370
     5
100
AcDbLine
 10
110.8496031351996
 20
759.2994547378178
 30
0.0
 11
223.9670589450697
 21
872.4169105476861
 31
0.0
  0
LINE
  5
4B2
330
1F
100
AcDbEntity
  8
0-0
  6
JWW_DASHED1
 62
   120
370
     5
100
AcDbLine
 10
110.8496031352098
 20
766.3705225496934
 30
0.0
 11
216.895991133203
 21
872.4169105476861
 31
0.0
  0
LINE
  5
4B3
330
1F
100
AcDbEntity
  8
0-0
  6
JWW_DASHED1
 62
   120
370
     5
100
AcDbLine
 10
110.84960313522
 20
773.4415903615699
 30
0.0
 11
209.8249233213363
 21
872.4169105476861
 31
0.0
  0
LINE
  5
4B4
330
1F
100
AcDbEntity
  8
0-0
  6
JWW_DASHED1
 62
   120
370
     5
100
AcDbLine
 10
110.8496031351996
 20
780.5126581734161
 30
0.0
 11
202.7538555094696
 21
872.4169105476861
 31
0.0
  0
LINE
  5
4B5
330
1F
100
AcDbEntity
  8
0-0
  6
JWW_DASHED1
 62
   120
370
     5
100
AcDbLine
 10
110.8496031352064
 20
787.5837259852917
 30
0.0
 11
195.682787697603
 21
872.4169105476861
 31
0.0
  0
LINE
  5
4B6
330
1F
100
AcDbEntity
  8
0-0
  6
JWW_DASHED1
 62
   120
370
     5
100
AcDbLine
 10
110.84960313522
 20
794.6547937971682
 30
0.0
 11
188.6117198857363
 21
872.4169105476861
 31
0.0
  0
LINE
  5
4B7
330
1F
100
AcDbEntity
  8
0-0
  6
JWW_DASHED1
 62
   120
370
     5
100
AcDbLine
 10
110.8496031351996
 20
801.7258616090144
 30
0.0
 11
181.5406520738696
 21
872.4169105476861
 31
0.0
  0
LINE
  5
4B8
330
1F
100
AcDbEntity
  8
0-0
  6
JWW_DASHED1
 62
   120
370
     5
100
AcDbLine
 10
110.8496031352064
 20
808.7969294208905
 30
0.0
 11
174.469584262003
 21
872.4169105476861
 31
0.0
  0
LINE
  5
4B9
330
1F
100
AcDbEntity
  8
0-0
  6
JWW_DASHED1
 62
   120
370
     5
100
AcDbLine
 10
110.8496031352166
 20
815.8679972327665
 30
0.0
 11
167.3985164501363
 21
872.4169105476861
 31
0.0
  0
LINE
  5
4BA
330
1F
100
AcDbEntity
  8
0-0
  6
JWW_DASHED1
 62
   120
370
     5
100
AcDbLine
 10
110.8496031352098
 20
822.9390650446272
 30
0.0
 11
160.3274486382696
 21
872.4169105476861
 31
0.0
  0
LINE
  5
4BB
330
1F
100
AcDbEntity
  8
0-0
  6
JWW_DASHED1
 62
   120
370
     5
100
AcDbLine
 10
110.8496031352064
 20
830.0101328564888
 30
0.0
 11
153.256380826403
 21
872.4169105476861
 31
0.0
  0
LINE
  5
4BC
330
1F
100
AcDbEntity
  8
0-0
  6
JWW_DASHED1
 62
   120
370
     5
100
AcDbLine
 10
110.8496031352132
 20
837.0812006683648
 30
0.0
 11
146.1853130145363
 21
872.4169105476861
 31
0.0
  0
LINE
  5
4BD
330
1F
100
AcDbEntity
  8
0-0
  6
JWW_DASHED1
 62
   120
370
     5
100
AcDbLine
 10
110.8496031352269
 20
844.1522684802417
 30
0.0
 11
139.1142452026696
 21
872.4169105476861
 31
0.0
  0
LINE
  5
4BE
330
1F
100
AcDbEntity
  8
0-0
  6
JWW_DASHED1
 62
   120
370
     5
100
AcDbLine
 10
110.849603135203
 20
851.2233362920866
 30
0.0
 11
132.043177390803
 21
872.4169105476861
 31
0.0
  0
LINE
  5
4BF
330
1F
100
AcDbEntity
  8
0-0
  6
JWW_DASHED1
 62
   120
370
     5
100
AcDbLine
 10
110.8496031352132
 20
858.2944041039631
 30
0.0
 11
124.9721095789363
 21
872.4169105476861
 31
0.0
  0
LINE
  5
4C0
330
1F
100
AcDbEntity
  8
0-0
  6
Continuous
 62
    92
370
    13
100
AcDbLine
 10
-669.1503968647902
 20
-975.5830894523136
 30
0.0
 11
-669.1503968647902
 21
1007.416910547687
 31
0.0
  0
LINE
  5
4C1
330
1F
100
AcDbEntity
  8
0-0
  6
Continuous
 62
    92
370
    13
100
AcDbLine
 10
-79.15039686478792
 20
-975.5830894523136
 30
0.0
 11
-79.15039686478792
 21
1007.416910547687
 31
0.0
  0
LINE
  5
4C2
330
1F
100
AcDbEntity
  8
0-0
  6
Continuous
 62
    92
370
    13
100
AcDbLine
 10
700.8496031352121
 20
-975.5830894523136
 30
0.0
 11
700.8496031352121
 21
1007.416910547687
 31
0.0
  0
LINE
  5
4C3
330
1F
100
AcDbEntity
  8
0-0
  6
Continuous
 62
    92
370
    13
100
AcDbLine
 10
110.8496031352098
 20
-975.5830894523136
 30
0.0
 11
110.8496031352098
 21
1007.416910547687
 31
0.0
  0
LINE
  5
4C4
330
1F
100
AcDbEntity
  8
寸法
  6
Continuous
 62
   120
370
     5
100
AcDbLine
 10
30.84960313521094
 20
-1245.583089452314
 30
0.0
 11
-779.1503968647891
 21
-1245.583089452314
 31
0.0
  0
LINE
  5
4C5
330
1F
100
AcDbEntity
  8
寸法
  6
Continuous
 62
   120
370
     5
100
AcDbLine
 10
30.84960313521094
 20
-1245.583089452314
 30
0.0
 11
30.84960313521094
 21
-1045.583089452314
 31
0.0
  0
LINE
  5
4C6
330
1F
100
AcDbEntity
  8
寸法
  6
Continuous
 62
   120
370
     5
100
AcDbLine
 10
-779.1503968647891
 20
-1245.583089452314
 30
0.0
 11
-779.1503968647891
 21
-1045.583089452314
 31
0.0
  0
LINE
  5
4C7
330
1F
100
AcDbEntity
  8
寸法
  6
Continuous
 62
   120
370
     5
100
AcDbLine
 10
-806.1503968647884
 20
-1645.583089452314
 30
0.0
 11
-806.1503968647884
 21
-1045.583089452314
 31
0.0
  0
LINE
  5
4C8
330
1F
100
AcDbEntity
  8
寸法
  6
Continuous
 62
   120
370
     5
100
AcDbLine
 10
-806.1503968647884
 20
-1645.583089452314
 30
0.0
 11
1617.84960313521
 21
-1645.583089452313
 31
0.0
  0
LINE
  5
4C9
330
1F
100
AcDbEntity
  8
寸法
  6
Continuous
 62
   120
370
     5
100
AcDbLine
 10
1617.84960313521
 20
-1645.583089452313
 30
0.0
 11
1617.84960313521
 21
-1045.583089452314
 31
0.0
  0
LINE
  5
4CA
330
1F
100
AcDbEntity
  8
寸法
  6
Continuous
 62
   120
370
     5
100
AcDbLine
 10
-776.1503968647884
 20
-1445.583089452313
 30
0.0
 11
780.8496031352109
 21
-1445.583089452313
 31
0.0
  0
LINE
  5
4CB
330
1F
100
AcDbEntity
  8
寸法
  6
Continuous
 62
   120
370
     5
100
AcDbLine
 10
-776.1503968647884
 20
-1445.583089452313
 30
0.0
 11
-776.1503968647884
 21
-1045.583089452314
 31
0.0
  0
LINE
  5
4CC
330
1F
100
AcDbEntity
  8
寸法
  6
Continuous
 62
   120
370
     5
100
AcDbLine
 10
780.8496031352109
 20
-1445.583089452313
 30
0.0
 11
780.8496031352109
 21
-1045.583089452314
 31
0.0
  0
LWPOLYLINE
  5
4CD
330
1F
100
AcDbEntity
  8
寸法
  6
Continuous
 62
     7
370
     9
100
AcDbPolyline
 90
        4
 70
     1
 43
3.0
 10
32.34960313521094
 20
-1245.583089452314
 42
0.4142135623731
 10
30.84960313521094
 20
-1244.083089452314
 42
0.4142135623731
 10
29.34960313521094
 20
-1245.583089452314
 42
0.4142135623731
 10
30.84960313521094
 20
-1247.083089452314
 42
0.4142135623731
  0
LWPOLYLINE
  5
4CE
330
1F
100
AcDbEntity
  8
寸法
  6
Continuous
 62
     7
370
     9
100
AcDbPolyline
 90
        4
 70
     1
 43
3.0
 10
-777.6503968647891
 20
-1245.583089452314
 42
0.4142135623731
 10
-779.1503968647891
 20
-1244.083089452314
 42
0.4142135623731
 10
-780.6503968647891
 20
-1245.583089452314
 42
0.4142135623731
 10
-779.1503968647891
 20
-1247.083089452314
 42
0.4142135623731
  0
LWPOLYLINE
  5
4CF
330
1F
100
AcDbEntity
  8
寸法
  6
Continuous
 62
     7
370
     9
100
AcDbPolyline
 90
        4
 70
     1
 43
3.0
 10
-804.6503968647884
 20
-1645.583089452314
 42
0.4142135623731
 10
-806.1503968647884
 20
-1644.083089452314
 42
0.4142135623731
 10
-807.6503968647884
 20
-1645.583089452314
 42
0.4142135623731
 10
-806.1503968647884
 20
-1647.083089452314
 42
0.4142135623731
  0
LWPOLYLINE
  5
4D0
330
1F
100
AcDbEntity
  8
寸法
  6
Continuous
 62
     7
370
     9
100
AcDbPolyline
 90
        4
 70
     1
 43
3.0
 10
1619.34960313521
 20
-1645.583089452313
 42
0.4142135623731
 10
1617.84960313521
 20
-1644.083089452313
 42
0.4142135623731
 10
1616.34960313521
 20
-1645.583089452313
 42
0.4142135623731
 10
1617.84960313521
 20
-1647.083089452313
 42
0.4142135623731
  0
LWPOLYLINE
  5
4D1
330
1F
100
AcDbEntity
  8
寸法
  6
Continuous
 62
     7
370
     9
100
AcDbPolyline
 90
        4
 70
     1
 43
3.0
 10
-774.6503968647884
 20
-1445.583089452313
 42
0.4142135623731
 10
-776.1503968647884
 20
-1444.083089452313
 42
0.4142135623731
 10
-777.6503968647884
 20
-1445.583089452313
 42
0.4142135623731
 10
-776.1503968647884
 20
-1447.083089452313
 42
0.4142135623731
  0
LWPOLYLINE
  5
4D2
330
1F
100
AcDbEntity
  8
寸法
  6
Continuous
 62
     7
370
     9
100
AcDbPolyline
 90
        4
 70
     1
 43
3.0
 10
782.3496031352109
 20
-1445.583089452313
 42
0.4142135623731
 10
780.8496031352109
 20
-1444.083089452313
 42
0.4142135623731
 10
779.3496031352109
 20
-1445.583089452313
 42
0.4142135623731
 10
780.8496031352109
 20
-1447.083089452313
 42
0.4142135623731
  0
LINE
  5
4D3
330
1F
100
AcDbEntity
  8
寸法
  6
Continuous
 62
   120
370
     5
100
AcDbLine
 10
-1256.15039686479
 20
1051.416910547686
 30
0.0
 11
-1256.15039686479
 21
-995.5830894523142
 31
0.0
  0
LINE
  5
4D4
330
1F
100
AcDbEntity
  8
寸法
  6
Continuous
 62
   120
370
     5
100
AcDbLine
 10
-1256.15039686479
 20
1051.416910547686
 30
0.0
 11
-856.1503968647907
 21
1051.416910547686
 31
0.0
  0
LINE
  5
4D5
330
1F
100
AcDbEntity
  8
寸法
  6
Continuous
 62
   120
370
     5
100
AcDbLine
 10
-1256.15039686479
 20
-995.5830894523142
 30
0.0
 11
-856.1503968647907
 21
-995.5830894523142
 31
0.0
  0
LINE
  5
4D6
330
1F
100
AcDbEntity
  8
寸法
  6
Continuous
 62
   120
370
     5
100
AcDbLine
 10
-1056.150396864789
 20
-975.5830894523133
 30
0.0
 11
-856.1503968647907
 21
-975.5830894523133
 31
0.0
  0
LWPOLYLINE
  5
4D7
330
1F
100
AcDbEntity
  8
寸法
  6
Continuous
 62
     7
370
     9
100
AcDbPolyline
 90
        4
 70
     1
 43
3.0
 10
-1254.65039686479
 20
1051.416910547686
 42
0.4142135623731
 10
-1256.15039686479
 20
1052.916910547686
 42
0.4142135623731
 10
-1257.65039686479
 20
1051.416910547686
 42
0.4142135623731
 10
-1256.15039686479
 20
1049.916910547686
 42
0.4142135623731
  0
LWPOLYLINE
  5
4D8
330
1F
100
AcDbEntity
  8
寸法
  6
Continuous
 62
     7
370
     9
100
AcDbPolyline
 90
        4
 70
     1
 43
3.0
 10
-1254.65039686479
 20
-995.5830894523142
 42
0.4142135623731
 10
-1256.15039686479
 20
-994.0830894523143
 42
0.4142135623731
 10
-1257.65039686479
 20
-995.5830894523142
 42
0.4142135623731
 10
-1256.15039686479
 20
-997.0830894523142
 42
0.4142135623731
  0
LWPOLYLINE
  5
4D9
330
1F
100
AcDbEntity
  8
寸法
  6
Continuous
 62
     7
370
     9
100
AcDbPolyline
 90
        4
 70
     1
 43
3.0
 10
-1054.650396864789
 20
-975.5830894523133
 42
0.4142135623731
 10
-1056.150396864789
 20
-974.0830894523133
 42
0.4142135623731
 10
-1057.650396864789
 20
-975.5830894523133
 42
0.4142135623731
 10
-1056.150396864789
 20
-977.0830894523132
 42
0.4142135623731
  0
LINE
  5
4DA
330
1F
100
AcDbEntity
  8
寸法
  6
Continuous
 62
   120
370
     5
100
AcDbLine
 10
-1056.150396864789
 20
1007.416910547687
 30
0.0
 11
-856.1503968647907
 21
1007.416910547687
 31
0.0
  0
LINE
  5
4DB
330
1F
100
AcDbEntity
  8
寸法
  6
Continuous
 62
   120
370
     5
100
AcDbLine
 10
-1056.150396864789
 20
1007.416910547687
 30
0.0
 11
-1056.150396864789
 21
-975.5830894523133
 31
0.0
  0
LWPOLYLINE
  5
4DC
330
1F
100
AcDbEntity
  8
寸法
  6
Continuous
 62
     7
370
     9
100
AcDbPolyline
 90
        4
 70
     1
 43
3.0
 10
-1054.650396864789
 20
1007.416910547687
 42
0.4142135623731
 10
-1056.150396864789
 20
1008.916910547687
 42
0.4142135623731
 10
-1057.650396864789
 20
1007.416910547687
 42
0.4142135623731
 10
-1056.150396864789
 20
1005.916910547687
 42
0.4142135623731
  0
MTEXT
  5
4DD
330
1F
100
AcDbEntity
  8
寸法
  6
Continuous
 62
     7
370
    70
100
AcDbMText
 10
-1271.15039686479
 20
-187.2580894523132
 30
0.0
 40
57.14999999999999
 41
412.5
 46
0.0
 71
     7
 72
     1
  1
{\fＭＳ ゴシック|b0|i0|c128|p49;枠外＝2,047}
 11
6.123031769111886E-17
 21
1.0
 31
0.0
 73
     1
 44
1.0
  0
MTEXT
  5
4DE
330
1F
100
AcDbEntity
  8
寸法
  6
Continuous
 62
     7
370
    70
100
AcDbMText
 10
-1071.150396864789
 20
-193.2580894523137
 30
0.0
 40
57.14999999999999
 41
412.5
 46
0.0
 71
     7
 72
     1
  1
{\fＭＳ ゴシック|b0|i0|c128|p49;ＤＨ＝1,983}
 11
6.123031769111886E-17
 21
1.0
 31
0.0
 73
     1
 44
1.0
  0
MTEXT
  5
4DF
330
1F
100
AcDbEntity
  8
寸法
  6
Continuous
 62
     7
370
   211
100
AcDbMText
 10
-542.9003968647891
 20
-1239.508089452314
 30
0.0
 40
57.15
 41
337.5
 46
0.0
 71
     7
 72
     1
  1
{\fＭＳ ゴシック|b0|i0|c128|p49;ＤＷ＝810}
 73
     1
 44
1.0
  0
MTEXT
  5
4E0
330
1F
100
AcDbEntity
  8
寸法
  6
Continuous
 62
     7
370
   211
100
AcDbMText
 10
-203.9003968647904
 20
-1439.508089452313
 30
0.0
 40
57.14999999999999
 41
412.5
 46
0.0
 71
     7
 72
     1
  1
{\fＭＳ ゴシック|b0|i0|c128|p49;枠内＝1,557}
 73
     1
 44
1.0
  0
MTEXT
  5
4E1
330
1F
100
AcDbEntity
  8
寸法
  6
Continuous
 62
     7
370
   211
100
AcDbMText
 10
199.5996031352109
 20
-1639.508089452313
 30
0.0
 40
57.14999999999999
 41
412.5
 46
0.0
 71
     7
 72
     1
  1
{\fＭＳ ゴシック|b0|i0|c128|p49;枠外＝2,427}
 73
     1
 44
1.0
  0
ENDSEC
  0
SECTION
  2
OBJECTS
  0
DICTIONARY
  5
C
330
0
100
AcDbDictionary
281
     1
  3
ACAD_GROUP
350
D
  3
ACAD_LAYOUT
350
1A
  3
ACAD_MATERIAL
350
3B
  3
ACAD_MLEADERSTYLE
350
4E3
  3
ACAD_MLINESTYLE
350
17
  3
ACAD_PLOTSETTINGS
350
19
  3
ACAD_PLOTSTYLENAME
350
E
  3
ACAD_TABLESTYLE
350
4E2
  3
ACAD_VISUALSTYLE
350
2A
  0
DICTIONARY
  5
D
102
{ACAD_REACTORS
330
C
102
}
330
C
100
AcDbDictionary
281
     1
  0
DICTIONARY
  5
1A
102
{ACAD_REACTORS
330
C
102
}
330
C
100
AcDbDictionary
281
     1
  3
Layout1
350
1E
  3
Layout2
350
26
  3
Model
350
22
  0
DICTIONARY
  5
3B
102
{ACAD_REACTORS
330
C
102
}
330
C
100
AcDbDictionary
281
     1
  3
ByBlock
350
3D
  3
ByLayer
350
3C
  3
Global
350
3E
  0
DICTIONARY
  5
4E3
102
{ACAD_REACTORS
330
C
102
}
330
C
100
AcDbDictionary
281
     1
  0
DICTIONARY
  5
17
102
{ACAD_REACTORS
330
C
102
}
330
C
100
AcDbDictionary
281
     1
  3
Standard
350
18
  0
DICTIONARY
  5
19
102
{ACAD_REACTORS
330
C
102
}
330
C
100
AcDbDictionary
281
     1
  0
ACDBDICTIONARYWDFLT
  5
E
102
{ACAD_REACTORS
330
C
102
}
330
C
100
AcDbDictionary
281
     1
  3
Normal
350
F
100
AcDbDictionaryWithDefault
340
F
  0
DICTIONARY
  5
4E2
102
{ACAD_REACTORS
330
C
102
}
330
C
100
AcDbDictionary
281
     1
  0
DICTIONARY
  5
2A
102
{ACAD_REACTORS
330
C
102
}
330
C
100
AcDbDictionary
281
     1
  3
2dWireframe
350
2F
  3
3D Hidden
350
31
  3
3dWireframe
350
30
  3
Basic
350
32
  3
Brighten
350
36
  3
ColorChange
350
3A
  3
Conceptual
350
34
  3
Dim
350
35
  3
Facepattern
350
39
  3
Flat
350
2B
  3
FlatWithEdges
350
2C
  3
Gouraud
350
2D
  3
GouraudWithEdges
350
2E
  3
Linepattern
350
38
  3
Realistic
350
33
  3
Thicken
350
37
  0
LAYOUT
  5
1E
102
{ACAD_REACTORS
330
1A
102
}
330
1A
100
AcDbPlotSettings
  1

  2
none_device
  4

  6

 40
0.0
 41
0.0
 42
0.0
 43
0.0
 44
0.0
 45
0.0
 46
0.0
 47
0.0
 48
0.0
 49
0.0
140
0.0
141
0.0
142
1.0
143
1.0
 70
   688
 72
     0
 73
     0
 74
     5
  7

 75
    16
 76
     0
 77
     5
 78
   300
147
1.0
148
0.0
149
0.0
100
AcDbLayout
  1
Layout1
 70
     1
 71
     1
 10
0.0
 20
0.0
 11
420.0
 21
297.0
 12
0.0
 22
0.0
 32
0.0
 14
1.000000000000000E+20
 24
1.000000000000000E+20
 34
1.000000000000000E+20
 15
-1.000000000000000E+20
 25
-1.000000000000000E+20
 35
-1.000000000000000E+20
146
0.0
 13
0.0
 23
0.0
 33
0.0
 16
1.0
 26
0.0
 36
0.0
 17
0.0
 27
1.0
 37
0.0
 76
     0
330
1B
  0
LAYOUT
  5
26
102
{ACAD_REACTORS
330
1A
102
}
330
1A
100
AcDbPlotSettings
  1

  2
none_device
  4

  6

 40
0.0
 41
0.0
 42
0.0
 43
0.0
 44
0.0
 45
0.0
 46
0.0
 47
0.0
 48
0.0
 49
0.0
140
0.0
141
0.0
142
1.0
143
1.0
 70
   688
 72
     0
 73
     0
 74
     5
  7

 75
    16
 76
     0
 77
     5
 78
   300
147
1.0
148
0.0
149
0.0
100
AcDbLayout
  1
Layout2
 70
     1
 71
     2
 10
0.0
 20
0.0
 11
0.0
 21
0.0
 12
0.0
 22
0.0
 32
0.0
 14
0.0
 24
0.0
 34
0.0
 15
0.0
 25
0.0
 35
0.0
146
0.0
 13
0.0
 23
0.0
 33
0.0
 16
1.0
 26
0.0
 36
0.0
 17
0.0
 27
1.0
 37
0.0
 76
     0
330
23
  0
LAYOUT
  5
22
102
{ACAD_REACTORS
330
1A
102
}
330
1A
100
AcDbPlotSettings
  1

  2
none_device
  4

  6

 40
0.0
 41
0.0
 42
0.0
 43
0.0
 44
0.0
 45
0.0
 46
0.0
 47
0.0
 48
0.0
 49
0.0
140
0.0
141
0.0
142
1.0
143
1.0
 70
  1712
 72
     0
 73
     0
 74
     0
  7

 75
     0
 76
     0
 77
     5
 78
   300
147
1.0
148
0.0
149
0.0
100
AcDbLayout
  1
Model
 70
     1
 71
     0
 10
-4455.0
 20
-3150.0
 11
4455.0
 21
3150.0
 12
0.0
 22
0.0
 32
0.0
 14
-4455.0
 24
-3150.0
 34
0.0
 15
4455.0
 25
3150.0
 35
0.0
146
0.0
 13
0.0
 23
0.0
 33
0.0
 16
1.0
 26
0.0
 36
0.0
 17
0.0
 27
1.0
 37
0.0
 76
     0
330
1F
331
29
  0
MATERIAL
  5
3D
102
{ACAD_REACTORS
330
3B
102
}
330
3B
100
AcDbMaterial
  1
ByBlock
 72
     1
 94
      127
  0
MATERIAL
  5
3C
102
{ACAD_REACTORS
330
3B
102
}
330
3B
100
AcDbMaterial
  1
ByLayer
 72
     1
 94
      127
  0
MATERIAL
  5
3E
102
{ACAD_REACTORS
330
3B
102
}
330
3B
100
AcDbMaterial
  1
Global
 72
     1
 94
      127
  0
MLINESTYLE
  5
18
102
{ACAD_REACTORS
330
17
102
}
330
17
100
AcDbMlineStyle
  2
Standard
 70
     0
  3

 62
   256
 51
90.0
 52
90.0
 71
     2
 49
0.5
 62
   256
  6
BYLAYER
 49
-0.5
 62
   256
  6
BYLAYER
  0
ACDBPLACEHOLDER
  5
F
102
{ACAD_REACTORS
330
E
102
}
330
E
  0
VISUALSTYLE
  5
2F
102
{ACAD_REACTORS
330
2A
102
}
330
2A
100
AcDbVisualStyle
  2
2dWireframe
 70
     4
177
     2
291
     0
 71
     0
176
     1
 72
     2
176
     1
 73
     0
176
     1
 90
        0
176
     1
 40
-0.6
176
     1
 41
-30.0
176
     1
 62
     5
 63
     7
421
 16777215
176
     1
 74
     1
176
     1
 91
        4
176
     1
 64
     7
176
     1
 65
   257
176
     1
 75
     1
176
     1
175
     1
176
     1
 42
1.0
176
     1
 92
        0
176
     1
 66
   257
176
     1
 43
1.0
176
     1
 76
     1
176
     1
 77
     6
176
     1
 78
     2
176
     1
 67
     7
176
     1
 79
     5
176
     1
170
     0
176
     1
171
     0
176
     1
290
     0
176
     1
 93
        1
176
     1
 44
0.0
176
     1
173
     0
176
     1
  0
VISUALSTYLE
  5
31
102
{ACAD_REACTORS
330
2A
102
}
330
2A
100
AcDbVisualStyle
  2
3D Hidden
 70
     6
177
     2
291
     0
 71
     1
176
     1
 72
     2
176
     1
 73
     2
176
     1
 90
        0
176
     1
 40
-0.6
176
     1
 41
-30.0
176
     1
 62
     5
 63
     7
421
 16777215
176
     1
 74
     2
176
     1
 91
        2
176
     1
 64
     7
176
     1
 65
   257
176
     1
 75
     2
176
     1
175
     1
176
     1
 42
40.0
176
     1
 92
        0
176
     1
 66
   257
176
     1
 43
1.0
176
     1
 76
     1
176
     1
 77
     6
176
     1
 78
     2
176
     1
 67
     7
176
     1
 79
     3
176
     1
170
     0
176
     1
171
     0
176
     1
290
     0
176
     1
 93
        1
176
     1
 44
0.0
176
     1
173
     0
176
     1
  0
VISUALSTYLE
  5
30
102
{ACAD_REACTORS
330
2A
102
}
330
2A
100
AcDbVisualStyle
  2
3dWireframe
 70
     5
177
     2
291
     0
 71
     0
176
     1
 72
     2
176
     1
 73
     0
176
     1
 90
        0
176
     1
 40
-0.6
176
     1
 41
-30.0
176
     1
 62
     5
 63
     7
421
 16777215
176
     1
 74
     1
176
     1
 91
        4
176
     1
 64
     7
176
     1
 65
   257
176
     1
 75
     1
176
     1
175
     1
176
     1
 42
1.0
176
     1
 92
        0
176
     1
 66
   257
176
     1
 43
1.0
176
     1
 76
     1
176
     1
 77
     6
176
     1
 78
     2
176
     1
 67
     7
176
     1
 79
     5
176
     1
170
     0
176
     1
171
     0
176
     1
290
     0
176
     1
 93
        1
176
     1
 44
0.0
176
     1
173
     0
176
     1
  0
VISUALSTYLE
  5
32
102
{ACAD_REACTORS
330
2A
102
}
330
2A
100
AcDbVisualStyle
  2
Basic
 70
     7
177
     2
291
     1
 71
     1
176
     1
 72
     0
176
     1
 73
     1
176
     1
 90
        0
176
     1
 40
-0.6
176
     1
 41
-30.0
176
     1
 62
     5
 63
     7
421
 16777215
176
     1
 74
     0
176
     1
 91
        4
176
     1
 64
     7
176
     1
 65
   257
176
     1
 75
     1
176
     1
175
     1
176
     1
 42
1.0
176
     1
 92
        8
176
     1
 66
     7
176
     1
 43
1.0
176
     1
 76
     1
176
     1
 77
     6
176
     1
 78
     2
176
     1
 67
     7
176
     1
 79
     5
176
     1
170
     0
176
     1
171
     0
176
     1
290
     0
176
     1
 93
        1
176
     1
 44
0.0
176
     1
173
     0
176
     1
  0
VISUALSTYLE
  5
36
102
{ACAD_REACTORS
330
2A
102
}
330
2A
100
AcDbVisualStyle
  2
Brighten
 70
    12
177
     2
291
     1
 71
     2
176
     1
 72
     2
176
     1
 73
     0
176
     1
 90
        0
176
     1
 40
-0.6
176
     1
 41
-30.0
176
     1
 62
     5
 63
     7
421
 16777215
176
     1
 74
     1
176
     1
 91
        4
176
     1
 64
     7
176
     1
 65
   257
176
     1
 75
     1
176
     1
175
     1
176
     1
 42
1.0
176
     1
 92
        8
176
     1
 66
     7
176
     1
 43
1.0
176
     1
 76
     1
176
     1
 77
     6
176
     1
 78
     2
176
     1
 67
     7
176
     1
 79
     5
176
     1
170
     0
176
     1
171
     0
176
     1
290
     0
176
     1
 93
        1
176
     1
 44
50.0
176
     1
173
     0
176
     1
  0
VISUALSTYLE
  5
3A
102
{ACAD_REACTORS
330
2A
102
}
330
2A
100
AcDbVisualStyle
  2
ColorChange
 70
    16
177
     2
291
     1
 71
     2
176
     1
 72
     2
176
     1
 73
     3
176
     1
 90
        0
176
     1
 40
-0.6
176
     1
 41
-30.0
176
     1
 62
     5
 63
     8
421
  8421504
176
     1
 74
     1
176
     1
 91
        4
176
     1
 64
     7
176
     1
 65
   257
176
     1
 75
     1
176
     1
175
     1
176
     1
 42
1.0
176
     1
 92
        8
176
     1
 66
     8
424
  8421504
176
     1
 43
1.0
176
     1
 76
     1
176
     1
 77
     6
176
     1
 78
     2
176
     1
 67
     7
176
     1
 79
     5
176
     1
170
     0
176
     1
171
     0
176
     1
290
     0
176
     1
 93
        1
176
     1
 44
0.0
176
     1
173
     0
176
     1
  0
VISUALSTYLE
  5
34
102
{ACAD_REACTORS
330
2A
102
}
330
2A
100
AcDbVisualStyle
  2
Conceptual
 70
     9
177
     2
291
     0
 71
     3
176
     1
 72
     2
176
     1
 73
     0
176
     1
 90
        0
176
     1
 40
-0.6
176
     1
 41
-30.0
176
     1
 62
     5
 63
     7
421
 16777215
176
     1
 74
     2
176
     1
 91
        2
176
     1
 64
     7
176
     1
 65
   257
176
     1
 75
     1
176
     1
175
     1
176
     1
 42
40.0
176
     1
 92
        8
176
     1
 66
     7
176
     1
 43
1.0
176
     1
 76
     1
176
     1
 77
     6
176
     1
 78
     2
176
     1
 67
     7
176
     1
 79
     3
176
     1
170
     0
176
     1
171
     0
176
     1
290
     0
176
     1
 93
        1
176
     1
 44
0.0
176
     1
173
     0
176
     1
  0
VISUALSTYLE
  5
35
102
{ACAD_REACTORS
330
2A
102
}
330
2A
100
AcDbVisualStyle
  2
Dim
 70
    11
177
     2
291
     1
 71
     2
176
     1
 72
     2
176
     1
 73
     0
176
     1
 90
        0
176
     1
 40
-0.6
176
     1
 41
-30.0
176
     1
 62
     5
 63
     7
421
 16777215
176
     1
 74
     1
176
     1
 91
        4
176
     1
 64
     7
176
     1
 65
   257
176
     1
 75
     1
176
     1
175
     1
176
     1
 42
1.0
176
     1
 92
        8
176
     1
 66
     7
176
     1
 43
1.0
176
     1
 76
     1
176
     1
 77
     6
176
     1
 78
     2
176
     1
 67
     7
176
     1
 79
     5
176
     1
170
     0
176
     1
171
     0
176
     1
290
     0
176
     1
 93
        1
176
     1
 44
-50.0
176
     1
173
     0
176
     1
  0
VISUALSTYLE
  5
39
102
{ACAD_REACTORS
330
2A
102
}
330
2A
100
AcDbVisualStyle
  2
Facepattern
 70
    15
177
     2
291
     1
 71
     2
176
     1
 72
     2
176
     1
 73
     0
176
     1
 90
        0
176
     1
 40
-0.6
176
     1
 41
-30.0
176
     1
 62
     5
 63
     7
421
 16777215
176
     1
 74
     1
176
     1
 91
        4
176
     1
 64
     7
176
     1
 65
   257
176
     1
 75
     1
176
     1
175
     1
176
     1
 42
1.0
176
     1
 92
        8
176
     1
 66
     7
176
     1
 43
1.0
176
     1
 76
     1
176
     1
 77
     6
176
     1
 78
     2
176
     1
 67
     7
176
     1
 79
     5
176
     1
170
     0
176
     1
171
     0
176
     1
290
     0
176
     1
 93
        1
176
     1
 44
0.0
176
     1
173
     0
176
     1
  0
VISUALSTYLE
  5
2B
102
{ACAD_REACTORS
330
2A
102
}
330
2A
100
AcDbVisualStyle
  2
Flat
 70
     0
177
     2
291
     1
 71
     2
176
     1
 72
     1
176
     1
 73
     1
176
     1
 90
        2
176
     1
 40
-0.6
176
     1
 41
30.0
176
     1
 62
     5
 63
     7
421
 16777215
176
     1
 74
     0
176
     1
 91
        4
176
     1
 64
     7
176
     1
 65
   257
176
     1
 75
     1
176
     1
175
     1
176
     1
 42
1.0
176
     1
 92
        8
176
     1
 66
     7
176
     1
 43
1.0
176
     1
 76
     1
176
     1
 77
     6
176
     1
 78
     2
176
     1
 67
     7
176
     1
 79
     5
176
     1
170
     0
176
     1
171
     0
176
     1
290
     0
176
     1
 93
       13
176
     1
 44
0.0
176
     1
173
     0
176
     1
  0
VISUALSTYLE
  5
2C
102
{ACAD_REACTORS
330
2A
102
}
330
2A
100
AcDbVisualStyle
  2
FlatWithEdges
 70
     1
177
     2
291
     1
 71
     2
176
     1
 72
     1
176
     1
 73
     1
176
     1
 90
        2
176
     1
 40
-0.6
176
     1
 41
30.0
176
     1
 62
     5
 63
     7
421
 16777215
176
     1
 74
     1
176
     1
 91
        4
176
     1
 64
     7
176
     1
 65
   257
176
     1
 75
     1
176
     1
175
     1
176
     1
 42
1.0
176
     1
 92
        0
176
     1
 66
   257
176
     1
 43
1.0
176
     1
 76
     1
176
     1
 77
     6
176
     1
 78
     2
176
     1
 67
     7
176
     1
 79
     5
176
     1
170
     0
176
     1
171
     0
176
     1
290
     0
176
     1
 93
       13
176
     1
 44
0.0
176
     1
173
     0
176
     1
  0
VISUALSTYLE
  5
2D
102
{ACAD_REACTORS
330
2A
102
}
330
2A
100
AcDbVisualStyle
  2
Gouraud
 70
     2
177
     2
291
     1
 71
     2
176
     1
 72
     2
176
     1
 73
     1
176
     1
 90
        2
176
     1
 40
-0.6
176
     1
 41
30.0
176
     1
 62
     5
 63
     7
421
 16777215
176
     1
 74
     0
176
     1
 91
        4
176
     1
 64
     7
176
     1
 65
   257
176
     1
 75
     1
176
     1
175
     1
176
     1
 42
1.0
176
     1
 92
        0
176
     1
 66
     7
176
     1
 43
1.0
176
     1
 76
     1
176
     1
 77
     6
176
     1
 78
     2
176
     1
 67
     7
176
     1
 79
     5
176
     1
170
     0
176
     1
171
     0
176
     1
290
     0
176
     1
 93
       13
176
     1
 44
0.0
176
     1
173
     0
176
     1
  0
VISUALSTYLE
  5
2E
102
{ACAD_REACTORS
330
2A
102
}
330
2A
100
AcDbVisualStyle
  2
GouraudWithEdges
 70
     3
177
     2
291
     1
 71
     2
176
     1
 72
     2
176
     1
 73
     1
176
     1
 90
        2
176
     1
 40
-0.6
176
     1
 41
30.0
176
     1
 62
     5
 63
     7
421
 16777215
176
     1
 74
     1
176
     1
 91
        4
176
     1
 64
     7
176
     1
 65
   257
176
     1
 75
     1
176
     1
175
     1
176
     1
 42
1.0
176
     1
 92
        0
176
     1
 66
   257
176
     1
 43
1.0
176
     1
 76
     1
176
     1
 77
     6
176
     1
 78
     2
176
     1
 67
     7
176
     1
 79
     5
176
     1
170
     0
176
     1
171
     0
176
     1
290
     0
176
     1
 93
       13
176
     1
 44
0.0
176
     1
173
     0
176
     1
  0
VISUALSTYLE
  5
38
102
{ACAD_REACTORS
330
2A
102
}
330
2A
100
AcDbVisualStyle
  2
Linepattern
 70
    14
177
     2
291
     1
 71
     2
176
     1
 72
     2
176
     1
 73
     0
176
     1
 90
        0
176
     1
 40
-0.6
176
     1
 41
-30.0
176
     1
 62
     5
 63
     7
421
 16777215
176
     1
 74
     1
176
     1
 91
        4
176
     1
 64
     7
176
     1
 65
   257
176
     1
 75
     7
176
     1
175
     7
176
     1
 42
1.0
176
     1
 92
        8
176
     1
 66
     7
176
     1
 43
1.0
176
     1
 76
     1
176
     1
 77
     6
176
     1
 78
     2
176
     1
 67
     7
176
     1
 79
     5
176
     1
170
     0
176
     1
171
     0
176
     1
290
     0
176
     1
 93
        1
176
     1
 44
0.0
176
     1
173
     0
176
     1
  0
VISUALSTYLE
  5
33
102
{ACAD_REACTORS
330
2A
102
}
330
2A
100
AcDbVisualStyle
  2
Realistic
 70
     8
177
     2
291
     0
 71
     2
176
     1
 72
     2
176
     1
 73
     0
176
     1
 90
        0
176
     1
 40
-0.6
176
     1
 41
-30.0
176
     1
 62
     5
 63
     7
421
 16777215
176
     1
 74
     1
176
     1
 91
        0
176
     1
 64
     7
176
     1
 65
   257
176
     1
 75
     1
176
     1
175
     1
176
     1
 42
1.0
176
     1
 92
        8
176
     1
 66
     8
424
  7895160
176
     1
 43
1.0
176
     1
 76
     1
176
     1
 77
     6
176
     1
 78
     2
176
     1
 67
     7
176
     1
 79
     5
176
     1
170
     0
176
     1
171
     0
176
     1
290
     0
176
     1
 93
       13
176
     1
 44
0.0
176
     1
173
     0
176
     1
  0
VISUALSTYLE
  5
37
102
{ACAD_REACTORS
330
2A
102
}
330
2A
100
AcDbVisualStyle
  2
Thicken
 70
    13
177
     2
291
     1
 71
     2
176
     1
 72
     2
176
     1
 73
     0
176
     1
 90
        0
176
     1
 40
-0.6
176
     1
 41
-30.0
176
     1
 62
     5
 63
     7
421
 16777215
176
     1
 74
     1
176
     1
 91
        4
176
     1
 64
     7
176
     1
 65
   257
176
     1
 75
     1
176
     1
175
     1
176
     1
 42
1.0
176
     1
 92
       12
176
     1
 66
     7
176
     1
 43
1.0
176
     1
 76
     1
176
     1
 77
     6
176
     1
 78
     2
176
     1
 67
     7
176
     1
 79
     5
176
     1
170
     0
176
     1
171
     0
176
     1
290
     0
176
     1
 93
        1
176
     1
 44
0.0
176
     1
173
     0
176
     1
  0
ENDSEC
  0
EOF
