  0
SECTION
  2
HEADER
  9
$ACADVER
  1
AC1024
  9
$ACADMAINTVER
 70
     6
  9
$DWGCODEPAGE
  3
ANSI_932
  9
$INSBASE
 10
0.0
 20
0.0
 30
0.0
  9
$EXTMIN
 10
-6300.0
 20
-4455.0
 30
0.0
  9
$EXTMAX
 10
6300.0
 20
4455.0
 30
0.0
  9
$LIMMIN
 10
-6300.0
 20
-4455.0
  9
$LIMMAX
 10
6300.0
 20
4455.0
  9
$ORTHOMODE
 70
     0
  9
$REGENMODE
 70
     1
  9
$FILLMODE
 70
     1
  9
$QTEXTMODE
 70
     0
  9
$MIRRTEXT
 70
     1
  9
$LTSCALE
 40
30.0
  9
$ATTMODE
 70
     1
  9
$TEXTSIZE
 40
2.5
  9
$TRACEWID
 40
1.0
  9
$TEXTSTYLE
  7
Standard
  9
$CLAYER
  8
0
  9
$CELTYPE
  6
ByLayer
  9
$CECOLOR
 62
   256
  9
$CELTSCALE
 40
1.0
  9
$DISPSILH
 70
     0
  9
$DIMSCALE
 40
1.0
  9
$DIMASZ
 40
2.5
  9
$DIMEXO
 40
0.625
  9
$DIMDLI
 40
3.75
  9
$DIMRND
 40
0.0
  9
$DIMDLE
 40
0.0
  9
$DIMEXE
 40
1.25
  9
$DIMTP
 40
0.0
  9
$DIMTM
 40
0.0
  9
$DIMTXT
 40
2.5
  9
$DIMCEN
 40
2.5
  9
$DIMTSZ
 40
0.0
  9
$DIMTOL
 70
     0
  9
$DIMLIM
 70
     0
  9
$DIMTIH
 70
     0
  9
$DIMTOH
 70
     0
  9
$DIMSE1
 70
     0
  9
$DIMSE2
 70
     0
  9
$DIMTAD
 70
     1
  9
$DIMZIN
 70
     8
  9
$DIMBLK
  1

  9
$DIMASO
 70
     1
  9
$DIMSHO
 70
     1
  9
$DIMPOST
  1

  9
$DIMAPOST
  1

  9
$DIMALT
 70
     0
  9
$DIMALTD
 70
     3
  9
$DIMALTF
 40
0.03937007874016
  9
$DIMLFAC
 40
1.0
  9
$DIMTOFL
 70
     1
  9
$DIMTVP
 40
0.0
  9
$DIMTIX
 70
     0
  9
$DIMSOXD
 70
     0
  9
$DIMSAH
 70
     0
  9
$DIMBLK1
  1

  9
$DIMBLK2
  1

  9
$DIMSTYLE
  2
ISO-25
  9
$DIMCLRD
 70
     0
  9
$DIMCLRE
 70
     0
  9
$DIMCLRT
 70
     0
  9
$DIMTFAC
 40
1.0
  9
$DIMGAP
 40
0.625
  9
$DIMJUST
 70
     0
  9
$DIMSD1
 70
     0
  9
$DIMSD2
 70
     0
  9
$DIMTOLJ
 70
     0
  9
$DIMTZIN
 70
     8
  9
$DIMALTZ
 70
     0
  9
$DIMALTTZ
 70
     0
  9
$DIMUPT
 70
     0
  9
$DIMDEC
 70
     2
  9
$DIMTDEC
 70
     2
  9
$DIMALTU
 70
     2
  9
$DIMALTTD
 70
     3
  9
$DIMTXSTY
  7
Standard
  9
$DIMAUNIT
 70
     0
  9
$DIMADEC
 70
     0
  9
$DIMALTRND
 40
0.0
  9
$DIMAZIN
 70
     0
  9
$DIMDSEP
 70
    44
  9
$DIMATFIT
 70
     3
  9
$DIMFRAC
 70
     0
  9
$DIMLDRBLK
  1

  9
$DIMLUNIT
 70
     2
  9
$DIMLWD
 70
    -2
  9
$DIMLWE
 70
    -2
  9
$DIMTMOVE
 70
     0
  9
$DIMFXL
 40
1.0
  9
$DIMFXLON
 70
     0
  9
$DIMJOGANG
 40
0.7853981633974483
  9
$DIMTFILL
 70
     0
  9
$DIMTFILLCLR
 70
     0
  9
$DIMARCSYM
 70
     0
  9
$DIMLTYPE
  6

  9
$DIMLTEX1
  6

  9
$DIMLTEX2
  6

  9
$DIMTXTDIRECTION
 70
     0
  9
$LUNITS
 70
     2
  9
$LUPREC
 70
     4
  9
$SKETCHINC
 40
1.0
  9
$FILLETRAD
 40
10.0
  9
$AUNITS
 70
     0
  9
$AUPREC
 70
     0
  9
$MENU
  1
.
  9
$ELEVATION
 40
0.0
  9
$PELEVATION
 40
0.0
  9
$THICKNESS
 40
0.0
  9
$LIMCHECK
 70
     0
  9
$CHAMFERA
 40
0.0
  9
$CHAMFERB
 40
0.0
  9
$CHAMFERC
 40
0.0
  9
$CHAMFERD
 40
0.0
  9
$SKPOLY
 70
     0
  9
$TDCREATE
 40
2458725.381934201
  9
$TDUCREATE
 40
2458725.006934201
  9
$TDUPDATE
 40
2458725.381934745
  9
$TDUUPDATE
 40
2458725.006934745
  9
$TDINDWG
 40
0.0000000116
  9
$TDUSRTIMER
 40
0.0000000116
  9
$USRTIMER
 70
     1
  9
$ANGBASE
 50
0.0
  9
$ANGDIR
 70
     0
  9
$PDMODE
 70
     0
  9
$PDSIZE
 40
0.0
  9
$PLINEWID
 40
0.0
  9
$SPLFRAME
 70
     0
  9
$SPLINETYPE
 70
     6
  9
$SPLINESEGS
 70
     8
  9
$HANDSEED
  5
350
  9
$SURFTAB1
 70
     6
  9
$SURFTAB2
 70
     6
  9
$SURFTYPE
 70
     6
  9
$SURFU
 70
     6
  9
$SURFV
 70
     6
  9
$UCSBASE
  2

  9
$UCSNAME
  2

  9
$UCSORG
 10
0.0
 20
0.0
 30
0.0
  9
$UCSXDIR
 10
1.0
 20
0.0
 30
0.0
  9
$UCSYDIR
 10
0.0
 20
1.0
 30
0.0
  9
$UCSORTHOREF
  2

  9
$UCSORTHOVIEW
 70
     0
  9
$UCSORGTOP
 10
0.0
 20
0.0
 30
0.0
  9
$UCSORGBOTTOM
 10
0.0
 20
0.0
 30
0.0
  9
$UCSORGLEFT
 10
0.0
 20
0.0
 30
0.0
  9
$UCSORGRIGHT
 10
0.0
 20
0.0
 30
0.0
  9
$UCSORGFRONT
 10
0.0
 20
0.0
 30
0.0
  9
$UCSORGBACK
 10
0.0
 20
0.0
 30
0.0
  9
$PUCSBASE
  2

  9
$PUCSNAME
  2

  9
$PUCSORG
 10
0.0
 20
0.0
 30
0.0
  9
$PUCSXDIR
 10
1.0
 20
0.0
 30
0.0
  9
$PUCSYDIR
 10
0.0
 20
1.0
 30
0.0
  9
$PUCSORTHOREF
  2

  9
$PUCSORTHOVIEW
 70
     0
  9
$PUCSORGTOP
 10
0.0
 20
0.0
 30
0.0
  9
$PUCSORGBOTTOM
 10
0.0
 20
0.0
 30
0.0
  9
$PUCSORGLEFT
 10
0.0
 20
0.0
 30
0.0
  9
$PUCSORGRIGHT
 10
0.0
 20
0.0
 30
0.0
  9
$PUCSORGFRONT
 10
0.0
 20
0.0
 30
0.0
  9
$PUCSORGBACK
 10
0.0
 20
0.0
 30
0.0
  9
$USERI1
 70
     0
  9
$USERI2
 70
     0
  9
$USERI3
 70
     0
  9
$USERI4
 70
     0
  9
$USERI5
 70
     0
  9
$USERR1
 40
0.0
  9
$USERR2
 40
0.0
  9
$USERR3
 40
0.0
  9
$USERR4
 40
0.0
  9
$USERR5
 40
0.0
  9
$WORLDVIEW
 70
     1
  9
$SHADEDGE
 70
     3
  9
$SHADEDIF
 70
    70
  9
$TILEMODE
 70
     1
  9
$MAXACTVP
 70
    64
  9
$PINSBASE
 10
0.0
 20
0.0
 30
0.0
  9
$PLIMCHECK
 70
     0
  9
$PEXTMIN
 10
1.000000000000000E+20
 20
1.000000000000000E+20
 30
1.000000000000000E+20
  9
$PEXTMAX
 10
-1.000000000000000E+20
 20
-1.000000000000000E+20
 30
-1.000000000000000E+20
  9
$PLIMMIN
 10
0.0
 20
0.0
  9
$PLIMMAX
 10
420.0
 20
297.0
  9
$UNITMODE
 70
     0
  9
$VISRETAIN
 70
     1
  9
$PLINEGEN
 70
     0
  9
$PSLTSCALE
 70
     1
  9
$TREEDEPTH
 70
  3020
  9
$CMLSTYLE
  2
Standard
  9
$CMLJUST
 70
     0
  9
$CMLSCALE
 40
20.0
  9
$PROXYGRAPHICS
 70
     1
  9
$MEASUREMENT
 70
     1
  9
$CELWEIGHT
370
    -1
  9
$ENDCAPS
280
     0
  9
$JOINSTYLE
280
     0
  9
$LWDISPLAY
290
     0
  9
$INSUNITS
 70
     4
  9
$HYPERLINKBASE
  1

  9
$STYLESHEET
  1

  9
$XEDIT
290
     1
  9
$CEPSNTYPE
380
     0
  9
$PSTYLEMODE
290
     1
  9
$FINGERPRINTGUID
  2
{5F9B0F79-6153-4B53-8148-91CD31967485}
  9
$VERSIONGUID
  2
{FAEB1C32-E019-11D5-929B-00C0DF256EC4}
  9
$EXTNAMES
290
     1
  9
$PSVPSCALE
 40
0.0
  9
$OLESTARTUP
290
     0
  9
$SORTENTS
280
   127
  9
$INDEXCTL
280
     0
  9
$HIDETEXT
280
     1
  9
$XCLIPFRAME
280
     2
  9
$HALOGAP
280
     0
  9
$OBSCOLOR
 70
   257
  9
$OBSLTYPE
280
     0
  9
$INTERSECTIONDISPLAY
280
     0
  9
$INTERSECTIONCOLOR
 70
   257
  9
$DIMASSOC
280
     2
  9
$PROJECTNAME
  1

  9
$CAMERADISPLAY
290
     0
  9
$LENSLENGTH
 40
50.0
  9
$CAMERAHEIGHT
 40
0.0
  9
$STEPSPERSEC
 40
2.0
  9
$STEPSIZE
 40
6.0
  9
$3DDWFPREC
 40
2.0
  9
$PSOLWIDTH
 40
5.0
  9
$PSOLHEIGHT
 40
80.0
  9
$LOFTANG1
 40
1.570796326794897
  9
$LOFTANG2
 40
1.570796326794897
  9
$LOFTMAG1
 40
0.0
  9
$LOFTMAG2
 40
0.0
  9
$LOFTPARAM
 70
     7
  9
$LOFTNORMALS
280
     1
  9
$LATITUDE
 40
37.795
  9
$LONGITUDE
 40
-122.394
  9
$NORTHDIRECTION
 40
0.0
  9
$TIMEZONE
 70
 -8000
  9
$LIGHTGLYPHDISPLAY
280
     1
  9
$TILEMODELIGHTSYNCH
280
     1
  9
$CMATERIAL
347
44
  9
$SOLIDHIST
280
     0
  9
$SHOWHIST
280
     1
  9
$DWFFRAME
280
     2
  9
$DGNFRAME
280
     2
  9
$REALWORLDSCALE
290
     1
  9
$INTERFERECOLOR
 62
   256
  9
$CSHADOW
280
     0
  9
$SHADOWPLANELOCATION
 40
0.0
  0
ENDSEC
  0
SECTION
  2
CLASSES
  0
CLASS
  1
ACDBDICTIONARYWDFLT
  2
AcDbDictionaryWithDefault
  3
ObjectDBX Classes
 90
        0
 91
        4
280
     0
281
     0
  0
CLASS
  1
VISUALSTYLE
  2
AcDbVisualStyle
  3
ObjectDBX Classes
 90
     4095
 91
        4
280
     0
281
     0
  0
CLASS
  1
MATERIAL
  2
AcDbMaterial
  3
ObjectDBX Classes
 90
     1153
 91
        4
280
     0
281
     0
  0
CLASS
  1
SCALE
  2
AcDbScale
  3
ObjectDBX Classes
 90
     1153
 91
        4
280
     0
281
     0
  0
CLASS
  1
TABLESTYLE
  2
AcDbTableStyle
  3
ObjectDBX Classes
 90
     4095
 91
        4
280
     0
281
     0
  0
CLASS
  1
MLEADERSTYLE
  2
AcDbMLeaderStyle
  3
ACDB_MLEADERSTYLE_CLASS
 90
     4095
 91
        4
280
     0
281
     0
  0
CLASS
  1
SUN
  2
AcDbSun
  3
SCENEOE
 90
     1153
 91
        4
280
     0
281
     0
  0
CLASS
  1
DICTIONARYVAR
  2
AcDbDictionaryVar
  3
ObjectDBX Classes
 90
        0
 91
        4
280
     0
281
     0
  0
CLASS
  1
CELLSTYLEMAP
  2
AcDbCellStyleMap
  3
ObjectDBX Classes
 90
     1152
 91
        4
280
     0
281
     0
  0
ENDSEC
  0
SECTION
  2
TABLES
  0
TABLE
  2
VPORT
  5
8
330
0
100
AcDbSymbolTable
 70
     1
  0
VPORT
  5
29
330
8
100
AcDbSymbolTableRecord
100
AcDbViewportTableRecord
  2
*Active
 70
     0
 10
0.0
 20
0.0
 11
1.0
 21
1.0
 12
0.0
 22
0.0
 13
0.0
 23
0.0
 14
10.0
 24
10.0
 15
10.0
 25
10.0
 16
0.0
 26
0.0
 36
1.0
 17
0.0
 27
0.0
 37
0.0
 40
9801.0
 41
1.414141414141414
 42
50.0
 43
0.0
 44
0.0
 50
0.0
 51
0.0
 71
     0
 72
 10000
 73
     1
 74
     3
 75
     0
 76
     0
 77
     0
 78
     0
281
     0
 65
     1
110
0.0
120
0.0
130
0.0
111
1.0
121
0.0
131
0.0
112
0.0
122
1.0
132
0.0
 79
     0
146
0.0
348
2F
 60
     3
 61
     5
292
     1
282
     1
141
0.0
142
0.0
 63
   250
361
6D
  0
ENDTAB
  0
TABLE
  2
LTYPE
  5
5
330
0
100
AcDbSymbolTable
 70
     4
  0
LTYPE
  5
14
330
5
100
AcDbSymbolTableRecord
100
AcDbLinetypeTableRecord
  2
ByBlock
 70
     0
  3

 72
    65
 73
     0
 40
0.0
  0
LTYPE
  5
15
330
5
100
AcDbSymbolTableRecord
100
AcDbLinetypeTableRecord
  2
ByLayer
 70
     0
  3

 72
    65
 73
     0
 40
0.0
  0
LTYPE
  5
16
330
5
100
AcDbSymbolTableRecord
100
AcDbLinetypeTableRecord
  2
Continuous
 70
     0
  3
Solid line
 72
    65
 73
     0
 40
0.0
  0
LTYPE
  5
70
330
5
100
AcDbSymbolTableRecord
100
AcDbLinetypeTableRecord
  2
JWW_HOJO
 70
     0
  3
  -   -   -   -   -   -   -   - 
 72
    65
 73
     2
 40
1.693333333333333
 49
-1.27
 74
     0
 49
0.4233333333333333
 74
     0
  0
LTYPE
  5
71
330
5
100
AcDbSymbolTableRecord
100
AcDbLinetypeTableRecord
  2
JWW_CENTER1
 70
     0
  3
-----  --  ----------  --  -----
 72
    65
 73
     4
 40
6.773333333333333
 49
4.233333333333333
 74
     0
 49
-0.8466666666666667
 74
     0
 49
0.8466666666666667
 74
     0
 49
-0.8466666666666667
 74
     0
  0
LTYPE
  5
72
330
5
100
AcDbSymbolTableRecord
100
AcDbLinetypeTableRecord
  2
JWW_DASHED1
 70
     0
  3
-  --  --  --  --  --  --  --  -
 72
    65
 73
     2
 40
1.693333333333333
 49
0.8466666666666667
 74
     0
 49
-0.8466666666666667
 74
     0
  0
ENDTAB
  0
TABLE
  2
LAYER
  5
2
330
0
100
AcDbSymbolTable
 70
    11
  0
LAYER
  5
10
330
2
100
AcDbSymbolTableRecord
100
AcDbLayerTableRecord
  2
0
 70
     0
 62
     7
  6
Continuous
370
    -3
390
F
347
46
  0
LAYER
  5
73
330
2
100
AcDbSymbolTableRecord
100
AcDbLayerTableRecord
  2
0-0_補助線
 70
     0
 62
     7
  6
Continuous
370
    -3
390
F
347
46
  0
LAYER
  5
74
330
2
100
AcDbSymbolTableRecord
100
AcDbLayerTableRecord
  2
F-0_補助線
 70
     0
 62
     7
  6
Continuous
370
    -3
390
F
347
46
  0
LAYER
  5
75
330
2
100
AcDbSymbolTableRecord
100
AcDbLayerTableRecord
  2
F-1_枠
 70
     0
 62
     7
  6
Continuous
370
    -3
390
F
347
46
  0
LAYER
  5
76
330
2
100
AcDbSymbolTableRecord
100
AcDbLayerTableRecord
  2
0-B_寸法
 70
     0
 62
     7
  6
Continuous
370
    -3
390
F
347
46
  0
LAYER
  5
77
330
2
100
AcDbSymbolTableRecord
100
AcDbLayerTableRecord
  2
通り芯
 70
     0
 62
     7
  6
Continuous
370
    -3
390
F
347
46
  0
LAYER
  5
78
330
2
100
AcDbSymbolTableRecord
100
AcDbLayerTableRecord
  2
0-4_枠
 70
     0
 62
     7
  6
Continuous
370
    -3
390
F
347
46
  0
LAYER
  5
79
330
2
100
AcDbSymbolTableRecord
100
AcDbLayerTableRecord
  2
扉
 70
     0
 62
     7
  6
Continuous
370
    -3
390
F
347
46
  0
LAYER
  5
7A
330
2
100
AcDbSymbolTableRecord
100
AcDbLayerTableRecord
  2
0-6__
 70
     0
 62
     7
  6
Continuous
370
    -3
390
F
347
46
  0
LAYER
  5
7B
330
2
100
AcDbSymbolTableRecord
100
AcDbLayerTableRecord
  2
0-A_文字
 70
     0
 62
     7
  6
Continuous
370
    -3
390
F
347
46
  0
LAYER
  5
7C
330
2
100
AcDbSymbolTableRecord
100
AcDbLayerTableRecord
  2
F-A_文字
 70
     0
 62
     7
  6
Continuous
370
    -3
390
F
347
46
  0
ENDTAB
  0
TABLE
  2
STYLE
  5
3
330
0
100
AcDbSymbolTable
 70
     3
  0
STYLE
  5
11
330
3
100
AcDbSymbolTableRecord
100
AcDbTextStyleTableRecord
  2
Standard
 70
     0
 40
0.0
 41
1.0
 50
0.0
 71
     0
 42
2.5
  3
txt
  4

  0
STYLE
  5
6E
330
3
100
AcDbSymbolTableRecord
100
AcDbTextStyleTableRecord
  2
ＭＳ ゴシック
 70
     0
 40
1.0
 41
1.0
 50
0.0
 71
     0
 42
2.5
  3

  4

1001
ACAD
1000
MS Gothic
1071
    32817
  0
STYLE
  5
6F
330
3
100
AcDbSymbolTableRecord
100
AcDbTextStyleTableRecord
  2
HG明朝B
 70
     0
 40
1.0
 41
1.0
 50
0.0
 71
     0
 42
2.5
  3

  4

1001
ACAD
1000
HGMinchoB
1071
    32785
  0
ENDTAB
  0
TABLE
  2
VIEW
  5
6
330
0
100
AcDbSymbolTable
 70
     0
  0
ENDTAB
  0
TABLE
  2
UCS
  5
7
330
0
100
AcDbSymbolTable
 70
     0
  0
ENDTAB
  0
TABLE
  2
APPID
  5
9
330
0
100
AcDbSymbolTable
 70
     1
  0
APPID
  5
12
330
9
100
AcDbSymbolTableRecord
100
AcDbRegAppTableRecord
  2
ACAD
 70
     0
  0
ENDTAB
  0
TABLE
  2
DIMSTYLE
  5
A
330
0
100
AcDbSymbolTable
 70
     1
100
AcDbDimStyleTable
  0
DIMSTYLE
105
27
330
A
100
AcDbSymbolTableRecord
100
AcDbDimStyleTableRecord
  2
ISO-25
 70
     0
 41
2.5
 42
0.625
 43
3.75
 44
1.25
 73
     0
 74
     0
 77
     1
 78
     8
140
2.5
141
2.5
143
0.03937007874016
147
0.625
171
     3
172
     1
178
     0
271
     2
272
     2
274
     3
278
    44
283
     0
284
     8
340
11
  0
ENDTAB
  0
TABLE
  2
BLOCK_RECORD
  5
1
330
0
100
AcDbSymbolTable
 70
     1
  0
BLOCK_RECORD
  5
1F
330
1
100
AcDbSymbolTableRecord
100
AcDbBlockTableRecord
  2
*Model_Space
340
22
 70
     0
280
     1
281
     0
  0
BLOCK_RECORD
  5
1B
330
1
100
AcDbSymbolTableRecord
100
AcDbBlockTableRecord
  2
*Paper_Space
340
1E
 70
     0
280
     1
281
     0
  0
BLOCK_RECORD
  5
23
330
1
100
AcDbSymbolTableRecord
100
AcDbBlockTableRecord
  2
*Paper_Space0
340
26
 70
     0
280
     1
281
     0
  0
ENDTAB
  0
ENDSEC
  0
SECTION
  2
BLOCKS
  0
BLOCK
  5
20
330
1F
100
AcDbEntity
  8
0
100
AcDbBlockBegin
  2
*Model_Space
 70
     0
 10
0.0
 20
0.0
 30
0.0
  3
*Model_Space
  1

  0
ENDBLK
  5
21
330
1F
100
AcDbEntity
  8
0
100
AcDbBlockEnd
  0
BLOCK
  5
1C
330
1B
100
AcDbEntity
 67
     1
  8
0
100
AcDbBlockBegin
  2
*Paper_Space
 70
     0
 10
0.0
 20
0.0
 30
0.0
  3
*Paper_Space
  1

  0
ENDBLK
  5
1D
330
1B
100
AcDbEntity
 67
     1
  8
0
100
AcDbBlockEnd
  0
BLOCK
  5
24
330
23
100
AcDbEntity
  8
0
100
AcDbBlockBegin
  2
*Paper_Space0
 70
     0
 10
0.0
 20
0.0
 30
0.0
  3
*Paper_Space0
  1

  0
ENDBLK
  5
25
330
23
100
AcDbEntity
  8
0
100
AcDbBlockEnd
  0
ENDSEC
  0
SECTION
  2
ENTITIES
  0
LINE
  5
7D
330
1F
100
AcDbEntity
  8
0-0_補助線
  6
JWW_HOJO
 62
     7
370
     9
100
AcDbLine
 10
-5339.999523678342
 20
-1770.000016599089
 30
0.0
 11
5849.999257680533
 21
-1770.000016599089
 31
0.0
  0
LINE
  5
7E
330
1F
100
AcDbEntity
  8
F-0_補助線
  6
JWW_HOJO
 62
   120
370
     5
100
AcDbLine
 10
-6149.999505120355
 20
-4439.999802048143
 30
0.0
 11
-6149.999505120355
 21
4439.999802048143
 31
0.0
  0
LINE
  5
7F
330
1F
100
AcDbEntity
  8
F-0_補助線
  6
JWW_HOJO
 62
   120
370
     5
100
AcDbLine
 10
-6149.999505120355
 20
4439.999802048143
 30
0.0
 11
6149.999505120355
 21
4439.999802048143
 31
0.0
  0
LINE
  5
80
330
1F
100
AcDbEntity
  8
F-0_補助線
  6
JWW_HOJO
 62
   120
370
     5
100
AcDbLine
 10
6149.999505120355
 20
4439.999802048143
 30
0.0
 11
6149.999505120355
 21
-4439.999802048143
 31
0.0
  0
LINE
  5
81
330
1F
100
AcDbEntity
  8
F-0_補助線
  6
JWW_HOJO
 62
   120
370
     5
100
AcDbLine
 10
6149.999505120355
 20
-4439.999802048143
 30
0.0
 11
-6149.999505120355
 21
-4439.999802048143
 31
0.0
  0
LINE
  5
82
330
1F
100
AcDbEntity
  8
F-0_補助線
  6
JWW_HOJO
 62
   200
370
    20
100
AcDbLine
 10
-5839.999495325861
 20
99.50013031830622
 30
0.0
 11
6066.797369879645
 21
99.50013031830622
 31
0.0
  0
LINE
  5
83
330
1F
100
AcDbEntity
  8
F-0_補助線
  6
JWW_HOJO
 62
   200
370
    20
100
AcDbLine
 10
-5839.999495325861
 20
4080.00009897593
 30
0.0
 11
6158.108602987755
 21
4080.00009897593
 31
0.0
  0
LINE
  5
84
330
1F
100
AcDbEntity
  8
F-1_枠
  6
Continuous
 62
   200
370
    20
100
AcDbLine
 10
-5849.999257680531
 20
4180.00018145587
 30
0.0
 11
5849.999257680533
 21
4180.00018145587
 31
0.0
  0
LINE
  5
85
330
1F
100
AcDbEntity
  8
F-1_枠
  6
Continuous
 62
   200
370
    20
100
AcDbLine
 10
-5849.999257680531
 20
4184.999703072212
 30
0.0
 11
5849.999257680533
 21
4184.999703072212
 31
0.0
  0
LINE
  5
86
330
1F
100
AcDbEntity
  8
F-1_枠
  6
Continuous
 62
   200
370
    20
100
AcDbLine
 10
-5849.999257680531
 20
4189.999967008023
 30
0.0
 11
5849.999257680533
 21
4189.999967008023
 31
0.0
  0
LINE
  5
87
330
1F
100
AcDbEntity
  8
F-1_枠
  6
Continuous
 62
   200
370
    20
100
AcDbLine
 10
5839.99947212838
 20
4189.999967008023
 30
0.0
 11
5839.99947212838
 21
-4189.999967008024
 31
0.0
  0
LINE
  5
88
330
1F
100
AcDbEntity
  8
F-1_枠
  6
Continuous
 62
   200
370
    20
100
AcDbLine
 10
5844.998993744722
 20
4189.999967008023
 30
0.0
 11
5844.998993744722
 21
-4189.999967008024
 31
0.0
  0
LINE
  5
89
330
1F
100
AcDbEntity
  8
F-1_枠
  6
Continuous
 62
   200
370
    20
100
AcDbLine
 10
5849.999257680533
 20
4189.999967008023
 30
0.0
 11
5849.999257680533
 21
-4189.999967008024
 31
0.0
  0
LINE
  5
8A
330
1F
100
AcDbEntity
  8
F-1_枠
  6
Continuous
 62
   200
370
    20
100
AcDbLine
 10
-5839.999495325861
 20
4189.999967008023
 30
0.0
 11
-5839.999495325861
 21
-4189.999967008024
 31
0.0
  0
LINE
  5
8B
330
1F
100
AcDbEntity
  8
F-1_枠
  6
Continuous
 62
   200
370
    20
100
AcDbLine
 10
-5844.999480891873
 20
4189.999967008023
 30
0.0
 11
-5844.999480891873
 21
-4189.999967008024
 31
0.0
  0
LINE
  5
8C
330
1F
100
AcDbEntity
  8
F-1_枠
  6
Continuous
 62
   200
370
    20
100
AcDbLine
 10
-5849.999489655366
 20
4189.999967008023
 30
0.0
 11
-5849.999489655366
 21
-4189.999967008024
 31
0.0
  0
LINE
  5
8D
330
1F
100
AcDbEntity
  8
F-1_枠
  6
Continuous
 62
   200
370
    20
100
AcDbLine
 10
-5849.999257680531
 20
3980.000016495989
 30
0.0
 11
5849.999257680533
 21
3980.000016495989
 31
0.0
  0
LINE
  5
8E
330
1F
100
AcDbEntity
  8
F-1_枠
  6
Continuous
 62
   200
370
    20
100
AcDbLine
 10
-5839.999495325861
 20
-0.4999521616343827
 30
0.0
 11
5839.99947212838
 21
-0.4999521616343827
 31
0.0
  0
LINE
  5
8F
330
1F
100
AcDbEntity
  8
F-1_枠
  6
Continuous
 62
   200
370
    20
100
AcDbLine
 10
-5839.999495325861
 20
199.5002127982477
 30
0.0
 11
5839.99947212838
 21
199.5002127982477
 31
0.0
  0
LINE
  5
90
330
1F
100
AcDbEntity
  8
F-1_枠
  6
Continuous
 62
   200
370
    20
100
AcDbLine
 10
-5339.999523678342
 20
4189.999967008023
 30
0.0
 11
-5339.999523678342
 21
-3774.999981957514
 31
0.0
  0
LINE
  5
91
330
1F
100
AcDbEntity
  8
0-0_補助線
  6
JWW_HOJO
 62
     7
370
     9
100
AcDbLine
 10
-5339.999523678342
 20
-2747.500016599089
 30
0.0
 11
5849.999257680533
 21
-2747.500016599089
 31
0.0
  0
LINE
  5
92
330
1F
100
AcDbEntity
  8
0-0_補助線
  6
JWW_HOJO
 62
   120
370
     5
100
AcDbLine
 10
-5339.999523678342
 20
-2797.50001659909
 30
0.0
 11
5849.999257680533
 21
-2797.50001659909
 31
0.0
  0
LINE
  5
93
330
1F
100
AcDbEntity
  8
0-0_補助線
  6
JWW_HOJO
 62
   120
370
     5
100
AcDbLine
 10
-5339.999523678342
 20
1183.000346415752
 30
0.0
 11
5849.999257680533
 21
1183.000346415752
 31
0.0
  0
LINE
  5
94
330
1F
100
AcDbEntity
  8
0-0_補助線
  6
JWW_HOJO
 62
     7
370
     9
100
AcDbLine
 10
-5339.999523678342
 20
1233.000346415751
 30
0.0
 11
5849.999257680533
 21
1233.000346415751
 31
0.0
  0
LINE
  5
95
330
1F
100
AcDbEntity
  8
0-0_補助線
  6
JWW_HOJO
 62
     7
370
     9
100
AcDbLine
 10
-5339.999523678342
 20
3278.000346415751
 30
0.0
 11
5849.999257680533
 21
3278.000346415751
 31
0.0
  0
LINE
  5
96
330
1F
100
AcDbEntity
  8
0-0_補助線
  6
JWW_HOJO
 62
     7
370
     9
100
AcDbLine
 10
-5339.999523678342
 20
-702.5000165990888
 30
0.0
 11
5849.999257680533
 21
-702.5000165990888
 31
0.0
  0
LINE
  5
97
330
1F
100
AcDbEntity
  8
0-0_補助線
  6
JWW_HOJO
 62
     7
370
     9
100
AcDbLine
 10
-5339.999523678342
 20
2210.500346415752
 30
0.0
 11
5849.999257680533
 21
2210.500346415752
 31
0.0
  0
LINE
  5
98
330
1F
100
AcDbEntity
  8
F-1_枠
  6
Continuous
 62
   200
370
    20
100
AcDbLine
 10
-2944.999774726662
 20
-3774.999981957514
 30
0.0
 11
-2944.999774726662
 21
4189.999967008023
 31
0.0
  0
LINE
  5
99
330
1F
100
AcDbEntity
  8
F-1_枠
  6
Continuous
 62
   200
370
    20
100
AcDbLine
 10
-350.0000257749804
 20
-3774.999981957514
 30
0.0
 11
-350.0000257749804
 21
4189.999967008023
 31
0.0
  0
LINE
  5
9A
330
1F
100
AcDbEntity
  8
F-1_枠
  6
Continuous
 62
   200
370
    20
100
AcDbLine
 10
2444.999723176699
 20
-3774.999981957514
 30
0.0
 11
2444.999723176699
 21
4189.999967008023
 31
0.0
  0
LWPOLYLINE
  5
9B
330
1F
100
AcDbEntity
  8
0-B_寸法
  6
Continuous
 62
     7
370
     9
100
AcDbPolyline
 90
        4
 70
     1
 43
6.0
 10
-3306.9996492025
 20
933.0003464157514
 42
0.4142135623731
 10
-3309.9996492025
 20
936.0003464157514
 42
0.4142135623731
 10
-3312.9996492025
 20
933.0003464157514
 42
0.4142135623731
 10
-3309.9996492025
 20
930.0003464157513
 42
0.4142135623731
  0
LINE
  5
9C
330
1F
100
AcDbEntity
  8
0-B_寸法
  6
Continuous
 62
   120
370
     5
100
AcDbLine
 10
-3309.9996492025
 20
933.0003464157514
 30
0.0
 11
-3309.9996492025
 21
1183.000346415752
 31
0.0
  0
LINE
  5
9D
330
1F
100
AcDbEntity
  8
0-B_寸法
  6
Continuous
 62
   120
370
     5
100
AcDbLine
 10
-4474.999649202501
 20
933.0003464157514
 30
0.0
 11
-3309.9996492025
 21
933.0003464157514
 31
0.0
  0
LINE
  5
9E
330
1F
100
AcDbEntity
  8
通り芯
  6
JWW_CENTER1
 62
   120
370
     5
100
AcDbLine
 10
-4412.2496492025
 20
2210.500346415752
 30
0.0
 11
-4494.249649202501
 21
2210.500346415752
 31
0.0
  0
LINE
  5
9F
330
1F
100
AcDbEntity
  8
0-4_枠
  6
Continuous
 62
    92
370
    13
100
AcDbLine
 10
-3279.9996492025
 20
1233.000346415751
 30
0.0
 11
-4504.999649202501
 21
1233.000346415751
 31
0.0
  0
LINE
  5
A0
330
1F
100
AcDbEntity
  8
0-4_枠
  6
Continuous
 62
    92
370
    13
100
AcDbLine
 10
-3309.9996492025
 20
1248.000346415751
 30
0.0
 11
-4474.999649202501
 21
1248.000346415751
 31
0.0
  0
LINE
  5
A1
330
1F
100
AcDbEntity
  8
0-B_寸法
  6
Continuous
 62
   120
370
     5
100
AcDbLine
 10
-4504.999649202501
 20
733.0003464157517
 30
0.0
 11
-3279.9996492025
 21
733.0003464157517
 31
0.0
  0
LINE
  5
A2
330
1F
100
AcDbEntity
  8
0-B_寸法
  6
Continuous
 62
   120
370
     5
100
AcDbLine
 10
-4504.999649202501
 20
733.0003464157517
 30
0.0
 11
-4504.999649202501
 21
1183.000346415752
 31
0.0
  0
LINE
  5
A3
330
1F
100
AcDbEntity
  8
0-B_寸法
  6
Continuous
 62
   120
370
     5
100
AcDbLine
 10
-3279.9996492025
 20
733.0003464157517
 30
0.0
 11
-3279.9996492025
 21
1183.000346415752
 31
0.0
  0
LINE
  5
A4
330
1F
100
AcDbEntity
  8
0-B_寸法
  6
Continuous
 62
   120
370
     5
100
AcDbLine
 10
-4804.999649202501
 20
1253.000346415751
 30
0.0
 11
-4554.9996492025
 21
1253.000346415751
 31
0.0
  0
LINE
  5
A5
330
1F
100
AcDbEntity
  8
0-B_寸法
  6
Continuous
 62
   120
370
     5
100
AcDbLine
 10
-4474.999649202501
 20
933.0003464157514
 30
0.0
 11
-4474.999649202501
 21
1183.000346415752
 31
0.0
  0
LWPOLYLINE
  5
A6
330
1F
100
AcDbEntity
  8
0-B_寸法
  6
Continuous
 62
     7
370
     9
100
AcDbPolyline
 90
        4
 70
     1
 43
6.0
 10
-4501.999649202501
 20
733.0003464157517
 42
0.4142135623731
 10
-4504.999649202501
 20
736.0003464157517
 42
0.4142135623731
 10
-4507.999649202501
 20
733.0003464157517
 42
0.4142135623731
 10
-4504.999649202501
 20
730.0003464157517
 42
0.4142135623731
  0
LWPOLYLINE
  5
A7
330
1F
100
AcDbEntity
  8
0-B_寸法
  6
Continuous
 62
     7
370
     9
100
AcDbPolyline
 90
        4
 70
     1
 43
6.0
 10
-3276.9996492025
 20
733.0003464157517
 42
0.4142135623731
 10
-3279.9996492025
 20
736.0003464157517
 42
0.4142135623731
 10
-3282.9996492025
 20
733.0003464157517
 42
0.4142135623731
 10
-3279.9996492025
 20
730.0003464157517
 42
0.4142135623731
  0
LWPOLYLINE
  5
A8
330
1F
100
AcDbEntity
  8
0-B_寸法
  6
Continuous
 62
     7
370
     9
100
AcDbPolyline
 90
        4
 70
     1
 43
6.0
 10
-4801.999649202501
 20
1253.000346415751
 42
0.4142135623731
 10
-4804.999649202501
 20
1256.000346415751
 42
0.4142135623731
 10
-4807.999649202501
 20
1253.000346415751
 42
0.4142135623731
 10
-4804.999649202501
 20
1250.000346415751
 42
0.4142135623731
  0
LWPOLYLINE
  5
A9
330
1F
100
AcDbEntity
  8
0-B_寸法
  6
Continuous
 62
     7
370
     9
100
AcDbPolyline
 90
        4
 70
     1
 43
6.0
 10
-4471.999649202501
 20
933.0003464157514
 42
0.4142135623731
 10
-4474.999649202501
 20
936.0003464157514
 42
0.4142135623731
 10
-4477.999649202501
 20
933.0003464157514
 42
0.4142135623731
 10
-4474.999649202501
 20
930.0003464157513
 42
0.4142135623731
  0
LINE
  5
AA
330
1F
100
AcDbEntity
  8
扉
  6
Continuous
 62
    92
370
    13
100
AcDbLine
 10
-4474.999649202501
 20
1253.000346415751
 30
0.0
 11
-3309.9996492025
 21
1253.000346415751
 31
0.0
  0
LINE
  5
AB
330
1F
100
AcDbEntity
  8
0-4_枠
  6
Continuous
 62
    92
370
    13
100
AcDbLine
 10
-4504.999649202501
 20
1233.000346415751
 30
0.0
 11
-4504.999649202501
 21
3278.000346415751
 31
0.0
  0
LINE
  5
AC
330
1F
100
AcDbEntity
  8
0-4_枠
  6
Continuous
 62
    92
370
    13
100
AcDbLine
 10
-4474.999649202501
 20
1233.000346415751
 30
0.0
 11
-4474.999649202501
 21
3242.000346415752
 31
0.0
  0
LINE
  5
AD
330
1F
100
AcDbEntity
  8
0-4_枠
  6
Continuous
 62
    92
370
    13
100
AcDbLine
 10
-3279.9996492025
 20
1233.000346415751
 30
0.0
 11
-3279.9996492025
 21
3278.000346415751
 31
0.0
  0
LINE
  5
AE
330
1F
100
AcDbEntity
  8
0-4_枠
  6
Continuous
 62
    92
370
    13
100
AcDbLine
 10
-3309.9996492025
 20
1233.000346415751
 30
0.0
 11
-3309.9996492025
 21
3242.000346415752
 31
0.0
  0
LINE
  5
AF
330
1F
100
AcDbEntity
  8
0-4_枠
  6
Continuous
 62
    92
370
    13
100
AcDbLine
 10
-4504.999649202501
 20
3278.000346415751
 30
0.0
 11
-3279.9996492025
 21
3278.000346415751
 31
0.0
  0
LINE
  5
B0
330
1F
100
AcDbEntity
  8
0-4_枠
  6
Continuous
 62
    92
370
    13
100
AcDbLine
 10
-4474.999649202501
 20
3242.000346415752
 30
0.0
 11
-3309.9996492025
 21
3242.000346415752
 31
0.0
  0
LINE
  5
B1
330
1F
100
AcDbEntity
  8
0-B_寸法
  6
Continuous
 62
   120
370
     5
100
AcDbLine
 10
-4804.999649202501
 20
3235.000346415751
 30
0.0
 11
-4804.999649202501
 21
1253.000346415751
 31
0.0
  0
LINE
  5
B2
330
1F
100
AcDbEntity
  8
0-B_寸法
  6
Continuous
 62
   120
370
     5
100
AcDbLine
 10
-4804.999649202501
 20
3235.000346415751
 30
0.0
 11
-4554.9996492025
 21
3235.000346415751
 31
0.0
  0
LWPOLYLINE
  5
B3
330
1F
100
AcDbEntity
  8
0-B_寸法
  6
Continuous
 62
     7
370
     9
100
AcDbPolyline
 90
        4
 70
     1
 43
6.0
 10
-4801.999649202501
 20
3235.000346415751
 42
0.4142135623731
 10
-4804.999649202501
 20
3238.000346415751
 42
0.4142135623731
 10
-4807.999649202501
 20
3235.000346415751
 42
0.4142135623731
 10
-4804.999649202501
 20
3232.000346415751
 42
0.4142135623731
  0
LINE
  5
B4
330
1F
100
AcDbEntity
  8
扉
  6
Continuous
 62
    92
370
    13
100
AcDbLine
 10
-4107.499649202501
 20
3235.000346415751
 30
0.0
 11
-4107.499649202501
 21
1253.000346415751
 31
0.0
  0
LINE
  5
B5
330
1F
100
AcDbEntity
  8
扉
  6
JWW_DASHED1
 62
   120
370
     5
100
AcDbLine
 10
-3677.4996492025
 20
1253.000346415751
 30
0.0
 11
-3677.4996492025
 21
3235.000346415751
 31
0.0
  0
LINE
  5
B6
330
1F
100
AcDbEntity
  8
扉
  6
JWW_DASHED1
 62
   120
370
     5
100
AcDbLine
 10
-4047.999649202501
 20
1253.000346415751
 30
0.0
 11
-4047.999649202501
 21
3235.000346415751
 31
0.0
  0
LINE
  5
B7
330
1F
100
AcDbEntity
  8
0-6__
  6
Continuous
 62
    92
370
    13
100
AcDbLine
 10
-4477.999649202502
 20
2278.000346415752
 30
0.0
 11
-4434.4996492025
 21
2278.000346415752
 31
0.0
  0
LINE
  5
B8
330
1F
100
AcDbEntity
  8
0-6__
  6
Continuous
 62
    92
370
    13
100
AcDbLine
 10
-4477.999649202502
 20
2143.000346415752
 30
0.0
 11
-4434.4996492025
 21
2143.000346415752
 31
0.0
  0
LINE
  5
B9
330
1F
100
AcDbEntity
  8
0-6__
  6
Continuous
 62
    92
370
    13
100
AcDbLine
 10
-4474.999649202501
 20
2143.000346415752
 30
0.0
 11
-4474.999649202501
 21
2278.000346415752
 31
0.0
  0
ARC
  5
BA
330
1F
100
AcDbEntity
  8
0-6__
  6
Continuous
 62
    92
370
    13
100
AcDbCircle
 10
-4454.499649202499
 20
2248.000346415752
 30
0.0
 40
15.0
100
AcDbArc
 50
0.0000000000000127
 51
90.00000000000001
  0
LINE
  5
BB
330
1F
100
AcDbEntity
  8
0-6__
  6
Continuous
 62
    92
370
    13
100
AcDbLine
 10
-4439.499649202499
 20
2173.000346415752
 30
0.0
 11
-4439.499649202499
 21
2248.000346415752
 31
0.0
  0
ARC
  5
BC
330
1F
100
AcDbEntity
  8
0-6__
  6
Continuous
 62
    92
370
    13
100
AcDbCircle
 10
-4454.499649202499
 20
2173.000346415752
 30
0.0
 40
15.0
100
AcDbArc
 50
270.0
 51
0.0
  0
LINE
  5
BD
330
1F
100
AcDbEntity
  8
0-6__
  6
Continuous
 62
    92
370
    13
100
AcDbLine
 10
-4454.499649202499
 20
2158.000346415752
 30
0.0
 11
-4474.999649202501
 21
2158.000346415752
 31
0.0
  0
LINE
  5
BE
330
1F
100
AcDbEntity
  8
0-6__
  6
Continuous
 62
    92
370
    13
100
AcDbLine
 10
-4454.499649202499
 20
2263.000346415752
 30
0.0
 11
-4474.999649202501
 21
2263.000346415752
 31
0.0
  0
LINE
  5
BF
330
1F
100
AcDbEntity
  8
0-6__
  6
Continuous
 62
    92
370
    13
100
AcDbLine
 10
-4477.999649202502
 20
2278.000346415752
 30
0.0
 11
-4477.999649202502
 21
2143.000346415752
 31
0.0
  0
LINE
  5
C0
330
1F
100
AcDbEntity
  8
0-6__
  6
Continuous
 62
    92
370
    13
100
AcDbLine
 10
-4434.4996492025
 20
2278.000346415752
 30
0.0
 11
-4434.4996492025
 21
2143.000346415752
 31
0.0
  0
LINE
  5
C1
330
1F
100
AcDbEntity
  8
通り芯
  6
JWW_CENTER1
 62
   120
370
     5
100
AcDbLine
 10
-4456.249649202501
 20
2290.500346415752
 30
0.0
 11
-4456.249649202501
 21
2130.50034641575
 31
0.0
  0
LINE
  5
C2
330
1F
100
AcDbEntity
  8
扉
  6
Continuous
 62
    92
370
    13
100
AcDbLine
 10
-3736.999649202501
 20
3235.000346415751
 30
0.0
 11
-3736.999649202501
 21
1253.000346415751
 31
0.0
  0
LINE
  5
C3
330
1F
100
AcDbEntity
  8
0-6__
  6
Continuous
 62
    92
370
    13
100
AcDbLine
 10
-3306.999649202501
 20
2278.000346415752
 30
0.0
 11
-3350.499649202501
 21
2278.000346415752
 31
0.0
  0
LINE
  5
C4
330
1F
100
AcDbEntity
  8
0-6__
  6
Continuous
 62
    92
370
    13
100
AcDbLine
 10
-3306.999649202501
 20
2143.000346415752
 30
0.0
 11
-3350.499649202501
 21
2143.000346415752
 31
0.0
  0
LINE
  5
C5
330
1F
100
AcDbEntity
  8
0-6__
  6
Continuous
 62
    92
370
    13
100
AcDbLine
 10
-3309.9996492025
 20
2143.000346415752
 30
0.0
 11
-3309.9996492025
 21
2278.000346415752
 31
0.0
  0
ARC
  5
C6
330
1F
100
AcDbEntity
  8
0-6__
  6
Continuous
 62
    92
370
    13
100
AcDbCircle
 10
-3330.4996492025
 20
2248.000346415752
 30
0.0
 40
15.0
100
AcDbArc
 50
89.99999999999999
 51
180.0
  0
LINE
  5
C7
330
1F
100
AcDbEntity
  8
0-6__
  6
Continuous
 62
    92
370
    13
100
AcDbLine
 10
-3345.4996492025
 20
2173.000346415752
 30
0.0
 11
-3345.4996492025
 21
2248.000346415752
 31
0.0
  0
ARC
  5
C8
330
1F
100
AcDbEntity
  8
0-6__
  6
Continuous
 62
    92
370
    13
100
AcDbCircle
 10
-3330.4996492025
 20
2173.000346415752
 30
0.0
 40
15.0
100
AcDbArc
 50
180.0
 51
270.0
  0
LINE
  5
C9
330
1F
100
AcDbEntity
  8
0-6__
  6
Continuous
 62
    92
370
    13
100
AcDbLine
 10
-3330.4996492025
 20
2158.000346415752
 30
0.0
 11
-3309.9996492025
 21
2158.000346415752
 31
0.0
  0
LINE
  5
CA
330
1F
100
AcDbEntity
  8
0-6__
  6
Continuous
 62
    92
370
    13
100
AcDbLine
 10
-3330.4996492025
 20
2263.000346415752
 30
0.0
 11
-3309.9996492025
 21
2263.000346415752
 31
0.0
  0
LINE
  5
CB
330
1F
100
AcDbEntity
  8
0-6__
  6
Continuous
 62
    92
370
    13
100
AcDbLine
 10
-3306.999649202501
 20
2278.000346415752
 30
0.0
 11
-3306.999649202501
 21
2143.000346415752
 31
0.0
  0
LINE
  5
CC
330
1F
100
AcDbEntity
  8
0-6__
  6
Continuous
 62
    92
370
    13
100
AcDbLine
 10
-3350.499649202501
 20
2278.000346415752
 30
0.0
 11
-3350.499649202501
 21
2143.000346415752
 31
0.0
  0
LINE
  5
CD
330
1F
100
AcDbEntity
  8
通り芯
  6
JWW_CENTER1
 62
   120
370
     5
100
AcDbLine
 10
-3328.7496492025
 20
2290.500346415752
 30
0.0
 11
-3328.7496492025
 21
2130.500346415752
 31
0.0
  0
LINE
  5
CE
330
1F
100
AcDbEntity
  8
通り芯
  6
JWW_CENTER1
 62
   120
370
     5
100
AcDbLine
 10
-3287.749649202502
 20
2210.500346415752
 30
0.0
 11
-3369.7496492025
 21
2210.500346415752
 31
0.0
  0
LINE
  5
CF
330
1F
100
AcDbEntity
  8
扉
  6
JWW_DASHED1
 62
   120
370
     5
100
AcDbLine
 10
-3306.999649202501
 20
3235.000346415751
 30
0.0
 11
-3306.999649202501
 21
1253.000346415752
 31
0.0
  0
LINE
  5
D0
330
1F
100
AcDbEntity
  8
扉
  6
JWW_DASHED1
 62
   120
370
     5
100
AcDbLine
 10
-3309.9996492025
 20
1253.000346415751
 30
0.0
 11
-3306.999649202501
 21
1253.000346415752
 31
0.0
  0
LINE
  5
D1
330
1F
100
AcDbEntity
  8
扉
  6
JWW_DASHED1
 62
   120
370
     5
100
AcDbLine
 10
-3309.9996492025
 20
3235.000346415751
 30
0.0
 11
-3306.999649202501
 21
3235.000346415751
 31
0.0
  0
LINE
  5
D2
330
1F
100
AcDbEntity
  8
扉
  6
JWW_DASHED1
 62
   120
370
     5
100
AcDbLine
 10
-3739.999649202501
 20
1253.000346415751
 30
0.0
 11
-3739.999649202501
 21
3235.000346415751
 31
0.0
  0
LINE
  5
D3
330
1F
100
AcDbEntity
  8
0-B_寸法
  6
Continuous
 62
   120
370
     5
100
AcDbLine
 10
-3739.999649202501
 20
933.0003464157514
 30
0.0
 11
-3739.999649202501
 21
1183.000346415752
 31
0.0
  0
LWPOLYLINE
  5
D4
330
1F
100
AcDbEntity
  8
0-B_寸法
  6
Continuous
 62
     7
370
     9
100
AcDbPolyline
 90
        4
 70
     1
 43
6.0
 10
-3736.999649202502
 20
933.0003464157514
 42
0.4142135623731
 10
-3739.999649202501
 20
936.0003464157514
 42
0.4142135623731
 10
-3742.999649202501
 20
933.0003464157514
 42
0.4142135623731
 10
-3739.999649202501
 20
930.0003464157513
 42
0.4142135623731
  0
LINE
  5
D5
330
1F
100
AcDbEntity
  8
扉
  6
JWW_DASHED1
 62
   120
370
     5
100
AcDbLine
 10
-4477.999649202502
 20
1253.000346415751
 30
0.0
 11
-4477.999649202502
 21
3235.000346415751
 31
0.0
  0
LINE
  5
D6
330
1F
100
AcDbEntity
  8
扉
  6
JWW_DASHED1
 62
   120
370
     5
100
AcDbLine
 10
-4477.999649202502
 20
1253.000346415751
 30
0.0
 11
-4474.999649202501
 21
1253.000346415751
 31
0.0
  0
LINE
  5
D7
330
1F
100
AcDbEntity
  8
扉
  6
JWW_DASHED1
 62
   120
370
     5
100
AcDbLine
 10
-4477.999649202502
 20
3235.000346415751
 30
0.0
 11
-4474.999649202501
 21
3235.000346415751
 31
0.0
  0
LINE
  5
D8
330
1F
100
AcDbEntity
  8
扉
  6
Continuous
 62
    92
370
    13
100
AcDbLine
 10
-4474.999649202501
 20
3235.000346415751
 30
0.0
 11
-3309.9996492025
 21
3235.000346415751
 31
0.0
  0
LINE
  5
D9
330
1F
100
AcDbEntity
  8
扉
  6
Continuous
 62
    92
370
    13
100
AcDbLine
 10
-2186.124900250821
 20
3235.000346415751
 30
0.0
 11
-601.1249002508202
 21
3235.000346415751
 31
0.0
  0
LINE
  5
DA
330
1F
100
AcDbEntity
  8
扉
  6
Continuous
 62
    92
370
    13
100
AcDbLine
 10
-1683.62490025082
 20
3235.000346415751
 30
0.0
 11
-1683.62490025082
 21
1253.000346415751
 31
0.0
  0
LINE
  5
DB
330
1F
100
AcDbEntity
  8
扉
  6
JWW_DASHED1
 62
   120
370
     5
100
AcDbLine
 10
-1103.62490025082
 20
1253.000346415751
 30
0.0
 11
-1103.62490025082
 21
3235.000346415751
 31
0.0
  0
LINE
  5
DC
330
1F
100
AcDbEntity
  8
0-4_枠
  6
Continuous
 62
    92
370
    13
100
AcDbLine
 10
-571.1249002508202
 20
1233.000346415751
 30
0.0
 11
-2216.124900250821
 21
1233.000346415751
 31
0.0
  0
LINE
  5
DD
330
1F
100
AcDbEntity
  8
0-4_枠
  6
Continuous
 62
    92
370
    13
100
AcDbLine
 10
-601.1249002508202
 20
1248.000346415751
 30
0.0
 11
-2186.124900250821
 21
1248.000346415751
 31
0.0
  0
LINE
  5
DE
330
1F
100
AcDbEntity
  8
0-B_寸法
  6
Continuous
 62
   120
370
     5
100
AcDbLine
 10
-2216.124900250821
 20
733.0003464157517
 30
0.0
 11
-2216.124900250821
 21
1183.000346415752
 31
0.0
  0
LINE
  5
DF
330
1F
100
AcDbEntity
  8
0-B_寸法
  6
Continuous
 62
   120
370
     5
100
AcDbLine
 10
-2216.124900250821
 20
733.0003464157517
 30
0.0
 11
-571.1249002508202
 21
733.0003464157517
 31
0.0
  0
LINE
  5
E0
330
1F
100
AcDbEntity
  8
0-B_寸法
  6
Continuous
 62
   120
370
     5
100
AcDbLine
 10
-571.1249002508202
 20
733.0003464157517
 30
0.0
 11
-571.1249002508202
 21
1183.000346415752
 31
0.0
  0
LINE
  5
E1
330
1F
100
AcDbEntity
  8
0-B_寸法
  6
Continuous
 62
   120
370
     5
100
AcDbLine
 10
-2516.124900250821
 20
1253.000346415751
 30
0.0
 11
-2266.124900250818
 21
1253.000346415751
 31
0.0
  0
LINE
  5
E2
330
1F
100
AcDbEntity
  8
0-B_寸法
  6
Continuous
 62
   120
370
     5
100
AcDbLine
 10
-601.1249002508202
 20
933.0003464157514
 30
0.0
 11
-601.1249002508202
 21
1183.000346415752
 31
0.0
  0
LINE
  5
E3
330
1F
100
AcDbEntity
  8
0-B_寸法
  6
Continuous
 62
   120
370
     5
100
AcDbLine
 10
-2186.124900250821
 20
933.0003464157514
 30
0.0
 11
-601.1249002508202
 21
933.0003464157514
 31
0.0
  0
LINE
  5
E4
330
1F
100
AcDbEntity
  8
0-B_寸法
  6
Continuous
 62
   120
370
     5
100
AcDbLine
 10
-1181.124900250819
 20
933.0003464157514
 30
0.0
 11
-1181.124900250819
 21
1183.000346415752
 31
0.0
  0
LINE
  5
E5
330
1F
100
AcDbEntity
  8
0-B_寸法
  6
Continuous
 62
   120
370
     5
100
AcDbLine
 10
-2186.124900250821
 20
933.0003464157514
 30
0.0
 11
-2186.124900250821
 21
1183.000346415752
 31
0.0
  0
LWPOLYLINE
  5
E6
330
1F
100
AcDbEntity
  8
0-B_寸法
  6
Continuous
 62
     7
370
     9
100
AcDbPolyline
 90
        4
 70
     1
 43
6.0
 10
-2213.124900250822
 20
733.0003464157517
 42
0.4142135623731
 10
-2216.124900250821
 20
736.0003464157517
 42
0.4142135623731
 10
-2219.124900250821
 20
733.0003464157517
 42
0.4142135623731
 10
-2216.124900250821
 20
730.0003464157517
 42
0.4142135623731
  0
LWPOLYLINE
  5
E7
330
1F
100
AcDbEntity
  8
0-B_寸法
  6
Continuous
 62
     7
370
     9
100
AcDbPolyline
 90
        4
 70
     1
 43
6.0
 10
-568.1249002508202
 20
733.0003464157517
 42
0.4142135623731
 10
-571.1249002508202
 20
736.0003464157517
 42
0.4142135623731
 10
-574.1249002508202
 20
733.0003464157517
 42
0.4142135623731
 10
-571.1249002508202
 20
730.0003464157517
 42
0.4142135623731
  0
LWPOLYLINE
  5
E8
330
1F
100
AcDbEntity
  8
0-B_寸法
  6
Continuous
 62
     7
370
     9
100
AcDbPolyline
 90
        4
 70
     1
 43
6.0
 10
-2513.124900250822
 20
1253.000346415751
 42
0.4142135623731
 10
-2516.124900250821
 20
1256.000346415751
 42
0.4142135623731
 10
-2519.124900250821
 20
1253.000346415751
 42
0.4142135623731
 10
-2516.124900250821
 20
1250.000346415751
 42
0.4142135623731
  0
LWPOLYLINE
  5
E9
330
1F
100
AcDbEntity
  8
0-B_寸法
  6
Continuous
 62
     7
370
     9
100
AcDbPolyline
 90
        4
 70
     1
 43
6.0
 10
-598.1249002508202
 20
933.0003464157514
 42
0.4142135623731
 10
-601.1249002508202
 20
936.0003464157514
 42
0.4142135623731
 10
-604.1249002508202
 20
933.0003464157514
 42
0.4142135623731
 10
-601.1249002508202
 20
930.0003464157513
 42
0.4142135623731
  0
LWPOLYLINE
  5
EA
330
1F
100
AcDbEntity
  8
0-B_寸法
  6
Continuous
 62
     7
370
     9
100
AcDbPolyline
 90
        4
 70
     1
 43
6.0
 10
-1178.124900250819
 20
933.0003464157514
 42
0.4142135623731
 10
-1181.124900250819
 20
936.0003464157514
 42
0.4142135623731
 10
-1184.124900250819
 20
933.0003464157514
 42
0.4142135623731
 10
-1181.124900250819
 20
930.0003464157513
 42
0.4142135623731
  0
LWPOLYLINE
  5
EB
330
1F
100
AcDbEntity
  8
0-B_寸法
  6
Continuous
 62
     7
370
     9
100
AcDbPolyline
 90
        4
 70
     1
 43
6.0
 10
-2183.124900250822
 20
933.0003464157514
 42
0.4142135623731
 10
-2186.124900250821
 20
936.0003464157514
 42
0.4142135623731
 10
-2189.124900250821
 20
933.0003464157514
 42
0.4142135623731
 10
-2186.124900250821
 20
930.0003464157513
 42
0.4142135623731
  0
LINE
  5
EC
330
1F
100
AcDbEntity
  8
0-4_枠
  6
Continuous
 62
    92
370
    13
100
AcDbLine
 10
-2186.124900250821
 20
1233.000346415751
 30
0.0
 11
-2186.124900250821
 21
3242.000346415752
 31
0.0
  0
LINE
  5
ED
330
1F
100
AcDbEntity
  8
0-4_枠
  6
Continuous
 62
    92
370
    13
100
AcDbLine
 10
-571.1249002508202
 20
1233.000346415751
 30
0.0
 11
-571.1249002508202
 21
3278.000346415751
 31
0.0
  0
LINE
  5
EE
330
1F
100
AcDbEntity
  8
0-4_枠
  6
Continuous
 62
    92
370
    13
100
AcDbLine
 10
-601.1249002508202
 20
1233.000346415751
 30
0.0
 11
-601.1249002508202
 21
3242.000346415752
 31
0.0
  0
LINE
  5
EF
330
1F
100
AcDbEntity
  8
0-4_枠
  6
Continuous
 62
    92
370
    13
100
AcDbLine
 10
-2216.124900250821
 20
3278.000346415751
 30
0.0
 11
-571.1249002508202
 21
3278.000346415751
 31
0.0
  0
LINE
  5
F0
330
1F
100
AcDbEntity
  8
0-4_枠
  6
Continuous
 62
    92
370
    13
100
AcDbLine
 10
-2186.124900250821
 20
3242.000346415752
 30
0.0
 11
-601.1249002508202
 21
3242.000346415752
 31
0.0
  0
LINE
  5
F1
330
1F
100
AcDbEntity
  8
0-4_枠
  6
Continuous
 62
    92
370
    13
100
AcDbLine
 10
-2216.124900250821
 20
3278.000346415751
 30
0.0
 11
-2216.124900250821
 21
1233.000346415751
 31
0.0
  0
LINE
  5
F2
330
1F
100
AcDbEntity
  8
0-B_寸法
  6
Continuous
 62
   120
370
     5
100
AcDbLine
 10
-2516.124900250821
 20
3235.000346415751
 30
0.0
 11
-2516.124900250821
 21
1253.000346415751
 31
0.0
  0
LINE
  5
F3
330
1F
100
AcDbEntity
  8
0-B_寸法
  6
Continuous
 62
   120
370
     5
100
AcDbLine
 10
-2516.124900250821
 20
3235.000346415751
 30
0.0
 11
-2266.124900250818
 21
3235.000346415751
 31
0.0
  0
LWPOLYLINE
  5
F4
330
1F
100
AcDbEntity
  8
0-B_寸法
  6
Continuous
 62
     7
370
     9
100
AcDbPolyline
 90
        4
 70
     1
 43
6.0
 10
-2513.124900250822
 20
3235.000346415751
 42
0.4142135623731
 10
-2516.124900250821
 20
3238.000346415751
 42
0.4142135623731
 10
-2519.124900250821
 20
3235.000346415751
 42
0.4142135623731
 10
-2516.124900250821
 20
3232.000346415751
 42
0.4142135623731
  0
LINE
  5
F5
330
1F
100
AcDbEntity
  8
扉
  6
JWW_DASHED1
 62
   120
370
     5
100
AcDbLine
 10
-1609.124900250821
 20
1253.000346415751
 30
0.0
 11
-1609.124900250821
 21
3235.000346415751
 31
0.0
  0
LINE
  5
F6
330
1F
100
AcDbEntity
  8
0-6__
  6
Continuous
 62
    92
370
    13
100
AcDbLine
 10
-2189.12490025082
 20
2278.000346415752
 30
0.0
 11
-2145.624900250821
 21
2278.000346415752
 31
0.0
  0
LINE
  5
F7
330
1F
100
AcDbEntity
  8
0-6__
  6
Continuous
 62
    92
370
    13
100
AcDbLine
 10
-2189.12490025082
 20
2143.000346415752
 30
0.0
 11
-2145.624900250821
 21
2143.000346415752
 31
0.0
  0
LINE
  5
F8
330
1F
100
AcDbEntity
  8
0-6__
  6
Continuous
 62
    92
370
    13
100
AcDbLine
 10
-2186.124900250821
 20
2143.000346415752
 30
0.0
 11
-2186.124900250821
 21
2278.000346415752
 31
0.0
  0
ARC
  5
F9
330
1F
100
AcDbEntity
  8
0-6__
  6
Continuous
 62
    92
370
    13
100
AcDbCircle
 10
-2165.624900250819
 20
2248.000346415752
 30
0.0
 40
15.0
100
AcDbArc
 50
0.0000000000000127
 51
90.00000000000001
  0
LINE
  5
FA
330
1F
100
AcDbEntity
  8
0-6__
  6
Continuous
 62
    92
370
    13
100
AcDbLine
 10
-2150.624900250819
 20
2173.000346415752
 30
0.0
 11
-2150.624900250819
 21
2248.000346415752
 31
0.0
  0
ARC
  5
FB
330
1F
100
AcDbEntity
  8
0-6__
  6
Continuous
 62
    92
370
    13
100
AcDbCircle
 10
-2165.624900250819
 20
2173.000346415752
 30
0.0
 40
15.0
100
AcDbArc
 50
270.0
 51
0.0
  0
LINE
  5
FC
330
1F
100
AcDbEntity
  8
0-6__
  6
Continuous
 62
    92
370
    13
100
AcDbLine
 10
-2165.624900250819
 20
2158.000346415752
 30
0.0
 11
-2186.124900250821
 21
2158.000346415752
 31
0.0
  0
LINE
  5
FD
330
1F
100
AcDbEntity
  8
0-6__
  6
Continuous
 62
    92
370
    13
100
AcDbLine
 10
-2165.624900250819
 20
2263.000346415752
 30
0.0
 11
-2186.124900250821
 21
2263.000346415752
 31
0.0
  0
LINE
  5
FE
330
1F
100
AcDbEntity
  8
0-6__
  6
Continuous
 62
    92
370
    13
100
AcDbLine
 10
-2189.12490025082
 20
2278.000346415752
 30
0.0
 11
-2189.12490025082
 21
2143.000346415752
 31
0.0
  0
LINE
  5
FF
330
1F
100
AcDbEntity
  8
0-6__
  6
Continuous
 62
    92
370
    13
100
AcDbLine
 10
-2145.624900250821
 20
2278.000346415752
 30
0.0
 11
-2145.624900250821
 21
2143.000346415752
 31
0.0
  0
LINE
  5
100
330
1F
100
AcDbEntity
  8
通り芯
  6
JWW_CENTER1
 62
   120
370
     5
100
AcDbLine
 10
-2167.374900250821
 20
2290.500346415752
 30
0.0
 11
-2167.374900250821
 21
2130.50034641575
 31
0.0
  0
LINE
  5
101
330
1F
100
AcDbEntity
  8
通り芯
  6
JWW_CENTER1
 62
   120
370
     5
100
AcDbLine
 10
-2123.37490025082
 20
2210.500346415752
 30
0.0
 11
-2208.374900250822
 21
2210.500346415752
 31
0.0
  0
LINE
  5
102
330
1F
100
AcDbEntity
  8
0-6__
  6
Continuous
 62
    92
370
    13
100
AcDbLine
 10
-598.1249002508196
 20
2278.000346415752
 30
0.0
 11
-641.62490025082
 21
2278.000346415752
 31
0.0
  0
LINE
  5
103
330
1F
100
AcDbEntity
  8
0-6__
  6
Continuous
 62
    92
370
    13
100
AcDbLine
 10
-598.1249002508196
 20
2143.000346415752
 30
0.0
 11
-641.62490025082
 21
2143.000346415752
 31
0.0
  0
LINE
  5
104
330
1F
100
AcDbEntity
  8
0-6__
  6
Continuous
 62
    92
370
    13
100
AcDbLine
 10
-601.1249002508202
 20
2143.000346415752
 30
0.0
 11
-601.1249002508202
 21
2278.000346415752
 31
0.0
  0
ARC
  5
105
330
1F
100
AcDbEntity
  8
0-6__
  6
Continuous
 62
    92
370
    13
100
AcDbCircle
 10
-621.6249002508204
 20
2248.000346415752
 30
0.0
 40
15.0
100
AcDbArc
 50
89.99999999999999
 51
180.0
  0
LINE
  5
106
330
1F
100
AcDbEntity
  8
0-6__
  6
Continuous
 62
    92
370
    13
100
AcDbLine
 10
-636.6249002508204
 20
2173.000346415752
 30
0.0
 11
-636.6249002508204
 21
2248.000346415752
 31
0.0
  0
ARC
  5
107
330
1F
100
AcDbEntity
  8
0-6__
  6
Continuous
 62
    92
370
    13
100
AcDbCircle
 10
-621.6249002508204
 20
2173.000346415752
 30
0.0
 40
15.0
100
AcDbArc
 50
180.0
 51
270.0
  0
LINE
  5
108
330
1F
100
AcDbEntity
  8
0-6__
  6
Continuous
 62
    92
370
    13
100
AcDbLine
 10
-621.6249002508204
 20
2158.000346415752
 30
0.0
 11
-601.1249002508202
 21
2158.000346415752
 31
0.0
  0
LINE
  5
109
330
1F
100
AcDbEntity
  8
0-6__
  6
Continuous
 62
    92
370
    13
100
AcDbLine
 10
-621.6249002508204
 20
2263.000346415752
 30
0.0
 11
-601.1249002508202
 21
2263.000346415752
 31
0.0
  0
LINE
  5
10A
330
1F
100
AcDbEntity
  8
0-6__
  6
Continuous
 62
    92
370
    13
100
AcDbLine
 10
-598.1249002508205
 20
2278.000346415752
 30
0.0
 11
-598.1249002508205
 21
2143.000346415752
 31
0.0
  0
LINE
  5
10B
330
1F
100
AcDbEntity
  8
0-6__
  6
Continuous
 62
    92
370
    13
100
AcDbLine
 10
-641.62490025082
 20
2278.000346415752
 30
0.0
 11
-641.62490025082
 21
2143.000346415752
 31
0.0
  0
LINE
  5
10C
330
1F
100
AcDbEntity
  8
通り芯
  6
JWW_CENTER1
 62
   120
370
     5
100
AcDbLine
 10
-619.8749002508202
 20
2290.500346415752
 30
0.0
 11
-619.8749002508202
 21
2130.50034641575
 31
0.0
  0
LINE
  5
10D
330
1F
100
AcDbEntity
  8
通り芯
  6
JWW_CENTER1
 62
   120
370
     5
100
AcDbLine
 10
-578.8749002508209
 20
2210.500346415752
 30
0.0
 11
-663.8749002508195
 21
2210.500346415752
 31
0.0
  0
LINE
  5
10E
330
1F
100
AcDbEntity
  8
扉
  6
Continuous
 62
    92
370
    13
100
AcDbLine
 10
-1178.124900250821
 20
3235.000346415751
 30
0.0
 11
-1178.124900250821
 21
1253.000346415751
 31
0.0
  0
LINE
  5
10F
330
1F
100
AcDbEntity
  8
扉
  6
JWW_DASHED1
 62
   120
370
     5
100
AcDbLine
 10
-2189.12490025082
 20
1253.000346415751
 30
0.0
 11
-2189.12490025082
 21
3235.000346415751
 31
0.0
  0
LINE
  5
110
330
1F
100
AcDbEntity
  8
扉
  6
JWW_DASHED1
 62
   120
370
     5
100
AcDbLine
 10
-2189.12490025082
 20
1253.000346415751
 30
0.0
 11
-2186.124900250821
 21
1253.000346415751
 31
0.0
  0
LINE
  5
111
330
1F
100
AcDbEntity
  8
扉
  6
JWW_DASHED1
 62
   120
370
     5
100
AcDbLine
 10
-2189.12490025082
 20
3235.000346415751
 30
0.0
 11
-2186.124900250821
 21
3235.000346415751
 31
0.0
  0
ARC
  5
112
330
1F
100
AcDbEntity
  8
0-6__
  6
Continuous
 62
    92
370
    13
100
AcDbCircle
 10
-621.6249002508204
 20
2248.000346415752
 30
0.0
 40
15.0
100
AcDbArc
 50
89.99999999999999
 51
180.0
  0
ARC
  5
113
330
1F
100
AcDbEntity
  8
0-6__
  6
Continuous
 62
    92
370
    13
100
AcDbCircle
 10
-621.6249002508204
 20
2173.000346415752
 30
0.0
 40
15.0
100
AcDbArc
 50
180.0
 51
270.0
  0
LINE
  5
114
330
1F
100
AcDbEntity
  8
扉
  6
JWW_DASHED1
 62
   120
370
     5
100
AcDbLine
 10
-598.1249002508196
 20
1253.000346415751
 30
0.0
 11
-598.1249002508196
 21
3235.000346415751
 31
0.0
  0
LINE
  5
115
330
1F
100
AcDbEntity
  8
扉
  6
JWW_DASHED1
 62
   120
370
     5
100
AcDbLine
 10
-598.1249002508196
 20
1253.000346415751
 30
0.0
 11
-601.1249002508202
 21
1253.000346415751
 31
0.0
  0
LINE
  5
116
330
1F
100
AcDbEntity
  8
扉
  6
JWW_DASHED1
 62
   120
370
     5
100
AcDbLine
 10
-598.1249002508196
 20
3235.000346415751
 30
0.0
 11
-601.1249002508202
 21
3235.000346415751
 31
0.0
  0
LINE
  5
117
330
1F
100
AcDbEntity
  8
扉
  6
Continuous
 62
    92
370
    13
100
AcDbLine
 10
-2186.124900250821
 20
1253.000346415751
 30
0.0
 11
-601.1249002508202
 21
1253.000346415751
 31
0.0
  0
LINE
  5
118
330
1F
100
AcDbEntity
  8
扉
  6
JWW_DASHED1
 62
   120
370
     5
100
AcDbLine
 10
-1181.124900250819
 20
1253.000346415751
 30
0.0
 11
-1181.124900250819
 21
3235.000346415751
 31
0.0
  0
LINE
  5
119
330
1F
100
AcDbEntity
  8
扉
  6
Continuous
 62
    92
370
    13
100
AcDbLine
 10
1007.499848700859
 20
1253.000346415751
 30
0.0
 11
1007.499848700859
 21
3235.000346415751
 31
0.0
  0
LINE
  5
11A
330
1F
100
AcDbEntity
  8
0-4_枠
  6
Continuous
 62
    92
370
    13
100
AcDbLine
 10
2137.499848700859
 20
1233.000346415751
 30
0.0
 11
457.4998487008591
 21
1233.000346415751
 31
0.0
  0
LINE
  5
11B
330
1F
100
AcDbEntity
  8
0-4_枠
  6
Continuous
 62
    92
370
    13
100
AcDbLine
 10
2107.499848700859
 20
1248.000346415751
 30
0.0
 11
487.4998487008591
 21
1248.000346415751
 31
0.0
  0
LINE
  5
11C
330
1F
100
AcDbEntity
  8
0-B_寸法
  6
Continuous
 62
   120
370
     5
100
AcDbLine
 10
457.4998487008591
 20
733.0003464157517
 30
0.0
 11
457.4998487008591
 21
1183.000346415752
 31
0.0
  0
LINE
  5
11D
330
1F
100
AcDbEntity
  8
0-B_寸法
  6
Continuous
 62
   120
370
     5
100
AcDbLine
 10
457.4998487008591
 20
733.0003464157517
 30
0.0
 11
2137.499848700859
 21
733.0003464157517
 31
0.0
  0
LINE
  5
11E
330
1F
100
AcDbEntity
  8
0-B_寸法
  6
Continuous
 62
   120
370
     5
100
AcDbLine
 10
2137.499848700859
 20
733.0003464157517
 30
0.0
 11
2137.499848700859
 21
1183.000346415752
 31
0.0
  0
LINE
  5
11F
330
1F
100
AcDbEntity
  8
0-B_寸法
  6
Continuous
 62
   120
370
     5
100
AcDbLine
 10
157.4998487008591
 20
1253.000346415751
 30
0.0
 11
407.4998487008585
 21
1253.000346415751
 31
0.0
  0
LINE
  5
120
330
1F
100
AcDbEntity
  8
0-B_寸法
  6
Continuous
 62
   120
370
     5
100
AcDbLine
 10
2107.499848700859
 20
933.0003464157514
 30
0.0
 11
2107.499848700859
 21
1183.000346415752
 31
0.0
  0
LINE
  5
121
330
1F
100
AcDbEntity
  8
0-B_寸法
  6
Continuous
 62
   120
370
     5
100
AcDbLine
 10
487.4998487008591
 20
933.0003464157514
 30
0.0
 11
2107.499848700859
 21
933.0003464157514
 31
0.0
  0
LINE
  5
122
330
1F
100
AcDbEntity
  8
0-B_寸法
  6
Continuous
 62
   120
370
     5
100
AcDbLine
 10
1527.499848700858
 20
933.0003464157514
 30
0.0
 11
1527.499848700858
 21
1183.000346415752
 31
0.0
  0
LINE
  5
123
330
1F
100
AcDbEntity
  8
0-B_寸法
  6
Continuous
 62
   120
370
     5
100
AcDbLine
 10
487.4998487008591
 20
933.0003464157514
 30
0.0
 11
487.4998487008591
 21
1183.000346415752
 31
0.0
  0
LWPOLYLINE
  5
124
330
1F
100
AcDbEntity
  8
0-B_寸法
  6
Continuous
 62
     7
370
     9
100
AcDbPolyline
 90
        4
 70
     1
 43
6.0
 10
460.4998487008591
 20
733.0003464157517
 42
0.4142135623731
 10
457.4998487008591
 20
736.0003464157517
 42
0.4142135623731
 10
454.4998487008591
 20
733.0003464157517
 42
0.4142135623731
 10
457.4998487008591
 20
730.0003464157517
 42
0.4142135623731
  0
LWPOLYLINE
  5
125
330
1F
100
AcDbEntity
  8
0-B_寸法
  6
Continuous
 62
     7
370
     9
100
AcDbPolyline
 90
        4
 70
     1
 43
6.0
 10
2140.499848700859
 20
733.0003464157517
 42
0.4142135623731
 10
2137.499848700859
 20
736.0003464157517
 42
0.4142135623731
 10
2134.499848700859
 20
733.0003464157517
 42
0.4142135623731
 10
2137.499848700859
 20
730.0003464157517
 42
0.4142135623731
  0
LWPOLYLINE
  5
126
330
1F
100
AcDbEntity
  8
0-B_寸法
  6
Continuous
 62
     7
370
     9
100
AcDbPolyline
 90
        4
 70
     1
 43
6.0
 10
160.4998487008591
 20
1253.000346415751
 42
0.4142135623731
 10
157.4998487008591
 20
1256.000346415751
 42
0.4142135623731
 10
154.4998487008591
 20
1253.000346415751
 42
0.4142135623731
 10
157.4998487008591
 20
1250.000346415751
 42
0.4142135623731
  0
LWPOLYLINE
  5
127
330
1F
100
AcDbEntity
  8
0-B_寸法
  6
Continuous
 62
     7
370
     9
100
AcDbPolyline
 90
        4
 70
     1
 43
6.0
 10
2110.499848700859
 20
933.0003464157514
 42
0.4142135623731
 10
2107.499848700859
 20
936.0003464157514
 42
0.4142135623731
 10
2104.499848700859
 20
933.0003464157514
 42
0.4142135623731
 10
2107.499848700859
 20
930.0003464157513
 42
0.4142135623731
  0
LWPOLYLINE
  5
128
330
1F
100
AcDbEntity
  8
0-B_寸法
  6
Continuous
 62
     7
370
     9
100
AcDbPolyline
 90
        4
 70
     1
 43
6.0
 10
1530.499848700858
 20
933.0003464157514
 42
0.4142135623731
 10
1527.499848700858
 20
936.0003464157514
 42
0.4142135623731
 10
1524.499848700858
 20
933.0003464157514
 42
0.4142135623731
 10
1527.499848700858
 20
930.0003464157513
 42
0.4142135623731
  0
LWPOLYLINE
  5
129
330
1F
100
AcDbEntity
  8
0-B_寸法
  6
Continuous
 62
     7
370
     9
100
AcDbPolyline
 90
        4
 70
     1
 43
6.0
 10
490.4998487008592
 20
933.0003464157514
 42
0.4142135623731
 10
487.4998487008591
 20
936.0003464157514
 42
0.4142135623731
 10
484.499848700859
 20
933.0003464157514
 42
0.4142135623731
 10
487.4998487008591
 20
930.0003464157513
 42
0.4142135623731
  0
LINE
  5
12A
330
1F
100
AcDbEntity
  8
扉
  6
Continuous
 62
    92
370
    13
100
AcDbLine
 10
487.4998487008591
 20
1253.000346415751
 30
0.0
 11
2107.499848700859
 21
1253.000346415751
 31
0.0
  0
LINE
  5
12B
330
1F
100
AcDbEntity
  8
0-4_枠
  6
Continuous
 62
    92
370
    13
100
AcDbLine
 10
457.4998487008591
 20
1233.000346415751
 30
0.0
 11
457.4998487008591
 21
3278.000346415751
 31
0.0
  0
LINE
  5
12C
330
1F
100
AcDbEntity
  8
0-4_枠
  6
Continuous
 62
    92
370
    13
100
AcDbLine
 10
487.4998487008591
 20
1233.000346415751
 30
0.0
 11
487.4998487008591
 21
3242.000346415752
 31
0.0
  0
LINE
  5
12D
330
1F
100
AcDbEntity
  8
0-4_枠
  6
Continuous
 62
    92
370
    13
100
AcDbLine
 10
2137.499848700859
 20
1233.000346415751
 30
0.0
 11
2137.499848700859
 21
3278.000346415751
 31
0.0
  0
LINE
  5
12E
330
1F
100
AcDbEntity
  8
0-4_枠
  6
Continuous
 62
    92
370
    13
100
AcDbLine
 10
2107.499848700859
 20
1233.000346415751
 30
0.0
 11
2107.499848700859
 21
3242.000346415752
 31
0.0
  0
LINE
  5
12F
330
1F
100
AcDbEntity
  8
0-4_枠
  6
Continuous
 62
    92
370
    13
100
AcDbLine
 10
457.4998487008591
 20
3278.000346415751
 30
0.0
 11
2137.499848700859
 21
3278.000346415751
 31
0.0
  0
LINE
  5
130
330
1F
100
AcDbEntity
  8
0-4_枠
  6
Continuous
 62
    92
370
    13
100
AcDbLine
 10
487.4998487008591
 20
3242.000346415752
 30
0.0
 11
2107.499848700859
 21
3242.000346415752
 31
0.0
  0
LINE
  5
131
330
1F
100
AcDbEntity
  8
0-B_寸法
  6
Continuous
 62
   120
370
     5
100
AcDbLine
 10
157.4998487008591
 20
3235.000346415751
 30
0.0
 11
157.4998487008591
 21
1253.000346415751
 31
0.0
  0
LINE
  5
132
330
1F
100
AcDbEntity
  8
0-B_寸法
  6
Continuous
 62
   120
370
     5
100
AcDbLine
 10
157.4998487008591
 20
3235.000346415751
 30
0.0
 11
407.4998487008585
 21
3235.000346415751
 31
0.0
  0
LWPOLYLINE
  5
133
330
1F
100
AcDbEntity
  8
0-B_寸法
  6
Continuous
 62
     7
370
     9
100
AcDbPolyline
 90
        4
 70
     1
 43
6.0
 10
160.4998487008591
 20
3235.000346415751
 42
0.4142135623731
 10
157.4998487008591
 20
3238.000346415751
 42
0.4142135623731
 10
154.4998487008591
 20
3235.000346415751
 42
0.4142135623731
 10
157.4998487008591
 20
3232.000346415751
 42
0.4142135623731
  0
LINE
  5
134
330
1F
100
AcDbEntity
  8
扉
  6
Continuous
 62
    92
370
    13
100
AcDbLine
 10
487.4998487008591
 20
3235.000346415751
 30
0.0
 11
2107.499848700859
 21
3235.000346415751
 31
0.0
  0
LINE
  5
135
330
1F
100
AcDbEntity
  8
扉
  6
JWW_DASHED1
 62
   120
370
     5
100
AcDbLine
 10
1587.499848700858
 20
1253.000346415751
 30
0.0
 11
1587.499848700858
 21
3235.000346415751
 31
0.0
  0
LINE
  5
136
330
1F
100
AcDbEntity
  8
扉
  6
JWW_DASHED1
 62
   120
370
     5
100
AcDbLine
 10
1064.499848700859
 20
1253.000346415751
 30
0.0
 11
1064.499848700859
 21
3235.000346415751
 31
0.0
  0
LINE
  5
137
330
1F
100
AcDbEntity
  8
0-6__
  6
Continuous
 62
    92
370
    13
100
AcDbLine
 10
484.4998487008601
 20
2278.000346415752
 30
0.0
 11
527.9998487008589
 21
2278.000346415752
 31
0.0
  0
LINE
  5
138
330
1F
100
AcDbEntity
  8
0-6__
  6
Continuous
 62
    92
370
    13
100
AcDbLine
 10
484.4998487008601
 20
2143.000346415752
 30
0.0
 11
527.9998487008589
 21
2143.000346415752
 31
0.0
  0
LINE
  5
139
330
1F
100
AcDbEntity
  8
0-6__
  6
Continuous
 62
    92
370
    13
100
AcDbLine
 10
487.4998487008591
 20
2143.000346415752
 30
0.0
 11
487.4998487008591
 21
2278.000346415752
 31
0.0
  0
ARC
  5
13A
330
1F
100
AcDbEntity
  8
0-6__
  6
Continuous
 62
    92
370
    13
100
AcDbCircle
 10
507.9998487008592
 20
2248.000346415752
 30
0.0
 40
15.0
100
AcDbArc
 50
0.0000000000000127
 51
90.00000000000001
  0
LINE
  5
13B
330
1F
100
AcDbEntity
  8
0-6__
  6
Continuous
 62
    92
370
    13
100
AcDbLine
 10
522.9998487008593
 20
2173.000346415752
 30
0.0
 11
522.9998487008593
 21
2248.000346415752
 31
0.0
  0
ARC
  5
13C
330
1F
100
AcDbEntity
  8
0-6__
  6
Continuous
 62
    92
370
    13
100
AcDbCircle
 10
507.9998487008592
 20
2173.000346415752
 30
0.0
 40
15.0
100
AcDbArc
 50
270.0
 51
0.0
  0
LINE
  5
13D
330
1F
100
AcDbEntity
  8
0-6__
  6
Continuous
 62
    92
370
    13
100
AcDbLine
 10
507.9998487008592
 20
2158.000346415752
 30
0.0
 11
487.4998487008591
 21
2158.000346415752
 31
0.0
  0
LINE
  5
13E
330
1F
100
AcDbEntity
  8
0-6__
  6
Continuous
 62
    92
370
    13
100
AcDbLine
 10
507.9998487008592
 20
2263.000346415752
 30
0.0
 11
487.4998487008591
 21
2263.000346415752
 31
0.0
  0
LINE
  5
13F
330
1F
100
AcDbEntity
  8
0-6__
  6
Continuous
 62
    92
370
    13
100
AcDbLine
 10
484.4998487008601
 20
2278.000346415752
 30
0.0
 11
484.4998487008601
 21
2143.000346415752
 31
0.0
  0
LINE
  5
140
330
1F
100
AcDbEntity
  8
0-6__
  6
Continuous
 62
    92
370
    13
100
AcDbLine
 10
527.9998487008589
 20
2278.000346415752
 30
0.0
 11
527.9998487008589
 21
2143.000346415752
 31
0.0
  0
LINE
  5
141
330
1F
100
AcDbEntity
  8
通り芯
  6
JWW_CENTER1
 62
   120
370
     5
100
AcDbLine
 10
506.2498487008591
 20
2290.500346415752
 30
0.0
 11
506.2498487008591
 21
2130.50034641575
 31
0.0
  0
LINE
  5
142
330
1F
100
AcDbEntity
  8
通り芯
  6
JWW_CENTER1
 62
   120
370
     5
100
AcDbLine
 10
547.2498487008585
 20
2210.500346415752
 30
0.0
 11
465.2498487008589
 21
2210.500346415752
 31
0.0
  0
LINE
  5
143
330
1F
100
AcDbEntity
  8
扉
  6
Continuous
 62
    92
370
    13
100
AcDbLine
 10
1530.499848700858
 20
3235.000346415751
 30
0.0
 11
1530.499848700858
 21
1253.000346415751
 31
0.0
  0
LINE
  5
144
330
1F
100
AcDbEntity
  8
0-6__
  6
Continuous
 62
    92
370
    13
100
AcDbLine
 10
2110.499848700859
 20
2278.000346415752
 30
0.0
 11
2066.99984870086
 21
2278.000346415752
 31
0.0
  0
LINE
  5
145
330
1F
100
AcDbEntity
  8
0-6__
  6
Continuous
 62
    92
370
    13
100
AcDbLine
 10
2110.499848700859
 20
2143.000346415752
 30
0.0
 11
2066.99984870086
 21
2143.000346415752
 31
0.0
  0
LINE
  5
146
330
1F
100
AcDbEntity
  8
0-6__
  6
Continuous
 62
    92
370
    13
100
AcDbLine
 10
2107.499848700859
 20
2143.000346415752
 30
0.0
 11
2107.499848700859
 21
2278.000346415752
 31
0.0
  0
ARC
  5
147
330
1F
100
AcDbEntity
  8
0-6__
  6
Continuous
 62
    92
370
    13
100
AcDbCircle
 10
2086.999848700859
 20
2248.000346415752
 30
0.0
 40
15.0
100
AcDbArc
 50
89.99999999999999
 51
180.0
  0
LINE
  5
148
330
1F
100
AcDbEntity
  8
0-6__
  6
Continuous
 62
    92
370
    13
100
AcDbLine
 10
2071.999848700859
 20
2173.000346415752
 30
0.0
 11
2071.999848700859
 21
2248.000346415752
 31
0.0
  0
ARC
  5
149
330
1F
100
AcDbEntity
  8
0-6__
  6
Continuous
 62
    92
370
    13
100
AcDbCircle
 10
2086.999848700859
 20
2173.000346415752
 30
0.0
 40
15.0
100
AcDbArc
 50
180.0
 51
270.0
  0
LINE
  5
14A
330
1F
100
AcDbEntity
  8
0-6__
  6
Continuous
 62
    92
370
    13
100
AcDbLine
 10
2086.999848700859
 20
2158.000346415752
 30
0.0
 11
2107.499848700859
 21
2158.000346415752
 31
0.0
  0
LINE
  5
14B
330
1F
100
AcDbEntity
  8
0-6__
  6
Continuous
 62
    92
370
    13
100
AcDbLine
 10
2086.999848700859
 20
2263.000346415752
 30
0.0
 11
2107.499848700859
 21
2263.000346415752
 31
0.0
  0
LINE
  5
14C
330
1F
100
AcDbEntity
  8
0-6__
  6
Continuous
 62
    92
370
    13
100
AcDbLine
 10
2110.499848700859
 20
2278.000346415752
 30
0.0
 11
2110.499848700859
 21
2143.000346415752
 31
0.0
  0
LINE
  5
14D
330
1F
100
AcDbEntity
  8
0-6__
  6
Continuous
 62
    92
370
    13
100
AcDbLine
 10
2066.99984870086
 20
2278.000346415752
 30
0.0
 11
2066.99984870086
 21
2143.000346415752
 31
0.0
  0
LINE
  5
14E
330
1F
100
AcDbEntity
  8
通り芯
  6
JWW_CENTER1
 62
   120
370
     5
100
AcDbLine
 10
2088.749848700859
 20
2290.500346415752
 30
0.0
 11
2088.749848700859
 21
2130.50034641575
 31
0.0
  0
LINE
  5
14F
330
1F
100
AcDbEntity
  8
通り芯
  6
JWW_CENTER1
 62
   120
370
     5
100
AcDbLine
 10
2129.749848700858
 20
2210.500346415752
 30
0.0
 11
2047.749848700859
 21
2210.500346415752
 31
0.0
  0
LINE
  5
150
330
1F
100
AcDbEntity
  8
扉
  6
JWW_DASHED1
 62
   120
370
     5
100
AcDbLine
 10
2110.49984870086
 20
3235.000346415751
 30
0.0
 11
2107.499848700859
 21
3235.000346415751
 31
0.0
  0
LINE
  5
151
330
1F
100
AcDbEntity
  8
扉
  6
JWW_DASHED1
 62
   120
370
     5
100
AcDbLine
 10
2110.49984870086
 20
1253.000346415751
 30
0.0
 11
2110.49984870086
 21
3235.000346415751
 31
0.0
  0
LINE
  5
152
330
1F
100
AcDbEntity
  8
扉
  6
JWW_DASHED1
 62
   120
370
     5
100
AcDbLine
 10
2110.49984870086
 20
1253.000346415751
 30
0.0
 11
2107.499848700859
 21
1253.000346415751
 31
0.0
  0
LINE
  5
153
330
1F
100
AcDbEntity
  8
扉
  6
JWW_DASHED1
 62
   120
370
     5
100
AcDbLine
 10
484.4998487008601
 20
3235.000346415751
 30
0.0
 11
487.4998487008583
 21
3235.000346415751
 31
0.0
  0
LINE
  5
154
330
1F
100
AcDbEntity
  8
扉
  6
JWW_DASHED1
 62
   120
370
     5
100
AcDbLine
 10
484.4998487008601
 20
1253.000346415751
 30
0.0
 11
484.4998487008601
 21
3235.000346415751
 31
0.0
  0
LINE
  5
155
330
1F
100
AcDbEntity
  8
扉
  6
JWW_DASHED1
 62
   120
370
     5
100
AcDbLine
 10
484.4998487008601
 20
1253.000346415751
 30
0.0
 11
487.4998487008583
 21
1253.000346415751
 31
0.0
  0
LINE
  5
156
330
1F
100
AcDbEntity
  8
扉
  6
JWW_DASHED1
 62
   120
370
     5
100
AcDbLine
 10
1527.499848700858
 20
1253.000346415751
 30
0.0
 11
1527.499848700858
 21
3235.000346415751
 31
0.0
  0
LINE
  5
157
330
1F
100
AcDbEntity
  8
0-4_枠
  6
Continuous
 62
    92
370
    13
100
AcDbLine
 10
5606.999597652539
 20
1232.999952058535
 30
0.0
 11
3127.999597652539
 21
1232.999952058535
 31
0.0
  0
LINE
  5
158
330
1F
100
AcDbEntity
  8
0-4_枠
  6
Continuous
 62
    92
370
    13
100
AcDbLine
 10
5576.999597652539
 20
1247.999952058535
 30
0.0
 11
3157.999597652539
 21
1247.999952058535
 31
0.0
  0
LINE
  5
159
330
1F
100
AcDbEntity
  8
0-B_寸法
  6
Continuous
 62
   120
370
     5
100
AcDbLine
 10
3127.999597652539
 20
732.999952058535
 30
0.0
 11
3127.999597652539
 21
1182.999952058535
 31
0.0
  0
LINE
  5
15A
330
1F
100
AcDbEntity
  8
0-B_寸法
  6
Continuous
 62
   120
370
     5
100
AcDbLine
 10
3127.999597652539
 20
732.999952058535
 30
0.0
 11
5606.999597652539
 21
732.999952058535
 31
0.0
  0
LINE
  5
15B
330
1F
100
AcDbEntity
  8
0-B_寸法
  6
Continuous
 62
   120
370
     5
100
AcDbLine
 10
5606.999597652539
 20
732.999952058535
 30
0.0
 11
5606.999597652539
 21
1182.999952058535
 31
0.0
  0
LINE
  5
15C
330
1F
100
AcDbEntity
  8
0-B_寸法
  6
Continuous
 62
   120
370
     5
100
AcDbLine
 10
2827.999597652539
 20
1252.999952058535
 30
0.0
 11
3077.999597652539
 21
1252.999952058535
 31
0.0
  0
LINE
  5
15D
330
1F
100
AcDbEntity
  8
0-B_寸法
  6
Continuous
 62
   120
370
     5
100
AcDbLine
 10
5576.999597652539
 20
932.9999520585346
 30
0.0
 11
5576.999597652539
 21
1182.999952058535
 31
0.0
  0
LINE
  5
15E
330
1F
100
AcDbEntity
  8
0-B_寸法
  6
Continuous
 62
   120
370
     5
100
AcDbLine
 10
4728.999597652539
 20
932.9999520585346
 30
0.0
 11
4728.999597652539
 21
1182.999952058535
 31
0.0
  0
LINE
  5
15F
330
1F
100
AcDbEntity
  8
0-B_寸法
  6
Continuous
 62
   120
370
     5
100
AcDbLine
 10
3157.999597652539
 20
932.9999520585346
 30
0.0
 11
5576.999597652539
 21
932.9999520585346
 31
0.0
  0
LINE
  5
160
330
1F
100
AcDbEntity
  8
0-B_寸法
  6
Continuous
 62
   120
370
     5
100
AcDbLine
 10
3157.999597652539
 20
932.9999520585346
 30
0.0
 11
3157.999597652539
 21
1182.999952058535
 31
0.0
  0
LWPOLYLINE
  5
161
330
1F
100
AcDbEntity
  8
0-B_寸法
  6
Continuous
 62
     7
370
     9
100
AcDbPolyline
 90
        4
 70
     1
 43
6.0
 10
3130.999597652539
 20
732.999952058535
 42
0.4142135623731
 10
3127.999597652539
 20
735.999952058535
 42
0.4142135623731
 10
3124.99959765254
 20
732.999952058535
 42
0.4142135623731
 10
3127.999597652539
 20
729.9999520585349
 42
0.4142135623731
  0
LWPOLYLINE
  5
162
330
1F
100
AcDbEntity
  8
0-B_寸法
  6
Continuous
 62
     7
370
     9
100
AcDbPolyline
 90
        4
 70
     1
 43
6.0
 10
5609.999597652539
 20
732.999952058535
 42
0.4142135623731
 10
5606.999597652539
 20
735.999952058535
 42
0.4142135623731
 10
5603.999597652539
 20
732.999952058535
 42
0.4142135623731
 10
5606.999597652539
 20
729.9999520585349
 42
0.4142135623731
  0
LWPOLYLINE
  5
163
330
1F
100
AcDbEntity
  8
0-B_寸法
  6
Continuous
 62
     7
370
     9
100
AcDbPolyline
 90
        4
 70
     1
 43
6.0
 10
2830.999597652539
 20
1252.999952058535
 42
0.4142135623731
 10
2827.999597652539
 20
1255.999952058535
 42
0.4142135623731
 10
2824.99959765254
 20
1252.999952058535
 42
0.4142135623731
 10
2827.999597652539
 20
1249.999952058535
 42
0.4142135623731
  0
LWPOLYLINE
  5
164
330
1F
100
AcDbEntity
  8
0-B_寸法
  6
Continuous
 62
     7
370
     9
100
AcDbPolyline
 90
        4
 70
     1
 43
6.0
 10
5579.999597652539
 20
932.9999520585346
 42
0.4142135623731
 10
5576.999597652539
 20
935.9999520585346
 42
0.4142135623731
 10
5573.999597652539
 20
932.9999520585346
 42
0.4142135623731
 10
5576.999597652539
 20
929.9999520585346
 42
0.4142135623731
  0
LWPOLYLINE
  5
165
330
1F
100
AcDbEntity
  8
0-B_寸法
  6
Continuous
 62
     7
370
     9
100
AcDbPolyline
 90
        4
 70
     1
 43
6.0
 10
4731.999597652539
 20
932.9999520585346
 42
0.4142135623731
 10
4728.999597652539
 20
935.9999520585346
 42
0.4142135623731
 10
4725.99959765254
 20
932.9999520585346
 42
0.4142135623731
 10
4728.999597652539
 20
929.9999520585346
 42
0.4142135623731
  0
LWPOLYLINE
  5
166
330
1F
100
AcDbEntity
  8
0-B_寸法
  6
Continuous
 62
     7
370
     9
100
AcDbPolyline
 90
        4
 70
     1
 43
6.0
 10
3160.999597652539
 20
932.9999520585346
 42
0.4142135623731
 10
3157.999597652539
 20
935.9999520585346
 42
0.4142135623731
 10
3154.99959765254
 20
932.9999520585346
 42
0.4142135623731
 10
3157.999597652539
 20
929.9999520585346
 42
0.4142135623731
  0
LINE
  5
167
330
1F
100
AcDbEntity
  8
扉
  6
Continuous
 62
    92
370
    13
100
AcDbLine
 10
3157.999597652539
 20
1252.999952058534
 30
0.0
 11
5576.999597652539
 21
1252.999952058534
 31
0.0
  0
LINE
  5
168
330
1F
100
AcDbEntity
  8
0-4_枠
  6
Continuous
 62
    92
370
    13
100
AcDbLine
 10
3127.999597652539
 20
1232.999952058535
 30
0.0
 11
3127.999597652539
 21
3277.999952058535
 31
0.0
  0
LINE
  5
169
330
1F
100
AcDbEntity
  8
0-4_枠
  6
Continuous
 62
    92
370
    13
100
AcDbLine
 10
3157.999597652539
 20
1232.999952058535
 30
0.0
 11
3157.999597652539
 21
3241.999952058534
 31
0.0
  0
LINE
  5
16A
330
1F
100
AcDbEntity
  8
0-4_枠
  6
Continuous
 62
    92
370
    13
100
AcDbLine
 10
5606.999597652539
 20
1232.999952058535
 30
0.0
 11
5606.999597652539
 21
3277.999952058535
 31
0.0
  0
LINE
  5
16B
330
1F
100
AcDbEntity
  8
0-4_枠
  6
Continuous
 62
    92
370
    13
100
AcDbLine
 10
5576.999597652539
 20
1232.999952058535
 30
0.0
 11
5576.999597652539
 21
3241.999952058534
 31
0.0
  0
LINE
  5
16C
330
1F
100
AcDbEntity
  8
0-4_枠
  6
Continuous
 62
    92
370
    13
100
AcDbLine
 10
3127.999597652539
 20
3277.999952058535
 30
0.0
 11
5606.999597652539
 21
3277.999952058535
 31
0.0
  0
LINE
  5
16D
330
1F
100
AcDbEntity
  8
0-4_枠
  6
Continuous
 62
    92
370
    13
100
AcDbLine
 10
3157.999597652539
 20
3241.999952058534
 30
0.0
 11
5576.999597652539
 21
3241.999952058534
 31
0.0
  0
LINE
  5
16E
330
1F
100
AcDbEntity
  8
0-B_寸法
  6
Continuous
 62
   120
370
     5
100
AcDbLine
 10
2827.999597652539
 20
3234.999952058535
 30
0.0
 11
2827.999597652539
 21
1252.999952058535
 31
0.0
  0
LINE
  5
16F
330
1F
100
AcDbEntity
  8
0-B_寸法
  6
Continuous
 62
   120
370
     5
100
AcDbLine
 10
2827.999597652539
 20
3234.999952058535
 30
0.0
 11
3077.999597652539
 21
3234.999952058535
 31
0.0
  0
LWPOLYLINE
  5
170
330
1F
100
AcDbEntity
  8
0-B_寸法
  6
Continuous
 62
     7
370
     9
100
AcDbPolyline
 90
        4
 70
     1
 43
6.0
 10
2830.999597652539
 20
3234.999952058535
 42
0.4142135623731
 10
2827.999597652539
 20
3237.999952058535
 42
0.4142135623731
 10
2824.99959765254
 20
3234.999952058535
 42
0.4142135623731
 10
2827.999597652539
 20
3231.999952058535
 42
0.4142135623731
  0
LINE
  5
171
330
1F
100
AcDbEntity
  8
扉
  6
Continuous
 62
    92
370
    13
100
AcDbLine
 10
3157.999597652539
 20
3234.999952058535
 30
0.0
 11
5576.999597652539
 21
3234.999952058535
 31
0.0
  0
LINE
  5
172
330
1F
100
AcDbEntity
  8
扉
  6
Continuous
 62
    92
370
    13
100
AcDbLine
 10
3943.499597652539
 20
3234.999952058535
 30
0.0
 11
3943.499597652539
 21
1252.999952058535
 31
0.0
  0
LINE
  5
173
330
1F
100
AcDbEntity
  8
扉
  6
JWW_DASHED1
 62
   120
370
     5
100
AcDbLine
 10
4791.499597652539
 20
3234.999952058535
 30
0.0
 11
4791.499597652539
 21
1252.999952058535
 31
0.0
  0
LINE
  5
174
330
1F
100
AcDbEntity
  8
通り芯
  6
JWW_CENTER1
 62
   120
370
     5
100
AcDbLine
 10
5596.249597652539
 20
2210.499952058535
 30
0.0
 11
5514.24959765254
 21
2210.499952058535
 31
0.0
  0
LINE
  5
175
330
1F
100
AcDbEntity
  8
扉
  6
Continuous
 62
    92
370
    13
100
AcDbLine
 10
4731.999597652538
 20
3234.999952058535
 30
0.0
 11
4731.999597652538
 21
1252.999952058535
 31
0.0
  0
LINE
  5
176
330
1F
100
AcDbEntity
  8
0-6__
  6
Continuous
 62
    92
370
    13
100
AcDbLine
 10
5579.99959765254
 20
2277.999952058535
 30
0.0
 11
5536.49959765254
 21
2277.999952058535
 31
0.0
  0
LINE
  5
177
330
1F
100
AcDbEntity
  8
0-6__
  6
Continuous
 62
    92
370
    13
100
AcDbLine
 10
5579.99959765254
 20
2142.999952058535
 30
0.0
 11
5536.49959765254
 21
2142.999952058535
 31
0.0
  0
LINE
  5
178
330
1F
100
AcDbEntity
  8
0-6__
  6
Continuous
 62
    92
370
    13
100
AcDbLine
 10
5576.999597652539
 20
2142.999952058535
 30
0.0
 11
5576.999597652539
 21
2277.999952058535
 31
0.0
  0
ARC
  5
179
330
1F
100
AcDbEntity
  8
0-6__
  6
Continuous
 62
    92
370
    13
100
AcDbCircle
 10
5556.499597652539
 20
2247.999952058535
 30
0.0
 40
15.0
100
AcDbArc
 50
89.99999999999999
 51
180.0
  0
LINE
  5
17A
330
1F
100
AcDbEntity
  8
0-6__
  6
Continuous
 62
    92
370
    13
100
AcDbLine
 10
5541.499597652539
 20
2172.999952058535
 30
0.0
 11
5541.499597652539
 21
2247.999952058535
 31
0.0
  0
ARC
  5
17B
330
1F
100
AcDbEntity
  8
0-6__
  6
Continuous
 62
    92
370
    13
100
AcDbCircle
 10
5556.499597652539
 20
2172.999952058535
 30
0.0
 40
15.0
100
AcDbArc
 50
180.0
 51
270.0
  0
LINE
  5
17C
330
1F
100
AcDbEntity
  8
0-6__
  6
Continuous
 62
    92
370
    13
100
AcDbLine
 10
5556.499597652539
 20
2157.999952058535
 30
0.0
 11
5576.999597652539
 21
2157.999952058535
 31
0.0
  0
LINE
  5
17D
330
1F
100
AcDbEntity
  8
0-6__
  6
Continuous
 62
    92
370
    13
100
AcDbLine
 10
5556.499597652539
 20
2262.999952058535
 30
0.0
 11
5576.999597652539
 21
2262.999952058535
 31
0.0
  0
LINE
  5
17E
330
1F
100
AcDbEntity
  8
0-6__
  6
Continuous
 62
    92
370
    13
100
AcDbLine
 10
5579.99959765254
 20
2277.999952058535
 30
0.0
 11
5579.99959765254
 21
2142.999952058535
 31
0.0
  0
LINE
  5
17F
330
1F
100
AcDbEntity
  8
0-6__
  6
Continuous
 62
    92
370
    13
100
AcDbLine
 10
5536.49959765254
 20
2277.999952058535
 30
0.0
 11
5536.49959765254
 21
2142.999952058535
 31
0.0
  0
LINE
  5
180
330
1F
100
AcDbEntity
  8
通り芯
  6
JWW_CENTER1
 62
   120
370
     5
100
AcDbLine
 10
5558.249597652539
 20
2290.499952058534
 30
0.0
 11
5558.249597652539
 21
2130.499952058535
 31
0.0
  0
LINE
  5
181
330
1F
100
AcDbEntity
  8
扉
  6
JWW_DASHED1
 62
   120
370
     5
100
AcDbLine
 10
4002.99959765254
 20
3234.999952058535
 30
0.0
 11
4002.99959765254
 21
1252.999952058535
 31
0.0
  0
LINE
  5
182
330
1F
100
AcDbEntity
  8
0-6__
  6
Continuous
 62
    92
370
    13
100
AcDbLine
 10
3154.99959765254
 20
2277.999952058535
 30
0.0
 11
3198.499597652539
 21
2277.999952058535
 31
0.0
  0
LINE
  5
183
330
1F
100
AcDbEntity
  8
0-6__
  6
Continuous
 62
    92
370
    13
100
AcDbLine
 10
3154.99959765254
 20
2142.999952058535
 30
0.0
 11
3198.499597652539
 21
2142.999952058535
 31
0.0
  0
LINE
  5
184
330
1F
100
AcDbEntity
  8
0-6__
  6
Continuous
 62
    92
370
    13
100
AcDbLine
 10
3157.999597652539
 20
2142.999952058535
 30
0.0
 11
3157.999597652539
 21
2277.999952058535
 31
0.0
  0
ARC
  5
185
330
1F
100
AcDbEntity
  8
0-6__
  6
Continuous
 62
    92
370
    13
100
AcDbCircle
 10
3178.49959765254
 20
2247.999952058535
 30
0.0
 40
15.0
100
AcDbArc
 50
0.0000000000000127
 51
90.00000000000001
  0
LINE
  5
186
330
1F
100
AcDbEntity
  8
0-6__
  6
Continuous
 62
    92
370
    13
100
AcDbLine
 10
3193.49959765254
 20
2172.999952058535
 30
0.0
 11
3193.49959765254
 21
2247.999952058535
 31
0.0
  0
ARC
  5
187
330
1F
100
AcDbEntity
  8
0-6__
  6
Continuous
 62
    92
370
    13
100
AcDbCircle
 10
3178.49959765254
 20
2172.999952058535
 30
0.0
 40
15.0
100
AcDbArc
 50
270.0
 51
0.0
  0
LINE
  5
188
330
1F
100
AcDbEntity
  8
0-6__
  6
Continuous
 62
    92
370
    13
100
AcDbLine
 10
3178.49959765254
 20
2157.999952058535
 30
0.0
 11
3157.999597652539
 21
2157.999952058535
 31
0.0
  0
LINE
  5
189
330
1F
100
AcDbEntity
  8
0-6__
  6
Continuous
 62
    92
370
    13
100
AcDbLine
 10
3178.49959765254
 20
2262.999952058535
 30
0.0
 11
3157.999597652539
 21
2262.999952058535
 31
0.0
  0
LINE
  5
18A
330
1F
100
AcDbEntity
  8
0-6__
  6
Continuous
 62
    92
370
    13
100
AcDbLine
 10
3154.99959765254
 20
2277.999952058535
 30
0.0
 11
3154.99959765254
 21
2142.999952058535
 31
0.0
  0
LINE
  5
18B
330
1F
100
AcDbEntity
  8
0-6__
  6
Continuous
 62
    92
370
    13
100
AcDbLine
 10
3198.499597652539
 20
2277.999952058535
 30
0.0
 11
3198.499597652539
 21
2142.999952058535
 31
0.0
  0
LINE
  5
18C
330
1F
100
AcDbEntity
  8
通り芯
  6
JWW_CENTER1
 62
   120
370
     5
100
AcDbLine
 10
3176.749597652539
 20
2290.499952058534
 30
0.0
 11
3176.749597652539
 21
2130.499952058535
 31
0.0
  0
LINE
  5
18D
330
1F
100
AcDbEntity
  8
通り芯
  6
JWW_CENTER1
 62
   120
370
     5
100
AcDbLine
 10
3217.749597652539
 20
2210.499952058535
 30
0.0
 11
3135.749597652539
 21
2210.499952058535
 31
0.0
  0
LINE
  5
18E
330
1F
100
AcDbEntity
  8
扉
  6
JWW_DASHED1
 62
   120
370
     5
100
AcDbLine
 10
5579.99959765254
 20
1252.999952058533
 30
0.0
 11
5579.99959765254
 21
3234.999952058533
 31
0.0
  0
LINE
  5
18F
330
1F
100
AcDbEntity
  8
扉
  6
JWW_DASHED1
 62
   120
370
     5
100
AcDbLine
 10
5579.99959765254
 20
1252.999952058533
 30
0.0
 11
5576.999597652539
 21
1252.999952058533
 31
0.0
  0
LINE
  5
190
330
1F
100
AcDbEntity
  8
扉
  6
JWW_DASHED1
 62
   120
370
     5
100
AcDbLine
 10
5579.99959765254
 20
3234.999952058533
 30
0.0
 11
5576.999597652539
 21
3234.999952058533
 31
0.0
  0
LINE
  5
191
330
1F
100
AcDbEntity
  8
扉
  6
JWW_DASHED1
 62
   120
370
     5
100
AcDbLine
 10
4728.999597652539
 20
1252.999952058533
 30
0.0
 11
4728.999597652539
 21
3234.999952058533
 31
0.0
  0
LINE
  5
192
330
1F
100
AcDbEntity
  8
扉
  6
JWW_DASHED1
 62
   120
370
     5
100
AcDbLine
 10
3154.999597652539
 20
1252.999952058535
 30
0.0
 11
3154.999597652539
 21
3234.999952058535
 31
0.0
  0
LINE
  5
193
330
1F
100
AcDbEntity
  8
扉
  6
JWW_DASHED1
 62
   120
370
     5
100
AcDbLine
 10
3154.999597652539
 20
1252.999952058535
 30
0.0
 11
3157.999597652539
 21
1252.999952058534
 31
0.0
  0
LINE
  5
194
330
1F
100
AcDbEntity
  8
扉
  6
JWW_DASHED1
 62
   120
370
     5
100
AcDbLine
 10
3154.999597652539
 20
3234.999952058535
 30
0.0
 11
3157.999597652539
 21
3234.999952058535
 31
0.0
  0
LINE
  5
195
330
1F
100
AcDbEntity
  8
0-0_補助線
  6
JWW_HOJO
 62
   120
370
     5
100
AcDbLine
 10
-4554.9996492025
 20
3980.000016495989
 30
0.0
 11
-4554.9996492025
 21
-3774.999981957514
 31
0.0
  0
LINE
  5
196
330
1F
100
AcDbEntity
  8
0-0_補助線
  6
JWW_HOJO
 62
     7
370
     9
100
AcDbLine
 10
-4504.999649202501
 20
3980.000016495989
 30
0.0
 11
-4504.999649202501
 21
-3774.999981957514
 31
0.0
  0
LINE
  5
197
330
1F
100
AcDbEntity
  8
0-0_補助線
  6
JWW_HOJO
 62
   120
370
     5
100
AcDbLine
 10
-2266.124900250818
 20
3980.000016495989
 30
0.0
 11
-2266.124900250818
 21
-3774.999981957514
 31
0.0
  0
LINE
  5
198
330
1F
100
AcDbEntity
  8
0-0_補助線
  6
JWW_HOJO
 62
     7
370
     9
100
AcDbLine
 10
-2216.124900250821
 20
3980.000016495989
 30
0.0
 11
-2216.124900250821
 21
-3774.999981957514
 31
0.0
  0
LINE
  5
199
330
1F
100
AcDbEntity
  8
0-0_補助線
  6
JWW_HOJO
 62
   120
370
     5
100
AcDbLine
 10
407.4998487008585
 20
3980.000016495989
 30
0.0
 11
407.4998487008585
 21
-3774.999981957514
 31
0.0
  0
LINE
  5
19A
330
1F
100
AcDbEntity
  8
0-0_補助線
  6
JWW_HOJO
 62
     7
370
     9
100
AcDbLine
 10
457.4998487008591
 20
3980.000016495989
 30
0.0
 11
457.4998487008591
 21
-3774.999981957514
 31
0.0
  0
LINE
  5
19B
330
1F
100
AcDbEntity
  8
0-0_補助線
  6
JWW_HOJO
 62
   120
370
     5
100
AcDbLine
 10
3077.999597652539
 20
3980.000016495989
 30
0.0
 11
3077.999597652539
 21
-3774.999981957514
 31
0.0
  0
LINE
  5
19C
330
1F
100
AcDbEntity
  8
0-0_補助線
  6
JWW_HOJO
 62
     7
370
     9
100
AcDbLine
 10
3127.99959765254
 20
3980.000016495989
 30
0.0
 11
3127.99959765254
 21
-3774.999981957514
 31
0.0
  0
LINE
  5
19D
330
1F
100
AcDbEntity
  8
F-0_補助線
  6
JWW_HOJO
 62
     7
370
     9
100
AcDbLine
 10
1000.000082479942
 20
-3779.99980514114
 30
0.0
 11
1000.000082479942
 21
-4179.999810296136
 31
0.0
  0
LINE
  5
19E
330
1F
100
AcDbEntity
  8
F-0_補助線
  6
JWW_HOJO
 62
     7
370
     9
100
AcDbLine
 10
500.0004123997047
 20
-3779.99980514114
 30
0.0
 11
500.0004123997047
 21
-4179.999810296136
 31
0.0
  0
LINE
  5
19F
330
1F
100
AcDbEntity
  8
F-1_枠
  6
Continuous
 62
   200
370
    20
100
AcDbLine
 10
5849.999257680533
 20
-4189.999804625641
 30
0.0
 11
-5849.999257680533
 21
-4189.999804625641
 31
0.0
  0
LINE
  5
1A0
330
1F
100
AcDbEntity
  8
F-1_枠
  6
Continuous
 62
   200
370
    20
100
AcDbLine
 10
5849.999257680533
 20
-4184.999795862147
 30
0.0
 11
-5849.999257680533
 21
-4184.999795862147
 31
0.0
  0
LINE
  5
1A1
330
1F
100
AcDbEntity
  8
F-1_枠
  6
Continuous
 62
   200
370
    20
100
AcDbLine
 10
5849.999257680533
 20
-4179.999810296136
 30
0.0
 11
-5849.999257680533
 21
-4179.999810296136
 31
0.0
  0
LINE
  5
1A2
330
1F
100
AcDbEntity
  8
F-1_枠
  6
Continuous
 62
   200
370
    20
100
AcDbLine
 10
4339.999719568202
 20
-3779.99980514114
 30
0.0
 11
4339.999719568202
 21
-4179.999810296136
 31
0.0
  0
LINE
  5
1A3
330
1F
100
AcDbEntity
  8
F-1_枠
  6
Continuous
 62
   200
370
    20
100
AcDbLine
 10
2839.999224688557
 20
-3779.99980514114
 30
0.0
 11
2839.999224688557
 21
-4179.999810296136
 31
0.0
  0
LINE
  5
1A4
330
1F
100
AcDbEntity
  8
F-1_枠
  6
Continuous
 62
   200
370
    20
100
AcDbLine
 10
0.0003711597344136
 20
-3779.99980514114
 30
0.0
 11
0.0003711597344136
 21
-4179.999810296136
 31
0.0
  0
LINE
  5
1A5
330
1F
100
AcDbEntity
  8
F-1_枠
  6
Continuous
 62
   200
370
    20
100
AcDbLine
 10
0.0003711597344136
 20
-3979.999738126188
 30
0.0
 11
5839.99947212838
 21
-3980.005166337297
 31
0.0
  0
LINE
  5
1A6
330
1F
100
AcDbEntity
  8
F-0_補助線
  6
JWW_HOJO
 62
     7
370
     9
100
AcDbLine
 10
-5839.999495325861
 20
-3979.999738126533
 30
0.0
 11
0.0003711597344136
 21
-3979.999738126533
 31
0.0
  0
LINE
  5
1A7
330
1F
100
AcDbEntity
  8
F-0_補助線
  6
JWW_HOJO
 62
     7
370
     9
100
AcDbLine
 10
-5839.999495325861
 20
-3889.999738126533
 30
0.0
 11
0.0003711597344136
 21
-3889.999738126533
 31
0.0
  0
LINE
  5
1A8
330
1F
100
AcDbEntity
  8
F-0_補助線
  6
JWW_HOJO
 62
     7
370
     9
100
AcDbLine
 10
-5839.999495325861
 20
-4069.999738126533
 30
0.0
 11
0.0003711597344136
 21
-4069.999738126533
 31
0.0
  0
LINE
  5
1A9
330
1F
100
AcDbEntity
  8
F-0_補助線
  6
JWW_HOJO
 62
     7
370
     9
100
AcDbLine
 10
0.0002363841065289
 20
-4124.999541826125
 30
0.0
 11
5839.99933735275
 21
-4125.004970037234
 31
0.0
  0
LINE
  5
1AA
330
1F
100
AcDbEntity
  8
F-0_補助線
  6
JWW_HOJO
 62
     7
370
     9
100
AcDbLine
 10
0.0003200380581347
 20
-4034.999541826165
 30
0.0
 11
5839.999421006702
 21
-4035.004970037273
 31
0.0
  0
LINE
  5
1AB
330
1F
100
AcDbEntity
  8
F-0_補助線
  6
JWW_HOJO
 62
     7
370
     9
100
AcDbLine
 10
0.0004222817781852
 20
-3924.999539266212
 30
0.0
 11
5839.999523250422
 21
-3925.004967477321
 31
0.0
  0
LINE
  5
1AC
330
1F
100
AcDbEntity
  8
F-0_補助線
  6
JWW_HOJO
 62
     7
370
     9
100
AcDbLine
 10
0.000505935729791
 20
-3834.999539266251
 30
0.0
 11
5839.999606904374
 21
-3835.00496747736
 31
0.0
  0
LINE
  5
1AD
330
1F
100
AcDbEntity
  8
F-0_補助線
  6
JWW_HOJO
 62
     7
370
     9
100
AcDbLine
 10
2929.999224688557
 20
-3779.99980514114
 30
0.0
 11
2929.999224688557
 21
-4179.999810296136
 31
0.0
  0
LINE
  5
1AE
330
1F
100
AcDbEntity
  8
F-0_補助線
  6
JWW_HOJO
 62
     7
370
     9
100
AcDbLine
 10
90.00037115973441
 20
-3779.99980514114
 30
0.0
 11
90.00037115973441
 21
-4179.999810296136
 31
0.0
  0
LINE
  5
1AF
330
1F
100
AcDbEntity
  8
F-0_補助線
  6
JWW_HOJO
 62
     7
370
     9
100
AcDbLine
 10
4429.999719568202
 20
-3779.99980514114
 30
0.0
 11
4429.999719568202
 21
-4179.999810296136
 31
0.0
  0
LINE
  5
1B0
330
1F
100
AcDbEntity
  8
F-0_補助線
  6
JWW_HOJO
 62
     7
370
     9
100
AcDbLine
 10
-5097.546881873193
 20
-3779.999805141141
 30
0.0
 11
-5097.546881873193
 21
-4189.999967008024
 31
0.0
  0
LINE
  5
1B1
330
1F
100
AcDbEntity
  8
F-0_補助線
  6
JWW_HOJO
 62
     7
370
     9
100
AcDbLine
 10
-59.99962884026559
 20
-3779.99980514114
 30
0.0
 11
-59.99962884026559
 21
-4179.999810296136
 31
0.0
  0
LINE
  5
1B2
330
1F
100
AcDbEntity
  8
F-1_枠
  6
Continuous
 62
   200
370
    20
100
AcDbLine
 10
5849.999257680533
 20
-3779.99980514114
 30
0.0
 11
-5849.999489655364
 21
-3779.99980514114
 31
0.0
  0
LINE
  5
1B3
330
1F
100
AcDbEntity
  8
F-1_枠
  6
Continuous
 62
   200
370
    20
100
AcDbLine
 10
5849.999257680533
 20
-3774.99981957513
 30
0.0
 11
-5849.999489655364
 21
-3774.99981957513
 31
0.0
  0
LWPOLYLINE
  5
1B4
330
1F
100
AcDbEntity
  8
0-A_文字
  6
Continuous
 62
     7
370
     9
100
AcDbPolyline
 90
        4
 70
     1
 43
6.0
 10
-4453.249649202501
 20
2210.500346415752
 42
0.4142135623731
 10
-4456.249649202501
 20
2213.500346415752
 42
0.4142135623731
 10
-4459.249649202501
 20
2210.500346415752
 42
0.4142135623731
 10
-4456.249649202501
 20
2207.500346415752
 42
0.4142135623731
  0
LWPOLYLINE
  5
1B5
330
1F
100
AcDbEntity
  8
0-A_文字
  6
Continuous
 62
     7
370
     9
100
AcDbPolyline
 90
        4
 70
     1
 43
6.0
 10
-3325.7496492025
 20
2210.500346415752
 42
0.4142135623731
 10
-3328.7496492025
 20
2213.500346415752
 42
0.4142135623731
 10
-3331.7496492025
 20
2210.500346415752
 42
0.4142135623731
 10
-3328.7496492025
 20
2207.500346415752
 42
0.4142135623731
  0
LWPOLYLINE
  5
1B6
330
1F
100
AcDbEntity
  8
0-A_文字
  6
Continuous
 62
     7
370
     9
100
AcDbPolyline
 90
        4
 70
     1
 43
6.0
 10
-2164.374900250822
 20
2210.500346415752
 42
0.4142135623731
 10
-2167.374900250821
 20
2213.500346415752
 42
0.4142135623731
 10
-2170.374900250821
 20
2210.500346415752
 42
0.4142135623731
 10
-2167.374900250821
 20
2207.500346415752
 42
0.4142135623731
  0
LWPOLYLINE
  5
1B7
330
1F
100
AcDbEntity
  8
0-A_文字
  6
Continuous
 62
     7
370
     9
100
AcDbPolyline
 90
        4
 70
     1
 43
6.0
 10
-616.8749002508202
 20
2210.500346415752
 42
0.4142135623731
 10
-619.8749002508202
 20
2213.500346415752
 42
0.4142135623731
 10
-622.8749002508202
 20
2210.500346415752
 42
0.4142135623731
 10
-619.8749002508202
 20
2207.500346415752
 42
0.4142135623731
  0
LWPOLYLINE
  5
1B8
330
1F
100
AcDbEntity
  8
0-A_文字
  6
Continuous
 62
     7
370
     9
100
AcDbPolyline
 90
        4
 70
     1
 43
6.0
 10
509.2498487008592
 20
2210.500346415752
 42
0.4142135623731
 10
506.2498487008591
 20
2213.500346415752
 42
0.4142135623731
 10
503.249848700859
 20
2210.500346415752
 42
0.4142135623731
 10
506.2498487008591
 20
2207.500346415752
 42
0.4142135623731
  0
LWPOLYLINE
  5
1B9
330
1F
100
AcDbEntity
  8
0-A_文字
  6
Continuous
 62
     7
370
     9
100
AcDbPolyline
 90
        4
 70
     1
 43
6.0
 10
2091.749848700859
 20
2210.500346415752
 42
0.4142135623731
 10
2088.749848700859
 20
2213.500346415752
 42
0.4142135623731
 10
2085.749848700859
 20
2210.500346415752
 42
0.4142135623731
 10
2088.749848700859
 20
2207.500346415752
 42
0.4142135623731
  0
LWPOLYLINE
  5
1BA
330
1F
100
AcDbEntity
  8
0-A_文字
  6
Continuous
 62
     7
370
     9
100
AcDbPolyline
 90
        4
 70
     1
 43
6.0
 10
3179.749597652539
 20
2210.499952058535
 42
0.4142135623731
 10
3176.749597652539
 20
2213.499952058535
 42
0.4142135623731
 10
3173.74959765254
 20
2210.499952058535
 42
0.4142135623731
 10
3176.749597652539
 20
2207.499952058535
 42
0.4142135623731
  0
LWPOLYLINE
  5
1BB
330
1F
100
AcDbEntity
  8
0-A_文字
  6
Continuous
 62
     7
370
     9
100
AcDbPolyline
 90
        4
 70
     1
 43
6.0
 10
5561.249597652539
 20
2210.499952058535
 42
0.4142135623731
 10
5558.249597652539
 20
2213.499952058535
 42
0.4142135623731
 10
5555.249597652539
 20
2210.499952058535
 42
0.4142135623731
 10
5558.249597652539
 20
2207.499952058535
 42
0.4142135623731
  0
LWPOLYLINE
  5
1BC
330
1F
100
AcDbEntity
  8
0-A_文字
  6
Continuous
 62
     7
370
     9
100
AcDbPolyline
 90
        4
 70
     1
 43
6.0
 10
5561.249597652538
 20
-1770.000016599089
 42
0.4142135623731
 10
5558.249597652538
 20
-1767.000016599089
 42
0.4142135623731
 10
5555.249597652538
 20
-1770.000016599089
 42
0.4142135623731
 10
5558.249597652538
 20
-1773.000016599089
 42
0.4142135623731
  0
LWPOLYLINE
  5
1BD
330
1F
100
AcDbEntity
  8
0-A_文字
  6
Continuous
 62
     7
370
     9
100
AcDbPolyline
 90
        4
 70
     1
 43
6.0
 10
3179.74959765254
 20
-1770.000016599089
 42
0.4142135623731
 10
3176.74959765254
 20
-1767.000016599089
 42
0.4142135623731
 10
3173.74959765254
 20
-1770.000016599089
 42
0.4142135623731
 10
3176.74959765254
 20
-1773.000016599089
 42
0.4142135623731
  0
LWPOLYLINE
  5
1BE
330
1F
100
AcDbEntity
  8
0-A_文字
  6
Continuous
 62
     7
370
     9
100
AcDbPolyline
 90
        4
 70
     1
 43
6.0
 10
2091.749848700859
 20
-1770.000016599089
 42
0.4142135623731
 10
2088.749848700859
 20
-1767.000016599089
 42
0.4142135623731
 10
2085.749848700859
 20
-1770.000016599089
 42
0.4142135623731
 10
2088.749848700859
 20
-1773.000016599089
 42
0.4142135623731
  0
LWPOLYLINE
  5
1BF
330
1F
100
AcDbEntity
  8
0-A_文字
  6
Continuous
 62
     7
370
     9
100
AcDbPolyline
 90
        4
 70
     1
 43
6.0
 10
509.2498487008592
 20
-1770.000016599089
 42
0.4142135623731
 10
506.2498487008591
 20
-1767.000016599089
 42
0.4142135623731
 10
503.249848700859
 20
-1770.000016599089
 42
0.4142135623731
 10
506.2498487008591
 20
-1773.000016599089
 42
0.4142135623731
  0
LWPOLYLINE
  5
1C0
330
1F
100
AcDbEntity
  8
0-A_文字
  6
Continuous
 62
     7
370
     9
100
AcDbPolyline
 90
        4
 70
     1
 43
6.0
 10
-616.874900250821
 20
-1770.000016599089
 42
0.4142135623731
 10
-619.8749002508212
 20
-1767.000016599089
 42
0.4142135623731
 10
-622.8749002508212
 20
-1770.000016599089
 42
0.4142135623731
 10
-619.8749002508212
 20
-1773.000016599089
 42
0.4142135623731
  0
LWPOLYLINE
  5
1C1
330
1F
100
AcDbEntity
  8
0-A_文字
  6
Continuous
 62
     7
370
     9
100
AcDbPolyline
 90
        4
 70
     1
 43
6.0
 10
-2164.374900250822
 20
-1770.000016599089
 42
0.4142135623731
 10
-2167.374900250821
 20
-1767.000016599089
 42
0.4142135623731
 10
-2170.374900250821
 20
-1770.000016599089
 42
0.4142135623731
 10
-2167.374900250821
 20
-1773.000016599089
 42
0.4142135623731
  0
LWPOLYLINE
  5
1C2
330
1F
100
AcDbEntity
  8
0-A_文字
  6
Continuous
 62
     7
370
     9
100
AcDbPolyline
 90
        4
 70
     1
 43
6.0
 10
-3325.7496492025
 20
-1770.000016599089
 42
0.4142135623731
 10
-3328.7496492025
 20
-1767.000016599089
 42
0.4142135623731
 10
-3331.7496492025
 20
-1770.000016599089
 42
0.4142135623731
 10
-3328.7496492025
 20
-1773.000016599089
 42
0.4142135623731
  0
LWPOLYLINE
  5
1C3
330
1F
100
AcDbEntity
  8
0-A_文字
  6
Continuous
 62
     7
370
     9
100
AcDbPolyline
 90
        4
 70
     1
 43
6.0
 10
-4453.249649202501
 20
-1770.000016599089
 42
0.4142135623731
 10
-4456.249649202501
 20
-1767.000016599089
 42
0.4142135623731
 10
-4459.249649202501
 20
-1770.000016599089
 42
0.4142135623731
 10
-4456.249649202501
 20
-1773.000016599089
 42
0.4142135623731
  0
LINE
  5
1C4
330
1F
100
AcDbEntity
  8
F-1_枠
  6
Continuous
 62
   200
370
    20
100
AcDbLine
 10
-5839.999495325861
 20
205.5003810573265
 30
0.0
 11
5839.99947212838
 21
205.5003810573265
 31
0.0
  0
LINE
  5
1C5
330
1F
100
AcDbEntity
  8
F-1_枠
  6
Continuous
 62
   200
370
    20
100
AcDbLine
 10
-5839.999495325861
 20
202.5002969277867
 30
0.0
 11
5839.99947212838
 21
202.5002969277867
 31
0.0
  0
LWPOLYLINE
  5
1C6
330
1F
100
AcDbEntity
  8
0-B_寸法
  6
Continuous
 62
     7
370
     9
100
AcDbPolyline
 90
        4
 70
     1
 43
6.0
 10
-3306.9996492025
 20
-3047.500016599089
 42
0.4142135623731
 10
-3309.9996492025
 20
-3044.500016599089
 42
0.4142135623731
 10
-3312.9996492025
 20
-3047.500016599089
 42
0.4142135623731
 10
-3309.9996492025
 20
-3050.500016599089
 42
0.4142135623731
  0
LINE
  5
1C7
330
1F
100
AcDbEntity
  8
0-B_寸法
  6
Continuous
 62
   120
370
     5
100
AcDbLine
 10
-3309.9996492025
 20
-3047.500016599089
 30
0.0
 11
-3309.9996492025
 21
-2797.500016599089
 31
0.0
  0
LINE
  5
1C8
330
1F
100
AcDbEntity
  8
0-B_寸法
  6
Continuous
 62
   120
370
     5
100
AcDbLine
 10
-4474.999649202501
 20
-3047.500016599089
 30
0.0
 11
-3309.9996492025
 21
-3047.500016599089
 31
0.0
  0
LINE
  5
1C9
330
1F
100
AcDbEntity
  8
通り芯
  6
JWW_CENTER1
 62
   120
370
     5
100
AcDbLine
 10
-4412.249649202504
 20
-1770.000016599089
 30
0.0
 11
-4494.249649202501
 21
-1770.000016599089
 31
0.0
  0
LINE
  5
1CA
330
1F
100
AcDbEntity
  8
0-4_枠
  6
Continuous
 62
    92
370
    13
100
AcDbLine
 10
-3279.9996492025
 20
-2747.500016599089
 30
0.0
 11
-4504.999649202501
 21
-2747.500016599089
 31
0.0
  0
LINE
  5
1CB
330
1F
100
AcDbEntity
  8
0-4_枠
  6
Continuous
 62
    92
370
    13
100
AcDbLine
 10
-3309.9996492025
 20
-2732.500016599089
 30
0.0
 11
-4474.999649202501
 21
-2732.500016599089
 31
0.0
  0
LINE
  5
1CC
330
1F
100
AcDbEntity
  8
0-B_寸法
  6
Continuous
 62
   120
370
     5
100
AcDbLine
 10
-4504.999649202501
 20
-3247.500016599088
 30
0.0
 11
-3279.9996492025
 21
-3247.500016599088
 31
0.0
  0
LINE
  5
1CD
330
1F
100
AcDbEntity
  8
0-B_寸法
  6
Continuous
 62
   120
370
     5
100
AcDbLine
 10
-4504.999649202501
 20
-3247.500016599088
 30
0.0
 11
-4504.999649202501
 21
-2797.500016599089
 31
0.0
  0
LINE
  5
1CE
330
1F
100
AcDbEntity
  8
0-B_寸法
  6
Continuous
 62
   120
370
     5
100
AcDbLine
 10
-3279.9996492025
 20
-3247.500016599088
 30
0.0
 11
-3279.9996492025
 21
-2797.500016599089
 31
0.0
  0
LINE
  5
1CF
330
1F
100
AcDbEntity
  8
0-B_寸法
  6
Continuous
 62
   120
370
     5
100
AcDbLine
 10
-4804.999649202501
 20
-2727.500016599089
 30
0.0
 11
-4554.999649202504
 21
-2727.500016599089
 31
0.0
  0
LINE
  5
1D0
330
1F
100
AcDbEntity
  8
0-B_寸法
  6
Continuous
 62
   120
370
     5
100
AcDbLine
 10
-4474.999649202501
 20
-3047.500016599089
 30
0.0
 11
-4474.999649202501
 21
-2797.500016599089
 31
0.0
  0
LWPOLYLINE
  5
1D1
330
1F
100
AcDbEntity
  8
0-B_寸法
  6
Continuous
 62
     7
370
     9
100
AcDbPolyline
 90
        4
 70
     1
 43
6.0
 10
-4501.999649202501
 20
-3247.500016599088
 42
0.4142135623731
 10
-4504.999649202501
 20
-3244.500016599088
 42
0.4142135623731
 10
-4507.999649202501
 20
-3247.500016599088
 42
0.4142135623731
 10
-4504.999649202501
 20
-3250.500016599088
 42
0.4142135623731
  0
LWPOLYLINE
  5
1D2
330
1F
100
AcDbEntity
  8
0-B_寸法
  6
Continuous
 62
     7
370
     9
100
AcDbPolyline
 90
        4
 70
     1
 43
6.0
 10
-3276.9996492025
 20
-3247.500016599088
 42
0.4142135623731
 10
-3279.9996492025
 20
-3244.500016599088
 42
0.4142135623731
 10
-3282.9996492025
 20
-3247.500016599088
 42
0.4142135623731
 10
-3279.9996492025
 20
-3250.500016599088
 42
0.4142135623731
  0
LWPOLYLINE
  5
1D3
330
1F
100
AcDbEntity
  8
0-B_寸法
  6
Continuous
 62
     7
370
     9
100
AcDbPolyline
 90
        4
 70
     1
 43
6.0
 10
-4801.999649202501
 20
-2727.500016599089
 42
0.4142135623731
 10
-4804.999649202501
 20
-2724.50001659909
 42
0.4142135623731
 10
-4807.999649202501
 20
-2727.500016599089
 42
0.4142135623731
 10
-4804.999649202501
 20
-2730.500016599089
 42
0.4142135623731
  0
LWPOLYLINE
  5
1D4
330
1F
100
AcDbEntity
  8
0-B_寸法
  6
Continuous
 62
     7
370
     9
100
AcDbPolyline
 90
        4
 70
     1
 43
6.0
 10
-4471.999649202501
 20
-3047.500016599089
 42
0.4142135623731
 10
-4474.999649202501
 20
-3044.500016599089
 42
0.4142135623731
 10
-4477.999649202501
 20
-3047.500016599089
 42
0.4142135623731
 10
-4474.999649202501
 20
-3050.500016599089
 42
0.4142135623731
  0
LINE
  5
1D5
330
1F
100
AcDbEntity
  8
扉
  6
Continuous
 62
    92
370
    13
100
AcDbLine
 10
-4474.999649202501
 20
-2727.500016599089
 30
0.0
 11
-3309.9996492025
 21
-2727.500016599089
 31
0.0
  0
LINE
  5
1D6
330
1F
100
AcDbEntity
  8
0-6__
  6
Continuous
 62
    92
370
    13
100
AcDbLine
 10
-4477.999649202502
 20
-1702.500016599089
 30
0.0
 11
-4434.4996492025
 21
-1702.500016599089
 31
0.0
  0
LINE
  5
1D7
330
1F
100
AcDbEntity
  8
0-6__
  6
Continuous
 62
    92
370
    13
100
AcDbLine
 10
-4477.999649202502
 20
-1837.500016599089
 30
0.0
 11
-4434.4996492025
 21
-1837.500016599089
 31
0.0
  0
LINE
  5
1D8
330
1F
100
AcDbEntity
  8
0-6__
  6
Continuous
 62
    92
370
    13
100
AcDbLine
 10
-4474.999649202501
 20
-1837.500016599089
 30
0.0
 11
-4474.999649202501
 21
-1702.500016599089
 31
0.0
  0
ARC
  5
1D9
330
1F
100
AcDbEntity
  8
0-6__
  6
Continuous
 62
    92
370
    13
100
AcDbCircle
 10
-4454.499649202501
 20
-1732.500016599089
 30
0.0
 40
15.0
100
AcDbArc
 50
0.0000000000000127
 51
90.00000000000001
  0
LINE
  5
1DA
330
1F
100
AcDbEntity
  8
0-6__
  6
Continuous
 62
    92
370
    13
100
AcDbLine
 10
-4439.499649202501
 20
-1807.500016599089
 30
0.0
 11
-4439.499649202501
 21
-1732.500016599089
 31
0.0
  0
ARC
  5
1DB
330
1F
100
AcDbEntity
  8
0-6__
  6
Continuous
 62
    92
370
    13
100
AcDbCircle
 10
-4454.499649202501
 20
-1807.500016599089
 30
0.0
 40
15.0
100
AcDbArc
 50
270.0
 51
0.0
  0
LINE
  5
1DC
330
1F
100
AcDbEntity
  8
0-6__
  6
Continuous
 62
    92
370
    13
100
AcDbLine
 10
-4454.499649202501
 20
-1822.500016599089
 30
0.0
 11
-4474.999649202501
 21
-1822.500016599089
 31
0.0
  0
LINE
  5
1DD
330
1F
100
AcDbEntity
  8
0-6__
  6
Continuous
 62
    92
370
    13
100
AcDbLine
 10
-4454.499649202501
 20
-1717.500016599089
 30
0.0
 11
-4474.999649202501
 21
-1717.500016599089
 31
0.0
  0
LINE
  5
1DE
330
1F
100
AcDbEntity
  8
0-6__
  6
Continuous
 62
    92
370
    13
100
AcDbLine
 10
-4477.999649202502
 20
-1702.500016599089
 30
0.0
 11
-4477.999649202502
 21
-1837.500016599089
 31
0.0
  0
LINE
  5
1DF
330
1F
100
AcDbEntity
  8
0-6__
  6
Continuous
 62
    92
370
    13
100
AcDbLine
 10
-4434.4996492025
 20
-1702.500016599089
 30
0.0
 11
-4434.4996492025
 21
-1837.500016599089
 31
0.0
  0
LINE
  5
1E0
330
1F
100
AcDbEntity
  8
通り芯
  6
JWW_CENTER1
 62
   120
370
     5
100
AcDbLine
 10
-4456.249649202501
 20
-1690.000016599088
 30
0.0
 11
-4456.249649202501
 21
-1850.00001659909
 31
0.0
  0
LINE
  5
1E1
330
1F
100
AcDbEntity
  8
0-6__
  6
Continuous
 62
    92
370
    13
100
AcDbLine
 10
-3306.999649202501
 20
-1702.500016599089
 30
0.0
 11
-3350.499649202501
 21
-1702.500016599089
 31
0.0
  0
LINE
  5
1E2
330
1F
100
AcDbEntity
  8
0-6__
  6
Continuous
 62
    92
370
    13
100
AcDbLine
 10
-3306.999649202501
 20
-1837.500016599089
 30
0.0
 11
-3350.499649202501
 21
-1837.500016599089
 31
0.0
  0
LINE
  5
1E3
330
1F
100
AcDbEntity
  8
0-6__
  6
Continuous
 62
    92
370
    13
100
AcDbLine
 10
-3309.9996492025
 20
-1837.500016599089
 30
0.0
 11
-3309.9996492025
 21
-1702.500016599089
 31
0.0
  0
ARC
  5
1E4
330
1F
100
AcDbEntity
  8
0-6__
  6
Continuous
 62
    92
370
    13
100
AcDbCircle
 10
-3330.499649202502
 20
-1732.500016599089
 30
0.0
 40
15.0
100
AcDbArc
 50
89.99999999999999
 51
180.0
  0
LINE
  5
1E5
330
1F
100
AcDbEntity
  8
0-6__
  6
Continuous
 62
    92
370
    13
100
AcDbLine
 10
-3345.499649202502
 20
-1807.500016599089
 30
0.0
 11
-3345.499649202502
 21
-1732.500016599089
 31
0.0
  0
ARC
  5
1E6
330
1F
100
AcDbEntity
  8
0-6__
  6
Continuous
 62
    92
370
    13
100
AcDbCircle
 10
-3330.499649202502
 20
-1807.500016599089
 30
0.0
 40
15.0
100
AcDbArc
 50
180.0
 51
270.0
  0
LINE
  5
1E7
330
1F
100
AcDbEntity
  8
0-6__
  6
Continuous
 62
    92
370
    13
100
AcDbLine
 10
-3330.499649202502
 20
-1822.500016599089
 30
0.0
 11
-3309.9996492025
 21
-1822.500016599089
 31
0.0
  0
LINE
  5
1E8
330
1F
100
AcDbEntity
  8
0-6__
  6
Continuous
 62
    92
370
    13
100
AcDbLine
 10
-3330.499649202502
 20
-1717.500016599089
 30
0.0
 11
-3309.9996492025
 21
-1717.500016599089
 31
0.0
  0
LINE
  5
1E9
330
1F
100
AcDbEntity
  8
0-6__
  6
Continuous
 62
    92
370
    13
100
AcDbLine
 10
-3306.999649202501
 20
-1702.500016599089
 30
0.0
 11
-3306.999649202501
 21
-1837.500016599089
 31
0.0
  0
LINE
  5
1EA
330
1F
100
AcDbEntity
  8
0-6__
  6
Continuous
 62
    92
370
    13
100
AcDbLine
 10
-3350.499649202501
 20
-1702.500016599089
 30
0.0
 11
-3350.499649202501
 21
-1837.500016599089
 31
0.0
  0
LINE
  5
1EB
330
1F
100
AcDbEntity
  8
通り芯
  6
JWW_CENTER1
 62
   120
370
     5
100
AcDbLine
 10
-3328.7496492025
 20
-1690.000016599088
 30
0.0
 11
-3328.7496492025
 21
-1850.000016599088
 31
0.0
  0
LINE
  5
1EC
330
1F
100
AcDbEntity
  8
通り芯
  6
JWW_CENTER1
 62
   120
370
     5
100
AcDbLine
 10
-3287.749649202504
 20
-1770.000016599089
 30
0.0
 11
-3369.7496492025
 21
-1770.000016599089
 31
0.0
  0
LINE
  5
1ED
330
1F
100
AcDbEntity
  8
扉
  6
JWW_DASHED1
 62
   120
370
     5
100
AcDbLine
 10
-3309.9996492025
 20
-2727.500016599089
 30
0.0
 11
-3306.999649202501
 21
-2727.500016599088
 31
0.0
  0
LINE
  5
1EE
330
1F
100
AcDbEntity
  8
0-B_寸法
  6
Continuous
 62
   120
370
     5
100
AcDbLine
 10
-3739.999649202501
 20
-3047.500016599089
 30
0.0
 11
-3739.999649202501
 21
-2797.500016599089
 31
0.0
  0
LWPOLYLINE
  5
1EF
330
1F
100
AcDbEntity
  8
0-B_寸法
  6
Continuous
 62
     7
370
     9
100
AcDbPolyline
 90
        4
 70
     1
 43
6.0
 10
-3736.999649202502
 20
-3047.500016599089
 42
0.4142135623731
 10
-3739.999649202501
 20
-3044.500016599089
 42
0.4142135623731
 10
-3742.999649202501
 20
-3047.500016599089
 42
0.4142135623731
 10
-3739.999649202501
 20
-3050.500016599089
 42
0.4142135623731
  0
LINE
  5
1F0
330
1F
100
AcDbEntity
  8
扉
  6
JWW_DASHED1
 62
   120
370
     5
100
AcDbLine
 10
-4477.999649202502
 20
-2727.500016599089
 30
0.0
 11
-4474.999649202501
 21
-2727.500016599089
 31
0.0
  0
LINE
  5
1F1
330
1F
100
AcDbEntity
  8
0-4_枠
  6
Continuous
 62
    92
370
    13
100
AcDbLine
 10
-571.1249002508212
 20
-2747.500016599089
 30
0.0
 11
-2216.124900250821
 21
-2747.500016599089
 31
0.0
  0
LINE
  5
1F2
330
1F
100
AcDbEntity
  8
0-4_枠
  6
Continuous
 62
    92
370
    13
100
AcDbLine
 10
-601.1249002508212
 20
-2732.500016599089
 30
0.0
 11
-2186.124900250821
 21
-2732.500016599089
 31
0.0
  0
LINE
  5
1F3
330
1F
100
AcDbEntity
  8
0-B_寸法
  6
Continuous
 62
   120
370
     5
100
AcDbLine
 10
-2216.124900250821
 20
-3247.500016599088
 30
0.0
 11
-2216.124900250821
 21
-2797.500016599089
 31
0.0
  0
LINE
  5
1F4
330
1F
100
AcDbEntity
  8
0-B_寸法
  6
Continuous
 62
   120
370
     5
100
AcDbLine
 10
-2216.124900250821
 20
-3247.500016599088
 30
0.0
 11
-571.1249002508212
 21
-3247.500016599088
 31
0.0
  0
LINE
  5
1F5
330
1F
100
AcDbEntity
  8
0-B_寸法
  6
Continuous
 62
   120
370
     5
100
AcDbLine
 10
-571.1249002508212
 20
-3247.500016599088
 30
0.0
 11
-571.1249002508212
 21
-2797.500016599089
 31
0.0
  0
LINE
  5
1F6
330
1F
100
AcDbEntity
  8
0-B_寸法
  6
Continuous
 62
   120
370
     5
100
AcDbLine
 10
-2516.124900250821
 20
-2727.500016599089
 30
0.0
 11
-2266.124900250818
 21
-2727.500016599089
 31
0.0
  0
LINE
  5
1F7
330
1F
100
AcDbEntity
  8
0-B_寸法
  6
Continuous
 62
   120
370
     5
100
AcDbLine
 10
-601.1249002508212
 20
-3047.500016599089
 30
0.0
 11
-601.1249002508212
 21
-2797.500016599089
 31
0.0
  0
LINE
  5
1F8
330
1F
100
AcDbEntity
  8
0-B_寸法
  6
Continuous
 62
   120
370
     5
100
AcDbLine
 10
-2186.124900250821
 20
-3047.500016599089
 30
0.0
 11
-601.1249002508212
 21
-3047.500016599089
 31
0.0
  0
LINE
  5
1F9
330
1F
100
AcDbEntity
  8
0-B_寸法
  6
Continuous
 62
   120
370
     5
100
AcDbLine
 10
-1181.124900250821
 20
-3047.500016599089
 30
0.0
 11
-1181.124900250821
 21
-2797.500016599089
 31
0.0
  0
LINE
  5
1FA
330
1F
100
AcDbEntity
  8
0-B_寸法
  6
Continuous
 62
   120
370
     5
100
AcDbLine
 10
-2186.124900250821
 20
-3047.500016599089
 30
0.0
 11
-2186.124900250821
 21
-2797.500016599089
 31
0.0
  0
LWPOLYLINE
  5
1FB
330
1F
100
AcDbEntity
  8
0-B_寸法
  6
Continuous
 62
     7
370
     9
100
AcDbPolyline
 90
        4
 70
     1
 43
6.0
 10
-2213.124900250822
 20
-3247.500016599088
 42
0.4142135623731
 10
-2216.124900250821
 20
-3244.500016599088
 42
0.4142135623731
 10
-2219.124900250821
 20
-3247.500016599088
 42
0.4142135623731
 10
-2216.124900250821
 20
-3250.500016599088
 42
0.4142135623731
  0
LWPOLYLINE
  5
1FC
330
1F
100
AcDbEntity
  8
0-B_寸法
  6
Continuous
 62
     7
370
     9
100
AcDbPolyline
 90
        4
 70
     1
 43
6.0
 10
-568.124900250821
 20
-3247.500016599088
 42
0.4142135623731
 10
-571.1249002508212
 20
-3244.500016599088
 42
0.4142135623731
 10
-574.1249002508212
 20
-3247.500016599088
 42
0.4142135623731
 10
-571.1249002508212
 20
-3250.500016599088
 42
0.4142135623731
  0
LWPOLYLINE
  5
1FD
330
1F
100
AcDbEntity
  8
0-B_寸法
  6
Continuous
 62
     7
370
     9
100
AcDbPolyline
 90
        4
 70
     1
 43
6.0
 10
-2513.124900250822
 20
-2727.500016599089
 42
0.4142135623731
 10
-2516.124900250821
 20
-2724.50001659909
 42
0.4142135623731
 10
-2519.124900250821
 20
-2727.500016599089
 42
0.4142135623731
 10
-2516.124900250821
 20
-2730.500016599089
 42
0.4142135623731
  0
LWPOLYLINE
  5
1FE
330
1F
100
AcDbEntity
  8
0-B_寸法
  6
Continuous
 62
     7
370
     9
100
AcDbPolyline
 90
        4
 70
     1
 43
6.0
 10
-598.124900250821
 20
-3047.500016599089
 42
0.4142135623731
 10
-601.1249002508212
 20
-3044.500016599089
 42
0.4142135623731
 10
-604.1249002508212
 20
-3047.500016599089
 42
0.4142135623731
 10
-601.1249002508212
 20
-3050.500016599089
 42
0.4142135623731
  0
LWPOLYLINE
  5
1FF
330
1F
100
AcDbEntity
  8
0-B_寸法
  6
Continuous
 62
     7
370
     9
100
AcDbPolyline
 90
        4
 70
     1
 43
6.0
 10
-1178.124900250821
 20
-3047.500016599089
 42
0.4142135623731
 10
-1181.124900250821
 20
-3044.500016599089
 42
0.4142135623731
 10
-1184.124900250821
 20
-3047.500016599089
 42
0.4142135623731
 10
-1181.124900250821
 20
-3050.500016599089
 42
0.4142135623731
  0
LWPOLYLINE
  5
200
330
1F
100
AcDbEntity
  8
0-B_寸法
  6
Continuous
 62
     7
370
     9
100
AcDbPolyline
 90
        4
 70
     1
 43
6.0
 10
-2183.124900250822
 20
-3047.500016599089
 42
0.4142135623731
 10
-2186.124900250821
 20
-3044.500016599089
 42
0.4142135623731
 10
-2189.124900250821
 20
-3047.500016599089
 42
0.4142135623731
 10
-2186.124900250821
 20
-3050.500016599089
 42
0.4142135623731
  0
LINE
  5
201
330
1F
100
AcDbEntity
  8
0-6__
  6
Continuous
 62
    92
370
    13
100
AcDbLine
 10
-2189.124900250822
 20
-1702.500016599089
 30
0.0
 11
-2145.624900250821
 21
-1702.500016599089
 31
0.0
  0
LINE
  5
202
330
1F
100
AcDbEntity
  8
0-6__
  6
Continuous
 62
    92
370
    13
100
AcDbLine
 10
-2189.124900250822
 20
-1837.500016599089
 30
0.0
 11
-2145.624900250821
 21
-1837.500016599089
 31
0.0
  0
LINE
  5
203
330
1F
100
AcDbEntity
  8
0-6__
  6
Continuous
 62
    92
370
    13
100
AcDbLine
 10
-2186.124900250821
 20
-1837.500016599089
 30
0.0
 11
-2186.124900250821
 21
-1702.500016599089
 31
0.0
  0
ARC
  5
204
330
1F
100
AcDbEntity
  8
0-6__
  6
Continuous
 62
    92
370
    13
100
AcDbCircle
 10
-2165.624900250821
 20
-1732.500016599089
 30
0.0
 40
15.0
100
AcDbArc
 50
0.0000000000000127
 51
90.00000000000001
  0
LINE
  5
205
330
1F
100
AcDbEntity
  8
0-6__
  6
Continuous
 62
    92
370
    13
100
AcDbLine
 10
-2150.624900250821
 20
-1807.500016599089
 30
0.0
 11
-2150.624900250821
 21
-1732.500016599089
 31
0.0
  0
ARC
  5
206
330
1F
100
AcDbEntity
  8
0-6__
  6
Continuous
 62
    92
370
    13
100
AcDbCircle
 10
-2165.624900250821
 20
-1807.500016599089
 30
0.0
 40
15.0
100
AcDbArc
 50
270.0
 51
0.0
  0
LINE
  5
207
330
1F
100
AcDbEntity
  8
0-6__
  6
Continuous
 62
    92
370
    13
100
AcDbLine
 10
-2165.624900250819
 20
-1822.500016599089
 30
0.0
 11
-2186.124900250821
 21
-1822.500016599089
 31
0.0
  0
LINE
  5
208
330
1F
100
AcDbEntity
  8
0-6__
  6
Continuous
 62
    92
370
    13
100
AcDbLine
 10
-2165.624900250819
 20
-1717.500016599089
 30
0.0
 11
-2186.124900250821
 21
-1717.500016599089
 31
0.0
  0
LINE
  5
209
330
1F
100
AcDbEntity
  8
0-6__
  6
Continuous
 62
    92
370
    13
100
AcDbLine
 10
-2189.124900250822
 20
-1702.500016599089
 30
0.0
 11
-2189.124900250822
 21
-1837.500016599089
 31
0.0
  0
LINE
  5
20A
330
1F
100
AcDbEntity
  8
0-6__
  6
Continuous
 62
    92
370
    13
100
AcDbLine
 10
-2145.624900250821
 20
-1702.500016599089
 30
0.0
 11
-2145.624900250821
 21
-1837.500016599089
 31
0.0
  0
LINE
  5
20B
330
1F
100
AcDbEntity
  8
通り芯
  6
JWW_CENTER1
 62
   120
370
     5
100
AcDbLine
 10
-2167.374900250821
 20
-1690.000016599088
 30
0.0
 11
-2167.374900250821
 21
-1850.00001659909
 31
0.0
  0
LINE
  5
20C
330
1F
100
AcDbEntity
  8
通り芯
  6
JWW_CENTER1
 62
   120
370
     5
100
AcDbLine
 10
-2123.37490025082
 20
-1770.000016599089
 30
0.0
 11
-2208.374900250822
 21
-1770.000016599089
 31
0.0
  0
LINE
  5
20D
330
1F
100
AcDbEntity
  8
0-6__
  6
Continuous
 62
    92
370
    13
100
AcDbLine
 10
-598.1249002508205
 20
-1702.500016599089
 30
0.0
 11
-641.6249002508209
 21
-1702.500016599089
 31
0.0
  0
LINE
  5
20E
330
1F
100
AcDbEntity
  8
0-6__
  6
Continuous
 62
    92
370
    13
100
AcDbLine
 10
-598.1249002508205
 20
-1837.500016599089
 30
0.0
 11
-641.6249002508209
 21
-1837.500016599089
 31
0.0
  0
LINE
  5
20F
330
1F
100
AcDbEntity
  8
0-6__
  6
Continuous
 62
    92
370
    13
100
AcDbLine
 10
-601.1249002508212
 20
-1837.500016599089
 30
0.0
 11
-601.1249002508212
 21
-1702.500016599089
 31
0.0
  0
ARC
  5
210
330
1F
100
AcDbEntity
  8
0-6__
  6
Continuous
 62
    92
370
    13
100
AcDbCircle
 10
-621.6249002508212
 20
-1732.500016599089
 30
0.0
 40
15.0
100
AcDbArc
 50
89.99999999999999
 51
180.0
  0
LINE
  5
211
330
1F
100
AcDbEntity
  8
0-6__
  6
Continuous
 62
    92
370
    13
100
AcDbLine
 10
-636.6249002508212
 20
-1807.500016599089
 30
0.0
 11
-636.6249002508212
 21
-1732.500016599089
 31
0.0
  0
ARC
  5
212
330
1F
100
AcDbEntity
  8
0-6__
  6
Continuous
 62
    92
370
    13
100
AcDbCircle
 10
-621.6249002508212
 20
-1807.500016599089
 30
0.0
 40
15.0
100
AcDbArc
 50
180.0
 51
270.0
  0
LINE
  5
213
330
1F
100
AcDbEntity
  8
0-6__
  6
Continuous
 62
    92
370
    13
100
AcDbLine
 10
-621.6249002508212
 20
-1822.500016599089
 30
0.0
 11
-601.1249002508202
 21
-1822.500016599089
 31
0.0
  0
LINE
  5
214
330
1F
100
AcDbEntity
  8
0-6__
  6
Continuous
 62
    92
370
    13
100
AcDbLine
 10
-621.6249002508212
 20
-1717.500016599089
 30
0.0
 11
-601.1249002508202
 21
-1717.500016599089
 31
0.0
  0
LINE
  5
215
330
1F
100
AcDbEntity
  8
0-6__
  6
Continuous
 62
    92
370
    13
100
AcDbLine
 10
-598.1249002508213
 20
-1702.500016599089
 30
0.0
 11
-598.1249002508213
 21
-1837.500016599089
 31
0.0
  0
LINE
  5
216
330
1F
100
AcDbEntity
  8
0-6__
  6
Continuous
 62
    92
370
    13
100
AcDbLine
 10
-641.6249002508209
 20
-1702.500016599089
 30
0.0
 11
-641.6249002508209
 21
-1837.500016599089
 31
0.0
  0
LINE
  5
217
330
1F
100
AcDbEntity
  8
通り芯
  6
JWW_CENTER1
 62
   120
370
     5
100
AcDbLine
 10
-619.8749002508212
 20
-1690.000016599088
 30
0.0
 11
-619.8749002508212
 21
-1850.00001659909
 31
0.0
  0
LINE
  5
218
330
1F
100
AcDbEntity
  8
通り芯
  6
JWW_CENTER1
 62
   120
370
     5
100
AcDbLine
 10
-578.8749002508217
 20
-1770.000016599089
 30
0.0
 11
-663.8749002508195
 21
-1770.000016599089
 31
0.0
  0
LINE
  5
219
330
1F
100
AcDbEntity
  8
扉
  6
JWW_DASHED1
 62
   120
370
     5
100
AcDbLine
 10
-2189.124900250822
 20
-2727.500016599089
 30
0.0
 11
-2186.124900250821
 21
-2727.500016599089
 31
0.0
  0
ARC
  5
21A
330
1F
100
AcDbEntity
  8
0-6__
  6
Continuous
 62
    92
370
    13
100
AcDbCircle
 10
-621.6249002508204
 20
-1732.500016599089
 30
0.0
 40
15.0
100
AcDbArc
 50
89.99999999999999
 51
180.0
  0
ARC
  5
21B
330
1F
100
AcDbEntity
  8
0-6__
  6
Continuous
 62
    92
370
    13
100
AcDbCircle
 10
-621.6249002508204
 20
-1807.500016599089
 30
0.0
 40
15.0
100
AcDbArc
 50
180.0
 51
270.0
  0
LINE
  5
21C
330
1F
100
AcDbEntity
  8
扉
  6
JWW_DASHED1
 62
   120
370
     5
100
AcDbLine
 10
-598.1249002508205
 20
-2727.500016599089
 30
0.0
 11
-601.1249002508202
 21
-2727.500016599089
 31
0.0
  0
LINE
  5
21D
330
1F
100
AcDbEntity
  8
扉
  6
Continuous
 62
    92
370
    13
100
AcDbLine
 10
-2186.124900250821
 20
-2727.500016599089
 30
0.0
 11
-601.1249002508202
 21
-2727.500016599089
 31
0.0
  0
LINE
  5
21E
330
1F
100
AcDbEntity
  8
0-4_枠
  6
Continuous
 62
    92
370
    13
100
AcDbLine
 10
2137.499848700859
 20
-2747.500016599089
 30
0.0
 11
457.4998487008591
 21
-2747.500016599089
 31
0.0
  0
LINE
  5
21F
330
1F
100
AcDbEntity
  8
0-4_枠
  6
Continuous
 62
    92
370
    13
100
AcDbLine
 10
2107.499848700859
 20
-2732.500016599089
 30
0.0
 11
487.4998487008591
 21
-2732.500016599089
 31
0.0
  0
LINE
  5
220
330
1F
100
AcDbEntity
  8
0-B_寸法
  6
Continuous
 62
   120
370
     5
100
AcDbLine
 10
457.4998487008591
 20
-3247.500016599088
 30
0.0
 11
457.4998487008591
 21
-2797.500016599089
 31
0.0
  0
LINE
  5
221
330
1F
100
AcDbEntity
  8
0-B_寸法
  6
Continuous
 62
   120
370
     5
100
AcDbLine
 10
457.4998487008591
 20
-3247.500016599088
 30
0.0
 11
2137.499848700859
 21
-3247.500016599088
 31
0.0
  0
LINE
  5
222
330
1F
100
AcDbEntity
  8
0-B_寸法
  6
Continuous
 62
   120
370
     5
100
AcDbLine
 10
2137.499848700859
 20
-3247.500016599088
 30
0.0
 11
2137.499848700859
 21
-2797.500016599089
 31
0.0
  0
LINE
  5
223
330
1F
100
AcDbEntity
  8
0-B_寸法
  6
Continuous
 62
   120
370
     5
100
AcDbLine
 10
157.4998487008591
 20
-2727.500016599089
 30
0.0
 11
407.4998487008577
 21
-2727.500016599089
 31
0.0
  0
LINE
  5
224
330
1F
100
AcDbEntity
  8
0-B_寸法
  6
Continuous
 62
   120
370
     5
100
AcDbLine
 10
2107.499848700859
 20
-3047.500016599089
 30
0.0
 11
2107.499848700859
 21
-2797.500016599089
 31
0.0
  0
LINE
  5
225
330
1F
100
AcDbEntity
  8
0-B_寸法
  6
Continuous
 62
   120
370
     5
100
AcDbLine
 10
487.4998487008591
 20
-3047.500016599089
 30
0.0
 11
2107.499848700859
 21
-3047.500016599089
 31
0.0
  0
LINE
  5
226
330
1F
100
AcDbEntity
  8
0-B_寸法
  6
Continuous
 62
   120
370
     5
100
AcDbLine
 10
1527.499848700858
 20
-3047.500016599089
 30
0.0
 11
1527.499848700858
 21
-2797.500016599089
 31
0.0
  0
LINE
  5
227
330
1F
100
AcDbEntity
  8
0-B_寸法
  6
Continuous
 62
   120
370
     5
100
AcDbLine
 10
487.4998487008591
 20
-3047.500016599089
 30
0.0
 11
487.4998487008591
 21
-2797.500016599089
 31
0.0
  0
LWPOLYLINE
  5
228
330
1F
100
AcDbEntity
  8
0-B_寸法
  6
Continuous
 62
     7
370
     9
100
AcDbPolyline
 90
        4
 70
     1
 43
6.0
 10
460.4998487008591
 20
-3247.500016599088
 42
0.4142135623731
 10
457.4998487008591
 20
-3244.500016599088
 42
0.4142135623731
 10
454.4998487008591
 20
-3247.500016599088
 42
0.4142135623731
 10
457.4998487008591
 20
-3250.500016599088
 42
0.4142135623731
  0
LWPOLYLINE
  5
229
330
1F
100
AcDbEntity
  8
0-B_寸法
  6
Continuous
 62
     7
370
     9
100
AcDbPolyline
 90
        4
 70
     1
 43
6.0
 10
2140.499848700859
 20
-3247.500016599088
 42
0.4142135623731
 10
2137.499848700859
 20
-3244.500016599088
 42
0.4142135623731
 10
2134.499848700859
 20
-3247.500016599088
 42
0.4142135623731
 10
2137.499848700859
 20
-3250.500016599088
 42
0.4142135623731
  0
LWPOLYLINE
  5
22A
330
1F
100
AcDbEntity
  8
0-B_寸法
  6
Continuous
 62
     7
370
     9
100
AcDbPolyline
 90
        4
 70
     1
 43
6.0
 10
160.4998487008591
 20
-2727.500016599089
 42
0.4142135623731
 10
157.4998487008591
 20
-2724.50001659909
 42
0.4142135623731
 10
154.4998487008591
 20
-2727.500016599089
 42
0.4142135623731
 10
157.4998487008591
 20
-2730.500016599089
 42
0.4142135623731
  0
LWPOLYLINE
  5
22B
330
1F
100
AcDbEntity
  8
0-B_寸法
  6
Continuous
 62
     7
370
     9
100
AcDbPolyline
 90
        4
 70
     1
 43
6.0
 10
2110.499848700859
 20
-3047.500016599089
 42
0.4142135623731
 10
2107.499848700859
 20
-3044.500016599089
 42
0.4142135623731
 10
2104.499848700859
 20
-3047.500016599089
 42
0.4142135623731
 10
2107.499848700859
 20
-3050.500016599089
 42
0.4142135623731
  0
LWPOLYLINE
  5
22C
330
1F
100
AcDbEntity
  8
0-B_寸法
  6
Continuous
 62
     7
370
     9
100
AcDbPolyline
 90
        4
 70
     1
 43
6.0
 10
1530.499848700858
 20
-3047.500016599089
 42
0.4142135623731
 10
1527.499848700858
 20
-3044.500016599089
 42
0.4142135623731
 10
1524.499848700858
 20
-3047.500016599089
 42
0.4142135623731
 10
1527.499848700858
 20
-3050.500016599089
 42
0.4142135623731
  0
LWPOLYLINE
  5
22D
330
1F
100
AcDbEntity
  8
0-B_寸法
  6
Continuous
 62
     7
370
     9
100
AcDbPolyline
 90
        4
 70
     1
 43
6.0
 10
490.4998487008592
 20
-3047.500016599089
 42
0.4142135623731
 10
487.4998487008591
 20
-3044.500016599089
 42
0.4142135623731
 10
484.499848700859
 20
-3047.500016599089
 42
0.4142135623731
 10
487.4998487008591
 20
-3050.500016599089
 42
0.4142135623731
  0
LINE
  5
22E
330
1F
100
AcDbEntity
  8
扉
  6
Continuous
 62
    92
370
    13
100
AcDbLine
 10
487.4998487008591
 20
-2727.500016599089
 30
0.0
 11
2107.499848700859
 21
-2727.500016599089
 31
0.0
  0
LINE
  5
22F
330
1F
100
AcDbEntity
  8
0-6__
  6
Continuous
 62
    92
370
    13
100
AcDbLine
 10
484.4998487008601
 20
-1702.500016599089
 30
0.0
 11
527.9998487008581
 21
-1702.500016599089
 31
0.0
  0
LINE
  5
230
330
1F
100
AcDbEntity
  8
0-6__
  6
Continuous
 62
    92
370
    13
100
AcDbLine
 10
484.4998487008601
 20
-1837.500016599089
 30
0.0
 11
527.9998487008581
 21
-1837.500016599089
 31
0.0
  0
LINE
  5
231
330
1F
100
AcDbEntity
  8
0-6__
  6
Continuous
 62
    92
370
    13
100
AcDbLine
 10
487.4998487008591
 20
-1837.500016599089
 30
0.0
 11
487.4998487008591
 21
-1702.500016599089
 31
0.0
  0
ARC
  5
232
330
1F
100
AcDbEntity
  8
0-6__
  6
Continuous
 62
    92
370
    13
100
AcDbCircle
 10
507.9998487008592
 20
-1732.500016599089
 30
0.0
 40
15.0
100
AcDbArc
 50
0.0000000000000127
 51
90.00000000000001
  0
LINE
  5
233
330
1F
100
AcDbEntity
  8
0-6__
  6
Continuous
 62
    92
370
    13
100
AcDbLine
 10
522.9998487008593
 20
-1807.500016599089
 30
0.0
 11
522.9998487008593
 21
-1732.500016599089
 31
0.0
  0
ARC
  5
234
330
1F
100
AcDbEntity
  8
0-6__
  6
Continuous
 62
    92
370
    13
100
AcDbCircle
 10
507.9998487008592
 20
-1807.500016599089
 30
0.0
 40
15.0
100
AcDbArc
 50
270.0
 51
0.0
  0
LINE
  5
235
330
1F
100
AcDbEntity
  8
0-6__
  6
Continuous
 62
    92
370
    13
100
AcDbLine
 10
507.9998487008592
 20
-1822.500016599089
 30
0.0
 11
487.4998487008591
 21
-1822.500016599089
 31
0.0
  0
LINE
  5
236
330
1F
100
AcDbEntity
  8
0-6__
  6
Continuous
 62
    92
370
    13
100
AcDbLine
 10
507.9998487008592
 20
-1717.500016599089
 30
0.0
 11
487.4998487008591
 21
-1717.500016599089
 31
0.0
  0
LINE
  5
237
330
1F
100
AcDbEntity
  8
0-6__
  6
Continuous
 62
    92
370
    13
100
AcDbLine
 10
484.4998487008601
 20
-1702.500016599089
 30
0.0
 11
484.4998487008601
 21
-1837.500016599089
 31
0.0
  0
LINE
  5
238
330
1F
100
AcDbEntity
  8
0-6__
  6
Continuous
 62
    92
370
    13
100
AcDbLine
 10
527.9998487008581
 20
-1702.500016599089
 30
0.0
 11
527.9998487008581
 21
-1837.500016599089
 31
0.0
  0
LINE
  5
239
330
1F
100
AcDbEntity
  8
通り芯
  6
JWW_CENTER1
 62
   120
370
     5
100
AcDbLine
 10
506.2498487008591
 20
-1690.000016599088
 30
0.0
 11
506.2498487008591
 21
-1850.00001659909
 31
0.0
  0
LINE
  5
23A
330
1F
100
AcDbEntity
  8
通り芯
  6
JWW_CENTER1
 62
   120
370
     5
100
AcDbLine
 10
547.2498487008585
 20
-1770.000016599089
 30
0.0
 11
465.249848700858
 21
-1770.000016599089
 31
0.0
  0
LINE
  5
23B
330
1F
100
AcDbEntity
  8
0-6__
  6
Continuous
 62
    92
370
    13
100
AcDbLine
 10
2110.499848700858
 20
-1702.500016599089
 30
0.0
 11
2066.99984870086
 21
-1702.500016599089
 31
0.0
  0
LINE
  5
23C
330
1F
100
AcDbEntity
  8
0-6__
  6
Continuous
 62
    92
370
    13
100
AcDbLine
 10
2110.499848700858
 20
-1837.500016599089
 30
0.0
 11
2066.99984870086
 21
-1837.500016599089
 31
0.0
  0
LINE
  5
23D
330
1F
100
AcDbEntity
  8
0-6__
  6
Continuous
 62
    92
370
    13
100
AcDbLine
 10
2107.499848700859
 20
-1837.500016599089
 30
0.0
 11
2107.499848700859
 21
-1702.500016599089
 31
0.0
  0
ARC
  5
23E
330
1F
100
AcDbEntity
  8
0-6__
  6
Continuous
 62
    92
370
    13
100
AcDbCircle
 10
2086.999848700859
 20
-1732.500016599089
 30
0.0
 40
15.0
100
AcDbArc
 50
89.99999999999999
 51
180.0
  0
LINE
  5
23F
330
1F
100
AcDbEntity
  8
0-6__
  6
Continuous
 62
    92
370
    13
100
AcDbLine
 10
2071.999848700859
 20
-1807.500016599089
 30
0.0
 11
2071.999848700859
 21
-1732.500016599089
 31
0.0
  0
ARC
  5
240
330
1F
100
AcDbEntity
  8
0-6__
  6
Continuous
 62
    92
370
    13
100
AcDbCircle
 10
2086.999848700859
 20
-1807.500016599089
 30
0.0
 40
15.0
100
AcDbArc
 50
180.0
 51
270.0
  0
LINE
  5
241
330
1F
100
AcDbEntity
  8
0-6__
  6
Continuous
 62
    92
370
    13
100
AcDbLine
 10
2086.999848700859
 20
-1822.500016599089
 30
0.0
 11
2107.499848700859
 21
-1822.500016599089
 31
0.0
  0
LINE
  5
242
330
1F
100
AcDbEntity
  8
0-6__
  6
Continuous
 62
    92
370
    13
100
AcDbLine
 10
2086.999848700859
 20
-1717.500016599089
 30
0.0
 11
2107.499848700859
 21
-1717.500016599089
 31
0.0
  0
LINE
  5
243
330
1F
100
AcDbEntity
  8
0-6__
  6
Continuous
 62
    92
370
    13
100
AcDbLine
 10
2110.499848700858
 20
-1702.500016599089
 30
0.0
 11
2110.499848700858
 21
-1837.500016599089
 31
0.0
  0
LINE
  5
244
330
1F
100
AcDbEntity
  8
0-6__
  6
Continuous
 62
    92
370
    13
100
AcDbLine
 10
2066.99984870086
 20
-1702.500016599089
 30
0.0
 11
2066.99984870086
 21
-1837.500016599089
 31
0.0
  0
LINE
  5
245
330
1F
100
AcDbEntity
  8
通り芯
  6
JWW_CENTER1
 62
   120
370
     5
100
AcDbLine
 10
2088.749848700859
 20
-1690.000016599088
 30
0.0
 11
2088.749848700859
 21
-1850.00001659909
 31
0.0
  0
LINE
  5
246
330
1F
100
AcDbEntity
  8
通り芯
  6
JWW_CENTER1
 62
   120
370
     5
100
AcDbLine
 10
2129.749848700857
 20
-1770.000016599089
 30
0.0
 11
2047.749848700859
 21
-1770.000016599089
 31
0.0
  0
LINE
  5
247
330
1F
100
AcDbEntity
  8
扉
  6
JWW_DASHED1
 62
   120
370
     5
100
AcDbLine
 10
2110.49984870086
 20
-2727.500016599089
 30
0.0
 11
2107.499848700859
 21
-2727.500016599089
 31
0.0
  0
LINE
  5
248
330
1F
100
AcDbEntity
  8
扉
  6
JWW_DASHED1
 62
   120
370
     5
100
AcDbLine
 10
484.4998487008593
 20
-2727.500016599089
 30
0.0
 11
487.4998487008591
 21
-2727.500016599089
 31
0.0
  0
LINE
  5
249
330
1F
100
AcDbEntity
  8
0-4_枠
  6
Continuous
 62
    92
370
    13
100
AcDbLine
 10
5606.999597652539
 20
-2747.500016599089
 30
0.0
 11
3127.999597652539
 21
-2747.500016599089
 31
0.0
  0
LINE
  5
24A
330
1F
100
AcDbEntity
  8
0-4_枠
  6
Continuous
 62
    92
370
    13
100
AcDbLine
 10
5576.999597652539
 20
-2732.500016599089
 30
0.0
 11
3157.999597652539
 21
-2732.500016599089
 31
0.0
  0
LINE
  5
24B
330
1F
100
AcDbEntity
  8
0-B_寸法
  6
Continuous
 62
   120
370
     5
100
AcDbLine
 10
3127.999597652539
 20
-3247.500016599088
 30
0.0
 11
3127.999597652539
 21
-2797.500016599089
 31
0.0
  0
LINE
  5
24C
330
1F
100
AcDbEntity
  8
0-B_寸法
  6
Continuous
 62
   120
370
     5
100
AcDbLine
 10
3127.999597652539
 20
-3247.500016599088
 30
0.0
 11
5606.999597652539
 21
-3247.500016599088
 31
0.0
  0
LINE
  5
24D
330
1F
100
AcDbEntity
  8
0-B_寸法
  6
Continuous
 62
   120
370
     5
100
AcDbLine
 10
5606.999597652539
 20
-3247.500016599088
 30
0.0
 11
5606.999597652539
 21
-2797.500016599089
 31
0.0
  0
LINE
  5
24E
330
1F
100
AcDbEntity
  8
0-B_寸法
  6
Continuous
 62
   120
370
     5
100
AcDbLine
 10
2827.999597652539
 20
-2727.500016599089
 30
0.0
 11
3077.999597652537
 21
-2727.500016599089
 31
0.0
  0
LINE
  5
24F
330
1F
100
AcDbEntity
  8
0-B_寸法
  6
Continuous
 62
   120
370
     5
100
AcDbLine
 10
5576.999597652539
 20
-3047.500016599089
 30
0.0
 11
5576.999597652539
 21
-2797.500016599089
 31
0.0
  0
LINE
  5
250
330
1F
100
AcDbEntity
  8
0-B_寸法
  6
Continuous
 62
   120
370
     5
100
AcDbLine
 10
4728.999597652539
 20
-3047.500016599089
 30
0.0
 11
4728.999597652539
 21
-2797.500016599089
 31
0.0
  0
LINE
  5
251
330
1F
100
AcDbEntity
  8
0-B_寸法
  6
Continuous
 62
   120
370
     5
100
AcDbLine
 10
3157.999597652539
 20
-3047.500016599089
 30
0.0
 11
5576.999597652539
 21
-3047.500016599089
 31
0.0
  0
LINE
  5
252
330
1F
100
AcDbEntity
  8
0-B_寸法
  6
Continuous
 62
   120
370
     5
100
AcDbLine
 10
3157.999597652539
 20
-3047.500016599089
 30
0.0
 11
3157.999597652539
 21
-2797.500016599089
 31
0.0
  0
LWPOLYLINE
  5
253
330
1F
100
AcDbEntity
  8
0-B_寸法
  6
Continuous
 62
     7
370
     9
100
AcDbPolyline
 90
        4
 70
     1
 43
6.0
 10
3130.999597652539
 20
-3247.500016599088
 42
0.4142135623731
 10
3127.999597652539
 20
-3244.500016599088
 42
0.4142135623731
 10
3124.999597652539
 20
-3247.500016599088
 42
0.4142135623731
 10
3127.999597652539
 20
-3250.500016599088
 42
0.4142135623731
  0
LWPOLYLINE
  5
254
330
1F
100
AcDbEntity
  8
0-B_寸法
  6
Continuous
 62
     7
370
     9
100
AcDbPolyline
 90
        4
 70
     1
 43
6.0
 10
5609.999597652539
 20
-3247.500016599088
 42
0.4142135623731
 10
5606.999597652539
 20
-3244.500016599088
 42
0.4142135623731
 10
5603.999597652539
 20
-3247.500016599088
 42
0.4142135623731
 10
5606.999597652539
 20
-3250.500016599088
 42
0.4142135623731
  0
LWPOLYLINE
  5
255
330
1F
100
AcDbEntity
  8
0-B_寸法
  6
Continuous
 62
     7
370
     9
100
AcDbPolyline
 90
        4
 70
     1
 43
6.0
 10
2830.999597652539
 20
-2727.500016599089
 42
0.4142135623731
 10
2827.999597652539
 20
-2724.500016599089
 42
0.4142135623731
 10
2824.999597652539
 20
-2727.500016599089
 42
0.4142135623731
 10
2827.999597652539
 20
-2730.500016599089
 42
0.4142135623731
  0
LWPOLYLINE
  5
256
330
1F
100
AcDbEntity
  8
0-B_寸法
  6
Continuous
 62
     7
370
     9
100
AcDbPolyline
 90
        4
 70
     1
 43
6.0
 10
5579.999597652539
 20
-3047.500016599089
 42
0.4142135623731
 10
5576.999597652539
 20
-3044.500016599089
 42
0.4142135623731
 10
5573.999597652539
 20
-3047.500016599089
 42
0.4142135623731
 10
5576.999597652539
 20
-3050.500016599089
 42
0.4142135623731
  0
LWPOLYLINE
  5
257
330
1F
100
AcDbEntity
  8
0-B_寸法
  6
Continuous
 62
     7
370
     9
100
AcDbPolyline
 90
        4
 70
     1
 43
6.0
 10
4731.999597652539
 20
-3047.500016599089
 42
0.4142135623731
 10
4728.999597652539
 20
-3044.500016599089
 42
0.4142135623731
 10
4725.99959765254
 20
-3047.500016599089
 42
0.4142135623731
 10
4728.999597652539
 20
-3050.500016599089
 42
0.4142135623731
  0
LWPOLYLINE
  5
258
330
1F
100
AcDbEntity
  8
0-B_寸法
  6
Continuous
 62
     7
370
     9
100
AcDbPolyline
 90
        4
 70
     1
 43
6.0
 10
3160.999597652539
 20
-3047.500016599089
 42
0.4142135623731
 10
3157.999597652539
 20
-3044.500016599089
 42
0.4142135623731
 10
3154.999597652539
 20
-3047.500016599089
 42
0.4142135623731
 10
3157.999597652539
 20
-3050.500016599089
 42
0.4142135623731
  0
LINE
  5
259
330
1F
100
AcDbEntity
  8
扉
  6
Continuous
 62
    92
370
    13
100
AcDbLine
 10
3157.999597652539
 20
-2727.500016599089
 30
0.0
 11
5576.999597652539
 21
-2727.500016599089
 31
0.0
  0
LINE
  5
25A
330
1F
100
AcDbEntity
  8
通り芯
  6
JWW_CENTER1
 62
   120
370
     5
100
AcDbLine
 10
5596.249597652539
 20
-1770.000016599089
 30
0.0
 11
5514.249597652538
 21
-1770.000016599089
 31
0.0
  0
LINE
  5
25B
330
1F
100
AcDbEntity
  8
0-6__
  6
Continuous
 62
    92
370
    13
100
AcDbLine
 10
5579.99959765254
 20
-1702.500016599089
 30
0.0
 11
5536.499597652538
 21
-1702.500016599089
 31
0.0
  0
LINE
  5
25C
330
1F
100
AcDbEntity
  8
0-6__
  6
Continuous
 62
    92
370
    13
100
AcDbLine
 10
5579.99959765254
 20
-1837.500016599089
 30
0.0
 11
5536.499597652538
 21
-1837.500016599089
 31
0.0
  0
LINE
  5
25D
330
1F
100
AcDbEntity
  8
0-6__
  6
Continuous
 62
    92
370
    13
100
AcDbLine
 10
5576.999597652539
 20
-1837.500016599089
 30
0.0
 11
5576.999597652539
 21
-1702.500016599089
 31
0.0
  0
ARC
  5
25E
330
1F
100
AcDbEntity
  8
0-6__
  6
Continuous
 62
    92
370
    13
100
AcDbCircle
 10
5556.499597652537
 20
-1732.500016599089
 30
0.0
 40
15.0
100
AcDbArc
 50
89.99999999999999
 51
180.0
  0
LINE
  5
25F
330
1F
100
AcDbEntity
  8
0-6__
  6
Continuous
 62
    92
370
    13
100
AcDbLine
 10
5541.499597652537
 20
-1807.500016599089
 30
0.0
 11
5541.499597652537
 21
-1732.500016599089
 31
0.0
  0
ARC
  5
260
330
1F
100
AcDbEntity
  8
0-6__
  6
Continuous
 62
    92
370
    13
100
AcDbCircle
 10
5556.499597652537
 20
-1807.500016599089
 30
0.0
 40
15.0
100
AcDbArc
 50
180.0
 51
270.0
  0
LINE
  5
261
330
1F
100
AcDbEntity
  8
0-6__
  6
Continuous
 62
    92
370
    13
100
AcDbLine
 10
5556.499597652537
 20
-1822.500016599089
 30
0.0
 11
5576.999597652539
 21
-1822.500016599089
 31
0.0
  0
LINE
  5
262
330
1F
100
AcDbEntity
  8
0-6__
  6
Continuous
 62
    92
370
    13
100
AcDbLine
 10
5556.499597652537
 20
-1717.500016599089
 30
0.0
 11
5576.999597652539
 21
-1717.500016599089
 31
0.0
  0
LINE
  5
263
330
1F
100
AcDbEntity
  8
0-6__
  6
Continuous
 62
    92
370
    13
100
AcDbLine
 10
5579.99959765254
 20
-1702.500016599089
 30
0.0
 11
5579.99959765254
 21
-1837.500016599089
 31
0.0
  0
LINE
  5
264
330
1F
100
AcDbEntity
  8
0-6__
  6
Continuous
 62
    92
370
    13
100
AcDbLine
 10
5536.499597652538
 20
-1702.500016599089
 30
0.0
 11
5536.499597652538
 21
-1837.500016599089
 31
0.0
  0
LINE
  5
265
330
1F
100
AcDbEntity
  8
通り芯
  6
JWW_CENTER1
 62
   120
370
     5
100
AcDbLine
 10
5558.249597652539
 20
-1690.000016599089
 30
0.0
 11
5558.249597652539
 21
-1850.000016599088
 31
0.0
  0
LINE
  5
266
330
1F
100
AcDbEntity
  8
0-6__
  6
Continuous
 62
    92
370
    13
100
AcDbLine
 10
3154.999597652538
 20
-1702.500016599089
 30
0.0
 11
3198.499597652536
 21
-1702.500016599089
 31
0.0
  0
LINE
  5
267
330
1F
100
AcDbEntity
  8
0-6__
  6
Continuous
 62
    92
370
    13
100
AcDbLine
 10
3154.999597652538
 20
-1837.500016599089
 30
0.0
 11
3198.499597652536
 21
-1837.500016599089
 31
0.0
  0
LINE
  5
268
330
1F
100
AcDbEntity
  8
0-6__
  6
Continuous
 62
    92
370
    13
100
AcDbLine
 10
3157.999597652539
 20
-1837.500016599089
 30
0.0
 11
3157.999597652539
 21
-1702.500016599089
 31
0.0
  0
ARC
  5
269
330
1F
100
AcDbEntity
  8
0-6__
  6
Continuous
 62
    92
370
    13
100
AcDbCircle
 10
3178.499597652537
 20
-1732.500016599089
 30
0.0
 40
15.0
100
AcDbArc
 50
0.0000000000000127
 51
90.00000000000001
  0
LINE
  5
26A
330
1F
100
AcDbEntity
  8
0-6__
  6
Continuous
 62
    92
370
    13
100
AcDbLine
 10
3193.499597652537
 20
-1807.500016599089
 30
0.0
 11
3193.499597652537
 21
-1732.500016599089
 31
0.0
  0
ARC
  5
26B
330
1F
100
AcDbEntity
  8
0-6__
  6
Continuous
 62
    92
370
    13
100
AcDbCircle
 10
3178.499597652537
 20
-1807.500016599089
 30
0.0
 40
15.0
100
AcDbArc
 50
270.0
 51
0.0
  0
LINE
  5
26C
330
1F
100
AcDbEntity
  8
0-6__
  6
Continuous
 62
    92
370
    13
100
AcDbLine
 10
3178.499597652537
 20
-1822.500016599089
 30
0.0
 11
3157.999597652539
 21
-1822.500016599089
 31
0.0
  0
LINE
  5
26D
330
1F
100
AcDbEntity
  8
0-6__
  6
Continuous
 62
    92
370
    13
100
AcDbLine
 10
3178.499597652537
 20
-1717.500016599089
 30
0.0
 11
3157.999597652539
 21
-1717.500016599089
 31
0.0
  0
LINE
  5
26E
330
1F
100
AcDbEntity
  8
0-6__
  6
Continuous
 62
    92
370
    13
100
AcDbLine
 10
3154.999597652538
 20
-1702.500016599089
 30
0.0
 11
3154.999597652538
 21
-1837.500016599089
 31
0.0
  0
LINE
  5
26F
330
1F
100
AcDbEntity
  8
0-6__
  6
Continuous
 62
    92
370
    13
100
AcDbLine
 10
3198.499597652536
 20
-1702.500016599089
 30
0.0
 11
3198.499597652536
 21
-1837.500016599089
 31
0.0
  0
LINE
  5
270
330
1F
100
AcDbEntity
  8
通り芯
  6
JWW_CENTER1
 62
   120
370
     5
100
AcDbLine
 10
3176.749597652539
 20
-1690.000016599089
 30
0.0
 11
3176.749597652539
 21
-1850.000016599088
 31
0.0
  0
LINE
  5
271
330
1F
100
AcDbEntity
  8
通り芯
  6
JWW_CENTER1
 62
   120
370
     5
100
AcDbLine
 10
3217.749597652536
 20
-1770.000016599089
 30
0.0
 11
3135.749597652539
 21
-1770.000016599089
 31
0.0
  0
LINE
  5
272
330
1F
100
AcDbEntity
  8
扉
  6
JWW_DASHED1
 62
   120
370
     5
100
AcDbLine
 10
5579.99959765254
 20
-2727.50001659909
 30
0.0
 11
5576.999597652539
 21
-2727.50001659909
 31
0.0
  0
LINE
  5
273
330
1F
100
AcDbEntity
  8
扉
  6
JWW_DASHED1
 62
   120
370
     5
100
AcDbLine
 10
3154.999597652538
 20
-2727.500016599089
 30
0.0
 11
3157.999597652539
 21
-2727.500016599089
 31
0.0
  0
LINE
  5
274
330
1F
100
AcDbEntity
  8
0-4_枠
  6
Continuous
 62
    92
370
    13
100
AcDbLine
 10
-4504.999649202501
 20
-2747.500016599089
 30
0.0
 11
-4504.999649202501
 21
-396.5000165990876
 31
0.0
  0
LINE
  5
275
330
1F
100
AcDbEntity
  8
0-4_枠
  6
Continuous
 62
    92
370
    13
100
AcDbLine
 10
-4474.999649202501
 20
-2747.500016599089
 30
0.0
 11
-4474.999649202501
 21
-432.5000165990958
 31
0.0
  0
LINE
  5
276
330
1F
100
AcDbEntity
  8
0-4_枠
  6
Continuous
 62
    92
370
    13
100
AcDbLine
 10
-3279.9996492025
 20
-2747.500016599089
 30
0.0
 11
-3279.9996492025
 21
-396.5000165990876
 31
0.0
  0
LINE
  5
277
330
1F
100
AcDbEntity
  8
0-4_枠
  6
Continuous
 62
    92
370
    13
100
AcDbLine
 10
-3309.9996492025
 20
-2747.500016599089
 30
0.0
 11
-3309.9996492025
 21
-432.5000165990958
 31
0.0
  0
LINE
  5
278
330
1F
100
AcDbEntity
  8
0-4_枠
  6
Continuous
 62
    92
370
    13
100
AcDbLine
 10
-4504.999649202501
 20
-396.5000165990876
 30
0.0
 11
-3279.9996492025
 21
-396.5000165990876
 31
0.0
  0
LINE
  5
279
330
1F
100
AcDbEntity
  8
0-4_枠
  6
Continuous
 62
    92
370
    13
100
AcDbLine
 10
-4474.999649202501
 20
-432.5000165990958
 30
0.0
 11
-3309.9996492025
 21
-432.5000165990958
 31
0.0
  0
LINE
  5
27A
330
1F
100
AcDbEntity
  8
0-B_寸法
  6
Continuous
 62
   120
370
     5
100
AcDbLine
 10
-4804.999649202501
 20
-439.5000165990894
 30
0.0
 11
-4804.999649202501
 21
-2727.500016599089
 31
0.0
  0
LINE
  5
27B
330
1F
100
AcDbEntity
  8
0-B_寸法
  6
Continuous
 62
   120
370
     5
100
AcDbLine
 10
-4804.999649202501
 20
-439.5000165990894
 30
0.0
 11
-4554.999649202504
 21
-439.5000165990894
 31
0.0
  0
LWPOLYLINE
  5
27C
330
1F
100
AcDbEntity
  8
0-B_寸法
  6
Continuous
 62
     7
370
     9
100
AcDbPolyline
 90
        4
 70
     1
 43
6.0
 10
-4801.999649202501
 20
-439.5000165990894
 42
0.4142135623731
 10
-4804.999649202501
 20
-436.5000165990894
 42
0.4142135623731
 10
-4807.999649202501
 20
-439.5000165990894
 42
0.4142135623731
 10
-4804.999649202501
 20
-442.5000165990894
 42
0.4142135623731
  0
LINE
  5
27D
330
1F
100
AcDbEntity
  8
扉
  6
Continuous
 62
    92
370
    13
100
AcDbLine
 10
-4107.499649202501
 20
-439.5000165990894
 30
0.0
 11
-4107.499649202501
 21
-2727.500016599089
 31
0.0
  0
LINE
  5
27E
330
1F
100
AcDbEntity
  8
扉
  6
JWW_DASHED1
 62
   120
370
     5
100
AcDbLine
 10
-3677.4996492025
 20
-2727.500016599089
 30
0.0
 11
-3677.4996492025
 21
-439.5000165990894
 31
0.0
  0
LINE
  5
27F
330
1F
100
AcDbEntity
  8
扉
  6
JWW_DASHED1
 62
   120
370
     5
100
AcDbLine
 10
-4047.999649202501
 20
-2727.500016599089
 30
0.0
 11
-4047.999649202501
 21
-439.5000165990894
 31
0.0
  0
LINE
  5
280
330
1F
100
AcDbEntity
  8
扉
  6
Continuous
 62
    92
370
    13
100
AcDbLine
 10
-3736.999649202501
 20
-439.5000165990894
 30
0.0
 11
-3736.999649202501
 21
-2727.500016599089
 31
0.0
  0
LINE
  5
281
330
1F
100
AcDbEntity
  8
扉
  6
JWW_DASHED1
 62
   120
370
     5
100
AcDbLine
 10
-3306.999649202501
 20
-439.5000165990894
 30
0.0
 11
-3306.999649202501
 21
-2727.500016599088
 31
0.0
  0
LINE
  5
282
330
1F
100
AcDbEntity
  8
扉
  6
JWW_DASHED1
 62
   120
370
     5
100
AcDbLine
 10
-3309.9996492025
 20
-439.5000165990894
 30
0.0
 11
-3306.999649202501
 21
-439.5000165990894
 31
0.0
  0
LINE
  5
283
330
1F
100
AcDbEntity
  8
扉
  6
JWW_DASHED1
 62
   120
370
     5
100
AcDbLine
 10
-3739.999649202501
 20
-2727.500016599089
 30
0.0
 11
-3739.999649202501
 21
-439.5000165990894
 31
0.0
  0
LINE
  5
284
330
1F
100
AcDbEntity
  8
扉
  6
JWW_DASHED1
 62
   120
370
     5
100
AcDbLine
 10
-4477.999649202502
 20
-2727.500016599089
 30
0.0
 11
-4477.999649202502
 21
-439.5000165990894
 31
0.0
  0
LINE
  5
285
330
1F
100
AcDbEntity
  8
扉
  6
JWW_DASHED1
 62
   120
370
     5
100
AcDbLine
 10
-4477.999649202502
 20
-439.5000165990894
 30
0.0
 11
-4474.999649202501
 21
-439.5000165990894
 31
0.0
  0
LINE
  5
286
330
1F
100
AcDbEntity
  8
扉
  6
Continuous
 62
    92
370
    13
100
AcDbLine
 10
-4474.999649202501
 20
-439.5000165990894
 30
0.0
 11
-3309.9996492025
 21
-439.5000165990894
 31
0.0
  0
LINE
  5
287
330
1F
100
AcDbEntity
  8
扉
  6
Continuous
 62
    92
370
    13
100
AcDbLine
 10
-2186.124900250821
 20
-439.5000165990894
 30
0.0
 11
-601.1249002508212
 21
-439.5000165990894
 31
0.0
  0
LINE
  5
288
330
1F
100
AcDbEntity
  8
扉
  6
Continuous
 62
    92
370
    13
100
AcDbLine
 10
-1683.624900250821
 20
-439.5000165990894
 30
0.0
 11
-1683.624900250821
 21
-2727.500016599089
 31
0.0
  0
LINE
  5
289
330
1F
100
AcDbEntity
  8
扉
  6
JWW_DASHED1
 62
   120
370
     5
100
AcDbLine
 10
-1103.624900250821
 20
-2727.500016599089
 30
0.0
 11
-1103.624900250821
 21
-439.5000165990894
 31
0.0
  0
LINE
  5
28A
330
1F
100
AcDbEntity
  8
0-4_枠
  6
Continuous
 62
    92
370
    13
100
AcDbLine
 10
-2186.124900250821
 20
-2747.500016599089
 30
0.0
 11
-2186.124900250821
 21
-432.5000165990958
 31
0.0
  0
LINE
  5
28B
330
1F
100
AcDbEntity
  8
0-4_枠
  6
Continuous
 62
    92
370
    13
100
AcDbLine
 10
-571.1249002508212
 20
-2747.500016599089
 30
0.0
 11
-571.1249002508212
 21
-396.5000165990876
 31
0.0
  0
LINE
  5
28C
330
1F
100
AcDbEntity
  8
0-4_枠
  6
Continuous
 62
    92
370
    13
100
AcDbLine
 10
-601.1249002508212
 20
-2747.500016599089
 30
0.0
 11
-601.1249002508212
 21
-432.5000165990958
 31
0.0
  0
LINE
  5
28D
330
1F
100
AcDbEntity
  8
0-4_枠
  6
Continuous
 62
    92
370
    13
100
AcDbLine
 10
-2216.124900250821
 20
-396.5000165990876
 30
0.0
 11
-571.1249002508212
 21
-396.5000165990876
 31
0.0
  0
LINE
  5
28E
330
1F
100
AcDbEntity
  8
0-4_枠
  6
Continuous
 62
    92
370
    13
100
AcDbLine
 10
-2186.124900250821
 20
-432.5000165990958
 30
0.0
 11
-601.1249002508212
 21
-432.5000165990958
 31
0.0
  0
LINE
  5
28F
330
1F
100
AcDbEntity
  8
0-4_枠
  6
Continuous
 62
    92
370
    13
100
AcDbLine
 10
-2216.124900250821
 20
-396.5000165990876
 30
0.0
 11
-2216.124900250821
 21
-2747.500016599089
 31
0.0
  0
LINE
  5
290
330
1F
100
AcDbEntity
  8
0-B_寸法
  6
Continuous
 62
   120
370
     5
100
AcDbLine
 10
-2516.124900250821
 20
-439.5000165990894
 30
0.0
 11
-2516.124900250821
 21
-2727.500016599089
 31
0.0
  0
LINE
  5
291
330
1F
100
AcDbEntity
  8
0-B_寸法
  6
Continuous
 62
   120
370
     5
100
AcDbLine
 10
-2516.124900250821
 20
-439.5000165990894
 30
0.0
 11
-2266.124900250818
 21
-439.5000165990894
 31
0.0
  0
LWPOLYLINE
  5
292
330
1F
100
AcDbEntity
  8
0-B_寸法
  6
Continuous
 62
     7
370
     9
100
AcDbPolyline
 90
        4
 70
     1
 43
6.0
 10
-2513.124900250822
 20
-439.5000165990894
 42
0.4142135623731
 10
-2516.124900250821
 20
-436.5000165990894
 42
0.4142135623731
 10
-2519.124900250821
 20
-439.5000165990894
 42
0.4142135623731
 10
-2516.124900250821
 20
-442.5000165990894
 42
0.4142135623731
  0
LINE
  5
293
330
1F
100
AcDbEntity
  8
扉
  6
JWW_DASHED1
 62
   120
370
     5
100
AcDbLine
 10
-1609.124900250821
 20
-2727.500016599089
 30
0.0
 11
-1609.124900250821
 21
-439.5000165990894
 31
0.0
  0
LINE
  5
294
330
1F
100
AcDbEntity
  8
扉
  6
Continuous
 62
    92
370
    13
100
AcDbLine
 10
-1178.12490025082
 20
-439.5000165990894
 30
0.0
 11
-1178.12490025082
 21
-2727.500016599089
 31
0.0
  0
LINE
  5
295
330
1F
100
AcDbEntity
  8
扉
  6
JWW_DASHED1
 62
   120
370
     5
100
AcDbLine
 10
-2189.124900250822
 20
-2727.500016599089
 30
0.0
 11
-2189.124900250822
 21
-439.5000165990894
 31
0.0
  0
LINE
  5
296
330
1F
100
AcDbEntity
  8
扉
  6
JWW_DASHED1
 62
   120
370
     5
100
AcDbLine
 10
-2189.124900250822
 20
-439.5000165990894
 30
0.0
 11
-2186.124900250821
 21
-439.5000165990894
 31
0.0
  0
LINE
  5
297
330
1F
100
AcDbEntity
  8
扉
  6
JWW_DASHED1
 62
   120
370
     5
100
AcDbLine
 10
-598.1249002508205
 20
-2727.500016599089
 30
0.0
 11
-598.1249002508205
 21
-439.5000165990894
 31
0.0
  0
LINE
  5
298
330
1F
100
AcDbEntity
  8
扉
  6
JWW_DASHED1
 62
   120
370
     5
100
AcDbLine
 10
-598.1249002508205
 20
-439.5000165990894
 30
0.0
 11
-601.1249002508202
 21
-439.5000165990894
 31
0.0
  0
LINE
  5
299
330
1F
100
AcDbEntity
  8
扉
  6
JWW_DASHED1
 62
   120
370
     5
100
AcDbLine
 10
-1181.124900250821
 20
-2727.500016599089
 30
0.0
 11
-1181.124900250821
 21
-439.5000165990894
 31
0.0
  0
LINE
  5
29A
330
1F
100
AcDbEntity
  8
扉
  6
Continuous
 62
    92
370
    13
100
AcDbLine
 10
1007.499848700858
 20
-2727.500016599089
 30
0.0
 11
1007.499848700858
 21
-439.5000165990894
 31
0.0
  0
LINE
  5
29B
330
1F
100
AcDbEntity
  8
0-4_枠
  6
Continuous
 62
    92
370
    13
100
AcDbLine
 10
457.4998487008591
 20
-2747.500016599089
 30
0.0
 11
457.4998487008591
 21
-396.5000165990876
 31
0.0
  0
LINE
  5
29C
330
1F
100
AcDbEntity
  8
0-4_枠
  6
Continuous
 62
    92
370
    13
100
AcDbLine
 10
487.4998487008591
 20
-2747.500016599089
 30
0.0
 11
487.4998487008591
 21
-432.5000165990958
 31
0.0
  0
LINE
  5
29D
330
1F
100
AcDbEntity
  8
0-4_枠
  6
Continuous
 62
    92
370
    13
100
AcDbLine
 10
2137.499848700859
 20
-2747.500016599089
 30
0.0
 11
2137.499848700859
 21
-396.5000165990876
 31
0.0
  0
LINE
  5
29E
330
1F
100
AcDbEntity
  8
0-4_枠
  6
Continuous
 62
    92
370
    13
100
AcDbLine
 10
2107.499848700859
 20
-2747.500016599089
 30
0.0
 11
2107.499848700859
 21
-432.5000165990958
 31
0.0
  0
LINE
  5
29F
330
1F
100
AcDbEntity
  8
0-4_枠
  6
Continuous
 62
    92
370
    13
100
AcDbLine
 10
457.4998487008591
 20
-396.5000165990876
 30
0.0
 11
2137.499848700859
 21
-396.5000165990876
 31
0.0
  0
LINE
  5
2A0
330
1F
100
AcDbEntity
  8
0-4_枠
  6
Continuous
 62
    92
370
    13
100
AcDbLine
 10
487.4998487008591
 20
-432.5000165990958
 30
0.0
 11
2107.499848700859
 21
-432.5000165990958
 31
0.0
  0
LINE
  5
2A1
330
1F
100
AcDbEntity
  8
0-B_寸法
  6
Continuous
 62
   120
370
     5
100
AcDbLine
 10
157.4998487008591
 20
-439.5000165990894
 30
0.0
 11
157.4998487008591
 21
-2727.500016599089
 31
0.0
  0
LINE
  5
2A2
330
1F
100
AcDbEntity
  8
0-B_寸法
  6
Continuous
 62
   120
370
     5
100
AcDbLine
 10
157.4998487008591
 20
-439.5000165990894
 30
0.0
 11
407.4998487008577
 21
-439.5000165990894
 31
0.0
  0
LWPOLYLINE
  5
2A3
330
1F
100
AcDbEntity
  8
0-B_寸法
  6
Continuous
 62
     7
370
     9
100
AcDbPolyline
 90
        4
 70
     1
 43
6.0
 10
160.4998487008591
 20
-439.5000165990894
 42
0.4142135623731
 10
157.4998487008591
 20
-436.5000165990894
 42
0.4142135623731
 10
154.4998487008591
 20
-439.5000165990894
 42
0.4142135623731
 10
157.4998487008591
 20
-442.5000165990894
 42
0.4142135623731
  0
LINE
  5
2A4
330
1F
100
AcDbEntity
  8
扉
  6
Continuous
 62
    92
370
    13
100
AcDbLine
 10
487.4998487008591
 20
-439.5000165990894
 30
0.0
 11
2107.499848700859
 21
-439.5000165990894
 31
0.0
  0
LINE
  5
2A5
330
1F
100
AcDbEntity
  8
扉
  6
JWW_DASHED1
 62
   120
370
     5
100
AcDbLine
 10
1587.499848700858
 20
-2727.500016599089
 30
0.0
 11
1587.499848700858
 21
-439.5000165990894
 31
0.0
  0
LINE
  5
2A6
330
1F
100
AcDbEntity
  8
扉
  6
JWW_DASHED1
 62
   120
370
     5
100
AcDbLine
 10
1064.499848700858
 20
-2727.500016599089
 30
0.0
 11
1064.499848700858
 21
-439.5000165990894
 31
0.0
  0
LINE
  5
2A7
330
1F
100
AcDbEntity
  8
扉
  6
Continuous
 62
    92
370
    13
100
AcDbLine
 10
1530.499848700857
 20
-439.5000165990894
 30
0.0
 11
1530.499848700857
 21
-2727.500016599089
 31
0.0
  0
LINE
  5
2A8
330
1F
100
AcDbEntity
  8
扉
  6
JWW_DASHED1
 62
   120
370
     5
100
AcDbLine
 10
2110.49984870086
 20
-439.5000165990894
 30
0.0
 11
2107.499848700859
 21
-439.5000165990894
 31
0.0
  0
LINE
  5
2A9
330
1F
100
AcDbEntity
  8
扉
  6
JWW_DASHED1
 62
   120
370
     5
100
AcDbLine
 10
2110.49984870086
 20
-2727.500016599089
 30
0.0
 11
2110.49984870086
 21
-439.5000165990894
 31
0.0
  0
LINE
  5
2AA
330
1F
100
AcDbEntity
  8
扉
  6
JWW_DASHED1
 62
   120
370
     5
100
AcDbLine
 10
484.4998487008593
 20
-439.5000165990894
 30
0.0
 11
487.4998487008591
 21
-439.5000165990894
 31
0.0
  0
LINE
  5
2AB
330
1F
100
AcDbEntity
  8
扉
  6
JWW_DASHED1
 62
   120
370
     5
100
AcDbLine
 10
484.4998487008593
 20
-2727.500016599089
 30
0.0
 11
484.4998487008593
 21
-439.5000165990894
 31
0.0
  0
LINE
  5
2AC
330
1F
100
AcDbEntity
  8
扉
  6
JWW_DASHED1
 62
   120
370
     5
100
AcDbLine
 10
1527.499848700858
 20
-2727.500016599089
 30
0.0
 11
1527.499848700858
 21
-439.5000165990894
 31
0.0
  0
LINE
  5
2AD
330
1F
100
AcDbEntity
  8
0-4_枠
  6
Continuous
 62
    92
370
    13
100
AcDbLine
 10
3127.999597652539
 20
-2747.500016599089
 30
0.0
 11
3127.999597652539
 21
-396.5000165990867
 31
0.0
  0
LINE
  5
2AE
330
1F
100
AcDbEntity
  8
0-4_枠
  6
Continuous
 62
    92
370
    13
100
AcDbLine
 10
3157.999597652539
 20
-2747.500016599089
 30
0.0
 11
3157.999597652539
 21
-432.5000165990949
 31
0.0
  0
LINE
  5
2AF
330
1F
100
AcDbEntity
  8
0-4_枠
  6
Continuous
 62
    92
370
    13
100
AcDbLine
 10
5606.999597652539
 20
-2747.500016599089
 30
0.0
 11
5606.999597652539
 21
-396.5000165990867
 31
0.0
  0
LINE
  5
2B0
330
1F
100
AcDbEntity
  8
0-4_枠
  6
Continuous
 62
    92
370
    13
100
AcDbLine
 10
5576.999597652539
 20
-2747.500016599089
 30
0.0
 11
5576.999597652539
 21
-432.5000165990949
 31
0.0
  0
LINE
  5
2B1
330
1F
100
AcDbEntity
  8
0-4_枠
  6
Continuous
 62
    92
370
    13
100
AcDbLine
 10
3127.999597652539
 20
-396.5000165990867
 30
0.0
 11
5606.999597652539
 21
-396.5000165990867
 31
0.0
  0
LINE
  5
2B2
330
1F
100
AcDbEntity
  8
0-4_枠
  6
Continuous
 62
    92
370
    13
100
AcDbLine
 10
3157.999597652539
 20
-432.5000165990949
 30
0.0
 11
5576.999597652539
 21
-432.5000165990949
 31
0.0
  0
LINE
  5
2B3
330
1F
100
AcDbEntity
  8
0-B_寸法
  6
Continuous
 62
   120
370
     5
100
AcDbLine
 10
2827.999597652539
 20
-439.5000165990886
 30
0.0
 11
2827.999597652539
 21
-2727.500016599089
 31
0.0
  0
LINE
  5
2B4
330
1F
100
AcDbEntity
  8
0-B_寸法
  6
Continuous
 62
   120
370
     5
100
AcDbLine
 10
2827.999597652539
 20
-439.5000165990886
 30
0.0
 11
3077.999597652537
 21
-439.5000165990886
 31
0.0
  0
LWPOLYLINE
  5
2B5
330
1F
100
AcDbEntity
  8
0-B_寸法
  6
Continuous
 62
     7
370
     9
100
AcDbPolyline
 90
        4
 70
     1
 43
6.0
 10
2830.999597652539
 20
-439.5000165990886
 42
0.4142135623731
 10
2827.999597652539
 20
-436.5000165990886
 42
0.4142135623731
 10
2824.999597652539
 20
-439.5000165990886
 42
0.4142135623731
 10
2827.999597652539
 20
-442.5000165990886
 42
0.4142135623731
  0
LINE
  5
2B6
330
1F
100
AcDbEntity
  8
扉
  6
Continuous
 62
    92
370
    13
100
AcDbLine
 10
3157.999597652539
 20
-439.5000165990886
 30
0.0
 11
5576.999597652539
 21
-439.5000165990886
 31
0.0
  0
LINE
  5
2B7
330
1F
100
AcDbEntity
  8
扉
  6
Continuous
 62
    92
370
    13
100
AcDbLine
 10
3943.499597652537
 20
-439.5000165990886
 30
0.0
 11
3943.499597652537
 21
-2727.500016599089
 31
0.0
  0
LINE
  5
2B8
330
1F
100
AcDbEntity
  8
扉
  6
JWW_DASHED1
 62
   120
370
     5
100
AcDbLine
 10
4791.499597652537
 20
-439.5000165990886
 30
0.0
 11
4791.499597652537
 21
-2727.500016599089
 31
0.0
  0
LINE
  5
2B9
330
1F
100
AcDbEntity
  8
扉
  6
Continuous
 62
    92
370
    13
100
AcDbLine
 10
4731.999597652537
 20
-439.5000165990886
 30
0.0
 11
4731.999597652537
 21
-2727.500016599089
 31
0.0
  0
LINE
  5
2BA
330
1F
100
AcDbEntity
  8
扉
  6
JWW_DASHED1
 62
   120
370
     5
100
AcDbLine
 10
4002.999597652538
 20
-439.5000165990886
 30
0.0
 11
4002.999597652538
 21
-2727.500016599089
 31
0.0
  0
LINE
  5
2BB
330
1F
100
AcDbEntity
  8
扉
  6
JWW_DASHED1
 62
   120
370
     5
100
AcDbLine
 10
5579.99959765254
 20
-2727.50001659909
 30
0.0
 11
5579.99959765254
 21
-439.5000165990886
 31
0.0
  0
LINE
  5
2BC
330
1F
100
AcDbEntity
  8
扉
  6
JWW_DASHED1
 62
   120
370
     5
100
AcDbLine
 10
5579.99959765254
 20
-439.5000165990886
 30
0.0
 11
5576.999597652539
 21
-439.5000165990886
 31
0.0
  0
LINE
  5
2BD
330
1F
100
AcDbEntity
  8
扉
  6
JWW_DASHED1
 62
   120
370
     5
100
AcDbLine
 10
4728.999597652539
 20
-2727.50001659909
 30
0.0
 11
4728.999597652539
 21
-439.5000165990886
 31
0.0
  0
LINE
  5
2BE
330
1F
100
AcDbEntity
  8
扉
  6
JWW_DASHED1
 62
   120
370
     5
100
AcDbLine
 10
3154.999597652538
 20
-2727.500016599089
 30
0.0
 11
3154.999597652538
 21
-439.5000165990886
 31
0.0
  0
LINE
  5
2BF
330
1F
100
AcDbEntity
  8
扉
  6
JWW_DASHED1
 62
   120
370
     5
100
AcDbLine
 10
3154.999597652538
 20
-439.5000165990886
 30
0.0
 11
3157.999597652539
 21
-439.5000165990886
 31
0.0
  0
LINE
  5
2C0
330
1F
100
AcDbEntity
  8
0-0_補助線
  6
JWW_HOJO
 62
   120
370
     5
100
AcDbLine
 10
-5849.999489655364
 20
805.500381057327
 30
0.0
 11
5849.999257680533
 21
805.500381057327
 31
0.0
  0
LINE
  5
2C1
330
1F
100
AcDbEntity
  8
0-0_補助線
  6
JWW_HOJO
 62
   120
370
     5
100
AcDbLine
 10
-5849.999489655364
 20
685.500381057327
 30
0.0
 11
5849.999257680533
 21
685.500381057327
 31
0.0
  0
LINE
  5
2C2
330
1F
100
AcDbEntity
  8
0-0_補助線
  6
JWW_HOJO
 62
   120
370
     5
100
AcDbLine
 10
-5849.999489655364
 20
565.5003810573265
 30
0.0
 11
5849.999257680533
 21
565.5003810573265
 31
0.0
  0
LINE
  5
2C3
330
1F
100
AcDbEntity
  8
0-0_補助線
  6
JWW_HOJO
 62
   120
370
     5
100
AcDbLine
 10
-5849.999489655364
 20
445.5003810573265
 30
0.0
 11
5849.999257680533
 21
445.5003810573265
 31
0.0
  0
LINE
  5
2C4
330
1F
100
AcDbEntity
  8
0-0_補助線
  6
JWW_HOJO
 62
   120
370
     5
100
AcDbLine
 10
-5849.999489655364
 20
325.5003810573265
 30
0.0
 11
5849.999257680533
 21
325.5003810573265
 31
0.0
  0
LINE
  5
2C5
330
1F
100
AcDbEntity
  8
0-0_補助線
  6
JWW_HOJO
 62
   120
370
     5
100
AcDbLine
 10
5849.999257680533
 20
-3294.99981957513
 30
0.0
 11
-5849.999489655364
 21
-3294.99981957513
 31
0.0
  0
LINE
  5
2C6
330
1F
100
AcDbEntity
  8
0-0_補助線
  6
JWW_HOJO
 62
   120
370
     5
100
AcDbLine
 10
5849.999257680533
 20
-3414.99981957513
 30
0.0
 11
-5849.999489655364
 21
-3414.99981957513
 31
0.0
  0
LINE
  5
2C7
330
1F
100
AcDbEntity
  8
0-0_補助線
  6
JWW_HOJO
 62
   120
370
     5
100
AcDbLine
 10
5849.999257680533
 20
-3534.99981957513
 30
0.0
 11
-5849.999489655364
 21
-3534.99981957513
 31
0.0
  0
LINE
  5
2C8
330
1F
100
AcDbEntity
  8
0-0_補助線
  6
JWW_HOJO
 62
   120
370
     5
100
AcDbLine
 10
5849.999257680533
 20
-3654.99981957513
 30
0.0
 11
-5849.999489655364
 21
-3654.99981957513
 31
0.0
  0
LINE
  5
2C9
330
1F
100
AcDbEntity
  8
0-0_補助線
  6
JWW_HOJO
 62
   120
370
     5
100
AcDbLine
 10
-5219.999523678341
 20
4189.999967008023
 30
0.0
 11
-5219.999523678341
 21
-3774.999981957513
 31
0.0
  0
TEXT
  5
2CA
330
1F
100
AcDbEntity
  8
0-A_文字
  6
Continuous
 62
     7
370
     9
100
AcDbText
 10
-4974.999649202502
 20
4047.69009897593
 30
0.0
 40
68.58
  1
Ｆ－ＤＦ／Ｆ－ＤＬ　間口４．５尺
 41
1.15625
  7
ＭＳ ゴシック
100
AcDbText
  0
TEXT
  5
2CB
330
1F
100
AcDbEntity
  8
0-A_文字
  6
Continuous
 62
     7
370
     9
100
AcDbText
 10
-2532.499900250822
 20
4047.69009897593
 30
0.0
 40
68.58
  1
Ｆ－ＤＦ／Ｆ－ＤＬ　間口６尺（小）
 41
1.156862745098039
  7
ＭＳ ゴシック
100
AcDbText
  0
TEXT
  5
2CC
330
1F
100
AcDbEntity
  8
0-A_文字
  6
Continuous
 62
     7
370
     9
100
AcDbText
 10
162.4998487008588
 20
4047.69009897593
 30
0.0
 40
68.58
  1
Ｆ－ＤＦ／Ｆ－ＤＬ　間口６尺（大）
 41
1.156862745098039
  7
ＭＳ ゴシック
100
AcDbText
  0
TEXT
  5
2CD
330
1F
100
AcDbEntity
  8
0-A_文字
  6
Continuous
 62
     7
370
     9
100
AcDbText
 10
3414.999597652539
 20
4047.69009897593
 30
0.0
 40
68.58
  1
Ｆ－ＤＦ／Ｆ－ＤＬ　間口９尺
 41
1.154761904761905
  7
ＭＳ ゴシック
100
AcDbText
  0
TEXT
  5
2CE
330
1F
100
AcDbEntity
  8
0-A_文字
  6
Continuous
 62
     7
370
     9
100
AcDbText
 10
-4974.999649202502
 20
67.19013031830622
 30
0.0
 40
68.58
  1
Ｆ－ＤＦ／Ｆ－ＤＬ　間口４．５尺
 41
1.15625
  7
ＭＳ ゴシック
100
AcDbText
  0
TEXT
  5
2CF
330
1F
100
AcDbEntity
  8
0-A_文字
  6
Continuous
 62
     7
370
     9
100
AcDbText
 10
-2532.499900250822
 20
67.19013031830622
 30
0.0
 40
68.58
  1
Ｆ－ＤＦ／Ｆ－ＤＬ　間口６尺（小）
 41
1.156862745098039
  7
ＭＳ ゴシック
100
AcDbText
  0
TEXT
  5
2D0
330
1F
100
AcDbEntity
  8
0-A_文字
  6
Continuous
 62
     7
370
     9
100
AcDbText
 10
162.4998487008588
 20
67.19013031830622
 30
0.0
 40
68.58
  1
Ｆ－ＤＦ／Ｆ－ＤＬ　間口６尺（大）
 41
1.156862745098039
  7
ＭＳ ゴシック
100
AcDbText
  0
TEXT
  5
2D1
330
1F
100
AcDbEntity
  8
0-A_文字
  6
Continuous
 62
     7
370
     9
100
AcDbText
 10
3414.999597652537
 20
67.19013031830622
 30
0.0
 40
68.58
  1
Ｆ－ＤＦ／Ｆ－ＤＬ　間口９尺
 41
1.154761904761905
  7
ＭＳ ゴシック
100
AcDbText
  0
TEXT
  5
2D2
330
1F
100
AcDbEntity
  8
0-B_寸法
  6
Continuous
 62
     7
370
   211
100
AcDbText
 10
-4830.574649202501
 20
2037.750346415752
 30
0.0
 40
57.15000000000001
  1
ＤＨ＝1,982
 50
90.0
 41
0.9999999999999999
  7
ＭＳ ゴシック
100
AcDbText
  0
TEXT
  5
2D3
330
1F
100
AcDbEntity
  8
0-B_寸法
  6
Continuous
 62
     7
370
   211
100
AcDbText
 10
-2541.699900250821
 20
2037.750346415752
 30
0.0
 40
57.15000000000001
  1
ＤＨ＝1,982
 50
90.0
 41
0.9999999999999999
  7
ＭＳ ゴシック
100
AcDbText
  0
TEXT
  5
2D4
330
1F
100
AcDbEntity
  8
0-B_寸法
  6
Continuous
 62
     7
370
   211
100
AcDbText
 10
131.9248487008591
 20
2037.750346415752
 30
0.0
 40
57.15000000000001
  1
ＤＨ＝1,982
 50
90.0
 41
0.9999999999999999
  7
ＭＳ ゴシック
100
AcDbText
  0
TEXT
  5
2D5
330
1F
100
AcDbEntity
  8
0-B_寸法
  6
Continuous
 62
     7
370
   211
100
AcDbText
 10
2802.424597652539
 20
2037.749952058534
 30
0.0
 40
57.15000000000001
  1
ＤＨ＝1,982
 50
90.0
 41
0.9999999999999999
  7
ＭＳ ゴシック
100
AcDbText
  0
TEXT
  5
2D6
330
1F
100
AcDbEntity
  8
0-B_寸法
  6
Continuous
 62
     7
370
   211
100
AcDbText
 10
-4351.249649202501
 20
958.5753464157515
 30
0.0
 40
57.15000000000001
  1
有効開口＝735
 41
0.9999999999999999
  7
ＭＳ ゴシック
100
AcDbText
  0
TEXT
  5
2D7
330
1F
100
AcDbEntity
  8
0-B_寸法
  6
Continuous
 62
     7
370
   211
100
AcDbText
 10
-3637.499649202501
 20
958.5753464157515
 30
0.0
 40
57.15000000000001
  1
DW=430
 41
0.9999999999999999
  7
ＭＳ ゴシック
100
AcDbText
  0
TEXT
  5
2D8
330
1F
100
AcDbEntity
  8
0-B_寸法
  6
Continuous
 62
     7
370
   211
100
AcDbText
 10
-1964.874900250821
 20
958.5753464157515
 30
0.0
 40
57.15000000000001
  1
有効開口＝1,005
 41
0.9999999999999998
  7
ＭＳ ゴシック
100
AcDbText
  0
TEXT
  5
2D9
330
1F
100
AcDbEntity
  8
0-B_寸法
  6
Continuous
 62
     7
370
   211
100
AcDbText
 10
-1003.62490025082
 20
958.5753464157515
 30
0.0
 40
57.15000000000001
  1
DW=580
 41
0.9999999999999999
  7
ＭＳ ゴシック
100
AcDbText
  0
TEXT
  5
2DA
330
1F
100
AcDbEntity
  8
0-B_寸法
  6
Continuous
 62
     7
370
   211
100
AcDbText
 10
726.2498487008594
 20
958.5753464157515
 30
0.0
 40
57.15000000000001
  1
有効開口＝1,040
 41
0.9999999999999998
  7
ＭＳ ゴシック
100
AcDbText
  0
TEXT
  5
2DB
330
1F
100
AcDbEntity
  8
0-B_寸法
  6
Continuous
 62
     7
370
   211
100
AcDbText
 10
1704.999848700859
 20
958.5753464157515
 30
0.0
 40
57.15000000000001
  1
DW=580
 41
0.9999999999999999
  7
ＭＳ ゴシック
100
AcDbText
  0
TEXT
  5
2DC
330
1F
100
AcDbEntity
  8
0-B_寸法
  6
Continuous
 62
     7
370
   211
100
AcDbText
 10
3662.249597652539
 20
958.5749520585347
 30
0.0
 40
57.15000000000001
  1
有効開口＝1,571
 41
0.9999999999999998
  7
ＭＳ ゴシック
100
AcDbText
  0
TEXT
  5
2DD
330
1F
100
AcDbEntity
  8
0-B_寸法
  6
Continuous
 62
     7
370
   211
100
AcDbText
 10
5040.499597652539
 20
958.5749520585347
 30
0.0
 40
57.15000000000001
  1
DW=848
 41
0.9999999999999999
  7
ＭＳ ゴシック
100
AcDbText
  0
TEXT
  5
2DE
330
1F
100
AcDbEntity
  8
0-B_寸法
  6
Continuous
 62
     7
370
   211
100
AcDbText
 10
-4098.749649202472
 20
758.5753464157517
 30
0.0
 40
57.15000000000001
  1
枠外＝1,225
 41
0.9999999999999999
  7
ＭＳ ゴシック
100
AcDbText
  0
TEXT
  5
2DF
330
1F
100
AcDbEntity
  8
0-B_寸法
  6
Continuous
 62
     7
370
   211
100
AcDbText
 10
-1599.874900250821
 20
758.5753464157517
 30
0.0
 40
57.15000000000001
  1
枠外＝1,645
 41
0.9999999999999999
  7
ＭＳ ゴシック
100
AcDbText
  0
TEXT
  5
2E0
330
1F
100
AcDbEntity
  8
0-B_寸法
  6
Continuous
 62
     7
370
   211
100
AcDbText
 10
1073.74984870086
 20
758.5753464157517
 30
0.0
 40
57.15000000000001
  1
枠外＝1,680
 41
0.9999999999999999
  7
ＭＳ ゴシック
100
AcDbText
  0
TEXT
  5
2E1
330
1F
100
AcDbEntity
  8
0-B_寸法
  6
Continuous
 62
     7
370
   211
100
AcDbText
 10
4161.249597652539
 20
758.574952058535
 30
0.0
 40
57.15000000000001
  1
枠外＝2,479
 41
0.9999999999999999
  7
ＭＳ ゴシック
100
AcDbText
  0
TEXT
  5
2E2
330
1F
100
AcDbEntity
  8
0-B_寸法
  6
Continuous
 62
     7
370
   211
100
AcDbText
 10
-4830.574649202501
 20
-1789.750016599089
 30
0.0
 40
57.15000000000001
  1
ＤＨ＝2,288
 50
90.0
 41
0.9999999999999999
  7
ＭＳ ゴシック
100
AcDbText
  0
TEXT
  5
2E3
330
1F
100
AcDbEntity
  8
0-B_寸法
  6
Continuous
 62
     7
370
   211
100
AcDbText
 10
-2541.699900250821
 20
-1789.750016599089
 30
0.0
 40
57.15000000000001
  1
ＤＨ＝2,288
 50
90.0
 41
0.9999999999999999
  7
ＭＳ ゴシック
100
AcDbText
  0
TEXT
  5
2E4
330
1F
100
AcDbEntity
  8
0-B_寸法
  6
Continuous
 62
     7
370
   211
100
AcDbText
 10
131.9248487008591
 20
-1789.750016599089
 30
0.0
 40
57.15000000000001
  1
ＤＨ＝2,288
 50
90.0
 41
0.9999999999999999
  7
ＭＳ ゴシック
100
AcDbText
  0
TEXT
  5
2E5
330
1F
100
AcDbEntity
  8
0-B_寸法
  6
Continuous
 62
     7
370
   211
100
AcDbText
 10
2802.424597652539
 20
-1789.750016599089
 30
0.0
 40
57.15000000000001
  1
ＤＨ＝2,288
 50
90.0
 41
0.9999999999999999
  7
ＭＳ ゴシック
100
AcDbText
  0
TEXT
  5
2E6
330
1F
100
AcDbEntity
  8
0-B_寸法
  6
Continuous
 62
     7
370
   211
100
AcDbText
 10
-4351.249649202501
 20
-3021.925016599089
 30
0.0
 40
57.15000000000001
  1
有効開口＝735
 41
0.9999999999999999
  7
ＭＳ ゴシック
100
AcDbText
  0
TEXT
  5
2E7
330
1F
100
AcDbEntity
  8
0-B_寸法
  6
Continuous
 62
     7
370
   211
100
AcDbText
 10
-3637.499649202502
 20
-3021.925016599089
 30
0.0
 40
57.15000000000001
  1
DW=430
 41
0.9999999999999999
  7
ＭＳ ゴシック
100
AcDbText
  0
TEXT
  5
2E8
330
1F
100
AcDbEntity
  8
0-B_寸法
  6
Continuous
 62
     7
370
   211
100
AcDbText
 10
-1964.874900250821
 20
-3021.925016599089
 30
0.0
 40
57.15000000000001
  1
有効開口＝1,005
 41
0.9999999999999998
  7
ＭＳ ゴシック
100
AcDbText
  0
TEXT
  5
2E9
330
1F
100
AcDbEntity
  8
0-B_寸法
  6
Continuous
 62
     7
370
   211
100
AcDbText
 10
-1003.624900250821
 20
-3021.925016599089
 30
0.0
 40
57.15000000000001
  1
DW=580
 41
0.9999999999999999
  7
ＭＳ ゴシック
100
AcDbText
  0
TEXT
  5
2EA
330
1F
100
AcDbEntity
  8
0-B_寸法
  6
Continuous
 62
     7
370
   211
100
AcDbText
 10
726.2498487008577
 20
-3021.925016599089
 30
0.0
 40
57.15000000000001
  1
有効開口＝1,040
 41
0.9999999999999998
  7
ＭＳ ゴシック
100
AcDbText
  0
TEXT
  5
2EB
330
1F
100
AcDbEntity
  8
0-B_寸法
  6
Continuous
 62
     7
370
   211
100
AcDbText
 10
1704.999848700858
 20
-3021.925016599089
 30
0.0
 40
57.15000000000001
  1
DW=580
 41
0.9999999999999999
  7
ＭＳ ゴシック
100
AcDbText
  0
TEXT
  5
2EC
330
1F
100
AcDbEntity
  8
0-B_寸法
  6
Continuous
 62
     7
370
   211
100
AcDbText
 10
3662.249597652537
 20
-3021.925016599089
 30
0.0
 40
57.15000000000001
  1
有効開口＝1,571
 41
0.9999999999999998
  7
ＭＳ ゴシック
100
AcDbText
  0
TEXT
  5
2ED
330
1F
100
AcDbEntity
  8
0-B_寸法
  6
Continuous
 62
     7
370
   211
100
AcDbText
 10
5040.499597652539
 20
-3021.925016599089
 30
0.0
 40
57.15000000000001
  1
DW=848
 41
0.9999999999999999
  7
ＭＳ ゴシック
100
AcDbText
  0
TEXT
  5
2EE
330
1F
100
AcDbEntity
  8
0-B_寸法
  6
Continuous
 62
     7
370
   211
100
AcDbText
 10
-4098.749649202502
 20
-3221.925016599088
 30
0.0
 40
57.15000000000001
  1
枠外＝1,225
 41
0.9999999999999999
  7
ＭＳ ゴシック
100
AcDbText
  0
TEXT
  5
2EF
330
1F
100
AcDbEntity
  8
0-B_寸法
  6
Continuous
 62
     7
370
   211
100
AcDbText
 10
-1599.874900250823
 20
-3221.925016599088
 30
0.0
 40
57.15000000000001
  1
枠外＝1,645
 41
0.9999999999999999
  7
ＭＳ ゴシック
100
AcDbText
  0
TEXT
  5
2F0
330
1F
100
AcDbEntity
  8
0-B_寸法
  6
Continuous
 62
     7
370
   211
100
AcDbText
 10
1073.749848700861
 20
-3221.925016599088
 30
0.0
 40
57.15000000000001
  1
枠外＝1,680
 41
0.9999999999999999
  7
ＭＳ ゴシック
100
AcDbText
  0
TEXT
  5
2F1
330
1F
100
AcDbEntity
  8
0-B_寸法
  6
Continuous
 62
     7
370
   211
100
AcDbText
 10
4161.249597652537
 20
-3221.925016599088
 30
0.0
 40
57.15000000000001
  1
枠外＝2,479
 41
0.9999999999999999
  7
ＭＳ ゴシック
100
AcDbText
  0
TEXT
  5
2F2
330
1F
100
AcDbEntity
  8
F-A_文字
  6
Continuous
 62
     7
370
     9
100
AcDbText
 10
-5739.999544298326
 20
4053.075346415751
 30
0.0
 40
57.15000000000001
  1
デザイン
 41
0.9999999999999998
  7
ＭＳ ゴシック
100
AcDbText
  0
TEXT
  5
2F3
330
1F
100
AcDbEntity
  8
F-A_文字
  6
Continuous
 62
     7
370
     9
100
AcDbText
 10
-5702.49949790336
 20
2065.825260636613
 30
0.0
 40
57.15000000000001
  1
姿　図
 41
0.9999999999999999
  7
ＭＳ ゴシック
100
AcDbText
  0
TEXT
  5
2F4
330
1F
100
AcDbEntity
  8
F-A_文字
  6
Continuous
 62
     7
370
     9
100
AcDbText
 10
-5739.999509502102
 20
72.57513031830622
 30
0.0
 40
57.15000000000001
  1
デザイン
 41
0.9999999999999998
  7
ＭＳ ゴシック
100
AcDbText
  0
TEXT
  5
2F5
330
1F
100
AcDbEntity
  8
F-A_文字
  6
Continuous
 62
     7
370
     9
100
AcDbText
 10
-5707.499390679437
 20
-1914.674893600876
 30
0.0
 40
57.15000000000001
  1
姿　図
 41
0.9999999999999999
  7
ＭＳ ゴシック
100
AcDbText
  0
TEXT
  5
2F6
330
1F
100
AcDbEntity
  8
F-A_文字
  6
Continuous
 62
     7
370
     0
100
AcDbText
 10
90.00037115973441
 20
-3856.539622920078
 30
0.0
 40
45.72
  1
図面名
  7
ＭＳ ゴシック
100
AcDbText
  0
TEXT
  5
2F7
330
1F
100
AcDbEntity
  8
F-A_文字
  6
Continuous
 62
     7
370
     0
100
AcDbText
 10
2929.999224688557
 20
-3856.542262665916
 30
0.0
 40
45.72
  1
ＳＣＡＬＥ
  7
ＭＳ ゴシック
100
AcDbText
  0
TEXT
  5
2F8
330
1F
100
AcDbEntity
  8
F-A_文字
  6
Continuous
 62
     7
370
     0
100
AcDbText
 10
4429.999719568202
 20
-3856.543656898896
 30
0.0
 40
45.72
  1
ＤＡＴＥ
  7
ＭＳ ゴシック
100
AcDbText
  0
TEXT
  5
2F9
330
1F
100
AcDbEntity
  8
F-A_文字
  6
Continuous
 62
     7
370
     0
100
AcDbText
 10
1330.418196783364
 20
-3912.309963647981
 30
0.0
 40
68.58
  1
建具姿図
 41
1.125
  7
ＭＳ ゴシック
100
AcDbText
  0
TEXT
  5
2FA
330
1F
100
AcDbEntity
  8
F-A_文字
  6
Continuous
 62
     7
370
     0
100
AcDbText
 10
3533.749472128379
 20
-3912.312917955469
 30
0.0
 40
68.58
  1
1/30
 41
1.125
  7
ＭＳ ゴシック
100
AcDbText
  0
TEXT
  5
2FB
330
1F
100
AcDbEntity
  8
F-A_文字
  6
Continuous
 62
     7
370
     0
100
AcDbText
 10
500.0004123997047
 20
-3913.097093920645
 30
0.0
 40
66.06
  1
ＳＯＦＴＡＲＴ
 41
0.8333333333333334
  7
HG明朝B
100
AcDbText
  0
TEXT
  5
2FC
330
1F
100
AcDbEntity
  8
F-A_文字
  6
Continuous
 62
     7
370
     0
100
AcDbText
 10
2929.999224688557
 20
-4056.542265226002
 30
0.0
 40
45.72
  1
ＦＩＬＥ
  7
ＭＳ ゴシック
100
AcDbText
  0
TEXT
  5
2FD
330
1F
100
AcDbEntity
  8
F-A_文字
  6
Continuous
 62
     7
370
     0
100
AcDbText
 10
4429.999719568202
 20
-4056.543659458982
 30
0.0
 40
45.72
  1
ＮＯ．
  7
ＭＳ ゴシック
100
AcDbText
  0
TEXT
  5
2FE
330
1F
100
AcDbEntity
  8
F-A_文字
  6
Continuous
 62
     7
370
     0
100
AcDbText
 10
1384.999224688556
 20
-4065.54047131429
 30
0.0
 40
45.72
  1
株式
  7
ＭＳ ゴシック
100
AcDbText
  0
TEXT
  5
2FF
330
1F
100
AcDbEntity
  8
F-A_文字
  6
Continuous
 62
     7
370
     9
100
AcDbText
 10
5086.249528460476
 20
-4112.314314748128
 30
0.0
 40
68.58
  1
01
 41
1.083333333333333
  7
ＭＳ ゴシック
100
AcDbText
  0
TEXT
  5
300
330
1F
100
AcDbEntity
  8
F-A_文字
  6
Continuous
 62
     7
370
     0
100
AcDbText
 10
1594.999224688556
 20
-4123.08218157207
 30
0.0
 40
91.44
  1
ウッドワン・・・
 41
1.109375
  7
ＭＳ ゴシック
100
AcDbText
  0
TEXT
  5
301
330
1F
100
AcDbEntity
  8
F-A_文字
  6
Continuous
 62
     7
370
     0
100
AcDbText
 10
1384.999224688556
 20
-4137.540471314329
 30
0.0
 40
45.72
  1
会社
  7
ＭＳ ゴシック
100
AcDbText
  0
TEXT
  5
302
330
1F
100
AcDbEntity
  8
F-A_文字
  6
Continuous
 62
     7
370
     0
100
AcDbText
 10
5758.403805989357
 20
-4276.441221069061
 30
0.0
 40
68.58
  1
）
  7
ＭＳ ゴシック
100
AcDbText
  0
TEXT
  5
303
330
1F
100
AcDbEntity
  8
F-A_文字
  6
Continuous
 62
     7
370
     0
100
AcDbText
 10
5340.196445721716
 20
-4277.835245917999
 30
0.0
 40
68.58
  1
,
  7
ＭＳ ゴシック
100
AcDbText
  0
TEXT
  5
304
330
1F
100
AcDbEntity
  8
F-A_文字
  6
Continuous
 62
     7
370
     0
100
AcDbText
 10
5073.937756795019
 20
-4279.229269336424
 30
0.0
 40
68.58
  1
$y
 41
1.083333333333333
  7
ＭＳ ゴシック
100
AcDbText
  0
TEXT
  5
305
330
1F
100
AcDbEntity
  8
F-A_文字
  6
Continuous
 62
     7
370
     0
100
AcDbText
 10
5228.67447783384
 20
-4279.229269336424
 30
0.0
 40
68.58
  1
$m
 41
1.083333333333333
  7
ＭＳ ゴシック
100
AcDbText
  0
TEXT
  5
306
330
1F
100
AcDbEntity
  8
F-A_文字
  6
Continuous
 62
     7
370
     0
100
AcDbText
 10
5383.411210316748
 20
-4279.229269336424
 30
0.0
 40
68.58
  1
$d
 41
1.083333333333333
  7
ＭＳ ゴシック
100
AcDbText
  0
TEXT
  5
307
330
1F
100
AcDbEntity
  8
F-A_文字
  6
Continuous
 62
     7
370
     0
100
AcDbText
 10
5538.147942799657
 20
-4279.229269336424
 30
0.0
 40
68.58
  1
印刷
 41
1.083333333333333
  7
ＭＳ ゴシック
100
AcDbText
  0
TEXT
  5
308
330
1F
100
AcDbEntity
  8
F-A_文字
  6
Continuous
 62
     7
370
     0
100
AcDbText
 10
4934.033869132644
 20
-4280.623295615874
 30
0.0
 40
68.58
  1
（
  7
ＭＳ ゴシック
100
AcDbText
  0
TEXT
  5
309
330
1F
100
AcDbEntity
  8
F-A_文字
  6
Continuous
 62
     7
370
     0
100
AcDbText
 10
5181.27763869199
 20
-4280.623295615874
 30
0.0
 40
68.58
  1
,
  7
ＭＳ ゴシック
100
AcDbText
  0
TEXT
  5
30A
330
1F
100
AcDbEntity
  8
0-A_文字
  6
Continuous
 62
     7
370
     9
100
AcDbText
 10
-5219.999523678341
 20
456.0751490824929
 30
0.0
 40
57.15000000000001
  1
Ｆ－ＤＦは縦木目柄、Ｆ－ＤＬは横木目柄のデザインとなります。
 41
0.9999999999999998
  7
ＭＳ ゴシック
100
AcDbText
  0
TEXT
  5
30B
330
1F
100
AcDbEntity
  8
0-A_文字
  6
Continuous
 62
     7
370
     9
100
AcDbText
 10
-2824.99977472666
 20
456.0751490824929
 30
0.0
 40
57.15000000000001
  1
Ｆ－ＤＦは縦木目柄、Ｆ－ＤＬは横木目柄のデザインとなります。
 41
0.9999999999999998
  7
ＭＳ ゴシック
100
AcDbText
  0
TEXT
  5
30C
330
1F
100
AcDbEntity
  8
0-A_文字
  6
Continuous
 62
     7
370
     9
100
AcDbText
 10
-230.0000257749787
 20
456.0751490824929
 30
0.0
 40
57.15000000000001
  1
Ｆ－ＤＦは縦木目柄、Ｆ－ＤＬは横木目柄のデザインとなります。
 41
0.9999999999999998
  7
ＭＳ ゴシック
100
AcDbText
  0
TEXT
  5
30D
330
1F
100
AcDbEntity
  8
0-A_文字
  6
Continuous
 62
     7
370
     9
100
AcDbText
 10
2564.999723176702
 20
456.0751490824929
 30
0.0
 40
57.15000000000001
  1
Ｆ－ＤＦは縦木目柄、Ｆ－ＤＬは横木目柄のデザインとなります。
 41
0.9999999999999998
  7
ＭＳ ゴシック
100
AcDbText
  0
TEXT
  5
30E
330
1F
100
AcDbEntity
  8
0-A_文字
  6
Continuous
 62
     7
370
     9
100
AcDbText
 10
2564.999723176702
 20
-3524.424819575131
 30
0.0
 40
57.15000000000001
  1
Ｆ－ＤＦは縦木目柄、Ｆ－ＤＬは横木目柄のデザインとなります。
 41
0.9999999999999998
  7
ＭＳ ゴシック
100
AcDbText
  0
TEXT
  5
30F
330
1F
100
AcDbEntity
  8
0-A_文字
  6
Continuous
 62
     7
370
     9
100
AcDbText
 10
-230.0000257749787
 20
-3524.424819575131
 30
0.0
 40
57.15000000000001
  1
Ｆ－ＤＦは縦木目柄、Ｆ－ＤＬは横木目柄のデザインとなります。
 41
0.9999999999999998
  7
ＭＳ ゴシック
100
AcDbText
  0
TEXT
  5
310
330
1F
100
AcDbEntity
  8
0-A_文字
  6
Continuous
 62
     7
370
     9
100
AcDbText
 10
-2824.99977472666
 20
-3524.424819575131
 30
0.0
 40
57.15000000000001
  1
Ｆ－ＤＦは縦木目柄、Ｆ－ＤＬは横木目柄のデザインとなります。
 41
0.9999999999999998
  7
ＭＳ ゴシック
100
AcDbText
  0
TEXT
  5
311
330
1F
100
AcDbEntity
  8
0-A_文字
  6
Continuous
 62
     7
370
     9
100
AcDbText
 10
-5219.999523678341
 20
-3524.424819575131
 30
0.0
 40
57.15000000000001
  1
Ｆ－ＤＦは縦木目柄、Ｆ－ＤＬは横木目柄のデザインとなります。
 41
0.9999999999999998
  7
ＭＳ ゴシック
100
AcDbText
  0
TEXT
  5
312
330
1F
100
AcDbEntity
  8
F-A_文字
  6
Continuous
 62
     7
370
     0
100
AcDbText
 10
-5097.546881873193
 20
-4012.309738126533
 30
0.0
 40
68.58
  1
ソフトアート　収納３連引き戸　下加重（レールタイプ）　Ｆ－ＤＦ（縦木目柄)／Ｆ－ＤＬ（横木目柄)
 41
1.164893617021277
  7
ＭＳ ゴシック
100
AcDbText
  0
TEXT
  5
313
330
1F
100
AcDbEntity
  8
F-A_文字
  6
Continuous
 62
     7
370
     9
100
AcDbText
 10
3218.749472128379
 20
-4112.312920515556
 30
0.0
 40
68.58
  1
F30(X)-DFDL_B02
 41
1.155555555555555
  7
ＭＳ ゴシック
100
AcDbText
  0
TEXT
  5
314
330
1F
100
AcDbEntity
  8
F-A_文字
  6
Continuous
 62
     7
370
     0
100
AcDbText
 10
4928.749621409312
 20
-3904.814312188108
 30
0.0
 40
68.58
  1
2018.11.30
 41
1.15
  7
ＭＳ ゴシック
100
AcDbText
  0
ENDSEC
  0
SECTION
  2
OBJECTS
  0
DICTIONARY
  5
C
330
0
100
AcDbDictionary
281
     1
  3
ACAD_DETAILVIEWSTYLE
350
34C
  3
ACAD_GROUP
350
D
  3
ACAD_LAYOUT
350
1A
  3
ACAD_MATERIAL
350
43
  3
ACAD_MLEADERSTYLE
350
6B
  3
ACAD_MLINESTYLE
350
17
  3
ACAD_PLOTSETTINGS
350
19
  3
ACAD_PLOTSTYLENAME
350
E
  3
ACAD_SCALELIST
350
47
  3
ACAD_SECTIONVIEWSTYLE
350
34D
  3
ACAD_TABLESTYLE
350
69
  3
ACAD_VISUALSTYLE
350
2A
  3
ACDB_RECOMPOSE_DATA
350
349
  3
AcDbVariableDictionary
350
315
  0
SUN
  5
6D
330
29
100
AcDbSun
 90
        1
290
     0
 63
     7
421
 16777215
 40
1.0
291
     1
 91
  2455826
 92
 54000000
292
     0
 70
     2
 71
   256
280
     1
  0
DICTIONARY
  5
34C
102
{ACAD_REACTORS
330
C
102
}
330
C
100
AcDbDictionary
281
     1
  0
DICTIONARY
  5
D
102
{ACAD_REACTORS
330
C
102
}
330
C
100
AcDbDictionary
281
     1
  0
DICTIONARY
  5
1A
102
{ACAD_REACTORS
330
C
102
}
330
C
100
AcDbDictionary
281
     1
  3
Layout1
350
1E
  3
Layout2
350
26
  3
Model
350
22
  0
DICTIONARY
  5
43
102
{ACAD_REACTORS
330
C
102
}
330
C
100
AcDbDictionary
281
     1
  3
ByBlock
350
45
  3
ByLayer
350
44
  3
Global
350
46
  0
DICTIONARY
  5
6B
102
{ACAD_REACTORS
330
C
102
}
330
C
100
AcDbDictionary
281
     1
  3
Standard
350
6C
  0
DICTIONARY
  5
17
102
{ACAD_REACTORS
330
C
102
}
330
C
100
AcDbDictionary
281
     1
  3
Standard
350
18
  0
DICTIONARY
  5
19
102
{ACAD_REACTORS
330
C
102
}
330
C
100
AcDbDictionary
281
     1
  0
ACDBDICTIONARYWDFLT
  5
E
102
{ACAD_REACTORS
330
C
102
}
330
C
100
AcDbDictionary
281
     1
  3
Normal
350
F
100
AcDbDictionaryWithDefault
340
F
  0
DICTIONARY
  5
47
102
{ACAD_REACTORS
330
C
102
}
330
C
100
AcDbDictionary
281
     1
  3
A0
350
48
  3
A1
350
49
  3
A2
350
4A
  3
A3
350
4B
  3
A4
350
4C
  3
A5
350
4D
  3
A6
350
4E
  3
A7
350
4F
  3
A8
350
50
  3
A9
350
51
  3
B0
350
52
  3
B1
350
53
  3
B2
350
54
  3
B3
350
55
  3
B4
350
56
  3
B5
350
57
  3
B6
350
58
  3
B7
350
59
  3
B8
350
5A
  3
B9
350
5B
  3
C0
350
5C
  3
C1
350
5D
  3
C2
350
5E
  3
C3
350
5F
  3
C4
350
60
  3
C5
350
61
  3
C6
350
62
  3
C7
350
63
  3
C8
350
64
  3
C9
350
65
  3
D0
350
66
  3
D1
350
67
  3
D2
350
68
  0
DICTIONARY
  5
34D
102
{ACAD_REACTORS
330
C
102
}
330
C
100
AcDbDictionary
281
     1
  0
DICTIONARY
  5
69
102
{ACAD_REACTORS
330
C
102
}
330
C
100
AcDbDictionary
281
     1
  3
Standard
350
6A
  0
DICTIONARY
  5
2A
102
{ACAD_REACTORS
330
C
102
}
330
C
100
AcDbDictionary
281
     1
  3
2dWireframe
350
2F
  3
Basic
350
32
  3
Brighten
350
36
  3
ColorChange
350
3A
  3
Conceptual
350
34
  3
Dim
350
35
  3
EdgeColorOff
350
3D
  3
Facepattern
350
39
  3
Flat
350
2B
  3
FlatWithEdges
350
2C
  3
Gouraud
350
2D
  3
GouraudWithEdges
350
2E
  3
Hidden
350
31
  3
JitterOff
350
3B
  3
Linepattern
350
38
  3
OverhangOff
350
3C
  3
Realistic
350
33
  3
Shaded
350
42
  3
Shaded with edges
350
41
  3
Shades of Gray
350
3E
  3
Sketchy
350
3F
  3
Thicken
350
37
  3
Wireframe
350
30
  3
X-Ray
350
40
  0
XRECORD
  5
349
102
{ACAD_REACTORS
330
C
102
}
330
C
100
AcDbXrecord
280
     1
 90
        1
330
6A
  0
DICTIONARY
  5
315
102
{ACAD_REACTORS
330
C
102
}
330
C
100
AcDbDictionary
281
     1
  3
CANNOSCALE
350
316
  3
CENTEREXE
350
34E
  3
CENTERLTYPEFILE
350
34F
  3
CMLEADERSTYLE
350
34B
  3
CTABLESTYLE
350
34A
  0
LAYOUT
  5
1E
102
{ACAD_REACTORS
330
1A
102
}
330
1A
100
AcDbPlotSettings
  1

  2
none_device
  4

  6

 40
0.0
 41
0.0
 42
0.0
 43
0.0
 44
0.0
 45
0.0
 46
0.0
 47
0.0
 48
0.0
 49
0.0
140
0.0
141
0.0
142
1.0
143
1.0
 70
   688
 72
     1
 73
     0
 74
     5
  7

 75
    16
 76
     0
 77
     5
 78
   300
147
1.0
148
0.0
149
0.0
100
AcDbLayout
  1
Layout1
 70
     1
 71
     1
 10
0.0
 20
0.0
 11
420.0
 21
297.0
 12
0.0
 22
0.0
 32
0.0
 14
1.000000000000000E+20
 24
1.000000000000000E+20
 34
1.000000000000000E+20
 15
-1.000000000000000E+20
 25
-1.000000000000000E+20
 35
-1.000000000000000E+20
146
0.0
 13
0.0
 23
0.0
 33
0.0
 16
1.0
 26
0.0
 36
0.0
 17
0.0
 27
1.0
 37
0.0
 76
     0
330
1B
  0
LAYOUT
  5
26
102
{ACAD_REACTORS
330
1A
102
}
330
1A
100
AcDbPlotSettings
  1

  2
none_device
  4

  6

 40
0.0
 41
0.0
 42
0.0
 43
0.0
 44
0.0
 45
0.0
 46
0.0
 47
0.0
 48
0.0
 49
0.0
140
0.0
141
0.0
142
1.0
143
1.0
 70
   688
 72
     1
 73
     0
 74
     5
  7

 75
    16
 76
     0
 77
     5
 78
   300
147
1.0
148
0.0
149
0.0
100
AcDbLayout
  1
Layout2
 70
     1
 71
     2
 10
0.0
 20
0.0
 11
0.0
 21
0.0
 12
0.0
 22
0.0
 32
0.0
 14
0.0
 24
0.0
 34
0.0
 15
0.0
 25
0.0
 35
0.0
146
0.0
 13
0.0
 23
0.0
 33
0.0
 16
1.0
 26
0.0
 36
0.0
 17
0.0
 27
1.0
 37
0.0
 76
     0
330
23
  0
LAYOUT
  5
22
102
{ACAD_REACTORS
330
1A
102
}
330
1A
100
AcDbPlotSettings
  1

  2
none_device
  4
Letter_(8.50_x_11.00_Inches)
  6

 40
6.35
 41
6.35
 42
6.35000508
 43
6.35000508
 44
215.9
 45
279.4
 46
0.0
 47
0.0
 48
0.0
 49
0.0
140
0.0
141
0.0
142
1.0
143
1.0
 70
  1712
 72
     1
 73
     0
 74
     0
  7

 75
     0
 76
     0
 77
     5
 78
   300
147
1.0
148
0.0
149
0.0
100
AcDbLayout
  1
Model
 70
     1
 71
     0
 10
-6300.0
 20
-4455.0
 11
6300.0
 21
4455.0
 12
0.0
 22
0.0
 32
0.0
 14
-6300.0
 24
-4455.0
 34
0.0
 15
6300.0
 25
4455.0
 35
0.0
146
0.0
 13
0.0
 23
0.0
 33
0.0
 16
1.0
 26
0.0
 36
0.0
 17
0.0
 27
1.0
 37
0.0
 76
     0
330
1F
331
29
  0
MATERIAL
  5
45
102
{ACAD_REACTORS
330
43
102
}
330
43
100
AcDbMaterial
  1
ByBlock
 72
     1
 94
      127
  0
MATERIAL
  5
44
102
{ACAD_REACTORS
330
43
102
}
330
43
100
AcDbMaterial
  1
ByLayer
 72
     1
 94
      127
  0
MATERIAL
  5
46
102
{ACAD_REACTORS
330
43
102
}
330
43
100
AcDbMaterial
  1
Global
 72
     1
 94
      127
  0
MLEADERSTYLE
  5
6C
102
{ACAD_REACTORS
330
6B
102
}
330
6B
100
AcDbMLeaderStyle
179
     2
170
     2
171
     1
172
     0
 90
        2
 40
0.0
 41
0.0
173
     1
 91
-1056964608
340
14
 92
       -2
290
     1
 42
2.0
291
     1
 43
8.0
  3
Standard
341
0
 44
4.0
300

342
11
174
     1
178
     6
175
     1
176
     0
 93
-1056964608
 45
4.0
292
     0
297
     0
 46
4.0
343
0
 94
-1056964608
 47
1.0
 49
1.0
140
1.0
293
     1
141
0.0
294
     1
177
     0
142
1.0
295
     0
296
     0
143
3.75
271
     0
272
     9
273
     9
  0
MLINESTYLE
  5
18
102
{ACAD_REACTORS
330
17
102
}
330
17
100
AcDbMlineStyle
  2
Standard
 70
     0
  3

 62
   256
 51
90.0
 52
90.0
 71
     2
 49
0.5
 62
   256
  6
BYLAYER
 49
-0.5
 62
   256
  6
BYLAYER
  0
ACDBPLACEHOLDER
  5
F
102
{ACAD_REACTORS
330
E
102
}
330
E
  0
SCALE
  5
48
102
{ACAD_REACTORS
330
47
102
}
330
47
100
AcDbScale
 70
     0
300
1:1
140
1.0
141
1.0
290
     1
  0
SCALE
  5
49
102
{ACAD_REACTORS
330
47
102
}
330
47
100
AcDbScale
 70
     0
300
1:2
140
1.0
141
2.0
290
     0
  0
SCALE
  5
4A
102
{ACAD_REACTORS
330
47
102
}
330
47
100
AcDbScale
 70
     0
300
1:4
140
1.0
141
4.0
290
     0
  0
SCALE
  5
4B
102
{ACAD_REACTORS
330
47
102
}
330
47
100
AcDbScale
 70
     0
300
1:5
140
1.0
141
5.0
290
     0
  0
SCALE
  5
4C
102
{ACAD_REACTORS
330
47
102
}
330
47
100
AcDbScale
 70
     0
300
1:8
140
1.0
141
8.0
290
     0
  0
SCALE
  5
4D
102
{ACAD_REACTORS
330
47
102
}
330
47
100
AcDbScale
 70
     0
300
1:10
140
1.0
141
10.0
290
     0
  0
SCALE
  5
4E
102
{ACAD_REACTORS
330
47
102
}
330
47
100
AcDbScale
 70
     0
300
1:16
140
1.0
141
16.0
290
     0
  0
SCALE
  5
4F
102
{ACAD_REACTORS
330
47
102
}
330
47
100
AcDbScale
 70
     0
300
1:20
140
1.0
141
20.0
290
     0
  0
SCALE
  5
50
102
{ACAD_REACTORS
330
47
102
}
330
47
100
AcDbScale
 70
     0
300
1:30
140
1.0
141
30.0
290
     0
  0
SCALE
  5
51
102
{ACAD_REACTORS
330
47
102
}
330
47
100
AcDbScale
 70
     0
300
1:40
140
1.0
141
40.0
290
     0
  0
SCALE
  5
52
102
{ACAD_REACTORS
330
47
102
}
330
47
100
AcDbScale
 70
     0
300
1:50
140
1.0
141
50.0
290
     0
  0
SCALE
  5
53
102
{ACAD_REACTORS
330
47
102
}
330
47
100
AcDbScale
 70
     0
300
1:100
140
1.0
141
100.0
290
     0
  0
SCALE
  5
54
102
{ACAD_REACTORS
330
47
102
}
330
47
100
AcDbScale
 70
     0
300
2:1
140
2.0
141
1.0
290
     0
  0
SCALE
  5
55
102
{ACAD_REACTORS
330
47
102
}
330
47
100
AcDbScale
 70
     0
300
4:1
140
4.0
141
1.0
290
     0
  0
SCALE
  5
56
102
{ACAD_REACTORS
330
47
102
}
330
47
100
AcDbScale
 70
     0
300
8:1
140
8.0
141
1.0
290
     0
  0
SCALE
  5
57
102
{ACAD_REACTORS
330
47
102
}
330
47
100
AcDbScale
 70
     0
300
10:1
140
10.0
141
1.0
290
     0
  0
SCALE
  5
58
102
{ACAD_REACTORS
330
47
102
}
330
47
100
AcDbScale
 70
     0
300
100:1
140
100.0
141
1.0
290
     0
  0
SCALE
  5
59
102
{ACAD_REACTORS
330
47
102
}
330
47
100
AcDbScale
 70
     0
300
1/128" = 1'-0"
140
0.0078125
141
12.0
290
     0
  0
SCALE
  5
5A
102
{ACAD_REACTORS
330
47
102
}
330
47
100
AcDbScale
 70
     0
300
1/64" = 1'-0"
140
0.015625
141
12.0
290
     0
  0
SCALE
  5
5B
102
{ACAD_REACTORS
330
47
102
}
330
47
100
AcDbScale
 70
     0
300
1/32" = 1'-0"
140
0.03125
141
12.0
290
     0
  0
SCALE
  5
5C
102
{ACAD_REACTORS
330
47
102
}
330
47
100
AcDbScale
 70
     0
300
1/16" = 1'-0"
140
0.0625
141
12.0
290
     0
  0
SCALE
  5
5D
102
{ACAD_REACTORS
330
47
102
}
330
47
100
AcDbScale
 70
     0
300
3/32" = 1'-0"
140
0.09375
141
12.0
290
     0
  0
SCALE
  5
5E
102
{ACAD_REACTORS
330
47
102
}
330
47
100
AcDbScale
 70
     0
300
1/8" = 1'-0"
140
0.125
141
12.0
290
     0
  0
SCALE
  5
5F
102
{ACAD_REACTORS
330
47
102
}
330
47
100
AcDbScale
 70
     0
300
3/16" = 1'-0"
140
0.1875
141
12.0
290
     0
  0
SCALE
  5
60
102
{ACAD_REACTORS
330
47
102
}
330
47
100
AcDbScale
 70
     0
300
1/4" = 1'-0"
140
0.25
141
12.0
290
     0
  0
SCALE
  5
61
102
{ACAD_REACTORS
330
47
102
}
330
47
100
AcDbScale
 70
     0
300
3/8" = 1'-0"
140
0.375
141
12.0
290
     0
  0
SCALE
  5
62
102
{ACAD_REACTORS
330
47
102
}
330
47
100
AcDbScale
 70
     0
300
1/2" = 1'-0"
140
0.5
141
12.0
290
     0
  0
SCALE
  5
63
102
{ACAD_REACTORS
330
47
102
}
330
47
100
AcDbScale
 70
     0
300
3/4" = 1'-0"
140
0.75
141
12.0
290
     0
  0
SCALE
  5
64
102
{ACAD_REACTORS
330
47
102
}
330
47
100
AcDbScale
 70
     0
300
1" = 1'-0"
140
1.0
141
12.0
290
     0
  0
SCALE
  5
65
102
{ACAD_REACTORS
330
47
102
}
330
47
100
AcDbScale
 70
     0
300
1-1/2" = 1'-0"
140
1.5
141
12.0
290
     0
  0
SCALE
  5
66
102
{ACAD_REACTORS
330
47
102
}
330
47
100
AcDbScale
 70
     0
300
3" = 1'-0"
140
3.0
141
12.0
290
     0
  0
SCALE
  5
67
102
{ACAD_REACTORS
330
47
102
}
330
47
100
AcDbScale
 70
     0
300
6" = 1'-0"
140
6.0
141
12.0
290
     0
  0
SCALE
  5
68
102
{ACAD_REACTORS
330
47
102
}
330
47
100
AcDbScale
 70
     0
300
1'-0" = 1'-0"
140
12.0
141
12.0
290
     0
  0
TABLESTYLE
  5
6A
102
{ACAD_REACTORS
330
69
102
}
102
{ACAD_XDICTIONARY
360
347
102
}
330
69
100
AcDbTableStyle
  3
Standard
 70
     0
 71
     0
 40
0.06
 41
0.06
280
     0
281
     0
  7
Standard
140
4.5
170
     2
 62
     0
 63
   257
283
     0
 90
        4
 91
        0
  1

274
    -2
284
     1
 64
     0
275
    -2
285
     1
 65
     0
276
    -2
286
     1
 66
     0
277
    -2
287
     1
 67
     0
278
    -2
288
     1
 68
     0
279
    -2
289
     1
 69
     0
  7
Standard
140
6.0
170
     5
 62
     0
 63
   257
283
     0
 90
        4
 91
        0
  1

274
    -2
284
     1
 64
     0
275
    -2
285
     1
 65
     0
276
    -2
286
     1
 66
     0
277
    -2
287
     1
 67
     0
278
    -2
288
     1
 68
     0
279
    -2
289
     1
 69
     0
  7
Standard
140
4.5
170
     5
 62
     0
 63
   257
283
     0
 90
        4
 91
        0
  1

274
    -2
284
     1
 64
     0
275
    -2
285
     1
 65
     0
276
    -2
286
     1
 66
     0
277
    -2
287
     1
 67
     0
278
    -2
288
     1
 68
     0
279
    -2
289
     1
 69
     0
  0
VISUALSTYLE
  5
2F
102
{ACAD_REACTORS
330
2A
102
}
102
{ACAD_XDICTIONARY
360
31F
102
}
330
2A
100
AcDbVisualStyle
  2
2dWireframe
 70
     4
177
     2
291
     0
 71
     0
176
     1
 72
     2
176
     1
 73
     0
176
     1
 90
        0
176
     1
 40
0.6
176
     1
 41
30.0
176
     1
 62
     5
 63
     7
421
 16777215
176
     1
 74
     1
176
     1
 91
        4
176
     1
 64
     7
176
     1
 65
   257
176
     1
 75
     1
176
     1
175
     1
176
     1
 42
1.0
176
     1
 92
        0
176
     1
 66
   257
176
     1
 43
1.0
176
     1
 76
     1
176
     1
 77
     6
176
     1
 78
     2
176
     1
 67
     7
176
     1
 79
     5
176
     1
170
     0
176
     1
171
     0
176
     1
290
     0
176
     1
 93
        1
176
     1
 44
0.0
176
     1
173
     0
176
     1
  0
VISUALSTYLE
  5
32
102
{ACAD_REACTORS
330
2A
102
}
102
{ACAD_XDICTIONARY
360
325
102
}
330
2A
100
AcDbVisualStyle
  2
Basic
 70
     7
177
     2
291
     1
 71
     1
176
     1
 72
     0
176
     1
 73
     1
176
     1
 90
        0
176
     1
 40
0.6
176
     1
 41
30.0
176
     1
 62
     5
 63
     7
421
 16777215
176
     1
 74
     0
176
     1
 91
        4
176
     1
 64
     7
176
     1
 65
   257
176
     1
 75
     1
176
     1
175
     1
176
     1
 42
1.0
176
     1
 92
        8
176
     1
 66
     7
176
     1
 43
1.0
176
     1
 76
     1
176
     1
 77
     6
176
     1
 78
     2
176
     1
 67
     7
176
     1
 79
     5
176
     1
170
     0
176
     1
171
     0
176
     1
290
     0
176
     1
 93
        1
176
     1
 44
0.0
176
     1
173
     0
176
     1
  0
VISUALSTYLE
  5
36
102
{ACAD_REACTORS
330
2A
102
}
102
{ACAD_XDICTIONARY
360
32D
102
}
330
2A
100
AcDbVisualStyle
  2
Brighten
 70
    12
177
     2
291
     1
 71
     2
176
     1
 72
     2
176
     1
 73
     0
176
     1
 90
        0
176
     1
 40
0.6
176
     1
 41
30.0
176
     1
 62
     5
 63
     7
421
 16777215
176
     1
 74
     1
176
     1
 91
        4
176
     1
 64
     7
176
     1
 65
   257
176
     1
 75
     1
176
     1
175
     1
176
     1
 42
1.0
176
     1
 92
        8
176
     1
 66
     7
176
     1
 43
1.0
176
     1
 76
     1
176
     1
 77
     6
176
     1
 78
     2
176
     1
 67
     7
176
     1
 79
     5
176
     1
170
     0
176
     1
171
     0
176
     1
290
     0
176
     1
 93
        1
176
     1
 44
50.0
176
     1
173
     0
176
     1
  0
VISUALSTYLE
  5
3A
102
{ACAD_REACTORS
330
2A
102
}
102
{ACAD_XDICTIONARY
360
335
102
}
330
2A
100
AcDbVisualStyle
  2
ColorChange
 70
    16
177
     2
291
     1
 71
     2
176
     1
 72
     2
176
     1
 73
     3
176
     1
 90
        0
176
     1
 40
0.6
176
     1
 41
30.0
176
     1
 62
     5
 63
     8
421
  8421504
176
     1
 74
     1
176
     1
 91
        4
176
     1
 64
     7
176
     1
 65
   257
176
     1
 75
     1
176
     1
175
     1
176
     1
 42
1.0
176
     1
 92
        8
176
     1
 66
     8
424
  8421504
176
     1
 43
1.0
176
     1
 76
     1
176
     1
 77
     6
176
     1
 78
     2
176
     1
 67
     7
176
     1
 79
     5
176
     1
170
     0
176
     1
171
     0
176
     1
290
     0
176
     1
 93
        1
176
     1
 44
0.0
176
     1
173
     0
176
     1
  0
VISUALSTYLE
  5
34
102
{ACAD_REACTORS
330
2A
102
}
102
{ACAD_XDICTIONARY
360
329
102
}
330
2A
100
AcDbVisualStyle
  2
Conceptual
 70
     9
177
     2
291
     0
 71
     3
176
     1
 72
     2
176
     1
 73
     0
176
     1
 90
        0
176
     1
 40
0.6
176
     1
 41
30.0
176
     1
 62
     5
 63
     7
421
 16777215
176
     1
 74
     2
176
     1
 91
        2
176
     1
 64
     7
176
     1
 65
   257
176
     1
 75
     1
176
     1
175
     1
176
     1
 42
179.0
176
     1
 92
        8
176
     1
 66
     7
176
     1
 43
1.0
176
     1
 76
     1
176
     1
 77
     6
176
     1
 78
     2
176
     1
 67
     7
176
     1
 79
     3
176
     1
170
     0
176
     1
171
     0
176
     1
290
     0
176
     1
 93
        1
176
     1
 44
0.0
176
     1
173
     0
176
     1
  0
VISUALSTYLE
  5
35
102
{ACAD_REACTORS
330
2A
102
}
102
{ACAD_XDICTIONARY
360
32B
102
}
330
2A
100
AcDbVisualStyle
  2
Dim
 70
    11
177
     2
291
     1
 71
     2
176
     1
 72
     2
176
     1
 73
     0
176
     1
 90
        0
176
     1
 40
0.6
176
     1
 41
30.0
176
     1
 62
     5
 63
     7
421
 16777215
176
     1
 74
     1
176
     1
 91
        4
176
     1
 64
     7
176
     1
 65
   257
176
     1
 75
     1
176
     1
175
     1
176
     1
 42
1.0
176
     1
 92
        8
176
     1
 66
     7
176
     1
 43
1.0
176
     1
 76
     1
176
     1
 77
     6
176
     1
 78
     2
176
     1
 67
     7
176
     1
 79
     5
176
     1
170
     0
176
     1
171
     0
176
     1
290
     0
176
     1
 93
        1
176
     1
 44
-50.0
176
     1
173
     0
176
     1
  0
VISUALSTYLE
  5
3D
102
{ACAD_REACTORS
330
2A
102
}
102
{ACAD_XDICTIONARY
360
33B
102
}
330
2A
100
AcDbVisualStyle
  2
EdgeColorOff
 70
    22
177
     2
291
     1
 71
     2
176
     0
 72
     2
176
     0
 73
     0
176
     0
 90
        0
176
     0
 40
0.6
176
     0
 41
30.0
176
     0
 62
     5
 63
     7
421
 16777215
176
     0
 74
     1
176
     0
 91
        4
176
     0
 64
     7
176
     0
 65
   257
176
     0
 75
     1
176
     0
175
     1
176
     0
 42
1.0
176
     0
 92
        8
176
     2
 66
     7
176
     0
 43
1.0
176
     0
 76
     1
176
     0
 77
     6
176
     0
 78
     2
176
     0
 67
     7
176
     0
 79
     5
176
     0
170
     0
176
     0
171
     0
176
     0
290
     0
176
     0
 93
        1
176
     0
 44
0.0
176
     0
173
     0
176
     0
  0
VISUALSTYLE
  5
39
102
{ACAD_REACTORS
330
2A
102
}
102
{ACAD_XDICTIONARY
360
333
102
}
330
2A
100
AcDbVisualStyle
  2
Facepattern
 70
    15
177
     2
291
     1
 71
     2
176
     1
 72
     2
176
     1
 73
     0
176
     1
 90
        0
176
     1
 40
0.6
176
     1
 41
30.0
176
     1
 62
     5
 63
     7
421
 16777215
176
     1
 74
     1
176
     1
 91
        4
176
     1
 64
     7
176
     1
 65
   257
176
     1
 75
     1
176
     1
175
     1
176
     1
 42
1.0
176
     1
 92
        8
176
     1
 66
     7
176
     1
 43
1.0
176
     1
 76
     1
176
     1
 77
     6
176
     1
 78
     2
176
     1
 67
     7
176
     1
 79
     5
176
     1
170
     0
176
     1
171
     0
176
     1
290
     0
176
     1
 93
        1
176
     1
 44
0.0
176
     1
173
     0
176
     1
  0
VISUALSTYLE
  5
2B
102
{ACAD_REACTORS
330
2A
102
}
102
{ACAD_XDICTIONARY
360
317
102
}
330
2A
100
AcDbVisualStyle
  2
Flat
 70
     0
177
     2
291
     1
 71
     2
176
     1
 72
     1
176
     1
 73
     1
176
     1
 90
        2
176
     1
 40
0.6
176
     1
 41
30.0
176
     1
 62
     5
 63
     7
421
 16777215
176
     1
 74
     0
176
     1
 91
        0
176
     1
 64
     7
176
     1
 65
   257
176
     1
 75
     1
176
     1
175
     1
176
     1
 42
1.0
176
     1
 92
        8
176
     1
 66
     7
176
     1
 43
1.0
176
     1
 76
     1
176
     1
 77
     6
176
     1
 78
     2
176
     1
 67
     7
176
     1
 79
     5
176
     1
170
     0
176
     1
171
     0
176
     1
290
     0
176
     1
 93
       13
176
     1
 44
0.0
176
     1
173
     0
176
     1
  0
VISUALSTYLE
  5
2C
102
{ACAD_REACTORS
330
2A
102
}
102
{ACAD_XDICTIONARY
360
319
102
}
330
2A
100
AcDbVisualStyle
  2
FlatWithEdges
 70
     1
177
     2
291
     1
 71
     2
176
     1
 72
     1
176
     1
 73
     1
176
     1
 90
        2
176
     1
 40
0.6
176
     1
 41
30.0
176
     1
 62
     5
 63
     7
421
 16777215
176
     1
 74
     1
176
     1
 91
        0
176
     1
 64
     7
176
     1
 65
   257
176
     1
 75
     1
176
     1
175
     1
176
     1
 42
1.0
176
     1
 92
        0
176
     1
 66
   257
176
     1
 43
1.0
176
     1
 76
     1
176
     1
 77
     6
176
     1
 78
     2
176
     1
 67
     7
176
     1
 79
     5
176
     1
170
     0
176
     1
171
     0
176
     1
290
     0
176
     1
 93
       13
176
     1
 44
0.0
176
     1
173
     0
176
     1
  0
VISUALSTYLE
  5
2D
102
{ACAD_REACTORS
330
2A
102
}
102
{ACAD_XDICTIONARY
360
31B
102
}
330
2A
100
AcDbVisualStyle
  2
Gouraud
 70
     2
177
     2
291
     1
 71
     2
176
     1
 72
     2
176
     1
 73
     1
176
     1
 90
        2
176
     1
 40
0.6
176
     1
 41
30.0
176
     1
 62
     5
 63
     7
421
 16777215
176
     1
 74
     0
176
     1
 91
        0
176
     1
 64
     7
176
     1
 65
   257
176
     1
 75
     1
176
     1
175
     1
176
     1
 42
1.0
176
     1
 92
        0
176
     1
 66
     7
176
     1
 43
1.0
176
     1
 76
     1
176
     1
 77
     6
176
     1
 78
     2
176
     1
 67
     7
176
     1
 79
     5
176
     1
170
     0
176
     1
171
     0
176
     1
290
     0
176
     1
 93
       13
176
     1
 44
0.0
176
     1
173
     0
176
     1
  0
VISUALSTYLE
  5
2E
102
{ACAD_REACTORS
330
2A
102
}
102
{ACAD_XDICTIONARY
360
31D
102
}
330
2A
100
AcDbVisualStyle
  2
GouraudWithEdges
 70
     3
177
     2
291
     1
 71
     2
176
     1
 72
     2
176
     1
 73
     1
176
     1
 90
        2
176
     1
 40
0.6
176
     1
 41
30.0
176
     1
 62
     5
 63
     7
421
 16777215
176
     1
 74
     1
176
     1
 91
        0
176
     1
 64
     7
176
     1
 65
   257
176
     1
 75
     1
176
     1
175
     1
176
     1
 42
1.0
176
     1
 92
        0
176
     1
 66
   257
176
     1
 43
1.0
176
     1
 76
     1
176
     1
 77
     6
176
     1
 78
     2
176
     1
 67
     7
176
     1
 79
     5
176
     1
170
     0
176
     1
171
     0
176
     1
290
     0
176
     1
 93
       13
176
     1
 44
0.0
176
     1
173
     0
176
     1
  0
VISUALSTYLE
  5
31
102
{ACAD_REACTORS
330
2A
102
}
102
{ACAD_XDICTIONARY
360
323
102
}
330
2A
100
AcDbVisualStyle
  2
Hidden
 70
     6
177
     2
291
     0
 71
     1
176
     1
 72
     2
176
     1
 73
     2
176
     1
 90
        0
176
     1
 40
0.6
176
     1
 41
30.0
176
     1
 62
     5
 63
     7
421
 16777215
176
     1
 74
     2
176
     1
 91
        2
176
     1
 64
     7
176
     1
 65
   257
176
     1
 75
     2
176
     1
175
     1
176
     1
 42
40.0
176
     1
 92
        0
176
     1
 66
   257
176
     1
 43
1.0
176
     1
 76
     1
176
     1
 77
     6
176
     1
 78
     2
176
     1
 67
     7
176
     1
 79
     3
176
     1
170
     0
176
     1
171
     0
176
     1
290
     0
176
     1
 93
        1
176
     1
 44
0.0
176
     1
173
     0
176
     1
  0
VISUALSTYLE
  5
3B
102
{ACAD_REACTORS
330
2A
102
}
102
{ACAD_XDICTIONARY
360
337
102
}
330
2A
100
AcDbVisualStyle
  2
JitterOff
 70
    20
177
     2
291
     1
 71
     2
176
     0
 72
     2
176
     0
 73
     0
176
     0
 90
        0
176
     0
 40
0.6
176
     0
 41
30.0
176
     0
 62
     5
 63
     7
421
 16777215
176
     0
 74
     1
176
     0
 91
        4
176
     0
 64
     7
176
     0
 65
   257
176
     0
 75
     1
176
     0
175
     1
176
     0
 42
1.0
176
     0
 92
       10
176
     2
 66
     7
176
     0
 43
1.0
176
     0
 76
     1
176
     0
 77
     6
176
     0
 78
     2
176
     0
 67
     7
176
     0
 79
     5
176
     0
170
     0
176
     0
171
     0
176
     0
290
     0
176
     0
 93
        1
176
     0
 44
0.0
176
     0
173
     0
176
     0
  0
VISUALSTYLE
  5
38
102
{ACAD_REACTORS
330
2A
102
}
102
{ACAD_XDICTIONARY
360
331
102
}
330
2A
100
AcDbVisualStyle
  2
Linepattern
 70
    14
177
     2
291
     1
 71
     2
176
     1
 72
     2
176
     1
 73
     0
176
     1
 90
        0
176
     1
 40
0.6
176
     1
 41
30.0
176
     1
 62
     5
 63
     7
421
 16777215
176
     1
 74
     1
176
     1
 91
        4
176
     1
 64
     7
176
     1
 65
   257
176
     1
 75
     7
176
     1
175
     7
176
     1
 42
1.0
176
     1
 92
        8
176
     1
 66
     7
176
     1
 43
1.0
176
     1
 76
     1
176
     1
 77
     6
176
     1
 78
     2
176
     1
 67
     7
176
     1
 79
     5
176
     1
170
     0
176
     1
171
     0
176
     1
290
     0
176
     1
 93
        1
176
     1
 44
0.0
176
     1
173
     0
176
     1
  0
VISUALSTYLE
  5
3C
102
{ACAD_REACTORS
330
2A
102
}
102
{ACAD_XDICTIONARY
360
339
102
}
330
2A
100
AcDbVisualStyle
  2
OverhangOff
 70
    21
177
     2
291
     1
 71
     2
176
     0
 72
     2
176
     0
 73
     0
176
     0
 90
        0
176
     0
 40
0.6
176
     0
 41
30.0
176
     0
 62
     5
 63
     7
421
 16777215
176
     0
 74
     1
176
     0
 91
        4
176
     0
 64
     7
176
     0
 65
   257
176
     0
 75
     1
176
     0
175
     1
176
     0
 42
1.0
176
     0
 92
        9
176
     2
 66
     7
176
     0
 43
1.0
176
     0
 76
     1
176
     0
 77
     6
176
     0
 78
     2
176
     0
 67
     7
176
     0
 79
     5
176
     0
170
     0
176
     0
171
     0
176
     0
290
     0
176
     0
 93
        1
176
     0
 44
0.0
176
     0
173
     0
176
     0
  0
VISUALSTYLE
  5
33
102
{ACAD_REACTORS
330
2A
102
}
102
{ACAD_XDICTIONARY
360
327
102
}
330
2A
100
AcDbVisualStyle
  2
Realistic
 70
     8
177
     2
291
     0
 71
     2
176
     1
 72
     3
176
     1
 73
     0
176
     1
 90
        2
176
     1
 40
0.6
176
     1
 41
30.0
176
     1
 62
     5
 63
     7
421
 16777215
176
     1
 74
     0
176
     1
 91
        0
176
     1
 64
     7
176
     1
 65
   257
176
     1
 75
     1
176
     1
175
     1
176
     1
 42
1.0
176
     1
 92
        8
176
     1
 66
   257
176
     1
 43
1.0
176
     1
 76
     1
176
     1
 77
     6
176
     1
 78
     2
176
     1
 67
     7
176
     1
 79
     3
176
     1
170
     0
176
     1
171
     0
176
     1
290
     0
176
     1
 93
       13
176
     1
 44
0.0
176
     1
173
     0
176
     1
  0
VISUALSTYLE
  5
42
102
{ACAD_REACTORS
330
2A
102
}
102
{ACAD_XDICTIONARY
360
345
102
}
330
2A
100
AcDbVisualStyle
  2
Shaded
 70
    27
177
     2
291
     0
 71
     2
176
     1
 72
     2
176
     1
 73
     1
176
     1
 90
        2
176
     1
 40
0.6
176
     1
 41
30.0
176
     1
 62
     5
 63
     7
421
 16777215
176
     1
 74
     0
176
     1
 91
        4
176
     1
 64
     7
176
     1
 65
   257
176
     1
 75
     1
176
     1
175
     1
176
     1
 42
1.0
176
     1
 92
        8
176
     1
 66
   257
176
     1
 43
1.0
176
     1
 76
     1
176
     1
 77
     6
176
     1
 78
     2
176
     1
 67
     8
425
  7895160
176
     1
 79
     3
176
     1
170
     0
176
     1
171
     0
176
     1
290
     0
176
     1
 93
        5
176
     1
 44
0.0
176
     1
173
     0
176
     1
  0
VISUALSTYLE
  5
41
102
{ACAD_REACTORS
330
2A
102
}
102
{ACAD_XDICTIONARY
360
343
102
}
330
2A
100
AcDbVisualStyle
  2
Shaded with edges
 70
    26
177
     2
291
     0
 71
     2
176
     1
 72
     2
176
     1
 73
     1
176
     1
 90
        2
176
     1
 40
0.6
176
     1
 41
30.0
176
     1
 62
     5
 63
     7
421
 16777215
176
     1
 74
     1
176
     1
 91
       10
176
     1
 64
     7
176
     1
 65
   257
176
     1
 75
     2
176
     1
175
     1
176
     1
 42
1.0
176
     1
 92
        8
176
     1
 66
   257
176
     1
 43
1.0
176
     1
 76
     1
176
     1
 77
     6
176
     1
 78
     2
176
     1
 67
     7
176
     1
 79
     3
176
     1
170
     0
176
     1
171
     0
176
     1
290
     0
176
     1
 93
        5
176
     1
 44
0.0
176
     1
173
     0
176
     1
  0
VISUALSTYLE
  5
3E
102
{ACAD_REACTORS
330
2A
102
}
102
{ACAD_XDICTIONARY
360
33D
102
}
330
2A
100
AcDbVisualStyle
  2
Shades of Gray
 70
    23
177
     2
291
     0
 71
     2
176
     1
 72
     2
176
     1
 73
     3
176
     1
 90
        0
176
     1
 40
0.6
176
     1
 41
30.0
176
     1
 62
     5
 63
     7
421
 16777215
176
     1
 74
     2
176
     1
 91
        2
176
     1
 64
     7
176
     1
 65
     7
176
     1
 75
     1
176
     1
175
     1
176
     1
 42
40.0
176
     1
 92
        8
176
     1
 66
     7
176
     1
 43
1.0
176
     1
 76
     1
176
     1
 77
     6
176
     1
 78
     2
176
     1
 67
     7
176
     1
 79
     3
176
     1
170
     0
176
     1
171
     0
176
     1
290
     0
176
     1
 93
        1
176
     1
 44
0.0
176
     1
173
     0
176
     1
  0
VISUALSTYLE
  5
3F
102
{ACAD_REACTORS
330
2A
102
}
102
{ACAD_XDICTIONARY
360
33F
102
}
330
2A
100
AcDbVisualStyle
  2
Sketchy
 70
    24
177
     2
291
     0
 71
     1
176
     1
 72
     2
176
     1
 73
     2
176
     1
 90
        0
176
     1
 40
0.6
176
     1
 41
30.0
176
     1
 62
     5
 63
     7
421
 16777215
176
     1
 74
     2
176
     1
 91
        2
176
     1
 64
     7
176
     1
 65
     7
176
     1
 75
     1
176
     1
175
     1
176
     1
 42
40.0
176
     1
 92
       11
176
     1
 66
     7
176
     1
 43
1.0
176
     1
 76
     1
176
     1
 77
     6
176
     1
 78
     2
176
     1
 67
     7
176
     1
 79
     6
176
     1
170
     0
176
     1
171
     0
176
     1
290
     0
176
     1
 93
        1
176
     1
 44
0.0
176
     1
173
     0
176
     1
  0
VISUALSTYLE
  5
37
102
{ACAD_REACTORS
330
2A
102
}
102
{ACAD_XDICTIONARY
360
32F
102
}
330
2A
100
AcDbVisualStyle
  2
Thicken
 70
    13
177
     2
291
     1
 71
     2
176
     1
 72
     2
176
     1
 73
     0
176
     1
 90
        0
176
     1
 40
0.6
176
     1
 41
30.0
176
     1
 62
     5
 63
     7
421
 16777215
176
     1
 74
     1
176
     1
 91
        4
176
     1
 64
     7
176
     1
 65
   257
176
     1
 75
     1
176
     1
175
     1
176
     1
 42
1.0
176
     1
 92
       12
176
     1
 66
     7
176
     1
 43
1.0
176
     1
 76
     1
176
     1
 77
     6
176
     1
 78
     2
176
     1
 67
     7
176
     1
 79
     5
176
     1
170
     0
176
     1
171
     0
176
     1
290
     0
176
     1
 93
        1
176
     1
 44
0.0
176
     1
173
     0
176
     1
  0
VISUALSTYLE
  5
30
102
{ACAD_REACTORS
330
2A
102
}
102
{ACAD_XDICTIONARY
360
321
102
}
330
2A
100
AcDbVisualStyle
  2
Wireframe
 70
     5
177
     2
291
     0
 71
     0
176
     1
 72
     2
176
     1
 73
     0
176
     1
 90
        0
176
     1
 40
0.6
176
     1
 41
30.0
176
     1
 62
     5
 63
     7
421
 16777215
176
     1
 74
     1
176
     1
 91
        4
176
     1
 64
     7
176
     1
 65
   257
176
     1
 75
     1
176
     1
175
     1
176
     1
 42
1.0
176
     1
 92
        0
176
     1
 66
   257
176
     1
 43
1.0
176
     1
 76
     1
176
     1
 77
     6
176
     1
 78
     2
176
     1
 67
     7
176
     1
 79
     3
176
     1
170
     0
176
     1
171
     0
176
     1
290
     0
176
     1
 93
        1
176
     1
 44
0.0
176
     1
173
     0
176
     1
  0
VISUALSTYLE
  5
40
102
{ACAD_REACTORS
330
2A
102
}
102
{ACAD_XDICTIONARY
360
341
102
}
330
2A
100
AcDbVisualStyle
  2
X-Ray
 70
    25
177
     2
291
     0
 71
     2
176
     1
 72
     2
176
     1
 73
     1
176
     1
 90
        1
176
     1
 40
0.5
176
     1
 41
30.0
176
     1
 62
     5
 63
     7
421
 16777215
176
     1
 74
     1
176
     1
 91
        0
176
     1
 64
     7
176
     1
 65
   257
176
     1
 75
     1
176
     1
175
     1
176
     1
 42
1.0
176
     1
 92
        8
176
     1
 66
     7
176
     1
 43
1.0
176
     1
 76
     1
176
     1
 77
     6
176
     1
 78
     2
176
     1
 67
     7
176
     1
 79
     3
176
     1
170
     0
176
     1
171
     0
176
     1
290
     0
176
     1
 93
       13
176
     1
 44
0.0
176
     1
173
     0
176
     1
  0
DICTIONARYVAR
  5
316
102
{ACAD_REACTORS
330
315
102
}
330
315
100
DictionaryVariables
280
     0
  1
1:1
  0
DICTIONARYVAR
  5
34E
102
{ACAD_REACTORS
330
315
102
}
330
315
100
DictionaryVariables
280
     0
  1
3.500000
  0
DICTIONARYVAR
  5
34F
102
{ACAD_REACTORS
330
315
102
}
330
315
100
DictionaryVariables
280
     0
  1
acadiso.lin
  0
DICTIONARYVAR
  5
34B
102
{ACAD_REACTORS
330
315
102
}
330
315
100
DictionaryVariables
280
     0
  1
Standard
  0
DICTIONARYVAR
  5
34A
102
{ACAD_REACTORS
330
315
102
}
330
315
100
DictionaryVariables
280
     0
  1
Standard
  0
DICTIONARY
  5
347
330
6A
100
AcDbDictionary
280
     1
281
     1
  3
ACAD_ROUNDTRIP_2008_TABLESTYLE_CELLSTYLEMAP
360
348
  0
DICTIONARY
  5
31F
330
2F
100
AcDbDictionary
280
     1
281
     1
  3
ACAD_XREC_ROUNDTRIP
360
320
  0
DICTIONARY
  5
325
330
32
100
AcDbDictionary
280
     1
281
     1
  3
ACAD_XREC_ROUNDTRIP
360
326
  0
DICTIONARY
  5
32D
330
36
100
AcDbDictionary
280
     1
281
     1
  3
ACAD_XREC_ROUNDTRIP
360
32E
  0
DICTIONARY
  5
335
330
3A
100
AcDbDictionary
280
     1
281
     1
  3
ACAD_XREC_ROUNDTRIP
360
336
  0
DICTIONARY
  5
329
330
34
100
AcDbDictionary
280
     1
281
     1
  3
ACAD_XREC_ROUNDTRIP
360
32A
  0
DICTIONARY
  5
32B
330
35
100
AcDbDictionary
280
     1
281
     1
  3
ACAD_XREC_ROUNDTRIP
360
32C
  0
DICTIONARY
  5
33B
330
3D
100
AcDbDictionary
280
     1
281
     1
  3
ACAD_XREC_ROUNDTRIP
360
33C
  0
DICTIONARY
  5
333
330
39
100
AcDbDictionary
280
     1
281
     1
  3
ACAD_XREC_ROUNDTRIP
360
334
  0
DICTIONARY
  5
317
330
2B
100
AcDbDictionary
280
     1
281
     1
  3
ACAD_XREC_ROUNDTRIP
360
318
  0
DICTIONARY
  5
319
330
2C
100
AcDbDictionary
280
     1
281
     1
  3
ACAD_XREC_ROUNDTRIP
360
31A
  0
DICTIONARY
  5
31B
330
2D
100
AcDbDictionary
280
     1
281
     1
  3
ACAD_XREC_ROUNDTRIP
360
31C
  0
DICTIONARY
  5
31D
330
2E
100
AcDbDictionary
280
     1
281
     1
  3
ACAD_XREC_ROUNDTRIP
360
31E
  0
DICTIONARY
  5
323
330
31
100
AcDbDictionary
280
     1
281
     1
  3
ACAD_XREC_ROUNDTRIP
360
324
  0
DICTIONARY
  5
337
330
3B
100
AcDbDictionary
280
     1
281
     1
  3
ACAD_XREC_ROUNDTRIP
360
338
  0
DICTIONARY
  5
331
330
38
100
AcDbDictionary
280
     1
281
     1
  3
ACAD_XREC_ROUNDTRIP
360
332
  0
DICTIONARY
  5
339
330
3C
100
AcDbDictionary
280
     1
281
     1
  3
ACAD_XREC_ROUNDTRIP
360
33A
  0
DICTIONARY
  5
327
330
33
100
AcDbDictionary
280
     1
281
     1
  3
ACAD_XREC_ROUNDTRIP
360
328
  0
DICTIONARY
  5
345
330
42
100
AcDbDictionary
280
     1
281
     1
  3
ACAD_XREC_ROUNDTRIP
360
346
  0
DICTIONARY
  5
343
330
41
100
AcDbDictionary
280
     1
281
     1
  3
ACAD_XREC_ROUNDTRIP
360
344
  0
DICTIONARY
  5
33D
330
3E
100
AcDbDictionary
280
     1
281
     1
  3
ACAD_XREC_ROUNDTRIP
360
33E
  0
DICTIONARY
  5
33F
330
3F
100
AcDbDictionary
280
     1
281
     1
  3
ACAD_XREC_ROUNDTRIP
360
340
  0
DICTIONARY
  5
32F
330
37
100
AcDbDictionary
280
     1
281
     1
  3
ACAD_XREC_ROUNDTRIP
360
330
  0
DICTIONARY
  5
321
330
30
100
AcDbDictionary
280
     1
281
     1
  3
ACAD_XREC_ROUNDTRIP
360
322
  0
DICTIONARY
  5
341
330
40
100
AcDbDictionary
280
     1
281
     1
  3
ACAD_XREC_ROUNDTRIP
360
342
  0
CELLSTYLEMAP
  5
348
102
{ACAD_REACTORS
330
347
102
}
330
347
100
AcDbCellStyleMap
 90
        3
300
CELLSTYLE
  1
TABLEFORMAT_BEGIN
 90
        5
170
     1
 91
        0
 92
    32768
 62
   257
 93
        1
300
CONTENTFORMAT
  1
CONTENTFORMAT_BEGIN
 90
        0
 91
        0
 92
        4
 93
        0
300

 40
0.0
140
1.0
 94
        5
 62
     0
340
11
144
6.0
309
CONTENTFORMAT_END
171
     1
301
MARGIN
  1
CELLMARGIN_BEGIN
 40
1.5
 40
1.5
 40
1.5
 40
1.5
 40
1.5
 40
1.5
309
CELLMARGIN_END
 94
        6
 95
        1
302
GRIDFORMAT
  1
GRIDFORMAT_BEGIN
 90
        0
 91
        1
 62
     0
 92
       -2
340
14
 93
        0
 40
0.045
309
GRIDFORMAT_END
 95
        2
302
GRIDFORMAT
  1
GRIDFORMAT_BEGIN
 90
        0
 91
        1
 62
     0
 92
       -2
340
14
 93
        0
 40
0.045
309
GRIDFORMAT_END
 95
        4
302
GRIDFORMAT
  1
GRIDFORMAT_BEGIN
 90
        0
 91
        1
 62
     0
 92
       -2
340
14
 93
        0
 40
0.045
309
GRIDFORMAT_END
 95
        8
302
GRIDFORMAT
  1
GRIDFORMAT_BEGIN
 90
        0
 91
        1
 62
     0
 92
       -2
340
14
 93
        0
 40
0.045
309
GRIDFORMAT_END
 95
       16
302
GRIDFORMAT
  1
GRIDFORMAT_BEGIN
 90
        0
 91
        1
 62
     0
 92
       -2
340
14
 93
        0
 40
0.045
309
GRIDFORMAT_END
 95
       32
302
GRIDFORMAT
  1
GRIDFORMAT_BEGIN
 90
        0
 91
        1
 62
     0
 92
       -2
340
14
 93
        0
 40
0.045
309
GRIDFORMAT_END
309
TABLEFORMAT_END
  1
CELLSTYLE_BEGIN
 90
        1
 91
        1
300
_TITLE
309
CELLSTYLE_END
300
CELLSTYLE
  1
TABLEFORMAT_BEGIN
 90
        5
170
     1
 91
        0
 92
        0
 62
   257
 93
        1
300
CONTENTFORMAT
  1
CONTENTFORMAT_BEGIN
 90
        0
 91
        0
 92
        4
 93
        0
300

 40
0.0
140
1.0
 94
        5
 62
     0
340
11
144
4.5
309
CONTENTFORMAT_END
171
     1
301
MARGIN
  1
CELLMARGIN_BEGIN
 40
1.5
 40
1.5
 40
1.5
 40
1.5
 40
1.5
 40
1.5
309
CELLMARGIN_END
 94
        6
 95
        1
302
GRIDFORMAT
  1
GRIDFORMAT_BEGIN
 90
        0
 91
        1
 62
     0
 92
       -2
340
14
 93
        0
 40
0.045
309
GRIDFORMAT_END
 95
        2
302
GRIDFORMAT
  1
GRIDFORMAT_BEGIN
 90
        0
 91
        1
 62
     0
 92
       -2
340
14
 93
        0
 40
0.045
309
GRIDFORMAT_END
 95
        4
302
GRIDFORMAT
  1
GRIDFORMAT_BEGIN
 90
        0
 91
        1
 62
     0
 92
       -2
340
14
 93
        0
 40
0.045
309
GRIDFORMAT_END
 95
        8
302
GRIDFORMAT
  1
GRIDFORMAT_BEGIN
 90
        0
 91
        1
 62
     0
 92
       -2
340
14
 93
        0
 40
0.045
309
GRIDFORMAT_END
 95
       16
302
GRIDFORMAT
  1
GRIDFORMAT_BEGIN
 90
        0
 91
        1
 62
     0
 92
       -2
340
14
 93
        0
 40
0.045
309
GRIDFORMAT_END
 95
       32
302
GRIDFORMAT
  1
GRIDFORMAT_BEGIN
 90
        0
 91
        1
 62
     0
 92
       -2
340
14
 93
        0
 40
0.045
309
GRIDFORMAT_END
309
TABLEFORMAT_END
  1
CELLSTYLE_BEGIN
 90
        2
 91
        1
300
_HEADER
309
CELLSTYLE_END
300
CELLSTYLE
  1
TABLEFORMAT_BEGIN
 90
        5
170
     1
 91
        0
 92
        0
 62
   257
 93
        1
300
CONTENTFORMAT
  1
CONTENTFORMAT_BEGIN
 90
        0
 91
        0
 92
        4
 93
        0
300

 40
0.0
140
1.0
 94
        2
 62
     0
340
11
144
4.5
309
CONTENTFORMAT_END
171
     1
301
MARGIN
  1
CELLMARGIN_BEGIN
 40
1.5
 40
1.5
 40
1.5
 40
1.5
 40
1.5
 40
1.5
309
CELLMARGIN_END
 94
        6
 95
        1
302
GRIDFORMAT
  1
GRIDFORMAT_BEGIN
 90
        0
 91
        1
 62
     0
 92
       -2
340
14
 93
        0
 40
0.045
309
GRIDFORMAT_END
 95
        2
302
GRIDFORMAT
  1
GRIDFORMAT_BEGIN
 90
        0
 91
        1
 62
     0
 92
       -2
340
14
 93
        0
 40
0.045
309
GRIDFORMAT_END
 95
        4
302
GRIDFORMAT
  1
GRIDFORMAT_BEGIN
 90
        0
 91
        1
 62
     0
 92
       -2
340
14
 93
        0
 40
0.045
309
GRIDFORMAT_END
 95
        8
302
GRIDFORMAT
  1
GRIDFORMAT_BEGIN
 90
        0
 91
        1
 62
     0
 92
       -2
340
14
 93
        0
 40
0.045
309
GRIDFORMAT_END
 95
       16
302
GRIDFORMAT
  1
GRIDFORMAT_BEGIN
 90
        0
 91
        1
 62
     0
 92
       -2
340
14
 93
        0
 40
0.045
309
GRIDFORMAT_END
 95
       32
302
GRIDFORMAT
  1
GRIDFORMAT_BEGIN
 90
        0
 91
        1
 62
     0
 92
       -2
340
14
 93
        0
 40
0.045
309
GRIDFORMAT_END
309
TABLEFORMAT_END
  1
CELLSTYLE_BEGIN
 90
        3
 91
        2
300
_DATA
309
CELLSTYLE_END
  0
XRECORD
  5
320
102
{ACAD_REACTORS
330
31F
102
}
330
31F
100
AcDbXrecord
280
     1
102
RTVSPost2010Prop28
280
     1
102
RTVSPost2010PropOp28
 70
     1
102
RTVSPost2010Prop29
280
     1
102
RTVSPost2010PropOp29
 70
     1
102
RTVSPost2010Prop30
280
     0
102
RTVSPost2010PropOp30
 70
     1
102
RTVSPost2010Prop31
280
     0
102
RTVSPost2010PropOp31
 70
     1
102
RTVSPost2010Prop32
280
     0
102
RTVSPost2010PropOp32
 70
     1
102
RTVSPost2010Prop33
280
     0
102
RTVSPost2010PropOp33
 70
     1
102
RTVSPost2010Prop34
280
     0
102
RTVSPost2010PropOp34
 70
     1
102
RTVSPost2010Prop35
280
     0
102
RTVSPost2010PropOp35
 70
     1
102
RTVSPost2010Prop36
280
     0
102
RTVSPost2010PropOp36
 70
     1
102
RTVSPost2010Prop37
 90
       50
102
RTVSPost2010PropOp37
 70
     1
102
RTVSPost2010Prop38
140
0.0
102
RTVSPost2010PropOp38
 70
     1
102
RTVSPost2010Prop39
140
1.0
102
RTVSPost2010PropOp39
 70
     1
102
RTVSPost2010Prop40
 90
        0
102
RTVSPost2010PropOp40
 70
     1
102
RTVSPost2010Prop41ColorIndex
 90
       18
102
RTVSPost2010Prop41ColorRGB
 90
        0
102
RTVSPost2010PropOp41
 70
     1
102
RTVSPost2010Prop42
 90
       50
102
RTVSPost2010PropOp42
 70
     1
102
RTVSPost2010Prop43
 90
        3
102
RTVSPost2010PropOp43
 70
     1
102
RTVSPost2010Prop44ColorIndex
 90
        5
102
RTVSPost2010Prop44ColorRGB
 90
      255
102
RTVSPost2010PropOp44
 70
     1
102
RTVSPost2010Prop45
280
     0
102
RTVSPost2010PropOp45
 70
     1
102
RTVSPost2010Prop46
 90
       50
102
RTVSPost2010PropOp46
 70
     1
102
RTVSPost2010Prop47
 90
       50
102
RTVSPost2010PropOp47
 70
     1
102
RTVSPost2010Prop48
 90
       50
102
RTVSPost2010PropOp48
 70
     1
102
RTVSPost2010Prop49
280
     0
102
RTVSPost2010PropOp49
 70
     1
102
RTVSPost2010Prop50
 90
       50
102
RTVSPost2010PropOp50
 70
     1
102
RTVSPost2010Prop51ColorIndex
 90
      256
102
RTVSPost2010Prop51ColorRGB
 90
-16777216
102
RTVSPost2010PropOp51
 70
     0
102
RTVSPost2010Prop52
140
1.0
102
RTVSPost2010PropOp52
 70
     0
102
RTVSPost2010Prop53
 90
        2
102
RTVSPost2010PropOp53
 70
     1
102
RTVSPost2010Prop54
  1
strokes_ogs.tif
102
RTVSPost2010PropOp54
 70
     1
102
RTVSPost2010Prop55
280
     0
102
RTVSPost2010PropOp55
 70
     1
102
RTVSPost2010Prop56
140
1.0
102
RTVSPost2010PropOp56
 70
     1
102
RTVSPost2010Prop57
140
1.0
102
RTVSPost2010PropOp57
 70
     1
  0
XRECORD
  5
326
102
{ACAD_REACTORS
330
325
102
}
330
325
100
AcDbXrecord
280
     1
102
RTVSPost2010Prop28
280
     0
102
RTVSPost2010PropOp28
 70
     1
102
RTVSPost2010Prop29
280
     1
102
RTVSPost2010PropOp29
 70
     1
102
RTVSPost2010Prop30
280
     1
102
RTVSPost2010PropOp30
 70
     1
102
RTVSPost2010Prop31
280
     0
102
RTVSPost2010PropOp31
 70
     1
102
RTVSPost2010Prop32
280
     0
102
RTVSPost2010PropOp32
 70
     1
102
RTVSPost2010Prop33
280
     0
102
RTVSPost2010PropOp33
 70
     1
102
RTVSPost2010Prop34
280
     0
102
RTVSPost2010PropOp34
 70
     1
102
RTVSPost2010Prop35
280
     0
102
RTVSPost2010PropOp35
 70
     1
102
RTVSPost2010Prop36
280
     0
102
RTVSPost2010PropOp36
 70
     1
102
RTVSPost2010Prop37
 90
       50
102
RTVSPost2010PropOp37
 70
     1
102
RTVSPost2010Prop38
140
0.0
102
RTVSPost2010PropOp38
 70
     1
102
RTVSPost2010Prop39
140
1.0
102
RTVSPost2010PropOp39
 70
     1
102
RTVSPost2010Prop40
 90
        0
102
RTVSPost2010PropOp40
 70
     1
102
RTVSPost2010Prop41ColorIndex
 90
       18
102
RTVSPost2010Prop41ColorRGB
 90
        0
102
RTVSPost2010PropOp41
 70
     1
102
RTVSPost2010Prop42
 90
       50
102
RTVSPost2010PropOp42
 70
     1
102
RTVSPost2010Prop43
 90
        3
102
RTVSPost2010PropOp43
 70
     1
102
RTVSPost2010Prop44ColorIndex
 90
        5
102
RTVSPost2010Prop44ColorRGB
 90
      255
102
RTVSPost2010PropOp44
 70
     1
102
RTVSPost2010Prop45
280
     0
102
RTVSPost2010PropOp45
 70
     1
102
RTVSPost2010Prop46
 90
       50
102
RTVSPost2010PropOp46
 70
     1
102
RTVSPost2010Prop47
 90
       50
102
RTVSPost2010PropOp47
 70
     1
102
RTVSPost2010Prop48
 90
       50
102
RTVSPost2010PropOp48
 70
     1
102
RTVSPost2010Prop49
280
     0
102
RTVSPost2010PropOp49
 70
     1
102
RTVSPost2010Prop50
 90
       50
102
RTVSPost2010PropOp50
 70
     1
102
RTVSPost2010Prop51ColorIndex
 90
      256
102
RTVSPost2010Prop51ColorRGB
 90
-16777216
102
RTVSPost2010PropOp51
 70
     0
102
RTVSPost2010Prop52
140
1.0
102
RTVSPost2010PropOp52
 70
     0
102
RTVSPost2010Prop53
 90
        2
102
RTVSPost2010PropOp53
 70
     1
102
RTVSPost2010Prop54
  1
strokes_ogs.tif
102
RTVSPost2010PropOp54
 70
     1
102
RTVSPost2010Prop55
280
     0
102
RTVSPost2010PropOp55
 70
     1
102
RTVSPost2010Prop56
140
1.0
102
RTVSPost2010PropOp56
 70
     1
102
RTVSPost2010Prop57
140
1.0
102
RTVSPost2010PropOp57
 70
     1
  0
XRECORD
  5
32E
102
{ACAD_REACTORS
330
32D
102
}
330
32D
100
AcDbXrecord
280
     1
102
RTVSPost2010Prop28
280
     0
102
RTVSPost2010PropOp28
 70
     1
102
RTVSPost2010Prop29
280
     1
102
RTVSPost2010PropOp29
 70
     1
102
RTVSPost2010Prop30
280
     1
102
RTVSPost2010PropOp30
 70
     1
102
RTVSPost2010Prop31
280
     0
102
RTVSPost2010PropOp31
 70
     1
102
RTVSPost2010Prop32
280
     0
102
RTVSPost2010PropOp32
 70
     1
102
RTVSPost2010Prop33
280
     0
102
RTVSPost2010PropOp33
 70
     1
102
RTVSPost2010Prop34
280
     0
102
RTVSPost2010PropOp34
 70
     1
102
RTVSPost2010Prop35
280
     0
102
RTVSPost2010PropOp35
 70
     1
102
RTVSPost2010Prop36
280
     0
102
RTVSPost2010PropOp36
 70
     1
102
RTVSPost2010Prop37
 90
       50
102
RTVSPost2010PropOp37
 70
     1
102
RTVSPost2010Prop38
140
0.0
102
RTVSPost2010PropOp38
 70
     1
102
RTVSPost2010Prop39
140
1.0
102
RTVSPost2010PropOp39
 70
     1
102
RTVSPost2010Prop40
 90
        0
102
RTVSPost2010PropOp40
 70
     1
102
RTVSPost2010Prop41ColorIndex
 90
       18
102
RTVSPost2010Prop41ColorRGB
 90
        0
102
RTVSPost2010PropOp41
 70
     1
102
RTVSPost2010Prop42
 90
       50
102
RTVSPost2010PropOp42
 70
     1
102
RTVSPost2010Prop43
 90
        3
102
RTVSPost2010PropOp43
 70
     1
102
RTVSPost2010Prop44ColorIndex
 90
        5
102
RTVSPost2010Prop44ColorRGB
 90
      255
102
RTVSPost2010PropOp44
 70
     1
102
RTVSPost2010Prop45
280
     0
102
RTVSPost2010PropOp45
 70
     1
102
RTVSPost2010Prop46
 90
       50
102
RTVSPost2010PropOp46
 70
     1
102
RTVSPost2010Prop47
 90
       50
102
RTVSPost2010PropOp47
 70
     1
102
RTVSPost2010Prop48
 90
       50
102
RTVSPost2010PropOp48
 70
     1
102
RTVSPost2010Prop49
280
     0
102
RTVSPost2010PropOp49
 70
     1
102
RTVSPost2010Prop50
 90
       50
102
RTVSPost2010PropOp50
 70
     1
102
RTVSPost2010Prop51ColorIndex
 90
      256
102
RTVSPost2010Prop51ColorRGB
 90
-16777216
102
RTVSPost2010PropOp51
 70
     0
102
RTVSPost2010Prop52
140
1.0
102
RTVSPost2010PropOp52
 70
     0
102
RTVSPost2010Prop53
 90
        2
102
RTVSPost2010PropOp53
 70
     1
102
RTVSPost2010Prop54
  1
strokes_ogs.tif
102
RTVSPost2010PropOp54
 70
     1
102
RTVSPost2010Prop55
280
     0
102
RTVSPost2010PropOp55
 70
     1
102
RTVSPost2010Prop56
140
1.0
102
RTVSPost2010PropOp56
 70
     1
102
RTVSPost2010Prop57
140
1.0
102
RTVSPost2010PropOp57
 70
     1
  0
XRECORD
  5
336
102
{ACAD_REACTORS
330
335
102
}
330
335
100
AcDbXrecord
280
     1
102
RTVSPost2010Prop28
280
     0
102
RTVSPost2010PropOp28
 70
     1
102
RTVSPost2010Prop29
280
     1
102
RTVSPost2010PropOp29
 70
     1
102
RTVSPost2010Prop30
280
     1
102
RTVSPost2010PropOp30
 70
     1
102
RTVSPost2010Prop31
280
     0
102
RTVSPost2010PropOp31
 70
     1
102
RTVSPost2010Prop32
280
     0
102
RTVSPost2010PropOp32
 70
     1
102
RTVSPost2010Prop33
280
     0
102
RTVSPost2010PropOp33
 70
     1
102
RTVSPost2010Prop34
280
     0
102
RTVSPost2010PropOp34
 70
     1
102
RTVSPost2010Prop35
280
     0
102
RTVSPost2010PropOp35
 70
     1
102
RTVSPost2010Prop36
280
     0
102
RTVSPost2010PropOp36
 70
     1
102
RTVSPost2010Prop37
 90
       50
102
RTVSPost2010PropOp37
 70
     1
102
RTVSPost2010Prop38
140
0.0
102
RTVSPost2010PropOp38
 70
     1
102
RTVSPost2010Prop39
140
1.0
102
RTVSPost2010PropOp39
 70
     1
102
RTVSPost2010Prop40
 90
        0
102
RTVSPost2010PropOp40
 70
     1
102
RTVSPost2010Prop41ColorIndex
 90
       18
102
RTVSPost2010Prop41ColorRGB
 90
        0
102
RTVSPost2010PropOp41
 70
     1
102
RTVSPost2010Prop42
 90
       50
102
RTVSPost2010PropOp42
 70
     1
102
RTVSPost2010Prop43
 90
        3
102
RTVSPost2010PropOp43
 70
     1
102
RTVSPost2010Prop44ColorIndex
 90
        5
102
RTVSPost2010Prop44ColorRGB
 90
      255
102
RTVSPost2010PropOp44
 70
     1
102
RTVSPost2010Prop45
280
     0
102
RTVSPost2010PropOp45
 70
     1
102
RTVSPost2010Prop46
 90
       50
102
RTVSPost2010PropOp46
 70
     1
102
RTVSPost2010Prop47
 90
       50
102
RTVSPost2010PropOp47
 70
     1
102
RTVSPost2010Prop48
 90
       50
102
RTVSPost2010PropOp48
 70
     1
102
RTVSPost2010Prop49
280
     0
102
RTVSPost2010PropOp49
 70
     1
102
RTVSPost2010Prop50
 90
       50
102
RTVSPost2010PropOp50
 70
     1
102
RTVSPost2010Prop51ColorIndex
 90
      256
102
RTVSPost2010Prop51ColorRGB
 90
-16777216
102
RTVSPost2010PropOp51
 70
     0
102
RTVSPost2010Prop52
140
1.0
102
RTVSPost2010PropOp52
 70
     0
102
RTVSPost2010Prop53
 90
        2
102
RTVSPost2010PropOp53
 70
     1
102
RTVSPost2010Prop54
  1
strokes_ogs.tif
102
RTVSPost2010PropOp54
 70
     1
102
RTVSPost2010Prop55
280
     0
102
RTVSPost2010PropOp55
 70
     1
102
RTVSPost2010Prop56
140
1.0
102
RTVSPost2010PropOp56
 70
     1
102
RTVSPost2010Prop57
140
1.0
102
RTVSPost2010PropOp57
 70
     1
  0
XRECORD
  5
32A
102
{ACAD_REACTORS
330
329
102
}
330
329
100
AcDbXrecord
280
     1
102
RTVSPost2010Prop28
280
     0
102
RTVSPost2010PropOp28
 70
     1
102
RTVSPost2010Prop29
280
     1
102
RTVSPost2010PropOp29
 70
     1
102
RTVSPost2010Prop30
280
     1
102
RTVSPost2010PropOp30
 70
     1
102
RTVSPost2010Prop31
280
     0
102
RTVSPost2010PropOp31
 70
     1
102
RTVSPost2010Prop32
280
     0
102
RTVSPost2010PropOp32
 70
     1
102
RTVSPost2010Prop33
280
     0
102
RTVSPost2010PropOp33
 70
     1
102
RTVSPost2010Prop34
280
     0
102
RTVSPost2010PropOp34
 70
     1
102
RTVSPost2010Prop35
280
     0
102
RTVSPost2010PropOp35
 70
     1
102
RTVSPost2010Prop36
280
     0
102
RTVSPost2010PropOp36
 70
     1
102
RTVSPost2010Prop37
 90
       50
102
RTVSPost2010PropOp37
 70
     1
102
RTVSPost2010Prop38
140
0.0
102
RTVSPost2010PropOp38
 70
     1
102
RTVSPost2010Prop39
140
1.0
102
RTVSPost2010PropOp39
 70
     1
102
RTVSPost2010Prop40
 90
        0
102
RTVSPost2010PropOp40
 70
     1
102
RTVSPost2010Prop41ColorIndex
 90
       18
102
RTVSPost2010Prop41ColorRGB
 90
        0
102
RTVSPost2010PropOp41
 70
     1
102
RTVSPost2010Prop42
 90
       50
102
RTVSPost2010PropOp42
 70
     1
102
RTVSPost2010Prop43
 90
        3
102
RTVSPost2010PropOp43
 70
     1
102
RTVSPost2010Prop44ColorIndex
 90
        5
102
RTVSPost2010Prop44ColorRGB
 90
      255
102
RTVSPost2010PropOp44
 70
     1
102
RTVSPost2010Prop45
280
     0
102
RTVSPost2010PropOp45
 70
     1
102
RTVSPost2010Prop46
 90
       50
102
RTVSPost2010PropOp46
 70
     1
102
RTVSPost2010Prop47
 90
       50
102
RTVSPost2010PropOp47
 70
     1
102
RTVSPost2010Prop48
 90
       50
102
RTVSPost2010PropOp48
 70
     1
102
RTVSPost2010Prop49
280
     0
102
RTVSPost2010PropOp49
 70
     1
102
RTVSPost2010Prop50
 90
       50
102
RTVSPost2010PropOp50
 70
     1
102
RTVSPost2010Prop51ColorIndex
 90
      256
102
RTVSPost2010Prop51ColorRGB
 90
-16777216
102
RTVSPost2010PropOp51
 70
     0
102
RTVSPost2010Prop52
140
1.0
102
RTVSPost2010PropOp52
 70
     0
102
RTVSPost2010Prop53
 90
        2
102
RTVSPost2010PropOp53
 70
     1
102
RTVSPost2010Prop54
  1
strokes_ogs.tif
102
RTVSPost2010PropOp54
 70
     1
102
RTVSPost2010Prop55
280
     0
102
RTVSPost2010PropOp55
 70
     1
102
RTVSPost2010Prop56
140
1.0
102
RTVSPost2010PropOp56
 70
     1
102
RTVSPost2010Prop57
140
1.0
102
RTVSPost2010PropOp57
 70
     1
  0
XRECORD
  5
32C
102
{ACAD_REACTORS
330
32B
102
}
330
32B
100
AcDbXrecord
280
     1
102
RTVSPost2010Prop28
280
     0
102
RTVSPost2010PropOp28
 70
     1
102
RTVSPost2010Prop29
280
     1
102
RTVSPost2010PropOp29
 70
     1
102
RTVSPost2010Prop30
280
     1
102
RTVSPost2010PropOp30
 70
     1
102
RTVSPost2010Prop31
280
     0
102
RTVSPost2010PropOp31
 70
     1
102
RTVSPost2010Prop32
280
     0
102
RTVSPost2010PropOp32
 70
     1
102
RTVSPost2010Prop33
280
     0
102
RTVSPost2010PropOp33
 70
     1
102
RTVSPost2010Prop34
280
     0
102
RTVSPost2010PropOp34
 70
     1
102
RTVSPost2010Prop35
280
     0
102
RTVSPost2010PropOp35
 70
     1
102
RTVSPost2010Prop36
280
     0
102
RTVSPost2010PropOp36
 70
     1
102
RTVSPost2010Prop37
 90
       50
102
RTVSPost2010PropOp37
 70
     1
102
RTVSPost2010Prop38
140
0.0
102
RTVSPost2010PropOp38
 70
     1
102
RTVSPost2010Prop39
140
1.0
102
RTVSPost2010PropOp39
 70
     1
102
RTVSPost2010Prop40
 90
        0
102
RTVSPost2010PropOp40
 70
     1
102
RTVSPost2010Prop41ColorIndex
 90
       18
102
RTVSPost2010Prop41ColorRGB
 90
        0
102
RTVSPost2010PropOp41
 70
     1
102
RTVSPost2010Prop42
 90
       50
102
RTVSPost2010PropOp42
 70
     1
102
RTVSPost2010Prop43
 90
        3
102
RTVSPost2010PropOp43
 70
     1
102
RTVSPost2010Prop44ColorIndex
 90
        5
102
RTVSPost2010Prop44ColorRGB
 90
      255
102
RTVSPost2010PropOp44
 70
     1
102
RTVSPost2010Prop45
280
     0
102
RTVSPost2010PropOp45
 70
     1
102
RTVSPost2010Prop46
 90
       50
102
RTVSPost2010PropOp46
 70
     1
102
RTVSPost2010Prop47
 90
       50
102
RTVSPost2010PropOp47
 70
     1
102
RTVSPost2010Prop48
 90
       50
102
RTVSPost2010PropOp48
 70
     1
102
RTVSPost2010Prop49
280
     0
102
RTVSPost2010PropOp49
 70
     1
102
RTVSPost2010Prop50
 90
       50
102
RTVSPost2010PropOp50
 70
     1
102
RTVSPost2010Prop51ColorIndex
 90
      256
102
RTVSPost2010Prop51ColorRGB
 90
-16777216
102
RTVSPost2010PropOp51
 70
     0
102
RTVSPost2010Prop52
140
1.0
102
RTVSPost2010PropOp52
 70
     0
102
RTVSPost2010Prop53
 90
        2
102
RTVSPost2010PropOp53
 70
     1
102
RTVSPost2010Prop54
  1
strokes_ogs.tif
102
RTVSPost2010PropOp54
 70
     1
102
RTVSPost2010Prop55
280
     0
102
RTVSPost2010PropOp55
 70
     1
102
RTVSPost2010Prop56
140
1.0
102
RTVSPost2010PropOp56
 70
     1
102
RTVSPost2010Prop57
140
1.0
102
RTVSPost2010PropOp57
 70
     1
  0
XRECORD
  5
33C
102
{ACAD_REACTORS
330
33B
102
}
330
33B
100
AcDbXrecord
280
     1
102
RTVSPost2010Prop28
280
     0
102
RTVSPost2010PropOp28
 70
     0
102
RTVSPost2010Prop29
280
     1
102
RTVSPost2010PropOp29
 70
     0
102
RTVSPost2010Prop30
280
     1
102
RTVSPost2010PropOp30
 70
     0
102
RTVSPost2010Prop31
280
     0
102
RTVSPost2010PropOp31
 70
     0
102
RTVSPost2010Prop32
280
     0
102
RTVSPost2010PropOp32
 70
     0
102
RTVSPost2010Prop33
280
     0
102
RTVSPost2010PropOp33
 70
     0
102
RTVSPost2010Prop34
280
     0
102
RTVSPost2010PropOp34
 70
     0
102
RTVSPost2010Prop35
280
     0
102
RTVSPost2010PropOp35
 70
     0
102
RTVSPost2010Prop36
280
     0
102
RTVSPost2010PropOp36
 70
     0
102
RTVSPost2010Prop37
 90
       50
102
RTVSPost2010PropOp37
 70
     0
102
RTVSPost2010Prop38
140
0.0
102
RTVSPost2010PropOp38
 70
     0
102
RTVSPost2010Prop39
140
1.0
102
RTVSPost2010PropOp39
 70
     0
102
RTVSPost2010Prop40
 90
        0
102
RTVSPost2010PropOp40
 70
     0
102
RTVSPost2010Prop41ColorIndex
 90
       18
102
RTVSPost2010Prop41ColorRGB
 90
        0
102
RTVSPost2010PropOp41
 70
     0
102
RTVSPost2010Prop42
 90
       50
102
RTVSPost2010PropOp42
 70
     0
102
RTVSPost2010Prop43
 90
        3
102
RTVSPost2010PropOp43
 70
     0
102
RTVSPost2010Prop44ColorIndex
 90
        5
102
RTVSPost2010Prop44ColorRGB
 90
      255
102
RTVSPost2010PropOp44
 70
     0
102
RTVSPost2010Prop45
280
     0
102
RTVSPost2010PropOp45
 70
     0
102
RTVSPost2010Prop46
 90
       50
102
RTVSPost2010PropOp46
 70
     0
102
RTVSPost2010Prop47
 90
       50
102
RTVSPost2010PropOp47
 70
     0
102
RTVSPost2010Prop48
 90
       50
102
RTVSPost2010PropOp48
 70
     0
102
RTVSPost2010Prop49
280
     0
102
RTVSPost2010PropOp49
 70
     0
102
RTVSPost2010Prop50
 90
       50
102
RTVSPost2010PropOp50
 70
     0
102
RTVSPost2010Prop51ColorIndex
 90
      256
102
RTVSPost2010Prop51ColorRGB
 90
-16777216
102
RTVSPost2010PropOp51
 70
     0
102
RTVSPost2010Prop52
140
1.0
102
RTVSPost2010PropOp52
 70
     0
102
RTVSPost2010Prop53
 90
        2
102
RTVSPost2010PropOp53
 70
     0
102
RTVSPost2010Prop54
  1
strokes_ogs.tif
102
RTVSPost2010PropOp54
 70
     0
102
RTVSPost2010Prop55
280
     0
102
RTVSPost2010PropOp55
 70
     0
102
RTVSPost2010Prop56
140
1.0
102
RTVSPost2010PropOp56
 70
     0
102
RTVSPost2010Prop57
140
1.0
102
RTVSPost2010PropOp57
 70
     0
  0
XRECORD
  5
334
102
{ACAD_REACTORS
330
333
102
}
330
333
100
AcDbXrecord
280
     1
102
RTVSPost2010Prop28
280
     0
102
RTVSPost2010PropOp28
 70
     1
102
RTVSPost2010Prop29
280
     1
102
RTVSPost2010PropOp29
 70
     1
102
RTVSPost2010Prop30
280
     1
102
RTVSPost2010PropOp30
 70
     1
102
RTVSPost2010Prop31
280
     0
102
RTVSPost2010PropOp31
 70
     1
102
RTVSPost2010Prop32
280
     0
102
RTVSPost2010PropOp32
 70
     1
102
RTVSPost2010Prop33
280
     0
102
RTVSPost2010PropOp33
 70
     1
102
RTVSPost2010Prop34
280
     0
102
RTVSPost2010PropOp34
 70
     1
102
RTVSPost2010Prop35
280
     0
102
RTVSPost2010PropOp35
 70
     1
102
RTVSPost2010Prop36
280
     0
102
RTVSPost2010PropOp36
 70
     1
102
RTVSPost2010Prop37
 90
       50
102
RTVSPost2010PropOp37
 70
     1
102
RTVSPost2010Prop38
140
0.0
102
RTVSPost2010PropOp38
 70
     1
102
RTVSPost2010Prop39
140
1.0
102
RTVSPost2010PropOp39
 70
     1
102
RTVSPost2010Prop40
 90
        0
102
RTVSPost2010PropOp40
 70
     1
102
RTVSPost2010Prop41ColorIndex
 90
       18
102
RTVSPost2010Prop41ColorRGB
 90
        0
102
RTVSPost2010PropOp41
 70
     1
102
RTVSPost2010Prop42
 90
       50
102
RTVSPost2010PropOp42
 70
     1
102
RTVSPost2010Prop43
 90
        3
102
RTVSPost2010PropOp43
 70
     1
102
RTVSPost2010Prop44ColorIndex
 90
        5
102
RTVSPost2010Prop44ColorRGB
 90
      255
102
RTVSPost2010PropOp44
 70
     1
102
RTVSPost2010Prop45
280
     0
102
RTVSPost2010PropOp45
 70
     1
102
RTVSPost2010Prop46
 90
       50
102
RTVSPost2010PropOp46
 70
     1
102
RTVSPost2010Prop47
 90
       50
102
RTVSPost2010PropOp47
 70
     1
102
RTVSPost2010Prop48
 90
       50
102
RTVSPost2010PropOp48
 70
     1
102
RTVSPost2010Prop49
280
     0
102
RTVSPost2010PropOp49
 70
     1
102
RTVSPost2010Prop50
 90
       50
102
RTVSPost2010PropOp50
 70
     1
102
RTVSPost2010Prop51ColorIndex
 90
      256
102
RTVSPost2010Prop51ColorRGB
 90
-16777216
102
RTVSPost2010PropOp51
 70
     0
102
RTVSPost2010Prop52
140
1.0
102
RTVSPost2010PropOp52
 70
     0
102
RTVSPost2010Prop53
 90
        2
102
RTVSPost2010PropOp53
 70
     1
102
RTVSPost2010Prop54
  1
strokes_ogs.tif
102
RTVSPost2010PropOp54
 70
     1
102
RTVSPost2010Prop55
280
     0
102
RTVSPost2010PropOp55
 70
     1
102
RTVSPost2010Prop56
140
1.0
102
RTVSPost2010PropOp56
 70
     1
102
RTVSPost2010Prop57
140
1.0
102
RTVSPost2010PropOp57
 70
     1
  0
XRECORD
  5
318
102
{ACAD_REACTORS
330
317
102
}
330
317
100
AcDbXrecord
280
     1
102
RTVSPost2010Prop28
280
     0
102
RTVSPost2010PropOp28
 70
     1
102
RTVSPost2010Prop29
280
     1
102
RTVSPost2010PropOp29
 70
     1
102
RTVSPost2010Prop30
280
     1
102
RTVSPost2010PropOp30
 70
     1
102
RTVSPost2010Prop31
280
     0
102
RTVSPost2010PropOp31
 70
     1
102
RTVSPost2010Prop32
280
     0
102
RTVSPost2010PropOp32
 70
     1
102
RTVSPost2010Prop33
280
     0
102
RTVSPost2010PropOp33
 70
     1
102
RTVSPost2010Prop34
280
     0
102
RTVSPost2010PropOp34
 70
     1
102
RTVSPost2010Prop35
280
     0
102
RTVSPost2010PropOp35
 70
     1
102
RTVSPost2010Prop36
280
     0
102
RTVSPost2010PropOp36
 70
     1
102
RTVSPost2010Prop37
 90
       50
102
RTVSPost2010PropOp37
 70
     1
102
RTVSPost2010Prop38
140
0.0
102
RTVSPost2010PropOp38
 70
     1
102
RTVSPost2010Prop39
140
1.0
102
RTVSPost2010PropOp39
 70
     1
102
RTVSPost2010Prop40
 90
        0
102
RTVSPost2010PropOp40
 70
     1
102
RTVSPost2010Prop41ColorIndex
 90
       18
102
RTVSPost2010Prop41ColorRGB
 90
        0
102
RTVSPost2010PropOp41
 70
     1
102
RTVSPost2010Prop42
 90
       50
102
RTVSPost2010PropOp42
 70
     1
102
RTVSPost2010Prop43
 90
        3
102
RTVSPost2010PropOp43
 70
     1
102
RTVSPost2010Prop44ColorIndex
 90
        5
102
RTVSPost2010Prop44ColorRGB
 90
      255
102
RTVSPost2010PropOp44
 70
     1
102
RTVSPost2010Prop45
280
     0
102
RTVSPost2010PropOp45
 70
     1
102
RTVSPost2010Prop46
 90
       50
102
RTVSPost2010PropOp46
 70
     1
102
RTVSPost2010Prop47
 90
       50
102
RTVSPost2010PropOp47
 70
     1
102
RTVSPost2010Prop48
 90
       50
102
RTVSPost2010PropOp48
 70
     1
102
RTVSPost2010Prop49
280
     0
102
RTVSPost2010PropOp49
 70
     1
102
RTVSPost2010Prop50
 90
       50
102
RTVSPost2010PropOp50
 70
     1
102
RTVSPost2010Prop51ColorIndex
 90
      256
102
RTVSPost2010Prop51ColorRGB
 90
-16777216
102
RTVSPost2010PropOp51
 70
     0
102
RTVSPost2010Prop52
140
1.0
102
RTVSPost2010PropOp52
 70
     0
102
RTVSPost2010Prop53
 90
        2
102
RTVSPost2010PropOp53
 70
     1
102
RTVSPost2010Prop54
  1
strokes_ogs.tif
102
RTVSPost2010PropOp54
 70
     1
102
RTVSPost2010Prop55
280
     0
102
RTVSPost2010PropOp55
 70
     1
102
RTVSPost2010Prop56
140
1.0
102
RTVSPost2010PropOp56
 70
     1
102
RTVSPost2010Prop57
140
1.0
102
RTVSPost2010PropOp57
 70
     1
  0
XRECORD
  5
31A
102
{ACAD_REACTORS
330
319
102
}
330
319
100
AcDbXrecord
280
     1
102
RTVSPost2010Prop28
280
     0
102
RTVSPost2010PropOp28
 70
     1
102
RTVSPost2010Prop29
280
     1
102
RTVSPost2010PropOp29
 70
     1
102
RTVSPost2010Prop30
280
     1
102
RTVSPost2010PropOp30
 70
     1
102
RTVSPost2010Prop31
280
     0
102
RTVSPost2010PropOp31
 70
     1
102
RTVSPost2010Prop32
280
     0
102
RTVSPost2010PropOp32
 70
     1
102
RTVSPost2010Prop33
280
     0
102
RTVSPost2010PropOp33
 70
     1
102
RTVSPost2010Prop34
280
     0
102
RTVSPost2010PropOp34
 70
     1
102
RTVSPost2010Prop35
280
     0
102
RTVSPost2010PropOp35
 70
     1
102
RTVSPost2010Prop36
280
     0
102
RTVSPost2010PropOp36
 70
     1
102
RTVSPost2010Prop37
 90
       50
102
RTVSPost2010PropOp37
 70
     1
102
RTVSPost2010Prop38
140
0.0
102
RTVSPost2010PropOp38
 70
     1
102
RTVSPost2010Prop39
140
1.0
102
RTVSPost2010PropOp39
 70
     1
102
RTVSPost2010Prop40
 90
        0
102
RTVSPost2010PropOp40
 70
     1
102
RTVSPost2010Prop41ColorIndex
 90
       18
102
RTVSPost2010Prop41ColorRGB
 90
        0
102
RTVSPost2010PropOp41
 70
     1
102
RTVSPost2010Prop42
 90
       50
102
RTVSPost2010PropOp42
 70
     1
102
RTVSPost2010Prop43
 90
        3
102
RTVSPost2010PropOp43
 70
     1
102
RTVSPost2010Prop44ColorIndex
 90
        5
102
RTVSPost2010Prop44ColorRGB
 90
      255
102
RTVSPost2010PropOp44
 70
     1
102
RTVSPost2010Prop45
280
     0
102
RTVSPost2010PropOp45
 70
     1
102
RTVSPost2010Prop46
 90
       50
102
RTVSPost2010PropOp46
 70
     1
102
RTVSPost2010Prop47
 90
       50
102
RTVSPost2010PropOp47
 70
     1
102
RTVSPost2010Prop48
 90
       50
102
RTVSPost2010PropOp48
 70
     1
102
RTVSPost2010Prop49
280
     0
102
RTVSPost2010PropOp49
 70
     1
102
RTVSPost2010Prop50
 90
       50
102
RTVSPost2010PropOp50
 70
     1
102
RTVSPost2010Prop51ColorIndex
 90
      256
102
RTVSPost2010Prop51ColorRGB
 90
-16777216
102
RTVSPost2010PropOp51
 70
     0
102
RTVSPost2010Prop52
140
1.0
102
RTVSPost2010PropOp52
 70
     0
102
RTVSPost2010Prop53
 90
        2
102
RTVSPost2010PropOp53
 70
     1
102
RTVSPost2010Prop54
  1
strokes_ogs.tif
102
RTVSPost2010PropOp54
 70
     1
102
RTVSPost2010Prop55
280
     0
102
RTVSPost2010PropOp55
 70
     1
102
RTVSPost2010Prop56
140
1.0
102
RTVSPost2010PropOp56
 70
     1
102
RTVSPost2010Prop57
140
1.0
102
RTVSPost2010PropOp57
 70
     1
  0
XRECORD
  5
31C
102
{ACAD_REACTORS
330
31B
102
}
330
31B
100
AcDbXrecord
280
     1
102
RTVSPost2010Prop28
280
     0
102
RTVSPost2010PropOp28
 70
     1
102
RTVSPost2010Prop29
280
     1
102
RTVSPost2010PropOp29
 70
     1
102
RTVSPost2010Prop30
280
     1
102
RTVSPost2010PropOp30
 70
     1
102
RTVSPost2010Prop31
280
     0
102
RTVSPost2010PropOp31
 70
     1
102
RTVSPost2010Prop32
280
     0
102
RTVSPost2010PropOp32
 70
     1
102
RTVSPost2010Prop33
280
     0
102
RTVSPost2010PropOp33
 70
     1
102
RTVSPost2010Prop34
280
     0
102
RTVSPost2010PropOp34
 70
     1
102
RTVSPost2010Prop35
280
     0
102
RTVSPost2010PropOp35
 70
     1
102
RTVSPost2010Prop36
280
     0
102
RTVSPost2010PropOp36
 70
     1
102
RTVSPost2010Prop37
 90
       50
102
RTVSPost2010PropOp37
 70
     1
102
RTVSPost2010Prop38
140
0.0
102
RTVSPost2010PropOp38
 70
     1
102
RTVSPost2010Prop39
140
1.0
102
RTVSPost2010PropOp39
 70
     1
102
RTVSPost2010Prop40
 90
        0
102
RTVSPost2010PropOp40
 70
     1
102
RTVSPost2010Prop41ColorIndex
 90
       18
102
RTVSPost2010Prop41ColorRGB
 90
        0
102
RTVSPost2010PropOp41
 70
     1
102
RTVSPost2010Prop42
 90
       50
102
RTVSPost2010PropOp42
 70
     1
102
RTVSPost2010Prop43
 90
        3
102
RTVSPost2010PropOp43
 70
     1
102
RTVSPost2010Prop44ColorIndex
 90
        5
102
RTVSPost2010Prop44ColorRGB
 90
      255
102
RTVSPost2010PropOp44
 70
     1
102
RTVSPost2010Prop45
280
     0
102
RTVSPost2010PropOp45
 70
     1
102
RTVSPost2010Prop46
 90
       50
102
RTVSPost2010PropOp46
 70
     1
102
RTVSPost2010Prop47
 90
       50
102
RTVSPost2010PropOp47
 70
     1
102
RTVSPost2010Prop48
 90
       50
102
RTVSPost2010PropOp48
 70
     1
102
RTVSPost2010Prop49
280
     0
102
RTVSPost2010PropOp49
 70
     1
102
RTVSPost2010Prop50
 90
       50
102
RTVSPost2010PropOp50
 70
     1
102
RTVSPost2010Prop51ColorIndex
 90
      256
102
RTVSPost2010Prop51ColorRGB
 90
-16777216
102
RTVSPost2010PropOp51
 70
     0
102
RTVSPost2010Prop52
140
1.0
102
RTVSPost2010PropOp52
 70
     0
102
RTVSPost2010Prop53
 90
        2
102
RTVSPost2010PropOp53
 70
     1
102
RTVSPost2010Prop54
  1
strokes_ogs.tif
102
RTVSPost2010PropOp54
 70
     1
102
RTVSPost2010Prop55
280
     0
102
RTVSPost2010PropOp55
 70
     1
102
RTVSPost2010Prop56
140
1.0
102
RTVSPost2010PropOp56
 70
     1
102
RTVSPost2010Prop57
140
1.0
102
RTVSPost2010PropOp57
 70
     1
  0
XRECORD
  5
31E
102
{ACAD_REACTORS
330
31D
102
}
330
31D
100
AcDbXrecord
280
     1
102
RTVSPost2010Prop28
280
     0
102
RTVSPost2010PropOp28
 70
     1
102
RTVSPost2010Prop29
280
     1
102
RTVSPost2010PropOp29
 70
     1
102
RTVSPost2010Prop30
280
     1
102
RTVSPost2010PropOp30
 70
     1
102
RTVSPost2010Prop31
280
     0
102
RTVSPost2010PropOp31
 70
     1
102
RTVSPost2010Prop32
280
     0
102
RTVSPost2010PropOp32
 70
     1
102
RTVSPost2010Prop33
280
     0
102
RTVSPost2010PropOp33
 70
     1
102
RTVSPost2010Prop34
280
     0
102
RTVSPost2010PropOp34
 70
     1
102
RTVSPost2010Prop35
280
     0
102
RTVSPost2010PropOp35
 70
     1
102
RTVSPost2010Prop36
280
     0
102
RTVSPost2010PropOp36
 70
     1
102
RTVSPost2010Prop37
 90
       50
102
RTVSPost2010PropOp37
 70
     1
102
RTVSPost2010Prop38
140
0.0
102
RTVSPost2010PropOp38
 70
     1
102
RTVSPost2010Prop39
140
1.0
102
RTVSPost2010PropOp39
 70
     1
102
RTVSPost2010Prop40
 90
        0
102
RTVSPost2010PropOp40
 70
     1
102
RTVSPost2010Prop41ColorIndex
 90
       18
102
RTVSPost2010Prop41ColorRGB
 90
        0
102
RTVSPost2010PropOp41
 70
     1
102
RTVSPost2010Prop42
 90
       50
102
RTVSPost2010PropOp42
 70
     1
102
RTVSPost2010Prop43
 90
        3
102
RTVSPost2010PropOp43
 70
     1
102
RTVSPost2010Prop44ColorIndex
 90
        5
102
RTVSPost2010Prop44ColorRGB
 90
      255
102
RTVSPost2010PropOp44
 70
     1
102
RTVSPost2010Prop45
280
     0
102
RTVSPost2010PropOp45
 70
     1
102
RTVSPost2010Prop46
 90
       50
102
RTVSPost2010PropOp46
 70
     1
102
RTVSPost2010Prop47
 90
       50
102
RTVSPost2010PropOp47
 70
     1
102
RTVSPost2010Prop48
 90
       50
102
RTVSPost2010PropOp48
 70
     1
102
RTVSPost2010Prop49
280
     0
102
RTVSPost2010PropOp49
 70
     1
102
RTVSPost2010Prop50
 90
       50
102
RTVSPost2010PropOp50
 70
     1
102
RTVSPost2010Prop51ColorIndex
 90
      256
102
RTVSPost2010Prop51ColorRGB
 90
-16777216
102
RTVSPost2010PropOp51
 70
     0
102
RTVSPost2010Prop52
140
1.0
102
RTVSPost2010PropOp52
 70
     0
102
RTVSPost2010Prop53
 90
        2
102
RTVSPost2010PropOp53
 70
     1
102
RTVSPost2010Prop54
  1
strokes_ogs.tif
102
RTVSPost2010PropOp54
 70
     1
102
RTVSPost2010Prop55
280
     0
102
RTVSPost2010PropOp55
 70
     1
102
RTVSPost2010Prop56
140
1.0
102
RTVSPost2010PropOp56
 70
     1
102
RTVSPost2010Prop57
140
1.0
102
RTVSPost2010PropOp57
 70
     1
  0
XRECORD
  5
324
102
{ACAD_REACTORS
330
323
102
}
330
323
100
AcDbXrecord
280
     1
102
RTVSPost2010Prop28
280
     0
102
RTVSPost2010PropOp28
 70
     1
102
RTVSPost2010Prop29
280
     1
102
RTVSPost2010PropOp29
 70
     1
102
RTVSPost2010Prop30
280
     1
102
RTVSPost2010PropOp30
 70
     1
102
RTVSPost2010Prop31
280
     0
102
RTVSPost2010PropOp31
 70
     1
102
RTVSPost2010Prop32
280
     0
102
RTVSPost2010PropOp32
 70
     1
102
RTVSPost2010Prop33
280
     0
102
RTVSPost2010PropOp33
 70
     1
102
RTVSPost2010Prop34
280
     0
102
RTVSPost2010PropOp34
 70
     1
102
RTVSPost2010Prop35
280
     0
102
RTVSPost2010PropOp35
 70
     1
102
RTVSPost2010Prop36
280
     0
102
RTVSPost2010PropOp36
 70
     1
102
RTVSPost2010Prop37
 90
       50
102
RTVSPost2010PropOp37
 70
     1
102
RTVSPost2010Prop38
140
0.0
102
RTVSPost2010PropOp38
 70
     1
102
RTVSPost2010Prop39
140
1.0
102
RTVSPost2010PropOp39
 70
     1
102
RTVSPost2010Prop40
 90
        0
102
RTVSPost2010PropOp40
 70
     1
102
RTVSPost2010Prop41ColorIndex
 90
       18
102
RTVSPost2010Prop41ColorRGB
 90
        0
102
RTVSPost2010PropOp41
 70
     1
102
RTVSPost2010Prop42
 90
       50
102
RTVSPost2010PropOp42
 70
     1
102
RTVSPost2010Prop43
 90
        3
102
RTVSPost2010PropOp43
 70
     1
102
RTVSPost2010Prop44ColorIndex
 90
        5
102
RTVSPost2010Prop44ColorRGB
 90
      255
102
RTVSPost2010PropOp44
 70
     1
102
RTVSPost2010Prop45
280
     0
102
RTVSPost2010PropOp45
 70
     1
102
RTVSPost2010Prop46
 90
       50
102
RTVSPost2010PropOp46
 70
     1
102
RTVSPost2010Prop47
 90
       50
102
RTVSPost2010PropOp47
 70
     1
102
RTVSPost2010Prop48
 90
       50
102
RTVSPost2010PropOp48
 70
     1
102
RTVSPost2010Prop49
280
     0
102
RTVSPost2010PropOp49
 70
     1
102
RTVSPost2010Prop50
 90
       50
102
RTVSPost2010PropOp50
 70
     1
102
RTVSPost2010Prop51ColorIndex
 90
      256
102
RTVSPost2010Prop51ColorRGB
 90
-16777216
102
RTVSPost2010PropOp51
 70
     0
102
RTVSPost2010Prop52
140
1.0
102
RTVSPost2010PropOp52
 70
     0
102
RTVSPost2010Prop53
 90
        2
102
RTVSPost2010PropOp53
 70
     1
102
RTVSPost2010Prop54
  1
strokes_ogs.tif
102
RTVSPost2010PropOp54
 70
     1
102
RTVSPost2010Prop55
280
     0
102
RTVSPost2010PropOp55
 70
     1
102
RTVSPost2010Prop56
140
1.0
102
RTVSPost2010PropOp56
 70
     1
102
RTVSPost2010Prop57
140
1.0
102
RTVSPost2010PropOp57
 70
     1
  0
XRECORD
  5
338
102
{ACAD_REACTORS
330
337
102
}
330
337
100
AcDbXrecord
280
     1
102
RTVSPost2010Prop28
280
     0
102
RTVSPost2010PropOp28
 70
     0
102
RTVSPost2010Prop29
280
     1
102
RTVSPost2010PropOp29
 70
     0
102
RTVSPost2010Prop30
280
     1
102
RTVSPost2010PropOp30
 70
     0
102
RTVSPost2010Prop31
280
     0
102
RTVSPost2010PropOp31
 70
     0
102
RTVSPost2010Prop32
280
     0
102
RTVSPost2010PropOp32
 70
     0
102
RTVSPost2010Prop33
280
     0
102
RTVSPost2010PropOp33
 70
     0
102
RTVSPost2010Prop34
280
     0
102
RTVSPost2010PropOp34
 70
     0
102
RTVSPost2010Prop35
280
     0
102
RTVSPost2010PropOp35
 70
     0
102
RTVSPost2010Prop36
280
     0
102
RTVSPost2010PropOp36
 70
     0
102
RTVSPost2010Prop37
 90
       50
102
RTVSPost2010PropOp37
 70
     0
102
RTVSPost2010Prop38
140
0.0
102
RTVSPost2010PropOp38
 70
     0
102
RTVSPost2010Prop39
140
1.0
102
RTVSPost2010PropOp39
 70
     0
102
RTVSPost2010Prop40
 90
        0
102
RTVSPost2010PropOp40
 70
     0
102
RTVSPost2010Prop41ColorIndex
 90
       18
102
RTVSPost2010Prop41ColorRGB
 90
        0
102
RTVSPost2010PropOp41
 70
     0
102
RTVSPost2010Prop42
 90
       50
102
RTVSPost2010PropOp42
 70
     0
102
RTVSPost2010Prop43
 90
        3
102
RTVSPost2010PropOp43
 70
     0
102
RTVSPost2010Prop44ColorIndex
 90
        5
102
RTVSPost2010Prop44ColorRGB
 90
      255
102
RTVSPost2010PropOp44
 70
     0
102
RTVSPost2010Prop45
280
     0
102
RTVSPost2010PropOp45
 70
     0
102
RTVSPost2010Prop46
 90
       50
102
RTVSPost2010PropOp46
 70
     0
102
RTVSPost2010Prop47
 90
       50
102
RTVSPost2010PropOp47
 70
     0
102
RTVSPost2010Prop48
 90
       50
102
RTVSPost2010PropOp48
 70
     0
102
RTVSPost2010Prop49
280
     0
102
RTVSPost2010PropOp49
 70
     0
102
RTVSPost2010Prop50
 90
       50
102
RTVSPost2010PropOp50
 70
     0
102
RTVSPost2010Prop51ColorIndex
 90
      256
102
RTVSPost2010Prop51ColorRGB
 90
-16777216
102
RTVSPost2010PropOp51
 70
     0
102
RTVSPost2010Prop52
140
1.0
102
RTVSPost2010PropOp52
 70
     0
102
RTVSPost2010Prop53
 90
        2
102
RTVSPost2010PropOp53
 70
     0
102
RTVSPost2010Prop54
  1
strokes_ogs.tif
102
RTVSPost2010PropOp54
 70
     0
102
RTVSPost2010Prop55
280
     0
102
RTVSPost2010PropOp55
 70
     0
102
RTVSPost2010Prop56
140
1.0
102
RTVSPost2010PropOp56
 70
     0
102
RTVSPost2010Prop57
140
1.0
102
RTVSPost2010PropOp57
 70
     0
  0
XRECORD
  5
332
102
{ACAD_REACTORS
330
331
102
}
330
331
100
AcDbXrecord
280
     1
102
RTVSPost2010Prop28
280
     0
102
RTVSPost2010PropOp28
 70
     1
102
RTVSPost2010Prop29
280
     1
102
RTVSPost2010PropOp29
 70
     1
102
RTVSPost2010Prop30
280
     1
102
RTVSPost2010PropOp30
 70
     1
102
RTVSPost2010Prop31
280
     0
102
RTVSPost2010PropOp31
 70
     1
102
RTVSPost2010Prop32
280
     0
102
RTVSPost2010PropOp32
 70
     1
102
RTVSPost2010Prop33
280
     0
102
RTVSPost2010PropOp33
 70
     1
102
RTVSPost2010Prop34
280
     0
102
RTVSPost2010PropOp34
 70
     1
102
RTVSPost2010Prop35
280
     0
102
RTVSPost2010PropOp35
 70
     1
102
RTVSPost2010Prop36
280
     0
102
RTVSPost2010PropOp36
 70
     1
102
RTVSPost2010Prop37
 90
       50
102
RTVSPost2010PropOp37
 70
     1
102
RTVSPost2010Prop38
140
0.0
102
RTVSPost2010PropOp38
 70
     1
102
RTVSPost2010Prop39
140
1.0
102
RTVSPost2010PropOp39
 70
     1
102
RTVSPost2010Prop40
 90
        0
102
RTVSPost2010PropOp40
 70
     1
102
RTVSPost2010Prop41ColorIndex
 90
       18
102
RTVSPost2010Prop41ColorRGB
 90
        0
102
RTVSPost2010PropOp41
 70
     1
102
RTVSPost2010Prop42
 90
       50
102
RTVSPost2010PropOp42
 70
     1
102
RTVSPost2010Prop43
 90
        3
102
RTVSPost2010PropOp43
 70
     1
102
RTVSPost2010Prop44ColorIndex
 90
        5
102
RTVSPost2010Prop44ColorRGB
 90
      255
102
RTVSPost2010PropOp44
 70
     1
102
RTVSPost2010Prop45
280
     0
102
RTVSPost2010PropOp45
 70
     1
102
RTVSPost2010Prop46
 90
       50
102
RTVSPost2010PropOp46
 70
     1
102
RTVSPost2010Prop47
 90
       50
102
RTVSPost2010PropOp47
 70
     1
102
RTVSPost2010Prop48
 90
       50
102
RTVSPost2010PropOp48
 70
     1
102
RTVSPost2010Prop49
280
     0
102
RTVSPost2010PropOp49
 70
     1
102
RTVSPost2010Prop50
 90
       50
102
RTVSPost2010PropOp50
 70
     1
102
RTVSPost2010Prop51ColorIndex
 90
      256
102
RTVSPost2010Prop51ColorRGB
 90
-16777216
102
RTVSPost2010PropOp51
 70
     0
102
RTVSPost2010Prop52
140
1.0
102
RTVSPost2010PropOp52
 70
     0
102
RTVSPost2010Prop53
 90
        2
102
RTVSPost2010PropOp53
 70
     1
102
RTVSPost2010Prop54
  1
strokes_ogs.tif
102
RTVSPost2010PropOp54
 70
     1
102
RTVSPost2010Prop55
280
     0
102
RTVSPost2010PropOp55
 70
     1
102
RTVSPost2010Prop56
140
1.0
102
RTVSPost2010PropOp56
 70
     1
102
RTVSPost2010Prop57
140
1.0
102
RTVSPost2010PropOp57
 70
     1
  0
XRECORD
  5
33A
102
{ACAD_REACTORS
330
339
102
}
330
339
100
AcDbXrecord
280
     1
102
RTVSPost2010Prop28
280
     0
102
RTVSPost2010PropOp28
 70
     0
102
RTVSPost2010Prop29
280
     1
102
RTVSPost2010PropOp29
 70
     0
102
RTVSPost2010Prop30
280
     1
102
RTVSPost2010PropOp30
 70
     0
102
RTVSPost2010Prop31
280
     0
102
RTVSPost2010PropOp31
 70
     0
102
RTVSPost2010Prop32
280
     0
102
RTVSPost2010PropOp32
 70
     0
102
RTVSPost2010Prop33
280
     0
102
RTVSPost2010PropOp33
 70
     0
102
RTVSPost2010Prop34
280
     0
102
RTVSPost2010PropOp34
 70
     0
102
RTVSPost2010Prop35
280
     0
102
RTVSPost2010PropOp35
 70
     0
102
RTVSPost2010Prop36
280
     0
102
RTVSPost2010PropOp36
 70
     0
102
RTVSPost2010Prop37
 90
       50
102
RTVSPost2010PropOp37
 70
     0
102
RTVSPost2010Prop38
140
0.0
102
RTVSPost2010PropOp38
 70
     0
102
RTVSPost2010Prop39
140
1.0
102
RTVSPost2010PropOp39
 70
     0
102
RTVSPost2010Prop40
 90
        0
102
RTVSPost2010PropOp40
 70
     0
102
RTVSPost2010Prop41ColorIndex
 90
       18
102
RTVSPost2010Prop41ColorRGB
 90
        0
102
RTVSPost2010PropOp41
 70
     0
102
RTVSPost2010Prop42
 90
       50
102
RTVSPost2010PropOp42
 70
     0
102
RTVSPost2010Prop43
 90
        3
102
RTVSPost2010PropOp43
 70
     0
102
RTVSPost2010Prop44ColorIndex
 90
        5
102
RTVSPost2010Prop44ColorRGB
 90
      255
102
RTVSPost2010PropOp44
 70
     0
102
RTVSPost2010Prop45
280
     0
102
RTVSPost2010PropOp45
 70
     0
102
RTVSPost2010Prop46
 90
       50
102
RTVSPost2010PropOp46
 70
     0
102
RTVSPost2010Prop47
 90
       50
102
RTVSPost2010PropOp47
 70
     0
102
RTVSPost2010Prop48
 90
       50
102
RTVSPost2010PropOp48
 70
     0
102
RTVSPost2010Prop49
280
     0
102
RTVSPost2010PropOp49
 70
     0
102
RTVSPost2010Prop50
 90
       50
102
RTVSPost2010PropOp50
 70
     0
102
RTVSPost2010Prop51ColorIndex
 90
      256
102
RTVSPost2010Prop51ColorRGB
 90
-16777216
102
RTVSPost2010PropOp51
 70
     0
102
RTVSPost2010Prop52
140
1.0
102
RTVSPost2010PropOp52
 70
     0
102
RTVSPost2010Prop53
 90
        2
102
RTVSPost2010PropOp53
 70
     0
102
RTVSPost2010Prop54
  1
strokes_ogs.tif
102
RTVSPost2010PropOp54
 70
     0
102
RTVSPost2010Prop55
280
     0
102
RTVSPost2010PropOp55
 70
     0
102
RTVSPost2010Prop56
140
1.0
102
RTVSPost2010PropOp56
 70
     0
102
RTVSPost2010Prop57
140
1.0
102
RTVSPost2010PropOp57
 70
     0
  0
XRECORD
  5
328
102
{ACAD_REACTORS
330
327
102
}
330
327
100
AcDbXrecord
280
     1
102
RTVSPost2010Prop28
280
     0
102
RTVSPost2010PropOp28
 70
     1
102
RTVSPost2010Prop29
280
     1
102
RTVSPost2010PropOp29
 70
     1
102
RTVSPost2010Prop30
280
     1
102
RTVSPost2010PropOp30
 70
     1
102
RTVSPost2010Prop31
280
     0
102
RTVSPost2010PropOp31
 70
     1
102
RTVSPost2010Prop32
280
     0
102
RTVSPost2010PropOp32
 70
     1
102
RTVSPost2010Prop33
280
     0
102
RTVSPost2010PropOp33
 70
     1
102
RTVSPost2010Prop34
280
     0
102
RTVSPost2010PropOp34
 70
     1
102
RTVSPost2010Prop35
280
     0
102
RTVSPost2010PropOp35
 70
     1
102
RTVSPost2010Prop36
280
     0
102
RTVSPost2010PropOp36
 70
     1
102
RTVSPost2010Prop37
 90
       50
102
RTVSPost2010PropOp37
 70
     1
102
RTVSPost2010Prop38
140
0.0
102
RTVSPost2010PropOp38
 70
     1
102
RTVSPost2010Prop39
140
1.0
102
RTVSPost2010PropOp39
 70
     1
102
RTVSPost2010Prop40
 90
        0
102
RTVSPost2010PropOp40
 70
     1
102
RTVSPost2010Prop41ColorIndex
 90
       18
102
RTVSPost2010Prop41ColorRGB
 90
        0
102
RTVSPost2010PropOp41
 70
     1
102
RTVSPost2010Prop42
 90
       50
102
RTVSPost2010PropOp42
 70
     1
102
RTVSPost2010Prop43
 90
        3
102
RTVSPost2010PropOp43
 70
     1
102
RTVSPost2010Prop44ColorIndex
 90
        5
102
RTVSPost2010Prop44ColorRGB
 90
      255
102
RTVSPost2010PropOp44
 70
     1
102
RTVSPost2010Prop45
280
     0
102
RTVSPost2010PropOp45
 70
     1
102
RTVSPost2010Prop46
 90
       50
102
RTVSPost2010PropOp46
 70
     1
102
RTVSPost2010Prop47
 90
       50
102
RTVSPost2010PropOp47
 70
     1
102
RTVSPost2010Prop48
 90
       50
102
RTVSPost2010PropOp48
 70
     1
102
RTVSPost2010Prop49
280
     0
102
RTVSPost2010PropOp49
 70
     1
102
RTVSPost2010Prop50
 90
       50
102
RTVSPost2010PropOp50
 70
     1
102
RTVSPost2010Prop51ColorIndex
 90
      256
102
RTVSPost2010Prop51ColorRGB
 90
-16777216
102
RTVSPost2010PropOp51
 70
     0
102
RTVSPost2010Prop52
140
1.0
102
RTVSPost2010PropOp52
 70
     0
102
RTVSPost2010Prop53
 90
        2
102
RTVSPost2010PropOp53
 70
     1
102
RTVSPost2010Prop54
  1
strokes_ogs.tif
102
RTVSPost2010PropOp54
 70
     1
102
RTVSPost2010Prop55
280
     0
102
RTVSPost2010PropOp55
 70
     1
102
RTVSPost2010Prop56
140
1.0
102
RTVSPost2010PropOp56
 70
     1
102
RTVSPost2010Prop57
140
1.0
102
RTVSPost2010PropOp57
 70
     1
  0
XRECORD
  5
346
102
{ACAD_REACTORS
330
345
102
}
330
345
100
AcDbXrecord
280
     1
102
RTVSPost2010Prop28
280
     0
102
RTVSPost2010PropOp28
 70
     1
102
RTVSPost2010Prop29
280
     1
102
RTVSPost2010PropOp29
 70
     1
102
RTVSPost2010Prop30
280
     1
102
RTVSPost2010PropOp30
 70
     1
102
RTVSPost2010Prop31
280
     0
102
RTVSPost2010PropOp31
 70
     1
102
RTVSPost2010Prop32
280
     0
102
RTVSPost2010PropOp32
 70
     1
102
RTVSPost2010Prop33
280
     0
102
RTVSPost2010PropOp33
 70
     1
102
RTVSPost2010Prop34
280
     0
102
RTVSPost2010PropOp34
 70
     1
102
RTVSPost2010Prop35
280
     0
102
RTVSPost2010PropOp35
 70
     1
102
RTVSPost2010Prop36
280
     0
102
RTVSPost2010PropOp36
 70
     1
102
RTVSPost2010Prop37
 90
       50
102
RTVSPost2010PropOp37
 70
     1
102
RTVSPost2010Prop38
140
0.0
102
RTVSPost2010PropOp38
 70
     1
102
RTVSPost2010Prop39
140
1.0
102
RTVSPost2010PropOp39
 70
     1
102
RTVSPost2010Prop40
 90
        0
102
RTVSPost2010PropOp40
 70
     1
102
RTVSPost2010Prop41ColorIndex
 90
       18
102
RTVSPost2010Prop41ColorRGB
 90
        0
102
RTVSPost2010PropOp41
 70
     1
102
RTVSPost2010Prop42
 90
       50
102
RTVSPost2010PropOp42
 70
     1
102
RTVSPost2010Prop43
 90
        3
102
RTVSPost2010PropOp43
 70
     1
102
RTVSPost2010Prop44ColorIndex
 90
        5
102
RTVSPost2010Prop44ColorRGB
 90
      255
102
RTVSPost2010PropOp44
 70
     1
102
RTVSPost2010Prop45
280
     0
102
RTVSPost2010PropOp45
 70
     1
102
RTVSPost2010Prop46
 90
       50
102
RTVSPost2010PropOp46
 70
     1
102
RTVSPost2010Prop47
 90
       50
102
RTVSPost2010PropOp47
 70
     1
102
RTVSPost2010Prop48
 90
       50
102
RTVSPost2010PropOp48
 70
     1
102
RTVSPost2010Prop49
280
     0
102
RTVSPost2010PropOp49
 70
     1
102
RTVSPost2010Prop50
 90
       50
102
RTVSPost2010PropOp50
 70
     1
102
RTVSPost2010Prop51ColorIndex
 90
      256
102
RTVSPost2010Prop51ColorRGB
 90
-16777216
102
RTVSPost2010PropOp51
 70
     0
102
RTVSPost2010Prop52
140
1.0
102
RTVSPost2010PropOp52
 70
     0
102
RTVSPost2010Prop53
 90
        2
102
RTVSPost2010PropOp53
 70
     1
102
RTVSPost2010Prop54
  1
strokes_ogs.tif
102
RTVSPost2010PropOp54
 70
     1
102
RTVSPost2010Prop55
280
     0
102
RTVSPost2010PropOp55
 70
     1
102
RTVSPost2010Prop56
140
1.0
102
RTVSPost2010PropOp56
 70
     1
102
RTVSPost2010Prop57
140
1.0
102
RTVSPost2010PropOp57
 70
     1
  0
XRECORD
  5
344
102
{ACAD_REACTORS
330
343
102
}
330
343
100
AcDbXrecord
280
     1
102
RTVSPost2010Prop28
280
     0
102
RTVSPost2010PropOp28
 70
     1
102
RTVSPost2010Prop29
280
     1
102
RTVSPost2010PropOp29
 70
     1
102
RTVSPost2010Prop30
280
     1
102
RTVSPost2010PropOp30
 70
     1
102
RTVSPost2010Prop31
280
     0
102
RTVSPost2010PropOp31
 70
     1
102
RTVSPost2010Prop32
280
     0
102
RTVSPost2010PropOp32
 70
     1
102
RTVSPost2010Prop33
280
     0
102
RTVSPost2010PropOp33
 70
     1
102
RTVSPost2010Prop34
280
     0
102
RTVSPost2010PropOp34
 70
     1
102
RTVSPost2010Prop35
280
     0
102
RTVSPost2010PropOp35
 70
     1
102
RTVSPost2010Prop36
280
     0
102
RTVSPost2010PropOp36
 70
     1
102
RTVSPost2010Prop37
 90
       50
102
RTVSPost2010PropOp37
 70
     1
102
RTVSPost2010Prop38
140
0.0
102
RTVSPost2010PropOp38
 70
     1
102
RTVSPost2010Prop39
140
1.0
102
RTVSPost2010PropOp39
 70
     1
102
RTVSPost2010Prop40
 90
        0
102
RTVSPost2010PropOp40
 70
     1
102
RTVSPost2010Prop41ColorIndex
 90
       18
102
RTVSPost2010Prop41ColorRGB
 90
        0
102
RTVSPost2010PropOp41
 70
     1
102
RTVSPost2010Prop42
 90
       50
102
RTVSPost2010PropOp42
 70
     1
102
RTVSPost2010Prop43
 90
        3
102
RTVSPost2010PropOp43
 70
     1
102
RTVSPost2010Prop44ColorIndex
 90
        5
102
RTVSPost2010Prop44ColorRGB
 90
      255
102
RTVSPost2010PropOp44
 70
     1
102
RTVSPost2010Prop45
280
     0
102
RTVSPost2010PropOp45
 70
     1
102
RTVSPost2010Prop46
 90
       50
102
RTVSPost2010PropOp46
 70
     1
102
RTVSPost2010Prop47
 90
       50
102
RTVSPost2010PropOp47
 70
     1
102
RTVSPost2010Prop48
 90
       50
102
RTVSPost2010PropOp48
 70
     1
102
RTVSPost2010Prop49
280
     0
102
RTVSPost2010PropOp49
 70
     1
102
RTVSPost2010Prop50
 90
       50
102
RTVSPost2010PropOp50
 70
     1
102
RTVSPost2010Prop51ColorIndex
 90
      256
102
RTVSPost2010Prop51ColorRGB
 90
-16777216
102
RTVSPost2010PropOp51
 70
     0
102
RTVSPost2010Prop52
140
1.0
102
RTVSPost2010PropOp52
 70
     0
102
RTVSPost2010Prop53
 90
        2
102
RTVSPost2010PropOp53
 70
     1
102
RTVSPost2010Prop54
  1
strokes_ogs.tif
102
RTVSPost2010PropOp54
 70
     1
102
RTVSPost2010Prop55
280
     0
102
RTVSPost2010PropOp55
 70
     1
102
RTVSPost2010Prop56
140
1.0
102
RTVSPost2010PropOp56
 70
     1
102
RTVSPost2010Prop57
140
1.0
102
RTVSPost2010PropOp57
 70
     1
  0
XRECORD
  5
33E
102
{ACAD_REACTORS
330
33D
102
}
330
33D
100
AcDbXrecord
280
     1
102
RTVSPost2010Prop28
280
     0
102
RTVSPost2010PropOp28
 70
     1
102
RTVSPost2010Prop29
280
     1
102
RTVSPost2010PropOp29
 70
     1
102
RTVSPost2010Prop30
280
     1
102
RTVSPost2010PropOp30
 70
     1
102
RTVSPost2010Prop31
280
     0
102
RTVSPost2010PropOp31
 70
     1
102
RTVSPost2010Prop32
280
     0
102
RTVSPost2010PropOp32
 70
     1
102
RTVSPost2010Prop33
280
     0
102
RTVSPost2010PropOp33
 70
     1
102
RTVSPost2010Prop34
280
     0
102
RTVSPost2010PropOp34
 70
     1
102
RTVSPost2010Prop35
280
     0
102
RTVSPost2010PropOp35
 70
     1
102
RTVSPost2010Prop36
280
     0
102
RTVSPost2010PropOp36
 70
     1
102
RTVSPost2010Prop37
 90
       50
102
RTVSPost2010PropOp37
 70
     1
102
RTVSPost2010Prop38
140
0.0
102
RTVSPost2010PropOp38
 70
     1
102
RTVSPost2010Prop39
140
1.0
102
RTVSPost2010PropOp39
 70
     1
102
RTVSPost2010Prop40
 90
        0
102
RTVSPost2010PropOp40
 70
     1
102
RTVSPost2010Prop41ColorIndex
 90
       18
102
RTVSPost2010Prop41ColorRGB
 90
        0
102
RTVSPost2010PropOp41
 70
     1
102
RTVSPost2010Prop42
 90
       50
102
RTVSPost2010PropOp42
 70
     1
102
RTVSPost2010Prop43
 90
        3
102
RTVSPost2010PropOp43
 70
     1
102
RTVSPost2010Prop44ColorIndex
 90
        5
102
RTVSPost2010Prop44ColorRGB
 90
      255
102
RTVSPost2010PropOp44
 70
     1
102
RTVSPost2010Prop45
280
     0
102
RTVSPost2010PropOp45
 70
     1
102
RTVSPost2010Prop46
 90
       50
102
RTVSPost2010PropOp46
 70
     1
102
RTVSPost2010Prop47
 90
       50
102
RTVSPost2010PropOp47
 70
     1
102
RTVSPost2010Prop48
 90
       50
102
RTVSPost2010PropOp48
 70
     1
102
RTVSPost2010Prop49
280
     0
102
RTVSPost2010PropOp49
 70
     1
102
RTVSPost2010Prop50
 90
       50
102
RTVSPost2010PropOp50
 70
     1
102
RTVSPost2010Prop51ColorIndex
 90
      256
102
RTVSPost2010Prop51ColorRGB
 90
-16777216
102
RTVSPost2010PropOp51
 70
     0
102
RTVSPost2010Prop52
140
1.0
102
RTVSPost2010PropOp52
 70
     0
102
RTVSPost2010Prop53
 90
        2
102
RTVSPost2010PropOp53
 70
     1
102
RTVSPost2010Prop54
  1
strokes_ogs.tif
102
RTVSPost2010PropOp54
 70
     1
102
RTVSPost2010Prop55
280
     0
102
RTVSPost2010PropOp55
 70
     1
102
RTVSPost2010Prop56
140
1.0
102
RTVSPost2010PropOp56
 70
     1
102
RTVSPost2010Prop57
140
1.0
102
RTVSPost2010PropOp57
 70
     1
  0
XRECORD
  5
340
102
{ACAD_REACTORS
330
33F
102
}
330
33F
100
AcDbXrecord
280
     1
102
RTVSPost2010Prop28
280
     0
102
RTVSPost2010PropOp28
 70
     1
102
RTVSPost2010Prop29
280
     1
102
RTVSPost2010PropOp29
 70
     1
102
RTVSPost2010Prop30
280
     1
102
RTVSPost2010PropOp30
 70
     1
102
RTVSPost2010Prop31
280
     0
102
RTVSPost2010PropOp31
 70
     1
102
RTVSPost2010Prop32
280
     0
102
RTVSPost2010PropOp32
 70
     1
102
RTVSPost2010Prop33
280
     0
102
RTVSPost2010PropOp33
 70
     1
102
RTVSPost2010Prop34
280
     0
102
RTVSPost2010PropOp34
 70
     1
102
RTVSPost2010Prop35
280
     0
102
RTVSPost2010PropOp35
 70
     1
102
RTVSPost2010Prop36
280
     0
102
RTVSPost2010PropOp36
 70
     1
102
RTVSPost2010Prop37
 90
       50
102
RTVSPost2010PropOp37
 70
     1
102
RTVSPost2010Prop38
140
0.0
102
RTVSPost2010PropOp38
 70
     1
102
RTVSPost2010Prop39
140
1.0
102
RTVSPost2010PropOp39
 70
     1
102
RTVSPost2010Prop40
 90
        0
102
RTVSPost2010PropOp40
 70
     1
102
RTVSPost2010Prop41ColorIndex
 90
       18
102
RTVSPost2010Prop41ColorRGB
 90
        0
102
RTVSPost2010PropOp41
 70
     1
102
RTVSPost2010Prop42
 90
       50
102
RTVSPost2010PropOp42
 70
     1
102
RTVSPost2010Prop43
 90
        3
102
RTVSPost2010PropOp43
 70
     1
102
RTVSPost2010Prop44ColorIndex
 90
        5
102
RTVSPost2010Prop44ColorRGB
 90
      255
102
RTVSPost2010PropOp44
 70
     1
102
RTVSPost2010Prop45
280
     0
102
RTVSPost2010PropOp45
 70
     1
102
RTVSPost2010Prop46
 90
       50
102
RTVSPost2010PropOp46
 70
     1
102
RTVSPost2010Prop47
 90
       50
102
RTVSPost2010PropOp47
 70
     1
102
RTVSPost2010Prop48
 90
       50
102
RTVSPost2010PropOp48
 70
     1
102
RTVSPost2010Prop49
280
     0
102
RTVSPost2010PropOp49
 70
     1
102
RTVSPost2010Prop50
 90
       50
102
RTVSPost2010PropOp50
 70
     1
102
RTVSPost2010Prop51ColorIndex
 90
      256
102
RTVSPost2010Prop51ColorRGB
 90
-16777216
102
RTVSPost2010PropOp51
 70
     0
102
RTVSPost2010Prop52
140
1.0
102
RTVSPost2010PropOp52
 70
     0
102
RTVSPost2010Prop53
 90
        2
102
RTVSPost2010PropOp53
 70
     1
102
RTVSPost2010Prop54
  1
strokes_ogs.tif
102
RTVSPost2010PropOp54
 70
     1
102
RTVSPost2010Prop55
280
     0
102
RTVSPost2010PropOp55
 70
     1
102
RTVSPost2010Prop56
140
1.0
102
RTVSPost2010PropOp56
 70
     1
102
RTVSPost2010Prop57
140
1.0
102
RTVSPost2010PropOp57
 70
     1
  0
XRECORD
  5
330
102
{ACAD_REACTORS
330
32F
102
}
330
32F
100
AcDbXrecord
280
     1
102
RTVSPost2010Prop28
280
     0
102
RTVSPost2010PropOp28
 70
     1
102
RTVSPost2010Prop29
280
     1
102
RTVSPost2010PropOp29
 70
     1
102
RTVSPost2010Prop30
280
     1
102
RTVSPost2010PropOp30
 70
     1
102
RTVSPost2010Prop31
280
     0
102
RTVSPost2010PropOp31
 70
     1
102
RTVSPost2010Prop32
280
     0
102
RTVSPost2010PropOp32
 70
     1
102
RTVSPost2010Prop33
280
     0
102
RTVSPost2010PropOp33
 70
     1
102
RTVSPost2010Prop34
280
     0
102
RTVSPost2010PropOp34
 70
     1
102
RTVSPost2010Prop35
280
     0
102
RTVSPost2010PropOp35
 70
     1
102
RTVSPost2010Prop36
280
     0
102
RTVSPost2010PropOp36
 70
     1
102
RTVSPost2010Prop37
 90
       50
102
RTVSPost2010PropOp37
 70
     1
102
RTVSPost2010Prop38
140
0.0
102
RTVSPost2010PropOp38
 70
     1
102
RTVSPost2010Prop39
140
1.0
102
RTVSPost2010PropOp39
 70
     1
102
RTVSPost2010Prop40
 90
        0
102
RTVSPost2010PropOp40
 70
     1
102
RTVSPost2010Prop41ColorIndex
 90
       18
102
RTVSPost2010Prop41ColorRGB
 90
        0
102
RTVSPost2010PropOp41
 70
     1
102
RTVSPost2010Prop42
 90
       50
102
RTVSPost2010PropOp42
 70
     1
102
RTVSPost2010Prop43
 90
        3
102
RTVSPost2010PropOp43
 70
     1
102
RTVSPost2010Prop44ColorIndex
 90
        5
102
RTVSPost2010Prop44ColorRGB
 90
      255
102
RTVSPost2010PropOp44
 70
     1
102
RTVSPost2010Prop45
280
     0
102
RTVSPost2010PropOp45
 70
     1
102
RTVSPost2010Prop46
 90
       50
102
RTVSPost2010PropOp46
 70
     1
102
RTVSPost2010Prop47
 90
       50
102
RTVSPost2010PropOp47
 70
     1
102
RTVSPost2010Prop48
 90
       50
102
RTVSPost2010PropOp48
 70
     1
102
RTVSPost2010Prop49
280
     0
102
RTVSPost2010PropOp49
 70
     1
102
RTVSPost2010Prop50
 90
       50
102
RTVSPost2010PropOp50
 70
     1
102
RTVSPost2010Prop51ColorIndex
 90
      256
102
RTVSPost2010Prop51ColorRGB
 90
-16777216
102
RTVSPost2010PropOp51
 70
     0
102
RTVSPost2010Prop52
140
1.0
102
RTVSPost2010PropOp52
 70
     0
102
RTVSPost2010Prop53
 90
        2
102
RTVSPost2010PropOp53
 70
     1
102
RTVSPost2010Prop54
  1
strokes_ogs.tif
102
RTVSPost2010PropOp54
 70
     1
102
RTVSPost2010Prop55
280
     0
102
RTVSPost2010PropOp55
 70
     1
102
RTVSPost2010Prop56
140
1.0
102
RTVSPost2010PropOp56
 70
     1
102
RTVSPost2010Prop57
140
1.0
102
RTVSPost2010PropOp57
 70
     1
  0
XRECORD
  5
322
102
{ACAD_REACTORS
330
321
102
}
330
321
100
AcDbXrecord
280
     1
102
RTVSPost2010Prop28
280
     0
102
RTVSPost2010PropOp28
 70
     1
102
RTVSPost2010Prop29
280
     1
102
RTVSPost2010PropOp29
 70
     1
102
RTVSPost2010Prop30
280
     1
102
RTVSPost2010PropOp30
 70
     1
102
RTVSPost2010Prop31
280
     0
102
RTVSPost2010PropOp31
 70
     1
102
RTVSPost2010Prop32
280
     0
102
RTVSPost2010PropOp32
 70
     1
102
RTVSPost2010Prop33
280
     0
102
RTVSPost2010PropOp33
 70
     1
102
RTVSPost2010Prop34
280
     0
102
RTVSPost2010PropOp34
 70
     1
102
RTVSPost2010Prop35
280
     0
102
RTVSPost2010PropOp35
 70
     1
102
RTVSPost2010Prop36
280
     0
102
RTVSPost2010PropOp36
 70
     1
102
RTVSPost2010Prop37
 90
       50
102
RTVSPost2010PropOp37
 70
     1
102
RTVSPost2010Prop38
140
0.0
102
RTVSPost2010PropOp38
 70
     1
102
RTVSPost2010Prop39
140
1.0
102
RTVSPost2010PropOp39
 70
     1
102
RTVSPost2010Prop40
 90
        0
102
RTVSPost2010PropOp40
 70
     1
102
RTVSPost2010Prop41ColorIndex
 90
       18
102
RTVSPost2010Prop41ColorRGB
 90
        0
102
RTVSPost2010PropOp41
 70
     1
102
RTVSPost2010Prop42
 90
       50
102
RTVSPost2010PropOp42
 70
     1
102
RTVSPost2010Prop43
 90
        3
102
RTVSPost2010PropOp43
 70
     1
102
RTVSPost2010Prop44ColorIndex
 90
        5
102
RTVSPost2010Prop44ColorRGB
 90
      255
102
RTVSPost2010PropOp44
 70
     1
102
RTVSPost2010Prop45
280
     0
102
RTVSPost2010PropOp45
 70
     1
102
RTVSPost2010Prop46
 90
       50
102
RTVSPost2010PropOp46
 70
     1
102
RTVSPost2010Prop47
 90
       50
102
RTVSPost2010PropOp47
 70
     1
102
RTVSPost2010Prop48
 90
       50
102
RTVSPost2010PropOp48
 70
     1
102
RTVSPost2010Prop49
280
     0
102
RTVSPost2010PropOp49
 70
     1
102
RTVSPost2010Prop50
 90
       50
102
RTVSPost2010PropOp50
 70
     1
102
RTVSPost2010Prop51ColorIndex
 90
      256
102
RTVSPost2010Prop51ColorRGB
 90
-16777216
102
RTVSPost2010PropOp51
 70
     0
102
RTVSPost2010Prop52
140
1.0
102
RTVSPost2010PropOp52
 70
     0
102
RTVSPost2010Prop53
 90
        2
102
RTVSPost2010PropOp53
 70
     1
102
RTVSPost2010Prop54
  1
strokes_ogs.tif
102
RTVSPost2010PropOp54
 70
     1
102
RTVSPost2010Prop55
280
     0
102
RTVSPost2010PropOp55
 70
     1
102
RTVSPost2010Prop56
140
1.0
102
RTVSPost2010PropOp56
 70
     1
102
RTVSPost2010Prop57
140
1.0
102
RTVSPost2010PropOp57
 70
     1
  0
XRECORD
  5
342
102
{ACAD_REACTORS
330
341
102
}
330
341
100
AcDbXrecord
280
     1
102
RTVSPost2010Prop28
280
     0
102
RTVSPost2010PropOp28
 70
     1
102
RTVSPost2010Prop29
280
     1
102
RTVSPost2010PropOp29
 70
     1
102
RTVSPost2010Prop30
280
     1
102
RTVSPost2010PropOp30
 70
     1
102
RTVSPost2010Prop31
280
     0
102
RTVSPost2010PropOp31
 70
     1
102
RTVSPost2010Prop32
280
     0
102
RTVSPost2010PropOp32
 70
     1
102
RTVSPost2010Prop33
280
     0
102
RTVSPost2010PropOp33
 70
     1
102
RTVSPost2010Prop34
280
     0
102
RTVSPost2010PropOp34
 70
     1
102
RTVSPost2010Prop35
280
     0
102
RTVSPost2010PropOp35
 70
     1
102
RTVSPost2010Prop36
280
     0
102
RTVSPost2010PropOp36
 70
     1
102
RTVSPost2010Prop37
 90
       50
102
RTVSPost2010PropOp37
 70
     1
102
RTVSPost2010Prop38
140
0.0
102
RTVSPost2010PropOp38
 70
     1
102
RTVSPost2010Prop39
140
1.0
102
RTVSPost2010PropOp39
 70
     1
102
RTVSPost2010Prop40
 90
        0
102
RTVSPost2010PropOp40
 70
     1
102
RTVSPost2010Prop41ColorIndex
 90
       18
102
RTVSPost2010Prop41ColorRGB
 90
        0
102
RTVSPost2010PropOp41
 70
     1
102
RTVSPost2010Prop42
 90
       50
102
RTVSPost2010PropOp42
 70
     1
102
RTVSPost2010Prop43
 90
        3
102
RTVSPost2010PropOp43
 70
     1
102
RTVSPost2010Prop44ColorIndex
 90
        5
102
RTVSPost2010Prop44ColorRGB
 90
      255
102
RTVSPost2010PropOp44
 70
     1
102
RTVSPost2010Prop45
280
     0
102
RTVSPost2010PropOp45
 70
     1
102
RTVSPost2010Prop46
 90
       50
102
RTVSPost2010PropOp46
 70
     1
102
RTVSPost2010Prop47
 90
       50
102
RTVSPost2010PropOp47
 70
     1
102
RTVSPost2010Prop48
 90
       50
102
RTVSPost2010PropOp48
 70
     1
102
RTVSPost2010Prop49
280
     0
102
RTVSPost2010PropOp49
 70
     1
102
RTVSPost2010Prop50
 90
       50
102
RTVSPost2010PropOp50
 70
     1
102
RTVSPost2010Prop51ColorIndex
 90
      256
102
RTVSPost2010Prop51ColorRGB
 90
-16777216
102
RTVSPost2010PropOp51
 70
     0
102
RTVSPost2010Prop52
140
1.0
102
RTVSPost2010PropOp52
 70
     0
102
RTVSPost2010Prop53
 90
        2
102
RTVSPost2010PropOp53
 70
     1
102
RTVSPost2010Prop54
  1
strokes_ogs.tif
102
RTVSPost2010PropOp54
 70
     1
102
RTVSPost2010Prop55
280
     0
102
RTVSPost2010PropOp55
 70
     1
102
RTVSPost2010Prop56
140
1.0
102
RTVSPost2010PropOp56
 70
     1
102
RTVSPost2010Prop57
140
1.0
102
RTVSPost2010PropOp57
 70
     1
  0
ENDSEC
  0
EOF
