  0
SECTION
  2
HEADER
  9
$ACADVER
  1
AC1024
  9
$ACADMAINTVER
 70
     6
  9
$DWGCODEPAGE
  3
ANSI_932
  9
$INSBASE
 10
0.0
 20
0.0
 30
0.0
  9
$EXTMIN
 10
-4455.0
 20
-3150.0
 30
0.0
  9
$EXTMAX
 10
4455.0
 20
3150.0
 30
0.0
  9
$LIMMIN
 10
-4455.0
 20
-3150.0
  9
$LIMMAX
 10
4455.0
 20
3150.0
  9
$ORTHOMODE
 70
     0
  9
$REGENMODE
 70
     1
  9
$FILLMODE
 70
     1
  9
$QTEXTMODE
 70
     0
  9
$MIRRTEXT
 70
     1
  9
$LTSCALE
 40
30.0
  9
$ATTMODE
 70
     1
  9
$TEXTSIZE
 40
2.5
  9
$TRACEWID
 40
1.0
  9
$TEXTSTYLE
  7
Standard
  9
$CLAYER
  8
0
  9
$CELTYPE
  6
ByLayer
  9
$CECOLOR
 62
   256
  9
$CELTSCALE
 40
1.0
  9
$DISPSILH
 70
     0
  9
$DIMSCALE
 40
1.0
  9
$DIMASZ
 40
2.5
  9
$DIMEXO
 40
0.625
  9
$DIMDLI
 40
3.75
  9
$DIMRND
 40
0.0
  9
$DIMDLE
 40
0.0
  9
$DIMEXE
 40
1.25
  9
$DIMTP
 40
0.0
  9
$DIMTM
 40
0.0
  9
$DIMTXT
 40
2.5
  9
$DIMCEN
 40
2.5
  9
$DIMTSZ
 40
0.0
  9
$DIMTOL
 70
     0
  9
$DIMLIM
 70
     0
  9
$DIMTIH
 70
     0
  9
$DIMTOH
 70
     0
  9
$DIMSE1
 70
     0
  9
$DIMSE2
 70
     0
  9
$DIMTAD
 70
     1
  9
$DIMZIN
 70
     8
  9
$DIMBLK
  1

  9
$DIMASO
 70
     1
  9
$DIMSHO
 70
     1
  9
$DIMPOST
  1

  9
$DIMAPOST
  1

  9
$DIMALT
 70
     0
  9
$DIMALTD
 70
     3
  9
$DIMALTF
 40
0.03937007874016
  9
$DIMLFAC
 40
1.0
  9
$DIMTOFL
 70
     1
  9
$DIMTVP
 40
0.0
  9
$DIMTIX
 70
     0
  9
$DIMSOXD
 70
     0
  9
$DIMSAH
 70
     0
  9
$DIMBLK1
  1

  9
$DIMBLK2
  1

  9
$DIMSTYLE
  2
ISO-25
  9
$DIMCLRD
 70
     0
  9
$DIMCLRE
 70
     0
  9
$DIMCLRT
 70
     0
  9
$DIMTFAC
 40
1.0
  9
$DIMGAP
 40
0.625
  9
$DIMJUST
 70
     0
  9
$DIMSD1
 70
     0
  9
$DIMSD2
 70
     0
  9
$DIMTOLJ
 70
     0
  9
$DIMTZIN
 70
     8
  9
$DIMALTZ
 70
     0
  9
$DIMALTTZ
 70
     0
  9
$DIMUPT
 70
     0
  9
$DIMDEC
 70
     2
  9
$DIMTDEC
 70
     2
  9
$DIMALTU
 70
     2
  9
$DIMALTTD
 70
     3
  9
$DIMTXSTY
  7
Standard
  9
$DIMAUNIT
 70
     0
  9
$DIMADEC
 70
     0
  9
$DIMALTRND
 40
0.0
  9
$DIMAZIN
 70
     0
  9
$DIMDSEP
 70
    44
  9
$DIMATFIT
 70
     3
  9
$DIMFRAC
 70
     0
  9
$DIMLDRBLK
  1

  9
$DIMLUNIT
 70
     2
  9
$DIMLWD
 70
    -2
  9
$DIMLWE
 70
    -2
  9
$DIMTMOVE
 70
     0
  9
$DIMFXL
 40
1.0
  9
$DIMFXLON
 70
     0
  9
$DIMJOGANG
 40
0.7853981633974483
  9
$DIMTFILL
 70
     0
  9
$DIMTFILLCLR
 70
     0
  9
$DIMARCSYM
 70
     0
  9
$DIMLTYPE
  6

  9
$DIMLTEX1
  6

  9
$DIMLTEX2
  6

  9
$DIMTXTDIRECTION
 70
     0
  9
$LUNITS
 70
     2
  9
$LUPREC
 70
     4
  9
$SKETCHINC
 40
1.0
  9
$FILLETRAD
 40
10.0
  9
$AUNITS
 70
     0
  9
$AUPREC
 70
     0
  9
$MENU
  1
.
  9
$ELEVATION
 40
0.0
  9
$PELEVATION
 40
0.0
  9
$THICKNESS
 40
0.0
  9
$LIMCHECK
 70
     0
  9
$CHAMFERA
 40
10.0
  9
$CHAMFERB
 40
10.0
  9
$CHAMFERC
 40
20.0
  9
$CHAMFERD
 40
0.0
  9
$SKPOLY
 70
     0
  9
$TDCREATE
 40
2457953.400929421
  9
$TDUCREATE
 40
2457953.025929421
  9
$TDUPDATE
 40
2457953.400929433
  9
$TDUUPDATE
 40
2457953.025929433
  9
$TDINDWG
 40
0.0000000116
  9
$TDUSRTIMER
 40
0.0000000116
  9
$USRTIMER
 70
     1
  9
$ANGBASE
 50
0.0
  9
$ANGDIR
 70
     0
  9
$PDMODE
 70
     0
  9
$PDSIZE
 40
0.0
  9
$PLINEWID
 40
0.0
  9
$SPLFRAME
 70
     0
  9
$SPLINETYPE
 70
     6
  9
$SPLINESEGS
 70
     8
  9
$HANDSEED
  5
3DF
  9
$SURFTAB1
 70
     6
  9
$SURFTAB2
 70
     6
  9
$SURFTYPE
 70
     6
  9
$SURFU
 70
     6
  9
$SURFV
 70
     6
  9
$UCSBASE
  2

  9
$UCSNAME
  2

  9
$UCSORG
 10
0.0
 20
0.0
 30
0.0
  9
$UCSXDIR
 10
1.0
 20
0.0
 30
0.0
  9
$UCSYDIR
 10
0.0
 20
1.0
 30
0.0
  9
$UCSORTHOREF
  2

  9
$UCSORTHOVIEW
 70
     0
  9
$UCSORGTOP
 10
0.0
 20
0.0
 30
0.0
  9
$UCSORGBOTTOM
 10
0.0
 20
0.0
 30
0.0
  9
$UCSORGLEFT
 10
0.0
 20
0.0
 30
0.0
  9
$UCSORGRIGHT
 10
0.0
 20
0.0
 30
0.0
  9
$UCSORGFRONT
 10
0.0
 20
0.0
 30
0.0
  9
$UCSORGBACK
 10
0.0
 20
0.0
 30
0.0
  9
$PUCSBASE
  2

  9
$PUCSNAME
  2

  9
$PUCSORG
 10
0.0
 20
0.0
 30
0.0
  9
$PUCSXDIR
 10
1.0
 20
0.0
 30
0.0
  9
$PUCSYDIR
 10
0.0
 20
1.0
 30
0.0
  9
$PUCSORTHOREF
  2

  9
$PUCSORTHOVIEW
 70
     0
  9
$PUCSORGTOP
 10
0.0
 20
0.0
 30
0.0
  9
$PUCSORGBOTTOM
 10
0.0
 20
0.0
 30
0.0
  9
$PUCSORGLEFT
 10
0.0
 20
0.0
 30
0.0
  9
$PUCSORGRIGHT
 10
0.0
 20
0.0
 30
0.0
  9
$PUCSORGFRONT
 10
0.0
 20
0.0
 30
0.0
  9
$PUCSORGBACK
 10
0.0
 20
0.0
 30
0.0
  9
$USERI1
 70
     0
  9
$USERI2
 70
     0
  9
$USERI3
 70
     0
  9
$USERI4
 70
     0
  9
$USERI5
 70
     0
  9
$USERR1
 40
0.0
  9
$USERR2
 40
0.0
  9
$USERR3
 40
0.0
  9
$USERR4
 40
0.0
  9
$USERR5
 40
0.0
  9
$WORLDVIEW
 70
     1
  9
$SHADEDGE
 70
     3
  9
$SHADEDIF
 70
    70
  9
$TILEMODE
 70
     1
  9
$MAXACTVP
 70
    64
  9
$PINSBASE
 10
0.0
 20
0.0
 30
0.0
  9
$PLIMCHECK
 70
     0
  9
$PEXTMIN
 10
1.000000000000000E+20
 20
1.000000000000000E+20
 30
1.000000000000000E+20
  9
$PEXTMAX
 10
-1.000000000000000E+20
 20
-1.000000000000000E+20
 30
-1.000000000000000E+20
  9
$PLIMMIN
 10
0.0
 20
0.0
  9
$PLIMMAX
 10
420.0
 20
297.0
  9
$UNITMODE
 70
     0
  9
$VISRETAIN
 70
     1
  9
$PLINEGEN
 70
     0
  9
$PSLTSCALE
 70
     1
  9
$TREEDEPTH
 70
  3020
  9
$CMLSTYLE
  2
Standard
  9
$CMLJUST
 70
     0
  9
$CMLSCALE
 40
20.0
  9
$PROXYGRAPHICS
 70
     1
  9
$MEASUREMENT
 70
     1
  9
$CELWEIGHT
370
    -1
  9
$ENDCAPS
280
     0
  9
$JOINSTYLE
280
     0
  9
$LWDISPLAY
290
     0
  9
$INSUNITS
 70
     4
  9
$HYPERLINKBASE
  1

  9
$STYLESHEET
  1

  9
$XEDIT
290
     1
  9
$CEPSNTYPE
380
     0
  9
$PSTYLEMODE
290
     1
  9
$FINGERPRINTGUID
  2
{C8912616-B11A-4B99-BD03-5CB973A399D5}
  9
$VERSIONGUID
  2
{FAEB1C32-E019-11D5-929B-00C0DF256EC4}
  9
$EXTNAMES
290
     1
  9
$PSVPSCALE
 40
0.0
  9
$OLESTARTUP
290
     0
  9
$SORTENTS
280
   127
  9
$INDEXCTL
280
     0
  9
$HIDETEXT
280
     1
  9
$XCLIPFRAME
280
     2
  9
$HALOGAP
280
     0
  9
$OBSCOLOR
 70
   257
  9
$OBSLTYPE
280
     0
  9
$INTERSECTIONDISPLAY
280
     0
  9
$INTERSECTIONCOLOR
 70
   257
  9
$DIMASSOC
280
     2
  9
$PROJECTNAME
  1

  9
$CAMERADISPLAY
290
     0
  9
$LENSLENGTH
 40
50.0
  9
$CAMERAHEIGHT
 40
0.0
  9
$STEPSPERSEC
 40
2.0
  9
$STEPSIZE
 40
6.0
  9
$3DDWFPREC
 40
2.0
  9
$PSOLWIDTH
 40
5.0
  9
$PSOLHEIGHT
 40
80.0
  9
$LOFTANG1
 40
1.570796326794897
  9
$LOFTANG2
 40
1.570796326794897
  9
$LOFTMAG1
 40
0.0
  9
$LOFTMAG2
 40
0.0
  9
$LOFTPARAM
 70
     7
  9
$LOFTNORMALS
280
     1
  9
$LATITUDE
 40
37.795
  9
$LONGITUDE
 40
-122.394
  9
$NORTHDIRECTION
 40
0.0
  9
$TIMEZONE
 70
 -8000
  9
$LIGHTGLYPHDISPLAY
280
     1
  9
$TILEMODELIGHTSYNCH
280
     1
  9
$SOLIDHIST
280
     1
  9
$SHOWHIST
280
     1
  9
$DWFFRAME
280
     2
  9
$DGNFRAME
280
     2
  9
$REALWORLDSCALE
290
     1
  9
$INTERFERECOLOR
 62
   256
  9
$CSHADOW
280
     0
  9
$SHADOWPLANELOCATION
 40
0.0
  0
ENDSEC
  0
SECTION
  2
CLASSES
  0
CLASS
  1
ACDBDICTIONARYWDFLT
  2
AcDbDictionaryWithDefault
  3
ObjectDBX Classes
 90
        0
 91
        4
280
     0
281
     0
  0
CLASS
  1
VISUALSTYLE
  2
AcDbVisualStyle
  3
ObjectDBX Classes
 90
     4095
 91
        4
280
     0
281
     0
  0
CLASS
  1
MATERIAL
  2
AcDbMaterial
  3
ObjectDBX Classes
 90
     1153
 91
        4
280
     0
281
     0
  0
ENDSEC
  0
SECTION
  2
TABLES
  0
TABLE
  2
VPORT
  5
8
330
0
100
AcDbSymbolTable
 70
     1
  0
VPORT
  5
29
330
8
100
AcDbSymbolTableRecord
100
AcDbViewportTableRecord
  2
*Active
 70
     0
 10
0.0
 20
0.0
 11
1.0
 21
1.0
 12
0.0
 22
0.0
 13
0.0
 23
0.0
 14
10.0
 24
10.0
 15
10.0
 25
10.0
 16
0.0
 26
0.0
 36
1.0
 17
0.0
 27
0.0
 37
0.0
 40
6930.000000000001
 41
1.414285714285714
 42
50.0
 43
0.0
 44
0.0
 50
0.0
 51
0.0
 71
     0
 72
 10000
 73
     1
 74
     3
 75
     0
 76
     0
 77
     0
 78
     0
281
     0
 65
     1
110
0.0
120
0.0
130
0.0
111
1.0
121
0.0
131
0.0
112
0.0
122
1.0
132
0.0
 79
     0
146
0.0
 60
     3
 61
     5
292
     1
282
     1
141
0.0
142
0.0
 63
   250
  0
ENDTAB
  0
TABLE
  2
LTYPE
  5
5
330
0
100
AcDbSymbolTable
 70
     2
  0
LTYPE
  5
14
330
5
100
AcDbSymbolTableRecord
100
AcDbLinetypeTableRecord
  2
ByBlock
 70
     0
  3

 72
    65
 73
     0
 40
0.0
  0
LTYPE
  5
15
330
5
100
AcDbSymbolTableRecord
100
AcDbLinetypeTableRecord
  2
ByLayer
 70
     0
  3

 72
    65
 73
     0
 40
0.0
  0
LTYPE
  5
16
330
5
100
AcDbSymbolTableRecord
100
AcDbLinetypeTableRecord
  2
Continuous
 70
     0
  3
Solid line
 72
    65
 73
     0
 40
0.0
  0
LTYPE
  5
3F
330
5
100
AcDbSymbolTableRecord
100
AcDbLinetypeTableRecord
  2
JWW_DASHED1
 70
     0
  3
-  --  --  --  --  --  --  --  -
 72
    65
 73
     2
 40
1.693333333333333
 49
0.8466666666666667
 74
     0
 49
-0.8466666666666667
 74
     0
  0
ENDTAB
  0
TABLE
  2
LAYER
  5
2
330
0
100
AcDbSymbolTable
 70
     3
  0
LAYER
  5
10
330
2
100
AcDbSymbolTableRecord
100
AcDbLayerTableRecord
  2
0
 70
     0
 62
     7
  6
Continuous
370
    -3
390
F
347
3E
  0
LAYER
  5
40
330
2
100
AcDbSymbolTableRecord
100
AcDbLayerTableRecord
  2
0-0
 70
     0
 62
     7
  6
Continuous
370
    -3
390
F
347
3E
  0
LAYER
  5
41
330
2
100
AcDbSymbolTableRecord
100
AcDbLayerTableRecord
  2
寸法
 70
     0
 62
     7
  6
Continuous
370
    -3
390
F
347
3E
  0
ENDTAB
  0
TABLE
  2
STYLE
  5
3
330
0
100
AcDbSymbolTable
 70
     1
  0
STYLE
  5
11
330
3
100
AcDbSymbolTableRecord
100
AcDbTextStyleTableRecord
  2
Standard
 70
     0
 40
0.0
 41
1.0
 50
0.0
 71
     0
 42
2.5
  3
txt
  4

  0
ENDTAB
  0
TABLE
  2
VIEW
  5
6
330
0
100
AcDbSymbolTable
 70
     0
  0
ENDTAB
  0
TABLE
  2
UCS
  5
7
330
0
100
AcDbSymbolTable
 70
     0
  0
ENDTAB
  0
TABLE
  2
APPID
  5
9
330
0
100
AcDbSymbolTable
 70
     1
  0
APPID
  5
12
330
9
100
AcDbSymbolTableRecord
100
AcDbRegAppTableRecord
  2
ACAD
 70
     0
  0
ENDTAB
  0
TABLE
  2
DIMSTYLE
  5
A
330
0
100
AcDbSymbolTable
 70
     1
100
AcDbDimStyleTable
  0
DIMSTYLE
105
27
330
A
100
AcDbSymbolTableRecord
100
AcDbDimStyleTableRecord
  2
ISO-25
 70
     0
 41
2.5
 42
0.625
 43
3.75
 44
1.25
 73
     0
 74
     0
 77
     1
 78
     8
140
2.5
141
2.5
143
0.03937007874016
147
0.625
171
     3
172
     1
178
     0
271
     2
272
     2
274
     3
278
    44
283
     0
284
     8
340
11
  0
ENDTAB
  0
TABLE
  2
BLOCK_RECORD
  5
1
330
0
100
AcDbSymbolTable
 70
     1
  0
BLOCK_RECORD
  5
1F
330
1
100
AcDbSymbolTableRecord
100
AcDbBlockTableRecord
  2
*Model_Space
340
22
 70
     0
280
     1
281
     0
  0
BLOCK_RECORD
  5
1B
330
1
100
AcDbSymbolTableRecord
100
AcDbBlockTableRecord
  2
*Paper_Space
340
1E
 70
     0
280
     1
281
     0
  0
BLOCK_RECORD
  5
23
330
1
100
AcDbSymbolTableRecord
100
AcDbBlockTableRecord
  2
*Paper_Space0
340
26
 70
     0
280
     1
281
     0
  0
ENDTAB
  0
ENDSEC
  0
SECTION
  2
BLOCKS
  0
BLOCK
  5
20
330
1F
100
AcDbEntity
  8
0
100
AcDbBlockBegin
  2
*Model_Space
 70
     0
 10
0.0
 20
0.0
 30
0.0
  3
*Model_Space
  1

  0
ENDBLK
  5
21
330
1F
100
AcDbEntity
  8
0
100
AcDbBlockEnd
  0
BLOCK
  5
1C
330
1B
100
AcDbEntity
 67
     1
  8
0
100
AcDbBlockBegin
  2
*Paper_Space
 70
     0
 10
0.0
 20
0.0
 30
0.0
  3
*Paper_Space
  1

  0
ENDBLK
  5
1D
330
1B
100
AcDbEntity
 67
     1
  8
0
100
AcDbBlockEnd
  0
BLOCK
  5
24
330
23
100
AcDbEntity
  8
0
100
AcDbBlockBegin
  2
*Paper_Space0
 70
     0
 10
0.0
 20
0.0
 30
0.0
  3
*Paper_Space0
  1

  0
ENDBLK
  5
25
330
23
100
AcDbEntity
  8
0
100
AcDbBlockEnd
  0
ENDSEC
  0
SECTION
  2
ENTITIES
  0
LINE
  5
42
330
1F
100
AcDbEntity
  8
0-0
  6
Continuous
 62
    92
370
    13
100
AcDbLine
 10
2027.743223677584
 20
-1349.580634578172
 30
0.0
 11
-1179.256776322416
 21
-1349.580634578172
 31
0.0
  0
LINE
  5
43
330
1F
100
AcDbEntity
  8
0-0
  6
Continuous
 62
    92
370
    13
100
AcDbLine
 10
1997.743223677584
 20
-1334.580634578172
 30
0.0
 11
-1149.256776322416
 21
-1334.580634578172
 31
0.0
  0
ARC
  5
44
330
1F
100
AcDbEntity
  8
0-0
  6
Continuous
 62
    92
370
    13
100
AcDbCircle
 10
-1120.756776322414
 20
-312.5806345781714
 30
0.0
 40
1.5
100
AcDbArc
 50
90.0
 51
180.0
  0
LINE
  5
45
330
1F
100
AcDbEntity
  8
0-0
  6
Continuous
 62
    92
370
    13
100
AcDbLine
 10
-1081.756776322416
 20
-311.0806345781714
 30
0.0
 11
-1120.756776322414
 21
-311.0806345781714
 31
0.0
  0
ARC
  5
46
330
1F
100
AcDbEntity
  8
0-0
  6
Continuous
 62
    92
370
    13
100
AcDbCircle
 10
-1081.756776322416
 20
-312.5806345781714
 30
0.0
 40
1.5
100
AcDbArc
 50
0.0
 51
90.00000000000001
  0
LINE
  5
47
330
1F
100
AcDbEntity
  8
0-0
  6
Continuous
 62
    92
370
    13
100
AcDbLine
 10
-1080.256776322415
 20
-431.5806345781718
 30
0.0
 11
-1080.256776322415
 21
-312.5806345781714
 31
0.0
  0
ARC
  5
48
330
1F
100
AcDbEntity
  8
0-0
  6
Continuous
 62
    92
370
    13
100
AcDbCircle
 10
-1081.756776322416
 20
-431.5806345781718
 30
0.0
 40
1.5
100
AcDbArc
 50
270.0
 51
0.0
  0
LINE
  5
49
330
1F
100
AcDbEntity
  8
0-0
  6
Continuous
 62
    92
370
    13
100
AcDbLine
 10
-1120.756776322414
 20
-433.0806345781713
 30
0.0
 11
-1081.756776322416
 21
-433.0806345781713
 31
0.0
  0
LINE
  5
4A
330
1F
100
AcDbEntity
  8
0-0
  6
Continuous
 62
    92
370
    13
100
AcDbLine
 10
-1122.256776322415
 20
-431.5806345781718
 30
0.0
 11
-1122.256776322415
 21
-312.5806345781714
 31
0.0
  0
ARC
  5
4B
330
1F
100
AcDbEntity
  8
0-0
  6
Continuous
 62
    92
370
    13
100
AcDbCircle
 10
-1120.756776322414
 20
-431.5806345781718
 30
0.0
 40
1.5
100
AcDbArc
 50
180.0
 51
270.0
  0
ARC
  5
4C
330
1F
100
AcDbEntity
  8
0-0
  6
Continuous
 62
     7
370
     9
100
AcDbCircle
 10
-1101.256776322415
 20
-401.6806345781717
 30
0.0
 40
15.0
100
AcDbArc
 50
180.0
 51
0.0
  0
ARC
  5
4D
330
1F
100
AcDbEntity
  8
0-0
  6
Continuous
 62
     7
370
     9
100
AcDbCircle
 10
-1101.256776322415
 20
-342.4806345781715
 30
0.0
 40
15.0
100
AcDbArc
 50
0.0
 51
180.0
  0
LINE
  5
4E
330
1F
100
AcDbEntity
  8
0-0
  6
Continuous
 62
     7
370
     9
100
AcDbLine
 10
-1086.256776322415
 20
-401.6806345781717
 30
0.0
 11
-1086.256776322415
 21
-342.4806345781715
 31
0.0
  0
LINE
  5
4F
330
1F
100
AcDbEntity
  8
0-0
  6
Continuous
 62
     7
370
     9
100
AcDbLine
 10
-1116.256776322415
 20
-342.4806345781715
 30
0.0
 11
-1116.256776322415
 21
-401.6806345781717
 31
0.0
  0
ARC
  5
50
330
1F
100
AcDbEntity
  8
0-0
  6
Continuous
 62
    92
370
    13
100
AcDbCircle
 10
-340.7567763224143
 20
-312.5806345781714
 30
0.0
 40
1.5
100
AcDbArc
 50
90.0
 51
180.0
  0
LINE
  5
51
330
1F
100
AcDbEntity
  8
0-0
  6
Continuous
 62
    92
370
    13
100
AcDbLine
 10
-301.7567763224157
 20
-311.0806345781714
 30
0.0
 11
-340.7567763224143
 21
-311.0806345781714
 31
0.0
  0
ARC
  5
52
330
1F
100
AcDbEntity
  8
0-0
  6
Continuous
 62
    92
370
    13
100
AcDbCircle
 10
-301.7567763224157
 20
-312.5806345781714
 30
0.0
 40
1.5
100
AcDbArc
 50
0.0
 51
90.00000000000001
  0
LINE
  5
53
330
1F
100
AcDbEntity
  8
0-0
  6
Continuous
 62
    92
370
    13
100
AcDbLine
 10
-300.2567763224137
 20
-431.5806345781718
 30
0.0
 11
-300.2567763224137
 21
-312.5806345781714
 31
0.0
  0
ARC
  5
54
330
1F
100
AcDbEntity
  8
0-0
  6
Continuous
 62
    92
370
    13
100
AcDbCircle
 10
-301.7567763224157
 20
-431.5806345781718
 30
0.0
 40
1.5
100
AcDbArc
 50
270.0
 51
0.0
  0
LINE
  5
55
330
1F
100
AcDbEntity
  8
0-0
  6
Continuous
 62
    92
370
    13
100
AcDbLine
 10
-340.7567763224143
 20
-433.0806345781713
 30
0.0
 11
-301.7567763224157
 21
-433.0806345781713
 31
0.0
  0
LINE
  5
56
330
1F
100
AcDbEntity
  8
0-0
  6
Continuous
 62
    92
370
    13
100
AcDbLine
 10
-342.2567763224147
 20
-431.5806345781718
 30
0.0
 11
-342.2567763224147
 21
-312.5806345781714
 31
0.0
  0
ARC
  5
57
330
1F
100
AcDbEntity
  8
0-0
  6
Continuous
 62
    92
370
    13
100
AcDbCircle
 10
-340.7567763224143
 20
-431.5806345781718
 30
0.0
 40
1.5
100
AcDbArc
 50
180.0
 51
270.0
  0
ARC
  5
58
330
1F
100
AcDbEntity
  8
0-0
  6
Continuous
 62
     7
370
     9
100
AcDbCircle
 10
-321.256776322415
 20
-401.6806345781717
 30
0.0
 40
15.0
100
AcDbArc
 50
180.0
 51
0.0
  0
ARC
  5
59
330
1F
100
AcDbEntity
  8
0-0
  6
Continuous
 62
     7
370
     9
100
AcDbCircle
 10
-321.256776322415
 20
-342.4806345781715
 30
0.0
 40
15.0
100
AcDbArc
 50
0.0
 51
180.0
  0
LINE
  5
5A
330
1F
100
AcDbEntity
  8
0-0
  6
Continuous
 62
     7
370
     9
100
AcDbLine
 10
-306.256776322415
 20
-401.6806345781717
 30
0.0
 11
-306.256776322415
 21
-342.4806345781715
 31
0.0
  0
LINE
  5
5B
330
1F
100
AcDbEntity
  8
0-0
  6
Continuous
 62
     7
370
     9
100
AcDbLine
 10
-336.256776322415
 20
-342.4806345781715
 30
0.0
 11
-336.256776322415
 21
-401.6806345781717
 31
0.0
  0
ARC
  5
5C
330
1F
100
AcDbEntity
  8
0-0
  6
Continuous
 62
    92
370
    13
100
AcDbCircle
 10
439.2432236775856
 20
-312.5806345781714
 30
0.0
 40
1.5
100
AcDbArc
 50
90.0
 51
180.0
  0
LINE
  5
5D
330
1F
100
AcDbEntity
  8
0-0
  6
Continuous
 62
    92
370
    13
100
AcDbLine
 10
478.2432236775842
 20
-311.0806345781714
 30
0.0
 11
439.2432236775856
 21
-311.0806345781714
 31
0.0
  0
ARC
  5
5E
330
1F
100
AcDbEntity
  8
0-0
  6
Continuous
 62
    92
370
    13
100
AcDbCircle
 10
478.2432236775842
 20
-312.5806345781714
 30
0.0
 40
1.5
100
AcDbArc
 50
0.0
 51
90.00000000000001
  0
LINE
  5
5F
330
1F
100
AcDbEntity
  8
0-0
  6
Continuous
 62
    92
370
    13
100
AcDbLine
 10
479.7432236775863
 20
-431.5806345781718
 30
0.0
 11
479.7432236775863
 21
-312.5806345781714
 31
0.0
  0
ARC
  5
60
330
1F
100
AcDbEntity
  8
0-0
  6
Continuous
 62
    92
370
    13
100
AcDbCircle
 10
478.2432236775842
 20
-431.5806345781718
 30
0.0
 40
1.5
100
AcDbArc
 50
270.0
 51
0.0
  0
LINE
  5
61
330
1F
100
AcDbEntity
  8
0-0
  6
Continuous
 62
    92
370
    13
100
AcDbLine
 10
439.2432236775856
 20
-433.0806345781713
 30
0.0
 11
478.2432236775842
 21
-433.0806345781713
 31
0.0
  0
LINE
  5
62
330
1F
100
AcDbEntity
  8
0-0
  6
Continuous
 62
    92
370
    13
100
AcDbLine
 10
437.7432236775853
 20
-431.5806345781718
 30
0.0
 11
437.7432236775853
 21
-312.5806345781714
 31
0.0
  0
ARC
  5
63
330
1F
100
AcDbEntity
  8
0-0
  6
Continuous
 62
    92
370
    13
100
AcDbCircle
 10
439.2432236775856
 20
-431.5806345781718
 30
0.0
 40
1.5
100
AcDbArc
 50
180.0
 51
270.0
  0
ARC
  5
64
330
1F
100
AcDbEntity
  8
0-0
  6
Continuous
 62
     7
370
     9
100
AcDbCircle
 10
458.7432236775849
 20
-401.6806345781717
 30
0.0
 40
15.0
100
AcDbArc
 50
180.0
 51
0.0
  0
ARC
  5
65
330
1F
100
AcDbEntity
  8
0-0
  6
Continuous
 62
     7
370
     9
100
AcDbCircle
 10
458.7432236775849
 20
-342.4806345781715
 30
0.0
 40
15.0
100
AcDbArc
 50
0.0
 51
180.0
  0
LINE
  5
66
330
1F
100
AcDbEntity
  8
0-0
  6
Continuous
 62
     7
370
     9
100
AcDbLine
 10
473.7432236775849
 20
-401.6806345781717
 30
0.0
 11
473.7432236775849
 21
-342.4806345781715
 31
0.0
  0
LINE
  5
67
330
1F
100
AcDbEntity
  8
0-0
  6
Continuous
 62
     7
370
     9
100
AcDbLine
 10
443.7432236775849
 20
-342.4806345781715
 30
0.0
 11
443.7432236775849
 21
-401.6806345781717
 31
0.0
  0
LINE
  5
68
330
1F
100
AcDbEntity
  8
0-0
  6
JWW_DASHED1
 62
   120
370
     5
100
AcDbLine
 10
-1149.256776322416
 20
-1329.580634578171
 30
0.0
 11
-1152.256776322416
 21
-1329.580634578171
 31
0.0
  0
LINE
  5
69
330
1F
100
AcDbEntity
  8
0-0
  6
Continuous
 62
    92
370
    13
100
AcDbLine
 10
-1149.256776322416
 20
-1329.580634578171
 30
0.0
 11
1217.743223677584
 21
-1329.580634578171
 31
0.0
  0
LINE
  5
6A
330
1F
100
AcDbEntity
  8
0-0
  6
Continuous
 62
     7
370
     9
100
AcDbLine
 10
-1033.756776322416
 20
-1179.580634578171
 30
0.0
 11
-1048.756776322416
 21
-1194.580634578171
 31
0.0
  0
LINE
  5
6B
330
1F
100
AcDbEntity
  8
0-0
  6
Continuous
 62
     7
370
     9
100
AcDbLine
 10
-460.756776322417
 20
-1179.580634578171
 30
0.0
 11
-445.756776322417
 21
-1194.580634578171
 31
0.0
  0
LINE
  5
6C
330
1F
100
AcDbEntity
  8
0-0
  6
Continuous
 62
     7
370
     9
100
AcDbLine
 10
-1048.756776322416
 20
-1194.580634578171
 30
0.0
 11
-445.756776322417
 21
-1194.580634578171
 31
0.0
  0
LINE
  5
6D
330
1F
100
AcDbEntity
  8
0-0
  6
Continuous
 62
     7
370
     9
100
AcDbLine
 10
-1003.756776322416
 20
-1149.580634578171
 30
0.0
 11
-1018.756776322416
 21
-1164.580634578171
 31
0.0
  0
LINE
  5
6E
330
1F
100
AcDbEntity
  8
0-0
  6
Continuous
 62
     7
370
     9
100
AcDbLine
 10
-490.756776322417
 20
-1149.580634578171
 30
0.0
 11
-475.756776322417
 21
-1164.580634578171
 31
0.0
  0
LINE
  5
6F
330
1F
100
AcDbEntity
  8
0-0
  6
Continuous
 62
     7
370
     9
100
AcDbLine
 10
-1003.756776322416
 20
-1149.580634578171
 30
0.0
 11
-490.756776322417
 21
-1149.580634578171
 31
0.0
  0
LINE
  5
70
330
1F
100
AcDbEntity
  8
0-0
  6
Continuous
 62
    92
370
    13
100
AcDbLine
 10
-1033.756776322416
 20
-1179.580634578171
 30
0.0
 11
-460.756776322417
 21
-1179.580634578171
 31
0.0
  0
LINE
  5
71
330
1F
100
AcDbEntity
  8
0-0
  6
Continuous
 62
     7
370
     9
100
AcDbLine
 10
-253.7567763224151
 20
-1179.580634578171
 30
0.0
 11
-268.756776322415
 21
-1194.580634578171
 31
0.0
  0
LINE
  5
72
330
1F
100
AcDbEntity
  8
0-0
  6
Continuous
 62
     7
370
     9
100
AcDbLine
 10
319.2432236775839
 20
-1179.580634578171
 30
0.0
 11
334.2432236775839
 21
-1194.580634578171
 31
0.0
  0
LINE
  5
73
330
1F
100
AcDbEntity
  8
0-0
  6
Continuous
 62
     7
370
     9
100
AcDbLine
 10
-268.756776322415
 20
-1194.580634578171
 30
0.0
 11
334.2432236775839
 21
-1194.580634578171
 31
0.0
  0
LINE
  5
74
330
1F
100
AcDbEntity
  8
0-0
  6
Continuous
 62
     7
370
     9
100
AcDbLine
 10
-223.7567763224151
 20
-1149.580634578171
 30
0.0
 11
-238.7567763224151
 21
-1164.580634578171
 31
0.0
  0
LINE
  5
75
330
1F
100
AcDbEntity
  8
0-0
  6
Continuous
 62
     7
370
     9
100
AcDbLine
 10
289.2432236775839
 20
-1149.580634578171
 30
0.0
 11
304.2432236775839
 21
-1164.580634578171
 31
0.0
  0
LINE
  5
76
330
1F
100
AcDbEntity
  8
0-0
  6
Continuous
 62
     7
370
     9
100
AcDbLine
 10
-223.7567763224151
 20
-1149.580634578171
 30
0.0
 11
289.2432236775839
 21
-1149.580634578171
 31
0.0
  0
LINE
  5
77
330
1F
100
AcDbEntity
  8
0-0
  6
Continuous
 62
    92
370
    13
100
AcDbLine
 10
-253.7567763224151
 20
-1179.580634578171
 30
0.0
 11
319.2432236775839
 21
-1179.580634578171
 31
0.0
  0
LINE
  5
78
330
1F
100
AcDbEntity
  8
0-0
  6
Continuous
 62
     7
370
     9
100
AcDbLine
 10
526.243223677585
 20
-1179.580634578171
 30
0.0
 11
511.243223677585
 21
-1194.580634578171
 31
0.0
  0
LINE
  5
79
330
1F
100
AcDbEntity
  8
0-0
  6
Continuous
 62
     7
370
     9
100
AcDbLine
 10
1099.243223677584
 20
-1179.580634578171
 30
0.0
 11
1114.243223677584
 21
-1194.580634578171
 31
0.0
  0
LINE
  5
7A
330
1F
100
AcDbEntity
  8
0-0
  6
Continuous
 62
     7
370
     9
100
AcDbLine
 10
511.243223677585
 20
-1194.580634578171
 30
0.0
 11
1114.243223677584
 21
-1194.580634578171
 31
0.0
  0
LINE
  5
7B
330
1F
100
AcDbEntity
  8
0-0
  6
Continuous
 62
     7
370
     9
100
AcDbLine
 10
556.243223677585
 20
-1149.580634578171
 30
0.0
 11
541.243223677585
 21
-1164.580634578171
 31
0.0
  0
LINE
  5
7C
330
1F
100
AcDbEntity
  8
0-0
  6
Continuous
 62
     7
370
     9
100
AcDbLine
 10
1069.243223677584
 20
-1149.580634578171
 30
0.0
 11
1084.243223677584
 21
-1164.580634578171
 31
0.0
  0
LINE
  5
7D
330
1F
100
AcDbEntity
  8
0-0
  6
Continuous
 62
     7
370
     9
100
AcDbLine
 10
556.243223677585
 20
-1149.580634578171
 30
0.0
 11
1069.243223677584
 21
-1149.580634578171
 31
0.0
  0
LINE
  5
7E
330
1F
100
AcDbEntity
  8
0-0
  6
Continuous
 62
    92
370
    13
100
AcDbLine
 10
526.243223677585
 20
-1179.580634578171
 30
0.0
 11
1099.243223677584
 21
-1179.580634578171
 31
0.0
  0
LINE
  5
7F
330
1F
100
AcDbEntity
  8
0-0
  6
Continuous
 62
    92
370
    13
100
AcDbLine
 10
-1149.256776322416
 20
853.4193654218283
 30
0.0
 11
1217.743223677584
 21
853.4193654218283
 31
0.0
  0
LINE
  5
80
330
1F
100
AcDbEntity
  8
0-0
  6
Continuous
 62
    92
370
    13
100
AcDbLine
 10
-1179.256776322416
 20
-1349.580634578172
 30
0.0
 11
-1179.256776322416
 21
897.4193654218275
 31
0.0
  0
LINE
  5
81
330
1F
100
AcDbEntity
  8
0-0
  6
Continuous
 62
    92
370
    13
100
AcDbLine
 10
2027.743223677584
 20
897.4193654218275
 30
0.0
 11
2027.743223677584
 21
-1349.580634578172
 31
0.0
  0
LINE
  5
82
330
1F
100
AcDbEntity
  8
0-0
  6
JWW_DASHED1
 62
   120
370
     5
100
AcDbLine
 10
1187.743223677584
 20
-1334.580634578172
 30
0.0
 11
1187.743223677584
 21
861.4193654218278
 31
0.0
  0
LINE
  5
83
330
1F
100
AcDbEntity
  8
0-0
  6
JWW_DASHED1
 62
   120
370
     5
100
AcDbLine
 10
1217.743223677584
 20
-1334.580634578172
 30
0.0
 11
1217.743223677584
 21
861.4193654218278
 31
0.0
  0
LINE
  5
84
330
1F
100
AcDbEntity
  8
0-0
  6
Continuous
 62
    92
370
    13
100
AcDbLine
 10
-1149.256776322416
 20
-1349.580634578172
 30
0.0
 11
-1149.256776322416
 21
897.4193654218275
 31
0.0
  0
LINE
  5
85
330
1F
100
AcDbEntity
  8
0-0
  6
Continuous
 62
    92
370
    13
100
AcDbLine
 10
1997.743223677584
 20
-1349.580634578172
 30
0.0
 11
1997.743223677584
 21
897.4193654218275
 31
0.0
  0
LINE
  5
86
330
1F
100
AcDbEntity
  8
0-0
  6
Continuous
 62
    92
370
    13
100
AcDbLine
 10
-1149.256776322416
 20
861.4193654218278
 30
0.0
 11
1997.743223677584
 21
861.4193654218278
 31
0.0
  0
LINE
  5
87
330
1F
100
AcDbEntity
  8
0-0
  6
Continuous
 62
    92
370
    13
100
AcDbLine
 10
-1179.256776322416
 20
897.4193654218275
 30
0.0
 11
2027.743223677584
 21
897.4193654218275
 31
0.0
  0
LINE
  5
88
330
1F
100
AcDbEntity
  8
0-0
  6
JWW_DASHED1
 62
   120
370
     5
100
AcDbLine
 10
-1152.256776322416
 20
-1329.580634578171
 30
0.0
 11
-1152.256776322416
 21
853.4193654218283
 31
0.0
  0
LINE
  5
89
330
1F
100
AcDbEntity
  8
0-0
  6
JWW_DASHED1
 62
   120
370
     5
100
AcDbLine
 10
-1152.256776322416
 20
853.4193654218283
 30
0.0
 11
-1149.256776322416
 21
853.4193654218283
 31
0.0
  0
LINE
  5
8A
330
1F
100
AcDbEntity
  8
0-0
  6
JWW_DASHED1
 62
   120
370
     5
100
AcDbLine
 10
-342.2567763224156
 20
-1329.580634578171
 30
0.0
 11
-342.2567763224156
 21
853.4193654218283
 31
0.0
  0
LINE
  5
8B
330
1F
100
AcDbEntity
  8
0-0
  6
Continuous
 62
    92
370
    13
100
AcDbLine
 10
-372.2567763224156
 20
853.4193654218283
 30
0.0
 11
-372.2567763224156
 21
-1329.580634578171
 31
0.0
  0
LINE
  5
8C
330
1F
100
AcDbEntity
  8
0-0
  6
JWW_DASHED1
 62
   120
370
     5
100
AcDbLine
 10
437.7432236775844
 20
-1329.580634578171
 30
0.0
 11
437.7432236775844
 21
853.4193654218283
 31
0.0
  0
LINE
  5
8D
330
1F
100
AcDbEntity
  8
0-0
  6
Continuous
 62
    92
370
    13
100
AcDbLine
 10
407.7432236775844
 20
853.4193654218283
 30
0.0
 11
407.7432236775844
 21
-1329.580634578171
 31
0.0
  0
LINE
  5
8E
330
1F
100
AcDbEntity
  8
0-0
  6
Continuous
 62
    92
370
    13
100
AcDbLine
 10
1217.743223677584
 20
853.4193654218283
 30
0.0
 11
1217.743223677584
 21
-1329.580634578171
 31
0.0
  0
LINE
  5
8F
330
1F
100
AcDbEntity
  8
0-0
  6
Continuous
 62
     7
370
     9
100
AcDbLine
 10
-1048.756776322416
 20
733.4193654218288
 30
0.0
 11
-1033.756776322416
 21
718.4193654218288
 31
0.0
  0
LINE
  5
90
330
1F
100
AcDbEntity
  8
0-0
  6
Continuous
 62
     7
370
     9
100
AcDbLine
 10
-1048.756776322416
 20
-1329.580634578171
 30
0.0
 11
-1048.756776322416
 21
853.4193654218288
 31
0.0
  0
LINE
  5
91
330
1F
100
AcDbEntity
  8
0-0
  6
Continuous
 62
     7
370
     9
100
AcDbLine
 10
-445.756776322417
 20
733.4193654218288
 30
0.0
 11
-460.756776322417
 21
718.4193654218288
 31
0.0
  0
LINE
  5
92
330
1F
100
AcDbEntity
  8
0-0
  6
Continuous
 62
     7
370
     9
100
AcDbLine
 10
-445.756776322417
 20
-1329.580634578171
 30
0.0
 11
-445.756776322417
 21
853.4193654218288
 31
0.0
  0
LINE
  5
93
330
1F
100
AcDbEntity
  8
0-0
  6
Continuous
 62
     7
370
     9
100
AcDbLine
 10
-1048.756776322416
 20
733.4193654218288
 30
0.0
 11
-445.756776322417
 21
733.4193654218288
 31
0.0
  0
LINE
  5
94
330
1F
100
AcDbEntity
  8
0-0
  6
Continuous
 62
     7
370
     9
100
AcDbLine
 10
-1033.756776322416
 20
-456.5806345781713
 30
0.0
 11
-1048.756776322416
 21
-471.5806345781713
 31
0.0
  0
LINE
  5
95
330
1F
100
AcDbEntity
  8
0-0
  6
Continuous
 62
     7
370
     9
100
AcDbLine
 10
-1048.756776322416
 20
-546.5806345781713
 30
0.0
 11
-1033.756776322416
 21
-561.5806345781713
 31
0.0
  0
LINE
  5
96
330
1F
100
AcDbEntity
  8
0-0
  6
Continuous
 62
     7
370
     9
100
AcDbLine
 10
-460.756776322417
 20
-456.5806345781713
 30
0.0
 11
-445.756776322417
 21
-471.5806345781713
 31
0.0
  0
LINE
  5
97
330
1F
100
AcDbEntity
  8
0-0
  6
Continuous
 62
     7
370
     9
100
AcDbLine
 10
-445.756776322417
 20
-546.5806345781713
 30
0.0
 11
-460.756776322417
 21
-561.5806345781713
 31
0.0
  0
LINE
  5
98
330
1F
100
AcDbEntity
  8
0-0
  6
Continuous
 62
     7
370
     9
100
AcDbLine
 10
-1048.756776322416
 20
-471.5806345781713
 30
0.0
 11
-445.756776322417
 21
-471.5806345781713
 31
0.0
  0
LINE
  5
99
330
1F
100
AcDbEntity
  8
0-0
  6
Continuous
 62
     7
370
     9
100
AcDbLine
 10
-1048.756776322416
 20
-546.5806345781713
 30
0.0
 11
-445.756776322417
 21
-546.5806345781713
 31
0.0
  0
LINE
  5
9A
330
1F
100
AcDbEntity
  8
0-0
  6
Continuous
 62
     7
370
     9
100
AcDbLine
 10
-1003.756776322416
 20
-1149.580634578171
 30
0.0
 11
-1003.756776322416
 21
-591.5806345781713
 31
0.0
  0
LINE
  5
9B
330
1F
100
AcDbEntity
  8
0-0
  6
Continuous
 62
     7
370
     9
100
AcDbLine
 10
-1018.756776322416
 20
-576.5806345781713
 30
0.0
 11
-1003.756776322416
 21
-591.5806345781713
 31
0.0
  0
LINE
  5
9C
330
1F
100
AcDbEntity
  8
0-0
  6
Continuous
 62
     7
370
     9
100
AcDbLine
 10
-475.756776322417
 20
-576.5806345781713
 30
0.0
 11
-490.756776322417
 21
-591.5806345781713
 31
0.0
  0
LINE
  5
9D
330
1F
100
AcDbEntity
  8
0-0
  6
Continuous
 62
     7
370
     9
100
AcDbLine
 10
-1003.756776322416
 20
-591.5806345781713
 30
0.0
 11
-490.756776322417
 21
-591.5806345781713
 31
0.0
  0
LINE
  5
9E
330
1F
100
AcDbEntity
  8
0-0
  6
Continuous
 62
     7
370
     9
100
AcDbLine
 10
-490.756776322417
 20
-1149.580634578171
 30
0.0
 11
-490.756776322417
 21
-591.5806345781713
 31
0.0
  0
LINE
  5
9F
330
1F
100
AcDbEntity
  8
0-0
  6
Continuous
 62
    92
370
    13
100
AcDbLine
 10
-1033.756776322416
 20
718.4193654218288
 30
0.0
 11
-460.756776322417
 21
718.4193654218288
 31
0.0
  0
LINE
  5
A0
330
1F
100
AcDbEntity
  8
0-0
  6
Continuous
 62
    92
370
    13
100
AcDbLine
 10
-1033.756776322416
 20
-456.5806345781713
 30
0.0
 11
-460.756776322417
 21
-456.5806345781713
 31
0.0
  0
LINE
  5
A1
330
1F
100
AcDbEntity
  8
0-0
  6
Continuous
 62
    92
370
    13
100
AcDbLine
 10
-1033.756776322416
 20
-561.5806345781713
 30
0.0
 11
-460.756776322417
 21
-561.5806345781713
 31
0.0
  0
LINE
  5
A2
330
1F
100
AcDbEntity
  8
0-0
  6
Continuous
 62
    92
370
    13
100
AcDbLine
 10
-1033.756776322416
 20
-456.5806345781713
 30
0.0
 11
-1033.756776322416
 21
718.4193654218288
 31
0.0
  0
LINE
  5
A3
330
1F
100
AcDbEntity
  8
0-0
  6
Continuous
 62
    92
370
    13
100
AcDbLine
 10
-1033.756776322416
 20
-1179.580634578171
 30
0.0
 11
-1033.756776322416
 21
-561.5806345781713
 31
0.0
  0
LINE
  5
A4
330
1F
100
AcDbEntity
  8
0-0
  6
Continuous
 62
    92
370
    13
100
AcDbLine
 10
-460.756776322417
 20
-456.5806345781713
 30
0.0
 11
-460.756776322417
 21
718.4193654218288
 31
0.0
  0
LINE
  5
A5
330
1F
100
AcDbEntity
  8
0-0
  6
Continuous
 62
    92
370
    13
100
AcDbLine
 10
-460.756776322417
 20
-1179.580634578171
 30
0.0
 11
-460.756776322417
 21
-561.5806345781713
 31
0.0
  0
LINE
  5
A6
330
1F
100
AcDbEntity
  8
0-0
  6
Continuous
 62
     7
370
     9
100
AcDbLine
 10
-268.756776322415
 20
733.4193654218288
 30
0.0
 11
-253.7567763224151
 21
718.4193654218288
 31
0.0
  0
LINE
  5
A7
330
1F
100
AcDbEntity
  8
0-0
  6
Continuous
 62
     7
370
     9
100
AcDbLine
 10
-268.756776322415
 20
-1329.580634578171
 30
0.0
 11
-268.756776322415
 21
853.4193654218288
 31
0.0
  0
LINE
  5
A8
330
1F
100
AcDbEntity
  8
0-0
  6
Continuous
 62
     7
370
     9
100
AcDbLine
 10
334.2432236775839
 20
733.4193654218288
 30
0.0
 11
319.2432236775839
 21
718.4193654218288
 31
0.0
  0
LINE
  5
A9
330
1F
100
AcDbEntity
  8
0-0
  6
Continuous
 62
     7
370
     9
100
AcDbLine
 10
334.2432236775839
 20
-1329.580634578171
 30
0.0
 11
334.2432236775839
 21
853.4193654218288
 31
0.0
  0
LINE
  5
AA
330
1F
100
AcDbEntity
  8
0-0
  6
Continuous
 62
     7
370
     9
100
AcDbLine
 10
-268.756776322415
 20
733.4193654218288
 30
0.0
 11
334.2432236775839
 21
733.4193654218288
 31
0.0
  0
LINE
  5
AB
330
1F
100
AcDbEntity
  8
0-0
  6
Continuous
 62
     7
370
     9
100
AcDbLine
 10
-253.7567763224151
 20
-456.5806345781713
 30
0.0
 11
-268.756776322415
 21
-471.5806345781713
 31
0.0
  0
LINE
  5
AC
330
1F
100
AcDbEntity
  8
0-0
  6
Continuous
 62
     7
370
     9
100
AcDbLine
 10
-268.756776322415
 20
-546.5806345781713
 30
0.0
 11
-253.7567763224151
 21
-561.5806345781713
 31
0.0
  0
LINE
  5
AD
330
1F
100
AcDbEntity
  8
0-0
  6
Continuous
 62
     7
370
     9
100
AcDbLine
 10
319.2432236775839
 20
-456.5806345781713
 30
0.0
 11
334.2432236775839
 21
-471.5806345781713
 31
0.0
  0
LINE
  5
AE
330
1F
100
AcDbEntity
  8
0-0
  6
Continuous
 62
     7
370
     9
100
AcDbLine
 10
334.2432236775839
 20
-546.5806345781713
 30
0.0
 11
319.2432236775839
 21
-561.5806345781713
 31
0.0
  0
LINE
  5
AF
330
1F
100
AcDbEntity
  8
0-0
  6
Continuous
 62
     7
370
     9
100
AcDbLine
 10
-268.756776322415
 20
-471.5806345781713
 30
0.0
 11
334.2432236775839
 21
-471.5806345781713
 31
0.0
  0
LINE
  5
B0
330
1F
100
AcDbEntity
  8
0-0
  6
Continuous
 62
     7
370
     9
100
AcDbLine
 10
-268.756776322415
 20
-546.5806345781713
 30
0.0
 11
334.2432236775839
 21
-546.5806345781713
 31
0.0
  0
LINE
  5
B1
330
1F
100
AcDbEntity
  8
0-0
  6
Continuous
 62
     7
370
     9
100
AcDbLine
 10
-223.7567763224151
 20
-1149.580634578171
 30
0.0
 11
-223.7567763224151
 21
-591.5806345781713
 31
0.0
  0
LINE
  5
B2
330
1F
100
AcDbEntity
  8
0-0
  6
Continuous
 62
     7
370
     9
100
AcDbLine
 10
-238.7567763224151
 20
-576.5806345781713
 30
0.0
 11
-223.7567763224151
 21
-591.5806345781713
 31
0.0
  0
LINE
  5
B3
330
1F
100
AcDbEntity
  8
0-0
  6
Continuous
 62
     7
370
     9
100
AcDbLine
 10
304.2432236775839
 20
-576.5806345781713
 30
0.0
 11
289.2432236775839
 21
-591.5806345781713
 31
0.0
  0
LINE
  5
B4
330
1F
100
AcDbEntity
  8
0-0
  6
Continuous
 62
     7
370
     9
100
AcDbLine
 10
-223.7567763224151
 20
-591.5806345781713
 30
0.0
 11
289.2432236775839
 21
-591.5806345781713
 31
0.0
  0
LINE
  5
B5
330
1F
100
AcDbEntity
  8
0-0
  6
Continuous
 62
     7
370
     9
100
AcDbLine
 10
289.2432236775839
 20
-1149.580634578171
 30
0.0
 11
289.2432236775839
 21
-591.5806345781713
 31
0.0
  0
LINE
  5
B6
330
1F
100
AcDbEntity
  8
0-0
  6
Continuous
 62
    92
370
    13
100
AcDbLine
 10
-253.7567763224151
 20
718.4193654218288
 30
0.0
 11
319.2432236775839
 21
718.4193654218288
 31
0.0
  0
LINE
  5
B7
330
1F
100
AcDbEntity
  8
0-0
  6
Continuous
 62
    92
370
    13
100
AcDbLine
 10
-253.7567763224151
 20
-456.5806345781713
 30
0.0
 11
319.2432236775839
 21
-456.5806345781713
 31
0.0
  0
LINE
  5
B8
330
1F
100
AcDbEntity
  8
0-0
  6
Continuous
 62
    92
370
    13
100
AcDbLine
 10
-253.7567763224151
 20
-561.5806345781713
 30
0.0
 11
319.2432236775839
 21
-561.5806345781713
 31
0.0
  0
LINE
  5
B9
330
1F
100
AcDbEntity
  8
0-0
  6
Continuous
 62
    92
370
    13
100
AcDbLine
 10
-253.7567763224151
 20
-456.5806345781713
 30
0.0
 11
-253.7567763224151
 21
718.4193654218288
 31
0.0
  0
LINE
  5
BA
330
1F
100
AcDbEntity
  8
0-0
  6
Continuous
 62
    92
370
    13
100
AcDbLine
 10
-253.7567763224151
 20
-1179.580634578171
 30
0.0
 11
-253.7567763224151
 21
-561.5806345781713
 31
0.0
  0
LINE
  5
BB
330
1F
100
AcDbEntity
  8
0-0
  6
Continuous
 62
    92
370
    13
100
AcDbLine
 10
319.2432236775839
 20
-456.5806345781713
 30
0.0
 11
319.2432236775839
 21
718.4193654218288
 31
0.0
  0
LINE
  5
BC
330
1F
100
AcDbEntity
  8
0-0
  6
Continuous
 62
    92
370
    13
100
AcDbLine
 10
319.2432236775839
 20
-1179.580634578171
 30
0.0
 11
319.2432236775839
 21
-561.5806345781713
 31
0.0
  0
LINE
  5
BD
330
1F
100
AcDbEntity
  8
0-0
  6
Continuous
 62
     7
370
     9
100
AcDbLine
 10
511.243223677585
 20
733.4193654218288
 30
0.0
 11
526.243223677585
 21
718.4193654218288
 31
0.0
  0
LINE
  5
BE
330
1F
100
AcDbEntity
  8
0-0
  6
Continuous
 62
     7
370
     9
100
AcDbLine
 10
511.243223677585
 20
-1329.580634578171
 30
0.0
 11
511.243223677585
 21
853.4193654218288
 31
0.0
  0
LINE
  5
BF
330
1F
100
AcDbEntity
  8
0-0
  6
Continuous
 62
     7
370
     9
100
AcDbLine
 10
1114.243223677584
 20
733.4193654218288
 30
0.0
 11
1099.243223677584
 21
718.4193654218288
 31
0.0
  0
LINE
  5
C0
330
1F
100
AcDbEntity
  8
0-0
  6
Continuous
 62
     7
370
     9
100
AcDbLine
 10
1114.243223677584
 20
-1329.580634578171
 30
0.0
 11
1114.243223677584
 21
853.4193654218288
 31
0.0
  0
LINE
  5
C1
330
1F
100
AcDbEntity
  8
0-0
  6
Continuous
 62
     7
370
     9
100
AcDbLine
 10
511.243223677585
 20
733.4193654218288
 30
0.0
 11
1114.243223677584
 21
733.4193654218288
 31
0.0
  0
LINE
  5
C2
330
1F
100
AcDbEntity
  8
0-0
  6
Continuous
 62
     7
370
     9
100
AcDbLine
 10
526.243223677585
 20
-456.5806345781713
 30
0.0
 11
511.243223677585
 21
-471.5806345781713
 31
0.0
  0
LINE
  5
C3
330
1F
100
AcDbEntity
  8
0-0
  6
Continuous
 62
     7
370
     9
100
AcDbLine
 10
511.243223677585
 20
-546.5806345781713
 30
0.0
 11
526.243223677585
 21
-561.5806345781713
 31
0.0
  0
LINE
  5
C4
330
1F
100
AcDbEntity
  8
0-0
  6
Continuous
 62
     7
370
     9
100
AcDbLine
 10
1099.243223677584
 20
-456.5806345781713
 30
0.0
 11
1114.243223677584
 21
-471.5806345781713
 31
0.0
  0
LINE
  5
C5
330
1F
100
AcDbEntity
  8
0-0
  6
Continuous
 62
     7
370
     9
100
AcDbLine
 10
1114.243223677584
 20
-546.5806345781713
 30
0.0
 11
1099.243223677584
 21
-561.5806345781713
 31
0.0
  0
LINE
  5
C6
330
1F
100
AcDbEntity
  8
0-0
  6
Continuous
 62
     7
370
     9
100
AcDbLine
 10
511.243223677585
 20
-471.5806345781713
 30
0.0
 11
1114.243223677584
 21
-471.5806345781713
 31
0.0
  0
LINE
  5
C7
330
1F
100
AcDbEntity
  8
0-0
  6
Continuous
 62
     7
370
     9
100
AcDbLine
 10
511.243223677585
 20
-546.5806345781713
 30
0.0
 11
1114.243223677584
 21
-546.5806345781713
 31
0.0
  0
LINE
  5
C8
330
1F
100
AcDbEntity
  8
0-0
  6
Continuous
 62
     7
370
     9
100
AcDbLine
 10
556.243223677585
 20
-1149.580634578171
 30
0.0
 11
556.243223677585
 21
-591.5806345781713
 31
0.0
  0
LINE
  5
C9
330
1F
100
AcDbEntity
  8
0-0
  6
Continuous
 62
     7
370
     9
100
AcDbLine
 10
541.243223677585
 20
-576.5806345781713
 30
0.0
 11
556.243223677585
 21
-591.5806345781713
 31
0.0
  0
LINE
  5
CA
330
1F
100
AcDbEntity
  8
0-0
  6
Continuous
 62
     7
370
     9
100
AcDbLine
 10
1084.243223677584
 20
-576.5806345781713
 30
0.0
 11
1069.243223677584
 21
-591.5806345781713
 31
0.0
  0
LINE
  5
CB
330
1F
100
AcDbEntity
  8
0-0
  6
Continuous
 62
     7
370
     9
100
AcDbLine
 10
556.243223677585
 20
-591.5806345781713
 30
0.0
 11
1069.243223677584
 21
-591.5806345781713
 31
0.0
  0
LINE
  5
CC
330
1F
100
AcDbEntity
  8
0-0
  6
Continuous
 62
     7
370
     9
100
AcDbLine
 10
1069.243223677584
 20
-1149.580634578171
 30
0.0
 11
1069.243223677584
 21
-591.5806345781713
 31
0.0
  0
LINE
  5
CD
330
1F
100
AcDbEntity
  8
0-0
  6
Continuous
 62
    92
370
    13
100
AcDbLine
 10
526.243223677585
 20
718.4193654218288
 30
0.0
 11
1099.243223677584
 21
718.4193654218288
 31
0.0
  0
LINE
  5
CE
330
1F
100
AcDbEntity
  8
0-0
  6
Continuous
 62
    92
370
    13
100
AcDbLine
 10
526.243223677585
 20
-456.5806345781713
 30
0.0
 11
1099.243223677584
 21
-456.5806345781713
 31
0.0
  0
LINE
  5
CF
330
1F
100
AcDbEntity
  8
0-0
  6
Continuous
 62
    92
370
    13
100
AcDbLine
 10
526.243223677585
 20
-561.5806345781713
 30
0.0
 11
1099.243223677584
 21
-561.5806345781713
 31
0.0
  0
LINE
  5
D0
330
1F
100
AcDbEntity
  8
0-0
  6
Continuous
 62
    92
370
    13
100
AcDbLine
 10
526.243223677585
 20
-456.5806345781713
 30
0.0
 11
526.243223677585
 21
718.4193654218288
 31
0.0
  0
LINE
  5
D1
330
1F
100
AcDbEntity
  8
0-0
  6
Continuous
 62
    92
370
    13
100
AcDbLine
 10
526.243223677585
 20
-1179.580634578171
 30
0.0
 11
526.243223677585
 21
-561.5806345781713
 31
0.0
  0
LINE
  5
D2
330
1F
100
AcDbEntity
  8
0-0
  6
Continuous
 62
    92
370
    13
100
AcDbLine
 10
1099.243223677584
 20
-456.5806345781713
 30
0.0
 11
1099.243223677584
 21
718.4193654218288
 31
0.0
  0
LINE
  5
D3
330
1F
100
AcDbEntity
  8
0-0
  6
Continuous
 62
    92
370
    13
100
AcDbLine
 10
1099.243223677584
 20
-1179.580634578171
 30
0.0
 11
1099.243223677584
 21
-561.5806345781713
 31
0.0
  0
LINE
  5
D4
330
1F
100
AcDbEntity
  8
0-0
  6
JWW_DASHED1
 62
   120
370
     5
100
AcDbLine
 10
-1033.756776322417
 20
-455.5807828921149
 30
0.0
 11
-460.756776322416
 21
-455.5807828921149
 31
0.0
  0
LINE
  5
D5
330
1F
100
AcDbEntity
  8
0-0
  6
JWW_DASHED1
 62
   120
370
     5
100
AcDbLine
 10
-1033.756776322417
 20
-442.5807828910152
 30
0.0
 11
-460.756776322416
 21
-442.5807828910152
 31
0.0
  0
LINE
  5
D6
330
1F
100
AcDbEntity
  8
0-0
  6
JWW_DASHED1
 62
   120
370
     5
100
AcDbLine
 10
-1033.756776322417
 20
-441.5807828911151
 30
0.0
 11
-460.756776322416
 21
-441.5807828911151
 31
0.0
  0
LINE
  5
D7
330
1F
100
AcDbEntity
  8
0-0
  6
JWW_DASHED1
 62
   120
370
     5
100
AcDbLine
 10
-1033.756776322417
 20
-428.5807828900155
 30
0.0
 11
-460.756776322416
 21
-428.5807828900155
 31
0.0
  0
LINE
  5
D8
330
1F
100
AcDbEntity
  8
0-0
  6
JWW_DASHED1
 62
   120
370
     5
100
AcDbLine
 10
-1033.756776322417
 20
-427.5807828901153
 30
0.0
 11
-460.756776322416
 21
-427.5807828901153
 31
0.0
  0
LINE
  5
D9
330
1F
100
AcDbEntity
  8
0-0
  6
JWW_DASHED1
 62
   120
370
     5
100
AcDbLine
 10
-1033.756776322417
 20
-414.5807828890157
 30
0.0
 11
-460.756776322416
 21
-414.5807828890157
 31
0.0
  0
LINE
  5
DA
330
1F
100
AcDbEntity
  8
0-0
  6
JWW_DASHED1
 62
   120
370
     5
100
AcDbLine
 10
-1033.756776322417
 20
-413.5807828891155
 30
0.0
 11
-460.756776322416
 21
-413.5807828891155
 31
0.0
  0
LINE
  5
DB
330
1F
100
AcDbEntity
  8
0-0
  6
JWW_DASHED1
 62
   120
370
     5
100
AcDbLine
 10
-1033.756776322417
 20
-400.5807828880159
 30
0.0
 11
-460.756776322416
 21
-400.5807828880159
 31
0.0
  0
LINE
  5
DC
330
1F
100
AcDbEntity
  8
0-0
  6
JWW_DASHED1
 62
   120
370
     5
100
AcDbLine
 10
-1033.756776322417
 20
-399.5807828881157
 30
0.0
 11
-460.756776322416
 21
-399.5807828881157
 31
0.0
  0
LINE
  5
DD
330
1F
100
AcDbEntity
  8
0-0
  6
JWW_DASHED1
 62
   120
370
     5
100
AcDbLine
 10
-1033.756776322417
 20
-386.5807828870161
 30
0.0
 11
-460.756776322416
 21
-386.5807828870161
 31
0.0
  0
LINE
  5
DE
330
1F
100
AcDbEntity
  8
0-0
  6
JWW_DASHED1
 62
   120
370
     5
100
AcDbLine
 10
-1033.756776322417
 20
-385.5807828871159
 30
0.0
 11
-460.756776322416
 21
-385.5807828871159
 31
0.0
  0
LINE
  5
DF
330
1F
100
AcDbEntity
  8
0-0
  6
JWW_DASHED1
 62
   120
370
     5
100
AcDbLine
 10
-1033.756776322417
 20
-372.5807828860163
 30
0.0
 11
-460.756776322416
 21
-372.5807828860163
 31
0.0
  0
LINE
  5
E0
330
1F
100
AcDbEntity
  8
0-0
  6
JWW_DASHED1
 62
   120
370
     5
100
AcDbLine
 10
-1033.756776322417
 20
-371.5807828861161
 30
0.0
 11
-460.756776322416
 21
-371.5807828861161
 31
0.0
  0
LINE
  5
E1
330
1F
100
AcDbEntity
  8
0-0
  6
JWW_DASHED1
 62
   120
370
     5
100
AcDbLine
 10
-1033.756776322417
 20
-358.5807828850165
 30
0.0
 11
-460.756776322416
 21
-358.5807828850165
 31
0.0
  0
LINE
  5
E2
330
1F
100
AcDbEntity
  8
0-0
  6
JWW_DASHED1
 62
   120
370
     5
100
AcDbLine
 10
-1033.756776322417
 20
-357.5807828851163
 30
0.0
 11
-460.756776322416
 21
-357.5807828851163
 31
0.0
  0
LINE
  5
E3
330
1F
100
AcDbEntity
  8
0-0
  6
JWW_DASHED1
 62
   120
370
     5
100
AcDbLine
 10
-1033.756776322417
 20
-344.5807828840167
 30
0.0
 11
-460.756776322416
 21
-344.5807828840167
 31
0.0
  0
LINE
  5
E4
330
1F
100
AcDbEntity
  8
0-0
  6
JWW_DASHED1
 62
   120
370
     5
100
AcDbLine
 10
-1033.756776322417
 20
-343.5807828841166
 30
0.0
 11
-460.756776322416
 21
-343.5807828841166
 31
0.0
  0
LINE
  5
E5
330
1F
100
AcDbEntity
  8
0-0
  6
JWW_DASHED1
 62
   120
370
     5
100
AcDbLine
 10
-1033.756776322417
 20
-330.5807828830169
 30
0.0
 11
-460.756776322416
 21
-330.5807828830169
 31
0.0
  0
LINE
  5
E6
330
1F
100
AcDbEntity
  8
0-0
  6
JWW_DASHED1
 62
   120
370
     5
100
AcDbLine
 10
-1033.756776322417
 20
-329.5807828831167
 30
0.0
 11
-460.756776322416
 21
-329.5807828831167
 31
0.0
  0
LINE
  5
E7
330
1F
100
AcDbEntity
  8
0-0
  6
JWW_DASHED1
 62
   120
370
     5
100
AcDbLine
 10
-1033.756776322417
 20
-316.5807828820172
 30
0.0
 11
-460.756776322416
 21
-316.5807828820172
 31
0.0
  0
LINE
  5
E8
330
1F
100
AcDbEntity
  8
0-0
  6
JWW_DASHED1
 62
   120
370
     5
100
AcDbLine
 10
-1033.756776322417
 20
-315.580782882117
 30
0.0
 11
-460.756776322416
 21
-315.580782882117
 31
0.0
  0
LINE
  5
E9
330
1F
100
AcDbEntity
  8
0-0
  6
JWW_DASHED1
 62
   120
370
     5
100
AcDbLine
 10
-1033.756776322417
 20
-302.5807828810173
 30
0.0
 11
-460.756776322416
 21
-302.5807828810173
 31
0.0
  0
LINE
  5
EA
330
1F
100
AcDbEntity
  8
0-0
  6
JWW_DASHED1
 62
   120
370
     5
100
AcDbLine
 10
-1033.756776322417
 20
-301.5807828811172
 30
0.0
 11
-460.756776322416
 21
-301.5807828811172
 31
0.0
  0
LINE
  5
EB
330
1F
100
AcDbEntity
  8
0-0
  6
JWW_DASHED1
 62
   120
370
     5
100
AcDbLine
 10
-1033.756776322417
 20
-288.5807828800176
 30
0.0
 11
-460.756776322416
 21
-288.5807828800176
 31
0.0
  0
LINE
  5
EC
330
1F
100
AcDbEntity
  8
0-0
  6
JWW_DASHED1
 62
   120
370
     5
100
AcDbLine
 10
-1033.756776322417
 20
-287.5807828801174
 30
0.0
 11
-460.756776322416
 21
-287.5807828801174
 31
0.0
  0
LINE
  5
ED
330
1F
100
AcDbEntity
  8
0-0
  6
JWW_DASHED1
 62
   120
370
     5
100
AcDbLine
 10
-1033.756776322417
 20
-274.5807828790178
 30
0.0
 11
-460.756776322416
 21
-274.5807828790178
 31
0.0
  0
LINE
  5
EE
330
1F
100
AcDbEntity
  8
0-0
  6
JWW_DASHED1
 62
   120
370
     5
100
AcDbLine
 10
-1033.756776322417
 20
-273.5807828791176
 30
0.0
 11
-460.756776322416
 21
-273.5807828791176
 31
0.0
  0
LINE
  5
EF
330
1F
100
AcDbEntity
  8
0-0
  6
JWW_DASHED1
 62
   120
370
     5
100
AcDbLine
 10
-1033.756776322417
 20
-260.580782878018
 30
0.0
 11
-460.756776322416
 21
-260.580782878018
 31
0.0
  0
LINE
  5
F0
330
1F
100
AcDbEntity
  8
0-0
  6
JWW_DASHED1
 62
   120
370
     5
100
AcDbLine
 10
-1033.756776322417
 20
-259.5807828781178
 30
0.0
 11
-460.756776322416
 21
-259.5807828781178
 31
0.0
  0
LINE
  5
F1
330
1F
100
AcDbEntity
  8
0-0
  6
JWW_DASHED1
 62
   120
370
     5
100
AcDbLine
 10
-1033.756776322417
 20
-246.5807828770182
 30
0.0
 11
-460.756776322416
 21
-246.5807828770182
 31
0.0
  0
LINE
  5
F2
330
1F
100
AcDbEntity
  8
0-0
  6
JWW_DASHED1
 62
   120
370
     5
100
AcDbLine
 10
-1033.756776322417
 20
-245.580782877118
 30
0.0
 11
-460.756776322416
 21
-245.580782877118
 31
0.0
  0
LINE
  5
F3
330
1F
100
AcDbEntity
  8
0-0
  6
JWW_DASHED1
 62
   120
370
     5
100
AcDbLine
 10
-1033.756776322417
 20
-232.5807828760184
 30
0.0
 11
-460.756776322416
 21
-232.5807828760184
 31
0.0
  0
LINE
  5
F4
330
1F
100
AcDbEntity
  8
0-0
  6
JWW_DASHED1
 62
   120
370
     5
100
AcDbLine
 10
-1033.756776322417
 20
-231.5807828761182
 30
0.0
 11
-460.756776322416
 21
-231.5807828761182
 31
0.0
  0
LINE
  5
F5
330
1F
100
AcDbEntity
  8
0-0
  6
JWW_DASHED1
 62
   120
370
     5
100
AcDbLine
 10
-1033.756776322417
 20
-218.5807828750186
 30
0.0
 11
-460.756776322416
 21
-218.5807828750186
 31
0.0
  0
LINE
  5
F6
330
1F
100
AcDbEntity
  8
0-0
  6
JWW_DASHED1
 62
   120
370
     5
100
AcDbLine
 10
-1033.756776322417
 20
-217.5807828751184
 30
0.0
 11
-460.756776322416
 21
-217.5807828751184
 31
0.0
  0
LINE
  5
F7
330
1F
100
AcDbEntity
  8
0-0
  6
JWW_DASHED1
 62
   120
370
     5
100
AcDbLine
 10
-1033.756776322417
 20
-204.5807828740188
 30
0.0
 11
-460.756776322416
 21
-204.5807828740188
 31
0.0
  0
LINE
  5
F8
330
1F
100
AcDbEntity
  8
0-0
  6
JWW_DASHED1
 62
   120
370
     5
100
AcDbLine
 10
-1033.756776322417
 20
-203.5807828741187
 30
0.0
 11
-460.756776322416
 21
-203.5807828741187
 31
0.0
  0
LINE
  5
F9
330
1F
100
AcDbEntity
  8
0-0
  6
JWW_DASHED1
 62
   120
370
     5
100
AcDbLine
 10
-1033.756776322417
 20
-190.580782873019
 30
0.0
 11
-460.756776322416
 21
-190.580782873019
 31
0.0
  0
LINE
  5
FA
330
1F
100
AcDbEntity
  8
0-0
  6
JWW_DASHED1
 62
   120
370
     5
100
AcDbLine
 10
-1033.756776322417
 20
-189.5807828731188
 30
0.0
 11
-460.756776322416
 21
-189.5807828731188
 31
0.0
  0
LINE
  5
FB
330
1F
100
AcDbEntity
  8
0-0
  6
JWW_DASHED1
 62
   120
370
     5
100
AcDbLine
 10
-1033.756776322417
 20
-176.5807828720193
 30
0.0
 11
-460.756776322416
 21
-176.5807828720193
 31
0.0
  0
LINE
  5
FC
330
1F
100
AcDbEntity
  8
0-0
  6
JWW_DASHED1
 62
   120
370
     5
100
AcDbLine
 10
-1033.756776322417
 20
-175.5807828721191
 30
0.0
 11
-460.756776322416
 21
-175.5807828721191
 31
0.0
  0
LINE
  5
FD
330
1F
100
AcDbEntity
  8
0-0
  6
JWW_DASHED1
 62
   120
370
     5
100
AcDbLine
 10
-1033.756776322417
 20
-162.5807828710194
 30
0.0
 11
-460.756776322416
 21
-162.5807828710194
 31
0.0
  0
LINE
  5
FE
330
1F
100
AcDbEntity
  8
0-0
  6
JWW_DASHED1
 62
   120
370
     5
100
AcDbLine
 10
-1033.756776322417
 20
-161.5807828711193
 30
0.0
 11
-460.756776322416
 21
-161.5807828711193
 31
0.0
  0
LINE
  5
FF
330
1F
100
AcDbEntity
  8
0-0
  6
JWW_DASHED1
 62
   120
370
     5
100
AcDbLine
 10
-1033.756776322417
 20
-148.5807828700197
 30
0.0
 11
-460.756776322416
 21
-148.5807828700197
 31
0.0
  0
LINE
  5
100
330
1F
100
AcDbEntity
  8
0-0
  6
JWW_DASHED1
 62
   120
370
     5
100
AcDbLine
 10
-1033.756776322417
 20
-147.5807828701195
 30
0.0
 11
-460.756776322416
 21
-147.5807828701195
 31
0.0
  0
LINE
  5
101
330
1F
100
AcDbEntity
  8
0-0
  6
JWW_DASHED1
 62
   120
370
     5
100
AcDbLine
 10
-1033.756776322417
 20
-134.5807828690199
 30
0.0
 11
-460.756776322416
 21
-134.5807828690199
 31
0.0
  0
LINE
  5
102
330
1F
100
AcDbEntity
  8
0-0
  6
JWW_DASHED1
 62
   120
370
     5
100
AcDbLine
 10
-1033.756776322417
 20
-133.5807828691197
 30
0.0
 11
-460.756776322416
 21
-133.5807828691197
 31
0.0
  0
LINE
  5
103
330
1F
100
AcDbEntity
  8
0-0
  6
JWW_DASHED1
 62
   120
370
     5
100
AcDbLine
 10
-1033.756776322417
 20
-120.5807828680201
 30
0.0
 11
-460.756776322416
 21
-120.5807828680201
 31
0.0
  0
LINE
  5
104
330
1F
100
AcDbEntity
  8
0-0
  6
JWW_DASHED1
 62
   120
370
     5
100
AcDbLine
 10
-1033.756776322417
 20
-119.5807828681199
 30
0.0
 11
-460.756776322416
 21
-119.5807828681199
 31
0.0
  0
LINE
  5
105
330
1F
100
AcDbEntity
  8
0-0
  6
JWW_DASHED1
 62
   120
370
     5
100
AcDbLine
 10
-1033.756776322417
 20
-106.5807828670203
 30
0.0
 11
-460.756776322416
 21
-106.5807828670203
 31
0.0
  0
LINE
  5
106
330
1F
100
AcDbEntity
  8
0-0
  6
JWW_DASHED1
 62
   120
370
     5
100
AcDbLine
 10
-1033.756776322417
 20
-105.5807828671201
 30
0.0
 11
-460.756776322416
 21
-105.5807828671201
 31
0.0
  0
LINE
  5
107
330
1F
100
AcDbEntity
  8
0-0
  6
JWW_DASHED1
 62
   120
370
     5
100
AcDbLine
 10
-1033.756776322417
 20
-92.5807828660205
 30
0.0
 11
-460.756776322416
 21
-92.5807828660205
 31
0.0
  0
LINE
  5
108
330
1F
100
AcDbEntity
  8
0-0
  6
JWW_DASHED1
 62
   120
370
     5
100
AcDbLine
 10
-1033.756776322417
 20
-91.58078286612032
 30
0.0
 11
-460.756776322416
 21
-91.58078286612032
 31
0.0
  0
LINE
  5
109
330
1F
100
AcDbEntity
  8
0-0
  6
JWW_DASHED1
 62
   120
370
     5
100
AcDbLine
 10
-1033.756776322417
 20
-78.58078286502071
 30
0.0
 11
-460.756776322416
 21
-78.58078286502071
 31
0.0
  0
LINE
  5
10A
330
1F
100
AcDbEntity
  8
0-0
  6
JWW_DASHED1
 62
   120
370
     5
100
AcDbLine
 10
-1033.756776322417
 20
-77.58078286512053
 30
0.0
 11
-460.756776322416
 21
-77.58078286512053
 31
0.0
  0
LINE
  5
10B
330
1F
100
AcDbEntity
  8
0-0
  6
JWW_DASHED1
 62
   120
370
     5
100
AcDbLine
 10
-1033.756776322417
 20
-64.58078286402092
 30
0.0
 11
-460.756776322416
 21
-64.58078286402092
 31
0.0
  0
LINE
  5
10C
330
1F
100
AcDbEntity
  8
0-0
  6
JWW_DASHED1
 62
   120
370
     5
100
AcDbLine
 10
-1033.756776322417
 20
-63.58078286412074
 30
0.0
 11
-460.756776322416
 21
-63.58078286412074
 31
0.0
  0
LINE
  5
10D
330
1F
100
AcDbEntity
  8
0-0
  6
JWW_DASHED1
 62
   120
370
     5
100
AcDbLine
 10
-1033.756776322417
 20
-50.58078286302113
 30
0.0
 11
-460.756776322416
 21
-50.58078286302113
 31
0.0
  0
LINE
  5
10E
330
1F
100
AcDbEntity
  8
0-0
  6
JWW_DASHED1
 62
   120
370
     5
100
AcDbLine
 10
-1033.756776322417
 20
-49.58078286312094
 30
0.0
 11
-460.756776322416
 21
-49.58078286312094
 31
0.0
  0
LINE
  5
10F
330
1F
100
AcDbEntity
  8
0-0
  6
JWW_DASHED1
 62
   120
370
     5
100
AcDbLine
 10
-1033.756776322417
 20
-36.58078286202134
 30
0.0
 11
-460.756776322416
 21
-36.58078286202134
 31
0.0
  0
LINE
  5
110
330
1F
100
AcDbEntity
  8
0-0
  6
JWW_DASHED1
 62
   120
370
     5
100
AcDbLine
 10
-1033.756776322417
 20
-35.58078286212115
 30
0.0
 11
-460.756776322416
 21
-35.58078286212115
 31
0.0
  0
LINE
  5
111
330
1F
100
AcDbEntity
  8
0-0
  6
JWW_DASHED1
 62
   120
370
     5
100
AcDbLine
 10
-1033.756776322417
 20
-22.58078286102155
 30
0.0
 11
-460.756776322416
 21
-22.58078286102155
 31
0.0
  0
LINE
  5
112
330
1F
100
AcDbEntity
  8
0-0
  6
JWW_DASHED1
 62
   120
370
     5
100
AcDbLine
 10
-1033.756776322417
 20
-21.58078286112136
 30
0.0
 11
-460.756776322416
 21
-21.58078286112136
 31
0.0
  0
LINE
  5
113
330
1F
100
AcDbEntity
  8
0-0
  6
JWW_DASHED1
 62
   120
370
     5
100
AcDbLine
 10
-1033.756776322417
 20
-8.580782860021756
 30
0.0
 11
-460.756776322416
 21
-8.580782860021756
 31
0.0
  0
LINE
  5
114
330
1F
100
AcDbEntity
  8
0-0
  6
JWW_DASHED1
 62
   120
370
     5
100
AcDbLine
 10
-1033.756776322417
 20
-7.580782860121573
 30
0.0
 11
-460.756776322416
 21
-7.580782860121573
 31
0.0
  0
LINE
  5
115
330
1F
100
AcDbEntity
  8
0-0
  6
JWW_DASHED1
 62
   120
370
     5
100
AcDbLine
 10
-1033.756776322417
 20
5.419217140978034
 30
0.0
 11
-460.756776322416
 21
5.419217140978034
 31
0.0
  0
LINE
  5
116
330
1F
100
AcDbEntity
  8
0-0
  6
JWW_DASHED1
 62
   120
370
     5
100
AcDbLine
 10
-1033.756776322417
 20
6.419217140878217
 30
0.0
 11
-460.756776322416
 21
6.419217140878217
 31
0.0
  0
LINE
  5
117
330
1F
100
AcDbEntity
  8
0-0
  6
JWW_DASHED1
 62
   120
370
     5
100
AcDbLine
 10
-1033.756776322417
 20
19.41921714197782
 30
0.0
 11
-460.756776322416
 21
19.41921714197782
 31
0.0
  0
LINE
  5
118
330
1F
100
AcDbEntity
  8
0-0
  6
JWW_DASHED1
 62
   120
370
     5
100
AcDbLine
 10
-1033.756776322417
 20
20.41921714187801
 30
0.0
 11
-460.756776322416
 21
20.41921714187801
 31
0.0
  0
LINE
  5
119
330
1F
100
AcDbEntity
  8
0-0
  6
JWW_DASHED1
 62
   120
370
     5
100
AcDbLine
 10
-1033.756776322417
 20
33.41921714297762
 30
0.0
 11
-460.756776322416
 21
33.41921714297762
 31
0.0
  0
LINE
  5
11A
330
1F
100
AcDbEntity
  8
0-0
  6
JWW_DASHED1
 62
   120
370
     5
100
AcDbLine
 10
-1033.756776322417
 20
34.4192171428778
 30
0.0
 11
-460.756776322416
 21
34.4192171428778
 31
0.0
  0
LINE
  5
11B
330
1F
100
AcDbEntity
  8
0-0
  6
JWW_DASHED1
 62
   120
370
     5
100
AcDbLine
 10
-1033.756776322417
 20
47.41921714397741
 30
0.0
 11
-460.756776322416
 21
47.41921714397741
 31
0.0
  0
LINE
  5
11C
330
1F
100
AcDbEntity
  8
0-0
  6
JWW_DASHED1
 62
   120
370
     5
100
AcDbLine
 10
-1033.756776322417
 20
48.41921714387759
 30
0.0
 11
-460.756776322416
 21
48.41921714387759
 31
0.0
  0
LINE
  5
11D
330
1F
100
AcDbEntity
  8
0-0
  6
JWW_DASHED1
 62
   120
370
     5
100
AcDbLine
 10
-1033.756776322417
 20
61.4192171449772
 30
0.0
 11
-460.756776322416
 21
61.4192171449772
 31
0.0
  0
LINE
  5
11E
330
1F
100
AcDbEntity
  8
0-0
  6
JWW_DASHED1
 62
   120
370
     5
100
AcDbLine
 10
-1033.756776322417
 20
62.41921714487738
 30
0.0
 11
-460.756776322416
 21
62.41921714487738
 31
0.0
  0
LINE
  5
11F
330
1F
100
AcDbEntity
  8
0-0
  6
JWW_DASHED1
 62
   120
370
     5
100
AcDbLine
 10
-1033.756776322417
 20
75.41921714597699
 30
0.0
 11
-460.756776322416
 21
75.41921714597699
 31
0.0
  0
LINE
  5
120
330
1F
100
AcDbEntity
  8
0-0
  6
JWW_DASHED1
 62
   120
370
     5
100
AcDbLine
 10
-1033.756776322417
 20
76.41921714587717
 30
0.0
 11
-460.756776322416
 21
76.41921714587717
 31
0.0
  0
LINE
  5
121
330
1F
100
AcDbEntity
  8
0-0
  6
JWW_DASHED1
 62
   120
370
     5
100
AcDbLine
 10
-1033.756776322417
 20
89.41921714697678
 30
0.0
 11
-460.756776322416
 21
89.41921714697678
 31
0.0
  0
LINE
  5
122
330
1F
100
AcDbEntity
  8
0-0
  6
JWW_DASHED1
 62
   120
370
     5
100
AcDbLine
 10
-1033.756776322417
 20
90.41921714687696
 30
0.0
 11
-460.756776322416
 21
90.41921714687696
 31
0.0
  0
LINE
  5
123
330
1F
100
AcDbEntity
  8
0-0
  6
JWW_DASHED1
 62
   120
370
     5
100
AcDbLine
 10
-1033.756776322417
 20
103.4192171479766
 30
0.0
 11
-460.756776322416
 21
103.4192171479766
 31
0.0
  0
LINE
  5
124
330
1F
100
AcDbEntity
  8
0-0
  6
JWW_DASHED1
 62
   120
370
     5
100
AcDbLine
 10
-1033.756776322417
 20
104.4192171478768
 30
0.0
 11
-460.756776322416
 21
104.4192171478768
 31
0.0
  0
LINE
  5
125
330
1F
100
AcDbEntity
  8
0-0
  6
JWW_DASHED1
 62
   120
370
     5
100
AcDbLine
 10
-1033.756776322417
 20
117.4192171489764
 30
0.0
 11
-460.756776322416
 21
117.4192171489764
 31
0.0
  0
LINE
  5
126
330
1F
100
AcDbEntity
  8
0-0
  6
JWW_DASHED1
 62
   120
370
     5
100
AcDbLine
 10
-1033.756776322417
 20
118.4192171488765
 30
0.0
 11
-460.756776322416
 21
118.4192171488765
 31
0.0
  0
LINE
  5
127
330
1F
100
AcDbEntity
  8
0-0
  6
JWW_DASHED1
 62
   120
370
     5
100
AcDbLine
 10
-1033.756776322417
 20
131.4192171499761
 30
0.0
 11
-460.756776322416
 21
131.4192171499761
 31
0.0
  0
LINE
  5
128
330
1F
100
AcDbEntity
  8
0-0
  6
JWW_DASHED1
 62
   120
370
     5
100
AcDbLine
 10
-1033.756776322417
 20
132.4192171498763
 30
0.0
 11
-460.756776322416
 21
132.4192171498763
 31
0.0
  0
LINE
  5
129
330
1F
100
AcDbEntity
  8
0-0
  6
JWW_DASHED1
 62
   120
370
     5
100
AcDbLine
 10
-1033.756776322417
 20
145.419217150976
 30
0.0
 11
-460.756776322416
 21
145.419217150976
 31
0.0
  0
LINE
  5
12A
330
1F
100
AcDbEntity
  8
0-0
  6
JWW_DASHED1
 62
   120
370
     5
100
AcDbLine
 10
-1033.756776322417
 20
146.4192171508761
 30
0.0
 11
-460.756776322416
 21
146.4192171508761
 31
0.0
  0
LINE
  5
12B
330
1F
100
AcDbEntity
  8
0-0
  6
JWW_DASHED1
 62
   120
370
     5
100
AcDbLine
 10
-1033.756776322417
 20
159.4192171519757
 30
0.0
 11
-460.756776322416
 21
159.4192171519757
 31
0.0
  0
LINE
  5
12C
330
1F
100
AcDbEntity
  8
0-0
  6
JWW_DASHED1
 62
   120
370
     5
100
AcDbLine
 10
-1033.756776322417
 20
160.4192171518759
 30
0.0
 11
-460.756776322416
 21
160.4192171518759
 31
0.0
  0
LINE
  5
12D
330
1F
100
AcDbEntity
  8
0-0
  6
JWW_DASHED1
 62
   120
370
     5
100
AcDbLine
 10
-1033.756776322417
 20
173.4192171529755
 30
0.0
 11
-460.756776322416
 21
173.4192171529755
 31
0.0
  0
LINE
  5
12E
330
1F
100
AcDbEntity
  8
0-0
  6
JWW_DASHED1
 62
   120
370
     5
100
AcDbLine
 10
-1033.756776322417
 20
174.4192171528757
 30
0.0
 11
-460.756776322416
 21
174.4192171528757
 31
0.0
  0
LINE
  5
12F
330
1F
100
AcDbEntity
  8
0-0
  6
JWW_DASHED1
 62
   120
370
     5
100
AcDbLine
 10
-1033.756776322417
 20
187.4192171539753
 30
0.0
 11
-460.756776322416
 21
187.4192171539753
 31
0.0
  0
LINE
  5
130
330
1F
100
AcDbEntity
  8
0-0
  6
JWW_DASHED1
 62
   120
370
     5
100
AcDbLine
 10
-1033.756776322417
 20
188.4192171538755
 30
0.0
 11
-460.756776322416
 21
188.4192171538755
 31
0.0
  0
LINE
  5
131
330
1F
100
AcDbEntity
  8
0-0
  6
JWW_DASHED1
 62
   120
370
     5
100
AcDbLine
 10
-1033.756776322417
 20
201.4192171549751
 30
0.0
 11
-460.756776322416
 21
201.4192171549751
 31
0.0
  0
LINE
  5
132
330
1F
100
AcDbEntity
  8
0-0
  6
JWW_DASHED1
 62
   120
370
     5
100
AcDbLine
 10
-1033.756776322417
 20
202.4192171548753
 30
0.0
 11
-460.756776322416
 21
202.4192171548753
 31
0.0
  0
LINE
  5
133
330
1F
100
AcDbEntity
  8
0-0
  6
JWW_DASHED1
 62
   120
370
     5
100
AcDbLine
 10
-1033.756776322417
 20
215.4192171559749
 30
0.0
 11
-460.756776322416
 21
215.4192171559749
 31
0.0
  0
LINE
  5
134
330
1F
100
AcDbEntity
  8
0-0
  6
JWW_DASHED1
 62
   120
370
     5
100
AcDbLine
 10
-1033.756776322417
 20
216.4192171558751
 30
0.0
 11
-460.756776322416
 21
216.4192171558751
 31
0.0
  0
LINE
  5
135
330
1F
100
AcDbEntity
  8
0-0
  6
JWW_DASHED1
 62
   120
370
     5
100
AcDbLine
 10
-1033.756776322417
 20
229.4192171569747
 30
0.0
 11
-460.756776322416
 21
229.4192171569747
 31
0.0
  0
LINE
  5
136
330
1F
100
AcDbEntity
  8
0-0
  6
JWW_DASHED1
 62
   120
370
     5
100
AcDbLine
 10
-1033.756776322417
 20
230.4192171568749
 30
0.0
 11
-460.756776322416
 21
230.4192171568749
 31
0.0
  0
LINE
  5
137
330
1F
100
AcDbEntity
  8
0-0
  6
JWW_DASHED1
 62
   120
370
     5
100
AcDbLine
 10
-1033.756776322417
 20
243.4192171579745
 30
0.0
 11
-460.756776322416
 21
243.4192171579745
 31
0.0
  0
LINE
  5
138
330
1F
100
AcDbEntity
  8
0-0
  6
JWW_DASHED1
 62
   120
370
     5
100
AcDbLine
 10
-1033.756776322417
 20
244.4192171578746
 30
0.0
 11
-460.756776322416
 21
244.4192171578746
 31
0.0
  0
LINE
  5
139
330
1F
100
AcDbEntity
  8
0-0
  6
JWW_DASHED1
 62
   120
370
     5
100
AcDbLine
 10
-1033.756776322417
 20
257.4192171589743
 30
0.0
 11
-460.756776322416
 21
257.4192171589743
 31
0.0
  0
LINE
  5
13A
330
1F
100
AcDbEntity
  8
0-0
  6
JWW_DASHED1
 62
   120
370
     5
100
AcDbLine
 10
-1033.756776322417
 20
258.4192171588745
 30
0.0
 11
-460.756776322416
 21
258.4192171588745
 31
0.0
  0
LINE
  5
13B
330
1F
100
AcDbEntity
  8
0-0
  6
JWW_DASHED1
 62
   120
370
     5
100
AcDbLine
 10
-1033.756776322417
 20
271.419217159974
 30
0.0
 11
-460.756776322416
 21
271.419217159974
 31
0.0
  0
LINE
  5
13C
330
1F
100
AcDbEntity
  8
0-0
  6
JWW_DASHED1
 62
   120
370
     5
100
AcDbLine
 10
-1033.756776322417
 20
272.4192171598742
 30
0.0
 11
-460.756776322416
 21
272.4192171598742
 31
0.0
  0
LINE
  5
13D
330
1F
100
AcDbEntity
  8
0-0
  6
JWW_DASHED1
 62
   120
370
     5
100
AcDbLine
 10
-1033.756776322417
 20
285.4192171609739
 30
0.0
 11
-460.756776322416
 21
285.4192171609739
 31
0.0
  0
LINE
  5
13E
330
1F
100
AcDbEntity
  8
0-0
  6
JWW_DASHED1
 62
   120
370
     5
100
AcDbLine
 10
-1033.756776322417
 20
286.419217160874
 30
0.0
 11
-460.756776322416
 21
286.419217160874
 31
0.0
  0
LINE
  5
13F
330
1F
100
AcDbEntity
  8
0-0
  6
JWW_DASHED1
 62
   120
370
     5
100
AcDbLine
 10
-1033.756776322417
 20
299.4192171619736
 30
0.0
 11
-460.756776322416
 21
299.4192171619736
 31
0.0
  0
LINE
  5
140
330
1F
100
AcDbEntity
  8
0-0
  6
JWW_DASHED1
 62
   120
370
     5
100
AcDbLine
 10
-1033.756776322417
 20
300.4192171618738
 30
0.0
 11
-460.756776322416
 21
300.4192171618738
 31
0.0
  0
LINE
  5
141
330
1F
100
AcDbEntity
  8
0-0
  6
JWW_DASHED1
 62
   120
370
     5
100
AcDbLine
 10
-1033.756776322417
 20
313.4192171629734
 30
0.0
 11
-460.756776322416
 21
313.4192171629734
 31
0.0
  0
LINE
  5
142
330
1F
100
AcDbEntity
  8
0-0
  6
JWW_DASHED1
 62
   120
370
     5
100
AcDbLine
 10
-1033.756776322417
 20
314.4192171628736
 30
0.0
 11
-460.756776322416
 21
314.4192171628736
 31
0.0
  0
LINE
  5
143
330
1F
100
AcDbEntity
  8
0-0
  6
JWW_DASHED1
 62
   120
370
     5
100
AcDbLine
 10
-1033.756776322417
 20
327.4192171639732
 30
0.0
 11
-460.756776322416
 21
327.4192171639732
 31
0.0
  0
LINE
  5
144
330
1F
100
AcDbEntity
  8
0-0
  6
JWW_DASHED1
 62
   120
370
     5
100
AcDbLine
 10
-1033.756776322417
 20
328.4192171638734
 30
0.0
 11
-460.756776322416
 21
328.4192171638734
 31
0.0
  0
LINE
  5
145
330
1F
100
AcDbEntity
  8
0-0
  6
JWW_DASHED1
 62
   120
370
     5
100
AcDbLine
 10
-1033.756776322417
 20
341.419217164973
 30
0.0
 11
-460.756776322416
 21
341.419217164973
 31
0.0
  0
LINE
  5
146
330
1F
100
AcDbEntity
  8
0-0
  6
JWW_DASHED1
 62
   120
370
     5
100
AcDbLine
 10
-1033.756776322417
 20
342.4192171648732
 30
0.0
 11
-460.756776322416
 21
342.4192171648732
 31
0.0
  0
LINE
  5
147
330
1F
100
AcDbEntity
  8
0-0
  6
JWW_DASHED1
 62
   120
370
     5
100
AcDbLine
 10
-1033.756776322417
 20
355.4192171659728
 30
0.0
 11
-460.756776322416
 21
355.4192171659728
 31
0.0
  0
LINE
  5
148
330
1F
100
AcDbEntity
  8
0-0
  6
JWW_DASHED1
 62
   120
370
     5
100
AcDbLine
 10
-1033.756776322417
 20
356.419217165873
 30
0.0
 11
-460.756776322416
 21
356.419217165873
 31
0.0
  0
LINE
  5
149
330
1F
100
AcDbEntity
  8
0-0
  6
JWW_DASHED1
 62
   120
370
     5
100
AcDbLine
 10
-1033.756776322417
 20
369.4192171669726
 30
0.0
 11
-460.756776322416
 21
369.4192171669726
 31
0.0
  0
LINE
  5
14A
330
1F
100
AcDbEntity
  8
0-0
  6
JWW_DASHED1
 62
   120
370
     5
100
AcDbLine
 10
-1033.756776322417
 20
370.4192171668728
 30
0.0
 11
-460.756776322416
 21
370.4192171668728
 31
0.0
  0
LINE
  5
14B
330
1F
100
AcDbEntity
  8
0-0
  6
JWW_DASHED1
 62
   120
370
     5
100
AcDbLine
 10
-1033.756776322417
 20
383.4192171679724
 30
0.0
 11
-460.756776322416
 21
383.4192171679724
 31
0.0
  0
LINE
  5
14C
330
1F
100
AcDbEntity
  8
0-0
  6
JWW_DASHED1
 62
   120
370
     5
100
AcDbLine
 10
-1033.756776322417
 20
384.4192171678725
 30
0.0
 11
-460.756776322416
 21
384.4192171678725
 31
0.0
  0
LINE
  5
14D
330
1F
100
AcDbEntity
  8
0-0
  6
JWW_DASHED1
 62
   120
370
     5
100
AcDbLine
 10
-1033.756776322417
 20
397.4192171689722
 30
0.0
 11
-460.756776322416
 21
397.4192171689722
 31
0.0
  0
LINE
  5
14E
330
1F
100
AcDbEntity
  8
0-0
  6
JWW_DASHED1
 62
   120
370
     5
100
AcDbLine
 10
-1033.756776322417
 20
398.4192171688724
 30
0.0
 11
-460.756776322416
 21
398.4192171688724
 31
0.0
  0
LINE
  5
14F
330
1F
100
AcDbEntity
  8
0-0
  6
JWW_DASHED1
 62
   120
370
     5
100
AcDbLine
 10
-1033.756776322417
 20
411.4192171699719
 30
0.0
 11
-460.756776322416
 21
411.4192171699719
 31
0.0
  0
LINE
  5
150
330
1F
100
AcDbEntity
  8
0-0
  6
JWW_DASHED1
 62
   120
370
     5
100
AcDbLine
 10
-1033.756776322417
 20
412.4192171698721
 30
0.0
 11
-460.756776322416
 21
412.4192171698721
 31
0.0
  0
LINE
  5
151
330
1F
100
AcDbEntity
  8
0-0
  6
JWW_DASHED1
 62
   120
370
     5
100
AcDbLine
 10
-1033.756776322417
 20
425.4192171709718
 30
0.0
 11
-460.756776322416
 21
425.4192171709718
 31
0.0
  0
LINE
  5
152
330
1F
100
AcDbEntity
  8
0-0
  6
JWW_DASHED1
 62
   120
370
     5
100
AcDbLine
 10
-1033.756776322417
 20
426.4192171708719
 30
0.0
 11
-460.756776322416
 21
426.4192171708719
 31
0.0
  0
LINE
  5
153
330
1F
100
AcDbEntity
  8
0-0
  6
JWW_DASHED1
 62
   120
370
     5
100
AcDbLine
 10
-1033.756776322417
 20
439.4192171719715
 30
0.0
 11
-460.756776322416
 21
439.4192171719715
 31
0.0
  0
LINE
  5
154
330
1F
100
AcDbEntity
  8
0-0
  6
JWW_DASHED1
 62
   120
370
     5
100
AcDbLine
 10
-1033.756776322417
 20
440.4192171718717
 30
0.0
 11
-460.756776322416
 21
440.4192171718717
 31
0.0
  0
LINE
  5
155
330
1F
100
AcDbEntity
  8
0-0
  6
JWW_DASHED1
 62
   120
370
     5
100
AcDbLine
 10
-1033.756776322417
 20
453.4192171729713
 30
0.0
 11
-460.756776322416
 21
453.4192171729713
 31
0.0
  0
LINE
  5
156
330
1F
100
AcDbEntity
  8
0-0
  6
JWW_DASHED1
 62
   120
370
     5
100
AcDbLine
 10
-1033.756776322417
 20
454.4192171728715
 30
0.0
 11
-460.756776322416
 21
454.4192171728715
 31
0.0
  0
LINE
  5
157
330
1F
100
AcDbEntity
  8
0-0
  6
JWW_DASHED1
 62
   120
370
     5
100
AcDbLine
 10
-1033.756776322417
 20
467.4192171739711
 30
0.0
 11
-460.756776322416
 21
467.4192171739711
 31
0.0
  0
LINE
  5
158
330
1F
100
AcDbEntity
  8
0-0
  6
JWW_DASHED1
 62
   120
370
     5
100
AcDbLine
 10
-1033.756776322417
 20
468.4192171738713
 30
0.0
 11
-460.756776322416
 21
468.4192171738713
 31
0.0
  0
LINE
  5
159
330
1F
100
AcDbEntity
  8
0-0
  6
JWW_DASHED1
 62
   120
370
     5
100
AcDbLine
 10
-1033.756776322417
 20
481.4192171749709
 30
0.0
 11
-460.756776322416
 21
481.4192171749709
 31
0.0
  0
LINE
  5
15A
330
1F
100
AcDbEntity
  8
0-0
  6
JWW_DASHED1
 62
   120
370
     5
100
AcDbLine
 10
-1033.756776322417
 20
482.4192171748711
 30
0.0
 11
-460.756776322416
 21
482.4192171748711
 31
0.0
  0
LINE
  5
15B
330
1F
100
AcDbEntity
  8
0-0
  6
JWW_DASHED1
 62
   120
370
     5
100
AcDbLine
 10
-1033.756776322417
 20
495.4192171759707
 30
0.0
 11
-460.756776322416
 21
495.4192171759707
 31
0.0
  0
LINE
  5
15C
330
1F
100
AcDbEntity
  8
0-0
  6
JWW_DASHED1
 62
   120
370
     5
100
AcDbLine
 10
-1033.756776322417
 20
496.4192171758709
 30
0.0
 11
-460.756776322416
 21
496.4192171758709
 31
0.0
  0
LINE
  5
15D
330
1F
100
AcDbEntity
  8
0-0
  6
JWW_DASHED1
 62
   120
370
     5
100
AcDbLine
 10
-1033.756776322417
 20
509.4192171769705
 30
0.0
 11
-460.756776322416
 21
509.4192171769705
 31
0.0
  0
LINE
  5
15E
330
1F
100
AcDbEntity
  8
0-0
  6
JWW_DASHED1
 62
   120
370
     5
100
AcDbLine
 10
-1033.756776322417
 20
510.4192171768707
 30
0.0
 11
-460.756776322416
 21
510.4192171768707
 31
0.0
  0
LINE
  5
15F
330
1F
100
AcDbEntity
  8
0-0
  6
JWW_DASHED1
 62
   120
370
     5
100
AcDbLine
 10
-1033.756776322417
 20
523.4192171779703
 30
0.0
 11
-460.756776322416
 21
523.4192171779703
 31
0.0
  0
LINE
  5
160
330
1F
100
AcDbEntity
  8
0-0
  6
JWW_DASHED1
 62
   120
370
     5
100
AcDbLine
 10
-1033.756776322417
 20
524.4192171778705
 30
0.0
 11
-460.756776322416
 21
524.4192171778705
 31
0.0
  0
LINE
  5
161
330
1F
100
AcDbEntity
  8
0-0
  6
JWW_DASHED1
 62
   120
370
     5
100
AcDbLine
 10
-1033.756776322417
 20
537.41921717897
 30
0.0
 11
-460.756776322416
 21
537.41921717897
 31
0.0
  0
LINE
  5
162
330
1F
100
AcDbEntity
  8
0-0
  6
JWW_DASHED1
 62
   120
370
     5
100
AcDbLine
 10
-1033.756776322417
 20
538.4192171788702
 30
0.0
 11
-460.756776322416
 21
538.4192171788702
 31
0.0
  0
LINE
  5
163
330
1F
100
AcDbEntity
  8
0-0
  6
JWW_DASHED1
 62
   120
370
     5
100
AcDbLine
 10
-1033.756776322417
 20
551.4192171799699
 30
0.0
 11
-460.756776322416
 21
551.4192171799699
 31
0.0
  0
LINE
  5
164
330
1F
100
AcDbEntity
  8
0-0
  6
JWW_DASHED1
 62
   120
370
     5
100
AcDbLine
 10
-1033.756776322417
 20
552.4192171798701
 30
0.0
 11
-460.756776322416
 21
552.4192171798701
 31
0.0
  0
LINE
  5
165
330
1F
100
AcDbEntity
  8
0-0
  6
JWW_DASHED1
 62
   120
370
     5
100
AcDbLine
 10
-1033.756776322417
 20
565.4192171809697
 30
0.0
 11
-460.756776322416
 21
565.4192171809697
 31
0.0
  0
LINE
  5
166
330
1F
100
AcDbEntity
  8
0-0
  6
JWW_DASHED1
 62
   120
370
     5
100
AcDbLine
 10
-1033.756776322417
 20
566.4192171808699
 30
0.0
 11
-460.756776322416
 21
566.4192171808699
 31
0.0
  0
LINE
  5
167
330
1F
100
AcDbEntity
  8
0-0
  6
JWW_DASHED1
 62
   120
370
     5
100
AcDbLine
 10
-1033.756776322417
 20
579.4192171819694
 30
0.0
 11
-460.756776322416
 21
579.4192171819694
 31
0.0
  0
LINE
  5
168
330
1F
100
AcDbEntity
  8
0-0
  6
JWW_DASHED1
 62
   120
370
     5
100
AcDbLine
 10
-1033.756776322417
 20
580.4192171818696
 30
0.0
 11
-460.756776322416
 21
580.4192171818696
 31
0.0
  0
LINE
  5
169
330
1F
100
AcDbEntity
  8
0-0
  6
JWW_DASHED1
 62
   120
370
     5
100
AcDbLine
 10
-1033.756776322417
 20
593.4192171829692
 30
0.0
 11
-460.756776322416
 21
593.4192171829692
 31
0.0
  0
LINE
  5
16A
330
1F
100
AcDbEntity
  8
0-0
  6
JWW_DASHED1
 62
   120
370
     5
100
AcDbLine
 10
-1033.756776322417
 20
594.4192171828694
 30
0.0
 11
-460.756776322416
 21
594.4192171828694
 31
0.0
  0
LINE
  5
16B
330
1F
100
AcDbEntity
  8
0-0
  6
JWW_DASHED1
 62
   120
370
     5
100
AcDbLine
 10
-1033.756776322417
 20
607.4192171839691
 30
0.0
 11
-460.756776322416
 21
607.4192171839691
 31
0.0
  0
LINE
  5
16C
330
1F
100
AcDbEntity
  8
0-0
  6
JWW_DASHED1
 62
   120
370
     5
100
AcDbLine
 10
-1033.756776322417
 20
608.4192171838693
 30
0.0
 11
-460.756776322416
 21
608.4192171838693
 31
0.0
  0
LINE
  5
16D
330
1F
100
AcDbEntity
  8
0-0
  6
JWW_DASHED1
 62
   120
370
     5
100
AcDbLine
 10
-1033.756776322417
 20
621.4192171849688
 30
0.0
 11
-460.756776322416
 21
621.4192171849688
 31
0.0
  0
LINE
  5
16E
330
1F
100
AcDbEntity
  8
0-0
  6
JWW_DASHED1
 62
   120
370
     5
100
AcDbLine
 10
-1033.756776322417
 20
622.4192171848688
 30
0.0
 11
-460.756776322416
 21
622.4192171848688
 31
0.0
  0
LINE
  5
16F
330
1F
100
AcDbEntity
  8
0-0
  6
JWW_DASHED1
 62
   120
370
     5
100
AcDbLine
 10
-1033.756776322417
 20
635.4192171859686
 30
0.0
 11
-460.756776322416
 21
635.4192171859686
 31
0.0
  0
LINE
  5
170
330
1F
100
AcDbEntity
  8
0-0
  6
JWW_DASHED1
 62
   120
370
     5
100
AcDbLine
 10
-1033.756776322417
 20
636.4192171858688
 30
0.0
 11
-460.756776322416
 21
636.4192171858688
 31
0.0
  0
LINE
  5
171
330
1F
100
AcDbEntity
  8
0-0
  6
JWW_DASHED1
 62
   120
370
     5
100
AcDbLine
 10
-1033.756776322417
 20
649.4192171869684
 30
0.0
 11
-460.756776322416
 21
649.4192171869684
 31
0.0
  0
LINE
  5
172
330
1F
100
AcDbEntity
  8
0-0
  6
JWW_DASHED1
 62
   120
370
     5
100
AcDbLine
 10
-1033.756776322417
 20
650.4192171868685
 30
0.0
 11
-460.756776322416
 21
650.4192171868685
 31
0.0
  0
LINE
  5
173
330
1F
100
AcDbEntity
  8
0-0
  6
JWW_DASHED1
 62
   120
370
     5
100
AcDbLine
 10
-1027.756757864385
 20
-456.5806345781713
 30
0.0
 11
-1027.756757864385
 21
718.4193654218288
 31
0.0
  0
LINE
  5
174
330
1F
100
AcDbEntity
  8
0-0
  6
JWW_DASHED1
 62
   120
370
     5
100
AcDbLine
 10
-494.7567578264847
 20
-456.5806345781713
 30
0.0
 11
-494.7567578264847
 21
718.4193654218288
 31
0.0
  0
LINE
  5
175
330
1F
100
AcDbEntity
  8
0-0
  6
JWW_DASHED1
 62
   120
370
     5
100
AcDbLine
 10
-495.7567578263848
 20
-456.5806345781713
 30
0.0
 11
-495.7567578263844
 21
718.4193654218288
 31
0.0
  0
LINE
  5
176
330
1F
100
AcDbEntity
  8
0-0
  6
JWW_DASHED1
 62
   120
370
     5
100
AcDbLine
 10
-508.7567578274849
 20
-456.5806345781713
 30
0.0
 11
-508.7567578274844
 21
718.4193654218288
 31
0.0
  0
LINE
  5
177
330
1F
100
AcDbEntity
  8
0-0
  6
JWW_DASHED1
 62
   120
370
     5
100
AcDbLine
 10
-509.7567578273846
 20
-456.5806345781713
 30
0.0
 11
-509.7567578273846
 21
718.4193654218288
 31
0.0
  0
LINE
  5
178
330
1F
100
AcDbEntity
  8
0-0
  6
JWW_DASHED1
 62
   120
370
     5
100
AcDbLine
 10
-522.7567578284851
 20
-456.5806345781713
 30
0.0
 11
-522.7567578284851
 21
718.4193654218288
 31
0.0
  0
LINE
  5
179
330
1F
100
AcDbEntity
  8
0-0
  6
JWW_DASHED1
 62
   120
370
     5
100
AcDbLine
 10
-523.7567578283848
 20
-456.5806345781713
 30
0.0
 11
-523.7567578283848
 21
718.4193654218288
 31
0.0
  0
LINE
  5
17A
330
1F
100
AcDbEntity
  8
0-0
  6
JWW_DASHED1
 62
   120
370
     5
100
AcDbLine
 10
-536.7567578294849
 20
-456.5806345781713
 30
0.0
 11
-536.7567578294849
 21
718.4193654218288
 31
0.0
  0
LINE
  5
17B
330
1F
100
AcDbEntity
  8
0-0
  6
JWW_DASHED1
 62
   120
370
     5
100
AcDbLine
 10
-537.756757829385
 20
-456.5806345781713
 30
0.0
 11
-537.756757829385
 21
718.4193654218288
 31
0.0
  0
LINE
  5
17C
330
1F
100
AcDbEntity
  8
0-0
  6
JWW_DASHED1
 62
   120
370
     5
100
AcDbLine
 10
-550.7567578304851
 20
-456.5806345781713
 30
0.0
 11
-550.7567578304851
 21
718.4193654218288
 31
0.0
  0
LINE
  5
17D
330
1F
100
AcDbEntity
  8
0-0
  6
JWW_DASHED1
 62
   120
370
     5
100
AcDbLine
 10
-551.7567578303849
 20
-456.5806345781713
 30
0.0
 11
-551.7567578303845
 21
718.4193654218288
 31
0.0
  0
LINE
  5
17E
330
1F
100
AcDbEntity
  8
0-0
  6
JWW_DASHED1
 62
   120
370
     5
100
AcDbLine
 10
-564.756757831485
 20
-456.5806345781713
 30
0.0
 11
-564.7567578314845
 21
718.4193654218288
 31
0.0
  0
LINE
  5
17F
330
1F
100
AcDbEntity
  8
0-0
  6
JWW_DASHED1
 62
   120
370
     5
100
AcDbLine
 10
-565.7567578313847
 20
-456.5806345781713
 30
0.0
 11
-565.7567578313847
 21
718.4193654218288
 31
0.0
  0
LINE
  5
180
330
1F
100
AcDbEntity
  8
0-0
  6
JWW_DASHED1
 62
   120
370
     5
100
AcDbLine
 10
-578.7567578324847
 20
-456.5806345781713
 30
0.0
 11
-578.7567578324847
 21
718.4193654218288
 31
0.0
  0
LINE
  5
181
330
1F
100
AcDbEntity
  8
0-0
  6
JWW_DASHED1
 62
   120
370
     5
100
AcDbLine
 10
-579.7567578323849
 20
-456.5806345781713
 30
0.0
 11
-579.7567578323849
 21
718.4193654218288
 31
0.0
  0
LINE
  5
182
330
1F
100
AcDbEntity
  8
0-0
  6
JWW_DASHED1
 62
   120
370
     5
100
AcDbLine
 10
-592.7567578334845
 20
-456.5806345781713
 30
0.0
 11
-592.7567578334845
 21
718.4193654218288
 31
0.0
  0
LINE
  5
183
330
1F
100
AcDbEntity
  8
0-0
  6
JWW_DASHED1
 62
   120
370
     5
100
AcDbLine
 10
-593.7567578333847
 20
-456.5806345781713
 30
0.0
 11
-593.7567578333847
 21
718.4193654218288
 31
0.0
  0
LINE
  5
184
330
1F
100
AcDbEntity
  8
0-0
  6
JWW_DASHED1
 62
   120
370
     5
100
AcDbLine
 10
-606.7567578344842
 20
-456.5806345781713
 30
0.0
 11
-606.7567578344842
 21
718.4193654218288
 31
0.0
  0
LINE
  5
185
330
1F
100
AcDbEntity
  8
0-0
  6
JWW_DASHED1
 62
   120
370
     5
100
AcDbLine
 10
-607.7567578343844
 20
-456.5806345781713
 30
0.0
 11
-607.7567578343844
 21
718.4193654218288
 31
0.0
  0
LINE
  5
186
330
1F
100
AcDbEntity
  8
0-0
  6
JWW_DASHED1
 62
   120
370
     5
100
AcDbLine
 10
-620.7567578354844
 20
-456.5806345781713
 30
0.0
 11
-620.7567578354844
 21
718.4193654218288
 31
0.0
  0
LINE
  5
187
330
1F
100
AcDbEntity
  8
0-0
  6
JWW_DASHED1
 62
   120
370
     5
100
AcDbLine
 10
-621.7567578353846
 20
-456.5806345781713
 30
0.0
 11
-621.7567578353846
 21
718.4193654218288
 31
0.0
  0
LINE
  5
188
330
1F
100
AcDbEntity
  8
0-0
  6
JWW_DASHED1
 62
   120
370
     5
100
AcDbLine
 10
-634.7567578364847
 20
-456.5806345781713
 30
0.0
 11
-634.7567578364847
 21
718.4193654218288
 31
0.0
  0
LINE
  5
189
330
1F
100
AcDbEntity
  8
0-0
  6
JWW_DASHED1
 62
   120
370
     5
100
AcDbLine
 10
-635.7567578363848
 20
-456.5806345781713
 30
0.0
 11
-635.7567578363848
 21
718.4193654218288
 31
0.0
  0
LINE
  5
18A
330
1F
100
AcDbEntity
  8
0-0
  6
JWW_DASHED1
 62
   120
370
     5
100
AcDbLine
 10
-648.7567578374844
 20
-456.5806345781713
 30
0.0
 11
-648.7567578374844
 21
718.4193654218288
 31
0.0
  0
LINE
  5
18B
330
1F
100
AcDbEntity
  8
0-0
  6
JWW_DASHED1
 62
   120
370
     5
100
AcDbLine
 10
-649.7567578373846
 20
-456.5806345781713
 30
0.0
 11
-649.7567578373846
 21
718.4193654218288
 31
0.0
  0
LINE
  5
18C
330
1F
100
AcDbEntity
  8
0-0
  6
JWW_DASHED1
 62
   120
370
     5
100
AcDbLine
 10
-662.7567578384843
 20
-456.5806345781713
 30
0.0
 11
-662.7567578384843
 21
718.4193654218288
 31
0.0
  0
LINE
  5
18D
330
1F
100
AcDbEntity
  8
0-0
  6
JWW_DASHED1
 62
   120
370
     5
100
AcDbLine
 10
-663.7567578383845
 20
-456.5806345781713
 30
0.0
 11
-663.7567578383845
 21
718.4193654218288
 31
0.0
  0
LINE
  5
18E
330
1F
100
AcDbEntity
  8
0-0
  6
JWW_DASHED1
 62
   120
370
     5
100
AcDbLine
 10
-676.7567578394845
 20
-456.5806345781713
 30
0.0
 11
-676.7567578394845
 21
718.4193654218288
 31
0.0
  0
LINE
  5
18F
330
1F
100
AcDbEntity
  8
0-0
  6
JWW_DASHED1
 62
   120
370
     5
100
AcDbLine
 10
-677.7567578393847
 20
-456.5806345781713
 30
0.0
 11
-677.7567578393847
 21
718.4193654218288
 31
0.0
  0
LINE
  5
190
330
1F
100
AcDbEntity
  8
0-0
  6
JWW_DASHED1
 62
   120
370
     5
100
AcDbLine
 10
-690.7567578404847
 20
-456.5806345781713
 30
0.0
 11
-690.7567578404847
 21
718.4193654218288
 31
0.0
  0
LINE
  5
191
330
1F
100
AcDbEntity
  8
0-0
  6
JWW_DASHED1
 62
   120
370
     5
100
AcDbLine
 10
-691.7567578403849
 20
-456.5806345781713
 30
0.0
 11
-691.7567578403849
 21
718.4193654218288
 31
0.0
  0
LINE
  5
192
330
1F
100
AcDbEntity
  8
0-0
  6
JWW_DASHED1
 62
   120
370
     5
100
AcDbLine
 10
-704.7567578414845
 20
-456.5806345781713
 30
0.0
 11
-704.7567578414845
 21
718.4193654218288
 31
0.0
  0
LINE
  5
193
330
1F
100
AcDbEntity
  8
0-0
  6
JWW_DASHED1
 62
   120
370
     5
100
AcDbLine
 10
-705.7567578413847
 20
-456.5806345781713
 30
0.0
 11
-705.7567578413847
 21
718.4193654218288
 31
0.0
  0
LINE
  5
194
330
1F
100
AcDbEntity
  8
0-0
  6
JWW_DASHED1
 62
   120
370
     5
100
AcDbLine
 10
-718.7567578424843
 20
-456.5806345781713
 30
0.0
 11
-718.7567578424843
 21
718.4193654218288
 31
0.0
  0
LINE
  5
195
330
1F
100
AcDbEntity
  8
0-0
  6
JWW_DASHED1
 62
   120
370
     5
100
AcDbLine
 10
-719.7567578423849
 20
-456.5806345781713
 30
0.0
 11
-719.7567578423849
 21
718.4193654218288
 31
0.0
  0
LINE
  5
196
330
1F
100
AcDbEntity
  8
0-0
  6
JWW_DASHED1
 62
   120
370
     5
100
AcDbLine
 10
-732.7567578434845
 20
-456.5806345781713
 30
0.0
 11
-732.7567578434845
 21
718.4193654218288
 31
0.0
  0
LINE
  5
197
330
1F
100
AcDbEntity
  8
0-0
  6
JWW_DASHED1
 62
   120
370
     5
100
AcDbLine
 10
-733.7567578433847
 20
-456.5806345781713
 30
0.0
 11
-733.7567578433847
 21
718.4193654218288
 31
0.0
  0
LINE
  5
198
330
1F
100
AcDbEntity
  8
0-0
  6
JWW_DASHED1
 62
   120
370
     5
100
AcDbLine
 10
-746.7567578444847
 20
-456.5806345781713
 30
0.0
 11
-746.7567578444847
 21
718.4193654218288
 31
0.0
  0
LINE
  5
199
330
1F
100
AcDbEntity
  8
0-0
  6
JWW_DASHED1
 62
   120
370
     5
100
AcDbLine
 10
-747.7567578443849
 20
-456.5806345781713
 30
0.0
 11
-747.7567578443849
 21
718.4193654218288
 31
0.0
  0
LINE
  5
19A
330
1F
100
AcDbEntity
  8
0-0
  6
JWW_DASHED1
 62
   120
370
     5
100
AcDbLine
 10
-760.7567578454849
 20
-456.5806345781713
 30
0.0
 11
-760.7567578454849
 21
718.4193654218288
 31
0.0
  0
LINE
  5
19B
330
1F
100
AcDbEntity
  8
0-0
  6
JWW_DASHED1
 62
   120
370
     5
100
AcDbLine
 10
-761.7567578453848
 20
-456.5806345781713
 30
0.0
 11
-761.7567578453848
 21
718.4193654218288
 31
0.0
  0
LINE
  5
19C
330
1F
100
AcDbEntity
  8
0-0
  6
JWW_DASHED1
 62
   120
370
     5
100
AcDbLine
 10
-774.7567578464843
 20
-456.5806345781713
 30
0.0
 11
-774.7567578464843
 21
718.4193654218288
 31
0.0
  0
LINE
  5
19D
330
1F
100
AcDbEntity
  8
0-0
  6
JWW_DASHED1
 62
   120
370
     5
100
AcDbLine
 10
-775.7567578463845
 20
-456.5806345781713
 30
0.0
 11
-775.7567578463845
 21
718.4193654218288
 31
0.0
  0
LINE
  5
19E
330
1F
100
AcDbEntity
  8
0-0
  6
JWW_DASHED1
 62
   120
370
     5
100
AcDbLine
 10
-788.7567578474846
 20
-456.5806345781713
 30
0.0
 11
-788.7567578474846
 21
718.4193654218288
 31
0.0
  0
LINE
  5
19F
330
1F
100
AcDbEntity
  8
0-0
  6
JWW_DASHED1
 62
   120
370
     5
100
AcDbLine
 10
-789.7567578473847
 20
-456.5806345781713
 30
0.0
 11
-789.7567578473847
 21
718.4193654218288
 31
0.0
  0
LINE
  5
1A0
330
1F
100
AcDbEntity
  8
0-0
  6
JWW_DASHED1
 62
   120
370
     5
100
AcDbLine
 10
-802.7567578484848
 20
-456.5806345781713
 30
0.0
 11
-802.7567578484848
 21
718.4193654218288
 31
0.0
  0
LINE
  5
1A1
330
1F
100
AcDbEntity
  8
0-0
  6
JWW_DASHED1
 62
   120
370
     5
100
AcDbLine
 10
-803.756757848385
 20
-456.5806345781713
 30
0.0
 11
-803.756757848385
 21
718.4193654218288
 31
0.0
  0
LINE
  5
1A2
330
1F
100
AcDbEntity
  8
0-0
  6
JWW_DASHED1
 62
   120
370
     5
100
AcDbLine
 10
-816.7567578494845
 20
-456.5806345781713
 30
0.0
 11
-816.7567578494845
 21
718.4193654218288
 31
0.0
  0
LINE
  5
1A3
330
1F
100
AcDbEntity
  8
0-0
  6
JWW_DASHED1
 62
   120
370
     5
100
AcDbLine
 10
-817.7567578493847
 20
-456.5806345781713
 30
0.0
 11
-817.7567578493847
 21
718.4193654218288
 31
0.0
  0
LINE
  5
1A4
330
1F
100
AcDbEntity
  8
0-0
  6
JWW_DASHED1
 62
   120
370
     5
100
AcDbLine
 10
-830.7567578504843
 20
-456.5806345781713
 30
0.0
 11
-830.7567578504843
 21
718.4193654218288
 31
0.0
  0
LINE
  5
1A5
330
1F
100
AcDbEntity
  8
0-0
  6
JWW_DASHED1
 62
   120
370
     5
100
AcDbLine
 10
-831.7567578503845
 20
-456.5806345781713
 30
0.0
 11
-831.7567578503845
 21
718.4193654218288
 31
0.0
  0
LINE
  5
1A6
330
1F
100
AcDbEntity
  8
0-0
  6
JWW_DASHED1
 62
   120
370
     5
100
AcDbLine
 10
-844.7567578514845
 20
-456.5806345781713
 30
0.0
 11
-844.7567578514845
 21
718.4193654218288
 31
0.0
  0
LINE
  5
1A7
330
1F
100
AcDbEntity
  8
0-0
  6
JWW_DASHED1
 62
   120
370
     5
100
AcDbLine
 10
-845.7567578513847
 20
-456.5806345781713
 30
0.0
 11
-845.7567578513847
 21
718.4193654218288
 31
0.0
  0
LINE
  5
1A8
330
1F
100
AcDbEntity
  8
0-0
  6
JWW_DASHED1
 62
   120
370
     5
100
AcDbLine
 10
-858.7567578524847
 20
-456.5806345781713
 30
0.0
 11
-858.7567578524847
 21
718.4193654218288
 31
0.0
  0
LINE
  5
1A9
330
1F
100
AcDbEntity
  8
0-0
  6
JWW_DASHED1
 62
   120
370
     5
100
AcDbLine
 10
-859.7567578523849
 20
-456.5806345781713
 30
0.0
 11
-859.7567578523849
 21
718.4193654218288
 31
0.0
  0
LINE
  5
1AA
330
1F
100
AcDbEntity
  8
0-0
  6
JWW_DASHED1
 62
   120
370
     5
100
AcDbLine
 10
-872.7567578534845
 20
-456.5806345781713
 30
0.0
 11
-872.7567578534845
 21
718.4193654218288
 31
0.0
  0
LINE
  5
1AB
330
1F
100
AcDbEntity
  8
0-0
  6
JWW_DASHED1
 62
   120
370
     5
100
AcDbLine
 10
-873.7567578533847
 20
-456.5806345781713
 30
0.0
 11
-873.7567578533847
 21
718.4193654218288
 31
0.0
  0
LINE
  5
1AC
330
1F
100
AcDbEntity
  8
0-0
  6
JWW_DASHED1
 62
   120
370
     5
100
AcDbLine
 10
-886.7567578544844
 20
-456.5806345781713
 30
0.0
 11
-886.7567578544844
 21
718.4193654218288
 31
0.0
  0
LINE
  5
1AD
330
1F
100
AcDbEntity
  8
0-0
  6
JWW_DASHED1
 62
   120
370
     5
100
AcDbLine
 10
-887.7567578543845
 20
-456.5806345781713
 30
0.0
 11
-887.7567578543845
 21
718.4193654218288
 31
0.0
  0
LINE
  5
1AE
330
1F
100
AcDbEntity
  8
0-0
  6
JWW_DASHED1
 62
   120
370
     5
100
AcDbLine
 10
-900.7567578554846
 20
-456.5806345781713
 30
0.0
 11
-900.7567578554846
 21
718.4193654218288
 31
0.0
  0
LINE
  5
1AF
330
1F
100
AcDbEntity
  8
0-0
  6
JWW_DASHED1
 62
   120
370
     5
100
AcDbLine
 10
-901.7567578553848
 20
-456.5806345781713
 30
0.0
 11
-901.7567578553848
 21
718.4193654218288
 31
0.0
  0
LINE
  5
1B0
330
1F
100
AcDbEntity
  8
0-0
  6
JWW_DASHED1
 62
   120
370
     5
100
AcDbLine
 10
-914.7567578564848
 20
-456.5806345781713
 30
0.0
 11
-914.7567578564848
 21
718.4193654218288
 31
0.0
  0
LINE
  5
1B1
330
1F
100
AcDbEntity
  8
0-0
  6
JWW_DASHED1
 62
   120
370
     5
100
AcDbLine
 10
-915.756757856385
 20
-456.5806345781713
 30
0.0
 11
-915.756757856385
 21
718.4193654218288
 31
0.0
  0
LINE
  5
1B2
330
1F
100
AcDbEntity
  8
0-0
  6
JWW_DASHED1
 62
   120
370
     5
100
AcDbLine
 10
-928.7567578574846
 20
-456.5806345781713
 30
0.0
 11
-928.7567578574846
 21
718.4193654218288
 31
0.0
  0
LINE
  5
1B3
330
1F
100
AcDbEntity
  8
0-0
  6
JWW_DASHED1
 62
   120
370
     5
100
AcDbLine
 10
-929.7567578573847
 20
-456.5806345781713
 30
0.0
 11
-929.7567578573847
 21
718.4193654218288
 31
0.0
  0
LINE
  5
1B4
330
1F
100
AcDbEntity
  8
0-0
  6
JWW_DASHED1
 62
   120
370
     5
100
AcDbLine
 10
-942.7567578584848
 20
-456.5806345781713
 30
0.0
 11
-942.7567578584848
 21
718.4193654218288
 31
0.0
  0
LINE
  5
1B5
330
1F
100
AcDbEntity
  8
0-0
  6
JWW_DASHED1
 62
   120
370
     5
100
AcDbLine
 10
-943.7567578583845
 20
-456.5806345781713
 30
0.0
 11
-943.7567578583845
 21
718.4193654218288
 31
0.0
  0
LINE
  5
1B6
330
1F
100
AcDbEntity
  8
0-0
  6
JWW_DASHED1
 62
   120
370
     5
100
AcDbLine
 10
-956.7567578594845
 20
-456.5806345781713
 30
0.0
 11
-956.7567578594845
 21
718.4193654218288
 31
0.0
  0
LINE
  5
1B7
330
1F
100
AcDbEntity
  8
0-0
  6
JWW_DASHED1
 62
   120
370
     5
100
AcDbLine
 10
-957.7567578593852
 20
-456.5806345781713
 30
0.0
 11
-957.7567578593852
 21
718.4193654218288
 31
0.0
  0
LINE
  5
1B8
330
1F
100
AcDbEntity
  8
0-0
  6
JWW_DASHED1
 62
   120
370
     5
100
AcDbLine
 10
-970.7567578604848
 20
-456.5806345781713
 30
0.0
 11
-970.7567578604848
 21
718.4193654218288
 31
0.0
  0
LINE
  5
1B9
330
1F
100
AcDbEntity
  8
0-0
  6
JWW_DASHED1
 62
   120
370
     5
100
AcDbLine
 10
-971.7567578603849
 20
-456.5806345781713
 30
0.0
 11
-971.7567578603849
 21
718.4193654218288
 31
0.0
  0
LINE
  5
1BA
330
1F
100
AcDbEntity
  8
0-0
  6
JWW_DASHED1
 62
   120
370
     5
100
AcDbLine
 10
-984.7567578614846
 20
-456.5806345781713
 30
0.0
 11
-984.7567578614846
 21
718.4193654218288
 31
0.0
  0
LINE
  5
1BB
330
1F
100
AcDbEntity
  8
0-0
  6
JWW_DASHED1
 62
   120
370
     5
100
AcDbLine
 10
-985.7567578613852
 20
-456.5806345781713
 30
0.0
 11
-985.7567578613852
 21
718.4193654218288
 31
0.0
  0
LINE
  5
1BC
330
1F
100
AcDbEntity
  8
0-0
  6
JWW_DASHED1
 62
   120
370
     5
100
AcDbLine
 10
-998.7567578624844
 20
-456.5806345781713
 30
0.0
 11
-998.7567578624844
 21
718.4193654218288
 31
0.0
  0
LINE
  5
1BD
330
1F
100
AcDbEntity
  8
0-0
  6
JWW_DASHED1
 62
   120
370
     5
100
AcDbLine
 10
-999.7567578623846
 20
-456.5806345781713
 30
0.0
 11
-999.7567578623846
 21
718.4193654218288
 31
0.0
  0
LINE
  5
1BE
330
1F
100
AcDbEntity
  8
0-0
  6
JWW_DASHED1
 62
   120
370
     5
100
AcDbLine
 10
-1012.756757863485
 20
-456.5806345781713
 30
0.0
 11
-1012.756757863485
 21
718.4193654218288
 31
0.0
  0
LINE
  5
1BF
330
1F
100
AcDbEntity
  8
0-0
  6
JWW_DASHED1
 62
   120
370
     5
100
AcDbLine
 10
-1013.756757863385
 20
-456.5806345781713
 30
0.0
 11
-1013.756757863385
 21
718.4193654218288
 31
0.0
  0
LINE
  5
1C0
330
1F
100
AcDbEntity
  8
0-0
  6
JWW_DASHED1
 62
   120
370
     5
100
AcDbLine
 10
-1026.756757864485
 20
-456.5806345781713
 30
0.0
 11
-1026.756757864485
 21
718.4193654218288
 31
0.0
  0
LINE
  5
1C1
330
1F
100
AcDbEntity
  8
0-0
  6
JWW_DASHED1
 62
   120
370
     5
100
AcDbLine
 10
-466.7567578244847
 20
-456.5806345781713
 30
0.0
 11
-466.7567578244847
 21
718.4193654218288
 31
0.0
  0
LINE
  5
1C2
330
1F
100
AcDbEntity
  8
0-0
  6
JWW_DASHED1
 62
   120
370
     5
100
AcDbLine
 10
-481.7567578253846
 20
-456.5806345781713
 30
0.0
 11
-481.7567578253846
 21
718.4193654218288
 31
0.0
  0
LINE
  5
1C3
330
1F
100
AcDbEntity
  8
0-0
  6
JWW_DASHED1
 62
   120
370
     5
100
AcDbLine
 10
-467.7567578243849
 20
-456.5806345781713
 30
0.0
 11
-467.7567578243849
 21
718.4193654218288
 31
0.0
  0
LINE
  5
1C4
330
1F
100
AcDbEntity
  8
0-0
  6
JWW_DASHED1
 62
   120
370
     5
100
AcDbLine
 10
-480.7567578254849
 20
-456.5806345781713
 30
0.0
 11
-480.7567578254849
 21
718.4193654218288
 31
0.0
  0
LINE
  5
1C5
330
1F
100
AcDbEntity
  8
0-0
  6
JWW_DASHED1
 62
   120
370
     5
100
AcDbLine
 10
-1033.756776322416
 20
706.4192171908677
 30
0.0
 11
-460.756776322417
 21
706.4192171908677
 31
0.0
  0
LINE
  5
1C6
330
1F
100
AcDbEntity
  8
0-0
  6
JWW_DASHED1
 62
   120
370
     5
100
AcDbLine
 10
-1033.756776322416
 20
663.4192171879682
 30
0.0
 11
-460.756776322417
 21
663.4192171879682
 31
0.0
  0
LINE
  5
1C7
330
1F
100
AcDbEntity
  8
0-0
  6
JWW_DASHED1
 62
   120
370
     5
100
AcDbLine
 10
-1033.756776322416
 20
664.4192171878684
 30
0.0
 11
-460.756776322417
 21
664.4192171878684
 31
0.0
  0
LINE
  5
1C8
330
1F
100
AcDbEntity
  8
0-0
  6
JWW_DASHED1
 62
   120
370
     5
100
AcDbLine
 10
-1033.756776322416
 20
677.419217188968
 30
0.0
 11
-460.756776322417
 21
677.419217188968
 31
0.0
  0
LINE
  5
1C9
330
1F
100
AcDbEntity
  8
0-0
  6
JWW_DASHED1
 62
   120
370
     5
100
AcDbLine
 10
-1033.756776322416
 20
678.4192171888682
 30
0.0
 11
-460.756776322417
 21
678.4192171888682
 31
0.0
  0
LINE
  5
1CA
330
1F
100
AcDbEntity
  8
0-0
  6
JWW_DASHED1
 62
   120
370
     5
100
AcDbLine
 10
-1033.756776322416
 20
691.4192171899678
 30
0.0
 11
-460.756776322417
 21
691.4192171899678
 31
0.0
  0
LINE
  5
1CB
330
1F
100
AcDbEntity
  8
0-0
  6
JWW_DASHED1
 62
   120
370
     5
100
AcDbLine
 10
-1033.756776322416
 20
692.4192171898679
 30
0.0
 11
-460.756776322417
 21
692.4192171898679
 31
0.0
  0
LINE
  5
1CC
330
1F
100
AcDbEntity
  8
0-0
  6
JWW_DASHED1
 62
   120
370
     5
100
AcDbLine
 10
-1033.756776322416
 20
705.4192171909675
 30
0.0
 11
-460.756776322417
 21
705.4192171909675
 31
0.0
  0
LINE
  5
1CD
330
1F
100
AcDbEntity
  8
0-0
  6
JWW_DASHED1
 62
   120
370
     5
100
AcDbLine
 10
-253.756776322416
 20
-455.5807828921149
 30
0.0
 11
319.2432236775848
 21
-455.5807828921149
 31
0.0
  0
LINE
  5
1CE
330
1F
100
AcDbEntity
  8
0-0
  6
JWW_DASHED1
 62
   120
370
     5
100
AcDbLine
 10
-253.756776322416
 20
-442.5807828910152
 30
0.0
 11
319.2432236775848
 21
-442.5807828910152
 31
0.0
  0
LINE
  5
1CF
330
1F
100
AcDbEntity
  8
0-0
  6
JWW_DASHED1
 62
   120
370
     5
100
AcDbLine
 10
-253.756776322416
 20
-441.5807828911151
 30
0.0
 11
319.2432236775848
 21
-441.5807828911151
 31
0.0
  0
LINE
  5
1D0
330
1F
100
AcDbEntity
  8
0-0
  6
JWW_DASHED1
 62
   120
370
     5
100
AcDbLine
 10
-253.756776322416
 20
-428.5807828900155
 30
0.0
 11
319.2432236775848
 21
-428.5807828900155
 31
0.0
  0
LINE
  5
1D1
330
1F
100
AcDbEntity
  8
0-0
  6
JWW_DASHED1
 62
   120
370
     5
100
AcDbLine
 10
-253.756776322416
 20
-427.5807828901153
 30
0.0
 11
319.2432236775848
 21
-427.5807828901153
 31
0.0
  0
LINE
  5
1D2
330
1F
100
AcDbEntity
  8
0-0
  6
JWW_DASHED1
 62
   120
370
     5
100
AcDbLine
 10
-253.756776322416
 20
-414.5807828890157
 30
0.0
 11
319.2432236775848
 21
-414.5807828890157
 31
0.0
  0
LINE
  5
1D3
330
1F
100
AcDbEntity
  8
0-0
  6
JWW_DASHED1
 62
   120
370
     5
100
AcDbLine
 10
-253.756776322416
 20
-413.5807828891155
 30
0.0
 11
319.2432236775848
 21
-413.5807828891155
 31
0.0
  0
LINE
  5
1D4
330
1F
100
AcDbEntity
  8
0-0
  6
JWW_DASHED1
 62
   120
370
     5
100
AcDbLine
 10
-253.756776322416
 20
-400.5807828880159
 30
0.0
 11
319.2432236775848
 21
-400.5807828880159
 31
0.0
  0
LINE
  5
1D5
330
1F
100
AcDbEntity
  8
0-0
  6
JWW_DASHED1
 62
   120
370
     5
100
AcDbLine
 10
-253.756776322416
 20
-399.5807828881157
 30
0.0
 11
319.2432236775848
 21
-399.5807828881157
 31
0.0
  0
LINE
  5
1D6
330
1F
100
AcDbEntity
  8
0-0
  6
JWW_DASHED1
 62
   120
370
     5
100
AcDbLine
 10
-253.756776322416
 20
-386.5807828870161
 30
0.0
 11
319.2432236775848
 21
-386.5807828870161
 31
0.0
  0
LINE
  5
1D7
330
1F
100
AcDbEntity
  8
0-0
  6
JWW_DASHED1
 62
   120
370
     5
100
AcDbLine
 10
-253.756776322416
 20
-385.5807828871159
 30
0.0
 11
319.2432236775848
 21
-385.5807828871159
 31
0.0
  0
LINE
  5
1D8
330
1F
100
AcDbEntity
  8
0-0
  6
JWW_DASHED1
 62
   120
370
     5
100
AcDbLine
 10
-253.756776322416
 20
-372.5807828860163
 30
0.0
 11
319.2432236775848
 21
-372.5807828860163
 31
0.0
  0
LINE
  5
1D9
330
1F
100
AcDbEntity
  8
0-0
  6
JWW_DASHED1
 62
   120
370
     5
100
AcDbLine
 10
-253.756776322416
 20
-371.5807828861161
 30
0.0
 11
319.2432236775848
 21
-371.5807828861161
 31
0.0
  0
LINE
  5
1DA
330
1F
100
AcDbEntity
  8
0-0
  6
JWW_DASHED1
 62
   120
370
     5
100
AcDbLine
 10
-253.756776322416
 20
-358.5807828850165
 30
0.0
 11
319.2432236775848
 21
-358.5807828850165
 31
0.0
  0
LINE
  5
1DB
330
1F
100
AcDbEntity
  8
0-0
  6
JWW_DASHED1
 62
   120
370
     5
100
AcDbLine
 10
-253.756776322416
 20
-357.5807828851163
 30
0.0
 11
319.2432236775848
 21
-357.5807828851163
 31
0.0
  0
LINE
  5
1DC
330
1F
100
AcDbEntity
  8
0-0
  6
JWW_DASHED1
 62
   120
370
     5
100
AcDbLine
 10
-253.756776322416
 20
-344.5807828840167
 30
0.0
 11
319.2432236775848
 21
-344.5807828840167
 31
0.0
  0
LINE
  5
1DD
330
1F
100
AcDbEntity
  8
0-0
  6
JWW_DASHED1
 62
   120
370
     5
100
AcDbLine
 10
-253.756776322416
 20
-343.5807828841166
 30
0.0
 11
319.2432236775848
 21
-343.5807828841166
 31
0.0
  0
LINE
  5
1DE
330
1F
100
AcDbEntity
  8
0-0
  6
JWW_DASHED1
 62
   120
370
     5
100
AcDbLine
 10
-253.756776322416
 20
-330.5807828830169
 30
0.0
 11
319.2432236775848
 21
-330.5807828830169
 31
0.0
  0
LINE
  5
1DF
330
1F
100
AcDbEntity
  8
0-0
  6
JWW_DASHED1
 62
   120
370
     5
100
AcDbLine
 10
-253.756776322416
 20
-329.5807828831167
 30
0.0
 11
319.2432236775848
 21
-329.5807828831167
 31
0.0
  0
LINE
  5
1E0
330
1F
100
AcDbEntity
  8
0-0
  6
JWW_DASHED1
 62
   120
370
     5
100
AcDbLine
 10
-253.756776322416
 20
-316.5807828820172
 30
0.0
 11
319.2432236775848
 21
-316.5807828820172
 31
0.0
  0
LINE
  5
1E1
330
1F
100
AcDbEntity
  8
0-0
  6
JWW_DASHED1
 62
   120
370
     5
100
AcDbLine
 10
-253.756776322416
 20
-315.580782882117
 30
0.0
 11
319.2432236775848
 21
-315.580782882117
 31
0.0
  0
LINE
  5
1E2
330
1F
100
AcDbEntity
  8
0-0
  6
JWW_DASHED1
 62
   120
370
     5
100
AcDbLine
 10
-253.756776322416
 20
-302.5807828810173
 30
0.0
 11
319.2432236775848
 21
-302.5807828810173
 31
0.0
  0
LINE
  5
1E3
330
1F
100
AcDbEntity
  8
0-0
  6
JWW_DASHED1
 62
   120
370
     5
100
AcDbLine
 10
-253.756776322416
 20
-301.5807828811172
 30
0.0
 11
319.2432236775848
 21
-301.5807828811172
 31
0.0
  0
LINE
  5
1E4
330
1F
100
AcDbEntity
  8
0-0
  6
JWW_DASHED1
 62
   120
370
     5
100
AcDbLine
 10
-253.756776322416
 20
-288.5807828800176
 30
0.0
 11
319.2432236775848
 21
-288.5807828800176
 31
0.0
  0
LINE
  5
1E5
330
1F
100
AcDbEntity
  8
0-0
  6
JWW_DASHED1
 62
   120
370
     5
100
AcDbLine
 10
-253.756776322416
 20
-287.5807828801174
 30
0.0
 11
319.2432236775848
 21
-287.5807828801174
 31
0.0
  0
LINE
  5
1E6
330
1F
100
AcDbEntity
  8
0-0
  6
JWW_DASHED1
 62
   120
370
     5
100
AcDbLine
 10
-253.756776322416
 20
-274.5807828790178
 30
0.0
 11
319.2432236775848
 21
-274.5807828790178
 31
0.0
  0
LINE
  5
1E7
330
1F
100
AcDbEntity
  8
0-0
  6
JWW_DASHED1
 62
   120
370
     5
100
AcDbLine
 10
-253.756776322416
 20
-273.5807828791176
 30
0.0
 11
319.2432236775848
 21
-273.5807828791176
 31
0.0
  0
LINE
  5
1E8
330
1F
100
AcDbEntity
  8
0-0
  6
JWW_DASHED1
 62
   120
370
     5
100
AcDbLine
 10
-253.756776322416
 20
-260.580782878018
 30
0.0
 11
319.2432236775848
 21
-260.580782878018
 31
0.0
  0
LINE
  5
1E9
330
1F
100
AcDbEntity
  8
0-0
  6
JWW_DASHED1
 62
   120
370
     5
100
AcDbLine
 10
-253.756776322416
 20
-259.5807828781178
 30
0.0
 11
319.2432236775848
 21
-259.5807828781178
 31
0.0
  0
LINE
  5
1EA
330
1F
100
AcDbEntity
  8
0-0
  6
JWW_DASHED1
 62
   120
370
     5
100
AcDbLine
 10
-253.756776322416
 20
-246.5807828770182
 30
0.0
 11
319.2432236775848
 21
-246.5807828770182
 31
0.0
  0
LINE
  5
1EB
330
1F
100
AcDbEntity
  8
0-0
  6
JWW_DASHED1
 62
   120
370
     5
100
AcDbLine
 10
-253.756776322416
 20
-245.580782877118
 30
0.0
 11
319.2432236775848
 21
-245.580782877118
 31
0.0
  0
LINE
  5
1EC
330
1F
100
AcDbEntity
  8
0-0
  6
JWW_DASHED1
 62
   120
370
     5
100
AcDbLine
 10
-253.756776322416
 20
-232.5807828760184
 30
0.0
 11
319.2432236775848
 21
-232.5807828760184
 31
0.0
  0
LINE
  5
1ED
330
1F
100
AcDbEntity
  8
0-0
  6
JWW_DASHED1
 62
   120
370
     5
100
AcDbLine
 10
-253.756776322416
 20
-231.5807828761182
 30
0.0
 11
319.2432236775848
 21
-231.5807828761182
 31
0.0
  0
LINE
  5
1EE
330
1F
100
AcDbEntity
  8
0-0
  6
JWW_DASHED1
 62
   120
370
     5
100
AcDbLine
 10
-253.756776322416
 20
-218.5807828750186
 30
0.0
 11
319.2432236775848
 21
-218.5807828750186
 31
0.0
  0
LINE
  5
1EF
330
1F
100
AcDbEntity
  8
0-0
  6
JWW_DASHED1
 62
   120
370
     5
100
AcDbLine
 10
-253.756776322416
 20
-217.5807828751184
 30
0.0
 11
319.2432236775848
 21
-217.5807828751184
 31
0.0
  0
LINE
  5
1F0
330
1F
100
AcDbEntity
  8
0-0
  6
JWW_DASHED1
 62
   120
370
     5
100
AcDbLine
 10
-253.756776322416
 20
-204.5807828740188
 30
0.0
 11
319.2432236775848
 21
-204.5807828740188
 31
0.0
  0
LINE
  5
1F1
330
1F
100
AcDbEntity
  8
0-0
  6
JWW_DASHED1
 62
   120
370
     5
100
AcDbLine
 10
-253.756776322416
 20
-203.5807828741187
 30
0.0
 11
319.2432236775848
 21
-203.5807828741187
 31
0.0
  0
LINE
  5
1F2
330
1F
100
AcDbEntity
  8
0-0
  6
JWW_DASHED1
 62
   120
370
     5
100
AcDbLine
 10
-253.756776322416
 20
-190.580782873019
 30
0.0
 11
319.2432236775848
 21
-190.580782873019
 31
0.0
  0
LINE
  5
1F3
330
1F
100
AcDbEntity
  8
0-0
  6
JWW_DASHED1
 62
   120
370
     5
100
AcDbLine
 10
-253.756776322416
 20
-189.5807828731188
 30
0.0
 11
319.2432236775848
 21
-189.5807828731188
 31
0.0
  0
LINE
  5
1F4
330
1F
100
AcDbEntity
  8
0-0
  6
JWW_DASHED1
 62
   120
370
     5
100
AcDbLine
 10
-253.756776322416
 20
-176.5807828720193
 30
0.0
 11
319.2432236775848
 21
-176.5807828720193
 31
0.0
  0
LINE
  5
1F5
330
1F
100
AcDbEntity
  8
0-0
  6
JWW_DASHED1
 62
   120
370
     5
100
AcDbLine
 10
-253.756776322416
 20
-175.5807828721191
 30
0.0
 11
319.2432236775848
 21
-175.5807828721191
 31
0.0
  0
LINE
  5
1F6
330
1F
100
AcDbEntity
  8
0-0
  6
JWW_DASHED1
 62
   120
370
     5
100
AcDbLine
 10
-253.756776322416
 20
-162.5807828710194
 30
0.0
 11
319.2432236775848
 21
-162.5807828710194
 31
0.0
  0
LINE
  5
1F7
330
1F
100
AcDbEntity
  8
0-0
  6
JWW_DASHED1
 62
   120
370
     5
100
AcDbLine
 10
-253.756776322416
 20
-161.5807828711193
 30
0.0
 11
319.2432236775848
 21
-161.5807828711193
 31
0.0
  0
LINE
  5
1F8
330
1F
100
AcDbEntity
  8
0-0
  6
JWW_DASHED1
 62
   120
370
     5
100
AcDbLine
 10
-253.756776322416
 20
-148.5807828700197
 30
0.0
 11
319.2432236775848
 21
-148.5807828700197
 31
0.0
  0
LINE
  5
1F9
330
1F
100
AcDbEntity
  8
0-0
  6
JWW_DASHED1
 62
   120
370
     5
100
AcDbLine
 10
-253.756776322416
 20
-147.5807828701195
 30
0.0
 11
319.2432236775848
 21
-147.5807828701195
 31
0.0
  0
LINE
  5
1FA
330
1F
100
AcDbEntity
  8
0-0
  6
JWW_DASHED1
 62
   120
370
     5
100
AcDbLine
 10
-253.756776322416
 20
-134.5807828690199
 30
0.0
 11
319.2432236775848
 21
-134.5807828690199
 31
0.0
  0
LINE
  5
1FB
330
1F
100
AcDbEntity
  8
0-0
  6
JWW_DASHED1
 62
   120
370
     5
100
AcDbLine
 10
-253.756776322416
 20
-133.5807828691197
 30
0.0
 11
319.2432236775848
 21
-133.5807828691197
 31
0.0
  0
LINE
  5
1FC
330
1F
100
AcDbEntity
  8
0-0
  6
JWW_DASHED1
 62
   120
370
     5
100
AcDbLine
 10
-253.756776322416
 20
-120.5807828680201
 30
0.0
 11
319.2432236775848
 21
-120.5807828680201
 31
0.0
  0
LINE
  5
1FD
330
1F
100
AcDbEntity
  8
0-0
  6
JWW_DASHED1
 62
   120
370
     5
100
AcDbLine
 10
-253.756776322416
 20
-119.5807828681199
 30
0.0
 11
319.2432236775848
 21
-119.5807828681199
 31
0.0
  0
LINE
  5
1FE
330
1F
100
AcDbEntity
  8
0-0
  6
JWW_DASHED1
 62
   120
370
     5
100
AcDbLine
 10
-253.756776322416
 20
-106.5807828670203
 30
0.0
 11
319.2432236775848
 21
-106.5807828670203
 31
0.0
  0
LINE
  5
1FF
330
1F
100
AcDbEntity
  8
0-0
  6
JWW_DASHED1
 62
   120
370
     5
100
AcDbLine
 10
-253.756776322416
 20
-105.5807828671201
 30
0.0
 11
319.2432236775848
 21
-105.5807828671201
 31
0.0
  0
LINE
  5
200
330
1F
100
AcDbEntity
  8
0-0
  6
JWW_DASHED1
 62
   120
370
     5
100
AcDbLine
 10
-253.756776322416
 20
-92.5807828660205
 30
0.0
 11
319.2432236775848
 21
-92.5807828660205
 31
0.0
  0
LINE
  5
201
330
1F
100
AcDbEntity
  8
0-0
  6
JWW_DASHED1
 62
   120
370
     5
100
AcDbLine
 10
-253.756776322416
 20
-91.58078286612032
 30
0.0
 11
319.2432236775848
 21
-91.58078286612032
 31
0.0
  0
LINE
  5
202
330
1F
100
AcDbEntity
  8
0-0
  6
JWW_DASHED1
 62
   120
370
     5
100
AcDbLine
 10
-253.756776322416
 20
-78.58078286502071
 30
0.0
 11
319.2432236775848
 21
-78.58078286502071
 31
0.0
  0
LINE
  5
203
330
1F
100
AcDbEntity
  8
0-0
  6
JWW_DASHED1
 62
   120
370
     5
100
AcDbLine
 10
-253.756776322416
 20
-77.58078286512053
 30
0.0
 11
319.2432236775848
 21
-77.58078286512053
 31
0.0
  0
LINE
  5
204
330
1F
100
AcDbEntity
  8
0-0
  6
JWW_DASHED1
 62
   120
370
     5
100
AcDbLine
 10
-253.756776322416
 20
-64.58078286402092
 30
0.0
 11
319.2432236775848
 21
-64.58078286402092
 31
0.0
  0
LINE
  5
205
330
1F
100
AcDbEntity
  8
0-0
  6
JWW_DASHED1
 62
   120
370
     5
100
AcDbLine
 10
-253.756776322416
 20
-63.58078286412074
 30
0.0
 11
319.2432236775848
 21
-63.58078286412074
 31
0.0
  0
LINE
  5
206
330
1F
100
AcDbEntity
  8
0-0
  6
JWW_DASHED1
 62
   120
370
     5
100
AcDbLine
 10
-253.756776322416
 20
-50.58078286302113
 30
0.0
 11
319.2432236775848
 21
-50.58078286302113
 31
0.0
  0
LINE
  5
207
330
1F
100
AcDbEntity
  8
0-0
  6
JWW_DASHED1
 62
   120
370
     5
100
AcDbLine
 10
-253.756776322416
 20
-49.58078286312094
 30
0.0
 11
319.2432236775848
 21
-49.58078286312094
 31
0.0
  0
LINE
  5
208
330
1F
100
AcDbEntity
  8
0-0
  6
JWW_DASHED1
 62
   120
370
     5
100
AcDbLine
 10
-253.756776322416
 20
-36.58078286202134
 30
0.0
 11
319.2432236775848
 21
-36.58078286202134
 31
0.0
  0
LINE
  5
209
330
1F
100
AcDbEntity
  8
0-0
  6
JWW_DASHED1
 62
   120
370
     5
100
AcDbLine
 10
-253.756776322416
 20
-35.58078286212115
 30
0.0
 11
319.2432236775848
 21
-35.58078286212115
 31
0.0
  0
LINE
  5
20A
330
1F
100
AcDbEntity
  8
0-0
  6
JWW_DASHED1
 62
   120
370
     5
100
AcDbLine
 10
-253.756776322416
 20
-22.58078286102155
 30
0.0
 11
319.2432236775848
 21
-22.58078286102155
 31
0.0
  0
LINE
  5
20B
330
1F
100
AcDbEntity
  8
0-0
  6
JWW_DASHED1
 62
   120
370
     5
100
AcDbLine
 10
-253.756776322416
 20
-21.58078286112136
 30
0.0
 11
319.2432236775848
 21
-21.58078286112136
 31
0.0
  0
LINE
  5
20C
330
1F
100
AcDbEntity
  8
0-0
  6
JWW_DASHED1
 62
   120
370
     5
100
AcDbLine
 10
-253.756776322416
 20
-8.580782860021756
 30
0.0
 11
319.2432236775848
 21
-8.580782860021756
 31
0.0
  0
LINE
  5
20D
330
1F
100
AcDbEntity
  8
0-0
  6
JWW_DASHED1
 62
   120
370
     5
100
AcDbLine
 10
-253.756776322416
 20
-7.580782860121573
 30
0.0
 11
319.2432236775848
 21
-7.580782860121573
 31
0.0
  0
LINE
  5
20E
330
1F
100
AcDbEntity
  8
0-0
  6
JWW_DASHED1
 62
   120
370
     5
100
AcDbLine
 10
-253.756776322416
 20
5.419217140978034
 30
0.0
 11
319.2432236775848
 21
5.419217140978034
 31
0.0
  0
LINE
  5
20F
330
1F
100
AcDbEntity
  8
0-0
  6
JWW_DASHED1
 62
   120
370
     5
100
AcDbLine
 10
-253.756776322416
 20
6.419217140878217
 30
0.0
 11
319.2432236775848
 21
6.419217140878217
 31
0.0
  0
LINE
  5
210
330
1F
100
AcDbEntity
  8
0-0
  6
JWW_DASHED1
 62
   120
370
     5
100
AcDbLine
 10
-253.756776322416
 20
19.41921714197782
 30
0.0
 11
319.2432236775848
 21
19.41921714197782
 31
0.0
  0
LINE
  5
211
330
1F
100
AcDbEntity
  8
0-0
  6
JWW_DASHED1
 62
   120
370
     5
100
AcDbLine
 10
-253.756776322416
 20
20.41921714187801
 30
0.0
 11
319.2432236775848
 21
20.41921714187801
 31
0.0
  0
LINE
  5
212
330
1F
100
AcDbEntity
  8
0-0
  6
JWW_DASHED1
 62
   120
370
     5
100
AcDbLine
 10
-253.756776322416
 20
33.41921714297762
 30
0.0
 11
319.2432236775848
 21
33.41921714297762
 31
0.0
  0
LINE
  5
213
330
1F
100
AcDbEntity
  8
0-0
  6
JWW_DASHED1
 62
   120
370
     5
100
AcDbLine
 10
-253.756776322416
 20
34.4192171428778
 30
0.0
 11
319.2432236775848
 21
34.4192171428778
 31
0.0
  0
LINE
  5
214
330
1F
100
AcDbEntity
  8
0-0
  6
JWW_DASHED1
 62
   120
370
     5
100
AcDbLine
 10
-253.756776322416
 20
47.41921714397741
 30
0.0
 11
319.2432236775848
 21
47.41921714397741
 31
0.0
  0
LINE
  5
215
330
1F
100
AcDbEntity
  8
0-0
  6
JWW_DASHED1
 62
   120
370
     5
100
AcDbLine
 10
-253.756776322416
 20
48.41921714387759
 30
0.0
 11
319.2432236775848
 21
48.41921714387759
 31
0.0
  0
LINE
  5
216
330
1F
100
AcDbEntity
  8
0-0
  6
JWW_DASHED1
 62
   120
370
     5
100
AcDbLine
 10
-253.756776322416
 20
61.4192171449772
 30
0.0
 11
319.2432236775848
 21
61.4192171449772
 31
0.0
  0
LINE
  5
217
330
1F
100
AcDbEntity
  8
0-0
  6
JWW_DASHED1
 62
   120
370
     5
100
AcDbLine
 10
-253.756776322416
 20
62.41921714487738
 30
0.0
 11
319.2432236775848
 21
62.41921714487738
 31
0.0
  0
LINE
  5
218
330
1F
100
AcDbEntity
  8
0-0
  6
JWW_DASHED1
 62
   120
370
     5
100
AcDbLine
 10
-253.756776322416
 20
75.41921714597699
 30
0.0
 11
319.2432236775848
 21
75.41921714597699
 31
0.0
  0
LINE
  5
219
330
1F
100
AcDbEntity
  8
0-0
  6
JWW_DASHED1
 62
   120
370
     5
100
AcDbLine
 10
-253.756776322416
 20
76.41921714587717
 30
0.0
 11
319.2432236775848
 21
76.41921714587717
 31
0.0
  0
LINE
  5
21A
330
1F
100
AcDbEntity
  8
0-0
  6
JWW_DASHED1
 62
   120
370
     5
100
AcDbLine
 10
-253.756776322416
 20
89.41921714697678
 30
0.0
 11
319.2432236775848
 21
89.41921714697678
 31
0.0
  0
LINE
  5
21B
330
1F
100
AcDbEntity
  8
0-0
  6
JWW_DASHED1
 62
   120
370
     5
100
AcDbLine
 10
-253.756776322416
 20
90.41921714687696
 30
0.0
 11
319.2432236775848
 21
90.41921714687696
 31
0.0
  0
LINE
  5
21C
330
1F
100
AcDbEntity
  8
0-0
  6
JWW_DASHED1
 62
   120
370
     5
100
AcDbLine
 10
-253.756776322416
 20
103.4192171479766
 30
0.0
 11
319.2432236775848
 21
103.4192171479766
 31
0.0
  0
LINE
  5
21D
330
1F
100
AcDbEntity
  8
0-0
  6
JWW_DASHED1
 62
   120
370
     5
100
AcDbLine
 10
-253.756776322416
 20
104.4192171478768
 30
0.0
 11
319.2432236775848
 21
104.4192171478768
 31
0.0
  0
LINE
  5
21E
330
1F
100
AcDbEntity
  8
0-0
  6
JWW_DASHED1
 62
   120
370
     5
100
AcDbLine
 10
-253.756776322416
 20
117.4192171489764
 30
0.0
 11
319.2432236775848
 21
117.4192171489764
 31
0.0
  0
LINE
  5
21F
330
1F
100
AcDbEntity
  8
0-0
  6
JWW_DASHED1
 62
   120
370
     5
100
AcDbLine
 10
-253.756776322416
 20
118.4192171488765
 30
0.0
 11
319.2432236775848
 21
118.4192171488765
 31
0.0
  0
LINE
  5
220
330
1F
100
AcDbEntity
  8
0-0
  6
JWW_DASHED1
 62
   120
370
     5
100
AcDbLine
 10
-253.756776322416
 20
131.4192171499761
 30
0.0
 11
319.2432236775848
 21
131.4192171499761
 31
0.0
  0
LINE
  5
221
330
1F
100
AcDbEntity
  8
0-0
  6
JWW_DASHED1
 62
   120
370
     5
100
AcDbLine
 10
-253.756776322416
 20
132.4192171498763
 30
0.0
 11
319.2432236775848
 21
132.4192171498763
 31
0.0
  0
LINE
  5
222
330
1F
100
AcDbEntity
  8
0-0
  6
JWW_DASHED1
 62
   120
370
     5
100
AcDbLine
 10
-253.756776322416
 20
145.419217150976
 30
0.0
 11
319.2432236775848
 21
145.419217150976
 31
0.0
  0
LINE
  5
223
330
1F
100
AcDbEntity
  8
0-0
  6
JWW_DASHED1
 62
   120
370
     5
100
AcDbLine
 10
-253.756776322416
 20
146.4192171508761
 30
0.0
 11
319.2432236775848
 21
146.4192171508761
 31
0.0
  0
LINE
  5
224
330
1F
100
AcDbEntity
  8
0-0
  6
JWW_DASHED1
 62
   120
370
     5
100
AcDbLine
 10
-253.756776322416
 20
159.4192171519757
 30
0.0
 11
319.2432236775848
 21
159.4192171519757
 31
0.0
  0
LINE
  5
225
330
1F
100
AcDbEntity
  8
0-0
  6
JWW_DASHED1
 62
   120
370
     5
100
AcDbLine
 10
-253.756776322416
 20
160.4192171518759
 30
0.0
 11
319.2432236775848
 21
160.4192171518759
 31
0.0
  0
LINE
  5
226
330
1F
100
AcDbEntity
  8
0-0
  6
JWW_DASHED1
 62
   120
370
     5
100
AcDbLine
 10
-253.756776322416
 20
173.4192171529755
 30
0.0
 11
319.2432236775848
 21
173.4192171529755
 31
0.0
  0
LINE
  5
227
330
1F
100
AcDbEntity
  8
0-0
  6
JWW_DASHED1
 62
   120
370
     5
100
AcDbLine
 10
-253.756776322416
 20
174.4192171528757
 30
0.0
 11
319.2432236775848
 21
174.4192171528757
 31
0.0
  0
LINE
  5
228
330
1F
100
AcDbEntity
  8
0-0
  6
JWW_DASHED1
 62
   120
370
     5
100
AcDbLine
 10
-253.756776322416
 20
187.4192171539753
 30
0.0
 11
319.2432236775848
 21
187.4192171539753
 31
0.0
  0
LINE
  5
229
330
1F
100
AcDbEntity
  8
0-0
  6
JWW_DASHED1
 62
   120
370
     5
100
AcDbLine
 10
-253.756776322416
 20
188.4192171538755
 30
0.0
 11
319.2432236775848
 21
188.4192171538755
 31
0.0
  0
LINE
  5
22A
330
1F
100
AcDbEntity
  8
0-0
  6
JWW_DASHED1
 62
   120
370
     5
100
AcDbLine
 10
-253.756776322416
 20
201.4192171549751
 30
0.0
 11
319.2432236775848
 21
201.4192171549751
 31
0.0
  0
LINE
  5
22B
330
1F
100
AcDbEntity
  8
0-0
  6
JWW_DASHED1
 62
   120
370
     5
100
AcDbLine
 10
-253.756776322416
 20
202.4192171548753
 30
0.0
 11
319.2432236775848
 21
202.4192171548753
 31
0.0
  0
LINE
  5
22C
330
1F
100
AcDbEntity
  8
0-0
  6
JWW_DASHED1
 62
   120
370
     5
100
AcDbLine
 10
-253.756776322416
 20
215.4192171559749
 30
0.0
 11
319.2432236775848
 21
215.4192171559749
 31
0.0
  0
LINE
  5
22D
330
1F
100
AcDbEntity
  8
0-0
  6
JWW_DASHED1
 62
   120
370
     5
100
AcDbLine
 10
-253.756776322416
 20
216.4192171558751
 30
0.0
 11
319.2432236775848
 21
216.4192171558751
 31
0.0
  0
LINE
  5
22E
330
1F
100
AcDbEntity
  8
0-0
  6
JWW_DASHED1
 62
   120
370
     5
100
AcDbLine
 10
-253.756776322416
 20
229.4192171569747
 30
0.0
 11
319.2432236775848
 21
229.4192171569747
 31
0.0
  0
LINE
  5
22F
330
1F
100
AcDbEntity
  8
0-0
  6
JWW_DASHED1
 62
   120
370
     5
100
AcDbLine
 10
-253.756776322416
 20
230.4192171568749
 30
0.0
 11
319.2432236775848
 21
230.4192171568749
 31
0.0
  0
LINE
  5
230
330
1F
100
AcDbEntity
  8
0-0
  6
JWW_DASHED1
 62
   120
370
     5
100
AcDbLine
 10
-253.756776322416
 20
243.4192171579745
 30
0.0
 11
319.2432236775848
 21
243.4192171579745
 31
0.0
  0
LINE
  5
231
330
1F
100
AcDbEntity
  8
0-0
  6
JWW_DASHED1
 62
   120
370
     5
100
AcDbLine
 10
-253.756776322416
 20
244.4192171578746
 30
0.0
 11
319.2432236775848
 21
244.4192171578746
 31
0.0
  0
LINE
  5
232
330
1F
100
AcDbEntity
  8
0-0
  6
JWW_DASHED1
 62
   120
370
     5
100
AcDbLine
 10
-253.756776322416
 20
257.4192171589743
 30
0.0
 11
319.2432236775848
 21
257.4192171589743
 31
0.0
  0
LINE
  5
233
330
1F
100
AcDbEntity
  8
0-0
  6
JWW_DASHED1
 62
   120
370
     5
100
AcDbLine
 10
-253.756776322416
 20
258.4192171588745
 30
0.0
 11
319.2432236775848
 21
258.4192171588745
 31
0.0
  0
LINE
  5
234
330
1F
100
AcDbEntity
  8
0-0
  6
JWW_DASHED1
 62
   120
370
     5
100
AcDbLine
 10
-253.756776322416
 20
271.419217159974
 30
0.0
 11
319.2432236775848
 21
271.419217159974
 31
0.0
  0
LINE
  5
235
330
1F
100
AcDbEntity
  8
0-0
  6
JWW_DASHED1
 62
   120
370
     5
100
AcDbLine
 10
-253.756776322416
 20
272.4192171598742
 30
0.0
 11
319.2432236775848
 21
272.4192171598742
 31
0.0
  0
LINE
  5
236
330
1F
100
AcDbEntity
  8
0-0
  6
JWW_DASHED1
 62
   120
370
     5
100
AcDbLine
 10
-253.756776322416
 20
285.4192171609739
 30
0.0
 11
319.2432236775848
 21
285.4192171609739
 31
0.0
  0
LINE
  5
237
330
1F
100
AcDbEntity
  8
0-0
  6
JWW_DASHED1
 62
   120
370
     5
100
AcDbLine
 10
-253.756776322416
 20
286.419217160874
 30
0.0
 11
319.2432236775848
 21
286.419217160874
 31
0.0
  0
LINE
  5
238
330
1F
100
AcDbEntity
  8
0-0
  6
JWW_DASHED1
 62
   120
370
     5
100
AcDbLine
 10
-253.756776322416
 20
299.4192171619736
 30
0.0
 11
319.2432236775848
 21
299.4192171619736
 31
0.0
  0
LINE
  5
239
330
1F
100
AcDbEntity
  8
0-0
  6
JWW_DASHED1
 62
   120
370
     5
100
AcDbLine
 10
-253.756776322416
 20
300.4192171618738
 30
0.0
 11
319.2432236775848
 21
300.4192171618738
 31
0.0
  0
LINE
  5
23A
330
1F
100
AcDbEntity
  8
0-0
  6
JWW_DASHED1
 62
   120
370
     5
100
AcDbLine
 10
-253.756776322416
 20
313.4192171629734
 30
0.0
 11
319.2432236775848
 21
313.4192171629734
 31
0.0
  0
LINE
  5
23B
330
1F
100
AcDbEntity
  8
0-0
  6
JWW_DASHED1
 62
   120
370
     5
100
AcDbLine
 10
-253.756776322416
 20
314.4192171628736
 30
0.0
 11
319.2432236775848
 21
314.4192171628736
 31
0.0
  0
LINE
  5
23C
330
1F
100
AcDbEntity
  8
0-0
  6
JWW_DASHED1
 62
   120
370
     5
100
AcDbLine
 10
-253.756776322416
 20
327.4192171639732
 30
0.0
 11
319.2432236775848
 21
327.4192171639732
 31
0.0
  0
LINE
  5
23D
330
1F
100
AcDbEntity
  8
0-0
  6
JWW_DASHED1
 62
   120
370
     5
100
AcDbLine
 10
-253.756776322416
 20
328.4192171638734
 30
0.0
 11
319.2432236775848
 21
328.4192171638734
 31
0.0
  0
LINE
  5
23E
330
1F
100
AcDbEntity
  8
0-0
  6
JWW_DASHED1
 62
   120
370
     5
100
AcDbLine
 10
-253.756776322416
 20
341.419217164973
 30
0.0
 11
319.2432236775848
 21
341.419217164973
 31
0.0
  0
LINE
  5
23F
330
1F
100
AcDbEntity
  8
0-0
  6
JWW_DASHED1
 62
   120
370
     5
100
AcDbLine
 10
-253.756776322416
 20
342.4192171648732
 30
0.0
 11
319.2432236775848
 21
342.4192171648732
 31
0.0
  0
LINE
  5
240
330
1F
100
AcDbEntity
  8
0-0
  6
JWW_DASHED1
 62
   120
370
     5
100
AcDbLine
 10
-253.756776322416
 20
355.4192171659728
 30
0.0
 11
319.2432236775848
 21
355.4192171659728
 31
0.0
  0
LINE
  5
241
330
1F
100
AcDbEntity
  8
0-0
  6
JWW_DASHED1
 62
   120
370
     5
100
AcDbLine
 10
-253.756776322416
 20
356.419217165873
 30
0.0
 11
319.2432236775848
 21
356.419217165873
 31
0.0
  0
LINE
  5
242
330
1F
100
AcDbEntity
  8
0-0
  6
JWW_DASHED1
 62
   120
370
     5
100
AcDbLine
 10
-253.756776322416
 20
369.4192171669726
 30
0.0
 11
319.2432236775848
 21
369.4192171669726
 31
0.0
  0
LINE
  5
243
330
1F
100
AcDbEntity
  8
0-0
  6
JWW_DASHED1
 62
   120
370
     5
100
AcDbLine
 10
-253.756776322416
 20
370.4192171668728
 30
0.0
 11
319.2432236775848
 21
370.4192171668728
 31
0.0
  0
LINE
  5
244
330
1F
100
AcDbEntity
  8
0-0
  6
JWW_DASHED1
 62
   120
370
     5
100
AcDbLine
 10
-253.756776322416
 20
383.4192171679724
 30
0.0
 11
319.2432236775848
 21
383.4192171679724
 31
0.0
  0
LINE
  5
245
330
1F
100
AcDbEntity
  8
0-0
  6
JWW_DASHED1
 62
   120
370
     5
100
AcDbLine
 10
-253.756776322416
 20
384.4192171678725
 30
0.0
 11
319.2432236775848
 21
384.4192171678725
 31
0.0
  0
LINE
  5
246
330
1F
100
AcDbEntity
  8
0-0
  6
JWW_DASHED1
 62
   120
370
     5
100
AcDbLine
 10
-253.756776322416
 20
397.4192171689722
 30
0.0
 11
319.2432236775848
 21
397.4192171689722
 31
0.0
  0
LINE
  5
247
330
1F
100
AcDbEntity
  8
0-0
  6
JWW_DASHED1
 62
   120
370
     5
100
AcDbLine
 10
-253.756776322416
 20
398.4192171688724
 30
0.0
 11
319.2432236775848
 21
398.4192171688724
 31
0.0
  0
LINE
  5
248
330
1F
100
AcDbEntity
  8
0-0
  6
JWW_DASHED1
 62
   120
370
     5
100
AcDbLine
 10
-253.756776322416
 20
411.4192171699719
 30
0.0
 11
319.2432236775848
 21
411.4192171699719
 31
0.0
  0
LINE
  5
249
330
1F
100
AcDbEntity
  8
0-0
  6
JWW_DASHED1
 62
   120
370
     5
100
AcDbLine
 10
-253.756776322416
 20
412.4192171698721
 30
0.0
 11
319.2432236775848
 21
412.4192171698721
 31
0.0
  0
LINE
  5
24A
330
1F
100
AcDbEntity
  8
0-0
  6
JWW_DASHED1
 62
   120
370
     5
100
AcDbLine
 10
-253.756776322416
 20
425.4192171709718
 30
0.0
 11
319.2432236775848
 21
425.4192171709718
 31
0.0
  0
LINE
  5
24B
330
1F
100
AcDbEntity
  8
0-0
  6
JWW_DASHED1
 62
   120
370
     5
100
AcDbLine
 10
-253.756776322416
 20
426.4192171708719
 30
0.0
 11
319.2432236775848
 21
426.4192171708719
 31
0.0
  0
LINE
  5
24C
330
1F
100
AcDbEntity
  8
0-0
  6
JWW_DASHED1
 62
   120
370
     5
100
AcDbLine
 10
-253.756776322416
 20
439.4192171719715
 30
0.0
 11
319.2432236775848
 21
439.4192171719715
 31
0.0
  0
LINE
  5
24D
330
1F
100
AcDbEntity
  8
0-0
  6
JWW_DASHED1
 62
   120
370
     5
100
AcDbLine
 10
-253.756776322416
 20
440.4192171718717
 30
0.0
 11
319.2432236775848
 21
440.4192171718717
 31
0.0
  0
LINE
  5
24E
330
1F
100
AcDbEntity
  8
0-0
  6
JWW_DASHED1
 62
   120
370
     5
100
AcDbLine
 10
-253.756776322416
 20
453.4192171729713
 30
0.0
 11
319.2432236775848
 21
453.4192171729713
 31
0.0
  0
LINE
  5
24F
330
1F
100
AcDbEntity
  8
0-0
  6
JWW_DASHED1
 62
   120
370
     5
100
AcDbLine
 10
-253.756776322416
 20
454.4192171728715
 30
0.0
 11
319.2432236775848
 21
454.4192171728715
 31
0.0
  0
LINE
  5
250
330
1F
100
AcDbEntity
  8
0-0
  6
JWW_DASHED1
 62
   120
370
     5
100
AcDbLine
 10
-253.756776322416
 20
467.4192171739711
 30
0.0
 11
319.2432236775848
 21
467.4192171739711
 31
0.0
  0
LINE
  5
251
330
1F
100
AcDbEntity
  8
0-0
  6
JWW_DASHED1
 62
   120
370
     5
100
AcDbLine
 10
-253.756776322416
 20
468.4192171738713
 30
0.0
 11
319.2432236775848
 21
468.4192171738713
 31
0.0
  0
LINE
  5
252
330
1F
100
AcDbEntity
  8
0-0
  6
JWW_DASHED1
 62
   120
370
     5
100
AcDbLine
 10
-253.756776322416
 20
481.4192171749709
 30
0.0
 11
319.2432236775848
 21
481.4192171749709
 31
0.0
  0
LINE
  5
253
330
1F
100
AcDbEntity
  8
0-0
  6
JWW_DASHED1
 62
   120
370
     5
100
AcDbLine
 10
-253.756776322416
 20
482.4192171748711
 30
0.0
 11
319.2432236775848
 21
482.4192171748711
 31
0.0
  0
LINE
  5
254
330
1F
100
AcDbEntity
  8
0-0
  6
JWW_DASHED1
 62
   120
370
     5
100
AcDbLine
 10
-253.756776322416
 20
495.4192171759707
 30
0.0
 11
319.2432236775848
 21
495.4192171759707
 31
0.0
  0
LINE
  5
255
330
1F
100
AcDbEntity
  8
0-0
  6
JWW_DASHED1
 62
   120
370
     5
100
AcDbLine
 10
-253.756776322416
 20
496.4192171758709
 30
0.0
 11
319.2432236775848
 21
496.4192171758709
 31
0.0
  0
LINE
  5
256
330
1F
100
AcDbEntity
  8
0-0
  6
JWW_DASHED1
 62
   120
370
     5
100
AcDbLine
 10
-253.756776322416
 20
509.4192171769705
 30
0.0
 11
319.2432236775848
 21
509.4192171769705
 31
0.0
  0
LINE
  5
257
330
1F
100
AcDbEntity
  8
0-0
  6
JWW_DASHED1
 62
   120
370
     5
100
AcDbLine
 10
-253.756776322416
 20
510.4192171768707
 30
0.0
 11
319.2432236775848
 21
510.4192171768707
 31
0.0
  0
LINE
  5
258
330
1F
100
AcDbEntity
  8
0-0
  6
JWW_DASHED1
 62
   120
370
     5
100
AcDbLine
 10
-253.756776322416
 20
523.4192171779703
 30
0.0
 11
319.2432236775848
 21
523.4192171779703
 31
0.0
  0
LINE
  5
259
330
1F
100
AcDbEntity
  8
0-0
  6
JWW_DASHED1
 62
   120
370
     5
100
AcDbLine
 10
-253.756776322416
 20
524.4192171778705
 30
0.0
 11
319.2432236775848
 21
524.4192171778705
 31
0.0
  0
LINE
  5
25A
330
1F
100
AcDbEntity
  8
0-0
  6
JWW_DASHED1
 62
   120
370
     5
100
AcDbLine
 10
-253.756776322416
 20
537.41921717897
 30
0.0
 11
319.2432236775848
 21
537.41921717897
 31
0.0
  0
LINE
  5
25B
330
1F
100
AcDbEntity
  8
0-0
  6
JWW_DASHED1
 62
   120
370
     5
100
AcDbLine
 10
-253.756776322416
 20
538.4192171788702
 30
0.0
 11
319.2432236775848
 21
538.4192171788702
 31
0.0
  0
LINE
  5
25C
330
1F
100
AcDbEntity
  8
0-0
  6
JWW_DASHED1
 62
   120
370
     5
100
AcDbLine
 10
-253.756776322416
 20
551.4192171799699
 30
0.0
 11
319.2432236775848
 21
551.4192171799699
 31
0.0
  0
LINE
  5
25D
330
1F
100
AcDbEntity
  8
0-0
  6
JWW_DASHED1
 62
   120
370
     5
100
AcDbLine
 10
-253.756776322416
 20
552.4192171798701
 30
0.0
 11
319.2432236775848
 21
552.4192171798701
 31
0.0
  0
LINE
  5
25E
330
1F
100
AcDbEntity
  8
0-0
  6
JWW_DASHED1
 62
   120
370
     5
100
AcDbLine
 10
-253.756776322416
 20
565.4192171809697
 30
0.0
 11
319.2432236775848
 21
565.4192171809697
 31
0.0
  0
LINE
  5
25F
330
1F
100
AcDbEntity
  8
0-0
  6
JWW_DASHED1
 62
   120
370
     5
100
AcDbLine
 10
-253.756776322416
 20
566.4192171808699
 30
0.0
 11
319.2432236775848
 21
566.4192171808699
 31
0.0
  0
LINE
  5
260
330
1F
100
AcDbEntity
  8
0-0
  6
JWW_DASHED1
 62
   120
370
     5
100
AcDbLine
 10
-253.756776322416
 20
579.4192171819694
 30
0.0
 11
319.2432236775848
 21
579.4192171819694
 31
0.0
  0
LINE
  5
261
330
1F
100
AcDbEntity
  8
0-0
  6
JWW_DASHED1
 62
   120
370
     5
100
AcDbLine
 10
-253.756776322416
 20
580.4192171818696
 30
0.0
 11
319.2432236775848
 21
580.4192171818696
 31
0.0
  0
LINE
  5
262
330
1F
100
AcDbEntity
  8
0-0
  6
JWW_DASHED1
 62
   120
370
     5
100
AcDbLine
 10
-253.756776322416
 20
593.4192171829692
 30
0.0
 11
319.2432236775848
 21
593.4192171829692
 31
0.0
  0
LINE
  5
263
330
1F
100
AcDbEntity
  8
0-0
  6
JWW_DASHED1
 62
   120
370
     5
100
AcDbLine
 10
-253.756776322416
 20
594.4192171828694
 30
0.0
 11
319.2432236775848
 21
594.4192171828694
 31
0.0
  0
LINE
  5
264
330
1F
100
AcDbEntity
  8
0-0
  6
JWW_DASHED1
 62
   120
370
     5
100
AcDbLine
 10
-253.756776322416
 20
607.4192171839691
 30
0.0
 11
319.2432236775848
 21
607.4192171839691
 31
0.0
  0
LINE
  5
265
330
1F
100
AcDbEntity
  8
0-0
  6
JWW_DASHED1
 62
   120
370
     5
100
AcDbLine
 10
-253.756776322416
 20
608.4192171838693
 30
0.0
 11
319.2432236775848
 21
608.4192171838693
 31
0.0
  0
LINE
  5
266
330
1F
100
AcDbEntity
  8
0-0
  6
JWW_DASHED1
 62
   120
370
     5
100
AcDbLine
 10
-253.756776322416
 20
621.4192171849688
 30
0.0
 11
319.2432236775848
 21
621.4192171849688
 31
0.0
  0
LINE
  5
267
330
1F
100
AcDbEntity
  8
0-0
  6
JWW_DASHED1
 62
   120
370
     5
100
AcDbLine
 10
-253.756776322416
 20
622.4192171848688
 30
0.0
 11
319.2432236775848
 21
622.4192171848688
 31
0.0
  0
LINE
  5
268
330
1F
100
AcDbEntity
  8
0-0
  6
JWW_DASHED1
 62
   120
370
     5
100
AcDbLine
 10
-253.756776322416
 20
635.4192171859686
 30
0.0
 11
319.2432236775848
 21
635.4192171859686
 31
0.0
  0
LINE
  5
269
330
1F
100
AcDbEntity
  8
0-0
  6
JWW_DASHED1
 62
   120
370
     5
100
AcDbLine
 10
-253.756776322416
 20
636.4192171858688
 30
0.0
 11
319.2432236775848
 21
636.4192171858688
 31
0.0
  0
LINE
  5
26A
330
1F
100
AcDbEntity
  8
0-0
  6
JWW_DASHED1
 62
   120
370
     5
100
AcDbLine
 10
-253.756776322416
 20
649.4192171869684
 30
0.0
 11
319.2432236775848
 21
649.4192171869684
 31
0.0
  0
LINE
  5
26B
330
1F
100
AcDbEntity
  8
0-0
  6
JWW_DASHED1
 62
   120
370
     5
100
AcDbLine
 10
-253.756776322416
 20
650.4192171868685
 30
0.0
 11
319.2432236775848
 21
650.4192171868685
 31
0.0
  0
LINE
  5
26C
330
1F
100
AcDbEntity
  8
0-0
  6
JWW_DASHED1
 62
   120
370
     5
100
AcDbLine
 10
-247.7567578643842
 20
-456.5806345781713
 30
0.0
 11
-247.7567578643842
 21
718.4193654218288
 31
0.0
  0
LINE
  5
26D
330
1F
100
AcDbEntity
  8
0-0
  6
JWW_DASHED1
 62
   120
370
     5
100
AcDbLine
 10
285.2432421735161
 20
-456.5806345781713
 30
0.0
 11
285.2432421735161
 21
718.4193654218288
 31
0.0
  0
LINE
  5
26E
330
1F
100
AcDbEntity
  8
0-0
  6
JWW_DASHED1
 62
   120
370
     5
100
AcDbLine
 10
284.243242173616
 20
-456.5806345781713
 30
0.0
 11
284.2432421736164
 21
718.4193654218288
 31
0.0
  0
LINE
  5
26F
330
1F
100
AcDbEntity
  8
0-0
  6
JWW_DASHED1
 62
   120
370
     5
100
AcDbLine
 10
271.2432421725159
 20
-456.5806345781713
 30
0.0
 11
271.2432421725164
 21
718.4193654218288
 31
0.0
  0
LINE
  5
270
330
1F
100
AcDbEntity
  8
0-0
  6
JWW_DASHED1
 62
   120
370
     5
100
AcDbLine
 10
270.2432421726162
 20
-456.5806345781713
 30
0.0
 11
270.2432421726162
 21
718.4193654218288
 31
0.0
  0
LINE
  5
271
330
1F
100
AcDbEntity
  8
0-0
  6
JWW_DASHED1
 62
   120
370
     5
100
AcDbLine
 10
257.2432421715157
 20
-456.5806345781713
 30
0.0
 11
257.2432421715157
 21
718.4193654218288
 31
0.0
  0
LINE
  5
272
330
1F
100
AcDbEntity
  8
0-0
  6
JWW_DASHED1
 62
   120
370
     5
100
AcDbLine
 10
256.243242171616
 20
-456.5806345781713
 30
0.0
 11
256.243242171616
 21
718.4193654218288
 31
0.0
  0
LINE
  5
273
330
1F
100
AcDbEntity
  8
0-0
  6
JWW_DASHED1
 62
   120
370
     5
100
AcDbLine
 10
243.2432421705159
 20
-456.5806345781713
 30
0.0
 11
243.2432421705159
 21
718.4193654218288
 31
0.0
  0
LINE
  5
274
330
1F
100
AcDbEntity
  8
0-0
  6
JWW_DASHED1
 62
   120
370
     5
100
AcDbLine
 10
242.2432421706157
 20
-456.5806345781713
 30
0.0
 11
242.2432421706157
 21
718.4193654218288
 31
0.0
  0
LINE
  5
275
330
1F
100
AcDbEntity
  8
0-0
  6
JWW_DASHED1
 62
   120
370
     5
100
AcDbLine
 10
229.2432421695157
 20
-456.5806345781713
 30
0.0
 11
229.2432421695157
 21
718.4193654218288
 31
0.0
  0
LINE
  5
276
330
1F
100
AcDbEntity
  8
0-0
  6
JWW_DASHED1
 62
   120
370
     5
100
AcDbLine
 10
228.2432421696159
 20
-456.5806345781713
 30
0.0
 11
228.2432421696164
 21
718.4193654218288
 31
0.0
  0
LINE
  5
277
330
1F
100
AcDbEntity
  8
0-0
  6
JWW_DASHED1
 62
   120
370
     5
100
AcDbLine
 10
215.2432421685159
 20
-456.5806345781713
 30
0.0
 11
215.2432421685163
 21
718.4193654218288
 31
0.0
  0
LINE
  5
278
330
1F
100
AcDbEntity
  8
0-0
  6
JWW_DASHED1
 62
   120
370
     5
100
AcDbLine
 10
214.2432421686161
 20
-456.5806345781713
 30
0.0
 11
214.2432421686161
 21
718.4193654218288
 31
0.0
  0
LINE
  5
279
330
1F
100
AcDbEntity
  8
0-0
  6
JWW_DASHED1
 62
   120
370
     5
100
AcDbLine
 10
201.2432421675161
 20
-456.5806345781713
 30
0.0
 11
201.2432421675161
 21
718.4193654218288
 31
0.0
  0
LINE
  5
27A
330
1F
100
AcDbEntity
  8
0-0
  6
JWW_DASHED1
 62
   120
370
     5
100
AcDbLine
 10
200.2432421676159
 20
-456.5806345781713
 30
0.0
 11
200.2432421676159
 21
718.4193654218288
 31
0.0
  0
LINE
  5
27B
330
1F
100
AcDbEntity
  8
0-0
  6
JWW_DASHED1
 62
   120
370
     5
100
AcDbLine
 10
187.2432421665163
 20
-456.5806345781713
 30
0.0
 11
187.2432421665163
 21
718.4193654218288
 31
0.0
  0
LINE
  5
27C
330
1F
100
AcDbEntity
  8
0-0
  6
JWW_DASHED1
 62
   120
370
     5
100
AcDbLine
 10
186.2432421666161
 20
-456.5806345781713
 30
0.0
 11
186.2432421666161
 21
718.4193654218288
 31
0.0
  0
LINE
  5
27D
330
1F
100
AcDbEntity
  8
0-0
  6
JWW_DASHED1
 62
   120
370
     5
100
AcDbLine
 10
173.2432421655165
 20
-456.5806345781713
 30
0.0
 11
173.2432421655165
 21
718.4193654218288
 31
0.0
  0
LINE
  5
27E
330
1F
100
AcDbEntity
  8
0-0
  6
JWW_DASHED1
 62
   120
370
     5
100
AcDbLine
 10
172.2432421656164
 20
-456.5806345781713
 30
0.0
 11
172.2432421656164
 21
718.4193654218288
 31
0.0
  0
LINE
  5
27F
330
1F
100
AcDbEntity
  8
0-0
  6
JWW_DASHED1
 62
   120
370
     5
100
AcDbLine
 10
159.2432421645163
 20
-456.5806345781713
 30
0.0
 11
159.2432421645163
 21
718.4193654218288
 31
0.0
  0
LINE
  5
280
330
1F
100
AcDbEntity
  8
0-0
  6
JWW_DASHED1
 62
   120
370
     5
100
AcDbLine
 10
158.2432421646161
 20
-456.5806345781713
 30
0.0
 11
158.2432421646161
 21
718.4193654218288
 31
0.0
  0
LINE
  5
281
330
1F
100
AcDbEntity
  8
0-0
  6
JWW_DASHED1
 62
   120
370
     5
100
AcDbLine
 10
145.2432421635161
 20
-456.5806345781713
 30
0.0
 11
145.2432421635161
 21
718.4193654218288
 31
0.0
  0
LINE
  5
282
330
1F
100
AcDbEntity
  8
0-0
  6
JWW_DASHED1
 62
   120
370
     5
100
AcDbLine
 10
144.2432421636159
 20
-456.5806345781713
 30
0.0
 11
144.2432421636159
 21
718.4193654218288
 31
0.0
  0
LINE
  5
283
330
1F
100
AcDbEntity
  8
0-0
  6
JWW_DASHED1
 62
   120
370
     5
100
AcDbLine
 10
131.2432421625163
 20
-456.5806345781713
 30
0.0
 11
131.2432421625163
 21
718.4193654218288
 31
0.0
  0
LINE
  5
284
330
1F
100
AcDbEntity
  8
0-0
  6
JWW_DASHED1
 62
   120
370
     5
100
AcDbLine
 10
130.2432421626161
 20
-456.5806345781713
 30
0.0
 11
130.2432421626161
 21
718.4193654218288
 31
0.0
  0
LINE
  5
285
330
1F
100
AcDbEntity
  8
0-0
  6
JWW_DASHED1
 62
   120
370
     5
100
AcDbLine
 10
117.2432421615165
 20
-456.5806345781713
 30
0.0
 11
117.2432421615165
 21
718.4193654218288
 31
0.0
  0
LINE
  5
286
330
1F
100
AcDbEntity
  8
0-0
  6
JWW_DASHED1
 62
   120
370
     5
100
AcDbLine
 10
116.2432421616163
 20
-456.5806345781713
 30
0.0
 11
116.2432421616163
 21
718.4193654218288
 31
0.0
  0
LINE
  5
287
330
1F
100
AcDbEntity
  8
0-0
  6
JWW_DASHED1
 62
   120
370
     5
100
AcDbLine
 10
103.2432421605163
 20
-456.5806345781713
 30
0.0
 11
103.2432421605163
 21
718.4193654218288
 31
0.0
  0
LINE
  5
288
330
1F
100
AcDbEntity
  8
0-0
  6
JWW_DASHED1
 62
   120
370
     5
100
AcDbLine
 10
102.2432421606161
 20
-456.5806345781713
 30
0.0
 11
102.2432421606161
 21
718.4193654218288
 31
0.0
  0
LINE
  5
289
330
1F
100
AcDbEntity
  8
0-0
  6
JWW_DASHED1
 62
   120
370
     5
100
AcDbLine
 10
89.24324215951609
 20
-456.5806345781713
 30
0.0
 11
89.24324215951609
 21
718.4193654218288
 31
0.0
  0
LINE
  5
28A
330
1F
100
AcDbEntity
  8
0-0
  6
JWW_DASHED1
 62
   120
370
     5
100
AcDbLine
 10
88.2432421596159
 20
-456.5806345781713
 30
0.0
 11
88.2432421596159
 21
718.4193654218288
 31
0.0
  0
LINE
  5
28B
330
1F
100
AcDbEntity
  8
0-0
  6
JWW_DASHED1
 62
   120
370
     5
100
AcDbLine
 10
75.2432421585163
 20
-456.5806345781713
 30
0.0
 11
75.2432421585163
 21
718.4193654218288
 31
0.0
  0
LINE
  5
28C
330
1F
100
AcDbEntity
  8
0-0
  6
JWW_DASHED1
 62
   120
370
     5
100
AcDbLine
 10
74.24324215861611
 20
-456.5806345781713
 30
0.0
 11
74.24324215861611
 21
718.4193654218288
 31
0.0
  0
LINE
  5
28D
330
1F
100
AcDbEntity
  8
0-0
  6
JWW_DASHED1
 62
   120
370
     5
100
AcDbLine
 10
61.24324215751651
 20
-456.5806345781713
 30
0.0
 11
61.24324215751651
 21
718.4193654218288
 31
0.0
  0
LINE
  5
28E
330
1F
100
AcDbEntity
  8
0-0
  6
JWW_DASHED1
 62
   120
370
     5
100
AcDbLine
 10
60.2432421576159
 20
-456.5806345781713
 30
0.0
 11
60.2432421576159
 21
718.4193654218288
 31
0.0
  0
LINE
  5
28F
330
1F
100
AcDbEntity
  8
0-0
  6
JWW_DASHED1
 62
   120
370
     5
100
AcDbLine
 10
47.24324215651629
 20
-456.5806345781713
 30
0.0
 11
47.24324215651629
 21
718.4193654218288
 31
0.0
  0
LINE
  5
290
330
1F
100
AcDbEntity
  8
0-0
  6
JWW_DASHED1
 62
   120
370
     5
100
AcDbLine
 10
46.24324215661611
 20
-456.5806345781713
 30
0.0
 11
46.24324215661611
 21
718.4193654218288
 31
0.0
  0
LINE
  5
291
330
1F
100
AcDbEntity
  8
0-0
  6
JWW_DASHED1
 62
   120
370
     5
100
AcDbLine
 10
33.24324215551607
 20
-456.5806345781713
 30
0.0
 11
33.24324215551607
 21
718.4193654218288
 31
0.0
  0
LINE
  5
292
330
1F
100
AcDbEntity
  8
0-0
  6
JWW_DASHED1
 62
   120
370
     5
100
AcDbLine
 10
32.24324215561589
 20
-456.5806345781713
 30
0.0
 11
32.24324215561589
 21
718.4193654218288
 31
0.0
  0
LINE
  5
293
330
1F
100
AcDbEntity
  8
0-0
  6
JWW_DASHED1
 62
   120
370
     5
100
AcDbLine
 10
19.24324215451586
 20
-456.5806345781713
 30
0.0
 11
19.24324215451586
 21
718.4193654218288
 31
0.0
  0
LINE
  5
294
330
1F
100
AcDbEntity
  8
0-0
  6
JWW_DASHED1
 62
   120
370
     5
100
AcDbLine
 10
18.2432421546161
 20
-456.5806345781713
 30
0.0
 11
18.2432421546161
 21
718.4193654218288
 31
0.0
  0
LINE
  5
295
330
1F
100
AcDbEntity
  8
0-0
  6
JWW_DASHED1
 62
   120
370
     5
100
AcDbLine
 10
5.243242153516494
 20
-456.5806345781713
 30
0.0
 11
5.243242153516494
 21
718.4193654218288
 31
0.0
  0
LINE
  5
296
330
1F
100
AcDbEntity
  8
0-0
  6
JWW_DASHED1
 62
   120
370
     5
100
AcDbLine
 10
4.243242153616311
 20
-456.5806345781713
 30
0.0
 11
4.243242153616311
 21
718.4193654218288
 31
0.0
  0
LINE
  5
297
330
1F
100
AcDbEntity
  8
0-0
  6
JWW_DASHED1
 62
   120
370
     5
100
AcDbLine
 10
-8.756757847483723
 20
-456.5806345781713
 30
0.0
 11
-8.756757847483723
 21
718.4193654218288
 31
0.0
  0
LINE
  5
298
330
1F
100
AcDbEntity
  8
0-0
  6
JWW_DASHED1
 62
   120
370
     5
100
AcDbLine
 10
-9.756757847383906
 20
-456.5806345781713
 30
0.0
 11
-9.756757847383906
 21
718.4193654218288
 31
0.0
  0
LINE
  5
299
330
1F
100
AcDbEntity
  8
0-0
  6
JWW_DASHED1
 62
   120
370
     5
100
AcDbLine
 10
-22.75675784848394
 20
-456.5806345781713
 30
0.0
 11
-22.75675784848394
 21
718.4193654218288
 31
0.0
  0
LINE
  5
29A
330
1F
100
AcDbEntity
  8
0-0
  6
JWW_DASHED1
 62
   120
370
     5
100
AcDbLine
 10
-23.75675784838412
 20
-456.5806345781713
 30
0.0
 11
-23.75675784838412
 21
718.4193654218288
 31
0.0
  0
LINE
  5
29B
330
1F
100
AcDbEntity
  8
0-0
  6
JWW_DASHED1
 62
   120
370
     5
100
AcDbLine
 10
-36.75675784948373
 20
-456.5806345781713
 30
0.0
 11
-36.75675784948373
 21
718.4193654218288
 31
0.0
  0
LINE
  5
29C
330
1F
100
AcDbEntity
  8
0-0
  6
JWW_DASHED1
 62
   120
370
     5
100
AcDbLine
 10
-37.75675784938392
 20
-456.5806345781713
 30
0.0
 11
-37.75675784938392
 21
718.4193654218288
 31
0.0
  0
LINE
  5
29D
330
1F
100
AcDbEntity
  8
0-0
  6
JWW_DASHED1
 62
   120
370
     5
100
AcDbLine
 10
-50.75675785048352
 20
-456.5806345781713
 30
0.0
 11
-50.75675785048352
 21
718.4193654218288
 31
0.0
  0
LINE
  5
29E
330
1F
100
AcDbEntity
  8
0-0
  6
JWW_DASHED1
 62
   120
370
     5
100
AcDbLine
 10
-51.75675785038371
 20
-456.5806345781713
 30
0.0
 11
-51.75675785038371
 21
718.4193654218288
 31
0.0
  0
LINE
  5
29F
330
1F
100
AcDbEntity
  8
0-0
  6
JWW_DASHED1
 62
   120
370
     5
100
AcDbLine
 10
-64.75675785148374
 20
-456.5806345781713
 30
0.0
 11
-64.75675785148374
 21
718.4193654218288
 31
0.0
  0
LINE
  5
2A0
330
1F
100
AcDbEntity
  8
0-0
  6
JWW_DASHED1
 62
   120
370
     5
100
AcDbLine
 10
-65.75675785138392
 20
-456.5806345781713
 30
0.0
 11
-65.75675785138392
 21
718.4193654218288
 31
0.0
  0
LINE
  5
2A1
330
1F
100
AcDbEntity
  8
0-0
  6
JWW_DASHED1
 62
   120
370
     5
100
AcDbLine
 10
-78.75675785248396
 20
-456.5806345781713
 30
0.0
 11
-78.75675785248396
 21
718.4193654218288
 31
0.0
  0
LINE
  5
2A2
330
1F
100
AcDbEntity
  8
0-0
  6
JWW_DASHED1
 62
   120
370
     5
100
AcDbLine
 10
-79.75675785238414
 20
-456.5806345781713
 30
0.0
 11
-79.75675785238414
 21
718.4193654218288
 31
0.0
  0
LINE
  5
2A3
330
1F
100
AcDbEntity
  8
0-0
  6
JWW_DASHED1
 62
   120
370
     5
100
AcDbLine
 10
-92.75675785348375
 20
-456.5806345781713
 30
0.0
 11
-92.75675785348375
 21
718.4193654218288
 31
0.0
  0
LINE
  5
2A4
330
1F
100
AcDbEntity
  8
0-0
  6
JWW_DASHED1
 62
   120
370
     5
100
AcDbLine
 10
-93.75675785338393
 20
-456.5806345781713
 30
0.0
 11
-93.75675785338393
 21
718.4193654218288
 31
0.0
  0
LINE
  5
2A5
330
1F
100
AcDbEntity
  8
0-0
  6
JWW_DASHED1
 62
   120
370
     5
100
AcDbLine
 10
-106.7567578544835
 20
-456.5806345781713
 30
0.0
 11
-106.7567578544835
 21
718.4193654218288
 31
0.0
  0
LINE
  5
2A6
330
1F
100
AcDbEntity
  8
0-0
  6
JWW_DASHED1
 62
   120
370
     5
100
AcDbLine
 10
-107.7567578543837
 20
-456.5806345781713
 30
0.0
 11
-107.7567578543837
 21
718.4193654218288
 31
0.0
  0
LINE
  5
2A7
330
1F
100
AcDbEntity
  8
0-0
  6
JWW_DASHED1
 62
   120
370
     5
100
AcDbLine
 10
-120.7567578554838
 20
-456.5806345781713
 30
0.0
 11
-120.7567578554838
 21
718.4193654218288
 31
0.0
  0
LINE
  5
2A8
330
1F
100
AcDbEntity
  8
0-0
  6
JWW_DASHED1
 62
   120
370
     5
100
AcDbLine
 10
-121.7567578553839
 20
-456.5806345781713
 30
0.0
 11
-121.7567578553839
 21
718.4193654218288
 31
0.0
  0
LINE
  5
2A9
330
1F
100
AcDbEntity
  8
0-0
  6
JWW_DASHED1
 62
   120
370
     5
100
AcDbLine
 10
-134.756757856484
 20
-456.5806345781713
 30
0.0
 11
-134.756757856484
 21
718.4193654218288
 31
0.0
  0
LINE
  5
2AA
330
1F
100
AcDbEntity
  8
0-0
  6
JWW_DASHED1
 62
   120
370
     5
100
AcDbLine
 10
-135.7567578563842
 20
-456.5806345781713
 30
0.0
 11
-135.7567578563842
 21
718.4193654218288
 31
0.0
  0
LINE
  5
2AB
330
1F
100
AcDbEntity
  8
0-0
  6
JWW_DASHED1
 62
   120
370
     5
100
AcDbLine
 10
-148.7567578574838
 20
-456.5806345781713
 30
0.0
 11
-148.7567578574838
 21
718.4193654218288
 31
0.0
  0
LINE
  5
2AC
330
1F
100
AcDbEntity
  8
0-0
  6
JWW_DASHED1
 62
   120
370
     5
100
AcDbLine
 10
-149.7567578573839
 20
-456.5806345781713
 30
0.0
 11
-149.7567578573839
 21
718.4193654218288
 31
0.0
  0
LINE
  5
2AD
330
1F
100
AcDbEntity
  8
0-0
  6
JWW_DASHED1
 62
   120
370
     5
100
AcDbLine
 10
-162.756757858484
 20
-456.5806345781713
 30
0.0
 11
-162.756757858484
 21
718.4193654218288
 31
0.0
  0
LINE
  5
2AE
330
1F
100
AcDbEntity
  8
0-0
  6
JWW_DASHED1
 62
   120
370
     5
100
AcDbLine
 10
-163.7567578583837
 20
-456.5806345781713
 30
0.0
 11
-163.7567578583837
 21
718.4193654218288
 31
0.0
  0
LINE
  5
2AF
330
1F
100
AcDbEntity
  8
0-0
  6
JWW_DASHED1
 62
   120
370
     5
100
AcDbLine
 10
-176.7567578594838
 20
-456.5806345781713
 30
0.0
 11
-176.7567578594838
 21
718.4193654218288
 31
0.0
  0
LINE
  5
2B0
330
1F
100
AcDbEntity
  8
0-0
  6
JWW_DASHED1
 62
   120
370
     5
100
AcDbLine
 10
-177.7567578593844
 20
-456.5806345781713
 30
0.0
 11
-177.7567578593844
 21
718.4193654218288
 31
0.0
  0
LINE
  5
2B1
330
1F
100
AcDbEntity
  8
0-0
  6
JWW_DASHED1
 62
   120
370
     5
100
AcDbLine
 10
-190.756757860484
 20
-456.5806345781713
 30
0.0
 11
-190.756757860484
 21
718.4193654218288
 31
0.0
  0
LINE
  5
2B2
330
1F
100
AcDbEntity
  8
0-0
  6
JWW_DASHED1
 62
   120
370
     5
100
AcDbLine
 10
-191.7567578603842
 20
-456.5806345781713
 30
0.0
 11
-191.7567578603842
 21
718.4193654218288
 31
0.0
  0
LINE
  5
2B3
330
1F
100
AcDbEntity
  8
0-0
  6
JWW_DASHED1
 62
   120
370
     5
100
AcDbLine
 10
-204.7567578614838
 20
-456.5806345781713
 30
0.0
 11
-204.7567578614838
 21
718.4193654218288
 31
0.0
  0
LINE
  5
2B4
330
1F
100
AcDbEntity
  8
0-0
  6
JWW_DASHED1
 62
   120
370
     5
100
AcDbLine
 10
-205.7567578613844
 20
-456.5806345781713
 30
0.0
 11
-205.7567578613844
 21
718.4193654218288
 31
0.0
  0
LINE
  5
2B5
330
1F
100
AcDbEntity
  8
0-0
  6
JWW_DASHED1
 62
   120
370
     5
100
AcDbLine
 10
-218.7567578624836
 20
-456.5806345781713
 30
0.0
 11
-218.7567578624836
 21
718.4193654218288
 31
0.0
  0
LINE
  5
2B6
330
1F
100
AcDbEntity
  8
0-0
  6
JWW_DASHED1
 62
   120
370
     5
100
AcDbLine
 10
-219.7567578623838
 20
-456.5806345781713
 30
0.0
 11
-219.7567578623838
 21
718.4193654218288
 31
0.0
  0
LINE
  5
2B7
330
1F
100
AcDbEntity
  8
0-0
  6
JWW_DASHED1
 62
   120
370
     5
100
AcDbLine
 10
-232.7567578634838
 20
-456.5806345781713
 30
0.0
 11
-232.7567578634838
 21
718.4193654218288
 31
0.0
  0
LINE
  5
2B8
330
1F
100
AcDbEntity
  8
0-0
  6
JWW_DASHED1
 62
   120
370
     5
100
AcDbLine
 10
-233.756757863384
 20
-456.5806345781713
 30
0.0
 11
-233.756757863384
 21
718.4193654218288
 31
0.0
  0
LINE
  5
2B9
330
1F
100
AcDbEntity
  8
0-0
  6
JWW_DASHED1
 62
   120
370
     5
100
AcDbLine
 10
-246.756757864484
 20
-456.5806345781713
 30
0.0
 11
-246.756757864484
 21
718.4193654218288
 31
0.0
  0
LINE
  5
2BA
330
1F
100
AcDbEntity
  8
0-0
  6
JWW_DASHED1
 62
   120
370
     5
100
AcDbLine
 10
313.2432421755162
 20
-456.5806345781713
 30
0.0
 11
313.2432421755162
 21
718.4193654218288
 31
0.0
  0
LINE
  5
2BB
330
1F
100
AcDbEntity
  8
0-0
  6
JWW_DASHED1
 62
   120
370
     5
100
AcDbLine
 10
298.2432421746161
 20
-456.5806345781713
 30
0.0
 11
298.2432421746161
 21
718.4193654218288
 31
0.0
  0
LINE
  5
2BC
330
1F
100
AcDbEntity
  8
0-0
  6
JWW_DASHED1
 62
   120
370
     5
100
AcDbLine
 10
312.243242175616
 20
-456.5806345781713
 30
0.0
 11
312.243242175616
 21
718.4193654218288
 31
0.0
  0
LINE
  5
2BD
330
1F
100
AcDbEntity
  8
0-0
  6
JWW_DASHED1
 62
   120
370
     5
100
AcDbLine
 10
299.243242174516
 20
-456.5806345781713
 30
0.0
 11
299.243242174516
 21
718.4193654218288
 31
0.0
  0
LINE
  5
2BE
330
1F
100
AcDbEntity
  8
0-0
  6
JWW_DASHED1
 62
   120
370
     5
100
AcDbLine
 10
-253.7567763224151
 20
706.4192171908677
 30
0.0
 11
319.2432236775839
 21
706.4192171908677
 31
0.0
  0
LINE
  5
2BF
330
1F
100
AcDbEntity
  8
0-0
  6
JWW_DASHED1
 62
   120
370
     5
100
AcDbLine
 10
-253.7567763224151
 20
663.4192171879682
 30
0.0
 11
319.2432236775839
 21
663.4192171879682
 31
0.0
  0
LINE
  5
2C0
330
1F
100
AcDbEntity
  8
0-0
  6
JWW_DASHED1
 62
   120
370
     5
100
AcDbLine
 10
-253.7567763224151
 20
664.4192171878684
 30
0.0
 11
319.2432236775839
 21
664.4192171878684
 31
0.0
  0
LINE
  5
2C1
330
1F
100
AcDbEntity
  8
0-0
  6
JWW_DASHED1
 62
   120
370
     5
100
AcDbLine
 10
-253.7567763224151
 20
677.419217188968
 30
0.0
 11
319.2432236775839
 21
677.419217188968
 31
0.0
  0
LINE
  5
2C2
330
1F
100
AcDbEntity
  8
0-0
  6
JWW_DASHED1
 62
   120
370
     5
100
AcDbLine
 10
-253.7567763224151
 20
678.4192171888682
 30
0.0
 11
319.2432236775839
 21
678.4192171888682
 31
0.0
  0
LINE
  5
2C3
330
1F
100
AcDbEntity
  8
0-0
  6
JWW_DASHED1
 62
   120
370
     5
100
AcDbLine
 10
-253.7567763224151
 20
691.4192171899678
 30
0.0
 11
319.2432236775839
 21
691.4192171899678
 31
0.0
  0
LINE
  5
2C4
330
1F
100
AcDbEntity
  8
0-0
  6
JWW_DASHED1
 62
   120
370
     5
100
AcDbLine
 10
-253.7567763224151
 20
692.4192171898679
 30
0.0
 11
319.2432236775839
 21
692.4192171898679
 31
0.0
  0
LINE
  5
2C5
330
1F
100
AcDbEntity
  8
0-0
  6
JWW_DASHED1
 62
   120
370
     5
100
AcDbLine
 10
-253.7567763224151
 20
705.4192171909675
 30
0.0
 11
319.2432236775839
 21
705.4192171909675
 31
0.0
  0
LINE
  5
2C6
330
1F
100
AcDbEntity
  8
0-0
  6
JWW_DASHED1
 62
   120
370
     5
100
AcDbLine
 10
526.2432236775841
 20
-455.5807828921149
 30
0.0
 11
1099.243223677585
 21
-455.5807828921149
 31
0.0
  0
LINE
  5
2C7
330
1F
100
AcDbEntity
  8
0-0
  6
JWW_DASHED1
 62
   120
370
     5
100
AcDbLine
 10
526.2432236775841
 20
-442.5807828910152
 30
0.0
 11
1099.243223677585
 21
-442.5807828910152
 31
0.0
  0
LINE
  5
2C8
330
1F
100
AcDbEntity
  8
0-0
  6
JWW_DASHED1
 62
   120
370
     5
100
AcDbLine
 10
526.2432236775841
 20
-441.5807828911151
 30
0.0
 11
1099.243223677585
 21
-441.5807828911151
 31
0.0
  0
LINE
  5
2C9
330
1F
100
AcDbEntity
  8
0-0
  6
JWW_DASHED1
 62
   120
370
     5
100
AcDbLine
 10
526.2432236775841
 20
-428.5807828900155
 30
0.0
 11
1099.243223677585
 21
-428.5807828900155
 31
0.0
  0
LINE
  5
2CA
330
1F
100
AcDbEntity
  8
0-0
  6
JWW_DASHED1
 62
   120
370
     5
100
AcDbLine
 10
526.2432236775841
 20
-427.5807828901153
 30
0.0
 11
1099.243223677585
 21
-427.5807828901153
 31
0.0
  0
LINE
  5
2CB
330
1F
100
AcDbEntity
  8
0-0
  6
JWW_DASHED1
 62
   120
370
     5
100
AcDbLine
 10
526.2432236775841
 20
-414.5807828890157
 30
0.0
 11
1099.243223677585
 21
-414.5807828890157
 31
0.0
  0
LINE
  5
2CC
330
1F
100
AcDbEntity
  8
0-0
  6
JWW_DASHED1
 62
   120
370
     5
100
AcDbLine
 10
526.2432236775841
 20
-413.5807828891155
 30
0.0
 11
1099.243223677585
 21
-413.5807828891155
 31
0.0
  0
LINE
  5
2CD
330
1F
100
AcDbEntity
  8
0-0
  6
JWW_DASHED1
 62
   120
370
     5
100
AcDbLine
 10
526.2432236775841
 20
-400.5807828880159
 30
0.0
 11
1099.243223677585
 21
-400.5807828880159
 31
0.0
  0
LINE
  5
2CE
330
1F
100
AcDbEntity
  8
0-0
  6
JWW_DASHED1
 62
   120
370
     5
100
AcDbLine
 10
526.2432236775841
 20
-399.5807828881157
 30
0.0
 11
1099.243223677585
 21
-399.5807828881157
 31
0.0
  0
LINE
  5
2CF
330
1F
100
AcDbEntity
  8
0-0
  6
JWW_DASHED1
 62
   120
370
     5
100
AcDbLine
 10
526.2432236775841
 20
-386.5807828870161
 30
0.0
 11
1099.243223677585
 21
-386.5807828870161
 31
0.0
  0
LINE
  5
2D0
330
1F
100
AcDbEntity
  8
0-0
  6
JWW_DASHED1
 62
   120
370
     5
100
AcDbLine
 10
526.2432236775841
 20
-385.5807828871159
 30
0.0
 11
1099.243223677585
 21
-385.5807828871159
 31
0.0
  0
LINE
  5
2D1
330
1F
100
AcDbEntity
  8
0-0
  6
JWW_DASHED1
 62
   120
370
     5
100
AcDbLine
 10
526.2432236775841
 20
-372.5807828860163
 30
0.0
 11
1099.243223677585
 21
-372.5807828860163
 31
0.0
  0
LINE
  5
2D2
330
1F
100
AcDbEntity
  8
0-0
  6
JWW_DASHED1
 62
   120
370
     5
100
AcDbLine
 10
526.2432236775841
 20
-371.5807828861161
 30
0.0
 11
1099.243223677585
 21
-371.5807828861161
 31
0.0
  0
LINE
  5
2D3
330
1F
100
AcDbEntity
  8
0-0
  6
JWW_DASHED1
 62
   120
370
     5
100
AcDbLine
 10
526.2432236775841
 20
-358.5807828850165
 30
0.0
 11
1099.243223677585
 21
-358.5807828850165
 31
0.0
  0
LINE
  5
2D4
330
1F
100
AcDbEntity
  8
0-0
  6
JWW_DASHED1
 62
   120
370
     5
100
AcDbLine
 10
526.2432236775841
 20
-357.5807828851163
 30
0.0
 11
1099.243223677585
 21
-357.5807828851163
 31
0.0
  0
LINE
  5
2D5
330
1F
100
AcDbEntity
  8
0-0
  6
JWW_DASHED1
 62
   120
370
     5
100
AcDbLine
 10
526.2432236775841
 20
-344.5807828840167
 30
0.0
 11
1099.243223677585
 21
-344.5807828840167
 31
0.0
  0
LINE
  5
2D6
330
1F
100
AcDbEntity
  8
0-0
  6
JWW_DASHED1
 62
   120
370
     5
100
AcDbLine
 10
526.2432236775841
 20
-343.5807828841166
 30
0.0
 11
1099.243223677585
 21
-343.5807828841166
 31
0.0
  0
LINE
  5
2D7
330
1F
100
AcDbEntity
  8
0-0
  6
JWW_DASHED1
 62
   120
370
     5
100
AcDbLine
 10
526.2432236775841
 20
-330.5807828830169
 30
0.0
 11
1099.243223677585
 21
-330.5807828830169
 31
0.0
  0
LINE
  5
2D8
330
1F
100
AcDbEntity
  8
0-0
  6
JWW_DASHED1
 62
   120
370
     5
100
AcDbLine
 10
526.2432236775841
 20
-329.5807828831167
 30
0.0
 11
1099.243223677585
 21
-329.5807828831167
 31
0.0
  0
LINE
  5
2D9
330
1F
100
AcDbEntity
  8
0-0
  6
JWW_DASHED1
 62
   120
370
     5
100
AcDbLine
 10
526.2432236775841
 20
-316.5807828820172
 30
0.0
 11
1099.243223677585
 21
-316.5807828820172
 31
0.0
  0
LINE
  5
2DA
330
1F
100
AcDbEntity
  8
0-0
  6
JWW_DASHED1
 62
   120
370
     5
100
AcDbLine
 10
526.2432236775841
 20
-315.580782882117
 30
0.0
 11
1099.243223677585
 21
-315.580782882117
 31
0.0
  0
LINE
  5
2DB
330
1F
100
AcDbEntity
  8
0-0
  6
JWW_DASHED1
 62
   120
370
     5
100
AcDbLine
 10
526.2432236775841
 20
-302.5807828810173
 30
0.0
 11
1099.243223677585
 21
-302.5807828810173
 31
0.0
  0
LINE
  5
2DC
330
1F
100
AcDbEntity
  8
0-0
  6
JWW_DASHED1
 62
   120
370
     5
100
AcDbLine
 10
526.2432236775841
 20
-301.5807828811172
 30
0.0
 11
1099.243223677585
 21
-301.5807828811172
 31
0.0
  0
LINE
  5
2DD
330
1F
100
AcDbEntity
  8
0-0
  6
JWW_DASHED1
 62
   120
370
     5
100
AcDbLine
 10
526.2432236775841
 20
-288.5807828800176
 30
0.0
 11
1099.243223677585
 21
-288.5807828800176
 31
0.0
  0
LINE
  5
2DE
330
1F
100
AcDbEntity
  8
0-0
  6
JWW_DASHED1
 62
   120
370
     5
100
AcDbLine
 10
526.2432236775841
 20
-287.5807828801174
 30
0.0
 11
1099.243223677585
 21
-287.5807828801174
 31
0.0
  0
LINE
  5
2DF
330
1F
100
AcDbEntity
  8
0-0
  6
JWW_DASHED1
 62
   120
370
     5
100
AcDbLine
 10
526.2432236775841
 20
-274.5807828790178
 30
0.0
 11
1099.243223677585
 21
-274.5807828790178
 31
0.0
  0
LINE
  5
2E0
330
1F
100
AcDbEntity
  8
0-0
  6
JWW_DASHED1
 62
   120
370
     5
100
AcDbLine
 10
526.2432236775841
 20
-273.5807828791176
 30
0.0
 11
1099.243223677585
 21
-273.5807828791176
 31
0.0
  0
LINE
  5
2E1
330
1F
100
AcDbEntity
  8
0-0
  6
JWW_DASHED1
 62
   120
370
     5
100
AcDbLine
 10
526.2432236775841
 20
-260.580782878018
 30
0.0
 11
1099.243223677585
 21
-260.580782878018
 31
0.0
  0
LINE
  5
2E2
330
1F
100
AcDbEntity
  8
0-0
  6
JWW_DASHED1
 62
   120
370
     5
100
AcDbLine
 10
526.2432236775841
 20
-259.5807828781178
 30
0.0
 11
1099.243223677585
 21
-259.5807828781178
 31
0.0
  0
LINE
  5
2E3
330
1F
100
AcDbEntity
  8
0-0
  6
JWW_DASHED1
 62
   120
370
     5
100
AcDbLine
 10
526.2432236775841
 20
-246.5807828770182
 30
0.0
 11
1099.243223677585
 21
-246.5807828770182
 31
0.0
  0
LINE
  5
2E4
330
1F
100
AcDbEntity
  8
0-0
  6
JWW_DASHED1
 62
   120
370
     5
100
AcDbLine
 10
526.2432236775841
 20
-245.580782877118
 30
0.0
 11
1099.243223677585
 21
-245.580782877118
 31
0.0
  0
LINE
  5
2E5
330
1F
100
AcDbEntity
  8
0-0
  6
JWW_DASHED1
 62
   120
370
     5
100
AcDbLine
 10
526.2432236775841
 20
-232.5807828760184
 30
0.0
 11
1099.243223677585
 21
-232.5807828760184
 31
0.0
  0
LINE
  5
2E6
330
1F
100
AcDbEntity
  8
0-0
  6
JWW_DASHED1
 62
   120
370
     5
100
AcDbLine
 10
526.2432236775841
 20
-231.5807828761182
 30
0.0
 11
1099.243223677585
 21
-231.5807828761182
 31
0.0
  0
LINE
  5
2E7
330
1F
100
AcDbEntity
  8
0-0
  6
JWW_DASHED1
 62
   120
370
     5
100
AcDbLine
 10
526.2432236775841
 20
-218.5807828750186
 30
0.0
 11
1099.243223677585
 21
-218.5807828750186
 31
0.0
  0
LINE
  5
2E8
330
1F
100
AcDbEntity
  8
0-0
  6
JWW_DASHED1
 62
   120
370
     5
100
AcDbLine
 10
526.2432236775841
 20
-217.5807828751184
 30
0.0
 11
1099.243223677585
 21
-217.5807828751184
 31
0.0
  0
LINE
  5
2E9
330
1F
100
AcDbEntity
  8
0-0
  6
JWW_DASHED1
 62
   120
370
     5
100
AcDbLine
 10
526.2432236775841
 20
-204.5807828740188
 30
0.0
 11
1099.243223677585
 21
-204.5807828740188
 31
0.0
  0
LINE
  5
2EA
330
1F
100
AcDbEntity
  8
0-0
  6
JWW_DASHED1
 62
   120
370
     5
100
AcDbLine
 10
526.2432236775841
 20
-203.5807828741187
 30
0.0
 11
1099.243223677585
 21
-203.5807828741187
 31
0.0
  0
LINE
  5
2EB
330
1F
100
AcDbEntity
  8
0-0
  6
JWW_DASHED1
 62
   120
370
     5
100
AcDbLine
 10
526.2432236775841
 20
-190.580782873019
 30
0.0
 11
1099.243223677585
 21
-190.580782873019
 31
0.0
  0
LINE
  5
2EC
330
1F
100
AcDbEntity
  8
0-0
  6
JWW_DASHED1
 62
   120
370
     5
100
AcDbLine
 10
526.2432236775841
 20
-189.5807828731188
 30
0.0
 11
1099.243223677585
 21
-189.5807828731188
 31
0.0
  0
LINE
  5
2ED
330
1F
100
AcDbEntity
  8
0-0
  6
JWW_DASHED1
 62
   120
370
     5
100
AcDbLine
 10
526.2432236775841
 20
-176.5807828720193
 30
0.0
 11
1099.243223677585
 21
-176.5807828720193
 31
0.0
  0
LINE
  5
2EE
330
1F
100
AcDbEntity
  8
0-0
  6
JWW_DASHED1
 62
   120
370
     5
100
AcDbLine
 10
526.2432236775841
 20
-175.5807828721191
 30
0.0
 11
1099.243223677585
 21
-175.5807828721191
 31
0.0
  0
LINE
  5
2EF
330
1F
100
AcDbEntity
  8
0-0
  6
JWW_DASHED1
 62
   120
370
     5
100
AcDbLine
 10
526.2432236775841
 20
-162.5807828710194
 30
0.0
 11
1099.243223677585
 21
-162.5807828710194
 31
0.0
  0
LINE
  5
2F0
330
1F
100
AcDbEntity
  8
0-0
  6
JWW_DASHED1
 62
   120
370
     5
100
AcDbLine
 10
526.2432236775841
 20
-161.5807828711193
 30
0.0
 11
1099.243223677585
 21
-161.5807828711193
 31
0.0
  0
LINE
  5
2F1
330
1F
100
AcDbEntity
  8
0-0
  6
JWW_DASHED1
 62
   120
370
     5
100
AcDbLine
 10
526.2432236775841
 20
-148.5807828700197
 30
0.0
 11
1099.243223677585
 21
-148.5807828700197
 31
0.0
  0
LINE
  5
2F2
330
1F
100
AcDbEntity
  8
0-0
  6
JWW_DASHED1
 62
   120
370
     5
100
AcDbLine
 10
526.2432236775841
 20
-147.5807828701195
 30
0.0
 11
1099.243223677585
 21
-147.5807828701195
 31
0.0
  0
LINE
  5
2F3
330
1F
100
AcDbEntity
  8
0-0
  6
JWW_DASHED1
 62
   120
370
     5
100
AcDbLine
 10
526.2432236775841
 20
-134.5807828690199
 30
0.0
 11
1099.243223677585
 21
-134.5807828690199
 31
0.0
  0
LINE
  5
2F4
330
1F
100
AcDbEntity
  8
0-0
  6
JWW_DASHED1
 62
   120
370
     5
100
AcDbLine
 10
526.2432236775841
 20
-133.5807828691197
 30
0.0
 11
1099.243223677585
 21
-133.5807828691197
 31
0.0
  0
LINE
  5
2F5
330
1F
100
AcDbEntity
  8
0-0
  6
JWW_DASHED1
 62
   120
370
     5
100
AcDbLine
 10
526.2432236775841
 20
-120.5807828680201
 30
0.0
 11
1099.243223677585
 21
-120.5807828680201
 31
0.0
  0
LINE
  5
2F6
330
1F
100
AcDbEntity
  8
0-0
  6
JWW_DASHED1
 62
   120
370
     5
100
AcDbLine
 10
526.2432236775841
 20
-119.5807828681199
 30
0.0
 11
1099.243223677585
 21
-119.5807828681199
 31
0.0
  0
LINE
  5
2F7
330
1F
100
AcDbEntity
  8
0-0
  6
JWW_DASHED1
 62
   120
370
     5
100
AcDbLine
 10
526.2432236775841
 20
-106.5807828670203
 30
0.0
 11
1099.243223677585
 21
-106.5807828670203
 31
0.0
  0
LINE
  5
2F8
330
1F
100
AcDbEntity
  8
0-0
  6
JWW_DASHED1
 62
   120
370
     5
100
AcDbLine
 10
526.2432236775841
 20
-105.5807828671201
 30
0.0
 11
1099.243223677585
 21
-105.5807828671201
 31
0.0
  0
LINE
  5
2F9
330
1F
100
AcDbEntity
  8
0-0
  6
JWW_DASHED1
 62
   120
370
     5
100
AcDbLine
 10
526.2432236775841
 20
-92.5807828660205
 30
0.0
 11
1099.243223677585
 21
-92.5807828660205
 31
0.0
  0
LINE
  5
2FA
330
1F
100
AcDbEntity
  8
0-0
  6
JWW_DASHED1
 62
   120
370
     5
100
AcDbLine
 10
526.2432236775841
 20
-91.58078286612032
 30
0.0
 11
1099.243223677585
 21
-91.58078286612032
 31
0.0
  0
LINE
  5
2FB
330
1F
100
AcDbEntity
  8
0-0
  6
JWW_DASHED1
 62
   120
370
     5
100
AcDbLine
 10
526.2432236775841
 20
-78.58078286502071
 30
0.0
 11
1099.243223677585
 21
-78.58078286502071
 31
0.0
  0
LINE
  5
2FC
330
1F
100
AcDbEntity
  8
0-0
  6
JWW_DASHED1
 62
   120
370
     5
100
AcDbLine
 10
526.2432236775841
 20
-77.58078286512053
 30
0.0
 11
1099.243223677585
 21
-77.58078286512053
 31
0.0
  0
LINE
  5
2FD
330
1F
100
AcDbEntity
  8
0-0
  6
JWW_DASHED1
 62
   120
370
     5
100
AcDbLine
 10
526.2432236775841
 20
-64.58078286402092
 30
0.0
 11
1099.243223677585
 21
-64.58078286402092
 31
0.0
  0
LINE
  5
2FE
330
1F
100
AcDbEntity
  8
0-0
  6
JWW_DASHED1
 62
   120
370
     5
100
AcDbLine
 10
526.2432236775841
 20
-63.58078286412074
 30
0.0
 11
1099.243223677585
 21
-63.58078286412074
 31
0.0
  0
LINE
  5
2FF
330
1F
100
AcDbEntity
  8
0-0
  6
JWW_DASHED1
 62
   120
370
     5
100
AcDbLine
 10
526.2432236775841
 20
-50.58078286302113
 30
0.0
 11
1099.243223677585
 21
-50.58078286302113
 31
0.0
  0
LINE
  5
300
330
1F
100
AcDbEntity
  8
0-0
  6
JWW_DASHED1
 62
   120
370
     5
100
AcDbLine
 10
526.2432236775841
 20
-49.58078286312094
 30
0.0
 11
1099.243223677585
 21
-49.58078286312094
 31
0.0
  0
LINE
  5
301
330
1F
100
AcDbEntity
  8
0-0
  6
JWW_DASHED1
 62
   120
370
     5
100
AcDbLine
 10
526.2432236775841
 20
-36.58078286202134
 30
0.0
 11
1099.243223677585
 21
-36.58078286202134
 31
0.0
  0
LINE
  5
302
330
1F
100
AcDbEntity
  8
0-0
  6
JWW_DASHED1
 62
   120
370
     5
100
AcDbLine
 10
526.2432236775841
 20
-35.58078286212115
 30
0.0
 11
1099.243223677585
 21
-35.58078286212115
 31
0.0
  0
LINE
  5
303
330
1F
100
AcDbEntity
  8
0-0
  6
JWW_DASHED1
 62
   120
370
     5
100
AcDbLine
 10
526.2432236775841
 20
-22.58078286102155
 30
0.0
 11
1099.243223677585
 21
-22.58078286102155
 31
0.0
  0
LINE
  5
304
330
1F
100
AcDbEntity
  8
0-0
  6
JWW_DASHED1
 62
   120
370
     5
100
AcDbLine
 10
526.2432236775841
 20
-21.58078286112136
 30
0.0
 11
1099.243223677585
 21
-21.58078286112136
 31
0.0
  0
LINE
  5
305
330
1F
100
AcDbEntity
  8
0-0
  6
JWW_DASHED1
 62
   120
370
     5
100
AcDbLine
 10
526.2432236775841
 20
-8.580782860021756
 30
0.0
 11
1099.243223677585
 21
-8.580782860021756
 31
0.0
  0
LINE
  5
306
330
1F
100
AcDbEntity
  8
0-0
  6
JWW_DASHED1
 62
   120
370
     5
100
AcDbLine
 10
526.2432236775841
 20
-7.580782860121573
 30
0.0
 11
1099.243223677585
 21
-7.580782860121573
 31
0.0
  0
LINE
  5
307
330
1F
100
AcDbEntity
  8
0-0
  6
JWW_DASHED1
 62
   120
370
     5
100
AcDbLine
 10
526.2432236775841
 20
5.419217140978034
 30
0.0
 11
1099.243223677585
 21
5.419217140978034
 31
0.0
  0
LINE
  5
308
330
1F
100
AcDbEntity
  8
0-0
  6
JWW_DASHED1
 62
   120
370
     5
100
AcDbLine
 10
526.2432236775841
 20
6.419217140878217
 30
0.0
 11
1099.243223677585
 21
6.419217140878217
 31
0.0
  0
LINE
  5
309
330
1F
100
AcDbEntity
  8
0-0
  6
JWW_DASHED1
 62
   120
370
     5
100
AcDbLine
 10
526.2432236775841
 20
19.41921714197782
 30
0.0
 11
1099.243223677585
 21
19.41921714197782
 31
0.0
  0
LINE
  5
30A
330
1F
100
AcDbEntity
  8
0-0
  6
JWW_DASHED1
 62
   120
370
     5
100
AcDbLine
 10
526.2432236775841
 20
20.41921714187801
 30
0.0
 11
1099.243223677585
 21
20.41921714187801
 31
0.0
  0
LINE
  5
30B
330
1F
100
AcDbEntity
  8
0-0
  6
JWW_DASHED1
 62
   120
370
     5
100
AcDbLine
 10
526.2432236775841
 20
33.41921714297762
 30
0.0
 11
1099.243223677585
 21
33.41921714297762
 31
0.0
  0
LINE
  5
30C
330
1F
100
AcDbEntity
  8
0-0
  6
JWW_DASHED1
 62
   120
370
     5
100
AcDbLine
 10
526.2432236775841
 20
34.4192171428778
 30
0.0
 11
1099.243223677585
 21
34.4192171428778
 31
0.0
  0
LINE
  5
30D
330
1F
100
AcDbEntity
  8
0-0
  6
JWW_DASHED1
 62
   120
370
     5
100
AcDbLine
 10
526.2432236775841
 20
47.41921714397741
 30
0.0
 11
1099.243223677585
 21
47.41921714397741
 31
0.0
  0
LINE
  5
30E
330
1F
100
AcDbEntity
  8
0-0
  6
JWW_DASHED1
 62
   120
370
     5
100
AcDbLine
 10
526.2432236775841
 20
48.41921714387759
 30
0.0
 11
1099.243223677585
 21
48.41921714387759
 31
0.0
  0
LINE
  5
30F
330
1F
100
AcDbEntity
  8
0-0
  6
JWW_DASHED1
 62
   120
370
     5
100
AcDbLine
 10
526.2432236775841
 20
61.4192171449772
 30
0.0
 11
1099.243223677585
 21
61.4192171449772
 31
0.0
  0
LINE
  5
310
330
1F
100
AcDbEntity
  8
0-0
  6
JWW_DASHED1
 62
   120
370
     5
100
AcDbLine
 10
526.2432236775841
 20
62.41921714487738
 30
0.0
 11
1099.243223677585
 21
62.41921714487738
 31
0.0
  0
LINE
  5
311
330
1F
100
AcDbEntity
  8
0-0
  6
JWW_DASHED1
 62
   120
370
     5
100
AcDbLine
 10
526.2432236775841
 20
75.41921714597699
 30
0.0
 11
1099.243223677585
 21
75.41921714597699
 31
0.0
  0
LINE
  5
312
330
1F
100
AcDbEntity
  8
0-0
  6
JWW_DASHED1
 62
   120
370
     5
100
AcDbLine
 10
526.2432236775841
 20
76.41921714587717
 30
0.0
 11
1099.243223677585
 21
76.41921714587717
 31
0.0
  0
LINE
  5
313
330
1F
100
AcDbEntity
  8
0-0
  6
JWW_DASHED1
 62
   120
370
     5
100
AcDbLine
 10
526.2432236775841
 20
89.41921714697678
 30
0.0
 11
1099.243223677585
 21
89.41921714697678
 31
0.0
  0
LINE
  5
314
330
1F
100
AcDbEntity
  8
0-0
  6
JWW_DASHED1
 62
   120
370
     5
100
AcDbLine
 10
526.2432236775841
 20
90.41921714687696
 30
0.0
 11
1099.243223677585
 21
90.41921714687696
 31
0.0
  0
LINE
  5
315
330
1F
100
AcDbEntity
  8
0-0
  6
JWW_DASHED1
 62
   120
370
     5
100
AcDbLine
 10
526.2432236775841
 20
103.4192171479766
 30
0.0
 11
1099.243223677585
 21
103.4192171479766
 31
0.0
  0
LINE
  5
316
330
1F
100
AcDbEntity
  8
0-0
  6
JWW_DASHED1
 62
   120
370
     5
100
AcDbLine
 10
526.2432236775841
 20
104.4192171478768
 30
0.0
 11
1099.243223677585
 21
104.4192171478768
 31
0.0
  0
LINE
  5
317
330
1F
100
AcDbEntity
  8
0-0
  6
JWW_DASHED1
 62
   120
370
     5
100
AcDbLine
 10
526.2432236775841
 20
117.4192171489764
 30
0.0
 11
1099.243223677585
 21
117.4192171489764
 31
0.0
  0
LINE
  5
318
330
1F
100
AcDbEntity
  8
0-0
  6
JWW_DASHED1
 62
   120
370
     5
100
AcDbLine
 10
526.2432236775841
 20
118.4192171488765
 30
0.0
 11
1099.243223677585
 21
118.4192171488765
 31
0.0
  0
LINE
  5
319
330
1F
100
AcDbEntity
  8
0-0
  6
JWW_DASHED1
 62
   120
370
     5
100
AcDbLine
 10
526.2432236775841
 20
131.4192171499761
 30
0.0
 11
1099.243223677585
 21
131.4192171499761
 31
0.0
  0
LINE
  5
31A
330
1F
100
AcDbEntity
  8
0-0
  6
JWW_DASHED1
 62
   120
370
     5
100
AcDbLine
 10
526.2432236775841
 20
132.4192171498763
 30
0.0
 11
1099.243223677585
 21
132.4192171498763
 31
0.0
  0
LINE
  5
31B
330
1F
100
AcDbEntity
  8
0-0
  6
JWW_DASHED1
 62
   120
370
     5
100
AcDbLine
 10
526.2432236775841
 20
145.419217150976
 30
0.0
 11
1099.243223677585
 21
145.419217150976
 31
0.0
  0
LINE
  5
31C
330
1F
100
AcDbEntity
  8
0-0
  6
JWW_DASHED1
 62
   120
370
     5
100
AcDbLine
 10
526.2432236775841
 20
146.4192171508761
 30
0.0
 11
1099.243223677585
 21
146.4192171508761
 31
0.0
  0
LINE
  5
31D
330
1F
100
AcDbEntity
  8
0-0
  6
JWW_DASHED1
 62
   120
370
     5
100
AcDbLine
 10
526.2432236775841
 20
159.4192171519757
 30
0.0
 11
1099.243223677585
 21
159.4192171519757
 31
0.0
  0
LINE
  5
31E
330
1F
100
AcDbEntity
  8
0-0
  6
JWW_DASHED1
 62
   120
370
     5
100
AcDbLine
 10
526.2432236775841
 20
160.4192171518759
 30
0.0
 11
1099.243223677585
 21
160.4192171518759
 31
0.0
  0
LINE
  5
31F
330
1F
100
AcDbEntity
  8
0-0
  6
JWW_DASHED1
 62
   120
370
     5
100
AcDbLine
 10
526.2432236775841
 20
173.4192171529755
 30
0.0
 11
1099.243223677585
 21
173.4192171529755
 31
0.0
  0
LINE
  5
320
330
1F
100
AcDbEntity
  8
0-0
  6
JWW_DASHED1
 62
   120
370
     5
100
AcDbLine
 10
526.2432236775841
 20
174.4192171528757
 30
0.0
 11
1099.243223677585
 21
174.4192171528757
 31
0.0
  0
LINE
  5
321
330
1F
100
AcDbEntity
  8
0-0
  6
JWW_DASHED1
 62
   120
370
     5
100
AcDbLine
 10
526.2432236775841
 20
187.4192171539753
 30
0.0
 11
1099.243223677585
 21
187.4192171539753
 31
0.0
  0
LINE
  5
322
330
1F
100
AcDbEntity
  8
0-0
  6
JWW_DASHED1
 62
   120
370
     5
100
AcDbLine
 10
526.2432236775841
 20
188.4192171538755
 30
0.0
 11
1099.243223677585
 21
188.4192171538755
 31
0.0
  0
LINE
  5
323
330
1F
100
AcDbEntity
  8
0-0
  6
JWW_DASHED1
 62
   120
370
     5
100
AcDbLine
 10
526.2432236775841
 20
201.4192171549751
 30
0.0
 11
1099.243223677585
 21
201.4192171549751
 31
0.0
  0
LINE
  5
324
330
1F
100
AcDbEntity
  8
0-0
  6
JWW_DASHED1
 62
   120
370
     5
100
AcDbLine
 10
526.2432236775841
 20
202.4192171548753
 30
0.0
 11
1099.243223677585
 21
202.4192171548753
 31
0.0
  0
LINE
  5
325
330
1F
100
AcDbEntity
  8
0-0
  6
JWW_DASHED1
 62
   120
370
     5
100
AcDbLine
 10
526.2432236775841
 20
215.4192171559749
 30
0.0
 11
1099.243223677585
 21
215.4192171559749
 31
0.0
  0
LINE
  5
326
330
1F
100
AcDbEntity
  8
0-0
  6
JWW_DASHED1
 62
   120
370
     5
100
AcDbLine
 10
526.2432236775841
 20
216.4192171558751
 30
0.0
 11
1099.243223677585
 21
216.4192171558751
 31
0.0
  0
LINE
  5
327
330
1F
100
AcDbEntity
  8
0-0
  6
JWW_DASHED1
 62
   120
370
     5
100
AcDbLine
 10
526.2432236775841
 20
229.4192171569747
 30
0.0
 11
1099.243223677585
 21
229.4192171569747
 31
0.0
  0
LINE
  5
328
330
1F
100
AcDbEntity
  8
0-0
  6
JWW_DASHED1
 62
   120
370
     5
100
AcDbLine
 10
526.2432236775841
 20
230.4192171568749
 30
0.0
 11
1099.243223677585
 21
230.4192171568749
 31
0.0
  0
LINE
  5
329
330
1F
100
AcDbEntity
  8
0-0
  6
JWW_DASHED1
 62
   120
370
     5
100
AcDbLine
 10
526.2432236775841
 20
243.4192171579745
 30
0.0
 11
1099.243223677585
 21
243.4192171579745
 31
0.0
  0
LINE
  5
32A
330
1F
100
AcDbEntity
  8
0-0
  6
JWW_DASHED1
 62
   120
370
     5
100
AcDbLine
 10
526.2432236775841
 20
244.4192171578746
 30
0.0
 11
1099.243223677585
 21
244.4192171578746
 31
0.0
  0
LINE
  5
32B
330
1F
100
AcDbEntity
  8
0-0
  6
JWW_DASHED1
 62
   120
370
     5
100
AcDbLine
 10
526.2432236775841
 20
257.4192171589743
 30
0.0
 11
1099.243223677585
 21
257.4192171589743
 31
0.0
  0
LINE
  5
32C
330
1F
100
AcDbEntity
  8
0-0
  6
JWW_DASHED1
 62
   120
370
     5
100
AcDbLine
 10
526.2432236775841
 20
258.4192171588745
 30
0.0
 11
1099.243223677585
 21
258.4192171588745
 31
0.0
  0
LINE
  5
32D
330
1F
100
AcDbEntity
  8
0-0
  6
JWW_DASHED1
 62
   120
370
     5
100
AcDbLine
 10
526.2432236775841
 20
271.419217159974
 30
0.0
 11
1099.243223677585
 21
271.419217159974
 31
0.0
  0
LINE
  5
32E
330
1F
100
AcDbEntity
  8
0-0
  6
JWW_DASHED1
 62
   120
370
     5
100
AcDbLine
 10
526.2432236775841
 20
272.4192171598742
 30
0.0
 11
1099.243223677585
 21
272.4192171598742
 31
0.0
  0
LINE
  5
32F
330
1F
100
AcDbEntity
  8
0-0
  6
JWW_DASHED1
 62
   120
370
     5
100
AcDbLine
 10
526.2432236775841
 20
285.4192171609739
 30
0.0
 11
1099.243223677585
 21
285.4192171609739
 31
0.0
  0
LINE
  5
330
330
1F
100
AcDbEntity
  8
0-0
  6
JWW_DASHED1
 62
   120
370
     5
100
AcDbLine
 10
526.2432236775841
 20
286.419217160874
 30
0.0
 11
1099.243223677585
 21
286.419217160874
 31
0.0
  0
LINE
  5
331
330
1F
100
AcDbEntity
  8
0-0
  6
JWW_DASHED1
 62
   120
370
     5
100
AcDbLine
 10
526.2432236775841
 20
299.4192171619736
 30
0.0
 11
1099.243223677585
 21
299.4192171619736
 31
0.0
  0
LINE
  5
332
330
1F
100
AcDbEntity
  8
0-0
  6
JWW_DASHED1
 62
   120
370
     5
100
AcDbLine
 10
526.2432236775841
 20
300.4192171618738
 30
0.0
 11
1099.243223677585
 21
300.4192171618738
 31
0.0
  0
LINE
  5
333
330
1F
100
AcDbEntity
  8
0-0
  6
JWW_DASHED1
 62
   120
370
     5
100
AcDbLine
 10
526.2432236775841
 20
313.4192171629734
 30
0.0
 11
1099.243223677585
 21
313.4192171629734
 31
0.0
  0
LINE
  5
334
330
1F
100
AcDbEntity
  8
0-0
  6
JWW_DASHED1
 62
   120
370
     5
100
AcDbLine
 10
526.2432236775841
 20
314.4192171628736
 30
0.0
 11
1099.243223677585
 21
314.4192171628736
 31
0.0
  0
LINE
  5
335
330
1F
100
AcDbEntity
  8
0-0
  6
JWW_DASHED1
 62
   120
370
     5
100
AcDbLine
 10
526.2432236775841
 20
327.4192171639732
 30
0.0
 11
1099.243223677585
 21
327.4192171639732
 31
0.0
  0
LINE
  5
336
330
1F
100
AcDbEntity
  8
0-0
  6
JWW_DASHED1
 62
   120
370
     5
100
AcDbLine
 10
526.2432236775841
 20
328.4192171638734
 30
0.0
 11
1099.243223677585
 21
328.4192171638734
 31
0.0
  0
LINE
  5
337
330
1F
100
AcDbEntity
  8
0-0
  6
JWW_DASHED1
 62
   120
370
     5
100
AcDbLine
 10
526.2432236775841
 20
341.419217164973
 30
0.0
 11
1099.243223677585
 21
341.419217164973
 31
0.0
  0
LINE
  5
338
330
1F
100
AcDbEntity
  8
0-0
  6
JWW_DASHED1
 62
   120
370
     5
100
AcDbLine
 10
526.2432236775841
 20
342.4192171648732
 30
0.0
 11
1099.243223677585
 21
342.4192171648732
 31
0.0
  0
LINE
  5
339
330
1F
100
AcDbEntity
  8
0-0
  6
JWW_DASHED1
 62
   120
370
     5
100
AcDbLine
 10
526.2432236775841
 20
355.4192171659728
 30
0.0
 11
1099.243223677585
 21
355.4192171659728
 31
0.0
  0
LINE
  5
33A
330
1F
100
AcDbEntity
  8
0-0
  6
JWW_DASHED1
 62
   120
370
     5
100
AcDbLine
 10
526.2432236775841
 20
356.419217165873
 30
0.0
 11
1099.243223677585
 21
356.419217165873
 31
0.0
  0
LINE
  5
33B
330
1F
100
AcDbEntity
  8
0-0
  6
JWW_DASHED1
 62
   120
370
     5
100
AcDbLine
 10
526.2432236775841
 20
369.4192171669726
 30
0.0
 11
1099.243223677585
 21
369.4192171669726
 31
0.0
  0
LINE
  5
33C
330
1F
100
AcDbEntity
  8
0-0
  6
JWW_DASHED1
 62
   120
370
     5
100
AcDbLine
 10
526.2432236775841
 20
370.4192171668728
 30
0.0
 11
1099.243223677585
 21
370.4192171668728
 31
0.0
  0
LINE
  5
33D
330
1F
100
AcDbEntity
  8
0-0
  6
JWW_DASHED1
 62
   120
370
     5
100
AcDbLine
 10
526.2432236775841
 20
383.4192171679724
 30
0.0
 11
1099.243223677585
 21
383.4192171679724
 31
0.0
  0
LINE
  5
33E
330
1F
100
AcDbEntity
  8
0-0
  6
JWW_DASHED1
 62
   120
370
     5
100
AcDbLine
 10
526.2432236775841
 20
384.4192171678725
 30
0.0
 11
1099.243223677585
 21
384.4192171678725
 31
0.0
  0
LINE
  5
33F
330
1F
100
AcDbEntity
  8
0-0
  6
JWW_DASHED1
 62
   120
370
     5
100
AcDbLine
 10
526.2432236775841
 20
397.4192171689722
 30
0.0
 11
1099.243223677585
 21
397.4192171689722
 31
0.0
  0
LINE
  5
340
330
1F
100
AcDbEntity
  8
0-0
  6
JWW_DASHED1
 62
   120
370
     5
100
AcDbLine
 10
526.2432236775841
 20
398.4192171688724
 30
0.0
 11
1099.243223677585
 21
398.4192171688724
 31
0.0
  0
LINE
  5
341
330
1F
100
AcDbEntity
  8
0-0
  6
JWW_DASHED1
 62
   120
370
     5
100
AcDbLine
 10
526.2432236775841
 20
411.4192171699719
 30
0.0
 11
1099.243223677585
 21
411.4192171699719
 31
0.0
  0
LINE
  5
342
330
1F
100
AcDbEntity
  8
0-0
  6
JWW_DASHED1
 62
   120
370
     5
100
AcDbLine
 10
526.2432236775841
 20
412.4192171698721
 30
0.0
 11
1099.243223677585
 21
412.4192171698721
 31
0.0
  0
LINE
  5
343
330
1F
100
AcDbEntity
  8
0-0
  6
JWW_DASHED1
 62
   120
370
     5
100
AcDbLine
 10
526.2432236775841
 20
425.4192171709718
 30
0.0
 11
1099.243223677585
 21
425.4192171709718
 31
0.0
  0
LINE
  5
344
330
1F
100
AcDbEntity
  8
0-0
  6
JWW_DASHED1
 62
   120
370
     5
100
AcDbLine
 10
526.2432236775841
 20
426.4192171708719
 30
0.0
 11
1099.243223677585
 21
426.4192171708719
 31
0.0
  0
LINE
  5
345
330
1F
100
AcDbEntity
  8
0-0
  6
JWW_DASHED1
 62
   120
370
     5
100
AcDbLine
 10
526.2432236775841
 20
439.4192171719715
 30
0.0
 11
1099.243223677585
 21
439.4192171719715
 31
0.0
  0
LINE
  5
346
330
1F
100
AcDbEntity
  8
0-0
  6
JWW_DASHED1
 62
   120
370
     5
100
AcDbLine
 10
526.2432236775841
 20
440.4192171718717
 30
0.0
 11
1099.243223677585
 21
440.4192171718717
 31
0.0
  0
LINE
  5
347
330
1F
100
AcDbEntity
  8
0-0
  6
JWW_DASHED1
 62
   120
370
     5
100
AcDbLine
 10
526.2432236775841
 20
453.4192171729713
 30
0.0
 11
1099.243223677585
 21
453.4192171729713
 31
0.0
  0
LINE
  5
348
330
1F
100
AcDbEntity
  8
0-0
  6
JWW_DASHED1
 62
   120
370
     5
100
AcDbLine
 10
526.2432236775841
 20
454.4192171728715
 30
0.0
 11
1099.243223677585
 21
454.4192171728715
 31
0.0
  0
LINE
  5
349
330
1F
100
AcDbEntity
  8
0-0
  6
JWW_DASHED1
 62
   120
370
     5
100
AcDbLine
 10
526.2432236775841
 20
467.4192171739711
 30
0.0
 11
1099.243223677585
 21
467.4192171739711
 31
0.0
  0
LINE
  5
34A
330
1F
100
AcDbEntity
  8
0-0
  6
JWW_DASHED1
 62
   120
370
     5
100
AcDbLine
 10
526.2432236775841
 20
468.4192171738713
 30
0.0
 11
1099.243223677585
 21
468.4192171738713
 31
0.0
  0
LINE
  5
34B
330
1F
100
AcDbEntity
  8
0-0
  6
JWW_DASHED1
 62
   120
370
     5
100
AcDbLine
 10
526.2432236775841
 20
481.4192171749709
 30
0.0
 11
1099.243223677585
 21
481.4192171749709
 31
0.0
  0
LINE
  5
34C
330
1F
100
AcDbEntity
  8
0-0
  6
JWW_DASHED1
 62
   120
370
     5
100
AcDbLine
 10
526.2432236775841
 20
482.4192171748711
 30
0.0
 11
1099.243223677585
 21
482.4192171748711
 31
0.0
  0
LINE
  5
34D
330
1F
100
AcDbEntity
  8
0-0
  6
JWW_DASHED1
 62
   120
370
     5
100
AcDbLine
 10
526.2432236775841
 20
495.4192171759707
 30
0.0
 11
1099.243223677585
 21
495.4192171759707
 31
0.0
  0
LINE
  5
34E
330
1F
100
AcDbEntity
  8
0-0
  6
JWW_DASHED1
 62
   120
370
     5
100
AcDbLine
 10
526.2432236775841
 20
496.4192171758709
 30
0.0
 11
1099.243223677585
 21
496.4192171758709
 31
0.0
  0
LINE
  5
34F
330
1F
100
AcDbEntity
  8
0-0
  6
JWW_DASHED1
 62
   120
370
     5
100
AcDbLine
 10
526.2432236775841
 20
509.4192171769705
 30
0.0
 11
1099.243223677585
 21
509.4192171769705
 31
0.0
  0
LINE
  5
350
330
1F
100
AcDbEntity
  8
0-0
  6
JWW_DASHED1
 62
   120
370
     5
100
AcDbLine
 10
526.2432236775841
 20
510.4192171768707
 30
0.0
 11
1099.243223677585
 21
510.4192171768707
 31
0.0
  0
LINE
  5
351
330
1F
100
AcDbEntity
  8
0-0
  6
JWW_DASHED1
 62
   120
370
     5
100
AcDbLine
 10
526.2432236775841
 20
523.4192171779703
 30
0.0
 11
1099.243223677585
 21
523.4192171779703
 31
0.0
  0
LINE
  5
352
330
1F
100
AcDbEntity
  8
0-0
  6
JWW_DASHED1
 62
   120
370
     5
100
AcDbLine
 10
526.2432236775841
 20
524.4192171778705
 30
0.0
 11
1099.243223677585
 21
524.4192171778705
 31
0.0
  0
LINE
  5
353
330
1F
100
AcDbEntity
  8
0-0
  6
JWW_DASHED1
 62
   120
370
     5
100
AcDbLine
 10
526.2432236775841
 20
537.41921717897
 30
0.0
 11
1099.243223677585
 21
537.41921717897
 31
0.0
  0
LINE
  5
354
330
1F
100
AcDbEntity
  8
0-0
  6
JWW_DASHED1
 62
   120
370
     5
100
AcDbLine
 10
526.2432236775841
 20
538.4192171788702
 30
0.0
 11
1099.243223677585
 21
538.4192171788702
 31
0.0
  0
LINE
  5
355
330
1F
100
AcDbEntity
  8
0-0
  6
JWW_DASHED1
 62
   120
370
     5
100
AcDbLine
 10
526.2432236775841
 20
551.4192171799699
 30
0.0
 11
1099.243223677585
 21
551.4192171799699
 31
0.0
  0
LINE
  5
356
330
1F
100
AcDbEntity
  8
0-0
  6
JWW_DASHED1
 62
   120
370
     5
100
AcDbLine
 10
526.2432236775841
 20
552.4192171798701
 30
0.0
 11
1099.243223677585
 21
552.4192171798701
 31
0.0
  0
LINE
  5
357
330
1F
100
AcDbEntity
  8
0-0
  6
JWW_DASHED1
 62
   120
370
     5
100
AcDbLine
 10
526.2432236775841
 20
565.4192171809697
 30
0.0
 11
1099.243223677585
 21
565.4192171809697
 31
0.0
  0
LINE
  5
358
330
1F
100
AcDbEntity
  8
0-0
  6
JWW_DASHED1
 62
   120
370
     5
100
AcDbLine
 10
526.2432236775841
 20
566.4192171808699
 30
0.0
 11
1099.243223677585
 21
566.4192171808699
 31
0.0
  0
LINE
  5
359
330
1F
100
AcDbEntity
  8
0-0
  6
JWW_DASHED1
 62
   120
370
     5
100
AcDbLine
 10
526.2432236775841
 20
579.4192171819694
 30
0.0
 11
1099.243223677585
 21
579.4192171819694
 31
0.0
  0
LINE
  5
35A
330
1F
100
AcDbEntity
  8
0-0
  6
JWW_DASHED1
 62
   120
370
     5
100
AcDbLine
 10
526.2432236775841
 20
580.4192171818696
 30
0.0
 11
1099.243223677585
 21
580.4192171818696
 31
0.0
  0
LINE
  5
35B
330
1F
100
AcDbEntity
  8
0-0
  6
JWW_DASHED1
 62
   120
370
     5
100
AcDbLine
 10
526.2432236775841
 20
593.4192171829692
 30
0.0
 11
1099.243223677585
 21
593.4192171829692
 31
0.0
  0
LINE
  5
35C
330
1F
100
AcDbEntity
  8
0-0
  6
JWW_DASHED1
 62
   120
370
     5
100
AcDbLine
 10
526.2432236775841
 20
594.4192171828694
 30
0.0
 11
1099.243223677585
 21
594.4192171828694
 31
0.0
  0
LINE
  5
35D
330
1F
100
AcDbEntity
  8
0-0
  6
JWW_DASHED1
 62
   120
370
     5
100
AcDbLine
 10
526.2432236775841
 20
607.4192171839691
 30
0.0
 11
1099.243223677585
 21
607.4192171839691
 31
0.0
  0
LINE
  5
35E
330
1F
100
AcDbEntity
  8
0-0
  6
JWW_DASHED1
 62
   120
370
     5
100
AcDbLine
 10
526.2432236775841
 20
608.4192171838693
 30
0.0
 11
1099.243223677585
 21
608.4192171838693
 31
0.0
  0
LINE
  5
35F
330
1F
100
AcDbEntity
  8
0-0
  6
JWW_DASHED1
 62
   120
370
     5
100
AcDbLine
 10
526.2432236775841
 20
621.4192171849688
 30
0.0
 11
1099.243223677585
 21
621.4192171849688
 31
0.0
  0
LINE
  5
360
330
1F
100
AcDbEntity
  8
0-0
  6
JWW_DASHED1
 62
   120
370
     5
100
AcDbLine
 10
526.2432236775841
 20
622.4192171848688
 30
0.0
 11
1099.243223677585
 21
622.4192171848688
 31
0.0
  0
LINE
  5
361
330
1F
100
AcDbEntity
  8
0-0
  6
JWW_DASHED1
 62
   120
370
     5
100
AcDbLine
 10
526.2432236775841
 20
635.4192171859686
 30
0.0
 11
1099.243223677585
 21
635.4192171859686
 31
0.0
  0
LINE
  5
362
330
1F
100
AcDbEntity
  8
0-0
  6
JWW_DASHED1
 62
   120
370
     5
100
AcDbLine
 10
526.2432236775841
 20
636.4192171858688
 30
0.0
 11
1099.243223677585
 21
636.4192171858688
 31
0.0
  0
LINE
  5
363
330
1F
100
AcDbEntity
  8
0-0
  6
JWW_DASHED1
 62
   120
370
     5
100
AcDbLine
 10
526.2432236775841
 20
649.4192171869684
 30
0.0
 11
1099.243223677585
 21
649.4192171869684
 31
0.0
  0
LINE
  5
364
330
1F
100
AcDbEntity
  8
0-0
  6
JWW_DASHED1
 62
   120
370
     5
100
AcDbLine
 10
526.2432236775841
 20
650.4192171868685
 30
0.0
 11
1099.243223677585
 21
650.4192171868685
 31
0.0
  0
LINE
  5
365
330
1F
100
AcDbEntity
  8
0-0
  6
JWW_DASHED1
 62
   120
370
     5
100
AcDbLine
 10
532.2432421356159
 20
-456.5806345781713
 30
0.0
 11
532.2432421356159
 21
718.4193654218288
 31
0.0
  0
LINE
  5
366
330
1F
100
AcDbEntity
  8
0-0
  6
JWW_DASHED1
 62
   120
370
     5
100
AcDbLine
 10
1065.243242173516
 20
-456.5806345781713
 30
0.0
 11
1065.243242173516
 21
718.4193654218288
 31
0.0
  0
LINE
  5
367
330
1F
100
AcDbEntity
  8
0-0
  6
JWW_DASHED1
 62
   120
370
     5
100
AcDbLine
 10
1064.243242173616
 20
-456.5806345781713
 30
0.0
 11
1064.243242173616
 21
718.4193654218288
 31
0.0
  0
LINE
  5
368
330
1F
100
AcDbEntity
  8
0-0
  6
JWW_DASHED1
 62
   120
370
     5
100
AcDbLine
 10
1051.243242172516
 20
-456.5806345781713
 30
0.0
 11
1051.243242172516
 21
718.4193654218288
 31
0.0
  0
LINE
  5
369
330
1F
100
AcDbEntity
  8
0-0
  6
JWW_DASHED1
 62
   120
370
     5
100
AcDbLine
 10
1050.243242172616
 20
-456.5806345781713
 30
0.0
 11
1050.243242172616
 21
718.4193654218288
 31
0.0
  0
LINE
  5
36A
330
1F
100
AcDbEntity
  8
0-0
  6
JWW_DASHED1
 62
   120
370
     5
100
AcDbLine
 10
1037.243242171516
 20
-456.5806345781713
 30
0.0
 11
1037.243242171516
 21
718.4193654218288
 31
0.0
  0
LINE
  5
36B
330
1F
100
AcDbEntity
  8
0-0
  6
JWW_DASHED1
 62
   120
370
     5
100
AcDbLine
 10
1036.243242171616
 20
-456.5806345781713
 30
0.0
 11
1036.243242171616
 21
718.4193654218288
 31
0.0
  0
LINE
  5
36C
330
1F
100
AcDbEntity
  8
0-0
  6
JWW_DASHED1
 62
   120
370
     5
100
AcDbLine
 10
1023.243242170516
 20
-456.5806345781713
 30
0.0
 11
1023.243242170516
 21
718.4193654218288
 31
0.0
  0
LINE
  5
36D
330
1F
100
AcDbEntity
  8
0-0
  6
JWW_DASHED1
 62
   120
370
     5
100
AcDbLine
 10
1022.243242170616
 20
-456.5806345781713
 30
0.0
 11
1022.243242170616
 21
718.4193654218288
 31
0.0
  0
LINE
  5
36E
330
1F
100
AcDbEntity
  8
0-0
  6
JWW_DASHED1
 62
   120
370
     5
100
AcDbLine
 10
1009.243242169516
 20
-456.5806345781713
 30
0.0
 11
1009.243242169516
 21
718.4193654218288
 31
0.0
  0
LINE
  5
36F
330
1F
100
AcDbEntity
  8
0-0
  6
JWW_DASHED1
 62
   120
370
     5
100
AcDbLine
 10
1008.243242169616
 20
-456.5806345781713
 30
0.0
 11
1008.243242169616
 21
718.4193654218288
 31
0.0
  0
LINE
  5
370
330
1F
100
AcDbEntity
  8
0-0
  6
JWW_DASHED1
 62
   120
370
     5
100
AcDbLine
 10
995.243242168516
 20
-456.5806345781713
 30
0.0
 11
995.2432421685164
 21
718.4193654218288
 31
0.0
  0
LINE
  5
371
330
1F
100
AcDbEntity
  8
0-0
  6
JWW_DASHED1
 62
   120
370
     5
100
AcDbLine
 10
994.2432421686162
 20
-456.5806345781713
 30
0.0
 11
994.2432421686162
 21
718.4193654218288
 31
0.0
  0
LINE
  5
372
330
1F
100
AcDbEntity
  8
0-0
  6
JWW_DASHED1
 62
   120
370
     5
100
AcDbLine
 10
981.2432421675162
 20
-456.5806345781713
 30
0.0
 11
981.2432421675162
 21
718.4193654218288
 31
0.0
  0
LINE
  5
373
330
1F
100
AcDbEntity
  8
0-0
  6
JWW_DASHED1
 62
   120
370
     5
100
AcDbLine
 10
980.243242167616
 20
-456.5806345781713
 30
0.0
 11
980.243242167616
 21
718.4193654218288
 31
0.0
  0
LINE
  5
374
330
1F
100
AcDbEntity
  8
0-0
  6
JWW_DASHED1
 62
   120
370
     5
100
AcDbLine
 10
967.2432421665164
 20
-456.5806345781713
 30
0.0
 11
967.2432421665164
 21
718.4193654218288
 31
0.0
  0
LINE
  5
375
330
1F
100
AcDbEntity
  8
0-0
  6
JWW_DASHED1
 62
   120
370
     5
100
AcDbLine
 10
966.2432421666163
 20
-456.5806345781713
 30
0.0
 11
966.2432421666163
 21
718.4193654218288
 31
0.0
  0
LINE
  5
376
330
1F
100
AcDbEntity
  8
0-0
  6
JWW_DASHED1
 62
   120
370
     5
100
AcDbLine
 10
953.2432421655166
 20
-456.5806345781713
 30
0.0
 11
953.2432421655166
 21
718.4193654218288
 31
0.0
  0
LINE
  5
377
330
1F
100
AcDbEntity
  8
0-0
  6
JWW_DASHED1
 62
   120
370
     5
100
AcDbLine
 10
952.2432421656164
 20
-456.5806345781713
 30
0.0
 11
952.2432421656164
 21
718.4193654218288
 31
0.0
  0
LINE
  5
378
330
1F
100
AcDbEntity
  8
0-0
  6
JWW_DASHED1
 62
   120
370
     5
100
AcDbLine
 10
939.2432421645163
 20
-456.5806345781713
 30
0.0
 11
939.2432421645163
 21
718.4193654218288
 31
0.0
  0
LINE
  5
379
330
1F
100
AcDbEntity
  8
0-0
  6
JWW_DASHED1
 62
   120
370
     5
100
AcDbLine
 10
938.2432421646162
 20
-456.5806345781713
 30
0.0
 11
938.2432421646162
 21
718.4193654218288
 31
0.0
  0
LINE
  5
37A
330
1F
100
AcDbEntity
  8
0-0
  6
JWW_DASHED1
 62
   120
370
     5
100
AcDbLine
 10
925.2432421635161
 20
-456.5806345781713
 30
0.0
 11
925.2432421635161
 21
718.4193654218288
 31
0.0
  0
LINE
  5
37B
330
1F
100
AcDbEntity
  8
0-0
  6
JWW_DASHED1
 62
   120
370
     5
100
AcDbLine
 10
924.243242163616
 20
-456.5806345781713
 30
0.0
 11
924.243242163616
 21
718.4193654218288
 31
0.0
  0
LINE
  5
37C
330
1F
100
AcDbEntity
  8
0-0
  6
JWW_DASHED1
 62
   120
370
     5
100
AcDbLine
 10
911.2432421625164
 20
-456.5806345781713
 30
0.0
 11
911.2432421625164
 21
718.4193654218288
 31
0.0
  0
LINE
  5
37D
330
1F
100
AcDbEntity
  8
0-0
  6
JWW_DASHED1
 62
   120
370
     5
100
AcDbLine
 10
910.2432421626162
 20
-456.5806345781713
 30
0.0
 11
910.2432421626162
 21
718.4193654218288
 31
0.0
  0
LINE
  5
37E
330
1F
100
AcDbEntity
  8
0-0
  6
JWW_DASHED1
 62
   120
370
     5
100
AcDbLine
 10
897.2432421615166
 20
-456.5806345781713
 30
0.0
 11
897.2432421615166
 21
718.4193654218288
 31
0.0
  0
LINE
  5
37F
330
1F
100
AcDbEntity
  8
0-0
  6
JWW_DASHED1
 62
   120
370
     5
100
AcDbLine
 10
896.2432421616164
 20
-456.5806345781713
 30
0.0
 11
896.2432421616164
 21
718.4193654218288
 31
0.0
  0
LINE
  5
380
330
1F
100
AcDbEntity
  8
0-0
  6
JWW_DASHED1
 62
   120
370
     5
100
AcDbLine
 10
883.2432421605164
 20
-456.5806345781713
 30
0.0
 11
883.2432421605164
 21
718.4193654218288
 31
0.0
  0
LINE
  5
381
330
1F
100
AcDbEntity
  8
0-0
  6
JWW_DASHED1
 62
   120
370
     5
100
AcDbLine
 10
882.2432421606162
 20
-456.5806345781713
 30
0.0
 11
882.2432421606162
 21
718.4193654218288
 31
0.0
  0
LINE
  5
382
330
1F
100
AcDbEntity
  8
0-0
  6
JWW_DASHED1
 62
   120
370
     5
100
AcDbLine
 10
869.2432421595162
 20
-456.5806345781713
 30
0.0
 11
869.2432421595162
 21
718.4193654218288
 31
0.0
  0
LINE
  5
383
330
1F
100
AcDbEntity
  8
0-0
  6
JWW_DASHED1
 62
   120
370
     5
100
AcDbLine
 10
868.243242159616
 20
-456.5806345781713
 30
0.0
 11
868.243242159616
 21
718.4193654218288
 31
0.0
  0
LINE
  5
384
330
1F
100
AcDbEntity
  8
0-0
  6
JWW_DASHED1
 62
   120
370
     5
100
AcDbLine
 10
855.2432421585163
 20
-456.5806345781713
 30
0.0
 11
855.2432421585163
 21
718.4193654218288
 31
0.0
  0
LINE
  5
385
330
1F
100
AcDbEntity
  8
0-0
  6
JWW_DASHED1
 62
   120
370
     5
100
AcDbLine
 10
854.2432421586161
 20
-456.5806345781713
 30
0.0
 11
854.2432421586161
 21
718.4193654218288
 31
0.0
  0
LINE
  5
386
330
1F
100
AcDbEntity
  8
0-0
  6
JWW_DASHED1
 62
   120
370
     5
100
AcDbLine
 10
841.2432421575165
 20
-456.5806345781713
 30
0.0
 11
841.2432421575165
 21
718.4193654218288
 31
0.0
  0
LINE
  5
387
330
1F
100
AcDbEntity
  8
0-0
  6
JWW_DASHED1
 62
   120
370
     5
100
AcDbLine
 10
840.2432421576159
 20
-456.5806345781713
 30
0.0
 11
840.2432421576159
 21
718.4193654218288
 31
0.0
  0
LINE
  5
388
330
1F
100
AcDbEntity
  8
0-0
  6
JWW_DASHED1
 62
   120
370
     5
100
AcDbLine
 10
827.2432421565163
 20
-456.5806345781713
 30
0.0
 11
827.2432421565163
 21
718.4193654218288
 31
0.0
  0
LINE
  5
389
330
1F
100
AcDbEntity
  8
0-0
  6
JWW_DASHED1
 62
   120
370
     5
100
AcDbLine
 10
826.2432421566161
 20
-456.5806345781713
 30
0.0
 11
826.2432421566161
 21
718.4193654218288
 31
0.0
  0
LINE
  5
38A
330
1F
100
AcDbEntity
  8
0-0
  6
JWW_DASHED1
 62
   120
370
     5
100
AcDbLine
 10
813.2432421555161
 20
-456.5806345781713
 30
0.0
 11
813.2432421555161
 21
718.4193654218288
 31
0.0
  0
LINE
  5
38B
330
1F
100
AcDbEntity
  8
0-0
  6
JWW_DASHED1
 62
   120
370
     5
100
AcDbLine
 10
812.2432421556159
 20
-456.5806345781713
 30
0.0
 11
812.2432421556159
 21
718.4193654218288
 31
0.0
  0
LINE
  5
38C
330
1F
100
AcDbEntity
  8
0-0
  6
JWW_DASHED1
 62
   120
370
     5
100
AcDbLine
 10
799.2432421545159
 20
-456.5806345781713
 30
0.0
 11
799.2432421545159
 21
718.4193654218288
 31
0.0
  0
LINE
  5
38D
330
1F
100
AcDbEntity
  8
0-0
  6
JWW_DASHED1
 62
   120
370
     5
100
AcDbLine
 10
798.2432421546162
 20
-456.5806345781713
 30
0.0
 11
798.2432421546162
 21
718.4193654218288
 31
0.0
  0
LINE
  5
38E
330
1F
100
AcDbEntity
  8
0-0
  6
JWW_DASHED1
 62
   120
370
     5
100
AcDbLine
 10
785.2432421535166
 20
-456.5806345781713
 30
0.0
 11
785.2432421535166
 21
718.4193654218288
 31
0.0
  0
LINE
  5
38F
330
1F
100
AcDbEntity
  8
0-0
  6
JWW_DASHED1
 62
   120
370
     5
100
AcDbLine
 10
784.2432421536164
 20
-456.5806345781713
 30
0.0
 11
784.2432421536164
 21
718.4193654218288
 31
0.0
  0
LINE
  5
390
330
1F
100
AcDbEntity
  8
0-0
  6
JWW_DASHED1
 62
   120
370
     5
100
AcDbLine
 10
771.2432421525164
 20
-456.5806345781713
 30
0.0
 11
771.2432421525164
 21
718.4193654218288
 31
0.0
  0
LINE
  5
391
330
1F
100
AcDbEntity
  8
0-0
  6
JWW_DASHED1
 62
   120
370
     5
100
AcDbLine
 10
770.2432421526162
 20
-456.5806345781713
 30
0.0
 11
770.2432421526162
 21
718.4193654218288
 31
0.0
  0
LINE
  5
392
330
1F
100
AcDbEntity
  8
0-0
  6
JWW_DASHED1
 62
   120
370
     5
100
AcDbLine
 10
757.2432421515161
 20
-456.5806345781713
 30
0.0
 11
757.2432421515161
 21
718.4193654218288
 31
0.0
  0
LINE
  5
393
330
1F
100
AcDbEntity
  8
0-0
  6
JWW_DASHED1
 62
   120
370
     5
100
AcDbLine
 10
756.243242151616
 20
-456.5806345781713
 30
0.0
 11
756.243242151616
 21
718.4193654218288
 31
0.0
  0
LINE
  5
394
330
1F
100
AcDbEntity
  8
0-0
  6
JWW_DASHED1
 62
   120
370
     5
100
AcDbLine
 10
743.2432421505164
 20
-456.5806345781713
 30
0.0
 11
743.2432421505164
 21
718.4193654218288
 31
0.0
  0
LINE
  5
395
330
1F
100
AcDbEntity
  8
0-0
  6
JWW_DASHED1
 62
   120
370
     5
100
AcDbLine
 10
742.2432421506162
 20
-456.5806345781713
 30
0.0
 11
742.2432421506162
 21
718.4193654218288
 31
0.0
  0
LINE
  5
396
330
1F
100
AcDbEntity
  8
0-0
  6
JWW_DASHED1
 62
   120
370
     5
100
AcDbLine
 10
729.2432421495165
 20
-456.5806345781713
 30
0.0
 11
729.2432421495165
 21
718.4193654218288
 31
0.0
  0
LINE
  5
397
330
1F
100
AcDbEntity
  8
0-0
  6
JWW_DASHED1
 62
   120
370
     5
100
AcDbLine
 10
728.2432421496163
 20
-456.5806345781713
 30
0.0
 11
728.2432421496163
 21
718.4193654218288
 31
0.0
  0
LINE
  5
398
330
1F
100
AcDbEntity
  8
0-0
  6
JWW_DASHED1
 62
   120
370
     5
100
AcDbLine
 10
715.2432421485163
 20
-456.5806345781713
 30
0.0
 11
715.2432421485163
 21
718.4193654218288
 31
0.0
  0
LINE
  5
399
330
1F
100
AcDbEntity
  8
0-0
  6
JWW_DASHED1
 62
   120
370
     5
100
AcDbLine
 10
714.2432421486161
 20
-456.5806345781713
 30
0.0
 11
714.2432421486161
 21
718.4193654218288
 31
0.0
  0
LINE
  5
39A
330
1F
100
AcDbEntity
  8
0-0
  6
JWW_DASHED1
 62
   120
370
     5
100
AcDbLine
 10
701.2432421475161
 20
-456.5806345781713
 30
0.0
 11
701.2432421475161
 21
718.4193654218288
 31
0.0
  0
LINE
  5
39B
330
1F
100
AcDbEntity
  8
0-0
  6
JWW_DASHED1
 62
   120
370
     5
100
AcDbLine
 10
700.2432421476159
 20
-456.5806345781713
 30
0.0
 11
700.2432421476159
 21
718.4193654218288
 31
0.0
  0
LINE
  5
39C
330
1F
100
AcDbEntity
  8
0-0
  6
JWW_DASHED1
 62
   120
370
     5
100
AcDbLine
 10
687.2432421465163
 20
-456.5806345781713
 30
0.0
 11
687.2432421465163
 21
718.4193654218288
 31
0.0
  0
LINE
  5
39D
330
1F
100
AcDbEntity
  8
0-0
  6
JWW_DASHED1
 62
   120
370
     5
100
AcDbLine
 10
686.2432421466161
 20
-456.5806345781713
 30
0.0
 11
686.2432421466161
 21
718.4193654218288
 31
0.0
  0
LINE
  5
39E
330
1F
100
AcDbEntity
  8
0-0
  6
JWW_DASHED1
 62
   120
370
     5
100
AcDbLine
 10
673.2432421455165
 20
-456.5806345781713
 30
0.0
 11
673.2432421455165
 21
718.4193654218288
 31
0.0
  0
LINE
  5
39F
330
1F
100
AcDbEntity
  8
0-0
  6
JWW_DASHED1
 62
   120
370
     5
100
AcDbLine
 10
672.2432421456164
 20
-456.5806345781713
 30
0.0
 11
672.2432421456164
 21
718.4193654218288
 31
0.0
  0
LINE
  5
3A0
330
1F
100
AcDbEntity
  8
0-0
  6
JWW_DASHED1
 62
   120
370
     5
100
AcDbLine
 10
659.2432421445163
 20
-456.5806345781713
 30
0.0
 11
659.2432421445163
 21
718.4193654218288
 31
0.0
  0
LINE
  5
3A1
330
1F
100
AcDbEntity
  8
0-0
  6
JWW_DASHED1
 62
   120
370
     5
100
AcDbLine
 10
658.2432421446161
 20
-456.5806345781713
 30
0.0
 11
658.2432421446161
 21
718.4193654218288
 31
0.0
  0
LINE
  5
3A2
330
1F
100
AcDbEntity
  8
0-0
  6
JWW_DASHED1
 62
   120
370
     5
100
AcDbLine
 10
645.2432421435161
 20
-456.5806345781713
 30
0.0
 11
645.2432421435161
 21
718.4193654218288
 31
0.0
  0
LINE
  5
3A3
330
1F
100
AcDbEntity
  8
0-0
  6
JWW_DASHED1
 62
   120
370
     5
100
AcDbLine
 10
644.2432421436159
 20
-456.5806345781713
 30
0.0
 11
644.2432421436159
 21
718.4193654218288
 31
0.0
  0
LINE
  5
3A4
330
1F
100
AcDbEntity
  8
0-0
  6
JWW_DASHED1
 62
   120
370
     5
100
AcDbLine
 10
631.2432421425162
 20
-456.5806345781713
 30
0.0
 11
631.2432421425162
 21
718.4193654218288
 31
0.0
  0
LINE
  5
3A5
330
1F
100
AcDbEntity
  8
0-0
  6
JWW_DASHED1
 62
   120
370
     5
100
AcDbLine
 10
630.243242142616
 20
-456.5806345781713
 30
0.0
 11
630.243242142616
 21
718.4193654218288
 31
0.0
  0
LINE
  5
3A6
330
1F
100
AcDbEntity
  8
0-0
  6
JWW_DASHED1
 62
   120
370
     5
100
AcDbLine
 10
617.243242141516
 20
-456.5806345781713
 30
0.0
 11
617.243242141516
 21
718.4193654218288
 31
0.0
  0
LINE
  5
3A7
330
1F
100
AcDbEntity
  8
0-0
  6
JWW_DASHED1
 62
   120
370
     5
100
AcDbLine
 10
616.2432421416163
 20
-456.5806345781713
 30
0.0
 11
616.2432421416163
 21
718.4193654218288
 31
0.0
  0
LINE
  5
3A8
330
1F
100
AcDbEntity
  8
0-0
  6
JWW_DASHED1
 62
   120
370
     5
100
AcDbLine
 10
603.2432421405163
 20
-456.5806345781713
 30
0.0
 11
603.2432421405163
 21
718.4193654218288
 31
0.0
  0
LINE
  5
3A9
330
1F
100
AcDbEntity
  8
0-0
  6
JWW_DASHED1
 62
   120
370
     5
100
AcDbLine
 10
602.2432421406156
 20
-456.5806345781713
 30
0.0
 11
602.2432421406156
 21
718.4193654218288
 31
0.0
  0
LINE
  5
3AA
330
1F
100
AcDbEntity
  8
0-0
  6
JWW_DASHED1
 62
   120
370
     5
100
AcDbLine
 10
589.243242139516
 20
-456.5806345781713
 30
0.0
 11
589.243242139516
 21
718.4193654218288
 31
0.0
  0
LINE
  5
3AB
330
1F
100
AcDbEntity
  8
0-0
  6
JWW_DASHED1
 62
   120
370
     5
100
AcDbLine
 10
588.2432421396159
 20
-456.5806345781713
 30
0.0
 11
588.2432421396159
 21
718.4193654218288
 31
0.0
  0
LINE
  5
3AC
330
1F
100
AcDbEntity
  8
0-0
  6
JWW_DASHED1
 62
   120
370
     5
100
AcDbLine
 10
575.2432421385163
 20
-456.5806345781713
 30
0.0
 11
575.2432421385163
 21
718.4193654218288
 31
0.0
  0
LINE
  5
3AD
330
1F
100
AcDbEntity
  8
0-0
  6
JWW_DASHED1
 62
   120
370
     5
100
AcDbLine
 10
574.2432421386156
 20
-456.5806345781713
 30
0.0
 11
574.2432421386156
 21
718.4193654218288
 31
0.0
  0
LINE
  5
3AE
330
1F
100
AcDbEntity
  8
0-0
  6
JWW_DASHED1
 62
   120
370
     5
100
AcDbLine
 10
561.2432421375165
 20
-456.5806345781713
 30
0.0
 11
561.2432421375165
 21
718.4193654218288
 31
0.0
  0
LINE
  5
3AF
330
1F
100
AcDbEntity
  8
0-0
  6
JWW_DASHED1
 62
   120
370
     5
100
AcDbLine
 10
560.2432421376163
 20
-456.5806345781713
 30
0.0
 11
560.2432421376163
 21
718.4193654218288
 31
0.0
  0
LINE
  5
3B0
330
1F
100
AcDbEntity
  8
0-0
  6
JWW_DASHED1
 62
   120
370
     5
100
AcDbLine
 10
547.2432421365163
 20
-456.5806345781713
 30
0.0
 11
547.2432421365163
 21
718.4193654218288
 31
0.0
  0
LINE
  5
3B1
330
1F
100
AcDbEntity
  8
0-0
  6
JWW_DASHED1
 62
   120
370
     5
100
AcDbLine
 10
546.2432421366161
 20
-456.5806345781713
 30
0.0
 11
546.2432421366161
 21
718.4193654218288
 31
0.0
  0
LINE
  5
3B2
330
1F
100
AcDbEntity
  8
0-0
  6
JWW_DASHED1
 62
   120
370
     5
100
AcDbLine
 10
533.2432421355161
 20
-456.5806345781713
 30
0.0
 11
533.2432421355161
 21
718.4193654218288
 31
0.0
  0
LINE
  5
3B3
330
1F
100
AcDbEntity
  8
0-0
  6
JWW_DASHED1
 62
   120
370
     5
100
AcDbLine
 10
1093.243242175516
 20
-456.5806345781713
 30
0.0
 11
1093.243242175516
 21
718.4193654218288
 31
0.0
  0
LINE
  5
3B4
330
1F
100
AcDbEntity
  8
0-0
  6
JWW_DASHED1
 62
   120
370
     5
100
AcDbLine
 10
1078.243242174616
 20
-456.5806345781713
 30
0.0
 11
1078.243242174616
 21
718.4193654218288
 31
0.0
  0
LINE
  5
3B5
330
1F
100
AcDbEntity
  8
0-0
  6
JWW_DASHED1
 62
   120
370
     5
100
AcDbLine
 10
1092.243242175616
 20
-456.5806345781713
 30
0.0
 11
1092.243242175616
 21
718.4193654218288
 31
0.0
  0
LINE
  5
3B6
330
1F
100
AcDbEntity
  8
0-0
  6
JWW_DASHED1
 62
   120
370
     5
100
AcDbLine
 10
1079.243242174516
 20
-456.5806345781713
 30
0.0
 11
1079.243242174516
 21
718.4193654218288
 31
0.0
  0
LINE
  5
3B7
330
1F
100
AcDbEntity
  8
0-0
  6
JWW_DASHED1
 62
   120
370
     5
100
AcDbLine
 10
526.243223677585
 20
706.4192171908677
 30
0.0
 11
1099.243223677584
 21
706.4192171908677
 31
0.0
  0
LINE
  5
3B8
330
1F
100
AcDbEntity
  8
0-0
  6
JWW_DASHED1
 62
   120
370
     5
100
AcDbLine
 10
526.243223677585
 20
663.4192171879682
 30
0.0
 11
1099.243223677584
 21
663.4192171879682
 31
0.0
  0
LINE
  5
3B9
330
1F
100
AcDbEntity
  8
0-0
  6
JWW_DASHED1
 62
   120
370
     5
100
AcDbLine
 10
526.243223677585
 20
664.4192171878684
 30
0.0
 11
1099.243223677584
 21
664.4192171878684
 31
0.0
  0
LINE
  5
3BA
330
1F
100
AcDbEntity
  8
0-0
  6
JWW_DASHED1
 62
   120
370
     5
100
AcDbLine
 10
526.243223677585
 20
677.419217188968
 30
0.0
 11
1099.243223677584
 21
677.419217188968
 31
0.0
  0
LINE
  5
3BB
330
1F
100
AcDbEntity
  8
0-0
  6
JWW_DASHED1
 62
   120
370
     5
100
AcDbLine
 10
526.243223677585
 20
678.4192171888682
 30
0.0
 11
1099.243223677584
 21
678.4192171888682
 31
0.0
  0
LINE
  5
3BC
330
1F
100
AcDbEntity
  8
0-0
  6
JWW_DASHED1
 62
   120
370
     5
100
AcDbLine
 10
526.243223677585
 20
691.4192171899678
 30
0.0
 11
1099.243223677584
 21
691.4192171899678
 31
0.0
  0
LINE
  5
3BD
330
1F
100
AcDbEntity
  8
0-0
  6
JWW_DASHED1
 62
   120
370
     5
100
AcDbLine
 10
526.243223677585
 20
692.4192171898679
 30
0.0
 11
1099.243223677584
 21
692.4192171898679
 31
0.0
  0
LINE
  5
3BE
330
1F
100
AcDbEntity
  8
0-0
  6
JWW_DASHED1
 62
   120
370
     5
100
AcDbLine
 10
526.243223677585
 20
705.4192171909675
 30
0.0
 11
1099.243223677584
 21
705.4192171909675
 31
0.0
  0
LINE
  5
3BF
330
1F
100
AcDbEntity
  8
寸法
  6
Continuous
 62
   120
370
     5
100
AcDbLine
 10
-1629.256776322416
 20
-1349.580634578173
 30
0.0
 11
-1229.256776322415
 21
-1349.580634578173
 31
0.0
  0
LINE
  5
3C0
330
1F
100
AcDbEntity
  8
寸法
  6
Continuous
 62
   120
370
     5
100
AcDbLine
 10
-1429.256776322417
 20
-1329.580634578172
 30
0.0
 11
-1229.256776322415
 21
-1329.580634578172
 31
0.0
  0
LWPOLYLINE
  5
3C1
330
1F
100
AcDbEntity
  8
寸法
  6
Continuous
 62
     7
370
     9
100
AcDbPolyline
 90
        4
 70
     1
 43
3.0
 10
-1627.756776322416
 20
-1349.580634578173
 42
0.4142135623731
 10
-1629.256776322416
 20
-1348.080634578173
 42
0.4142135623731
 10
-1630.756776322416
 20
-1349.580634578173
 42
0.4142135623731
 10
-1629.256776322416
 20
-1351.080634578173
 42
0.4142135623731
  0
LWPOLYLINE
  5
3C2
330
1F
100
AcDbEntity
  8
寸法
  6
Continuous
 62
     7
370
     9
100
AcDbPolyline
 90
        4
 70
     1
 43
3.0
 10
-1427.756776322417
 20
-1329.580634578172
 42
0.4142135623731
 10
-1429.256776322417
 20
-1328.080634578172
 42
0.4142135623731
 10
-1430.756776322417
 20
-1329.580634578172
 42
0.4142135623731
 10
-1429.256776322417
 20
-1331.080634578172
 42
0.4142135623731
  0
LINE
  5
3C3
330
1F
100
AcDbEntity
  8
寸法
  6
Continuous
 62
   120
370
     5
100
AcDbLine
 10
-1149.256776322416
 20
-1799.580634578173
 30
0.0
 11
-1149.256776322416
 21
-1399.580634578173
 31
0.0
  0
LINE
  5
3C4
330
1F
100
AcDbEntity
  8
寸法
  6
Continuous
 62
   120
370
     5
100
AcDbLine
 10
-1179.256776322416
 20
-1999.580634578173
 30
0.0
 11
-1179.256776322416
 21
-1399.580634578173
 31
0.0
  0
LINE
  5
3C5
330
1F
100
AcDbEntity
  8
寸法
  6
Continuous
 62
   120
370
     5
100
AcDbLine
 10
-1179.256776322416
 20
-1999.580634578173
 30
0.0
 11
2027.743223677584
 21
-1999.580634578172
 31
0.0
  0
LINE
  5
3C6
330
1F
100
AcDbEntity
  8
寸法
  6
Continuous
 62
   120
370
     5
100
AcDbLine
 10
2027.743223677584
 20
-1999.580634578172
 30
0.0
 11
2027.743223677584
 21
-1399.580634578172
 31
0.0
  0
LINE
  5
3C7
330
1F
100
AcDbEntity
  8
寸法
  6
Continuous
 62
   120
370
     5
100
AcDbLine
 10
-1152.256776322416
 20
-1599.580634578172
 30
0.0
 11
-1152.256776322416
 21
-1399.580634578173
 31
0.0
  0
LINE
  5
3C8
330
1F
100
AcDbEntity
  8
寸法
  6
Continuous
 62
   120
370
     5
100
AcDbLine
 10
-1152.256776322416
 20
-1599.580634578172
 30
0.0
 11
-342.2567763224156
 21
-1599.580634578172
 31
0.0
  0
LINE
  5
3C9
330
1F
100
AcDbEntity
  8
寸法
  6
Continuous
 62
   120
370
     5
100
AcDbLine
 10
-342.2567763224156
 20
-1599.580634578172
 30
0.0
 11
-342.2567763224156
 21
-1399.580634578173
 31
0.0
  0
LINE
  5
3CA
330
1F
100
AcDbEntity
  8
寸法
  6
Continuous
 62
   120
370
     5
100
AcDbLine
 10
-1149.256776322416
 20
-1799.580634578173
 30
0.0
 11
1187.743223677584
 21
-1799.580634578172
 31
0.0
  0
LINE
  5
3CB
330
1F
100
AcDbEntity
  8
寸法
  6
Continuous
 62
   120
370
     5
100
AcDbLine
 10
1187.743223677584
 20
-1799.580634578172
 30
0.0
 11
1187.743223677584
 21
-1399.580634578172
 31
0.0
  0
LWPOLYLINE
  5
3CC
330
1F
100
AcDbEntity
  8
寸法
  6
Continuous
 62
     7
370
     9
100
AcDbPolyline
 90
        4
 70
     1
 43
3.0
 10
-1147.756776322416
 20
-1799.580634578173
 42
0.4142135623731
 10
-1149.256776322416
 20
-1798.080634578173
 42
0.4142135623731
 10
-1150.756776322416
 20
-1799.580634578173
 42
0.4142135623731
 10
-1149.256776322416
 20
-1801.080634578173
 42
0.4142135623731
  0
LWPOLYLINE
  5
3CD
330
1F
100
AcDbEntity
  8
寸法
  6
Continuous
 62
     7
370
     9
100
AcDbPolyline
 90
        4
 70
     1
 43
3.0
 10
-1177.756776322416
 20
-1999.580634578173
 42
0.4142135623731
 10
-1179.256776322416
 20
-1998.080634578173
 42
0.4142135623731
 10
-1180.756776322416
 20
-1999.580634578173
 42
0.4142135623731
 10
-1179.256776322416
 20
-2001.080634578172
 42
0.4142135623731
  0
LWPOLYLINE
  5
3CE
330
1F
100
AcDbEntity
  8
寸法
  6
Continuous
 62
     7
370
     9
100
AcDbPolyline
 90
        4
 70
     1
 43
3.0
 10
2029.243223677584
 20
-1999.580634578172
 42
0.4142135623731
 10
2027.743223677584
 20
-1998.080634578172
 42
0.4142135623731
 10
2026.243223677584
 20
-1999.580634578172
 42
0.4142135623731
 10
2027.743223677584
 20
-2001.080634578172
 42
0.4142135623731
  0
LWPOLYLINE
  5
3CF
330
1F
100
AcDbEntity
  8
寸法
  6
Continuous
 62
     7
370
     9
100
AcDbPolyline
 90
        4
 70
     1
 43
3.0
 10
-1150.756776322416
 20
-1599.580634578172
 42
0.4142135623731
 10
-1152.256776322416
 20
-1598.080634578172
 42
0.4142135623731
 10
-1153.756776322416
 20
-1599.580634578172
 42
0.4142135623731
 10
-1152.256776322416
 20
-1601.080634578172
 42
0.4142135623731
  0
LWPOLYLINE
  5
3D0
330
1F
100
AcDbEntity
  8
寸法
  6
Continuous
 62
     7
370
     9
100
AcDbPolyline
 90
        4
 70
     1
 43
3.0
 10
-340.7567763224155
 20
-1599.580634578172
 42
0.4142135623731
 10
-342.2567763224156
 20
-1598.080634578172
 42
0.4142135623731
 10
-343.7567763224156
 20
-1599.580634578172
 42
0.4142135623731
 10
-342.2567763224156
 20
-1601.080634578172
 42
0.4142135623731
  0
LWPOLYLINE
  5
3D1
330
1F
100
AcDbEntity
  8
寸法
  6
Continuous
 62
     7
370
     9
100
AcDbPolyline
 90
        4
 70
     1
 43
3.0
 10
1189.243223677584
 20
-1799.580634578172
 42
0.4142135623731
 10
1187.743223677584
 20
-1798.080634578172
 42
0.4142135623731
 10
1186.243223677584
 20
-1799.580634578172
 42
0.4142135623731
 10
1187.743223677584
 20
-1801.080634578172
 42
0.4142135623731
  0
MTEXT
  5
3D2
330
1F
100
AcDbEntity
  8
寸法
  6
Continuous
 62
     7
370
    70
100
AcDbMText
 10
-1644.256776322416
 20
-453.2556345781724
 30
0.0
 40
57.14999999999999
 41
412.5
 46
0.0
 71
     7
 72
     1
  1
{\fＭＳ ゴシック|b0|i0|c128|p49;枠外＝2,247}
 11
6.123031769111886E-17
 21
1.0
 31
0.0
 73
     1
 44
1.0
  0
MTEXT
  5
3D3
330
1F
100
AcDbEntity
  8
寸法
  6
Continuous
 62
     7
370
    70
100
AcDbMText
 10
-1444.256776322417
 20
-453.2556345781724
 30
0.0
 40
57.14999999999999
 41
412.5
 46
0.0
 71
     7
 72
     1
  1
{\fＭＳ ゴシック|b0|i0|c128|p49;ＤＨ＝2,183}
 11
6.123031769111886E-17
 21
1.0
 31
0.0
 73
     1
 44
1.0
  0
MTEXT
  5
3D4
330
1F
100
AcDbEntity
  8
寸法
  6
Continuous
 62
     7
370
   211
100
AcDbMText
 10
-916.0067763224156
 20
-1593.505634578172
 30
0.0
 40
57.15
 41
337.5
 46
0.0
 71
     7
 72
     1
  1
{\fＭＳ ゴシック|b0|i0|c128|p49;ＤＷ＝810}
 73
     1
 44
1.0
  0
LINE
  5
3D5
330
1F
100
AcDbEntity
  8
寸法
  6
Continuous
 62
   120
370
     5
100
AcDbLine
 10
-1629.256776322416
 20
897.4193654218275
 30
0.0
 11
-1629.256776322416
 21
-1349.580634578173
 31
0.0
  0
LINE
  5
3D6
330
1F
100
AcDbEntity
  8
寸法
  6
Continuous
 62
   120
370
     5
100
AcDbLine
 10
-1629.256776322416
 20
897.4193654218275
 30
0.0
 11
-1229.256776322415
 21
897.4193654218275
 31
0.0
  0
LWPOLYLINE
  5
3D7
330
1F
100
AcDbEntity
  8
寸法
  6
Continuous
 62
     7
370
     9
100
AcDbPolyline
 90
        4
 70
     1
 43
3.0
 10
-1627.756776322416
 20
897.4193654218275
 42
0.4142135623731
 10
-1629.256776322416
 20
898.9193654218276
 42
0.4142135623731
 10
-1630.756776322416
 20
897.4193654218275
 42
0.4142135623731
 10
-1629.256776322416
 20
895.9193654218275
 42
0.4142135623731
  0
LINE
  5
3D8
330
1F
100
AcDbEntity
  8
寸法
  6
Continuous
 62
   120
370
     5
100
AcDbLine
 10
-1429.256776322417
 20
853.4193654218283
 30
0.0
 11
-1229.256776322415
 21
853.4193654218283
 31
0.0
  0
LINE
  5
3D9
330
1F
100
AcDbEntity
  8
寸法
  6
Continuous
 62
   120
370
     5
100
AcDbLine
 10
-1429.256776322417
 20
853.4193654218283
 30
0.0
 11
-1429.256776322417
 21
-1329.580634578172
 31
0.0
  0
LWPOLYLINE
  5
3DA
330
1F
100
AcDbEntity
  8
寸法
  6
Continuous
 62
     7
370
     9
100
AcDbPolyline
 90
        4
 70
     1
 43
3.0
 10
-1427.756776322417
 20
853.4193654218283
 42
0.4142135623731
 10
-1429.256776322417
 20
854.9193654218284
 42
0.4142135623731
 10
-1430.756776322417
 20
853.4193654218283
 42
0.4142135623731
 10
-1429.256776322417
 20
851.9193654218283
 42
0.4142135623731
  0
MTEXT
  5
3DB
330
1F
100
AcDbEntity
  8
寸法
  6
Continuous
 62
     7
370
   211
100
AcDbMText
 10
-262.0067763224178
 20
-1793.505634578172
 30
0.0
 40
57.15000000000001
 41
562.5
 46
0.0
 71
     7
 72
     1
  1
{\fＭＳ ゴシック|b0|i0|c128|p49;有効開口＝2,337}
 73
     1
 44
1.0
  0
MTEXT
  5
3DC
330
1F
100
AcDbEntity
  8
寸法
  6
Continuous
 62
     7
370
   211
100
AcDbMText
 10
217.9932236775823
 20
-1993.505634578172
 30
0.0
 40
57.14999999999999
 41
412.5
 46
0.0
 71
     7
 72
     1
  1
{\fＭＳ ゴシック|b0|i0|c128|p49;枠外＝3,207}
 73
     1
 44
1.0
  0
ENDSEC
  0
SECTION
  2
OBJECTS
  0
DICTIONARY
  5
C
330
0
100
AcDbDictionary
281
     1
  3
ACAD_GROUP
350
D
  3
ACAD_LAYOUT
350
1A
  3
ACAD_MATERIAL
350
3B
  3
ACAD_MLEADERSTYLE
350
3DE
  3
ACAD_MLINESTYLE
350
17
  3
ACAD_PLOTSETTINGS
350
19
  3
ACAD_PLOTSTYLENAME
350
E
  3
ACAD_TABLESTYLE
350
3DD
  3
ACAD_VISUALSTYLE
350
2A
  0
DICTIONARY
  5
D
102
{ACAD_REACTORS
330
C
102
}
330
C
100
AcDbDictionary
281
     1
  0
DICTIONARY
  5
1A
102
{ACAD_REACTORS
330
C
102
}
330
C
100
AcDbDictionary
281
     1
  3
Layout1
350
1E
  3
Layout2
350
26
  3
Model
350
22
  0
DICTIONARY
  5
3B
102
{ACAD_REACTORS
330
C
102
}
330
C
100
AcDbDictionary
281
     1
  3
ByBlock
350
3D
  3
ByLayer
350
3C
  3
Global
350
3E
  0
DICTIONARY
  5
3DE
102
{ACAD_REACTORS
330
C
102
}
330
C
100
AcDbDictionary
281
     1
  0
DICTIONARY
  5
17
102
{ACAD_REACTORS
330
C
102
}
330
C
100
AcDbDictionary
281
     1
  3
Standard
350
18
  0
DICTIONARY
  5
19
102
{ACAD_REACTORS
330
C
102
}
330
C
100
AcDbDictionary
281
     1
  0
ACDBDICTIONARYWDFLT
  5
E
102
{ACAD_REACTORS
330
C
102
}
330
C
100
AcDbDictionary
281
     1
  3
Normal
350
F
100
AcDbDictionaryWithDefault
340
F
  0
DICTIONARY
  5
3DD
102
{ACAD_REACTORS
330
C
102
}
330
C
100
AcDbDictionary
281
     1
  0
DICTIONARY
  5
2A
102
{ACAD_REACTORS
330
C
102
}
330
C
100
AcDbDictionary
281
     1
  3
2dWireframe
350
2F
  3
3D Hidden
350
31
  3
3dWireframe
350
30
  3
Basic
350
32
  3
Brighten
350
36
  3
ColorChange
350
3A
  3
Conceptual
350
34
  3
Dim
350
35
  3
Facepattern
350
39
  3
Flat
350
2B
  3
FlatWithEdges
350
2C
  3
Gouraud
350
2D
  3
GouraudWithEdges
350
2E
  3
Linepattern
350
38
  3
Realistic
350
33
  3
Thicken
350
37
  0
LAYOUT
  5
1E
102
{ACAD_REACTORS
330
1A
102
}
330
1A
100
AcDbPlotSettings
  1

  2
none_device
  4

  6

 40
0.0
 41
0.0
 42
0.0
 43
0.0
 44
0.0
 45
0.0
 46
0.0
 47
0.0
 48
0.0
 49
0.0
140
0.0
141
0.0
142
1.0
143
1.0
 70
   688
 72
     0
 73
     0
 74
     5
  7

 75
    16
 76
     0
 77
     5
 78
   300
147
1.0
148
0.0
149
0.0
100
AcDbLayout
  1
Layout1
 70
     1
 71
     1
 10
0.0
 20
0.0
 11
420.0
 21
297.0
 12
0.0
 22
0.0
 32
0.0
 14
1.000000000000000E+20
 24
1.000000000000000E+20
 34
1.000000000000000E+20
 15
-1.000000000000000E+20
 25
-1.000000000000000E+20
 35
-1.000000000000000E+20
146
0.0
 13
0.0
 23
0.0
 33
0.0
 16
1.0
 26
0.0
 36
0.0
 17
0.0
 27
1.0
 37
0.0
 76
     0
330
1B
  0
LAYOUT
  5
26
102
{ACAD_REACTORS
330
1A
102
}
330
1A
100
AcDbPlotSettings
  1

  2
none_device
  4

  6

 40
0.0
 41
0.0
 42
0.0
 43
0.0
 44
0.0
 45
0.0
 46
0.0
 47
0.0
 48
0.0
 49
0.0
140
0.0
141
0.0
142
1.0
143
1.0
 70
   688
 72
     0
 73
     0
 74
     5
  7

 75
    16
 76
     0
 77
     5
 78
   300
147
1.0
148
0.0
149
0.0
100
AcDbLayout
  1
Layout2
 70
     1
 71
     2
 10
0.0
 20
0.0
 11
0.0
 21
0.0
 12
0.0
 22
0.0
 32
0.0
 14
0.0
 24
0.0
 34
0.0
 15
0.0
 25
0.0
 35
0.0
146
0.0
 13
0.0
 23
0.0
 33
0.0
 16
1.0
 26
0.0
 36
0.0
 17
0.0
 27
1.0
 37
0.0
 76
     0
330
23
  0
LAYOUT
  5
22
102
{ACAD_REACTORS
330
1A
102
}
330
1A
100
AcDbPlotSettings
  1

  2
none_device
  4

  6

 40
0.0
 41
0.0
 42
0.0
 43
0.0
 44
0.0
 45
0.0
 46
0.0
 47
0.0
 48
0.0
 49
0.0
140
0.0
141
0.0
142
1.0
143
1.0
 70
  1712
 72
     0
 73
     0
 74
     0
  7

 75
     0
 76
     0
 77
     5
 78
   300
147
1.0
148
0.0
149
0.0
100
AcDbLayout
  1
Model
 70
     1
 71
     0
 10
-4455.0
 20
-3150.0
 11
4455.0
 21
3150.0
 12
0.0
 22
0.0
 32
0.0
 14
-4455.0
 24
-3150.0
 34
0.0
 15
4455.0
 25
3150.0
 35
0.0
146
0.0
 13
0.0
 23
0.0
 33
0.0
 16
1.0
 26
0.0
 36
0.0
 17
0.0
 27
1.0
 37
0.0
 76
     0
330
1F
331
29
  0
MATERIAL
  5
3D
102
{ACAD_REACTORS
330
3B
102
}
330
3B
100
AcDbMaterial
  1
ByBlock
 72
     1
 94
      127
  0
MATERIAL
  5
3C
102
{ACAD_REACTORS
330
3B
102
}
330
3B
100
AcDbMaterial
  1
ByLayer
 72
     1
 94
      127
  0
MATERIAL
  5
3E
102
{ACAD_REACTORS
330
3B
102
}
330
3B
100
AcDbMaterial
  1
Global
 72
     1
 94
      127
  0
MLINESTYLE
  5
18
102
{ACAD_REACTORS
330
17
102
}
330
17
100
AcDbMlineStyle
  2
Standard
 70
     0
  3

 62
   256
 51
90.0
 52
90.0
 71
     2
 49
0.5
 62
   256
  6
BYLAYER
 49
-0.5
 62
   256
  6
BYLAYER
  0
ACDBPLACEHOLDER
  5
F
102
{ACAD_REACTORS
330
E
102
}
330
E
  0
VISUALSTYLE
  5
2F
102
{ACAD_REACTORS
330
2A
102
}
330
2A
100
AcDbVisualStyle
  2
2dWireframe
 70
     4
177
     2
291
     0
 71
     0
176
     1
 72
     2
176
     1
 73
     0
176
     1
 90
        0
176
     1
 40
-0.6
176
     1
 41
-30.0
176
     1
 62
     5
 63
     7
421
 16777215
176
     1
 74
     1
176
     1
 91
        4
176
     1
 64
     7
176
     1
 65
   257
176
     1
 75
     1
176
     1
175
     1
176
     1
 42
1.0
176
     1
 92
        0
176
     1
 66
   257
176
     1
 43
1.0
176
     1
 76
     1
176
     1
 77
     6
176
     1
 78
     2
176
     1
 67
     7
176
     1
 79
     5
176
     1
170
     0
176
     1
171
     0
176
     1
290
     0
176
     1
 93
        1
176
     1
 44
0.0
176
     1
173
     0
176
     1
  0
VISUALSTYLE
  5
31
102
{ACAD_REACTORS
330
2A
102
}
330
2A
100
AcDbVisualStyle
  2
3D Hidden
 70
     6
177
     2
291
     0
 71
     1
176
     1
 72
     2
176
     1
 73
     2
176
     1
 90
        0
176
     1
 40
-0.6
176
     1
 41
-30.0
176
     1
 62
     5
 63
     7
421
 16777215
176
     1
 74
     2
176
     1
 91
        2
176
     1
 64
     7
176
     1
 65
   257
176
     1
 75
     2
176
     1
175
     1
176
     1
 42
40.0
176
     1
 92
        0
176
     1
 66
   257
176
     1
 43
1.0
176
     1
 76
     1
176
     1
 77
     6
176
     1
 78
     2
176
     1
 67
     7
176
     1
 79
     3
176
     1
170
     0
176
     1
171
     0
176
     1
290
     0
176
     1
 93
        1
176
     1
 44
0.0
176
     1
173
     0
176
     1
  0
VISUALSTYLE
  5
30
102
{ACAD_REACTORS
330
2A
102
}
330
2A
100
AcDbVisualStyle
  2
3dWireframe
 70
     5
177
     2
291
     0
 71
     0
176
     1
 72
     2
176
     1
 73
     0
176
     1
 90
        0
176
     1
 40
-0.6
176
     1
 41
-30.0
176
     1
 62
     5
 63
     7
421
 16777215
176
     1
 74
     1
176
     1
 91
        4
176
     1
 64
     7
176
     1
 65
   257
176
     1
 75
     1
176
     1
175
     1
176
     1
 42
1.0
176
     1
 92
        0
176
     1
 66
   257
176
     1
 43
1.0
176
     1
 76
     1
176
     1
 77
     6
176
     1
 78
     2
176
     1
 67
     7
176
     1
 79
     5
176
     1
170
     0
176
     1
171
     0
176
     1
290
     0
176
     1
 93
        1
176
     1
 44
0.0
176
     1
173
     0
176
     1
  0
VISUALSTYLE
  5
32
102
{ACAD_REACTORS
330
2A
102
}
330
2A
100
AcDbVisualStyle
  2
Basic
 70
     7
177
     2
291
     1
 71
     1
176
     1
 72
     0
176
     1
 73
     1
176
     1
 90
        0
176
     1
 40
-0.6
176
     1
 41
-30.0
176
     1
 62
     5
 63
     7
421
 16777215
176
     1
 74
     0
176
     1
 91
        4
176
     1
 64
     7
176
     1
 65
   257
176
     1
 75
     1
176
     1
175
     1
176
     1
 42
1.0
176
     1
 92
        8
176
     1
 66
     7
176
     1
 43
1.0
176
     1
 76
     1
176
     1
 77
     6
176
     1
 78
     2
176
     1
 67
     7
176
     1
 79
     5
176
     1
170
     0
176
     1
171
     0
176
     1
290
     0
176
     1
 93
        1
176
     1
 44
0.0
176
     1
173
     0
176
     1
  0
VISUALSTYLE
  5
36
102
{ACAD_REACTORS
330
2A
102
}
330
2A
100
AcDbVisualStyle
  2
Brighten
 70
    12
177
     2
291
     1
 71
     2
176
     1
 72
     2
176
     1
 73
     0
176
     1
 90
        0
176
     1
 40
-0.6
176
     1
 41
-30.0
176
     1
 62
     5
 63
     7
421
 16777215
176
     1
 74
     1
176
     1
 91
        4
176
     1
 64
     7
176
     1
 65
   257
176
     1
 75
     1
176
     1
175
     1
176
     1
 42
1.0
176
     1
 92
        8
176
     1
 66
     7
176
     1
 43
1.0
176
     1
 76
     1
176
     1
 77
     6
176
     1
 78
     2
176
     1
 67
     7
176
     1
 79
     5
176
     1
170
     0
176
     1
171
     0
176
     1
290
     0
176
     1
 93
        1
176
     1
 44
50.0
176
     1
173
     0
176
     1
  0
VISUALSTYLE
  5
3A
102
{ACAD_REACTORS
330
2A
102
}
330
2A
100
AcDbVisualStyle
  2
ColorChange
 70
    16
177
     2
291
     1
 71
     2
176
     1
 72
     2
176
     1
 73
     3
176
     1
 90
        0
176
     1
 40
-0.6
176
     1
 41
-30.0
176
     1
 62
     5
 63
     8
421
  8421504
176
     1
 74
     1
176
     1
 91
        4
176
     1
 64
     7
176
     1
 65
   257
176
     1
 75
     1
176
     1
175
     1
176
     1
 42
1.0
176
     1
 92
        8
176
     1
 66
     8
424
  8421504
176
     1
 43
1.0
176
     1
 76
     1
176
     1
 77
     6
176
     1
 78
     2
176
     1
 67
     7
176
     1
 79
     5
176
     1
170
     0
176
     1
171
     0
176
     1
290
     0
176
     1
 93
        1
176
     1
 44
0.0
176
     1
173
     0
176
     1
  0
VISUALSTYLE
  5
34
102
{ACAD_REACTORS
330
2A
102
}
330
2A
100
AcDbVisualStyle
  2
Conceptual
 70
     9
177
     2
291
     0
 71
     3
176
     1
 72
     2
176
     1
 73
     0
176
     1
 90
        0
176
     1
 40
-0.6
176
     1
 41
-30.0
176
     1
 62
     5
 63
     7
421
 16777215
176
     1
 74
     2
176
     1
 91
        2
176
     1
 64
     7
176
     1
 65
   257
176
     1
 75
     1
176
     1
175
     1
176
     1
 42
40.0
176
     1
 92
        8
176
     1
 66
     7
176
     1
 43
1.0
176
     1
 76
     1
176
     1
 77
     6
176
     1
 78
     2
176
     1
 67
     7
176
     1
 79
     3
176
     1
170
     0
176
     1
171
     0
176
     1
290
     0
176
     1
 93
        1
176
     1
 44
0.0
176
     1
173
     0
176
     1
  0
VISUALSTYLE
  5
35
102
{ACAD_REACTORS
330
2A
102
}
330
2A
100
AcDbVisualStyle
  2
Dim
 70
    11
177
     2
291
     1
 71
     2
176
     1
 72
     2
176
     1
 73
     0
176
     1
 90
        0
176
     1
 40
-0.6
176
     1
 41
-30.0
176
     1
 62
     5
 63
     7
421
 16777215
176
     1
 74
     1
176
     1
 91
        4
176
     1
 64
     7
176
     1
 65
   257
176
     1
 75
     1
176
     1
175
     1
176
     1
 42
1.0
176
     1
 92
        8
176
     1
 66
     7
176
     1
 43
1.0
176
     1
 76
     1
176
     1
 77
     6
176
     1
 78
     2
176
     1
 67
     7
176
     1
 79
     5
176
     1
170
     0
176
     1
171
     0
176
     1
290
     0
176
     1
 93
        1
176
     1
 44
-50.0
176
     1
173
     0
176
     1
  0
VISUALSTYLE
  5
39
102
{ACAD_REACTORS
330
2A
102
}
330
2A
100
AcDbVisualStyle
  2
Facepattern
 70
    15
177
     2
291
     1
 71
     2
176
     1
 72
     2
176
     1
 73
     0
176
     1
 90
        0
176
     1
 40
-0.6
176
     1
 41
-30.0
176
     1
 62
     5
 63
     7
421
 16777215
176
     1
 74
     1
176
     1
 91
        4
176
     1
 64
     7
176
     1
 65
   257
176
     1
 75
     1
176
     1
175
     1
176
     1
 42
1.0
176
     1
 92
        8
176
     1
 66
     7
176
     1
 43
1.0
176
     1
 76
     1
176
     1
 77
     6
176
     1
 78
     2
176
     1
 67
     7
176
     1
 79
     5
176
     1
170
     0
176
     1
171
     0
176
     1
290
     0
176
     1
 93
        1
176
     1
 44
0.0
176
     1
173
     0
176
     1
  0
VISUALSTYLE
  5
2B
102
{ACAD_REACTORS
330
2A
102
}
330
2A
100
AcDbVisualStyle
  2
Flat
 70
     0
177
     2
291
     1
 71
     2
176
     1
 72
     1
176
     1
 73
     1
176
     1
 90
        2
176
     1
 40
-0.6
176
     1
 41
30.0
176
     1
 62
     5
 63
     7
421
 16777215
176
     1
 74
     0
176
     1
 91
        4
176
     1
 64
     7
176
     1
 65
   257
176
     1
 75
     1
176
     1
175
     1
176
     1
 42
1.0
176
     1
 92
        8
176
     1
 66
     7
176
     1
 43
1.0
176
     1
 76
     1
176
     1
 77
     6
176
     1
 78
     2
176
     1
 67
     7
176
     1
 79
     5
176
     1
170
     0
176
     1
171
     0
176
     1
290
     0
176
     1
 93
       13
176
     1
 44
0.0
176
     1
173
     0
176
     1
  0
VISUALSTYLE
  5
2C
102
{ACAD_REACTORS
330
2A
102
}
330
2A
100
AcDbVisualStyle
  2
FlatWithEdges
 70
     1
177
     2
291
     1
 71
     2
176
     1
 72
     1
176
     1
 73
     1
176
     1
 90
        2
176
     1
 40
-0.6
176
     1
 41
30.0
176
     1
 62
     5
 63
     7
421
 16777215
176
     1
 74
     1
176
     1
 91
        4
176
     1
 64
     7
176
     1
 65
   257
176
     1
 75
     1
176
     1
175
     1
176
     1
 42
1.0
176
     1
 92
        0
176
     1
 66
   257
176
     1
 43
1.0
176
     1
 76
     1
176
     1
 77
     6
176
     1
 78
     2
176
     1
 67
     7
176
     1
 79
     5
176
     1
170
     0
176
     1
171
     0
176
     1
290
     0
176
     1
 93
       13
176
     1
 44
0.0
176
     1
173
     0
176
     1
  0
VISUALSTYLE
  5
2D
102
{ACAD_REACTORS
330
2A
102
}
330
2A
100
AcDbVisualStyle
  2
Gouraud
 70
     2
177
     2
291
     1
 71
     2
176
     1
 72
     2
176
     1
 73
     1
176
     1
 90
        2
176
     1
 40
-0.6
176
     1
 41
30.0
176
     1
 62
     5
 63
     7
421
 16777215
176
     1
 74
     0
176
     1
 91
        4
176
     1
 64
     7
176
     1
 65
   257
176
     1
 75
     1
176
     1
175
     1
176
     1
 42
1.0
176
     1
 92
        0
176
     1
 66
     7
176
     1
 43
1.0
176
     1
 76
     1
176
     1
 77
     6
176
     1
 78
     2
176
     1
 67
     7
176
     1
 79
     5
176
     1
170
     0
176
     1
171
     0
176
     1
290
     0
176
     1
 93
       13
176
     1
 44
0.0
176
     1
173
     0
176
     1
  0
VISUALSTYLE
  5
2E
102
{ACAD_REACTORS
330
2A
102
}
330
2A
100
AcDbVisualStyle
  2
GouraudWithEdges
 70
     3
177
     2
291
     1
 71
     2
176
     1
 72
     2
176
     1
 73
     1
176
     1
 90
        2
176
     1
 40
-0.6
176
     1
 41
30.0
176
     1
 62
     5
 63
     7
421
 16777215
176
     1
 74
     1
176
     1
 91
        4
176
     1
 64
     7
176
     1
 65
   257
176
     1
 75
     1
176
     1
175
     1
176
     1
 42
1.0
176
     1
 92
        0
176
     1
 66
   257
176
     1
 43
1.0
176
     1
 76
     1
176
     1
 77
     6
176
     1
 78
     2
176
     1
 67
     7
176
     1
 79
     5
176
     1
170
     0
176
     1
171
     0
176
     1
290
     0
176
     1
 93
       13
176
     1
 44
0.0
176
     1
173
     0
176
     1
  0
VISUALSTYLE
  5
38
102
{ACAD_REACTORS
330
2A
102
}
330
2A
100
AcDbVisualStyle
  2
Linepattern
 70
    14
177
     2
291
     1
 71
     2
176
     1
 72
     2
176
     1
 73
     0
176
     1
 90
        0
176
     1
 40
-0.6
176
     1
 41
-30.0
176
     1
 62
     5
 63
     7
421
 16777215
176
     1
 74
     1
176
     1
 91
        4
176
     1
 64
     7
176
     1
 65
   257
176
     1
 75
     7
176
     1
175
     7
176
     1
 42
1.0
176
     1
 92
        8
176
     1
 66
     7
176
     1
 43
1.0
176
     1
 76
     1
176
     1
 77
     6
176
     1
 78
     2
176
     1
 67
     7
176
     1
 79
     5
176
     1
170
     0
176
     1
171
     0
176
     1
290
     0
176
     1
 93
        1
176
     1
 44
0.0
176
     1
173
     0
176
     1
  0
VISUALSTYLE
  5
33
102
{ACAD_REACTORS
330
2A
102
}
330
2A
100
AcDbVisualStyle
  2
Realistic
 70
     8
177
     2
291
     0
 71
     2
176
     1
 72
     2
176
     1
 73
     0
176
     1
 90
        0
176
     1
 40
-0.6
176
     1
 41
-30.0
176
     1
 62
     5
 63
     7
421
 16777215
176
     1
 74
     1
176
     1
 91
        0
176
     1
 64
     7
176
     1
 65
   257
176
     1
 75
     1
176
     1
175
     1
176
     1
 42
1.0
176
     1
 92
        8
176
     1
 66
     8
424
  7895160
176
     1
 43
1.0
176
     1
 76
     1
176
     1
 77
     6
176
     1
 78
     2
176
     1
 67
     7
176
     1
 79
     5
176
     1
170
     0
176
     1
171
     0
176
     1
290
     0
176
     1
 93
       13
176
     1
 44
0.0
176
     1
173
     0
176
     1
  0
VISUALSTYLE
  5
37
102
{ACAD_REACTORS
330
2A
102
}
330
2A
100
AcDbVisualStyle
  2
Thicken
 70
    13
177
     2
291
     1
 71
     2
176
     1
 72
     2
176
     1
 73
     0
176
     1
 90
        0
176
     1
 40
-0.6
176
     1
 41
-30.0
176
     1
 62
     5
 63
     7
421
 16777215
176
     1
 74
     1
176
     1
 91
        4
176
     1
 64
     7
176
     1
 65
   257
176
     1
 75
     1
176
     1
175
     1
176
     1
 42
1.0
176
     1
 92
       12
176
     1
 66
     7
176
     1
 43
1.0
176
     1
 76
     1
176
     1
 77
     6
176
     1
 78
     2
176
     1
 67
     7
176
     1
 79
     5
176
     1
170
     0
176
     1
171
     0
176
     1
290
     0
176
     1
 93
        1
176
     1
 44
0.0
176
     1
173
     0
176
     1
  0
ENDSEC
  0
EOF
