  0
SECTION
  2
HEADER
  9
$ACADVER
  1
AC1024
  9
$ACADMAINTVER
 70
     6
  9
$DWGCODEPAGE
  3
ANSI_932
  9
$INSBASE
 10
0.0
 20
0.0
 30
0.0
  9
$EXTMIN
 10
-4455.0
 20
-3150.0
 30
0.0
  9
$EXTMAX
 10
4455.0
 20
3150.0
 30
0.0
  9
$LIMMIN
 10
-4455.0
 20
-3150.0
  9
$LIMMAX
 10
4455.0
 20
3150.0
  9
$ORTHOMODE
 70
     0
  9
$REGENMODE
 70
     1
  9
$FILLMODE
 70
     1
  9
$QTEXTMODE
 70
     0
  9
$MIRRTEXT
 70
     1
  9
$LTSCALE
 40
30.0
  9
$ATTMODE
 70
     1
  9
$TEXTSIZE
 40
2.5
  9
$TRACEWID
 40
1.0
  9
$TEXTSTYLE
  7
Standard
  9
$CLAYER
  8
0
  9
$CELTYPE
  6
ByLayer
  9
$CECOLOR
 62
   256
  9
$CELTSCALE
 40
1.0
  9
$DISPSILH
 70
     0
  9
$DIMSCALE
 40
1.0
  9
$DIMASZ
 40
2.5
  9
$DIMEXO
 40
0.625
  9
$DIMDLI
 40
3.75
  9
$DIMRND
 40
0.0
  9
$DIMDLE
 40
0.0
  9
$DIMEXE
 40
1.25
  9
$DIMTP
 40
0.0
  9
$DIMTM
 40
0.0
  9
$DIMTXT
 40
2.5
  9
$DIMCEN
 40
2.5
  9
$DIMTSZ
 40
0.0
  9
$DIMTOL
 70
     0
  9
$DIMLIM
 70
     0
  9
$DIMTIH
 70
     0
  9
$DIMTOH
 70
     0
  9
$DIMSE1
 70
     0
  9
$DIMSE2
 70
     0
  9
$DIMTAD
 70
     1
  9
$DIMZIN
 70
     8
  9
$DIMBLK
  1

  9
$DIMASO
 70
     1
  9
$DIMSHO
 70
     1
  9
$DIMPOST
  1

  9
$DIMAPOST
  1

  9
$DIMALT
 70
     0
  9
$DIMALTD
 70
     3
  9
$DIMALTF
 40
0.03937007874016
  9
$DIMLFAC
 40
1.0
  9
$DIMTOFL
 70
     1
  9
$DIMTVP
 40
0.0
  9
$DIMTIX
 70
     0
  9
$DIMSOXD
 70
     0
  9
$DIMSAH
 70
     0
  9
$DIMBLK1
  1

  9
$DIMBLK2
  1

  9
$DIMSTYLE
  2
ISO-25
  9
$DIMCLRD
 70
     0
  9
$DIMCLRE
 70
     0
  9
$DIMCLRT
 70
     0
  9
$DIMTFAC
 40
1.0
  9
$DIMGAP
 40
0.625
  9
$DIMJUST
 70
     0
  9
$DIMSD1
 70
     0
  9
$DIMSD2
 70
     0
  9
$DIMTOLJ
 70
     0
  9
$DIMTZIN
 70
     8
  9
$DIMALTZ
 70
     0
  9
$DIMALTTZ
 70
     0
  9
$DIMUPT
 70
     0
  9
$DIMDEC
 70
     2
  9
$DIMTDEC
 70
     2
  9
$DIMALTU
 70
     2
  9
$DIMALTTD
 70
     3
  9
$DIMTXSTY
  7
Standard
  9
$DIMAUNIT
 70
     0
  9
$DIMADEC
 70
     0
  9
$DIMALTRND
 40
0.0
  9
$DIMAZIN
 70
     0
  9
$DIMDSEP
 70
    44
  9
$DIMATFIT
 70
     3
  9
$DIMFRAC
 70
     0
  9
$DIMLDRBLK
  1

  9
$DIMLUNIT
 70
     2
  9
$DIMLWD
 70
    -2
  9
$DIMLWE
 70
    -2
  9
$DIMTMOVE
 70
     0
  9
$DIMFXL
 40
1.0
  9
$DIMFXLON
 70
     0
  9
$DIMJOGANG
 40
0.7853981633974483
  9
$DIMTFILL
 70
     0
  9
$DIMTFILLCLR
 70
     0
  9
$DIMARCSYM
 70
     0
  9
$DIMLTYPE
  6

  9
$DIMLTEX1
  6

  9
$DIMLTEX2
  6

  9
$DIMTXTDIRECTION
 70
     0
  9
$LUNITS
 70
     2
  9
$LUPREC
 70
     4
  9
$SKETCHINC
 40
1.0
  9
$FILLETRAD
 40
10.0
  9
$AUNITS
 70
     0
  9
$AUPREC
 70
     0
  9
$MENU
  1
.
  9
$ELEVATION
 40
0.0
  9
$PELEVATION
 40
0.0
  9
$THICKNESS
 40
0.0
  9
$LIMCHECK
 70
     0
  9
$CHAMFERA
 40
10.0
  9
$CHAMFERB
 40
10.0
  9
$CHAMFERC
 40
20.0
  9
$CHAMFERD
 40
0.0
  9
$SKPOLY
 70
     0
  9
$TDCREATE
 40
2457953.400910255
  9
$TDUCREATE
 40
2457953.025910255
  9
$TDUPDATE
 40
2457953.400910266
  9
$TDUUPDATE
 40
2457953.025910266
  9
$TDINDWG
 40
0.0000000116
  9
$TDUSRTIMER
 40
0.0000000116
  9
$USRTIMER
 70
     1
  9
$ANGBASE
 50
0.0
  9
$ANGDIR
 70
     0
  9
$PDMODE
 70
     0
  9
$PDSIZE
 40
0.0
  9
$PLINEWID
 40
0.0
  9
$SPLFRAME
 70
     0
  9
$SPLINETYPE
 70
     6
  9
$SPLINESEGS
 70
     8
  9
$HANDSEED
  5
34E
  9
$SURFTAB1
 70
     6
  9
$SURFTAB2
 70
     6
  9
$SURFTYPE
 70
     6
  9
$SURFU
 70
     6
  9
$SURFV
 70
     6
  9
$UCSBASE
  2

  9
$UCSNAME
  2

  9
$UCSORG
 10
0.0
 20
0.0
 30
0.0
  9
$UCSXDIR
 10
1.0
 20
0.0
 30
0.0
  9
$UCSYDIR
 10
0.0
 20
1.0
 30
0.0
  9
$UCSORTHOREF
  2

  9
$UCSORTHOVIEW
 70
     0
  9
$UCSORGTOP
 10
0.0
 20
0.0
 30
0.0
  9
$UCSORGBOTTOM
 10
0.0
 20
0.0
 30
0.0
  9
$UCSORGLEFT
 10
0.0
 20
0.0
 30
0.0
  9
$UCSORGRIGHT
 10
0.0
 20
0.0
 30
0.0
  9
$UCSORGFRONT
 10
0.0
 20
0.0
 30
0.0
  9
$UCSORGBACK
 10
0.0
 20
0.0
 30
0.0
  9
$PUCSBASE
  2

  9
$PUCSNAME
  2

  9
$PUCSORG
 10
0.0
 20
0.0
 30
0.0
  9
$PUCSXDIR
 10
1.0
 20
0.0
 30
0.0
  9
$PUCSYDIR
 10
0.0
 20
1.0
 30
0.0
  9
$PUCSORTHOREF
  2

  9
$PUCSORTHOVIEW
 70
     0
  9
$PUCSORGTOP
 10
0.0
 20
0.0
 30
0.0
  9
$PUCSORGBOTTOM
 10
0.0
 20
0.0
 30
0.0
  9
$PUCSORGLEFT
 10
0.0
 20
0.0
 30
0.0
  9
$PUCSORGRIGHT
 10
0.0
 20
0.0
 30
0.0
  9
$PUCSORGFRONT
 10
0.0
 20
0.0
 30
0.0
  9
$PUCSORGBACK
 10
0.0
 20
0.0
 30
0.0
  9
$USERI1
 70
     0
  9
$USERI2
 70
     0
  9
$USERI3
 70
     0
  9
$USERI4
 70
     0
  9
$USERI5
 70
     0
  9
$USERR1
 40
0.0
  9
$USERR2
 40
0.0
  9
$USERR3
 40
0.0
  9
$USERR4
 40
0.0
  9
$USERR5
 40
0.0
  9
$WORLDVIEW
 70
     1
  9
$SHADEDGE
 70
     3
  9
$SHADEDIF
 70
    70
  9
$TILEMODE
 70
     1
  9
$MAXACTVP
 70
    64
  9
$PINSBASE
 10
0.0
 20
0.0
 30
0.0
  9
$PLIMCHECK
 70
     0
  9
$PEXTMIN
 10
1.000000000000000E+20
 20
1.000000000000000E+20
 30
1.000000000000000E+20
  9
$PEXTMAX
 10
-1.000000000000000E+20
 20
-1.000000000000000E+20
 30
-1.000000000000000E+20
  9
$PLIMMIN
 10
0.0
 20
0.0
  9
$PLIMMAX
 10
420.0
 20
297.0
  9
$UNITMODE
 70
     0
  9
$VISRETAIN
 70
     1
  9
$PLINEGEN
 70
     0
  9
$PSLTSCALE
 70
     1
  9
$TREEDEPTH
 70
  3020
  9
$CMLSTYLE
  2
Standard
  9
$CMLJUST
 70
     0
  9
$CMLSCALE
 40
20.0
  9
$PROXYGRAPHICS
 70
     1
  9
$MEASUREMENT
 70
     1
  9
$CELWEIGHT
370
    -1
  9
$ENDCAPS
280
     0
  9
$JOINSTYLE
280
     0
  9
$LWDISPLAY
290
     0
  9
$INSUNITS
 70
     4
  9
$HYPERLINKBASE
  1

  9
$STYLESHEET
  1

  9
$XEDIT
290
     1
  9
$CEPSNTYPE
380
     0
  9
$PSTYLEMODE
290
     1
  9
$FINGERPRINTGUID
  2
{F55DEE3E-F09C-4424-8630-2BAFA1BB0D2D}
  9
$VERSIONGUID
  2
{FAEB1C32-E019-11D5-929B-00C0DF256EC4}
  9
$EXTNAMES
290
     1
  9
$PSVPSCALE
 40
0.0
  9
$OLESTARTUP
290
     0
  9
$SORTENTS
280
   127
  9
$INDEXCTL
280
     0
  9
$HIDETEXT
280
     1
  9
$XCLIPFRAME
280
     2
  9
$HALOGAP
280
     0
  9
$OBSCOLOR
 70
   257
  9
$OBSLTYPE
280
     0
  9
$INTERSECTIONDISPLAY
280
     0
  9
$INTERSECTIONCOLOR
 70
   257
  9
$DIMASSOC
280
     2
  9
$PROJECTNAME
  1

  9
$CAMERADISPLAY
290
     0
  9
$LENSLENGTH
 40
50.0
  9
$CAMERAHEIGHT
 40
0.0
  9
$STEPSPERSEC
 40
2.0
  9
$STEPSIZE
 40
6.0
  9
$3DDWFPREC
 40
2.0
  9
$PSOLWIDTH
 40
5.0
  9
$PSOLHEIGHT
 40
80.0
  9
$LOFTANG1
 40
1.570796326794897
  9
$LOFTANG2
 40
1.570796326794897
  9
$LOFTMAG1
 40
0.0
  9
$LOFTMAG2
 40
0.0
  9
$LOFTPARAM
 70
     7
  9
$LOFTNORMALS
280
     1
  9
$LATITUDE
 40
37.795
  9
$LONGITUDE
 40
-122.394
  9
$NORTHDIRECTION
 40
0.0
  9
$TIMEZONE
 70
 -8000
  9
$LIGHTGLYPHDISPLAY
280
     1
  9
$TILEMODELIGHTSYNCH
280
     1
  9
$SOLIDHIST
280
     1
  9
$SHOWHIST
280
     1
  9
$DWFFRAME
280
     2
  9
$DGNFRAME
280
     2
  9
$REALWORLDSCALE
290
     1
  9
$INTERFERECOLOR
 62
   256
  9
$CSHADOW
280
     0
  9
$SHADOWPLANELOCATION
 40
0.0
  0
ENDSEC
  0
SECTION
  2
CLASSES
  0
CLASS
  1
ACDBDICTIONARYWDFLT
  2
AcDbDictionaryWithDefault
  3
ObjectDBX Classes
 90
        0
 91
        4
280
     0
281
     0
  0
CLASS
  1
VISUALSTYLE
  2
AcDbVisualStyle
  3
ObjectDBX Classes
 90
     4095
 91
        4
280
     0
281
     0
  0
CLASS
  1
MATERIAL
  2
AcDbMaterial
  3
ObjectDBX Classes
 90
     1153
 91
        4
280
     0
281
     0
  0
ENDSEC
  0
SECTION
  2
TABLES
  0
TABLE
  2
VPORT
  5
8
330
0
100
AcDbSymbolTable
 70
     1
  0
VPORT
  5
29
330
8
100
AcDbSymbolTableRecord
100
AcDbViewportTableRecord
  2
*Active
 70
     0
 10
0.0
 20
0.0
 11
1.0
 21
1.0
 12
0.0
 22
0.0
 13
0.0
 23
0.0
 14
10.0
 24
10.0
 15
10.0
 25
10.0
 16
0.0
 26
0.0
 36
1.0
 17
0.0
 27
0.0
 37
0.0
 40
6930.000000000001
 41
1.414285714285714
 42
50.0
 43
0.0
 44
0.0
 50
0.0
 51
0.0
 71
     0
 72
 10000
 73
     1
 74
     3
 75
     0
 76
     0
 77
     0
 78
     0
281
     0
 65
     1
110
0.0
120
0.0
130
0.0
111
1.0
121
0.0
131
0.0
112
0.0
122
1.0
132
0.0
 79
     0
146
0.0
 60
     3
 61
     5
292
     1
282
     1
141
0.0
142
0.0
 63
   250
  0
ENDTAB
  0
TABLE
  2
LTYPE
  5
5
330
0
100
AcDbSymbolTable
 70
     2
  0
LTYPE
  5
14
330
5
100
AcDbSymbolTableRecord
100
AcDbLinetypeTableRecord
  2
ByBlock
 70
     0
  3

 72
    65
 73
     0
 40
0.0
  0
LTYPE
  5
15
330
5
100
AcDbSymbolTableRecord
100
AcDbLinetypeTableRecord
  2
ByLayer
 70
     0
  3

 72
    65
 73
     0
 40
0.0
  0
LTYPE
  5
16
330
5
100
AcDbSymbolTableRecord
100
AcDbLinetypeTableRecord
  2
Continuous
 70
     0
  3
Solid line
 72
    65
 73
     0
 40
0.0
  0
LTYPE
  5
3F
330
5
100
AcDbSymbolTableRecord
100
AcDbLinetypeTableRecord
  2
JWW_DASHED1
 70
     0
  3
-  --  --  --  --  --  --  --  -
 72
    65
 73
     2
 40
1.693333333333333
 49
0.8466666666666667
 74
     0
 49
-0.8466666666666667
 74
     0
  0
ENDTAB
  0
TABLE
  2
LAYER
  5
2
330
0
100
AcDbSymbolTable
 70
     4
  0
LAYER
  5
10
330
2
100
AcDbSymbolTableRecord
100
AcDbLayerTableRecord
  2
0
 70
     0
 62
     7
  6
Continuous
370
    -3
390
F
347
3E
  0
LAYER
  5
40
330
2
100
AcDbSymbolTableRecord
100
AcDbLayerTableRecord
  2
0-0
 70
     0
 62
     7
  6
Continuous
370
    -3
390
F
347
3E
  0
LAYER
  5
41
330
2
100
AcDbSymbolTableRecord
100
AcDbLayerTableRecord
  2
文字
 70
     0
 62
     7
  6
Continuous
370
    -3
390
F
347
3E
  0
LAYER
  5
42
330
2
100
AcDbSymbolTableRecord
100
AcDbLayerTableRecord
  2
寸法
 70
     0
 62
     7
  6
Continuous
370
    -3
390
F
347
3E
  0
ENDTAB
  0
TABLE
  2
STYLE
  5
3
330
0
100
AcDbSymbolTable
 70
     1
  0
STYLE
  5
11
330
3
100
AcDbSymbolTableRecord
100
AcDbTextStyleTableRecord
  2
Standard
 70
     0
 40
0.0
 41
1.0
 50
0.0
 71
     0
 42
2.5
  3
txt
  4

  0
ENDTAB
  0
TABLE
  2
VIEW
  5
6
330
0
100
AcDbSymbolTable
 70
     0
  0
ENDTAB
  0
TABLE
  2
UCS
  5
7
330
0
100
AcDbSymbolTable
 70
     0
  0
ENDTAB
  0
TABLE
  2
APPID
  5
9
330
0
100
AcDbSymbolTable
 70
     1
  0
APPID
  5
12
330
9
100
AcDbSymbolTableRecord
100
AcDbRegAppTableRecord
  2
ACAD
 70
     0
  0
ENDTAB
  0
TABLE
  2
DIMSTYLE
  5
A
330
0
100
AcDbSymbolTable
 70
     1
100
AcDbDimStyleTable
  0
DIMSTYLE
105
27
330
A
100
AcDbSymbolTableRecord
100
AcDbDimStyleTableRecord
  2
ISO-25
 70
     0
 41
2.5
 42
0.625
 43
3.75
 44
1.25
 73
     0
 74
     0
 77
     1
 78
     8
140
2.5
141
2.5
143
0.03937007874016
147
0.625
171
     3
172
     1
178
     0
271
     2
272
     2
274
     3
278
    44
283
     0
284
     8
340
11
  0
ENDTAB
  0
TABLE
  2
BLOCK_RECORD
  5
1
330
0
100
AcDbSymbolTable
 70
     1
  0
BLOCK_RECORD
  5
1F
330
1
100
AcDbSymbolTableRecord
100
AcDbBlockTableRecord
  2
*Model_Space
340
22
 70
     0
280
     1
281
     0
  0
BLOCK_RECORD
  5
1B
330
1
100
AcDbSymbolTableRecord
100
AcDbBlockTableRecord
  2
*Paper_Space
340
1E
 70
     0
280
     1
281
     0
  0
BLOCK_RECORD
  5
23
330
1
100
AcDbSymbolTableRecord
100
AcDbBlockTableRecord
  2
*Paper_Space0
340
26
 70
     0
280
     1
281
     0
  0
ENDTAB
  0
ENDSEC
  0
SECTION
  2
BLOCKS
  0
BLOCK
  5
20
330
1F
100
AcDbEntity
  8
0
100
AcDbBlockBegin
  2
*Model_Space
 70
     0
 10
0.0
 20
0.0
 30
0.0
  3
*Model_Space
  1

  0
ENDBLK
  5
21
330
1F
100
AcDbEntity
  8
0
100
AcDbBlockEnd
  0
BLOCK
  5
1C
330
1B
100
AcDbEntity
 67
     1
  8
0
100
AcDbBlockBegin
  2
*Paper_Space
 70
     0
 10
0.0
 20
0.0
 30
0.0
  3
*Paper_Space
  1

  0
ENDBLK
  5
1D
330
1B
100
AcDbEntity
 67
     1
  8
0
100
AcDbBlockEnd
  0
BLOCK
  5
24
330
23
100
AcDbEntity
  8
0
100
AcDbBlockBegin
  2
*Paper_Space0
 70
     0
 10
0.0
 20
0.0
 30
0.0
  3
*Paper_Space0
  1

  0
ENDBLK
  5
25
330
23
100
AcDbEntity
  8
0
100
AcDbBlockEnd
  0
ENDSEC
  0
SECTION
  2
ENTITIES
  0
LINE
  5
43
330
1F
100
AcDbEntity
  8
0-0
  6
Continuous
 62
    92
370
    13
100
AcDbLine
 10
2261.570112246592
 20
-1072.78990026678
 30
0.0
 11
-945.4298877534086
 21
-1072.78990026678
 31
0.0
  0
LINE
  5
44
330
1F
100
AcDbEntity
  8
0-0
  6
Continuous
 62
    92
370
    13
100
AcDbLine
 10
2231.570112246592
 20
-1057.78990026678
 30
0.0
 11
-915.4298877534086
 21
-1057.78990026678
 31
0.0
  0
ARC
  5
45
330
1F
100
AcDbEntity
  8
0-0
  6
Continuous
 62
    92
370
    13
100
AcDbCircle
 10
-886.9298877534072
 20
-35.78990026678049
 30
0.0
 40
1.5
100
AcDbArc
 50
90.0
 51
180.0
  0
LINE
  5
46
330
1F
100
AcDbEntity
  8
0-0
  6
Continuous
 62
    92
370
    13
100
AcDbLine
 10
-847.9298877534086
 20
-34.28990026678058
 30
0.0
 11
-886.9298877534072
 21
-34.28990026678058
 31
0.0
  0
ARC
  5
47
330
1F
100
AcDbEntity
  8
0-0
  6
Continuous
 62
    92
370
    13
100
AcDbCircle
 10
-847.9298877534086
 20
-35.78990026678049
 30
0.0
 40
1.5
100
AcDbArc
 50
0.0
 51
90.00000000000001
  0
LINE
  5
48
330
1F
100
AcDbEntity
  8
0-0
  6
Continuous
 62
    92
370
    13
100
AcDbLine
 10
-846.4298877534083
 20
-154.789900266781
 30
0.0
 11
-846.4298877534083
 21
-35.78990026678049
 31
0.0
  0
ARC
  5
49
330
1F
100
AcDbEntity
  8
0-0
  6
Continuous
 62
    92
370
    13
100
AcDbCircle
 10
-847.9298877534086
 20
-154.789900266781
 30
0.0
 40
1.5
100
AcDbArc
 50
270.0
 51
0.0
  0
LINE
  5
4A
330
1F
100
AcDbEntity
  8
0-0
  6
Continuous
 62
    92
370
    13
100
AcDbLine
 10
-886.9298877534072
 20
-156.2899002667805
 30
0.0
 11
-847.9298877534086
 21
-156.2899002667805
 31
0.0
  0
LINE
  5
4B
330
1F
100
AcDbEntity
  8
0-0
  6
Continuous
 62
    92
370
    13
100
AcDbLine
 10
-888.4298877534076
 20
-154.789900266781
 30
0.0
 11
-888.4298877534076
 21
-35.78990026678049
 31
0.0
  0
ARC
  5
4C
330
1F
100
AcDbEntity
  8
0-0
  6
Continuous
 62
    92
370
    13
100
AcDbCircle
 10
-886.9298877534072
 20
-154.789900266781
 30
0.0
 40
1.5
100
AcDbArc
 50
180.0
 51
270.0
  0
ARC
  5
4D
330
1F
100
AcDbEntity
  8
0-0
  6
Continuous
 62
     7
370
     9
100
AcDbCircle
 10
-867.4298877534079
 20
-124.8899002667809
 30
0.0
 40
15.0
100
AcDbArc
 50
180.0
 51
0.0
  0
ARC
  5
4E
330
1F
100
AcDbEntity
  8
0-0
  6
Continuous
 62
     7
370
     9
100
AcDbCircle
 10
-867.4298877534079
 20
-65.68990026678058
 30
0.0
 40
15.0
100
AcDbArc
 50
0.0
 51
180.0
  0
LINE
  5
4F
330
1F
100
AcDbEntity
  8
0-0
  6
Continuous
 62
     7
370
     9
100
AcDbLine
 10
-852.4298877534079
 20
-124.8899002667809
 30
0.0
 11
-852.4298877534079
 21
-65.68990026678058
 31
0.0
  0
LINE
  5
50
330
1F
100
AcDbEntity
  8
0-0
  6
Continuous
 62
     7
370
     9
100
AcDbLine
 10
-882.4298877534079
 20
-65.68990026678058
 30
0.0
 11
-882.4298877534079
 21
-124.8899002667809
 31
0.0
  0
ARC
  5
51
330
1F
100
AcDbEntity
  8
0-0
  6
Continuous
 62
    92
370
    13
100
AcDbCircle
 10
-106.9298877534072
 20
-35.78990026678049
 30
0.0
 40
1.5
100
AcDbArc
 50
90.0
 51
180.0
  0
LINE
  5
52
330
1F
100
AcDbEntity
  8
0-0
  6
Continuous
 62
    92
370
    13
100
AcDbLine
 10
-67.92988775340856
 20
-34.28990026678058
 30
0.0
 11
-106.9298877534072
 21
-34.28990026678058
 31
0.0
  0
ARC
  5
53
330
1F
100
AcDbEntity
  8
0-0
  6
Continuous
 62
    92
370
    13
100
AcDbCircle
 10
-67.92988775340856
 20
-35.78990026678049
 30
0.0
 40
1.5
100
AcDbArc
 50
0.0
 51
90.00000000000001
  0
LINE
  5
54
330
1F
100
AcDbEntity
  8
0-0
  6
Continuous
 62
    92
370
    13
100
AcDbLine
 10
-66.42988775340652
 20
-154.789900266781
 30
0.0
 11
-66.42988775340652
 21
-35.78990026678049
 31
0.0
  0
ARC
  5
55
330
1F
100
AcDbEntity
  8
0-0
  6
Continuous
 62
    92
370
    13
100
AcDbCircle
 10
-67.92988775340856
 20
-154.789900266781
 30
0.0
 40
1.5
100
AcDbArc
 50
270.0
 51
0.0
  0
LINE
  5
56
330
1F
100
AcDbEntity
  8
0-0
  6
Continuous
 62
    92
370
    13
100
AcDbLine
 10
-106.9298877534072
 20
-156.2899002667805
 30
0.0
 11
-67.92988775340856
 21
-156.2899002667805
 31
0.0
  0
LINE
  5
57
330
1F
100
AcDbEntity
  8
0-0
  6
Continuous
 62
    92
370
    13
100
AcDbLine
 10
-108.4298877534075
 20
-154.789900266781
 30
0.0
 11
-108.4298877534075
 21
-35.78990026678049
 31
0.0
  0
ARC
  5
58
330
1F
100
AcDbEntity
  8
0-0
  6
Continuous
 62
    92
370
    13
100
AcDbCircle
 10
-106.9298877534072
 20
-154.789900266781
 30
0.0
 40
1.5
100
AcDbArc
 50
180.0
 51
270.0
  0
ARC
  5
59
330
1F
100
AcDbEntity
  8
0-0
  6
Continuous
 62
     7
370
     9
100
AcDbCircle
 10
-87.42988775340788
 20
-124.8899002667809
 30
0.0
 40
15.0
100
AcDbArc
 50
180.0
 51
0.0
  0
ARC
  5
5A
330
1F
100
AcDbEntity
  8
0-0
  6
Continuous
 62
     7
370
     9
100
AcDbCircle
 10
-87.42988775340788
 20
-65.68990026678058
 30
0.0
 40
15.0
100
AcDbArc
 50
0.0
 51
180.0
  0
LINE
  5
5B
330
1F
100
AcDbEntity
  8
0-0
  6
Continuous
 62
     7
370
     9
100
AcDbLine
 10
-72.42988775340788
 20
-124.8899002667809
 30
0.0
 11
-72.42988775340788
 21
-65.68990026678058
 31
0.0
  0
LINE
  5
5C
330
1F
100
AcDbEntity
  8
0-0
  6
Continuous
 62
     7
370
     9
100
AcDbLine
 10
-102.4298877534079
 20
-65.68990026678058
 30
0.0
 11
-102.4298877534079
 21
-124.8899002667809
 31
0.0
  0
ARC
  5
5D
330
1F
100
AcDbEntity
  8
0-0
  6
Continuous
 62
    92
370
    13
100
AcDbCircle
 10
673.0701122465928
 20
-35.78990026678049
 30
0.0
 40
1.5
100
AcDbArc
 50
90.0
 51
180.0
  0
LINE
  5
5E
330
1F
100
AcDbEntity
  8
0-0
  6
Continuous
 62
    92
370
    13
100
AcDbLine
 10
712.0701122465914
 20
-34.28990026678058
 30
0.0
 11
673.0701122465928
 21
-34.28990026678058
 31
0.0
  0
ARC
  5
5F
330
1F
100
AcDbEntity
  8
0-0
  6
Continuous
 62
    92
370
    13
100
AcDbCircle
 10
712.0701122465914
 20
-35.78990026678049
 30
0.0
 40
1.5
100
AcDbArc
 50
0.0
 51
90.00000000000001
  0
LINE
  5
60
330
1F
100
AcDbEntity
  8
0-0
  6
Continuous
 62
    92
370
    13
100
AcDbLine
 10
713.5701122465935
 20
-154.789900266781
 30
0.0
 11
713.5701122465935
 21
-35.78990026678049
 31
0.0
  0
ARC
  5
61
330
1F
100
AcDbEntity
  8
0-0
  6
Continuous
 62
    92
370
    13
100
AcDbCircle
 10
712.0701122465914
 20
-154.789900266781
 30
0.0
 40
1.5
100
AcDbArc
 50
270.0
 51
0.0
  0
LINE
  5
62
330
1F
100
AcDbEntity
  8
0-0
  6
Continuous
 62
    92
370
    13
100
AcDbLine
 10
673.0701122465928
 20
-156.2899002667805
 30
0.0
 11
712.0701122465914
 21
-156.2899002667805
 31
0.0
  0
LINE
  5
63
330
1F
100
AcDbEntity
  8
0-0
  6
Continuous
 62
    92
370
    13
100
AcDbLine
 10
671.5701122465924
 20
-154.789900266781
 30
0.0
 11
671.5701122465924
 21
-35.78990026678049
 31
0.0
  0
ARC
  5
64
330
1F
100
AcDbEntity
  8
0-0
  6
Continuous
 62
    92
370
    13
100
AcDbCircle
 10
673.0701122465928
 20
-154.789900266781
 30
0.0
 40
1.5
100
AcDbArc
 50
180.0
 51
270.0
  0
ARC
  5
65
330
1F
100
AcDbEntity
  8
0-0
  6
Continuous
 62
     7
370
     9
100
AcDbCircle
 10
692.5701122465921
 20
-124.8899002667809
 30
0.0
 40
15.0
100
AcDbArc
 50
180.0
 51
0.0
  0
ARC
  5
66
330
1F
100
AcDbEntity
  8
0-0
  6
Continuous
 62
     7
370
     9
100
AcDbCircle
 10
692.5701122465921
 20
-65.68990026678058
 30
0.0
 40
15.0
100
AcDbArc
 50
0.0
 51
180.0
  0
LINE
  5
67
330
1F
100
AcDbEntity
  8
0-0
  6
Continuous
 62
     7
370
     9
100
AcDbLine
 10
707.5701122465921
 20
-124.8899002667809
 30
0.0
 11
707.5701122465921
 21
-65.68990026678058
 31
0.0
  0
LINE
  5
68
330
1F
100
AcDbEntity
  8
0-0
  6
Continuous
 62
     7
370
     9
100
AcDbLine
 10
677.5701122465921
 20
-65.68990026678058
 30
0.0
 11
677.5701122465921
 21
-124.8899002667809
 31
0.0
  0
LINE
  5
69
330
1F
100
AcDbEntity
  8
0-0
  6
JWW_DASHED1
 62
   120
370
     5
100
AcDbLine
 10
-915.4298877534086
 20
-1052.78990026678
 30
0.0
 11
-918.4298877534093
 21
-1052.78990026678
 31
0.0
  0
LINE
  5
6A
330
1F
100
AcDbEntity
  8
0-0
  6
Continuous
 62
    92
370
    13
100
AcDbLine
 10
-915.4298877534086
 20
-1052.78990026678
 30
0.0
 11
1451.570112246592
 21
-1052.78990026678
 31
0.0
  0
LINE
  5
6B
330
1F
100
AcDbEntity
  8
0-0
  6
Continuous
 62
    92
370
    13
100
AcDbLine
 10
-915.4298877534086
 20
1130.210099733218
 30
0.0
 11
1451.570112246592
 21
1130.210099733218
 31
0.0
  0
LINE
  5
6C
330
1F
100
AcDbEntity
  8
0-0
  6
Continuous
 62
    92
370
    13
100
AcDbLine
 10
-945.4298877534086
 20
-1072.78990026678
 30
0.0
 11
-945.4298877534086
 21
1174.210099733218
 31
0.0
  0
LINE
  5
6D
330
1F
100
AcDbEntity
  8
0-0
  6
Continuous
 62
    92
370
    13
100
AcDbLine
 10
2261.570112246592
 20
1174.210099733218
 30
0.0
 11
2261.570112246592
 21
-1072.78990026678
 31
0.0
  0
LINE
  5
6E
330
1F
100
AcDbEntity
  8
0-0
  6
JWW_DASHED1
 62
   120
370
     5
100
AcDbLine
 10
1421.570112246592
 20
-1057.78990026678
 30
0.0
 11
1421.570112246592
 21
1138.210099733218
 31
0.0
  0
LINE
  5
6F
330
1F
100
AcDbEntity
  8
0-0
  6
JWW_DASHED1
 62
   120
370
     5
100
AcDbLine
 10
1451.570112246592
 20
-1057.78990026678
 30
0.0
 11
1451.570112246592
 21
1138.210099733218
 31
0.0
  0
LINE
  5
70
330
1F
100
AcDbEntity
  8
0-0
  6
Continuous
 62
    92
370
    13
100
AcDbLine
 10
-915.4298877534086
 20
-1072.78990026678
 30
0.0
 11
-915.4298877534086
 21
1174.210099733218
 31
0.0
  0
LINE
  5
71
330
1F
100
AcDbEntity
  8
0-0
  6
Continuous
 62
    92
370
    13
100
AcDbLine
 10
2231.570112246592
 20
-1072.78990026678
 30
0.0
 11
2231.570112246592
 21
1174.210099733218
 31
0.0
  0
LINE
  5
72
330
1F
100
AcDbEntity
  8
0-0
  6
Continuous
 62
    92
370
    13
100
AcDbLine
 10
-915.4298877534086
 20
1138.210099733218
 30
0.0
 11
2231.570112246592
 21
1138.210099733218
 31
0.0
  0
LINE
  5
73
330
1F
100
AcDbEntity
  8
0-0
  6
Continuous
 62
    92
370
    13
100
AcDbLine
 10
-945.4298877534086
 20
1174.210099733218
 30
0.0
 11
2261.570112246592
 21
1174.210099733218
 31
0.0
  0
LINE
  5
74
330
1F
100
AcDbEntity
  8
0-0
  6
JWW_DASHED1
 62
   120
370
     5
100
AcDbLine
 10
-918.4298877534093
 20
-1052.78990026678
 30
0.0
 11
-918.4298877534093
 21
1130.210099733218
 31
0.0
  0
LINE
  5
75
330
1F
100
AcDbEntity
  8
0-0
  6
JWW_DASHED1
 62
   120
370
     5
100
AcDbLine
 10
-918.4298877534093
 20
1130.210099733218
 30
0.0
 11
-915.4298877534086
 21
1130.210099733218
 31
0.0
  0
LINE
  5
76
330
1F
100
AcDbEntity
  8
0-0
  6
JWW_DASHED1
 62
   120
370
     5
100
AcDbLine
 10
-108.4298877534084
 20
-1052.78990026678
 30
0.0
 11
-108.4298877534084
 21
1130.210099733218
 31
0.0
  0
LINE
  5
77
330
1F
100
AcDbEntity
  8
0-0
  6
Continuous
 62
    92
370
    13
100
AcDbLine
 10
-138.4298877534084
 20
1130.210099733218
 30
0.0
 11
-138.4298877534084
 21
-1052.78990026678
 31
0.0
  0
LINE
  5
78
330
1F
100
AcDbEntity
  8
0-0
  6
JWW_DASHED1
 62
   120
370
     5
100
AcDbLine
 10
671.5701122465916
 20
-1052.78990026678
 30
0.0
 11
671.5701122465916
 21
1130.210099733218
 31
0.0
  0
LINE
  5
79
330
1F
100
AcDbEntity
  8
0-0
  6
Continuous
 62
    92
370
    13
100
AcDbLine
 10
641.5701122465916
 20
1130.210099733218
 30
0.0
 11
641.5701122465916
 21
-1052.78990026678
 31
0.0
  0
LINE
  5
7A
330
1F
100
AcDbEntity
  8
0-0
  6
Continuous
 62
    92
370
    13
100
AcDbLine
 10
1451.570112246592
 20
1130.210099733218
 30
0.0
 11
1451.570112246592
 21
-1052.78990026678
 31
0.0
  0
LINE
  5
7B
330
1F
100
AcDbEntity
  8
0-0
  6
Continuous
 62
     7
370
     9
100
AcDbLine
 10
-728.4298877534081
 20
-1044.789900266781
 30
0.0
 11
-808.4298877534087
 21
-1044.789900266781
 31
0.0
  0
LINE
  5
7C
330
1F
100
AcDbEntity
  8
0-0
  6
Continuous
 62
     7
370
     9
100
AcDbLine
 10
51.5701122465919
 20
-1044.789900266781
 30
0.0
 11
-28.42988775340697
 21
-1044.789900266781
 31
0.0
  0
LINE
  5
7D
330
1F
100
AcDbEntity
  8
0-0
  6
Continuous
 62
     7
370
     9
100
AcDbLine
 10
831.5701122465919
 20
-1044.789900266781
 30
0.0
 11
751.570112246593
 21
-1044.789900266781
 31
0.0
  0
LINE
  5
7E
330
1F
100
AcDbEntity
  8
0-0
  6
Continuous
 62
    92
370
    13
100
AcDbLine
 10
-728.4298877534081
 20
-1052.78990026678
 30
0.0
 11
-728.4298877534081
 21
1130.210099733219
 31
0.0
  0
LINE
  5
7F
330
1F
100
AcDbEntity
  8
0-0
  6
Continuous
 62
     7
370
     9
100
AcDbLine
 10
-728.4298877534081
 20
1122.21009973322
 30
0.0
 11
-808.4298877534087
 21
1122.21009973322
 31
0.0
  0
LINE
  5
80
330
1F
100
AcDbEntity
  8
0-0
  6
Continuous
 62
    92
370
    13
100
AcDbLine
 10
-808.4298877534087
 20
-1052.78990026678
 30
0.0
 11
-808.4298877534087
 21
1130.210099733219
 31
0.0
  0
LINE
  5
81
330
1F
100
AcDbEntity
  8
0-0
  6
Continuous
 62
    92
370
    13
100
AcDbLine
 10
51.5701122465919
 20
-1052.78990026678
 30
0.0
 11
51.5701122465919
 21
1130.210099733219
 31
0.0
  0
LINE
  5
82
330
1F
100
AcDbEntity
  8
0-0
  6
Continuous
 62
     7
370
     9
100
AcDbLine
 10
51.5701122465919
 20
1122.21009973322
 30
0.0
 11
-28.42988775340697
 21
1122.21009973322
 31
0.0
  0
LINE
  5
83
330
1F
100
AcDbEntity
  8
0-0
  6
Continuous
 62
    92
370
    13
100
AcDbLine
 10
-28.42988775340697
 20
-1052.78990026678
 30
0.0
 11
-28.42988775340697
 21
1130.210099733219
 31
0.0
  0
LINE
  5
84
330
1F
100
AcDbEntity
  8
0-0
  6
Continuous
 62
    92
370
    13
100
AcDbLine
 10
831.5701122465919
 20
-1052.78990026678
 30
0.0
 11
831.5701122465919
 21
1130.210099733219
 31
0.0
  0
LINE
  5
85
330
1F
100
AcDbEntity
  8
0-0
  6
Continuous
 62
     7
370
     9
100
AcDbLine
 10
831.5701122465919
 20
1122.21009973322
 30
0.0
 11
751.570112246593
 21
1122.21009973322
 31
0.0
  0
LINE
  5
86
330
1F
100
AcDbEntity
  8
0-0
  6
Continuous
 62
    92
370
    13
100
AcDbLine
 10
751.570112246593
 20
-1052.78990026678
 30
0.0
 11
751.570112246593
 21
1130.210099733219
 31
0.0
  0
LINE
  5
87
330
1F
100
AcDbEntity
  8
0-0
  6
JWW_DASHED1
 62
   120
370
     5
100
AcDbLine
 10
-738.2774248607603
 20
-1044.789900266776
 30
0.0
 11
-728.4298877534167
 21
-1034.942363159433
 31
0.0
  0
LINE
  5
88
330
1F
100
AcDbEntity
  8
0-0
  6
JWW_DASHED1
 62
   120
370
     5
100
AcDbLine
 10
-748.1769197959238
 20
-1044.789900266778
 30
0.0
 11
-728.429887753414
 21
-1025.042868224268
 31
0.0
  0
LINE
  5
89
330
1F
100
AcDbEntity
  8
0-0
  6
JWW_DASHED1
 62
   120
370
     5
100
AcDbLine
 10
-758.076414731147
 20
-1044.789900266785
 30
0.0
 11
-728.4298877534064
 21
-1015.143373289044
 31
0.0
  0
LINE
  5
8A
330
1F
100
AcDbEntity
  8
0-0
  6
JWW_DASHED1
 62
   120
370
     5
100
AcDbLine
 10
-767.9759096663633
 20
-1044.789900266785
 30
0.0
 11
-728.429887753415
 21
-1005.243878353836
 31
0.0
  0
LINE
  5
8B
330
1F
100
AcDbEntity
  8
0-0
  6
JWW_DASHED1
 62
   120
370
     5
100
AcDbLine
 10
-777.87540460152
 20
-1044.789900266779
 30
0.0
 11
-728.4298877534115
 21
-995.344383418671
 31
0.0
  0
LINE
  5
8C
330
1F
100
AcDbEntity
  8
0-0
  6
JWW_DASHED1
 62
   120
370
     5
100
AcDbLine
 10
-787.7748995367286
 20
-1044.789900266772
 30
0.0
 11
-728.4298877534201
 21
-985.4448884834632
 31
0.0
  0
LINE
  5
8D
330
1F
100
AcDbEntity
  8
0-0
  6
JWW_DASHED1
 62
   120
370
     5
100
AcDbLine
 10
-797.6743944719664
 20
-1044.789900266793
 30
0.0
 11
-728.4298877534133
 21
-975.5453935482391
 31
0.0
  0
LINE
  5
8E
330
1F
100
AcDbEntity
  8
0-0
  6
JWW_DASHED1
 62
   120
370
     5
100
AcDbLine
 10
-807.5738894071179
 20
-1044.789900266782
 30
0.0
 11
-728.4298877534252
 21
-965.6458986130897
 31
0.0
  0
LINE
  5
8F
330
1F
100
AcDbEntity
  8
0-0
  6
JWW_DASHED1
 62
   120
370
     5
100
AcDbLine
 10
-808.4298877534155
 20
-1035.746403677864
 30
0.0
 11
-728.4298877534175
 21
-955.746403677866
 31
0.0
  0
LINE
  5
90
330
1F
100
AcDbEntity
  8
0-0
  6
JWW_DASHED1
 62
   120
370
     5
100
AcDbLine
 10
-808.4298877533934
 20
-1025.846908742625
 30
0.0
 11
-728.4298877534106
 21
-945.8469087426429
 31
0.0
  0
LINE
  5
91
330
1F
100
AcDbEntity
  8
0-0
  6
JWW_DASHED1
 62
   120
370
     5
100
AcDbLine
 10
-808.4298877534053
 20
-1015.947413807476
 30
0.0
 11
-728.4298877534235
 21
-935.9474138074935
 31
0.0
  0
LINE
  5
92
330
1F
100
AcDbEntity
  8
0-0
  6
JWW_DASHED1
 62
   120
370
     5
100
AcDbLine
 10
-808.4298877534138
 20
-1006.047918872268
 30
0.0
 11
-728.429887753415
 21
-926.0479188722691
 31
0.0
  0
LINE
  5
93
330
1F
100
AcDbEntity
  8
0-0
  6
JWW_DASHED1
 62
   120
370
     5
100
AcDbLine
 10
-808.429887753407
 20
-996.1484239370443
 30
0.0
 11
-728.4298877534081
 21
-916.1484239370459
 31
0.0
  0
LINE
  5
94
330
1F
100
AcDbEntity
  8
0-0
  6
JWW_DASHED1
 62
   120
370
     5
100
AcDbLine
 10
-808.4298877534036
 20
-986.2489290018796
 30
0.0
 11
-728.4298877534209
 21
-906.2489290018963
 31
0.0
  0
LINE
  5
95
330
1F
100
AcDbEntity
  8
0-0
  6
JWW_DASHED1
 62
   120
370
     5
100
AcDbLine
 10
-808.4298877534121
 20
-976.3494340666708
 30
0.0
 11
-728.4298877534123
 21
-896.349434066672
 31
0.0
  0
LINE
  5
96
330
1F
100
AcDbEntity
  8
0-0
  6
JWW_DASHED1
 62
   120
370
     5
100
AcDbLine
 10
-808.4298877534044
 20
-966.4499391314476
 30
0.0
 11
-728.4298877534064
 21
-886.4499391314492
 31
0.0
  0
LINE
  5
97
330
1F
100
AcDbEntity
  8
0-0
  6
JWW_DASHED1
 62
   120
370
     5
100
AcDbLine
 10
-808.4298877534019
 20
-956.5504441962829
 30
0.0
 11
-728.4298877534184
 21
-876.5504441963001
 31
0.0
  0
LINE
  5
98
330
1F
100
AcDbEntity
  8
0-0
  6
JWW_DASHED1
 62
   120
370
     5
100
AcDbLine
 10
-808.4298877534087
 20
-946.6509492610738
 30
0.0
 11
-728.4298877534252
 21
-866.6509492610905
 31
0.0
  0
LINE
  5
99
330
1F
100
AcDbEntity
  8
0-0
  6
JWW_DASHED1
 62
   120
370
     5
100
AcDbLine
 10
-808.4298877534189
 20
-936.7514543258952
 30
0.0
 11
-728.4298877534201
 21
-856.7514543258961
 31
0.0
  0
LINE
  5
9A
330
1F
100
AcDbEntity
  8
0-0
  6
JWW_DASHED1
 62
   120
370
     5
100
AcDbLine
 10
-808.4298877533985
 20
-926.8519593906857
 30
0.0
 11
-728.4298877534167
 21
-846.8519593907032
 31
0.0
  0
LINE
  5
9B
330
1F
100
AcDbEntity
  8
0-0
  6
JWW_DASHED1
 62
   120
370
     5
100
AcDbLine
 10
-808.4298877534078
 20
-916.9524644554779
 30
0.0
 11
-728.4298877534252
 21
-836.9524644554954
 31
0.0
  0
LINE
  5
9C
330
1F
100
AcDbEntity
  8
0-0
  6
JWW_DASHED1
 62
   120
370
     5
100
AcDbLine
 10
-808.4298877534189
 20
-907.0529695203278
 30
0.0
 11
-728.4298877534201
 21
-827.0529695203289
 31
0.0
  0
LINE
  5
9D
330
1F
100
AcDbEntity
  8
0-0
  6
JWW_DASHED1
 62
   120
370
     5
100
AcDbLine
 10
-808.4298877533968
 20
-897.1534745850893
 30
0.0
 11
-728.429887753414
 21
-817.1534745851066
 31
0.0
  0
LINE
  5
9E
330
1F
100
AcDbEntity
  8
0-0
  6
JWW_DASHED1
 62
   120
370
     5
100
AcDbLine
 10
-808.4298877534053
 20
-887.253979649881
 30
0.0
 11
-728.4298877534235
 21
-807.2539796498987
 31
0.0
  0
LINE
  5
9F
330
1F
100
AcDbEntity
  8
0-0
  6
JWW_DASHED1
 62
   120
370
     5
100
AcDbLine
 10
-808.4298877534163
 20
-877.3544847147307
 30
0.0
 11
-728.4298877534175
 21
-797.3544847147318
 31
0.0
  0
LINE
  5
A0
330
1F
100
AcDbEntity
  8
0-0
  6
JWW_DASHED1
 62
   120
370
     5
100
AcDbLine
 10
-808.4298877533951
 20
-867.4549897794922
 30
0.0
 11
-728.4298877534115
 21
-787.4549897795096
 31
0.0
  0
LINE
  5
A1
330
1F
100
AcDbEntity
  8
0-0
  6
JWW_DASHED1
 62
   120
370
     5
100
AcDbLine
 10
-808.4298877534019
 20
-857.5554948442838
 30
0.0
 11
-728.4298877534201
 21
-777.5554948443017
 31
0.0
  0
LINE
  5
A2
330
1F
100
AcDbEntity
  8
0-0
  6
JWW_DASHED1
 62
   120
370
     5
100
AcDbLine
 10
-808.4298877534138
 20
-847.6559999091337
 30
0.0
 11
-728.429887753415
 21
-767.6559999091348
 31
0.0
  0
LINE
  5
A3
330
1F
100
AcDbEntity
  8
0-0
  6
JWW_DASHED1
 62
   120
370
     5
100
AcDbLine
 10
-808.4298877534087
 20
-837.7565049739113
 30
0.0
 11
-728.4298877534098
 21
-757.7565049739129
 31
0.0
  0
LINE
  5
A4
330
1F
100
AcDbEntity
  8
0-0
  6
JWW_DASHED1
 62
   120
370
     5
100
AcDbLine
 10
-808.429887753401
 20
-827.8570100386881
 30
0.0
 11
-728.4298877534184
 21
-747.8570100387055
 31
0.0
  0
LINE
  5
A5
330
1F
100
AcDbEntity
  8
0-0
  6
JWW_DASHED1
 62
   120
370
     5
100
AcDbLine
 10
-808.4298877534112
 20
-817.9575151035366
 30
0.0
 11
-728.4298877534133
 21
-737.9575151035382
 31
0.0
  0
LINE
  5
A6
330
1F
100
AcDbEntity
  8
0-0
  6
JWW_DASHED1
 62
   120
370
     5
100
AcDbLine
 10
-808.4298877534053
 20
-808.0580201683143
 30
0.0
 11
-728.4298877534081
 21
-728.0580201683167
 31
0.0
  0
LINE
  5
A7
330
1F
100
AcDbEntity
  8
0-0
  6
JWW_DASHED1
 62
   120
370
     5
100
AcDbLine
 10
-808.4298877533985
 20
-798.1585252330912
 30
0.0
 11
-728.4298877534158
 21
-718.1585252331084
 31
0.0
  0
LINE
  5
A8
330
1F
100
AcDbEntity
  8
0-0
  6
JWW_DASHED1
 62
   120
370
     5
100
AcDbLine
 10
-808.4298877534095
 20
-788.2590302979398
 30
0.0
 11
-728.4298877534098
 21
-708.2590302979411
 31
0.0
  0
LINE
  5
A9
330
1F
100
AcDbEntity
  8
0-0
  6
JWW_DASHED1
 62
   120
370
     5
100
AcDbLine
 10
-808.4298877534172
 20
-778.3595353627318
 30
0.0
 11
-728.4298877534184
 21
-698.3595353627329
 31
0.0
  0
LINE
  5
AA
330
1F
100
AcDbEntity
  8
0-0
  6
JWW_DASHED1
 62
   120
370
     5
100
AcDbLine
 10
-808.4298877533959
 20
-768.460040427494
 30
0.0
 11
-728.4298877534133
 21
-688.4600404275118
 31
0.0
  0
LINE
  5
AB
330
1F
100
AcDbEntity
  8
0-0
  6
JWW_DASHED1
 62
   120
370
     5
100
AcDbLine
 10
-808.429887753407
 20
-758.560545492343
 30
0.0
 11
-728.4298877534235
 21
-678.5605454923599
 31
0.0
  0
LINE
  5
AC
330
1F
100
AcDbEntity
  8
0-0
  6
JWW_DASHED1
 62
   120
370
     5
100
AcDbLine
 10
-808.4298877534155
 20
-748.6610505571347
 30
0.0
 11
-728.4298877534158
 21
-668.6610505571358
 31
0.0
  0
LINE
  5
AD
330
1F
100
AcDbEntity
  8
0-0
  6
JWW_DASHED1
 62
   120
370
     5
100
AcDbLine
 10
-808.4298877533942
 20
-738.7615556218974
 30
0.0
 11
-728.4298877534115
 21
-658.7615556219148
 31
0.0
  0
LINE
  5
AE
330
1F
100
AcDbEntity
  8
0-0
  6
JWW_DASHED1
 62
   120
370
     5
100
AcDbLine
 10
-808.429887753407
 20
-728.8620606867485
 30
0.0
 11
-728.4298877534235
 21
-648.8620606867657
 31
0.0
  0
LINE
  5
AF
330
1F
100
AcDbEntity
  8
0-0
  6
JWW_DASHED1
 62
   120
370
     5
100
AcDbLine
 10
-808.4298877534129
 20
-718.9625657515385
 30
0.0
 11
-728.4298877534133
 21
-638.9625657515388
 31
0.0
  0
LINE
  5
B0
330
1F
100
AcDbEntity
  8
0-0
  6
JWW_DASHED1
 62
   120
370
     5
100
AcDbLine
 10
-808.4298877534078
 20
-709.0630708163166
 30
0.0
 11
-728.4298877534098
 21
-629.0630708163181
 31
0.0
  0
LINE
  5
B1
330
1F
100
AcDbEntity
  8
0-0
  6
JWW_DASHED1
 62
   120
370
     5
100
AcDbLine
 10
-808.4298877534053
 20
-699.1635758811518
 30
0.0
 11
-728.4298877534218
 21
-619.1635758811692
 31
0.0
  0
LINE
  5
B2
330
1F
100
AcDbEntity
  8
0-0
  6
JWW_DASHED1
 62
   120
370
     5
100
AcDbLine
 10
-808.4298877534104
 20
-689.2640809459406
 30
0.0
 11
-728.4298877534115
 21
-609.2640809459422
 31
0.0
  0
LINE
  5
B3
330
1F
100
AcDbEntity
  8
0-0
  6
JWW_DASHED1
 62
   120
370
     5
100
AcDbLine
 10
-808.4298877534189
 20
-679.3645860107328
 30
0.0
 11
-728.4298877534192
 21
-599.3645860107339
 31
0.0
  0
LINE
  5
B4
330
1F
100
AcDbEntity
  8
0-0
  6
JWW_DASHED1
 62
   120
370
     5
100
AcDbLine
 10
-808.4298877534019
 20
-669.4650910755548
 30
0.0
 11
-728.4298877534201
 21
-589.465091075573
 31
0.0
  0
LINE
  5
B5
330
1F
100
AcDbEntity
  8
0-0
  6
JWW_DASHED1
 62
   120
370
     5
100
AcDbLine
 10
-808.4298877534078
 20
-659.5655961403444
 30
0.0
 11
-728.4298877534252
 21
-579.5655961403613
 31
0.0
  0
LINE
  5
B6
330
1F
100
AcDbEntity
  8
0-0
  6
JWW_DASHED1
 62
   120
370
     5
100
AcDbLine
 10
-808.4298877534155
 20
-649.6661012051358
 30
0.0
 11
-728.4298877534167
 21
-569.6661012051369
 31
0.0
  0
LINE
  5
B7
330
1F
100
AcDbEntity
  8
0-0
  6
JWW_DASHED1
 62
   120
370
     5
100
AcDbLine
 10
-808.4298877534002
 20
-639.7666062699577
 30
0.0
 11
-728.4298877534175
 21
-559.7666062699759
 31
0.0
  0
LINE
  5
B8
330
1F
100
AcDbEntity
  8
0-0
  6
JWW_DASHED1
 62
   120
370
     5
100
AcDbLine
 10
-808.4298877534087
 20
-629.8671113347503
 30
0.0
 11
-728.429887753426
 21
-549.8671113347681
 31
0.0
  0
LINE
  5
B9
330
1F
100
AcDbEntity
  8
0-0
  6
JWW_DASHED1
 62
   120
370
     5
100
AcDbLine
 10
-808.4298877534172
 20
-619.9676163995975
 30
0.0
 11
-728.4298877534201
 21
-539.9676163995995
 31
0.0
  0
LINE
  5
BA
330
1F
100
AcDbEntity
  8
0-0
  6
JWW_DASHED1
 62
   120
370
     5
100
AcDbLine
 10
-808.4298877533976
 20
-610.0681214643615
 30
0.0
 11
-728.429887753415
 21
-530.0681214643789
 31
0.0
  0
LINE
  5
BB
330
1F
100
AcDbEntity
  8
0-0
  6
JWW_DASHED1
 62
   120
370
     5
100
AcDbLine
 10
-808.4298877534061
 20
-600.1686265291537
 30
0.0
 11
-728.4298877534235
 21
-520.1686265291711
 31
0.0
  0
LINE
  5
BC
330
1F
100
AcDbEntity
  8
0-0
  6
JWW_DASHED1
 62
   120
370
     5
100
AcDbLine
 10
-808.4298877534155
 20
-590.2691315940017
 30
0.0
 11
-728.4298877534167
 21
-510.269131594002
 31
0.0
  0
LINE
  5
BD
330
1F
100
AcDbEntity
  8
0-0
  6
JWW_DASHED1
 62
   120
370
     5
100
AcDbLine
 10
-808.4298877533951
 20
-580.3696366587649
 30
0.0
 11
-728.4298877534133
 21
-500.3696366587823
 31
0.0
  0
LINE
  5
BE
330
1F
100
AcDbEntity
  8
0-0
  6
JWW_DASHED1
 62
   120
370
     5
100
AcDbLine
 10
-808.4298877534036
 20
-570.4701417235567
 30
0.0
 11
-728.4298877534209
 21
-490.470141723574
 31
0.0
  0
LINE
  5
BF
330
1F
100
AcDbEntity
  8
0-0
  6
JWW_DASHED1
 62
   120
370
     5
100
AcDbLine
 10
-808.4298877534138
 20
-560.5706467884047
 30
0.0
 11
-728.4298877534133
 21
-480.570646788405
 31
0.0
  0
LINE
  5
C0
330
1F
100
AcDbEntity
  8
0-0
  6
JWW_DASHED1
 62
   120
370
     5
100
AcDbLine
 10
-808.4298877534087
 20
-550.6711518531837
 30
0.0
 11
-728.4298877534115
 21
-470.6711518531856
 31
0.0
  0
LINE
  5
C1
330
1F
100
AcDbEntity
  8
0-0
  6
JWW_DASHED1
 62
   120
370
     5
100
AcDbLine
 10
-808.4298877534019
 20
-540.7716569179601
 30
0.0
 11
-728.4298877534184
 21
-460.7716569179774
 31
0.0
  0
LINE
  5
C2
330
1F
100
AcDbEntity
  8
0-0
  6
JWW_DASHED1
 62
   120
370
     5
100
AcDbLine
 10
-808.4298877534104
 20
-530.8721619828076
 30
0.0
 11
-728.4298877534115
 21
-450.8721619828083
 31
0.0
  0
LINE
  5
C3
330
1F
100
AcDbEntity
  8
0-0
  6
JWW_DASHED1
 62
   120
370
     5
100
AcDbLine
 10
-808.429887753407
 20
-520.972667047587
 30
0.0
 11
-728.4298877534081
 21
-440.9726670475886
 31
0.0
  0
LINE
  5
C4
330
1F
100
AcDbEntity
  8
0-0
  6
JWW_DASHED1
 62
   120
370
     5
100
AcDbLine
 10
-808.4298877533993
 20
-511.073172112363
 30
0.0
 11
-728.4298877534167
 21
-431.0731721123812
 31
0.0
  0
LINE
  5
C5
330
1F
100
AcDbEntity
  8
0-0
  6
JWW_DASHED1
 62
   120
370
     5
100
AcDbLine
 10
-808.4298877534087
 20
-501.1736771772106
 30
0.0
 11
-728.4298877534098
 21
-421.1736771772113
 31
0.0
  0
LINE
  5
C6
330
1F
100
AcDbEntity
  8
0-0
  6
JWW_DASHED1
 62
   120
370
     5
100
AcDbLine
 10
-808.4298877534163
 20
-491.2741822420023
 30
0.0
 11
-728.4298877534167
 21
-411.2741822420031
 31
0.0
  0
LINE
  5
C7
330
1F
100
AcDbEntity
  8
0-0
  6
JWW_DASHED1
 62
   120
370
     5
100
AcDbLine
 10
-808.4298877533968
 20
-481.374687306766
 30
0.0
 11
-728.429887753415
 21
-401.3746873067842
 31
0.0
  0
LINE
  5
C8
330
1F
100
AcDbEntity
  8
0-0
  6
JWW_DASHED1
 62
   120
370
     5
100
AcDbLine
 10
-808.4298877534104
 20
-471.4751923716178
 30
0.0
 11
-728.4298877534269
 21
-391.4751923716347
 31
0.0
  0
LINE
  5
C9
330
1F
100
AcDbEntity
  8
0-0
  6
JWW_DASHED1
 62
   120
370
     5
100
AcDbLine
 10
-808.4298877534138
 20
-461.5756974364049
 30
0.0
 11
-728.429887753415
 21
-381.5756974364069
 31
0.0
  0
LINE
  5
CA
330
1F
100
AcDbEntity
  8
0-0
  6
JWW_DASHED1
 62
   120
370
     5
100
AcDbLine
 10
-808.4298877534104
 20
-451.676202501186
 30
0.0
 11
-728.4298877534115
 21
-371.6762025011867
 31
0.0
  0
LINE
  5
CB
330
1F
100
AcDbEntity
  8
0-0
  6
JWW_DASHED1
 62
   120
370
     5
100
AcDbLine
 10
-808.4298877534078
 20
-441.7767075660212
 30
0.0
 11
-728.4298877534252
 21
-361.7767075660377
 31
0.0
  0
LINE
  5
CC
330
1F
100
AcDbEntity
  8
0-0
  6
JWW_DASHED1
 62
   120
370
     5
100
AcDbLine
 10
-808.4298877534121
 20
-431.8772126308087
 30
0.0
 11
-728.4298877534133
 21
-351.8772126308094
 31
0.0
  0
LINE
  5
CD
330
1F
100
AcDbEntity
  8
0-0
  6
JWW_DASHED1
 62
   120
370
     5
100
AcDbLine
 10
-808.4298877534087
 20
-421.9777176955889
 30
0.0
 11
-728.4298877534106
 21
-341.9777176955909
 31
0.0
  0
LINE
  5
CE
330
1F
100
AcDbEntity
  8
0-0
  6
JWW_DASHED1
 62
   120
370
     5
100
AcDbLine
 10
-808.4298877534053
 20
-412.0782227604241
 30
0.0
 11
-728.4298877534226
 21
-332.0782227604415
 31
0.0
  0
LINE
  5
CF
330
1F
100
AcDbEntity
  8
0-0
  6
JWW_DASHED1
 62
   120
370
     5
100
AcDbLine
 10
-808.4298877534087
 20
-402.1787278252116
 30
0.0
 11
-728.4298877534098
 21
-322.1787278252123
 31
0.0
  0
LINE
  5
D0
330
1F
100
AcDbEntity
  8
0-0
  6
JWW_DASHED1
 62
   120
370
     5
100
AcDbLine
 10
-808.4298877534172
 20
-392.2792328900034
 30
0.0
 11
-728.4298877534184
 21
-312.2792328900041
 31
0.0
  0
LINE
  5
D1
330
1F
100
AcDbEntity
  8
0-0
  6
JWW_DASHED1
 62
   120
370
     5
100
AcDbLine
 10
-808.4298877534027
 20
-382.3797379548271
 30
0.0
 11
-728.4298877534201
 21
-302.3797379548449
 31
0.0
  0
LINE
  5
D2
330
1F
100
AcDbEntity
  8
0-0
  6
JWW_DASHED1
 62
   120
370
     5
100
AcDbLine
 10
-808.429887753407
 20
-372.4802430196146
 30
0.0
 11
-728.4298877534235
 21
-292.4802430196311
 31
0.0
  0
LINE
  5
D3
330
1F
100
AcDbEntity
  8
0-0
  6
JWW_DASHED1
 62
   120
370
     5
100
AcDbLine
 10
-808.4298877534172
 20
-362.5807480844358
 30
0.0
 11
-728.4298877534184
 21
-282.5807480844369
 31
0.0
  0
LINE
  5
D4
330
1F
100
AcDbEntity
  8
0-0
  6
JWW_DASHED1
 62
   120
370
     5
100
AcDbLine
 10
-808.4298877534002
 20
-352.6812531492305
 30
0.0
 11
-728.4298877534184
 21
-272.6812531492478
 31
0.0
  0
LINE
  5
D5
330
1F
100
AcDbEntity
  8
0-0
  6
JWW_DASHED1
 62
   120
370
     5
100
AcDbLine
 10
-808.4298877534087
 20
-342.7817582140222
 30
0.0
 11
-728.4298877534269
 21
-262.78175821404
 31
0.0
  0
LINE
  5
D6
330
1F
100
AcDbEntity
  8
0-0
  6
JWW_DASHED1
 62
   120
370
     5
100
AcDbLine
 10
-808.4298877534172
 20
-332.8822632788685
 30
0.0
 11
-728.4298877534175
 21
-252.8822632788692
 31
0.0
  0
LINE
  5
D7
330
1F
100
AcDbEntity
  8
0-0
  6
JWW_DASHED1
 62
   120
370
     5
100
AcDbLine
 10
-808.4298877533985
 20
-322.9827683436343
 30
0.0
 11
-728.429887753415
 21
-242.9827683436508
 31
0.0
  0
LINE
  5
D8
330
1F
100
AcDbEntity
  8
0-0
  6
JWW_DASHED1
 62
   120
370
     5
100
AcDbLine
 10
-808.429887753407
 20
-313.0832734084265
 30
0.0
 11
-728.4298877534235
 21
-233.0832734084429
 31
0.0
  0
LINE
  5
D9
330
1F
100
AcDbEntity
  8
0-0
  6
JWW_DASHED1
 62
   120
370
     5
100
AcDbLine
 10
-808.4298877534138
 20
-303.1837784732715
 30
0.0
 11
-728.429887753415
 21
-223.1837784732722
 31
0.0
  0
LINE
  5
DA
330
1F
100
AcDbEntity
  8
0-0
  6
JWW_DASHED1
 62
   120
370
     5
100
AcDbLine
 10
-808.4298877533968
 20
-293.2842835380372
 30
0.0
 11
-728.429887753414
 21
-213.284283538055
 31
0.0
  0
LINE
  5
DB
330
1F
100
AcDbEntity
  8
0-0
  6
JWW_DASHED1
 62
   120
370
     5
100
AcDbLine
 10
-808.4298877534053
 20
-283.3847886028294
 30
0.0
 11
-728.4298877534218
 21
-203.3847886028459
 31
0.0
  0
LINE
  5
DC
330
1F
100
AcDbEntity
  8
0-0
  6
JWW_DASHED1
 62
   120
370
     5
100
AcDbLine
 10
-808.4298877534121
 20
-273.4852936676745
 30
0.0
 11
-728.4298877534123
 21
-193.4852936676751
 31
0.0
  0
LINE
  5
DD
330
1F
100
AcDbEntity
  8
0-0
  6
JWW_DASHED1
 62
   120
370
     5
100
AcDbLine
 10
-808.4298877534104
 20
-263.5857987324564
 30
0.0
 11
-728.4298877534115
 21
-183.5857987324579
 31
0.0
  0
LINE
  5
DE
330
1F
100
AcDbEntity
  8
0-0
  6
JWW_DASHED1
 62
   120
370
     5
100
AcDbLine
 10
-808.4298877534019
 20
-253.6863037972324
 30
0.0
 11
-728.4298877534201
 21
-173.6863037972501
 31
0.0
  0
LINE
  5
DF
330
1F
100
AcDbEntity
  8
0-0
  6
JWW_DASHED1
 62
   120
370
     5
100
AcDbLine
 10
-808.4298877534087
 20
-243.786808862077
 30
0.0
 11
-728.4298877534098
 21
-163.7868088620781
 31
0.0
  0
LINE
  5
E0
330
1F
100
AcDbEntity
  8
0-0
  6
JWW_DASHED1
 62
   120
370
     5
100
AcDbLine
 10
-808.4298877534078
 20
-233.8873139268597
 30
0.0
 11
-728.4298877534089
 21
-153.8873139268609
 31
0.0
  0
LINE
  5
E1
330
1F
100
AcDbEntity
  8
0-0
  6
JWW_DASHED1
 62
   120
370
     5
100
AcDbLine
 10
-808.4298877534002
 20
-223.9878189916357
 30
0.0
 11
-728.4298877534175
 21
-143.9878189916531
 31
0.0
  0
LINE
  5
E2
330
1F
100
AcDbEntity
  8
0-0
  6
JWW_DASHED1
 62
   120
370
     5
100
AcDbLine
 10
-808.429887753407
 20
-214.0883240564808
 30
0.0
 11
-728.4298877534235
 21
-134.0883240564972
 31
0.0
  0
LINE
  5
E3
330
1F
100
AcDbEntity
  8
0-0
  6
JWW_DASHED1
 62
   120
370
     5
100
AcDbLine
 10
-808.4298877534155
 20
-204.1888291212725
 30
0.0
 11
-728.4298877534167
 21
-124.1888291212732
 31
0.0
  0
LINE
  5
E4
330
1F
100
AcDbEntity
  8
0-0
  6
JWW_DASHED1
 62
   120
370
     5
100
AcDbLine
 10
-808.4298877533976
 20
-194.2893341860387
 30
0.0
 11
-728.429887753415
 21
-114.289334186056
 31
0.0
  0
LINE
  5
E5
330
1F
100
AcDbEntity
  8
0-0
  6
JWW_DASHED1
 62
   120
370
     5
100
AcDbLine
 10
-808.4298877534112
 20
-184.3898392508901
 30
0.0
 11
-728.4298877534277
 21
-104.389839250907
 31
0.0
  0
LINE
  5
E6
330
1F
100
AcDbEntity
  8
0-0
  6
JWW_DASHED1
 62
   120
370
     5
100
AcDbLine
 10
-808.4298877534121
 20
-174.4903443156755
 30
0.0
 11
-728.4298877534133
 21
-94.49034431567618
 31
0.0
  0
LINE
  5
E7
330
1F
100
AcDbEntity
  8
0-0
  6
JWW_DASHED1
 62
   120
370
     5
100
AcDbLine
 10
-808.4298877534121
 20
-164.5908493804578
 30
0.0
 11
-728.4298877534123
 21
-84.59084938045898
 31
0.0
  0
LINE
  5
E8
330
1F
100
AcDbEntity
  8
0-0
  6
JWW_DASHED1
 62
   120
370
     5
100
AcDbLine
 10
-808.4298877534087
 20
-154.6913544452931
 30
0.0
 11
-728.4298877534252
 21
-74.69135444531041
 31
0.0
  0
LINE
  5
E9
330
1F
100
AcDbEntity
  8
0-0
  6
JWW_DASHED1
 62
   120
370
     5
100
AcDbLine
 10
-808.4298877534104
 20
-144.7918595100784
 30
0.0
 11
-728.4298877534106
 21
-64.79185951007914
 31
0.0
  0
LINE
  5
EA
330
1F
100
AcDbEntity
  8
0-0
  6
JWW_DASHED1
 62
   120
370
     5
100
AcDbLine
 10
-808.4298877533985
 20
-134.8923645749043
 30
0.0
 11
-728.429887753415
 21
-54.89236457492161
 31
0.0
  0
LINE
  5
EB
330
1F
100
AcDbEntity
  8
0-0
  6
JWW_DASHED1
 62
   120
370
     5
100
AcDbLine
 10
-808.4298877534061
 20
-124.992869639696
 30
0.0
 11
-728.4298877534235
 21
-44.99286963971421
 31
0.0
  0
LINE
  5
EC
330
1F
100
AcDbEntity
  8
0-0
  6
JWW_DASHED1
 62
   120
370
     5
100
AcDbLine
 10
-808.429887753407
 20
-115.0933747044814
 30
0.0
 11
-728.4298877534081
 21
-35.09337470448209
 31
0.0
  0
LINE
  5
ED
330
1F
100
AcDbEntity
  8
0-0
  6
JWW_DASHED1
 62
   120
370
     5
100
AcDbLine
 10
-808.4298877534121
 20
-105.1938797693239
 30
0.0
 11
-728.4298877534123
 21
-25.19387976932457
 31
0.0
  0
LINE
  5
EE
330
1F
100
AcDbEntity
  8
0-0
  6
JWW_DASHED1
 62
   120
370
     5
100
AcDbLine
 10
-808.4298877534036
 20
-95.29438483409983
 30
0.0
 11
-728.4298877534218
 21
-15.29438483411674
 31
0.0
  0
LINE
  5
EF
330
1F
100
AcDbEntity
  8
0-0
  6
JWW_DASHED1
 62
   120
370
     5
100
AcDbLine
 10
-808.4298877534053
 20
-85.39488989888433
 30
0.0
 11
-728.4298877534218
 21
-5.394889898901241
 31
0.0
  0
LINE
  5
F0
330
1F
100
AcDbEntity
  8
0-0
  6
JWW_DASHED1
 62
   120
370
     5
100
AcDbLine
 10
-808.4298877534087
 20
-75.49539496372681
 30
0.0
 11
-728.4298877534106
 21
4.504605036271627
 31
0.0
  0
LINE
  5
F1
330
1F
100
AcDbEntity
  8
0-0
  6
JWW_DASHED1
 62
   120
370
     5
100
AcDbLine
 10
-808.4298877534019
 20
-65.59590002850321
 30
0.0
 11
-728.4298877534184
 21
14.40409997148031
 31
0.0
  0
LINE
  5
F2
330
1F
100
AcDbEntity
  8
0-0
  6
JWW_DASHED1
 62
   120
370
     5
100
AcDbLine
 10
-808.4298877534104
 20
-55.69640509329496
 30
0.0
 11
-728.4298877534269
 21
24.30359490668771
 31
0.0
  0
LINE
  5
F3
330
1F
100
AcDbEntity
  8
0-0
  6
JWW_DASHED1
 62
   120
370
     5
100
AcDbLine
 10
-808.4298877534155
 20
-45.79691015813786
 30
0.0
 11
-728.4298877534167
 21
34.20308984186057
 31
0.0
  0
LINE
  5
F4
330
1F
100
AcDbEntity
  8
0-0
  6
JWW_DASHED1
 62
   120
370
     5
100
AcDbLine
 10
-808.4298877533993
 20
-35.89741522290616
 30
0.0
 11
-728.4298877534167
 21
44.1025847770765
 31
0.0
  0
LINE
  5
F5
330
1F
100
AcDbEntity
  8
0-0
  6
JWW_DASHED1
 62
   120
370
     5
100
AcDbLine
 10
-808.4298877534078
 20
-25.99792028769834
 30
0.0
 11
-728.4298877534252
 21
54.00207971228475
 31
0.0
  0
LINE
  5
F6
330
1F
100
AcDbEntity
  8
0-0
  6
JWW_DASHED1
 62
   120
370
     5
100
AcDbLine
 10
-808.4298877534129
 20
-16.09842535254167
 30
0.0
 11
-728.4298877534133
 21
63.90157464745762
 31
0.0
  0
LINE
  5
F7
330
1F
100
AcDbEntity
  8
0-0
  6
JWW_DASHED1
 62
   120
370
     5
100
AcDbLine
 10
-808.4298877533968
 20
-6.198930417309114
 30
0.0
 11
-728.429887753415
 21
73.80106958267312
 31
0.0
  0
LINE
  5
F8
330
1F
100
AcDbEntity
  8
0-0
  6
JWW_DASHED1
 62
   120
370
     5
100
AcDbLine
 10
-808.4298877534053
 20
3.700564517898712
 30
0.0
 11
-728.4298877534226
 21
83.70056451788138
 31
0.0
  0
LINE
  5
F9
330
1F
100
AcDbEntity
  8
0-0
  6
JWW_DASHED1
 62
   120
370
     5
100
AcDbLine
 10
-808.4298877534104
 20
13.60005945305495
 30
0.0
 11
-728.4298877534115
 21
93.60005945305467
 31
0.0
  0
LINE
  5
FA
330
1F
100
AcDbEntity
  8
0-0
  6
JWW_DASHED1
 62
   120
370
     5
100
AcDbLine
 10
-808.4298877534104
 20
23.49955438827173
 30
0.0
 11
-728.4298877534115
 21
103.4995543882702
 31
0.0
  0
LINE
  5
FB
330
1F
100
AcDbEntity
  8
0-0
  6
JWW_DASHED1
 62
   120
370
     5
100
AcDbLine
 10
-808.4298877534027
 20
33.39904932349576
 30
0.0
 11
-728.4298877534209
 21
113.399049323478
 31
0.0
  0
LINE
  5
FC
330
1F
100
AcDbEntity
  8
0-0
  6
JWW_DASHED1
 62
   120
370
     5
100
AcDbLine
 10
-808.4298877534087
 20
43.298544258652
 30
0.0
 11
-728.4298877534098
 21
123.2985442586509
 31
0.0
  0
LINE
  5
FD
330
1F
100
AcDbEntity
  8
0-0
  6
JWW_DASHED1
 62
   120
370
     5
100
AcDbLine
 10
-808.4298877534155
 20
53.19803919386068
 30
0.0
 11
-728.4298877534167
 21
133.19803919386
 31
0.0
  0
LINE
  5
FE
330
1F
100
AcDbEntity
  8
0-0
  6
JWW_DASHED1
 62
   120
370
     5
100
AcDbLine
 10
-808.4298877534053
 20
63.0975341290327
 30
0.0
 11
-728.4298877534235
 21
143.0975341290158
 31
0.0
  0
LINE
  5
FF
330
1F
100
AcDbEntity
  8
0-0
  6
JWW_DASHED1
 62
   120
370
     5
100
AcDbLine
 10
-808.4298877534053
 20
72.99702906424905
 30
0.0
 11
-728.4298877534226
 21
152.9970290642325
 31
0.0
  0
LINE
  5
100
330
1F
100
AcDbEntity
  8
0-0
  6
JWW_DASHED1
 62
   120
370
     5
100
AcDbLine
 10
-808.4298877534138
 20
82.8965239994573
 30
0.0
 11
-728.429887753414
 21
162.896523999457
 31
0.0
  0
LINE
  5
101
330
1F
100
AcDbEntity
  8
0-0
  6
JWW_DASHED1
 62
   120
370
     5
100
AcDbLine
 10
-808.4298877534036
 20
92.79601893462974
 30
0.0
 11
-728.4298877534201
 21
172.7960189346128
 31
0.0
  0
LINE
  5
102
330
1F
100
AcDbEntity
  8
0-0
  6
JWW_DASHED1
 62
   120
370
     5
100
AcDbLine
 10
-808.4298877534121
 20
102.6955138698376
 30
0.0
 11
-728.4298877534286
 21
182.6955138698211
 31
0.0
  0
LINE
  5
103
330
1F
100
AcDbEntity
  8
0-0
  6
JWW_DASHED1
 62
   120
370
     5
100
AcDbLine
 10
-808.4298877534112
 20
112.5950088050543
 30
0.0
 11
-728.4298877534133
 21
192.5950088050528
 31
0.0
  0
LINE
  5
104
330
1F
100
AcDbEntity
  8
0-0
  6
JWW_DASHED1
 62
   120
370
     5
100
AcDbLine
 10
-808.4298877534002
 20
122.4945037402268
 30
0.0
 11
-728.4298877534184
 21
202.494503740209
 31
0.0
  0
LINE
  5
105
330
1F
100
AcDbEntity
  8
0-0
  6
JWW_DASHED1
 62
   120
370
     5
100
AcDbLine
 10
-808.4298877534087
 20
132.3939986754346
 30
0.0
 11
-728.4298877534269
 21
212.3939986754169
 31
0.0
  0
LINE
  5
106
330
1F
100
AcDbEntity
  8
0-0
  6
JWW_DASHED1
 62
   120
370
     5
100
AcDbLine
 10
-808.4298877534087
 20
142.293493610651
 30
0.0
 11
-728.4298877534098
 21
222.2934936106498
 31
0.0
  0
LINE
  5
107
330
1F
100
AcDbEntity
  8
0-0
  6
JWW_DASHED1
 62
   120
370
     5
100
AcDbLine
 10
-808.4298877533985
 20
152.192988545823
 30
0.0
 11
-728.4298877534158
 21
232.1929885458061
 31
0.0
  0
LINE
  5
108
330
1F
100
AcDbEntity
  8
0-0
  6
JWW_DASHED1
 62
   120
370
     5
100
AcDbLine
 10
-808.429887753407
 20
162.0924834810316
 30
0.0
 11
-728.4298877534243
 21
242.0924834810139
 31
0.0
  0
LINE
  5
109
330
1F
100
AcDbEntity
  8
0-0
  6
JWW_DASHED1
 62
   120
370
     5
100
AcDbLine
 10
-808.429887753407
 20
171.991978416248
 30
0.0
 11
-728.4298877534081
 21
251.9919784162469
 31
0.0
  0
LINE
  5
10A
330
1F
100
AcDbEntity
  8
0-0
  6
JWW_DASHED1
 62
   120
370
     5
100
AcDbLine
 10
-808.4298877534121
 20
181.8914733514043
 30
0.0
 11
-728.4298877534133
 21
261.8914733514027
 31
0.0
  0
LINE
  5
10B
330
1F
100
AcDbEntity
  8
0-0
  6
JWW_DASHED1
 62
   120
370
     5
100
AcDbLine
 10
-808.4298877534053
 20
191.7909682866274
 30
0.0
 11
-728.4298877534218
 21
271.790968286611
 31
0.0
  0
LINE
  5
10C
330
1F
100
AcDbEntity
  8
0-0
  6
JWW_DASHED1
 62
   120
370
     5
100
AcDbLine
 10
-808.4298877534036
 20
201.6904632218451
 30
0.0
 11
-728.4298877534209
 21
281.6904632218282
 31
0.0
  0
LINE
  5
10D
330
1F
100
AcDbEntity
  8
0-0
  6
JWW_DASHED1
 62
   120
370
     5
100
AcDbLine
 10
-808.4298877534095
 20
211.5899581570013
 30
0.0
 11
-728.4298877534115
 21
291.5899581569993
 31
0.0
  0
LINE
  5
10E
330
1F
100
AcDbEntity
  8
0-0
  6
JWW_DASHED1
 62
   120
370
     5
100
AcDbLine
 10
-808.4298877534027
 20
221.4894530922245
 30
0.0
 11
-728.4298877534201
 21
301.4894530922076
 31
0.0
  0
LINE
  5
10F
330
1F
100
AcDbEntity
  8
0-0
  6
JWW_DASHED1
 62
   120
370
     5
100
AcDbLine
 10
-808.4298877534112
 20
231.3889480274323
 30
0.0
 11
-728.4298877534286
 21
311.388948027415
 31
0.0
  0
LINE
  5
110
330
1F
100
AcDbEntity
  8
0-0
  6
JWW_DASHED1
 62
   120
370
     5
100
AcDbLine
 10
-808.4298877534138
 20
241.2884429625911
 30
0.0
 11
-728.429887753415
 21
321.28844296259
 31
0.0
  0
LINE
  5
111
330
1F
100
AcDbEntity
  8
0-0
  6
JWW_DASHED1
 62
   120
370
     5
100
AcDbLine
 10
-808.4298877534002
 20
251.1879378978219
 30
0.0
 11
-728.4298877534184
 21
331.1879378978037
 31
0.0
  0
LINE
  5
112
330
1F
100
AcDbEntity
  8
0-0
  6
JWW_DASHED1
 62
   120
370
     5
100
AcDbLine
 10
-808.4298877534121
 20
261.0874328329709
 30
0.0
 11
-728.4298877534303
 21
341.0874328329527
 31
0.0
  0
LINE
  5
113
330
1F
100
AcDbEntity
  8
0-0
  6
JWW_DASHED1
 62
   120
370
     5
100
AcDbLine
 10
-808.4298877534121
 20
270.9869277681881
 30
0.0
 11
-728.4298877534133
 21
350.986927768187
 31
0.0
  0
LINE
  5
114
330
1F
100
AcDbEntity
  8
0-0
  6
JWW_DASHED1
 62
   120
370
     5
100
AcDbLine
 10
-808.4298877534138
 20
280.8864227034024
 30
0.0
 11
-728.429887753415
 21
360.8864227034008
 31
0.0
  0
LINE
  5
115
330
1F
100
AcDbEntity
  8
0-0
  6
JWW_DASHED1
 62
   120
370
     5
100
AcDbLine
 10
-808.4298877534104
 20
290.785917638568
 30
0.0
 11
-728.4298877534286
 21
370.7859176385502
 31
0.0
  0
LINE
  5
116
330
1F
100
AcDbEntity
  8
0-0
  6
JWW_DASHED1
 62
   120
370
     5
100
AcDbLine
 10
-808.4298877534087
 20
300.6854125737852
 30
0.0
 11
-728.4298877534098
 21
380.685412573784
 31
0.0
  0
LINE
  5
117
330
1F
100
AcDbEntity
  8
0-0
  6
JWW_DASHED1
 62
   120
370
     5
100
AcDbLine
 10
-808.4298877534121
 20
310.584907508999
 30
0.0
 11
-728.4298877534133
 21
390.5849075089974
 31
0.0
  0
LINE
  5
118
330
1F
100
AcDbEntity
  8
0-0
  6
JWW_DASHED1
 62
   120
370
     5
100
AcDbLine
 10
-808.4298877534087
 20
320.4844024441638
 30
0.0
 11
-728.4298877534252
 21
400.4844024441473
 31
0.0
  0
LINE
  5
119
330
1F
100
AcDbEntity
  8
0-0
  6
JWW_DASHED1
 62
   120
370
     5
100
AcDbLine
 10
-808.429887753407
 20
330.3838973793822
 30
0.0
 11
-728.4298877534081
 21
410.3838973793807
 31
0.0
  0
LINE
  5
11A
330
1F
100
AcDbEntity
  8
0-0
  6
JWW_DASHED1
 62
   120
370
     5
100
AcDbLine
 10
-808.4298877534155
 20
340.2833923145901
 30
0.0
 11
-728.4298877534167
 21
420.2833923145889
 31
0.0
  0
LINE
  5
11B
330
1F
100
AcDbEntity
  8
0-0
  6
JWW_DASHED1
 62
   120
370
     5
100
AcDbLine
 10
-808.4298877534061
 20
350.1828872497608
 30
0.0
 11
-728.4298877534235
 21
430.182887249743
 31
0.0
  0
LINE
  5
11C
330
1F
100
AcDbEntity
  8
0-0
  6
JWW_DASHED1
 62
   120
370
     5
100
AcDbLine
 10
-808.4298877534036
 20
360.0823821849793
 30
0.0
 11
-728.4298877534218
 21
440.0823821849619
 31
0.0
  0
LINE
  5
11D
330
1F
100
AcDbEntity
  8
0-0
  6
JWW_DASHED1
 62
   120
370
     5
100
AcDbLine
 10
-808.4298877534121
 20
369.9818771201871
 30
0.0
 11
-728.4298877534133
 21
449.981877120186
 31
0.0
  0
LINE
  5
11E
330
1F
100
AcDbEntity
  8
0-0
  6
JWW_DASHED1
 62
   120
370
     5
100
AcDbLine
 10
-808.4298877534036
 20
379.8813720553579
 30
0.0
 11
-728.4298877534218
 21
459.8813720553401
 31
0.0
  0
LINE
  5
11F
330
1F
100
AcDbEntity
  8
0-0
  6
JWW_DASHED1
 62
   120
370
     5
100
AcDbLine
 10
-808.4298877534121
 20
389.7808669905657
 30
0.0
 11
-728.4298877534294
 21
469.7808669905484
 31
0.0
  0
LINE
  5
120
330
1F
100
AcDbEntity
  8
0-0
  6
JWW_DASHED1
 62
   120
370
     5
100
AcDbLine
 10
-808.4298877534104
 20
399.6803619257842
 30
0.0
 11
-728.4298877534115
 21
479.680361925783
 31
0.0
  0
LINE
  5
121
330
1F
100
AcDbEntity
  8
0-0
  6
JWW_DASHED1
 62
   120
370
     5
100
AcDbLine
 10
-808.4298877534019
 20
409.5798568609545
 30
0.0
 11
-728.4298877534184
 21
489.5798568609371
 31
0.0
  0
LINE
  5
122
330
1F
100
AcDbEntity
  8
0-0
  6
JWW_DASHED1
 62
   120
370
     5
100
AcDbLine
 10
-808.4298877534095
 20
419.4793517961627
 30
0.0
 11
-728.4298877534277
 21
499.479351796145
 31
0.0
  0
LINE
  5
123
330
1F
100
AcDbEntity
  8
0-0
  6
JWW_DASHED1
 62
   120
370
     5
100
AcDbLine
 10
-808.429887753407
 20
429.3788467313812
 30
0.0
 11
-728.4298877534081
 21
509.3788467313801
 31
0.0
  0
LINE
  5
124
330
1F
100
AcDbEntity
  8
0-0
  6
JWW_DASHED1
 62
   120
370
     5
100
AcDbLine
 10
-808.4298877534002
 20
439.2783416665507
 30
0.0
 11
-728.4298877534167
 21
519.2783416665334
 31
0.0
  0
LINE
  5
125
330
1F
100
AcDbEntity
  8
0-0
  6
JWW_DASHED1
 62
   120
370
     5
100
AcDbLine
 10
-808.4298877534078
 20
449.1778366017589
 30
0.0
 11
-728.4298877534252
 21
529.177836601742
 31
0.0
  0
LINE
  5
126
330
1F
100
AcDbEntity
  8
0-0
  6
JWW_DASHED1
 62
   120
370
     5
100
AcDbLine
 10
-808.4298877534095
 20
459.077331536919
 30
0.0
 11
-728.4298877534098
 21
539.0773315369187
 31
0.0
  0
LINE
  5
127
330
1F
100
AcDbEntity
  8
0-0
  6
JWW_DASHED1
 62
   120
370
     5
100
AcDbLine
 10
-808.4298877534129
 20
468.976826472132
 30
0.0
 11
-728.429887753415
 21
548.9768264721299
 31
0.0
  0
LINE
  5
128
330
1F
100
AcDbEntity
  8
0-0
  6
JWW_DASHED1
 62
   120
370
     5
100
AcDbLine
 10
-808.4298877534053
 20
478.8763214073555
 30
0.0
 11
-728.4298877534235
 21
558.8763214073382
 31
0.0
  0
LINE
  5
129
330
1F
100
AcDbEntity
  8
0-0
  6
JWW_DASHED1
 62
   120
370
     5
100
AcDbLine
 10
-808.429887753407
 20
488.7758163425161
 30
0.0
 11
-728.4298877534081
 21
568.7758163425145
 31
0.0
  0
LINE
  5
12A
330
1F
100
AcDbEntity
  8
0-0
  6
JWW_DASHED1
 62
   120
370
     5
100
AcDbLine
 10
-808.4298877534155
 20
498.6753112777243
 30
0.0
 11
-728.4298877534158
 21
578.6753112777236
 31
0.0
  0
LINE
  5
12B
330
1F
100
AcDbEntity
  8
0-0
  6
JWW_DASHED1
 62
   120
370
     5
100
AcDbLine
 10
-808.4298877534036
 20
508.5748062129526
 30
0.0
 11
-728.4298877534209
 21
588.5748062129348
 31
0.0
  0
LINE
  5
12C
330
1F
100
AcDbEntity
  8
0-0
  6
JWW_DASHED1
 62
   120
370
     5
100
AcDbLine
 10
-808.4298877534053
 20
518.4743011481127
 30
0.0
 11
-728.4298877534218
 21
598.4743011480957
 31
0.0
  0
LINE
  5
12D
330
1F
100
AcDbEntity
  8
0-0
  6
JWW_DASHED1
 62
   120
370
     5
100
AcDbLine
 10
-808.4298877534121
 20
528.3737960833214
 30
0.0
 11
-728.429887753414
 21
608.3737960833198
 31
0.0
  0
LINE
  5
12E
330
1F
100
AcDbEntity
  8
0-0
  6
JWW_DASHED1
 62
   120
370
     5
100
AcDbLine
 10
-808.429887753401
 20
538.2732910185492
 30
0.0
 11
-728.4298877534184
 21
618.2732910185318
 31
0.0
  0
LINE
  5
12F
330
1F
100
AcDbEntity
  8
0-0
  6
JWW_DASHED1
 62
   120
370
     5
100
AcDbLine
 10
-808.4298877534138
 20
548.1727859536982
 30
0.0
 11
-728.4298877534311
 21
628.1727859536809
 31
0.0
  0
LINE
  5
130
330
1F
100
AcDbEntity
  8
0-0
  6
JWW_DASHED1
 62
   120
370
     5
100
AcDbLine
 10
-808.4298877534112
 20
558.0722808889171
 30
0.0
 11
-728.4298877534115
 21
638.0722808889168
 31
0.0
  0
LINE
  5
131
330
1F
100
AcDbEntity
  8
0-0
  6
JWW_DASHED1
 62
   120
370
     5
100
AcDbLine
 10
-808.4298877534155
 20
567.9717758241296
 30
0.0
 11
-728.4298877534158
 21
647.9717758241289
 31
0.0
  0
LINE
  5
132
330
1F
100
AcDbEntity
  8
0-0
  6
JWW_DASHED1
 62
   120
370
     5
100
AcDbLine
 10
-808.4298877534112
 20
577.8712707592953
 30
0.0
 11
-728.4298877534286
 21
657.8712707592775
 31
0.0
  0
LINE
  5
133
330
1F
100
AcDbEntity
  8
0-0
  6
JWW_DASHED1
 62
   120
370
     5
100
AcDbLine
 10
-808.4298877534078
 20
587.770765694515
 30
0.0
 11
-728.4298877534089
 21
667.7707656945139
 31
0.0
  0
LINE
  5
134
330
1F
100
AcDbEntity
  8
0-0
  6
JWW_DASHED1
 62
   120
370
     5
100
AcDbLine
 10
-808.4298877534121
 20
597.6702606297271
 30
0.0
 11
-728.429887753415
 21
677.6702606297247
 31
0.0
  0
LINE
  5
135
330
1F
100
AcDbEntity
  8
0-0
  6
JWW_DASHED1
 62
   120
370
     5
100
AcDbLine
 10
-808.4298877534095
 20
607.5697555648915
 30
0.0
 11
-728.4298877534269
 21
687.5697555648745
 31
0.0
  0
LINE
  5
136
330
1F
100
AcDbEntity
  8
0-0
  6
JWW_DASHED1
 62
   120
370
     5
100
AcDbLine
 10
-808.4298877534053
 20
617.469250500112
 30
0.0
 11
-728.4298877534064
 21
697.4692505001109
 31
0.0
  0
LINE
  5
137
330
1F
100
AcDbEntity
  8
0-0
  6
JWW_DASHED1
 62
   120
370
     5
100
AcDbLine
 10
-808.4298877534138
 20
627.3687454353203
 30
0.0
 11
-728.429887753415
 21
707.3687454353192
 31
0.0
  0
LINE
  5
138
330
1F
100
AcDbEntity
  8
0-0
  6
JWW_DASHED1
 62
   120
370
     5
100
AcDbLine
 10
-808.429887753407
 20
637.2682403704889
 30
0.0
 11
-728.4298877534252
 21
717.2682403704707
 31
0.0
  0
LINE
  5
139
330
1F
100
AcDbEntity
  8
0-0
  6
JWW_DASHED1
 62
   120
370
     5
100
AcDbLine
 10
-808.4298877534036
 20
647.1677353057087
 30
0.0
 11
-728.4298877534201
 21
727.1677353056917
 31
0.0
  0
LINE
  5
13A
330
1F
100
AcDbEntity
  8
0-0
  6
JWW_DASHED1
 62
   120
370
     5
100
AcDbLine
 10
-808.4298877534121
 20
657.0672302408611
 30
0.0
 11
-728.429887753414
 21
737.0672302408595
 31
0.0
  0
LINE
  5
13B
330
1F
100
AcDbEntity
  8
0-0
  6
JWW_DASHED1
 62
   120
370
     5
100
AcDbLine
 10
-808.4298877534053
 20
666.9667251760851
 30
0.0
 11
-728.4298877534218
 21
746.9667251760678
 31
0.0
  0
LINE
  5
13C
330
1F
100
AcDbEntity
  8
0-0
  6
JWW_DASHED1
 62
   120
370
     5
100
AcDbLine
 10
-808.4298877534129
 20
676.8662201112934
 30
0.0
 11
-728.4298877534303
 21
756.8662201112757
 31
0.0
  0
LINE
  5
13D
330
1F
100
AcDbEntity
  8
0-0
  6
JWW_DASHED1
 62
   120
370
     5
100
AcDbLine
 10
-808.4298877534138
 20
686.7657150464547
 30
0.0
 11
-728.429887753415
 21
766.7657150464536
 31
0.0
  0
LINE
  5
13E
330
1F
100
AcDbEntity
  8
0-0
  6
JWW_DASHED1
 62
   120
370
     5
100
AcDbLine
 10
-808.4298877534019
 20
696.6652099816822
 30
0.0
 11
-728.4298877534201
 21
776.6652099816648
 31
0.0
  0
LINE
  5
13F
330
1F
100
AcDbEntity
  8
0-0
  6
JWW_DASHED1
 62
   120
370
     5
100
AcDbLine
 10
-808.4298877534104
 20
706.56470491689
 30
0.0
 11
-728.4298877534286
 21
786.5647049168726
 31
0.0
  0
LINE
  5
140
330
1F
100
AcDbEntity
  8
0-0
  6
JWW_DASHED1
 62
   120
370
     5
100
AcDbLine
 10
-808.4298877534104
 20
716.4641998520518
 30
0.0
 11
-728.4298877534115
 21
796.4641998520507
 31
0.0
  0
LINE
  5
141
330
1F
100
AcDbEntity
  8
0-0
  6
JWW_DASHED1
 62
   120
370
     5
100
AcDbLine
 10
-808.4298877534155
 20
726.3636947872631
 30
0.0
 11
-728.4298877534184
 21
806.363694787261
 31
0.0
  0
LINE
  5
142
330
1F
100
AcDbEntity
  8
0-0
  6
JWW_DASHED1
 62
   120
370
     5
100
AcDbLine
 10
-808.4298877534087
 20
736.2631897224866
 30
0.0
 11
-728.429887753426
 21
816.2631897224693
 31
0.0
  0
LINE
  5
143
330
1F
100
AcDbEntity
  8
0-0
  6
JWW_DASHED1
 62
   120
370
     5
100
AcDbLine
 10
-808.4298877534087
 20
746.1626846576488
 30
0.0
 11
-728.4298877534098
 21
826.1626846576477
 31
0.0
  0
LINE
  5
144
330
1F
100
AcDbEntity
  8
0-0
  6
JWW_DASHED1
 62
   120
370
     5
100
AcDbLine
 10
-808.4298877534138
 20
756.0621795928596
 30
0.0
 11
-728.429887753415
 21
836.0621795928581
 31
0.0
  0
LINE
  5
145
330
1F
100
AcDbEntity
  8
0-0
  6
JWW_DASHED1
 62
   120
370
     5
100
AcDbLine
 10
-808.4298877534061
 20
765.9616745280837
 30
0.0
 11
-728.4298877534243
 21
845.9616745280655
 31
0.0
  0
LINE
  5
146
330
1F
100
AcDbEntity
  8
0-0
  6
JWW_DASHED1
 62
   120
370
     5
100
AcDbLine
 10
-808.4298877534053
 20
775.8611694632459
 30
0.0
 11
-728.4298877534064
 21
855.8611694632448
 31
0.0
  0
LINE
  5
147
330
1F
100
AcDbEntity
  8
0-0
  6
JWW_DASHED1
 62
   120
370
     5
100
AcDbLine
 10
-808.4298877534138
 20
785.760664398454
 30
0.0
 11
-728.429887753415
 21
865.7606643984526
 31
0.0
  0
LINE
  5
148
330
1F
100
AcDbEntity
  8
0-0
  6
JWW_DASHED1
 62
   120
370
     5
100
AcDbLine
 10
-808.4298877534044
 20
795.6601593336799
 30
0.0
 11
-728.4298877534218
 21
875.6601593336624
 31
0.0
  0
LINE
  5
149
330
1F
100
AcDbEntity
  8
0-0
  6
JWW_DASHED1
 62
   120
370
     5
100
AcDbLine
 10
-808.4298877534036
 20
805.5596542688429
 30
0.0
 11
-728.4298877534201
 21
885.5596542688256
 31
0.0
  0
LINE
  5
14A
330
1F
100
AcDbEntity
  8
0-0
  6
JWW_DASHED1
 62
   120
370
     5
100
AcDbLine
 10
-808.4298877534121
 20
815.4591492040507
 30
0.0
 11
-728.4298877534133
 21
895.4591492040496
 31
0.0
  0
LINE
  5
14B
330
1F
100
AcDbEntity
  8
0-0
  6
JWW_DASHED1
 62
   120
370
     5
100
AcDbLine
 10
-808.4298877534019
 20
825.3586441392765
 30
0.0
 11
-728.4298877534201
 21
905.3586441392591
 31
0.0
  0
LINE
  5
14C
330
1F
100
AcDbEntity
  8
0-0
  6
JWW_DASHED1
 62
   120
370
     5
100
AcDbLine
 10
-808.4298877534146
 20
835.2581390744259
 30
0.0
 11
-728.429887753432
 21
915.2581390744084
 31
0.0
  0
LINE
  5
14D
330
1F
100
AcDbEntity
  8
0-0
  6
JWW_DASHED1
 62
   120
370
     5
100
AcDbLine
 10
-808.4298877534087
 20
845.1576340096478
 30
0.0
 11
-728.4298877534098
 21
925.1576340096467
 31
0.0
  0
LINE
  5
14E
330
1F
100
AcDbEntity
  8
0-0
  6
JWW_DASHED1
 62
   120
370
     5
100
AcDbLine
 10
-808.4298877534036
 20
855.0571289448147
 30
0.0
 11
-728.4298877534209
 21
935.0571289447978
 31
0.0
  0
LINE
  5
14F
330
1F
100
AcDbEntity
  8
0-0
  6
JWW_DASHED1
 62
   120
370
     5
100
AcDbLine
 10
-808.4298877534121
 20
864.9566238800226
 30
0.0
 11
-728.4298877534303
 21
944.9566238800052
 31
0.0
  0
LINE
  5
150
330
1F
100
AcDbEntity
  8
0-0
  6
JWW_DASHED1
 62
   120
370
     5
100
AcDbLine
 10
-808.429887753407
 20
874.8561188152448
 30
0.0
 11
-728.4298877534081
 21
954.8561188152437
 31
0.0
  0
LINE
  5
151
330
1F
100
AcDbEntity
  8
0-0
  6
JWW_DASHED1
 62
   120
370
     5
100
AcDbLine
 10
-808.4298877534019
 20
884.7556137504112
 30
0.0
 11
-728.4298877534192
 21
964.755613750394
 31
0.0
  0
LINE
  5
152
330
1F
100
AcDbEntity
  8
0-0
  6
JWW_DASHED1
 62
   120
370
     5
100
AcDbLine
 10
-808.4298877534104
 20
894.6551086856196
 30
0.0
 11
-728.4298877534269
 21
974.6551086856023
 31
0.0
  0
LINE
  5
153
330
1F
100
AcDbEntity
  8
0-0
  6
JWW_DASHED1
 62
   120
370
     5
100
AcDbLine
 10
-808.4298877534036
 20
904.5546036208419
 30
0.0
 11
-728.4298877534047
 21
984.5546036208408
 31
0.0
  0
LINE
  5
154
330
1F
100
AcDbEntity
  8
0-0
  6
JWW_DASHED1
 62
   120
370
     5
100
AcDbLine
 10
-808.4298877534155
 20
914.454098555992
 30
0.0
 11
-728.4298877534167
 21
994.4540985559906
 31
0.0
  0
LINE
  5
155
330
1F
100
AcDbEntity
  8
0-0
  6
JWW_DASHED1
 62
   120
370
     5
100
AcDbLine
 10
-808.4298877534078
 20
924.3535934912162
 30
0.0
 11
-728.4298877534252
 21
1004.353593491199
 31
0.0
  0
LINE
  5
156
330
1F
100
AcDbEntity
  8
0-0
  6
JWW_DASHED1
 62
   120
370
     5
100
AcDbLine
 10
-808.4298877534019
 20
934.2530884264389
 30
0.0
 11
-728.4298877534184
 21
1014.253088426422
 31
0.0
  0
LINE
  5
157
330
1F
100
AcDbEntity
  8
0-0
  6
JWW_DASHED1
 62
   120
370
     5
100
AcDbLine
 10
-808.4298877534129
 20
944.1525833615892
 30
0.0
 11
-728.429887753415
 21
1024.152583361588
 31
0.0
  0
LINE
  5
158
330
1F
100
AcDbEntity
  8
0-0
  6
JWW_DASHED1
 62
   120
370
     5
100
AcDbLine
 10
-808.4298877534053
 20
954.0520782968129
 30
0.0
 11
-728.4298877534235
 21
1034.052078296796
 31
0.0
  0
LINE
  5
159
330
1F
100
AcDbEntity
  8
0-0
  6
JWW_DASHED1
 62
   120
370
     5
100
AcDbLine
 10
-808.4298877534138
 20
963.9515732320207
 30
0.0
 11
-728.4298877534311
 21
1043.951573232004
 31
0.0
  0
LINE
  5
15A
330
1F
100
AcDbEntity
  8
0-0
  6
JWW_DASHED1
 62
   120
370
     5
100
AcDbLine
 10
-808.4298877534121
 20
973.851068167185
 30
0.0
 11
-728.4298877534133
 21
1053.851068167184
 31
0.0
  0
LINE
  5
15B
330
1F
100
AcDbEntity
  8
0-0
  6
JWW_DASHED1
 62
   120
370
     5
100
AcDbLine
 10
-808.4298877534036
 20
983.7505631024094
 30
0.0
 11
-728.4298877534201
 21
1063.750563102393
 31
0.0
  0
LINE
  5
15C
330
1F
100
AcDbEntity
  8
0-0
  6
JWW_DASHED1
 62
   120
370
     5
100
AcDbLine
 10
-808.4298877534121
 20
993.6500580376177
 30
0.0
 11
-728.4298877534294
 21
1073.6500580376
 31
0.0
  0
LINE
  5
15D
330
1F
100
AcDbEntity
  8
0-0
  6
JWW_DASHED1
 62
   120
370
     5
100
AcDbLine
 10
-808.4298877534095
 20
1003.549552972782
 30
0.0
 11
-728.4298877534098
 21
1083.549552972781
 31
0.0
  0
LINE
  5
15E
330
1F
100
AcDbEntity
  8
0-0
  6
JWW_DASHED1
 62
   120
370
     5
100
AcDbLine
 10
-808.4298877534172
 20
1013.44904790799
 30
0.0
 11
-728.4298877534184
 21
1093.449047907989
 31
0.0
  0
LINE
  5
15F
330
1F
100
AcDbEntity
  8
0-0
  6
JWW_DASHED1
 62
   120
370
     5
100
AcDbLine
 10
-808.4298877534095
 20
1023.348542843214
 30
0.0
 11
-728.4298877534269
 21
1103.348542843197
 31
0.0
  0
LINE
  5
160
330
1F
100
AcDbEntity
  8
0-0
  6
JWW_DASHED1
 62
   120
370
     5
100
AcDbLine
 10
-808.429887753407
 20
1033.248037778379
 30
0.0
 11
-728.4298877534081
 21
1113.248037778377
 31
0.0
  0
LINE
  5
161
330
1F
100
AcDbEntity
  8
0-0
  6
JWW_DASHED1
 62
   120
370
     5
100
AcDbLine
 10
-808.4298877534146
 20
1043.147532713587
 30
0.0
 11
-729.3673207337758
 21
1122.210099733226
 31
0.0
  0
LINE
  5
162
330
1F
100
AcDbEntity
  8
0-0
  6
JWW_DASHED1
 62
   120
370
     5
100
AcDbLine
 10
-808.4298877534121
 20
1053.047027648752
 30
0.0
 11
-739.2668156689274
 21
1122.210099733236
 31
0.0
  0
LINE
  5
163
330
1F
100
AcDbEntity
  8
0-0
  6
JWW_DASHED1
 62
   120
370
     5
100
AcDbLine
 10
-808.4298877534044
 20
1062.946522583975
 30
0.0
 11
-749.166310604165
 21
1122.210099733215
 31
0.0
  0
LINE
  5
164
330
1F
100
AcDbEntity
  8
0-0
  6
JWW_DASHED1
 62
   120
370
     5
100
AcDbLine
 10
-808.4298877534121
 20
1072.846017519184
 30
0.0
 11
-759.0658055393737
 21
1122.210099733223
 31
0.0
  0
LINE
  5
165
330
1F
100
AcDbEntity
  8
0-0
  6
JWW_DASHED1
 62
   120
370
     5
100
AcDbLine
 10
-808.4298877534087
 20
1082.745512454349
 30
0.0
 11
-768.9653004745304
 21
1122.210099733227
 31
0.0
  0
LINE
  5
166
330
1F
100
AcDbEntity
  8
0-0
  6
JWW_DASHED1
 62
   120
370
     5
100
AcDbLine
 10
-808.4298877534019
 20
1092.645007389573
 30
0.0
 11
-778.8647954097561
 21
1122.210099733218
 31
0.0
  0
LINE
  5
167
330
1F
100
AcDbEntity
  8
0-0
  6
JWW_DASHED1
 62
   120
370
     5
100
AcDbLine
 10
-808.4298877534104
 20
1102.544502324781
 30
0.0
 11
-788.7642903449699
 21
1122.210099733221
 31
0.0
  0
LINE
  5
168
330
1F
100
AcDbEntity
  8
0-0
  6
JWW_DASHED1
 62
   120
370
     5
100
AcDbLine
 10
-808.429887753407
 20
1112.443997259946
 30
0.0
 11
-798.6637852801334
 21
1122.210099733219
 31
0.0
  0
LINE
  5
169
330
1F
100
AcDbEntity
  8
0-0
  6
JWW_DASHED1
 62
   120
370
     5
100
AcDbLine
 10
41.72257513924141
 20
-1044.789900266776
 30
0.0
 11
51.57011224658508
 21
-1034.942363159433
 31
0.0
  0
LINE
  5
16A
330
1F
100
AcDbEntity
  8
0-0
  6
JWW_DASHED1
 62
   120
370
     5
100
AcDbLine
 10
31.82308020407792
 20
-1044.789900266778
 30
0.0
 11
51.57011224658763
 21
-1025.042868224268
 31
0.0
  0
LINE
  5
16B
330
1F
100
AcDbEntity
  8
0-0
  6
JWW_DASHED1
 62
   120
370
     5
100
AcDbLine
 10
21.92358526885474
 20
-1044.789900266785
 30
0.0
 11
51.57011224659531
 21
-1015.143373289044
 31
0.0
  0
LINE
  5
16C
330
1F
100
AcDbEntity
  8
0-0
  6
JWW_DASHED1
 62
   120
370
     5
100
AcDbLine
 10
12.02409033363839
 20
-1044.789900266785
 30
0.0
 11
51.57011224658678
 21
-1005.243878353836
 31
0.0
  0
LINE
  5
16D
330
1F
100
AcDbEntity
  8
0-0
  6
JWW_DASHED1
 62
   120
370
     5
100
AcDbLine
 10
2.124595398481723
 20
-1044.789900266779
 30
0.0
 11
51.57011224659019
 21
-995.344383418671
 31
0.0
  0
LINE
  5
16E
330
1F
100
AcDbEntity
  8
0-0
  6
JWW_DASHED1
 62
   120
370
     5
100
AcDbLine
 10
-7.774899536726956
 20
-1044.789900266772
 30
0.0
 11
51.57011224658167
 21
-985.4448884834632
 31
0.0
  0
LINE
  5
16F
330
1F
100
AcDbEntity
  8
0-0
  6
JWW_DASHED1
 62
   120
370
     5
100
AcDbLine
 10
-17.67439447196463
 20
-1044.789900266793
 30
0.0
 11
51.57011224658849
 21
-975.5453935482391
 31
0.0
  0
LINE
  5
170
330
1F
100
AcDbEntity
  8
0-0
  6
JWW_DASHED1
 62
   120
370
     5
100
AcDbLine
 10
-27.57388940711618
 20
-1044.789900266782
 30
0.0
 11
51.57011224657655
 21
-965.6458986130897
 31
0.0
  0
LINE
  5
171
330
1F
100
AcDbEntity
  8
0-0
  6
JWW_DASHED1
 62
   120
370
     5
100
AcDbLine
 10
-28.42988775341379
 20
-1035.746403677864
 30
0.0
 11
51.57011224658422
 21
-955.746403677866
 31
0.0
  0
LINE
  5
172
330
1F
100
AcDbEntity
  8
0-0
  6
JWW_DASHED1
 62
   120
370
     5
100
AcDbLine
 10
-28.42988775339162
 20
-1025.846908742625
 30
0.0
 11
51.57011224659104
 21
-945.8469087426429
 31
0.0
  0
LINE
  5
173
330
1F
100
AcDbEntity
  8
0-0
  6
JWW_DASHED1
 62
   120
370
     5
100
AcDbLine
 10
-28.42988775340356
 20
-1015.947413807476
 30
0.0
 11
51.57011224657825
 21
-935.9474138074935
 31
0.0
  0
LINE
  5
174
330
1F
100
AcDbEntity
  8
0-0
  6
JWW_DASHED1
 62
   120
370
     5
100
AcDbLine
 10
-28.42988775341208
 20
-1006.047918872268
 30
0.0
 11
51.57011224658678
 21
-926.0479188722691
 31
0.0
  0
LINE
  5
175
330
1F
100
AcDbEntity
  8
0-0
  6
JWW_DASHED1
 62
   120
370
     5
100
AcDbLine
 10
-28.42988775340526
 20
-996.1484239370443
 30
0.0
 11
51.5701122465936
 21
-916.1484239370459
 31
0.0
  0
LINE
  5
176
330
1F
100
AcDbEntity
  8
0-0
  6
JWW_DASHED1
 62
   120
370
     5
100
AcDbLine
 10
-28.42988775340185
 20
-986.2489290018796
 30
0.0
 11
51.57011224658081
 21
-906.2489290018963
 31
0.0
  0
LINE
  5
177
330
1F
100
AcDbEntity
  8
0-0
  6
JWW_DASHED1
 62
   120
370
     5
100
AcDbLine
 10
-28.42988775341038
 20
-976.3494340666708
 30
0.0
 11
51.57011224658934
 21
-896.349434066672
 31
0.0
  0
LINE
  5
178
330
1F
100
AcDbEntity
  8
0-0
  6
JWW_DASHED1
 62
   120
370
     5
100
AcDbLine
 10
-28.4298877534027
 20
-966.4499391314476
 30
0.0
 11
51.57011224659531
 21
-886.4499391314492
 31
0.0
  0
LINE
  5
179
330
1F
100
AcDbEntity
  8
0-0
  6
JWW_DASHED1
 62
   120
370
     5
100
AcDbLine
 10
-28.42988775340014
 20
-956.5504441962829
 30
0.0
 11
51.57011224658337
 21
-876.5504441963001
 31
0.0
  0
LINE
  5
17A
330
1F
100
AcDbEntity
  8
0-0
  6
JWW_DASHED1
 62
   120
370
     5
100
AcDbLine
 10
-28.42988775340697
 20
-946.6509492610738
 30
0.0
 11
51.57011224657655
 21
-866.6509492610905
 31
0.0
  0
LINE
  5
17B
330
1F
100
AcDbEntity
  8
0-0
  6
JWW_DASHED1
 62
   120
370
     5
100
AcDbLine
 10
-28.4298877534172
 20
-936.7514543258952
 30
0.0
 11
51.57011224658167
 21
-856.7514543258961
 31
0.0
  0
LINE
  5
17C
330
1F
100
AcDbEntity
  8
0-0
  6
JWW_DASHED1
 62
   120
370
     5
100
AcDbLine
 10
-28.42988775339673
 20
-926.8519593906857
 30
0.0
 11
51.57011224658508
 21
-846.8519593907032
 31
0.0
  0
LINE
  5
17D
330
1F
100
AcDbEntity
  8
0-0
  6
JWW_DASHED1
 62
   120
370
     5
100
AcDbLine
 10
-28.42988775340611
 20
-916.9524644554779
 30
0.0
 11
51.57011224657655
 21
-836.9524644554954
 31
0.0
  0
LINE
  5
17E
330
1F
100
AcDbEntity
  8
0-0
  6
JWW_DASHED1
 62
   120
370
     5
100
AcDbLine
 10
-28.4298877534172
 20
-907.0529695203278
 30
0.0
 11
51.57011224658167
 21
-827.0529695203289
 31
0.0
  0
LINE
  5
17F
330
1F
100
AcDbEntity
  8
0-0
  6
JWW_DASHED1
 62
   120
370
     5
100
AcDbLine
 10
-28.42988775339503
 20
-897.1534745850893
 30
0.0
 11
51.57011224658763
 21
-817.1534745851066
 31
0.0
  0
LINE
  5
180
330
1F
100
AcDbEntity
  8
0-0
  6
JWW_DASHED1
 62
   120
370
     5
100
AcDbLine
 10
-28.42988775340356
 20
-887.253979649881
 30
0.0
 11
51.57011224657825
 21
-807.2539796498987
 31
0.0
  0
LINE
  5
181
330
1F
100
AcDbEntity
  8
0-0
  6
JWW_DASHED1
 62
   120
370
     5
100
AcDbLine
 10
-28.42988775341464
 20
-877.3544847147307
 30
0.0
 11
51.57011224658422
 21
-797.3544847147318
 31
0.0
  0
LINE
  5
182
330
1F
100
AcDbEntity
  8
0-0
  6
JWW_DASHED1
 62
   120
370
     5
100
AcDbLine
 10
-28.42988775339332
 20
-867.4549897794922
 30
0.0
 11
51.57011224659019
 21
-787.4549897795096
 31
0.0
  0
LINE
  5
183
330
1F
100
AcDbEntity
  8
0-0
  6
JWW_DASHED1
 62
   120
370
     5
100
AcDbLine
 10
-28.42988775340014
 20
-857.5554948442838
 30
0.0
 11
51.57011224658167
 21
-777.5554948443017
 31
0.0
  0
LINE
  5
184
330
1F
100
AcDbEntity
  8
0-0
  6
JWW_DASHED1
 62
   120
370
     5
100
AcDbLine
 10
-28.42988775341208
 20
-847.6559999091337
 30
0.0
 11
51.57011224658678
 21
-767.6559999091348
 31
0.0
  0
LINE
  5
185
330
1F
100
AcDbEntity
  8
0-0
  6
JWW_DASHED1
 62
   120
370
     5
100
AcDbLine
 10
-28.42988775340697
 20
-837.7565049739113
 30
0.0
 11
51.5701122465919
 21
-757.7565049739129
 31
0.0
  0
LINE
  5
186
330
1F
100
AcDbEntity
  8
0-0
  6
JWW_DASHED1
 62
   120
370
     5
100
AcDbLine
 10
-28.42988775339929
 20
-827.8570100386881
 30
0.0
 11
51.57011224658337
 21
-747.8570100387055
 31
0.0
  0
LINE
  5
187
330
1F
100
AcDbEntity
  8
0-0
  6
JWW_DASHED1
 62
   120
370
     5
100
AcDbLine
 10
-28.42988775340952
 20
-817.9575151035366
 30
0.0
 11
51.57011224658849
 21
-737.9575151035382
 31
0.0
  0
LINE
  5
188
330
1F
100
AcDbEntity
  8
0-0
  6
JWW_DASHED1
 62
   120
370
     5
100
AcDbLine
 10
-28.42988775340356
 20
-808.0580201683143
 30
0.0
 11
51.5701122465936
 21
-728.0580201683167
 31
0.0
  0
LINE
  5
189
330
1F
100
AcDbEntity
  8
0-0
  6
JWW_DASHED1
 62
   120
370
     5
100
AcDbLine
 10
-28.42988775339673
 20
-798.1585252330912
 30
0.0
 11
51.57011224658593
 21
-718.1585252331084
 31
0.0
  0
LINE
  5
18A
330
1F
100
AcDbEntity
  8
0-0
  6
JWW_DASHED1
 62
   120
370
     5
100
AcDbLine
 10
-28.42988775340782
 20
-788.2590302979398
 30
0.0
 11
51.5701122465919
 21
-708.2590302979411
 31
0.0
  0
LINE
  5
18B
330
1F
100
AcDbEntity
  8
0-0
  6
JWW_DASHED1
 62
   120
370
     5
100
AcDbLine
 10
-28.42988775341549
 20
-778.3595353627318
 30
0.0
 11
51.57011224658337
 21
-698.3595353627329
 31
0.0
  0
LINE
  5
18C
330
1F
100
AcDbEntity
  8
0-0
  6
JWW_DASHED1
 62
   120
370
     5
100
AcDbLine
 10
-28.42988775339418
 20
-768.460040427494
 30
0.0
 11
51.57011224658849
 21
-688.4600404275118
 31
0.0
  0
LINE
  5
18D
330
1F
100
AcDbEntity
  8
0-0
  6
JWW_DASHED1
 62
   120
370
     5
100
AcDbLine
 10
-28.42988775340526
 20
-758.560545492343
 30
0.0
 11
51.57011224657825
 21
-678.5605454923599
 31
0.0
  0
LINE
  5
18E
330
1F
100
AcDbEntity
  8
0-0
  6
JWW_DASHED1
 62
   120
370
     5
100
AcDbLine
 10
-28.42988775341379
 20
-748.6610505571347
 30
0.0
 11
51.57011224658593
 21
-668.6610505571358
 31
0.0
  0
LINE
  5
18F
330
1F
100
AcDbEntity
  8
0-0
  6
JWW_DASHED1
 62
   120
370
     5
100
AcDbLine
 10
-28.42988775339247
 20
-738.7615556218974
 30
0.0
 11
51.57011224659019
 21
-658.7615556219148
 31
0.0
  0
LINE
  5
190
330
1F
100
AcDbEntity
  8
0-0
  6
JWW_DASHED1
 62
   120
370
     5
100
AcDbLine
 10
-28.42988775340526
 20
-728.8620606867485
 30
0.0
 11
51.57011224657825
 21
-648.8620606867657
 31
0.0
  0
LINE
  5
191
330
1F
100
AcDbEntity
  8
0-0
  6
JWW_DASHED1
 62
   120
370
     5
100
AcDbLine
 10
-28.42988775341123
 20
-718.9625657515385
 30
0.0
 11
51.57011224658849
 21
-638.9625657515388
 31
0.0
  0
LINE
  5
192
330
1F
100
AcDbEntity
  8
0-0
  6
JWW_DASHED1
 62
   120
370
     5
100
AcDbLine
 10
-28.42988775340611
 20
-709.0630708163166
 30
0.0
 11
51.5701122465919
 21
-629.0630708163181
 31
0.0
  0
LINE
  5
193
330
1F
100
AcDbEntity
  8
0-0
  6
JWW_DASHED1
 62
   120
370
     5
100
AcDbLine
 10
-28.42988775340356
 20
-699.1635758811518
 30
0.0
 11
51.57011224657996
 21
-619.1635758811692
 31
0.0
  0
LINE
  5
194
330
1F
100
AcDbEntity
  8
0-0
  6
JWW_DASHED1
 62
   120
370
     5
100
AcDbLine
 10
-28.42988775340867
 20
-689.2640809459406
 30
0.0
 11
51.57011224659019
 21
-609.2640809459422
 31
0.0
  0
LINE
  5
195
330
1F
100
AcDbEntity
  8
0-0
  6
JWW_DASHED1
 62
   120
370
     5
100
AcDbLine
 10
-28.4298877534172
 20
-679.3645860107328
 30
0.0
 11
51.57011224658252
 21
-599.3645860107339
 31
0.0
  0
LINE
  5
196
330
1F
100
AcDbEntity
  8
0-0
  6
JWW_DASHED1
 62
   120
370
     5
100
AcDbLine
 10
-28.42988775340014
 20
-669.4650910755548
 30
0.0
 11
51.57011224658167
 21
-589.465091075573
 31
0.0
  0
LINE
  5
197
330
1F
100
AcDbEntity
  8
0-0
  6
JWW_DASHED1
 62
   120
370
     5
100
AcDbLine
 10
-28.42988775340611
 20
-659.5655961403444
 30
0.0
 11
51.57011224657655
 21
-579.5655961403613
 31
0.0
  0
LINE
  5
198
330
1F
100
AcDbEntity
  8
0-0
  6
JWW_DASHED1
 62
   120
370
     5
100
AcDbLine
 10
-28.42988775341379
 20
-649.6661012051358
 30
0.0
 11
51.57011224658508
 21
-569.6661012051369
 31
0.0
  0
LINE
  5
199
330
1F
100
AcDbEntity
  8
0-0
  6
JWW_DASHED1
 62
   120
370
     5
100
AcDbLine
 10
-28.42988775339844
 20
-639.7666062699577
 30
0.0
 11
51.57011224658422
 21
-559.7666062699759
 31
0.0
  0
LINE
  5
19A
330
1F
100
AcDbEntity
  8
0-0
  6
JWW_DASHED1
 62
   120
370
     5
100
AcDbLine
 10
-28.42988775340697
 20
-629.8671113347503
 30
0.0
 11
51.5701122465757
 21
-549.8671113347681
 31
0.0
  0
LINE
  5
19B
330
1F
100
AcDbEntity
  8
0-0
  6
JWW_DASHED1
 62
   120
370
     5
100
AcDbLine
 10
-28.42988775341549
 20
-619.9676163995975
 30
0.0
 11
51.57011224658167
 21
-539.9676163995995
 31
0.0
  0
LINE
  5
19C
330
1F
100
AcDbEntity
  8
0-0
  6
JWW_DASHED1
 62
   120
370
     5
100
AcDbLine
 10
-28.42988775339588
 20
-610.0681214643615
 30
0.0
 11
51.57011224658678
 21
-530.0681214643789
 31
0.0
  0
LINE
  5
19D
330
1F
100
AcDbEntity
  8
0-0
  6
JWW_DASHED1
 62
   120
370
     5
100
AcDbLine
 10
-28.42988775340441
 20
-600.1686265291537
 30
0.0
 11
51.57011224657825
 21
-520.1686265291711
 31
0.0
  0
LINE
  5
19E
330
1F
100
AcDbEntity
  8
0-0
  6
JWW_DASHED1
 62
   120
370
     5
100
AcDbLine
 10
-28.42988775341379
 20
-590.2691315940017
 30
0.0
 11
51.57011224658508
 21
-510.269131594002
 31
0.0
  0
LINE
  5
19F
330
1F
100
AcDbEntity
  8
0-0
  6
JWW_DASHED1
 62
   120
370
     5
100
AcDbLine
 10
-28.42988775339332
 20
-580.3696366587649
 30
0.0
 11
51.57011224658849
 21
-500.3696366587823
 31
0.0
  0
LINE
  5
1A0
330
1F
100
AcDbEntity
  8
0-0
  6
JWW_DASHED1
 62
   120
370
     5
100
AcDbLine
 10
-28.42988775340185
 20
-570.4701417235567
 30
0.0
 11
51.57011224658081
 21
-490.470141723574
 31
0.0
  0
LINE
  5
1A1
330
1F
100
AcDbEntity
  8
0-0
  6
JWW_DASHED1
 62
   120
370
     5
100
AcDbLine
 10
-28.42988775341208
 20
-560.5706467884047
 30
0.0
 11
51.57011224658849
 21
-480.570646788405
 31
0.0
  0
LINE
  5
1A2
330
1F
100
AcDbEntity
  8
0-0
  6
JWW_DASHED1
 62
   120
370
     5
100
AcDbLine
 10
-28.42988775340697
 20
-550.6711518531837
 30
0.0
 11
51.57011224659019
 21
-470.6711518531856
 31
0.0
  0
LINE
  5
1A3
330
1F
100
AcDbEntity
  8
0-0
  6
JWW_DASHED1
 62
   120
370
     5
100
AcDbLine
 10
-28.42988775340014
 20
-540.7716569179601
 30
0.0
 11
51.57011224658337
 21
-460.7716569179774
 31
0.0
  0
LINE
  5
1A4
330
1F
100
AcDbEntity
  8
0-0
  6
JWW_DASHED1
 62
   120
370
     5
100
AcDbLine
 10
-28.42988775340867
 20
-530.8721619828076
 30
0.0
 11
51.57011224659019
 21
-450.8721619828083
 31
0.0
  0
LINE
  5
1A5
330
1F
100
AcDbEntity
  8
0-0
  6
JWW_DASHED1
 62
   120
370
     5
100
AcDbLine
 10
-28.42988775340526
 20
-520.972667047587
 30
0.0
 11
51.5701122465936
 21
-440.9726670475886
 31
0.0
  0
LINE
  5
1A6
330
1F
100
AcDbEntity
  8
0-0
  6
JWW_DASHED1
 62
   120
370
     5
100
AcDbLine
 10
-28.42988775339759
 20
-511.073172112363
 30
0.0
 11
51.57011224658508
 21
-431.0731721123812
 31
0.0
  0
LINE
  5
1A7
330
1F
100
AcDbEntity
  8
0-0
  6
JWW_DASHED1
 62
   120
370
     5
100
AcDbLine
 10
-28.42988775340697
 20
-501.1736771772106
 30
0.0
 11
51.5701122465919
 21
-421.1736771772113
 31
0.0
  0
LINE
  5
1A8
330
1F
100
AcDbEntity
  8
0-0
  6
JWW_DASHED1
 62
   120
370
     5
100
AcDbLine
 10
-28.42988775341464
 20
-491.2741822420023
 30
0.0
 11
51.57011224658508
 21
-411.2741822420031
 31
0.0
  0
LINE
  5
1A9
330
1F
100
AcDbEntity
  8
0-0
  6
JWW_DASHED1
 62
   120
370
     5
100
AcDbLine
 10
-28.42988775339503
 20
-481.374687306766
 30
0.0
 11
51.57011224658678
 21
-401.3746873067842
 31
0.0
  0
LINE
  5
1AA
330
1F
100
AcDbEntity
  8
0-0
  6
JWW_DASHED1
 62
   120
370
     5
100
AcDbLine
 10
-28.42988775340867
 20
-471.4751923716178
 30
0.0
 11
51.57011224657484
 21
-391.4751923716347
 31
0.0
  0
LINE
  5
1AB
330
1F
100
AcDbEntity
  8
0-0
  6
JWW_DASHED1
 62
   120
370
     5
100
AcDbLine
 10
-28.42988775341208
 20
-461.5756974364049
 30
0.0
 11
51.57011224658678
 21
-381.5756974364069
 31
0.0
  0
LINE
  5
1AC
330
1F
100
AcDbEntity
  8
0-0
  6
JWW_DASHED1
 62
   120
370
     5
100
AcDbLine
 10
-28.42988775340867
 20
-451.676202501186
 30
0.0
 11
51.57011224659019
 21
-371.6762025011867
 31
0.0
  0
LINE
  5
1AD
330
1F
100
AcDbEntity
  8
0-0
  6
JWW_DASHED1
 62
   120
370
     5
100
AcDbLine
 10
-28.42988775340611
 20
-441.7767075660212
 30
0.0
 11
51.57011224657655
 21
-361.7767075660377
 31
0.0
  0
LINE
  5
1AE
330
1F
100
AcDbEntity
  8
0-0
  6
JWW_DASHED1
 62
   120
370
     5
100
AcDbLine
 10
-28.42988775341038
 20
-431.8772126308087
 30
0.0
 11
51.57011224658849
 21
-351.8772126308094
 31
0.0
  0
LINE
  5
1AF
330
1F
100
AcDbEntity
  8
0-0
  6
JWW_DASHED1
 62
   120
370
     5
100
AcDbLine
 10
-28.42988775340697
 20
-421.9777176955889
 30
0.0
 11
51.57011224659104
 21
-341.9777176955909
 31
0.0
  0
LINE
  5
1B0
330
1F
100
AcDbEntity
  8
0-0
  6
JWW_DASHED1
 62
   120
370
     5
100
AcDbLine
 10
-28.42988775340356
 20
-412.0782227604241
 30
0.0
 11
51.57011224657911
 21
-332.0782227604415
 31
0.0
  0
LINE
  5
1B1
330
1F
100
AcDbEntity
  8
0-0
  6
JWW_DASHED1
 62
   120
370
     5
100
AcDbLine
 10
-28.42988775340697
 20
-402.1787278252116
 30
0.0
 11
51.5701122465919
 21
-322.1787278252123
 31
0.0
  0
LINE
  5
1B2
330
1F
100
AcDbEntity
  8
0-0
  6
JWW_DASHED1
 62
   120
370
     5
100
AcDbLine
 10
-28.42988775341549
 20
-392.2792328900034
 30
0.0
 11
51.57011224658337
 21
-312.2792328900041
 31
0.0
  0
LINE
  5
1B3
330
1F
100
AcDbEntity
  8
0-0
  6
JWW_DASHED1
 62
   120
370
     5
100
AcDbLine
 10
-28.429887753401
 20
-382.3797379548271
 30
0.0
 11
51.57011224658167
 21
-302.3797379548449
 31
0.0
  0
LINE
  5
1B4
330
1F
100
AcDbEntity
  8
0-0
  6
JWW_DASHED1
 62
   120
370
     5
100
AcDbLine
 10
-28.42988775340526
 20
-372.4802430196146
 30
0.0
 11
51.57011224657825
 21
-292.4802430196311
 31
0.0
  0
LINE
  5
1B5
330
1F
100
AcDbEntity
  8
0-0
  6
JWW_DASHED1
 62
   120
370
     5
100
AcDbLine
 10
-28.42988775341549
 20
-362.5807480844358
 30
0.0
 11
51.57011224658337
 21
-282.5807480844369
 31
0.0
  0
LINE
  5
1B6
330
1F
100
AcDbEntity
  8
0-0
  6
JWW_DASHED1
 62
   120
370
     5
100
AcDbLine
 10
-28.42988775339844
 20
-352.6812531492305
 30
0.0
 11
51.57011224658337
 21
-272.6812531492478
 31
0.0
  0
LINE
  5
1B7
330
1F
100
AcDbEntity
  8
0-0
  6
JWW_DASHED1
 62
   120
370
     5
100
AcDbLine
 10
-28.42988775340697
 20
-342.7817582140222
 30
0.0
 11
51.57011224657484
 21
-262.78175821404
 31
0.0
  0
LINE
  5
1B8
330
1F
100
AcDbEntity
  8
0-0
  6
JWW_DASHED1
 62
   120
370
     5
100
AcDbLine
 10
-28.42988775341549
 20
-332.8822632788685
 30
0.0
 11
51.57011224658422
 21
-252.8822632788692
 31
0.0
  0
LINE
  5
1B9
330
1F
100
AcDbEntity
  8
0-0
  6
JWW_DASHED1
 62
   120
370
     5
100
AcDbLine
 10
-28.42988775339673
 20
-322.9827683436343
 30
0.0
 11
51.57011224658678
 21
-242.9827683436508
 31
0.0
  0
LINE
  5
1BA
330
1F
100
AcDbEntity
  8
0-0
  6
JWW_DASHED1
 62
   120
370
     5
100
AcDbLine
 10
-28.42988775340526
 20
-313.0832734084265
 30
0.0
 11
51.57011224657825
 21
-233.0832734084429
 31
0.0
  0
LINE
  5
1BB
330
1F
100
AcDbEntity
  8
0-0
  6
JWW_DASHED1
 62
   120
370
     5
100
AcDbLine
 10
-28.42988775341208
 20
-303.1837784732715
 30
0.0
 11
51.57011224658678
 21
-223.1837784732722
 31
0.0
  0
LINE
  5
1BC
330
1F
100
AcDbEntity
  8
0-0
  6
JWW_DASHED1
 62
   120
370
     5
100
AcDbLine
 10
-28.42988775339503
 20
-293.2842835380372
 30
0.0
 11
51.57011224658763
 21
-213.284283538055
 31
0.0
  0
LINE
  5
1BD
330
1F
100
AcDbEntity
  8
0-0
  6
JWW_DASHED1
 62
   120
370
     5
100
AcDbLine
 10
-28.42988775340356
 20
-283.3847886028294
 30
0.0
 11
51.57011224657996
 21
-203.3847886028459
 31
0.0
  0
LINE
  5
1BE
330
1F
100
AcDbEntity
  8
0-0
  6
JWW_DASHED1
 62
   120
370
     5
100
AcDbLine
 10
-28.42988775341038
 20
-273.4852936676745
 30
0.0
 11
51.57011224658934
 21
-193.4852936676751
 31
0.0
  0
LINE
  5
1BF
330
1F
100
AcDbEntity
  8
0-0
  6
JWW_DASHED1
 62
   120
370
     5
100
AcDbLine
 10
-28.42988775340867
 20
-263.5857987324564
 30
0.0
 11
51.57011224659019
 21
-183.5857987324579
 31
0.0
  0
LINE
  5
1C0
330
1F
100
AcDbEntity
  8
0-0
  6
JWW_DASHED1
 62
   120
370
     5
100
AcDbLine
 10
-28.42988775340014
 20
-253.6863037972324
 30
0.0
 11
51.57011224658167
 21
-173.6863037972501
 31
0.0
  0
LINE
  5
1C1
330
1F
100
AcDbEntity
  8
0-0
  6
JWW_DASHED1
 62
   120
370
     5
100
AcDbLine
 10
-28.42988775340697
 20
-243.786808862077
 30
0.0
 11
51.5701122465919
 21
-163.7868088620781
 31
0.0
  0
LINE
  5
1C2
330
1F
100
AcDbEntity
  8
0-0
  6
JWW_DASHED1
 62
   120
370
     5
100
AcDbLine
 10
-28.42988775340611
 20
-233.8873139268597
 30
0.0
 11
51.57011224659275
 21
-153.8873139268609
 31
0.0
  0
LINE
  5
1C3
330
1F
100
AcDbEntity
  8
0-0
  6
JWW_DASHED1
 62
   120
370
     5
100
AcDbLine
 10
-28.42988775339844
 20
-223.9878189916357
 30
0.0
 11
51.57011224658422
 21
-143.9878189916531
 31
0.0
  0
LINE
  5
1C4
330
1F
100
AcDbEntity
  8
0-0
  6
JWW_DASHED1
 62
   120
370
     5
100
AcDbLine
 10
-28.42988775340526
 20
-214.0883240564808
 30
0.0
 11
51.57011224657825
 21
-134.0883240564972
 31
0.0
  0
LINE
  5
1C5
330
1F
100
AcDbEntity
  8
0-0
  6
JWW_DASHED1
 62
   120
370
     5
100
AcDbLine
 10
-28.42988775341379
 20
-204.1888291212725
 30
0.0
 11
51.57011224658508
 21
-124.1888291212732
 31
0.0
  0
LINE
  5
1C6
330
1F
100
AcDbEntity
  8
0-0
  6
JWW_DASHED1
 62
   120
370
     5
100
AcDbLine
 10
-28.42988775339588
 20
-194.2893341860387
 30
0.0
 11
51.57011224658678
 21
-114.289334186056
 31
0.0
  0
LINE
  5
1C7
330
1F
100
AcDbEntity
  8
0-0
  6
JWW_DASHED1
 62
   120
370
     5
100
AcDbLine
 10
-28.42988775340952
 20
-184.3898392508901
 30
0.0
 11
51.57011224657399
 21
-104.389839250907
 31
0.0
  0
LINE
  5
1C8
330
1F
100
AcDbEntity
  8
0-0
  6
JWW_DASHED1
 62
   120
370
     5
100
AcDbLine
 10
-28.42988775341038
 20
-174.4903443156755
 30
0.0
 11
51.57011224658849
 21
-94.49034431567618
 31
0.0
  0
LINE
  5
1C9
330
1F
100
AcDbEntity
  8
0-0
  6
JWW_DASHED1
 62
   120
370
     5
100
AcDbLine
 10
-28.42988775341038
 20
-164.5908493804578
 30
0.0
 11
51.57011224658934
 21
-84.59084938045898
 31
0.0
  0
LINE
  5
1CA
330
1F
100
AcDbEntity
  8
0-0
  6
JWW_DASHED1
 62
   120
370
     5
100
AcDbLine
 10
-28.42988775340697
 20
-154.6913544452931
 30
0.0
 11
51.57011224657655
 21
-74.69135444531041
 31
0.0
  0
LINE
  5
1CB
330
1F
100
AcDbEntity
  8
0-0
  6
JWW_DASHED1
 62
   120
370
     5
100
AcDbLine
 10
-28.42988775340867
 20
-144.7918595100784
 30
0.0
 11
51.57011224659104
 21
-64.79185951007914
 31
0.0
  0
LINE
  5
1CC
330
1F
100
AcDbEntity
  8
0-0
  6
JWW_DASHED1
 62
   120
370
     5
100
AcDbLine
 10
-28.42988775339673
 20
-134.8923645749043
 30
0.0
 11
51.57011224658678
 21
-54.89236457492161
 31
0.0
  0
LINE
  5
1CD
330
1F
100
AcDbEntity
  8
0-0
  6
JWW_DASHED1
 62
   120
370
     5
100
AcDbLine
 10
-28.42988775340441
 20
-124.992869639696
 30
0.0
 11
51.57011224657825
 21
-44.99286963971421
 31
0.0
  0
LINE
  5
1CE
330
1F
100
AcDbEntity
  8
0-0
  6
JWW_DASHED1
 62
   120
370
     5
100
AcDbLine
 10
-28.42988775340526
 20
-115.0933747044814
 30
0.0
 11
51.5701122465936
 21
-35.09337470448209
 31
0.0
  0
LINE
  5
1CF
330
1F
100
AcDbEntity
  8
0-0
  6
JWW_DASHED1
 62
   120
370
     5
100
AcDbLine
 10
-28.42988775341038
 20
-105.1938797693239
 30
0.0
 11
51.57011224658934
 21
-25.19387976932457
 31
0.0
  0
LINE
  5
1D0
330
1F
100
AcDbEntity
  8
0-0
  6
JWW_DASHED1
 62
   120
370
     5
100
AcDbLine
 10
-28.42988775340185
 20
-95.29438483409983
 30
0.0
 11
51.57011224657996
 21
-15.29438483411674
 31
0.0
  0
LINE
  5
1D1
330
1F
100
AcDbEntity
  8
0-0
  6
JWW_DASHED1
 62
   120
370
     5
100
AcDbLine
 10
-28.42988775340356
 20
-85.39488989888433
 30
0.0
 11
51.57011224657996
 21
-5.394889898901241
 31
0.0
  0
LINE
  5
1D2
330
1F
100
AcDbEntity
  8
0-0
  6
JWW_DASHED1
 62
   120
370
     5
100
AcDbLine
 10
-28.42988775340697
 20
-75.49539496372681
 30
0.0
 11
51.57011224659104
 21
4.504605036271627
 31
0.0
  0
LINE
  5
1D3
330
1F
100
AcDbEntity
  8
0-0
  6
JWW_DASHED1
 62
   120
370
     5
100
AcDbLine
 10
-28.42988775340014
 20
-65.59590002850321
 30
0.0
 11
51.57011224658337
 21
14.40409997148031
 31
0.0
  0
LINE
  5
1D4
330
1F
100
AcDbEntity
  8
0-0
  6
JWW_DASHED1
 62
   120
370
     5
100
AcDbLine
 10
-28.42988775340867
 20
-55.69640509329496
 30
0.0
 11
51.57011224657484
 21
24.30359490668771
 31
0.0
  0
LINE
  5
1D5
330
1F
100
AcDbEntity
  8
0-0
  6
JWW_DASHED1
 62
   120
370
     5
100
AcDbLine
 10
-28.42988775341379
 20
-45.79691015813786
 30
0.0
 11
51.57011224658508
 21
34.20308984186057
 31
0.0
  0
LINE
  5
1D6
330
1F
100
AcDbEntity
  8
0-0
  6
JWW_DASHED1
 62
   120
370
     5
100
AcDbLine
 10
-28.42988775339759
 20
-35.89741522290616
 30
0.0
 11
51.57011224658508
 21
44.1025847770765
 31
0.0
  0
LINE
  5
1D7
330
1F
100
AcDbEntity
  8
0-0
  6
JWW_DASHED1
 62
   120
370
     5
100
AcDbLine
 10
-28.42988775340611
 20
-25.99792028769834
 30
0.0
 11
51.57011224657655
 21
54.00207971228475
 31
0.0
  0
LINE
  5
1D8
330
1F
100
AcDbEntity
  8
0-0
  6
JWW_DASHED1
 62
   120
370
     5
100
AcDbLine
 10
-28.42988775341123
 20
-16.09842535254167
 30
0.0
 11
51.57011224658849
 21
63.90157464745762
 31
0.0
  0
LINE
  5
1D9
330
1F
100
AcDbEntity
  8
0-0
  6
JWW_DASHED1
 62
   120
370
     5
100
AcDbLine
 10
-28.42988775339503
 20
-6.198930417309114
 30
0.0
 11
51.57011224658678
 21
73.80106958267312
 31
0.0
  0
LINE
  5
1DA
330
1F
100
AcDbEntity
  8
0-0
  6
JWW_DASHED1
 62
   120
370
     5
100
AcDbLine
 10
-28.42988775340356
 20
3.700564517898712
 30
0.0
 11
51.57011224657911
 21
83.70056451788138
 31
0.0
  0
LINE
  5
1DB
330
1F
100
AcDbEntity
  8
0-0
  6
JWW_DASHED1
 62
   120
370
     5
100
AcDbLine
 10
-28.42988775340867
 20
13.60005945305495
 30
0.0
 11
51.57011224659019
 21
93.60005945305467
 31
0.0
  0
LINE
  5
1DC
330
1F
100
AcDbEntity
  8
0-0
  6
JWW_DASHED1
 62
   120
370
     5
100
AcDbLine
 10
-28.42988775340867
 20
23.49955438827173
 30
0.0
 11
51.57011224659019
 21
103.4995543882702
 31
0.0
  0
LINE
  5
1DD
330
1F
100
AcDbEntity
  8
0-0
  6
JWW_DASHED1
 62
   120
370
     5
100
AcDbLine
 10
-28.429887753401
 20
33.39904932349576
 30
0.0
 11
51.57011224658081
 21
113.399049323478
 31
0.0
  0
LINE
  5
1DE
330
1F
100
AcDbEntity
  8
0-0
  6
JWW_DASHED1
 62
   120
370
     5
100
AcDbLine
 10
-28.42988775340697
 20
43.298544258652
 30
0.0
 11
51.5701122465919
 21
123.2985442586509
 31
0.0
  0
LINE
  5
1DF
330
1F
100
AcDbEntity
  8
0-0
  6
JWW_DASHED1
 62
   120
370
     5
100
AcDbLine
 10
-28.42988775341379
 20
53.19803919386068
 30
0.0
 11
51.57011224658508
 21
133.19803919386
 31
0.0
  0
LINE
  5
1E0
330
1F
100
AcDbEntity
  8
0-0
  6
JWW_DASHED1
 62
   120
370
     5
100
AcDbLine
 10
-28.42988775340356
 20
63.0975341290327
 30
0.0
 11
51.57011224657825
 21
143.0975341290158
 31
0.0
  0
LINE
  5
1E1
330
1F
100
AcDbEntity
  8
0-0
  6
JWW_DASHED1
 62
   120
370
     5
100
AcDbLine
 10
-28.42988775340356
 20
72.99702906424905
 30
0.0
 11
51.57011224657911
 21
152.9970290642325
 31
0.0
  0
LINE
  5
1E2
330
1F
100
AcDbEntity
  8
0-0
  6
JWW_DASHED1
 62
   120
370
     5
100
AcDbLine
 10
-28.42988775341208
 20
82.8965239994573
 30
0.0
 11
51.57011224658763
 21
162.896523999457
 31
0.0
  0
LINE
  5
1E3
330
1F
100
AcDbEntity
  8
0-0
  6
JWW_DASHED1
 62
   120
370
     5
100
AcDbLine
 10
-28.42988775340185
 20
92.79601893462974
 30
0.0
 11
51.57011224658167
 21
172.7960189346128
 31
0.0
  0
LINE
  5
1E4
330
1F
100
AcDbEntity
  8
0-0
  6
JWW_DASHED1
 62
   120
370
     5
100
AcDbLine
 10
-28.42988775341038
 20
102.6955138698376
 30
0.0
 11
51.57011224657314
 21
182.6955138698211
 31
0.0
  0
LINE
  5
1E5
330
1F
100
AcDbEntity
  8
0-0
  6
JWW_DASHED1
 62
   120
370
     5
100
AcDbLine
 10
-28.42988775340952
 20
112.5950088050543
 30
0.0
 11
51.57011224658849
 21
192.5950088050528
 31
0.0
  0
LINE
  5
1E6
330
1F
100
AcDbEntity
  8
0-0
  6
JWW_DASHED1
 62
   120
370
     5
100
AcDbLine
 10
-28.42988775339844
 20
122.4945037402268
 30
0.0
 11
51.57011224658337
 21
202.494503740209
 31
0.0
  0
LINE
  5
1E7
330
1F
100
AcDbEntity
  8
0-0
  6
JWW_DASHED1
 62
   120
370
     5
100
AcDbLine
 10
-28.42988775340697
 20
132.3939986754346
 30
0.0
 11
51.57011224657484
 21
212.3939986754169
 31
0.0
  0
LINE
  5
1E8
330
1F
100
AcDbEntity
  8
0-0
  6
JWW_DASHED1
 62
   120
370
     5
100
AcDbLine
 10
-28.42988775340697
 20
142.293493610651
 30
0.0
 11
51.5701122465919
 21
222.2934936106498
 31
0.0
  0
LINE
  5
1E9
330
1F
100
AcDbEntity
  8
0-0
  6
JWW_DASHED1
 62
   120
370
     5
100
AcDbLine
 10
-28.42988775339673
 20
152.192988545823
 30
0.0
 11
51.57011224658593
 21
232.1929885458061
 31
0.0
  0
LINE
  5
1EA
330
1F
100
AcDbEntity
  8
0-0
  6
JWW_DASHED1
 62
   120
370
     5
100
AcDbLine
 10
-28.42988775340526
 20
162.0924834810316
 30
0.0
 11
51.5701122465774
 21
242.0924834810139
 31
0.0
  0
LINE
  5
1EB
330
1F
100
AcDbEntity
  8
0-0
  6
JWW_DASHED1
 62
   120
370
     5
100
AcDbLine
 10
-28.42988775340526
 20
171.991978416248
 30
0.0
 11
51.5701122465936
 21
251.9919784162469
 31
0.0
  0
LINE
  5
1EC
330
1F
100
AcDbEntity
  8
0-0
  6
JWW_DASHED1
 62
   120
370
     5
100
AcDbLine
 10
-28.42988775341038
 20
181.8914733514043
 30
0.0
 11
51.57011224658849
 21
261.8914733514027
 31
0.0
  0
LINE
  5
1ED
330
1F
100
AcDbEntity
  8
0-0
  6
JWW_DASHED1
 62
   120
370
     5
100
AcDbLine
 10
-28.42988775340356
 20
191.7909682866274
 30
0.0
 11
51.57011224657996
 21
271.790968286611
 31
0.0
  0
LINE
  5
1EE
330
1F
100
AcDbEntity
  8
0-0
  6
JWW_DASHED1
 62
   120
370
     5
100
AcDbLine
 10
-28.42988775340185
 20
201.6904632218451
 30
0.0
 11
51.57011224658081
 21
281.6904632218282
 31
0.0
  0
LINE
  5
1EF
330
1F
100
AcDbEntity
  8
0-0
  6
JWW_DASHED1
 62
   120
370
     5
100
AcDbLine
 10
-28.42988775340782
 20
211.5899581570013
 30
0.0
 11
51.57011224659019
 21
291.5899581569993
 31
0.0
  0
LINE
  5
1F0
330
1F
100
AcDbEntity
  8
0-0
  6
JWW_DASHED1
 62
   120
370
     5
100
AcDbLine
 10
-28.429887753401
 20
221.4894530922245
 30
0.0
 11
51.57011224658167
 21
301.4894530922076
 31
0.0
  0
LINE
  5
1F1
330
1F
100
AcDbEntity
  8
0-0
  6
JWW_DASHED1
 62
   120
370
     5
100
AcDbLine
 10
-28.42988775340952
 20
231.3889480274323
 30
0.0
 11
51.57011224657314
 21
311.388948027415
 31
0.0
  0
LINE
  5
1F2
330
1F
100
AcDbEntity
  8
0-0
  6
JWW_DASHED1
 62
   120
370
     5
100
AcDbLine
 10
-28.42988775341208
 20
241.2884429625911
 30
0.0
 11
51.57011224658678
 21
321.28844296259
 31
0.0
  0
LINE
  5
1F3
330
1F
100
AcDbEntity
  8
0-0
  6
JWW_DASHED1
 62
   120
370
     5
100
AcDbLine
 10
-28.42988775339844
 20
251.1879378978219
 30
0.0
 11
51.57011224658337
 21
331.1879378978037
 31
0.0
  0
LINE
  5
1F4
330
1F
100
AcDbEntity
  8
0-0
  6
JWW_DASHED1
 62
   120
370
     5
100
AcDbLine
 10
-28.42988775341038
 20
261.0874328329709
 30
0.0
 11
51.57011224657143
 21
341.0874328329527
 31
0.0
  0
LINE
  5
1F5
330
1F
100
AcDbEntity
  8
0-0
  6
JWW_DASHED1
 62
   120
370
     5
100
AcDbLine
 10
-28.42988775341038
 20
270.9869277681881
 30
0.0
 11
51.57011224658849
 21
350.986927768187
 31
0.0
  0
LINE
  5
1F6
330
1F
100
AcDbEntity
  8
0-0
  6
JWW_DASHED1
 62
   120
370
     5
100
AcDbLine
 10
-28.42988775341208
 20
280.8864227034024
 30
0.0
 11
51.57011224658678
 21
360.8864227034008
 31
0.0
  0
LINE
  5
1F7
330
1F
100
AcDbEntity
  8
0-0
  6
JWW_DASHED1
 62
   120
370
     5
100
AcDbLine
 10
-28.42988775340867
 20
290.785917638568
 30
0.0
 11
51.57011224657314
 21
370.7859176385502
 31
0.0
  0
LINE
  5
1F8
330
1F
100
AcDbEntity
  8
0-0
  6
JWW_DASHED1
 62
   120
370
     5
100
AcDbLine
 10
-28.42988775340697
 20
300.6854125737852
 30
0.0
 11
51.5701122465919
 21
380.685412573784
 31
0.0
  0
LINE
  5
1F9
330
1F
100
AcDbEntity
  8
0-0
  6
JWW_DASHED1
 62
   120
370
     5
100
AcDbLine
 10
-28.42988775341038
 20
310.584907508999
 30
0.0
 11
51.57011224658849
 21
390.5849075089974
 31
0.0
  0
LINE
  5
1FA
330
1F
100
AcDbEntity
  8
0-0
  6
JWW_DASHED1
 62
   120
370
     5
100
AcDbLine
 10
-28.42988775340697
 20
320.4844024441638
 30
0.0
 11
51.57011224657655
 21
400.4844024441473
 31
0.0
  0
LINE
  5
1FB
330
1F
100
AcDbEntity
  8
0-0
  6
JWW_DASHED1
 62
   120
370
     5
100
AcDbLine
 10
-28.42988775340526
 20
330.3838973793822
 30
0.0
 11
51.5701122465936
 21
410.3838973793807
 31
0.0
  0
LINE
  5
1FC
330
1F
100
AcDbEntity
  8
0-0
  6
JWW_DASHED1
 62
   120
370
     5
100
AcDbLine
 10
-28.42988775341379
 20
340.2833923145901
 30
0.0
 11
51.57011224658508
 21
420.2833923145889
 31
0.0
  0
LINE
  5
1FD
330
1F
100
AcDbEntity
  8
0-0
  6
JWW_DASHED1
 62
   120
370
     5
100
AcDbLine
 10
-28.42988775340441
 20
350.1828872497608
 30
0.0
 11
51.57011224657825
 21
430.182887249743
 31
0.0
  0
LINE
  5
1FE
330
1F
100
AcDbEntity
  8
0-0
  6
JWW_DASHED1
 62
   120
370
     5
100
AcDbLine
 10
-28.42988775340185
 20
360.0823821849793
 30
0.0
 11
51.57011224657996
 21
440.0823821849619
 31
0.0
  0
LINE
  5
1FF
330
1F
100
AcDbEntity
  8
0-0
  6
JWW_DASHED1
 62
   120
370
     5
100
AcDbLine
 10
-28.42988775341038
 20
369.9818771201871
 30
0.0
 11
51.57011224658849
 21
449.981877120186
 31
0.0
  0
LINE
  5
200
330
1F
100
AcDbEntity
  8
0-0
  6
JWW_DASHED1
 62
   120
370
     5
100
AcDbLine
 10
-28.42988775340185
 20
379.8813720553579
 30
0.0
 11
51.57011224657996
 21
459.8813720553401
 31
0.0
  0
LINE
  5
201
330
1F
100
AcDbEntity
  8
0-0
  6
JWW_DASHED1
 62
   120
370
     5
100
AcDbLine
 10
-28.42988775341038
 20
389.7808669905657
 30
0.0
 11
51.57011224657229
 21
469.7808669905484
 31
0.0
  0
LINE
  5
202
330
1F
100
AcDbEntity
  8
0-0
  6
JWW_DASHED1
 62
   120
370
     5
100
AcDbLine
 10
-28.42988775340867
 20
399.6803619257842
 30
0.0
 11
51.57011224659019
 21
479.680361925783
 31
0.0
  0
LINE
  5
203
330
1F
100
AcDbEntity
  8
0-0
  6
JWW_DASHED1
 62
   120
370
     5
100
AcDbLine
 10
-28.42988775340014
 20
409.5798568609545
 30
0.0
 11
51.57011224658337
 21
489.5798568609371
 31
0.0
  0
LINE
  5
204
330
1F
100
AcDbEntity
  8
0-0
  6
JWW_DASHED1
 62
   120
370
     5
100
AcDbLine
 10
-28.42988775340782
 20
419.4793517961627
 30
0.0
 11
51.57011224657399
 21
499.479351796145
 31
0.0
  0
LINE
  5
205
330
1F
100
AcDbEntity
  8
0-0
  6
JWW_DASHED1
 62
   120
370
     5
100
AcDbLine
 10
-28.42988775340526
 20
429.3788467313812
 30
0.0
 11
51.5701122465936
 21
509.3788467313801
 31
0.0
  0
LINE
  5
206
330
1F
100
AcDbEntity
  8
0-0
  6
JWW_DASHED1
 62
   120
370
     5
100
AcDbLine
 10
-28.42988775339844
 20
439.2783416665507
 30
0.0
 11
51.57011224658508
 21
519.2783416665334
 31
0.0
  0
LINE
  5
207
330
1F
100
AcDbEntity
  8
0-0
  6
JWW_DASHED1
 62
   120
370
     5
100
AcDbLine
 10
-28.42988775340611
 20
449.1778366017589
 30
0.0
 11
51.57011224657655
 21
529.177836601742
 31
0.0
  0
LINE
  5
208
330
1F
100
AcDbEntity
  8
0-0
  6
JWW_DASHED1
 62
   120
370
     5
100
AcDbLine
 10
-28.42988775340782
 20
459.077331536919
 30
0.0
 11
51.5701122465919
 21
539.0773315369187
 31
0.0
  0
LINE
  5
209
330
1F
100
AcDbEntity
  8
0-0
  6
JWW_DASHED1
 62
   120
370
     5
100
AcDbLine
 10
-28.42988775341123
 20
468.976826472132
 30
0.0
 11
51.57011224658678
 21
548.9768264721299
 31
0.0
  0
LINE
  5
20A
330
1F
100
AcDbEntity
  8
0-0
  6
JWW_DASHED1
 62
   120
370
     5
100
AcDbLine
 10
-28.42988775340356
 20
478.8763214073555
 30
0.0
 11
51.57011224657825
 21
558.8763214073382
 31
0.0
  0
LINE
  5
20B
330
1F
100
AcDbEntity
  8
0-0
  6
JWW_DASHED1
 62
   120
370
     5
100
AcDbLine
 10
-28.42988775340526
 20
488.7758163425161
 30
0.0
 11
51.5701122465936
 21
568.7758163425145
 31
0.0
  0
LINE
  5
20C
330
1F
100
AcDbEntity
  8
0-0
  6
JWW_DASHED1
 62
   120
370
     5
100
AcDbLine
 10
-28.42988775341379
 20
498.6753112777243
 30
0.0
 11
51.57011224658593
 21
578.6753112777236
 31
0.0
  0
LINE
  5
20D
330
1F
100
AcDbEntity
  8
0-0
  6
JWW_DASHED1
 62
   120
370
     5
100
AcDbLine
 10
-28.42988775340185
 20
508.5748062129526
 30
0.0
 11
51.57011224658081
 21
588.5748062129348
 31
0.0
  0
LINE
  5
20E
330
1F
100
AcDbEntity
  8
0-0
  6
JWW_DASHED1
 62
   120
370
     5
100
AcDbLine
 10
-28.42988775340356
 20
518.4743011481127
 30
0.0
 11
51.57011224657996
 21
598.4743011480957
 31
0.0
  0
LINE
  5
20F
330
1F
100
AcDbEntity
  8
0-0
  6
JWW_DASHED1
 62
   120
370
     5
100
AcDbLine
 10
-28.42988775341038
 20
528.3737960833214
 30
0.0
 11
51.57011224658763
 21
608.3737960833198
 31
0.0
  0
LINE
  5
210
330
1F
100
AcDbEntity
  8
0-0
  6
JWW_DASHED1
 62
   120
370
     5
100
AcDbLine
 10
-28.42988775339929
 20
538.2732910185492
 30
0.0
 11
51.57011224658337
 21
618.2732910185318
 31
0.0
  0
LINE
  5
211
330
1F
100
AcDbEntity
  8
0-0
  6
JWW_DASHED1
 62
   120
370
     5
100
AcDbLine
 10
-28.42988775341208
 20
548.1727859536982
 30
0.0
 11
51.57011224657058
 21
628.1727859536809
 31
0.0
  0
LINE
  5
212
330
1F
100
AcDbEntity
  8
0-0
  6
JWW_DASHED1
 62
   120
370
     5
100
AcDbLine
 10
-28.42988775340952
 20
558.0722808889171
 30
0.0
 11
51.57011224659019
 21
638.0722808889168
 31
0.0
  0
LINE
  5
213
330
1F
100
AcDbEntity
  8
0-0
  6
JWW_DASHED1
 62
   120
370
     5
100
AcDbLine
 10
-28.42988775341379
 20
567.9717758241296
 30
0.0
 11
51.57011224658593
 21
647.9717758241289
 31
0.0
  0
LINE
  5
214
330
1F
100
AcDbEntity
  8
0-0
  6
JWW_DASHED1
 62
   120
370
     5
100
AcDbLine
 10
-28.42988775340952
 20
577.8712707592953
 30
0.0
 11
51.57011224657314
 21
657.8712707592775
 31
0.0
  0
LINE
  5
215
330
1F
100
AcDbEntity
  8
0-0
  6
JWW_DASHED1
 62
   120
370
     5
100
AcDbLine
 10
-28.42988775340611
 20
587.770765694515
 30
0.0
 11
51.57011224659275
 21
667.7707656945139
 31
0.0
  0
LINE
  5
216
330
1F
100
AcDbEntity
  8
0-0
  6
JWW_DASHED1
 62
   120
370
     5
100
AcDbLine
 10
-28.42988775341038
 20
597.6702606297271
 30
0.0
 11
51.57011224658678
 21
677.6702606297247
 31
0.0
  0
LINE
  5
217
330
1F
100
AcDbEntity
  8
0-0
  6
JWW_DASHED1
 62
   120
370
     5
100
AcDbLine
 10
-28.42988775340782
 20
607.5697555648915
 30
0.0
 11
51.57011224657484
 21
687.5697555648745
 31
0.0
  0
LINE
  5
218
330
1F
100
AcDbEntity
  8
0-0
  6
JWW_DASHED1
 62
   120
370
     5
100
AcDbLine
 10
-28.42988775340356
 20
617.469250500112
 30
0.0
 11
51.57011224659531
 21
697.4692505001109
 31
0.0
  0
LINE
  5
219
330
1F
100
AcDbEntity
  8
0-0
  6
JWW_DASHED1
 62
   120
370
     5
100
AcDbLine
 10
-28.42988775341208
 20
627.3687454353203
 30
0.0
 11
51.57011224658678
 21
707.3687454353192
 31
0.0
  0
LINE
  5
21A
330
1F
100
AcDbEntity
  8
0-0
  6
JWW_DASHED1
 62
   120
370
     5
100
AcDbLine
 10
-28.42988775340526
 20
637.2682403704889
 30
0.0
 11
51.57011224657655
 21
717.2682403704707
 31
0.0
  0
LINE
  5
21B
330
1F
100
AcDbEntity
  8
0-0
  6
JWW_DASHED1
 62
   120
370
     5
100
AcDbLine
 10
-28.42988775340185
 20
647.1677353057087
 30
0.0
 11
51.57011224658167
 21
727.1677353056917
 31
0.0
  0
LINE
  5
21C
330
1F
100
AcDbEntity
  8
0-0
  6
JWW_DASHED1
 62
   120
370
     5
100
AcDbLine
 10
-28.42988775341038
 20
657.0672302408611
 30
0.0
 11
51.57011224658763
 21
737.0672302408595
 31
0.0
  0
LINE
  5
21D
330
1F
100
AcDbEntity
  8
0-0
  6
JWW_DASHED1
 62
   120
370
     5
100
AcDbLine
 10
-28.42988775340356
 20
666.9667251760851
 30
0.0
 11
51.57011224657996
 21
746.9667251760678
 31
0.0
  0
LINE
  5
21E
330
1F
100
AcDbEntity
  8
0-0
  6
JWW_DASHED1
 62
   120
370
     5
100
AcDbLine
 10
-28.42988775341123
 20
676.8662201112934
 30
0.0
 11
51.57011224657143
 21
756.8662201112757
 31
0.0
  0
LINE
  5
21F
330
1F
100
AcDbEntity
  8
0-0
  6
JWW_DASHED1
 62
   120
370
     5
100
AcDbLine
 10
-28.42988775341208
 20
686.7657150464547
 30
0.0
 11
51.57011224658678
 21
766.7657150464536
 31
0.0
  0
LINE
  5
220
330
1F
100
AcDbEntity
  8
0-0
  6
JWW_DASHED1
 62
   120
370
     5
100
AcDbLine
 10
-28.42988775340014
 20
696.6652099816822
 30
0.0
 11
51.57011224658167
 21
776.6652099816648
 31
0.0
  0
LINE
  5
221
330
1F
100
AcDbEntity
  8
0-0
  6
JWW_DASHED1
 62
   120
370
     5
100
AcDbLine
 10
-28.42988775340867
 20
706.56470491689
 30
0.0
 11
51.57011224657314
 21
786.5647049168726
 31
0.0
  0
LINE
  5
222
330
1F
100
AcDbEntity
  8
0-0
  6
JWW_DASHED1
 62
   120
370
     5
100
AcDbLine
 10
-28.42988775340867
 20
716.4641998520518
 30
0.0
 11
51.57011224659019
 21
796.4641998520507
 31
0.0
  0
LINE
  5
223
330
1F
100
AcDbEntity
  8
0-0
  6
JWW_DASHED1
 62
   120
370
     5
100
AcDbLine
 10
-28.42988775341379
 20
726.3636947872631
 30
0.0
 11
51.57011224658337
 21
806.363694787261
 31
0.0
  0
LINE
  5
224
330
1F
100
AcDbEntity
  8
0-0
  6
JWW_DASHED1
 62
   120
370
     5
100
AcDbLine
 10
-28.42988775340697
 20
736.2631897224866
 30
0.0
 11
51.5701122465757
 21
816.2631897224693
 31
0.0
  0
LINE
  5
225
330
1F
100
AcDbEntity
  8
0-0
  6
JWW_DASHED1
 62
   120
370
     5
100
AcDbLine
 10
-28.42988775340697
 20
746.1626846576488
 30
0.0
 11
51.5701122465919
 21
826.1626846576477
 31
0.0
  0
LINE
  5
226
330
1F
100
AcDbEntity
  8
0-0
  6
JWW_DASHED1
 62
   120
370
     5
100
AcDbLine
 10
-28.42988775341208
 20
756.0621795928596
 30
0.0
 11
51.57011224658678
 21
836.0621795928581
 31
0.0
  0
LINE
  5
227
330
1F
100
AcDbEntity
  8
0-0
  6
JWW_DASHED1
 62
   120
370
     5
100
AcDbLine
 10
-28.42988775340441
 20
765.9616745280837
 30
0.0
 11
51.5701122465774
 21
845.9616745280655
 31
0.0
  0
LINE
  5
228
330
1F
100
AcDbEntity
  8
0-0
  6
JWW_DASHED1
 62
   120
370
     5
100
AcDbLine
 10
-28.42988775340356
 20
775.8611694632459
 30
0.0
 11
51.57011224659531
 21
855.8611694632448
 31
0.0
  0
LINE
  5
229
330
1F
100
AcDbEntity
  8
0-0
  6
JWW_DASHED1
 62
   120
370
     5
100
AcDbLine
 10
-28.42988775341208
 20
785.760664398454
 30
0.0
 11
51.57011224658678
 21
865.7606643984526
 31
0.0
  0
LINE
  5
22A
330
1F
100
AcDbEntity
  8
0-0
  6
JWW_DASHED1
 62
   120
370
     5
100
AcDbLine
 10
-28.4298877534027
 20
795.6601593336799
 30
0.0
 11
51.57011224657996
 21
875.6601593336624
 31
0.0
  0
LINE
  5
22B
330
1F
100
AcDbEntity
  8
0-0
  6
JWW_DASHED1
 62
   120
370
     5
100
AcDbLine
 10
-28.42988775340185
 20
805.5596542688429
 30
0.0
 11
51.57011224658167
 21
885.5596542688256
 31
0.0
  0
LINE
  5
22C
330
1F
100
AcDbEntity
  8
0-0
  6
JWW_DASHED1
 62
   120
370
     5
100
AcDbLine
 10
-28.42988775341038
 20
815.4591492040507
 30
0.0
 11
51.57011224658849
 21
895.4591492040496
 31
0.0
  0
LINE
  5
22D
330
1F
100
AcDbEntity
  8
0-0
  6
JWW_DASHED1
 62
   120
370
     5
100
AcDbLine
 10
-28.42988775340014
 20
825.3586441392765
 30
0.0
 11
51.57011224658167
 21
905.3586441392591
 31
0.0
  0
LINE
  5
22E
330
1F
100
AcDbEntity
  8
0-0
  6
JWW_DASHED1
 62
   120
370
     5
100
AcDbLine
 10
-28.42988775341293
 20
835.2581390744259
 30
0.0
 11
51.57011224656973
 21
915.2581390744084
 31
0.0
  0
LINE
  5
22F
330
1F
100
AcDbEntity
  8
0-0
  6
JWW_DASHED1
 62
   120
370
     5
100
AcDbLine
 10
-28.42988775340697
 20
845.1576340096478
 30
0.0
 11
51.5701122465919
 21
925.1576340096467
 31
0.0
  0
LINE
  5
230
330
1F
100
AcDbEntity
  8
0-0
  6
JWW_DASHED1
 62
   120
370
     5
100
AcDbLine
 10
-28.42988775340185
 20
855.0571289448147
 30
0.0
 11
51.57011224658081
 21
935.0571289447978
 31
0.0
  0
LINE
  5
231
330
1F
100
AcDbEntity
  8
0-0
  6
JWW_DASHED1
 62
   120
370
     5
100
AcDbLine
 10
-28.42988775341038
 20
864.9566238800226
 30
0.0
 11
51.57011224657143
 21
944.9566238800052
 31
0.0
  0
LINE
  5
232
330
1F
100
AcDbEntity
  8
0-0
  6
JWW_DASHED1
 62
   120
370
     5
100
AcDbLine
 10
-28.42988775340526
 20
874.8561188152448
 30
0.0
 11
51.5701122465936
 21
954.8561188152437
 31
0.0
  0
LINE
  5
233
330
1F
100
AcDbEntity
  8
0-0
  6
JWW_DASHED1
 62
   120
370
     5
100
AcDbLine
 10
-28.42988775340014
 20
884.7556137504112
 30
0.0
 11
51.57011224658252
 21
964.755613750394
 31
0.0
  0
LINE
  5
234
330
1F
100
AcDbEntity
  8
0-0
  6
JWW_DASHED1
 62
   120
370
     5
100
AcDbLine
 10
-28.42988775340867
 20
894.6551086856196
 30
0.0
 11
51.57011224657484
 21
974.6551086856023
 31
0.0
  0
LINE
  5
235
330
1F
100
AcDbEntity
  8
0-0
  6
JWW_DASHED1
 62
   120
370
     5
100
AcDbLine
 10
-28.42988775340185
 20
904.5546036208419
 30
0.0
 11
51.57011224659701
 21
984.5546036208408
 31
0.0
  0
LINE
  5
236
330
1F
100
AcDbEntity
  8
0-0
  6
JWW_DASHED1
 62
   120
370
     5
100
AcDbLine
 10
-28.42988775341379
 20
914.454098555992
 30
0.0
 11
51.57011224658508
 21
994.4540985559906
 31
0.0
  0
LINE
  5
237
330
1F
100
AcDbEntity
  8
0-0
  6
JWW_DASHED1
 62
   120
370
     5
100
AcDbLine
 10
-28.42988775340611
 20
924.3535934912162
 30
0.0
 11
51.57011224657655
 21
1004.353593491199
 31
0.0
  0
LINE
  5
238
330
1F
100
AcDbEntity
  8
0-0
  6
JWW_DASHED1
 62
   120
370
     5
100
AcDbLine
 10
-28.42988775340014
 20
934.2530884264389
 30
0.0
 11
51.57011224658337
 21
1014.253088426422
 31
0.0
  0
LINE
  5
239
330
1F
100
AcDbEntity
  8
0-0
  6
JWW_DASHED1
 62
   120
370
     5
100
AcDbLine
 10
-28.42988775341123
 20
944.1525833615892
 30
0.0
 11
51.57011224658678
 21
1024.152583361588
 31
0.0
  0
LINE
  5
23A
330
1F
100
AcDbEntity
  8
0-0
  6
JWW_DASHED1
 62
   120
370
     5
100
AcDbLine
 10
-28.42988775340356
 20
954.0520782968129
 30
0.0
 11
51.57011224657825
 21
1034.052078296796
 31
0.0
  0
LINE
  5
23B
330
1F
100
AcDbEntity
  8
0-0
  6
JWW_DASHED1
 62
   120
370
     5
100
AcDbLine
 10
-28.42988775341208
 20
963.9515732320207
 30
0.0
 11
51.57011224657058
 21
1043.951573232004
 31
0.0
  0
LINE
  5
23C
330
1F
100
AcDbEntity
  8
0-0
  6
JWW_DASHED1
 62
   120
370
     5
100
AcDbLine
 10
-28.42988775341038
 20
973.851068167185
 30
0.0
 11
51.57011224658849
 21
1053.851068167184
 31
0.0
  0
LINE
  5
23D
330
1F
100
AcDbEntity
  8
0-0
  6
JWW_DASHED1
 62
   120
370
     5
100
AcDbLine
 10
-28.42988775340185
 20
983.7505631024094
 30
0.0
 11
51.57011224658167
 21
1063.750563102393
 31
0.0
  0
LINE
  5
23E
330
1F
100
AcDbEntity
  8
0-0
  6
JWW_DASHED1
 62
   120
370
     5
100
AcDbLine
 10
-28.42988775341038
 20
993.6500580376177
 30
0.0
 11
51.57011224657229
 21
1073.6500580376
 31
0.0
  0
LINE
  5
23F
330
1F
100
AcDbEntity
  8
0-0
  6
JWW_DASHED1
 62
   120
370
     5
100
AcDbLine
 10
-28.42988775340782
 20
1003.549552972782
 30
0.0
 11
51.5701122465919
 21
1083.549552972781
 31
0.0
  0
LINE
  5
240
330
1F
100
AcDbEntity
  8
0-0
  6
JWW_DASHED1
 62
   120
370
     5
100
AcDbLine
 10
-28.42988775341549
 20
1013.44904790799
 30
0.0
 11
51.57011224658337
 21
1093.449047907989
 31
0.0
  0
LINE
  5
241
330
1F
100
AcDbEntity
  8
0-0
  6
JWW_DASHED1
 62
   120
370
     5
100
AcDbLine
 10
-28.42988775340782
 20
1023.348542843214
 30
0.0
 11
51.57011224657484
 21
1103.348542843197
 31
0.0
  0
LINE
  5
242
330
1F
100
AcDbEntity
  8
0-0
  6
JWW_DASHED1
 62
   120
370
     5
100
AcDbLine
 10
-28.42988775340526
 20
1033.248037778379
 30
0.0
 11
51.5701122465936
 21
1113.248037778377
 31
0.0
  0
LINE
  5
243
330
1F
100
AcDbEntity
  8
0-0
  6
JWW_DASHED1
 62
   120
370
     5
100
AcDbLine
 10
-28.42988775341293
 20
1043.147532713587
 30
0.0
 11
50.6326792662259
 21
1122.210099733226
 31
0.0
  0
LINE
  5
244
330
1F
100
AcDbEntity
  8
0-0
  6
JWW_DASHED1
 62
   120
370
     5
100
AcDbLine
 10
-28.42988775341038
 20
1053.047027648752
 30
0.0
 11
40.73318433107435
 21
1122.210099733236
 31
0.0
  0
LINE
  5
245
330
1F
100
AcDbEntity
  8
0-0
  6
JWW_DASHED1
 62
   120
370
     5
100
AcDbLine
 10
-28.4298877534027
 20
1062.946522583975
 30
0.0
 11
30.83368939583668
 21
1122.210099733215
 31
0.0
  0
LINE
  5
246
330
1F
100
AcDbEntity
  8
0-0
  6
JWW_DASHED1
 62
   120
370
     5
100
AcDbLine
 10
-28.42988775341038
 20
1072.846017519184
 30
0.0
 11
20.934194460628
 21
1122.210099733223
 31
0.0
  0
LINE
  5
247
330
1F
100
AcDbEntity
  8
0-0
  6
JWW_DASHED1
 62
   120
370
     5
100
AcDbLine
 10
-28.42988775340697
 20
1082.745512454349
 30
0.0
 11
11.03469952547133
 21
1122.210099733227
 31
0.0
  0
LINE
  5
248
330
1F
100
AcDbEntity
  8
0-0
  6
JWW_DASHED1
 62
   120
370
     5
100
AcDbLine
 10
-28.42988775340014
 20
1092.645007389573
 30
0.0
 11
1.1352045902456
 21
1122.210099733218
 31
0.0
  0
LINE
  5
249
330
1F
100
AcDbEntity
  8
0-0
  6
JWW_DASHED1
 62
   120
370
     5
100
AcDbLine
 10
-28.42988775340867
 20
1102.544502324781
 30
0.0
 11
-8.764290344968195
 21
1122.210099733221
 31
0.0
  0
LINE
  5
24A
330
1F
100
AcDbEntity
  8
0-0
  6
JWW_DASHED1
 62
   120
370
     5
100
AcDbLine
 10
-28.42988775340526
 20
1112.443997259946
 30
0.0
 11
-18.66378528013168
 21
1122.210099733219
 31
0.0
  0
LINE
  5
24B
330
1F
100
AcDbEntity
  8
0-0
  6
JWW_DASHED1
 62
   120
370
     5
100
AcDbLine
 10
821.7225751392414
 20
-1044.789900266776
 30
0.0
 11
831.570112246585
 21
-1034.942363159433
 31
0.0
  0
LINE
  5
24C
330
1F
100
AcDbEntity
  8
0-0
  6
JWW_DASHED1
 62
   120
370
     5
100
AcDbLine
 10
811.8230802040779
 20
-1044.789900266778
 30
0.0
 11
831.5701122465877
 21
-1025.042868224268
 31
0.0
  0
LINE
  5
24D
330
1F
100
AcDbEntity
  8
0-0
  6
JWW_DASHED1
 62
   120
370
     5
100
AcDbLine
 10
801.9235852688547
 20
-1044.789900266785
 30
0.0
 11
831.5701122465953
 21
-1015.143373289044
 31
0.0
  0
LINE
  5
24E
330
1F
100
AcDbEntity
  8
0-0
  6
JWW_DASHED1
 62
   120
370
     5
100
AcDbLine
 10
792.0240903336384
 20
-1044.789900266785
 30
0.0
 11
831.5701122465867
 21
-1005.243878353836
 31
0.0
  0
LINE
  5
24F
330
1F
100
AcDbEntity
  8
0-0
  6
JWW_DASHED1
 62
   120
370
     5
100
AcDbLine
 10
782.1245953984817
 20
-1044.789900266779
 30
0.0
 11
831.5701122465902
 21
-995.344383418671
 31
0.0
  0
LINE
  5
250
330
1F
100
AcDbEntity
  8
0-0
  6
JWW_DASHED1
 62
   120
370
     5
100
AcDbLine
 10
772.2251004632731
 20
-1044.789900266772
 30
0.0
 11
831.5701122465816
 21
-985.4448884834632
 31
0.0
  0
LINE
  5
251
330
1F
100
AcDbEntity
  8
0-0
  6
JWW_DASHED1
 62
   120
370
     5
100
AcDbLine
 10
762.3256055280353
 20
-1044.789900266793
 30
0.0
 11
831.5701122465885
 21
-975.5453935482391
 31
0.0
  0
LINE
  5
252
330
1F
100
AcDbEntity
  8
0-0
  6
JWW_DASHED1
 62
   120
370
     5
100
AcDbLine
 10
752.4261105928838
 20
-1044.789900266782
 30
0.0
 11
831.5701122465765
 21
-965.6458986130897
 31
0.0
  0
LINE
  5
253
330
1F
100
AcDbEntity
  8
0-0
  6
JWW_DASHED1
 62
   120
370
     5
100
AcDbLine
 10
751.5701122465862
 20
-1035.746403677864
 30
0.0
 11
831.5701122465842
 21
-955.746403677866
 31
0.0
  0
LINE
  5
254
330
1F
100
AcDbEntity
  8
0-0
  6
JWW_DASHED1
 62
   120
370
     5
100
AcDbLine
 10
751.5701122466083
 20
-1025.846908742625
 30
0.0
 11
831.5701122465911
 21
-945.8469087426429
 31
0.0
  0
LINE
  5
255
330
1F
100
AcDbEntity
  8
0-0
  6
JWW_DASHED1
 62
   120
370
     5
100
AcDbLine
 10
751.5701122465964
 20
-1015.947413807476
 30
0.0
 11
831.5701122465782
 21
-935.9474138074935
 31
0.0
  0
LINE
  5
256
330
1F
100
AcDbEntity
  8
0-0
  6
JWW_DASHED1
 62
   120
370
     5
100
AcDbLine
 10
751.5701122465879
 20
-1006.047918872268
 30
0.0
 11
831.5701122465867
 21
-926.0479188722691
 31
0.0
  0
LINE
  5
257
330
1F
100
AcDbEntity
  8
0-0
  6
JWW_DASHED1
 62
   120
370
     5
100
AcDbLine
 10
751.5701122465947
 20
-996.1484239370443
 30
0.0
 11
831.5701122465936
 21
-916.1484239370459
 31
0.0
  0
LINE
  5
258
330
1F
100
AcDbEntity
  8
0-0
  6
JWW_DASHED1
 62
   120
370
     5
100
AcDbLine
 10
751.5701122465981
 20
-986.2489290018796
 30
0.0
 11
831.5701122465808
 21
-906.2489290018963
 31
0.0
  0
LINE
  5
259
330
1F
100
AcDbEntity
  8
0-0
  6
JWW_DASHED1
 62
   120
370
     5
100
AcDbLine
 10
751.5701122465896
 20
-976.3494340666708
 30
0.0
 11
831.5701122465894
 21
-896.349434066672
 31
0.0
  0
LINE
  5
25A
330
1F
100
AcDbEntity
  8
0-0
  6
JWW_DASHED1
 62
   120
370
     5
100
AcDbLine
 10
751.5701122465973
 20
-966.4499391314476
 30
0.0
 11
831.5701122465953
 21
-886.4499391314492
 31
0.0
  0
LINE
  5
25B
330
1F
100
AcDbEntity
  8
0-0
  6
JWW_DASHED1
 62
   120
370
     5
100
AcDbLine
 10
751.5701122465998
 20
-956.5504441962829
 30
0.0
 11
831.5701122465833
 21
-876.5504441963001
 31
0.0
  0
LINE
  5
25C
330
1F
100
AcDbEntity
  8
0-0
  6
JWW_DASHED1
 62
   120
370
     5
100
AcDbLine
 10
751.570112246593
 20
-946.6509492610738
 30
0.0
 11
831.5701122465765
 21
-866.6509492610905
 31
0.0
  0
LINE
  5
25D
330
1F
100
AcDbEntity
  8
0-0
  6
JWW_DASHED1
 62
   120
370
     5
100
AcDbLine
 10
751.5701122465828
 20
-936.7514543258952
 30
0.0
 11
831.5701122465816
 21
-856.7514543258961
 31
0.0
  0
LINE
  5
25E
330
1F
100
AcDbEntity
  8
0-0
  6
JWW_DASHED1
 62
   120
370
     5
100
AcDbLine
 10
751.5701122466032
 20
-926.8519593906857
 30
0.0
 11
831.570112246585
 21
-846.8519593907032
 31
0.0
  0
LINE
  5
25F
330
1F
100
AcDbEntity
  8
0-0
  6
JWW_DASHED1
 62
   120
370
     5
100
AcDbLine
 10
751.5701122465939
 20
-916.9524644554779
 30
0.0
 11
831.5701122465765
 21
-836.9524644554954
 31
0.0
  0
LINE
  5
260
330
1F
100
AcDbEntity
  8
0-0
  6
JWW_DASHED1
 62
   120
370
     5
100
AcDbLine
 10
751.5701122465828
 20
-907.0529695203278
 30
0.0
 11
831.5701122465816
 21
-827.0529695203289
 31
0.0
  0
LINE
  5
261
330
1F
100
AcDbEntity
  8
0-0
  6
JWW_DASHED1
 62
   120
370
     5
100
AcDbLine
 10
751.5701122466049
 20
-897.1534745850893
 30
0.0
 11
831.5701122465877
 21
-817.1534745851066
 31
0.0
  0
LINE
  5
262
330
1F
100
AcDbEntity
  8
0-0
  6
JWW_DASHED1
 62
   120
370
     5
100
AcDbLine
 10
751.5701122465964
 20
-887.253979649881
 30
0.0
 11
831.5701122465782
 21
-807.2539796498987
 31
0.0
  0
LINE
  5
263
330
1F
100
AcDbEntity
  8
0-0
  6
JWW_DASHED1
 62
   120
370
     5
100
AcDbLine
 10
751.5701122465854
 20
-877.3544847147307
 30
0.0
 11
831.5701122465842
 21
-797.3544847147318
 31
0.0
  0
LINE
  5
264
330
1F
100
AcDbEntity
  8
0-0
  6
JWW_DASHED1
 62
   120
370
     5
100
AcDbLine
 10
751.5701122466066
 20
-867.4549897794922
 30
0.0
 11
831.5701122465902
 21
-787.4549897795096
 31
0.0
  0
LINE
  5
265
330
1F
100
AcDbEntity
  8
0-0
  6
JWW_DASHED1
 62
   120
370
     5
100
AcDbLine
 10
751.5701122465998
 20
-857.5554948442838
 30
0.0
 11
831.5701122465816
 21
-777.5554948443017
 31
0.0
  0
LINE
  5
266
330
1F
100
AcDbEntity
  8
0-0
  6
JWW_DASHED1
 62
   120
370
     5
100
AcDbLine
 10
751.5701122465879
 20
-847.6559999091337
 30
0.0
 11
831.5701122465867
 21
-767.6559999091348
 31
0.0
  0
LINE
  5
267
330
1F
100
AcDbEntity
  8
0-0
  6
JWW_DASHED1
 62
   120
370
     5
100
AcDbLine
 10
751.570112246593
 20
-837.7565049739113
 30
0.0
 11
831.5701122465919
 21
-757.7565049739129
 31
0.0
  0
LINE
  5
268
330
1F
100
AcDbEntity
  8
0-0
  6
JWW_DASHED1
 62
   120
370
     5
100
AcDbLine
 10
751.5701122466007
 20
-827.8570100386881
 30
0.0
 11
831.5701122465833
 21
-747.8570100387055
 31
0.0
  0
LINE
  5
269
330
1F
100
AcDbEntity
  8
0-0
  6
JWW_DASHED1
 62
   120
370
     5
100
AcDbLine
 10
751.5701122465905
 20
-817.9575151035366
 30
0.0
 11
831.5701122465885
 21
-737.9575151035382
 31
0.0
  0
LINE
  5
26A
330
1F
100
AcDbEntity
  8
0-0
  6
JWW_DASHED1
 62
   120
370
     5
100
AcDbLine
 10
751.5701122465964
 20
-808.0580201683143
 30
0.0
 11
831.5701122465936
 21
-728.0580201683167
 31
0.0
  0
LINE
  5
26B
330
1F
100
AcDbEntity
  8
0-0
  6
JWW_DASHED1
 62
   120
370
     5
100
AcDbLine
 10
751.5701122466032
 20
-798.1585252330912
 30
0.0
 11
831.570112246586
 21
-718.1585252331084
 31
0.0
  0
LINE
  5
26C
330
1F
100
AcDbEntity
  8
0-0
  6
JWW_DASHED1
 62
   120
370
     5
100
AcDbLine
 10
751.5701122465922
 20
-788.2590302979398
 30
0.0
 11
831.5701122465919
 21
-708.2590302979411
 31
0.0
  0
LINE
  5
26D
330
1F
100
AcDbEntity
  8
0-0
  6
JWW_DASHED1
 62
   120
370
     5
100
AcDbLine
 10
751.5701122465845
 20
-778.3595353627318
 30
0.0
 11
831.5701122465833
 21
-698.3595353627329
 31
0.0
  0
LINE
  5
26E
330
1F
100
AcDbEntity
  8
0-0
  6
JWW_DASHED1
 62
   120
370
     5
100
AcDbLine
 10
751.5701122466058
 20
-768.460040427494
 30
0.0
 11
831.5701122465885
 21
-688.4600404275118
 31
0.0
  0
LINE
  5
26F
330
1F
100
AcDbEntity
  8
0-0
  6
JWW_DASHED1
 62
   120
370
     5
100
AcDbLine
 10
751.5701122465947
 20
-758.560545492343
 30
0.0
 11
831.5701122465782
 21
-678.5605454923599
 31
0.0
  0
LINE
  5
270
330
1F
100
AcDbEntity
  8
0-0
  6
JWW_DASHED1
 62
   120
370
     5
100
AcDbLine
 10
751.5701122465862
 20
-748.6610505571347
 30
0.0
 11
831.570112246586
 21
-668.6610505571358
 31
0.0
  0
LINE
  5
271
330
1F
100
AcDbEntity
  8
0-0
  6
JWW_DASHED1
 62
   120
370
     5
100
AcDbLine
 10
751.5701122466076
 20
-738.7615556218974
 30
0.0
 11
831.5701122465902
 21
-658.7615556219148
 31
0.0
  0
LINE
  5
272
330
1F
100
AcDbEntity
  8
0-0
  6
JWW_DASHED1
 62
   120
370
     5
100
AcDbLine
 10
751.5701122465947
 20
-728.8620606867485
 30
0.0
 11
831.5701122465782
 21
-648.8620606867657
 31
0.0
  0
LINE
  5
273
330
1F
100
AcDbEntity
  8
0-0
  6
JWW_DASHED1
 62
   120
370
     5
100
AcDbLine
 10
751.5701122465888
 20
-718.9625657515385
 30
0.0
 11
831.5701122465885
 21
-638.9625657515388
 31
0.0
  0
LINE
  5
274
330
1F
100
AcDbEntity
  8
0-0
  6
JWW_DASHED1
 62
   120
370
     5
100
AcDbLine
 10
751.5701122465939
 20
-709.0630708163166
 30
0.0
 11
831.5701122465919
 21
-629.0630708163181
 31
0.0
  0
LINE
  5
275
330
1F
100
AcDbEntity
  8
0-0
  6
JWW_DASHED1
 62
   120
370
     5
100
AcDbLine
 10
751.5701122465964
 20
-699.1635758811518
 30
0.0
 11
831.5701122465799
 21
-619.1635758811692
 31
0.0
  0
LINE
  5
276
330
1F
100
AcDbEntity
  8
0-0
  6
JWW_DASHED1
 62
   120
370
     5
100
AcDbLine
 10
751.5701122465913
 20
-689.2640809459406
 30
0.0
 11
831.5701122465902
 21
-609.2640809459422
 31
0.0
  0
LINE
  5
277
330
1F
100
AcDbEntity
  8
0-0
  6
JWW_DASHED1
 62
   120
370
     5
100
AcDbLine
 10
751.5701122465828
 20
-679.3645860107328
 30
0.0
 11
831.5701122465825
 21
-599.3645860107339
 31
0.0
  0
LINE
  5
278
330
1F
100
AcDbEntity
  8
0-0
  6
JWW_DASHED1
 62
   120
370
     5
100
AcDbLine
 10
751.5701122465998
 20
-669.4650910755548
 30
0.0
 11
831.5701122465816
 21
-589.465091075573
 31
0.0
  0
LINE
  5
279
330
1F
100
AcDbEntity
  8
0-0
  6
JWW_DASHED1
 62
   120
370
     5
100
AcDbLine
 10
751.5701122465939
 20
-659.5655961403444
 30
0.0
 11
831.5701122465765
 21
-579.5655961403613
 31
0.0
  0
LINE
  5
27A
330
1F
100
AcDbEntity
  8
0-0
  6
JWW_DASHED1
 62
   120
370
     5
100
AcDbLine
 10
751.5701122465862
 20
-649.6661012051358
 30
0.0
 11
831.570112246585
 21
-569.6661012051369
 31
0.0
  0
LINE
  5
27B
330
1F
100
AcDbEntity
  8
0-0
  6
JWW_DASHED1
 62
   120
370
     5
100
AcDbLine
 10
751.5701122466015
 20
-639.7666062699577
 30
0.0
 11
831.5701122465842
 21
-559.7666062699759
 31
0.0
  0
LINE
  5
27C
330
1F
100
AcDbEntity
  8
0-0
  6
JWW_DASHED1
 62
   120
370
     5
100
AcDbLine
 10
751.570112246593
 20
-629.8671113347503
 30
0.0
 11
831.5701122465757
 21
-549.8671113347681
 31
0.0
  0
LINE
  5
27D
330
1F
100
AcDbEntity
  8
0-0
  6
JWW_DASHED1
 62
   120
370
     5
100
AcDbLine
 10
751.5701122465845
 20
-619.9676163995975
 30
0.0
 11
831.5701122465816
 21
-539.9676163995995
 31
0.0
  0
LINE
  5
27E
330
1F
100
AcDbEntity
  8
0-0
  6
JWW_DASHED1
 62
   120
370
     5
100
AcDbLine
 10
751.5701122466041
 20
-610.0681214643615
 30
0.0
 11
831.5701122465867
 21
-530.0681214643789
 31
0.0
  0
LINE
  5
27F
330
1F
100
AcDbEntity
  8
0-0
  6
JWW_DASHED1
 62
   120
370
     5
100
AcDbLine
 10
751.5701122465956
 20
-600.1686265291537
 30
0.0
 11
831.5701122465782
 21
-520.1686265291711
 31
0.0
  0
LINE
  5
280
330
1F
100
AcDbEntity
  8
0-0
  6
JWW_DASHED1
 62
   120
370
     5
100
AcDbLine
 10
751.5701122465862
 20
-590.2691315940017
 30
0.0
 11
831.570112246585
 21
-510.269131594002
 31
0.0
  0
LINE
  5
281
330
1F
100
AcDbEntity
  8
0-0
  6
JWW_DASHED1
 62
   120
370
     5
100
AcDbLine
 10
751.5701122466066
 20
-580.3696366587649
 30
0.0
 11
831.5701122465885
 21
-500.3696366587823
 31
0.0
  0
LINE
  5
282
330
1F
100
AcDbEntity
  8
0-0
  6
JWW_DASHED1
 62
   120
370
     5
100
AcDbLine
 10
751.5701122465981
 20
-570.4701417235567
 30
0.0
 11
831.5701122465808
 21
-490.470141723574
 31
0.0
  0
LINE
  5
283
330
1F
100
AcDbEntity
  8
0-0
  6
JWW_DASHED1
 62
   120
370
     5
100
AcDbLine
 10
751.5701122465879
 20
-560.5706467884047
 30
0.0
 11
831.5701122465885
 21
-480.570646788405
 31
0.0
  0
LINE
  5
284
330
1F
100
AcDbEntity
  8
0-0
  6
JWW_DASHED1
 62
   120
370
     5
100
AcDbLine
 10
751.570112246593
 20
-550.6711518531837
 30
0.0
 11
831.5701122465902
 21
-470.6711518531856
 31
0.0
  0
LINE
  5
285
330
1F
100
AcDbEntity
  8
0-0
  6
JWW_DASHED1
 62
   120
370
     5
100
AcDbLine
 10
751.5701122465998
 20
-540.7716569179601
 30
0.0
 11
831.5701122465833
 21
-460.7716569179774
 31
0.0
  0
LINE
  5
286
330
1F
100
AcDbEntity
  8
0-0
  6
JWW_DASHED1
 62
   120
370
     5
100
AcDbLine
 10
751.5701122465913
 20
-530.8721619828076
 30
0.0
 11
831.5701122465902
 21
-450.8721619828083
 31
0.0
  0
LINE
  5
287
330
1F
100
AcDbEntity
  8
0-0
  6
JWW_DASHED1
 62
   120
370
     5
100
AcDbLine
 10
751.5701122465947
 20
-520.972667047587
 30
0.0
 11
831.5701122465936
 21
-440.9726670475886
 31
0.0
  0
LINE
  5
288
330
1F
100
AcDbEntity
  8
0-0
  6
JWW_DASHED1
 62
   120
370
     5
100
AcDbLine
 10
751.5701122466024
 20
-511.073172112363
 30
0.0
 11
831.570112246585
 21
-431.0731721123812
 31
0.0
  0
LINE
  5
289
330
1F
100
AcDbEntity
  8
0-0
  6
JWW_DASHED1
 62
   120
370
     5
100
AcDbLine
 10
751.570112246593
 20
-501.1736771772106
 30
0.0
 11
831.5701122465919
 21
-421.1736771772113
 31
0.0
  0
LINE
  5
28A
330
1F
100
AcDbEntity
  8
0-0
  6
JWW_DASHED1
 62
   120
370
     5
100
AcDbLine
 10
751.5701122465854
 20
-491.2741822420023
 30
0.0
 11
831.570112246585
 21
-411.2741822420031
 31
0.0
  0
LINE
  5
28B
330
1F
100
AcDbEntity
  8
0-0
  6
JWW_DASHED1
 62
   120
370
     5
100
AcDbLine
 10
751.5701122466049
 20
-481.374687306766
 30
0.0
 11
831.5701122465867
 21
-401.3746873067842
 31
0.0
  0
LINE
  5
28C
330
1F
100
AcDbEntity
  8
0-0
  6
JWW_DASHED1
 62
   120
370
     5
100
AcDbLine
 10
751.5701122465913
 20
-471.4751923716178
 30
0.0
 11
831.5701122465748
 21
-391.4751923716347
 31
0.0
  0
LINE
  5
28D
330
1F
100
AcDbEntity
  8
0-0
  6
JWW_DASHED1
 62
   120
370
     5
100
AcDbLine
 10
751.5701122465879
 20
-461.5756974364049
 30
0.0
 11
831.5701122465867
 21
-381.5756974364069
 31
0.0
  0
LINE
  5
28E
330
1F
100
AcDbEntity
  8
0-0
  6
JWW_DASHED1
 62
   120
370
     5
100
AcDbLine
 10
751.5701122465913
 20
-451.676202501186
 30
0.0
 11
831.5701122465902
 21
-371.6762025011867
 31
0.0
  0
LINE
  5
28F
330
1F
100
AcDbEntity
  8
0-0
  6
JWW_DASHED1
 62
   120
370
     5
100
AcDbLine
 10
751.5701122465939
 20
-441.7767075660212
 30
0.0
 11
831.5701122465765
 21
-361.7767075660377
 31
0.0
  0
LINE
  5
290
330
1F
100
AcDbEntity
  8
0-0
  6
JWW_DASHED1
 62
   120
370
     5
100
AcDbLine
 10
751.5701122465896
 20
-431.8772126308087
 30
0.0
 11
831.5701122465885
 21
-351.8772126308094
 31
0.0
  0
LINE
  5
291
330
1F
100
AcDbEntity
  8
0-0
  6
JWW_DASHED1
 62
   120
370
     5
100
AcDbLine
 10
751.570112246593
 20
-421.9777176955889
 30
0.0
 11
831.5701122465911
 21
-341.9777176955909
 31
0.0
  0
LINE
  5
292
330
1F
100
AcDbEntity
  8
0-0
  6
JWW_DASHED1
 62
   120
370
     5
100
AcDbLine
 10
751.5701122465964
 20
-412.0782227604241
 30
0.0
 11
831.5701122465791
 21
-332.0782227604415
 31
0.0
  0
LINE
  5
293
330
1F
100
AcDbEntity
  8
0-0
  6
JWW_DASHED1
 62
   120
370
     5
100
AcDbLine
 10
751.570112246593
 20
-402.1787278252116
 30
0.0
 11
831.5701122465919
 21
-322.1787278252123
 31
0.0
  0
LINE
  5
294
330
1F
100
AcDbEntity
  8
0-0
  6
JWW_DASHED1
 62
   120
370
     5
100
AcDbLine
 10
751.5701122465845
 20
-392.2792328900034
 30
0.0
 11
831.5701122465833
 21
-312.2792328900041
 31
0.0
  0
LINE
  5
295
330
1F
100
AcDbEntity
  8
0-0
  6
JWW_DASHED1
 62
   120
370
     5
100
AcDbLine
 10
751.570112246599
 20
-382.3797379548271
 30
0.0
 11
831.5701122465816
 21
-302.3797379548449
 31
0.0
  0
LINE
  5
296
330
1F
100
AcDbEntity
  8
0-0
  6
JWW_DASHED1
 62
   120
370
     5
100
AcDbLine
 10
751.5701122465947
 20
-372.4802430196146
 30
0.0
 11
831.5701122465782
 21
-292.4802430196311
 31
0.0
  0
LINE
  5
297
330
1F
100
AcDbEntity
  8
0-0
  6
JWW_DASHED1
 62
   120
370
     5
100
AcDbLine
 10
751.5701122465845
 20
-362.5807480844358
 30
0.0
 11
831.5701122465833
 21
-282.5807480844369
 31
0.0
  0
LINE
  5
298
330
1F
100
AcDbEntity
  8
0-0
  6
JWW_DASHED1
 62
   120
370
     5
100
AcDbLine
 10
751.5701122466015
 20
-352.6812531492305
 30
0.0
 11
831.5701122465833
 21
-272.6812531492478
 31
0.0
  0
LINE
  5
299
330
1F
100
AcDbEntity
  8
0-0
  6
JWW_DASHED1
 62
   120
370
     5
100
AcDbLine
 10
751.570112246593
 20
-342.7817582140222
 30
0.0
 11
831.5701122465748
 21
-262.78175821404
 31
0.0
  0
LINE
  5
29A
330
1F
100
AcDbEntity
  8
0-0
  6
JWW_DASHED1
 62
   120
370
     5
100
AcDbLine
 10
751.5701122465845
 20
-332.8822632788685
 30
0.0
 11
831.5701122465842
 21
-252.8822632788692
 31
0.0
  0
LINE
  5
29B
330
1F
100
AcDbEntity
  8
0-0
  6
JWW_DASHED1
 62
   120
370
     5
100
AcDbLine
 10
751.5701122466032
 20
-322.9827683436343
 30
0.0
 11
831.5701122465867
 21
-242.9827683436508
 31
0.0
  0
LINE
  5
29C
330
1F
100
AcDbEntity
  8
0-0
  6
JWW_DASHED1
 62
   120
370
     5
100
AcDbLine
 10
751.5701122465947
 20
-313.0832734084265
 30
0.0
 11
831.5701122465782
 21
-233.0832734084429
 31
0.0
  0
LINE
  5
29D
330
1F
100
AcDbEntity
  8
0-0
  6
JWW_DASHED1
 62
   120
370
     5
100
AcDbLine
 10
751.5701122465879
 20
-303.1837784732715
 30
0.0
 11
831.5701122465867
 21
-223.1837784732722
 31
0.0
  0
LINE
  5
29E
330
1F
100
AcDbEntity
  8
0-0
  6
JWW_DASHED1
 62
   120
370
     5
100
AcDbLine
 10
751.5701122466049
 20
-293.2842835380372
 30
0.0
 11
831.5701122465877
 21
-213.284283538055
 31
0.0
  0
LINE
  5
29F
330
1F
100
AcDbEntity
  8
0-0
  6
JWW_DASHED1
 62
   120
370
     5
100
AcDbLine
 10
751.5701122465964
 20
-283.3847886028294
 30
0.0
 11
831.5701122465799
 21
-203.3847886028459
 31
0.0
  0
LINE
  5
2A0
330
1F
100
AcDbEntity
  8
0-0
  6
JWW_DASHED1
 62
   120
370
     5
100
AcDbLine
 10
751.5701122465896
 20
-273.4852936676745
 30
0.0
 11
831.5701122465894
 21
-193.4852936676751
 31
0.0
  0
LINE
  5
2A1
330
1F
100
AcDbEntity
  8
0-0
  6
JWW_DASHED1
 62
   120
370
     5
100
AcDbLine
 10
751.5701122465913
 20
-263.5857987324564
 30
0.0
 11
831.5701122465902
 21
-183.5857987324579
 31
0.0
  0
LINE
  5
2A2
330
1F
100
AcDbEntity
  8
0-0
  6
JWW_DASHED1
 62
   120
370
     5
100
AcDbLine
 10
751.5701122465998
 20
-253.6863037972324
 30
0.0
 11
831.5701122465816
 21
-173.6863037972501
 31
0.0
  0
LINE
  5
2A3
330
1F
100
AcDbEntity
  8
0-0
  6
JWW_DASHED1
 62
   120
370
     5
100
AcDbLine
 10
751.570112246593
 20
-243.786808862077
 30
0.0
 11
831.5701122465919
 21
-163.7868088620781
 31
0.0
  0
LINE
  5
2A4
330
1F
100
AcDbEntity
  8
0-0
  6
JWW_DASHED1
 62
   120
370
     5
100
AcDbLine
 10
751.5701122465939
 20
-233.8873139268597
 30
0.0
 11
831.5701122465928
 21
-153.8873139268609
 31
0.0
  0
LINE
  5
2A5
330
1F
100
AcDbEntity
  8
0-0
  6
JWW_DASHED1
 62
   120
370
     5
100
AcDbLine
 10
751.5701122466015
 20
-223.9878189916357
 30
0.0
 11
831.5701122465842
 21
-143.9878189916531
 31
0.0
  0
LINE
  5
2A6
330
1F
100
AcDbEntity
  8
0-0
  6
JWW_DASHED1
 62
   120
370
     5
100
AcDbLine
 10
751.5701122465947
 20
-214.0883240564808
 30
0.0
 11
831.5701122465782
 21
-134.0883240564972
 31
0.0
  0
LINE
  5
2A7
330
1F
100
AcDbEntity
  8
0-0
  6
JWW_DASHED1
 62
   120
370
     5
100
AcDbLine
 10
751.5701122465862
 20
-204.1888291212725
 30
0.0
 11
831.570112246585
 21
-124.1888291212732
 31
0.0
  0
LINE
  5
2A8
330
1F
100
AcDbEntity
  8
0-0
  6
JWW_DASHED1
 62
   120
370
     5
100
AcDbLine
 10
751.5701122466041
 20
-194.2893341860387
 30
0.0
 11
831.5701122465867
 21
-114.289334186056
 31
0.0
  0
LINE
  5
2A9
330
1F
100
AcDbEntity
  8
0-0
  6
JWW_DASHED1
 62
   120
370
     5
100
AcDbLine
 10
751.5701122465905
 20
-184.3898392508901
 30
0.0
 11
831.570112246574
 21
-104.389839250907
 31
0.0
  0
LINE
  5
2AA
330
1F
100
AcDbEntity
  8
0-0
  6
JWW_DASHED1
 62
   120
370
     5
100
AcDbLine
 10
751.5701122465896
 20
-174.4903443156755
 30
0.0
 11
831.5701122465885
 21
-94.49034431567618
 31
0.0
  0
LINE
  5
2AB
330
1F
100
AcDbEntity
  8
0-0
  6
JWW_DASHED1
 62
   120
370
     5
100
AcDbLine
 10
751.5701122465896
 20
-164.5908493804578
 30
0.0
 11
831.5701122465894
 21
-84.59084938045898
 31
0.0
  0
LINE
  5
2AC
330
1F
100
AcDbEntity
  8
0-0
  6
JWW_DASHED1
 62
   120
370
     5
100
AcDbLine
 10
751.570112246593
 20
-154.6913544452931
 30
0.0
 11
831.5701122465765
 21
-74.69135444531041
 31
0.0
  0
LINE
  5
2AD
330
1F
100
AcDbEntity
  8
0-0
  6
JWW_DASHED1
 62
   120
370
     5
100
AcDbLine
 10
751.5701122465913
 20
-144.7918595100784
 30
0.0
 11
831.5701122465911
 21
-64.79185951007914
 31
0.0
  0
LINE
  5
2AE
330
1F
100
AcDbEntity
  8
0-0
  6
JWW_DASHED1
 62
   120
370
     5
100
AcDbLine
 10
751.5701122466032
 20
-134.8923645749043
 30
0.0
 11
831.5701122465867
 21
-54.89236457492161
 31
0.0
  0
LINE
  5
2AF
330
1F
100
AcDbEntity
  8
0-0
  6
JWW_DASHED1
 62
   120
370
     5
100
AcDbLine
 10
751.5701122465956
 20
-124.992869639696
 30
0.0
 11
831.5701122465782
 21
-44.99286963971421
 31
0.0
  0
LINE
  5
2B0
330
1F
100
AcDbEntity
  8
0-0
  6
JWW_DASHED1
 62
   120
370
     5
100
AcDbLine
 10
751.5701122465947
 20
-115.0933747044814
 30
0.0
 11
831.5701122465936
 21
-35.09337470448209
 31
0.0
  0
LINE
  5
2B1
330
1F
100
AcDbEntity
  8
0-0
  6
JWW_DASHED1
 62
   120
370
     5
100
AcDbLine
 10
751.5701122465896
 20
-105.1938797693239
 30
0.0
 11
831.5701122465894
 21
-25.19387976932457
 31
0.0
  0
LINE
  5
2B2
330
1F
100
AcDbEntity
  8
0-0
  6
JWW_DASHED1
 62
   120
370
     5
100
AcDbLine
 10
751.5701122465981
 20
-95.29438483409983
 30
0.0
 11
831.5701122465799
 21
-15.29438483411674
 31
0.0
  0
LINE
  5
2B3
330
1F
100
AcDbEntity
  8
0-0
  6
JWW_DASHED1
 62
   120
370
     5
100
AcDbLine
 10
751.5701122465964
 20
-85.39488989888433
 30
0.0
 11
831.5701122465799
 21
-5.394889898901241
 31
0.0
  0
LINE
  5
2B4
330
1F
100
AcDbEntity
  8
0-0
  6
JWW_DASHED1
 62
   120
370
     5
100
AcDbLine
 10
751.570112246593
 20
-75.49539496372681
 30
0.0
 11
831.5701122465911
 21
4.504605036271627
 31
0.0
  0
LINE
  5
2B5
330
1F
100
AcDbEntity
  8
0-0
  6
JWW_DASHED1
 62
   120
370
     5
100
AcDbLine
 10
751.5701122465998
 20
-65.59590002850321
 30
0.0
 11
831.5701122465833
 21
14.40409997148031
 31
0.0
  0
LINE
  5
2B6
330
1F
100
AcDbEntity
  8
0-0
  6
JWW_DASHED1
 62
   120
370
     5
100
AcDbLine
 10
751.5701122465913
 20
-55.69640509329496
 30
0.0
 11
831.5701122465748
 21
24.30359490668771
 31
0.0
  0
LINE
  5
2B7
330
1F
100
AcDbEntity
  8
0-0
  6
JWW_DASHED1
 62
   120
370
     5
100
AcDbLine
 10
751.5701122465862
 20
-45.79691015813786
 30
0.0
 11
831.570112246585
 21
34.20308984186057
 31
0.0
  0
LINE
  5
2B8
330
1F
100
AcDbEntity
  8
0-0
  6
JWW_DASHED1
 62
   120
370
     5
100
AcDbLine
 10
751.5701122466024
 20
-35.89741522290616
 30
0.0
 11
831.570112246585
 21
44.1025847770765
 31
0.0
  0
LINE
  5
2B9
330
1F
100
AcDbEntity
  8
0-0
  6
JWW_DASHED1
 62
   120
370
     5
100
AcDbLine
 10
751.5701122465939
 20
-25.99792028769834
 30
0.0
 11
831.5701122465765
 21
54.00207971228475
 31
0.0
  0
LINE
  5
2BA
330
1F
100
AcDbEntity
  8
0-0
  6
JWW_DASHED1
 62
   120
370
     5
100
AcDbLine
 10
751.5701122465888
 20
-16.09842535254167
 30
0.0
 11
831.5701122465885
 21
63.90157464745762
 31
0.0
  0
LINE
  5
2BB
330
1F
100
AcDbEntity
  8
0-0
  6
JWW_DASHED1
 62
   120
370
     5
100
AcDbLine
 10
751.5701122466049
 20
-6.198930417309114
 30
0.0
 11
831.5701122465867
 21
73.80106958267312
 31
0.0
  0
LINE
  5
2BC
330
1F
100
AcDbEntity
  8
0-0
  6
JWW_DASHED1
 62
   120
370
     5
100
AcDbLine
 10
751.5701122465964
 20
3.700564517898712
 30
0.0
 11
831.5701122465791
 21
83.70056451788138
 31
0.0
  0
LINE
  5
2BD
330
1F
100
AcDbEntity
  8
0-0
  6
JWW_DASHED1
 62
   120
370
     5
100
AcDbLine
 10
751.5701122465913
 20
13.60005945305495
 30
0.0
 11
831.5701122465902
 21
93.60005945305467
 31
0.0
  0
LINE
  5
2BE
330
1F
100
AcDbEntity
  8
0-0
  6
JWW_DASHED1
 62
   120
370
     5
100
AcDbLine
 10
751.5701122465913
 20
23.49955438827173
 30
0.0
 11
831.5701122465902
 21
103.4995543882702
 31
0.0
  0
LINE
  5
2BF
330
1F
100
AcDbEntity
  8
0-0
  6
JWW_DASHED1
 62
   120
370
     5
100
AcDbLine
 10
751.570112246599
 20
33.39904932349576
 30
0.0
 11
831.5701122465808
 21
113.399049323478
 31
0.0
  0
LINE
  5
2C0
330
1F
100
AcDbEntity
  8
0-0
  6
JWW_DASHED1
 62
   120
370
     5
100
AcDbLine
 10
751.570112246593
 20
43.298544258652
 30
0.0
 11
831.5701122465919
 21
123.2985442586509
 31
0.0
  0
LINE
  5
2C1
330
1F
100
AcDbEntity
  8
0-0
  6
JWW_DASHED1
 62
   120
370
     5
100
AcDbLine
 10
751.5701122465862
 20
53.19803919386068
 30
0.0
 11
831.570112246585
 21
133.19803919386
 31
0.0
  0
LINE
  5
2C2
330
1F
100
AcDbEntity
  8
0-0
  6
JWW_DASHED1
 62
   120
370
     5
100
AcDbLine
 10
751.5701122465964
 20
63.0975341290327
 30
0.0
 11
831.5701122465782
 21
143.0975341290158
 31
0.0
  0
LINE
  5
2C3
330
1F
100
AcDbEntity
  8
0-0
  6
JWW_DASHED1
 62
   120
370
     5
100
AcDbLine
 10
751.5701122465964
 20
72.99702906424905
 30
0.0
 11
831.5701122465791
 21
152.9970290642325
 31
0.0
  0
LINE
  5
2C4
330
1F
100
AcDbEntity
  8
0-0
  6
JWW_DASHED1
 62
   120
370
     5
100
AcDbLine
 10
751.5701122465879
 20
82.8965239994573
 30
0.0
 11
831.5701122465877
 21
162.896523999457
 31
0.0
  0
LINE
  5
2C5
330
1F
100
AcDbEntity
  8
0-0
  6
JWW_DASHED1
 62
   120
370
     5
100
AcDbLine
 10
751.5701122465981
 20
92.79601893462974
 30
0.0
 11
831.5701122465816
 21
172.7960189346128
 31
0.0
  0
LINE
  5
2C6
330
1F
100
AcDbEntity
  8
0-0
  6
JWW_DASHED1
 62
   120
370
     5
100
AcDbLine
 10
751.5701122465896
 20
102.6955138698376
 30
0.0
 11
831.5701122465731
 21
182.6955138698211
 31
0.0
  0
LINE
  5
2C7
330
1F
100
AcDbEntity
  8
0-0
  6
JWW_DASHED1
 62
   120
370
     5
100
AcDbLine
 10
751.5701122465905
 20
112.5950088050543
 30
0.0
 11
831.5701122465885
 21
192.5950088050528
 31
0.0
  0
LINE
  5
2C8
330
1F
100
AcDbEntity
  8
0-0
  6
JWW_DASHED1
 62
   120
370
     5
100
AcDbLine
 10
751.5701122466015
 20
122.4945037402268
 30
0.0
 11
831.5701122465833
 21
202.494503740209
 31
0.0
  0
LINE
  5
2C9
330
1F
100
AcDbEntity
  8
0-0
  6
JWW_DASHED1
 62
   120
370
     5
100
AcDbLine
 10
751.570112246593
 20
132.3939986754346
 30
0.0
 11
831.5701122465748
 21
212.3939986754169
 31
0.0
  0
LINE
  5
2CA
330
1F
100
AcDbEntity
  8
0-0
  6
JWW_DASHED1
 62
   120
370
     5
100
AcDbLine
 10
751.570112246593
 20
142.293493610651
 30
0.0
 11
831.5701122465919
 21
222.2934936106498
 31
0.0
  0
LINE
  5
2CB
330
1F
100
AcDbEntity
  8
0-0
  6
JWW_DASHED1
 62
   120
370
     5
100
AcDbLine
 10
751.5701122466032
 20
152.192988545823
 30
0.0
 11
831.570112246586
 21
232.1929885458061
 31
0.0
  0
LINE
  5
2CC
330
1F
100
AcDbEntity
  8
0-0
  6
JWW_DASHED1
 62
   120
370
     5
100
AcDbLine
 10
751.5701122465947
 20
162.0924834810316
 30
0.0
 11
831.5701122465774
 21
242.0924834810139
 31
0.0
  0
LINE
  5
2CD
330
1F
100
AcDbEntity
  8
0-0
  6
JWW_DASHED1
 62
   120
370
     5
100
AcDbLine
 10
751.5701122465947
 20
171.991978416248
 30
0.0
 11
831.5701122465936
 21
251.9919784162469
 31
0.0
  0
LINE
  5
2CE
330
1F
100
AcDbEntity
  8
0-0
  6
JWW_DASHED1
 62
   120
370
     5
100
AcDbLine
 10
751.5701122465896
 20
181.8914733514043
 30
0.0
 11
831.5701122465885
 21
261.8914733514027
 31
0.0
  0
LINE
  5
2CF
330
1F
100
AcDbEntity
  8
0-0
  6
JWW_DASHED1
 62
   120
370
     5
100
AcDbLine
 10
751.5701122465964
 20
191.7909682866274
 30
0.0
 11
831.5701122465799
 21
271.790968286611
 31
0.0
  0
LINE
  5
2D0
330
1F
100
AcDbEntity
  8
0-0
  6
JWW_DASHED1
 62
   120
370
     5
100
AcDbLine
 10
751.5701122465981
 20
201.6904632218451
 30
0.0
 11
831.5701122465808
 21
281.6904632218282
 31
0.0
  0
LINE
  5
2D1
330
1F
100
AcDbEntity
  8
0-0
  6
JWW_DASHED1
 62
   120
370
     5
100
AcDbLine
 10
751.5701122465922
 20
211.5899581570013
 30
0.0
 11
831.5701122465902
 21
291.5899581569993
 31
0.0
  0
LINE
  5
2D2
330
1F
100
AcDbEntity
  8
0-0
  6
JWW_DASHED1
 62
   120
370
     5
100
AcDbLine
 10
751.570112246599
 20
221.4894530922245
 30
0.0
 11
831.5701122465816
 21
301.4894530922076
 31
0.0
  0
LINE
  5
2D3
330
1F
100
AcDbEntity
  8
0-0
  6
JWW_DASHED1
 62
   120
370
     5
100
AcDbLine
 10
751.5701122465905
 20
231.3889480274323
 30
0.0
 11
831.5701122465731
 21
311.388948027415
 31
0.0
  0
LINE
  5
2D4
330
1F
100
AcDbEntity
  8
0-0
  6
JWW_DASHED1
 62
   120
370
     5
100
AcDbLine
 10
751.5701122465879
 20
241.2884429625911
 30
0.0
 11
831.5701122465867
 21
321.28844296259
 31
0.0
  0
LINE
  5
2D5
330
1F
100
AcDbEntity
  8
0-0
  6
JWW_DASHED1
 62
   120
370
     5
100
AcDbLine
 10
751.5701122466015
 20
251.1879378978219
 30
0.0
 11
831.5701122465833
 21
331.1879378978037
 31
0.0
  0
LINE
  5
2D6
330
1F
100
AcDbEntity
  8
0-0
  6
JWW_DASHED1
 62
   120
370
     5
100
AcDbLine
 10
751.5701122465896
 20
261.0874328329709
 30
0.0
 11
831.5701122465714
 21
341.0874328329527
 31
0.0
  0
LINE
  5
2D7
330
1F
100
AcDbEntity
  8
0-0
  6
JWW_DASHED1
 62
   120
370
     5
100
AcDbLine
 10
751.5701122465896
 20
270.9869277681881
 30
0.0
 11
831.5701122465885
 21
350.986927768187
 31
0.0
  0
LINE
  5
2D8
330
1F
100
AcDbEntity
  8
0-0
  6
JWW_DASHED1
 62
   120
370
     5
100
AcDbLine
 10
751.5701122465879
 20
280.8864227034024
 30
0.0
 11
831.5701122465867
 21
360.8864227034008
 31
0.0
  0
LINE
  5
2D9
330
1F
100
AcDbEntity
  8
0-0
  6
JWW_DASHED1
 62
   120
370
     5
100
AcDbLine
 10
751.5701122465913
 20
290.785917638568
 30
0.0
 11
831.5701122465731
 21
370.7859176385502
 31
0.0
  0
LINE
  5
2DA
330
1F
100
AcDbEntity
  8
0-0
  6
JWW_DASHED1
 62
   120
370
     5
100
AcDbLine
 10
751.570112246593
 20
300.6854125737852
 30
0.0
 11
831.5701122465919
 21
380.685412573784
 31
0.0
  0
LINE
  5
2DB
330
1F
100
AcDbEntity
  8
0-0
  6
JWW_DASHED1
 62
   120
370
     5
100
AcDbLine
 10
751.5701122465896
 20
310.584907508999
 30
0.0
 11
831.5701122465885
 21
390.5849075089974
 31
0.0
  0
LINE
  5
2DC
330
1F
100
AcDbEntity
  8
0-0
  6
JWW_DASHED1
 62
   120
370
     5
100
AcDbLine
 10
751.570112246593
 20
320.4844024441638
 30
0.0
 11
831.5701122465765
 21
400.4844024441473
 31
0.0
  0
LINE
  5
2DD
330
1F
100
AcDbEntity
  8
0-0
  6
JWW_DASHED1
 62
   120
370
     5
100
AcDbLine
 10
751.5701122465947
 20
330.3838973793822
 30
0.0
 11
831.5701122465936
 21
410.3838973793807
 31
0.0
  0
LINE
  5
2DE
330
1F
100
AcDbEntity
  8
0-0
  6
JWW_DASHED1
 62
   120
370
     5
100
AcDbLine
 10
751.5701122465862
 20
340.2833923145901
 30
0.0
 11
831.570112246585
 21
420.2833923145889
 31
0.0
  0
LINE
  5
2DF
330
1F
100
AcDbEntity
  8
0-0
  6
JWW_DASHED1
 62
   120
370
     5
100
AcDbLine
 10
751.5701122465956
 20
350.1828872497608
 30
0.0
 11
831.5701122465782
 21
430.182887249743
 31
0.0
  0
LINE
  5
2E0
330
1F
100
AcDbEntity
  8
0-0
  6
JWW_DASHED1
 62
   120
370
     5
100
AcDbLine
 10
751.5701122465981
 20
360.0823821849793
 30
0.0
 11
831.5701122465799
 21
440.0823821849619
 31
0.0
  0
LINE
  5
2E1
330
1F
100
AcDbEntity
  8
0-0
  6
JWW_DASHED1
 62
   120
370
     5
100
AcDbLine
 10
751.5701122465896
 20
369.9818771201871
 30
0.0
 11
831.5701122465885
 21
449.981877120186
 31
0.0
  0
LINE
  5
2E2
330
1F
100
AcDbEntity
  8
0-0
  6
JWW_DASHED1
 62
   120
370
     5
100
AcDbLine
 10
751.5701122465981
 20
379.8813720553579
 30
0.0
 11
831.5701122465799
 21
459.8813720553401
 31
0.0
  0
LINE
  5
2E3
330
1F
100
AcDbEntity
  8
0-0
  6
JWW_DASHED1
 62
   120
370
     5
100
AcDbLine
 10
751.5701122465896
 20
389.7808669905657
 30
0.0
 11
831.5701122465723
 21
469.7808669905484
 31
0.0
  0
LINE
  5
2E4
330
1F
100
AcDbEntity
  8
0-0
  6
JWW_DASHED1
 62
   120
370
     5
100
AcDbLine
 10
751.5701122465913
 20
399.6803619257842
 30
0.0
 11
831.5701122465902
 21
479.680361925783
 31
0.0
  0
LINE
  5
2E5
330
1F
100
AcDbEntity
  8
0-0
  6
JWW_DASHED1
 62
   120
370
     5
100
AcDbLine
 10
751.5701122465998
 20
409.5798568609545
 30
0.0
 11
831.5701122465833
 21
489.5798568609371
 31
0.0
  0
LINE
  5
2E6
330
1F
100
AcDbEntity
  8
0-0
  6
JWW_DASHED1
 62
   120
370
     5
100
AcDbLine
 10
751.5701122465922
 20
419.4793517961627
 30
0.0
 11
831.570112246574
 21
499.479351796145
 31
0.0
  0
LINE
  5
2E7
330
1F
100
AcDbEntity
  8
0-0
  6
JWW_DASHED1
 62
   120
370
     5
100
AcDbLine
 10
751.5701122465947
 20
429.3788467313812
 30
0.0
 11
831.5701122465936
 21
509.3788467313801
 31
0.0
  0
LINE
  5
2E8
330
1F
100
AcDbEntity
  8
0-0
  6
JWW_DASHED1
 62
   120
370
     5
100
AcDbLine
 10
751.5701122466015
 20
439.2783416665507
 30
0.0
 11
831.570112246585
 21
519.2783416665334
 31
0.0
  0
LINE
  5
2E9
330
1F
100
AcDbEntity
  8
0-0
  6
JWW_DASHED1
 62
   120
370
     5
100
AcDbLine
 10
751.5701122465939
 20
449.1778366017589
 30
0.0
 11
831.5701122465765
 21
529.177836601742
 31
0.0
  0
LINE
  5
2EA
330
1F
100
AcDbEntity
  8
0-0
  6
JWW_DASHED1
 62
   120
370
     5
100
AcDbLine
 10
751.5701122465922
 20
459.077331536919
 30
0.0
 11
831.5701122465919
 21
539.0773315369187
 31
0.0
  0
LINE
  5
2EB
330
1F
100
AcDbEntity
  8
0-0
  6
JWW_DASHED1
 62
   120
370
     5
100
AcDbLine
 10
751.5701122465888
 20
468.976826472132
 30
0.0
 11
831.5701122465867
 21
548.9768264721299
 31
0.0
  0
LINE
  5
2EC
330
1F
100
AcDbEntity
  8
0-0
  6
JWW_DASHED1
 62
   120
370
     5
100
AcDbLine
 10
751.5701122465964
 20
478.8763214073555
 30
0.0
 11
831.5701122465782
 21
558.8763214073382
 31
0.0
  0
LINE
  5
2ED
330
1F
100
AcDbEntity
  8
0-0
  6
JWW_DASHED1
 62
   120
370
     5
100
AcDbLine
 10
751.5701122465947
 20
488.7758163425161
 30
0.0
 11
831.5701122465936
 21
568.7758163425145
 31
0.0
  0
LINE
  5
2EE
330
1F
100
AcDbEntity
  8
0-0
  6
JWW_DASHED1
 62
   120
370
     5
100
AcDbLine
 10
751.5701122465862
 20
498.6753112777243
 30
0.0
 11
831.570112246586
 21
578.6753112777236
 31
0.0
  0
LINE
  5
2EF
330
1F
100
AcDbEntity
  8
0-0
  6
JWW_DASHED1
 62
   120
370
     5
100
AcDbLine
 10
751.5701122465981
 20
508.5748062129526
 30
0.0
 11
831.5701122465808
 21
588.5748062129348
 31
0.0
  0
LINE
  5
2F0
330
1F
100
AcDbEntity
  8
0-0
  6
JWW_DASHED1
 62
   120
370
     5
100
AcDbLine
 10
751.5701122465964
 20
518.4743011481127
 30
0.0
 11
831.5701122465799
 21
598.4743011480957
 31
0.0
  0
LINE
  5
2F1
330
1F
100
AcDbEntity
  8
0-0
  6
JWW_DASHED1
 62
   120
370
     5
100
AcDbLine
 10
751.5701122465896
 20
528.3737960833214
 30
0.0
 11
831.5701122465877
 21
608.3737960833198
 31
0.0
  0
LINE
  5
2F2
330
1F
100
AcDbEntity
  8
0-0
  6
JWW_DASHED1
 62
   120
370
     5
100
AcDbLine
 10
751.5701122466007
 20
538.2732910185492
 30
0.0
 11
831.5701122465833
 21
618.2732910185318
 31
0.0
  0
LINE
  5
2F3
330
1F
100
AcDbEntity
  8
0-0
  6
JWW_DASHED1
 62
   120
370
     5
100
AcDbLine
 10
751.5701122465879
 20
548.1727859536982
 30
0.0
 11
831.5701122465706
 21
628.1727859536809
 31
0.0
  0
LINE
  5
2F4
330
1F
100
AcDbEntity
  8
0-0
  6
JWW_DASHED1
 62
   120
370
     5
100
AcDbLine
 10
751.5701122465905
 20
558.0722808889171
 30
0.0
 11
831.5701122465902
 21
638.0722808889168
 31
0.0
  0
LINE
  5
2F5
330
1F
100
AcDbEntity
  8
0-0
  6
JWW_DASHED1
 62
   120
370
     5
100
AcDbLine
 10
751.5701122465862
 20
567.9717758241296
 30
0.0
 11
831.570112246586
 21
647.9717758241289
 31
0.0
  0
LINE
  5
2F6
330
1F
100
AcDbEntity
  8
0-0
  6
JWW_DASHED1
 62
   120
370
     5
100
AcDbLine
 10
751.5701122465905
 20
577.8712707592953
 30
0.0
 11
831.5701122465731
 21
657.8712707592775
 31
0.0
  0
LINE
  5
2F7
330
1F
100
AcDbEntity
  8
0-0
  6
JWW_DASHED1
 62
   120
370
     5
100
AcDbLine
 10
751.5701122465939
 20
587.770765694515
 30
0.0
 11
831.5701122465928
 21
667.7707656945139
 31
0.0
  0
LINE
  5
2F8
330
1F
100
AcDbEntity
  8
0-0
  6
JWW_DASHED1
 62
   120
370
     5
100
AcDbLine
 10
751.5701122465896
 20
597.6702606297271
 30
0.0
 11
831.5701122465867
 21
677.6702606297247
 31
0.0
  0
LINE
  5
2F9
330
1F
100
AcDbEntity
  8
0-0
  6
JWW_DASHED1
 62
   120
370
     5
100
AcDbLine
 10
751.5701122465922
 20
607.5697555648915
 30
0.0
 11
831.5701122465748
 21
687.5697555648745
 31
0.0
  0
LINE
  5
2FA
330
1F
100
AcDbEntity
  8
0-0
  6
JWW_DASHED1
 62
   120
370
     5
100
AcDbLine
 10
751.5701122465964
 20
617.469250500112
 30
0.0
 11
831.5701122465953
 21
697.4692505001109
 31
0.0
  0
LINE
  5
2FB
330
1F
100
AcDbEntity
  8
0-0
  6
JWW_DASHED1
 62
   120
370
     5
100
AcDbLine
 10
751.5701122465879
 20
627.3687454353203
 30
0.0
 11
831.5701122465867
 21
707.3687454353192
 31
0.0
  0
LINE
  5
2FC
330
1F
100
AcDbEntity
  8
0-0
  6
JWW_DASHED1
 62
   120
370
     5
100
AcDbLine
 10
751.5701122465947
 20
637.2682403704889
 30
0.0
 11
831.5701122465765
 21
717.2682403704707
 31
0.0
  0
LINE
  5
2FD
330
1F
100
AcDbEntity
  8
0-0
  6
JWW_DASHED1
 62
   120
370
     5
100
AcDbLine
 10
751.5701122465981
 20
647.1677353057087
 30
0.0
 11
831.5701122465816
 21
727.1677353056917
 31
0.0
  0
LINE
  5
2FE
330
1F
100
AcDbEntity
  8
0-0
  6
JWW_DASHED1
 62
   120
370
     5
100
AcDbLine
 10
751.5701122465896
 20
657.0672302408611
 30
0.0
 11
831.5701122465877
 21
737.0672302408595
 31
0.0
  0
LINE
  5
2FF
330
1F
100
AcDbEntity
  8
0-0
  6
JWW_DASHED1
 62
   120
370
     5
100
AcDbLine
 10
751.5701122465964
 20
666.9667251760851
 30
0.0
 11
831.5701122465799
 21
746.9667251760678
 31
0.0
  0
LINE
  5
300
330
1F
100
AcDbEntity
  8
0-0
  6
JWW_DASHED1
 62
   120
370
     5
100
AcDbLine
 10
751.5701122465888
 20
676.8662201112934
 30
0.0
 11
831.5701122465714
 21
756.8662201112757
 31
0.0
  0
LINE
  5
301
330
1F
100
AcDbEntity
  8
0-0
  6
JWW_DASHED1
 62
   120
370
     5
100
AcDbLine
 10
751.5701122465879
 20
686.7657150464547
 30
0.0
 11
831.5701122465867
 21
766.7657150464536
 31
0.0
  0
LINE
  5
302
330
1F
100
AcDbEntity
  8
0-0
  6
JWW_DASHED1
 62
   120
370
     5
100
AcDbLine
 10
751.5701122465998
 20
696.6652099816822
 30
0.0
 11
831.5701122465816
 21
776.6652099816648
 31
0.0
  0
LINE
  5
303
330
1F
100
AcDbEntity
  8
0-0
  6
JWW_DASHED1
 62
   120
370
     5
100
AcDbLine
 10
751.5701122465913
 20
706.56470491689
 30
0.0
 11
831.5701122465731
 21
786.5647049168726
 31
0.0
  0
LINE
  5
304
330
1F
100
AcDbEntity
  8
0-0
  6
JWW_DASHED1
 62
   120
370
     5
100
AcDbLine
 10
751.5701122465913
 20
716.4641998520518
 30
0.0
 11
831.5701122465902
 21
796.4641998520507
 31
0.0
  0
LINE
  5
305
330
1F
100
AcDbEntity
  8
0-0
  6
JWW_DASHED1
 62
   120
370
     5
100
AcDbLine
 10
751.5701122465862
 20
726.3636947872631
 30
0.0
 11
831.5701122465833
 21
806.363694787261
 31
0.0
  0
LINE
  5
306
330
1F
100
AcDbEntity
  8
0-0
  6
JWW_DASHED1
 62
   120
370
     5
100
AcDbLine
 10
751.570112246593
 20
736.2631897224866
 30
0.0
 11
831.5701122465757
 21
816.2631897224693
 31
0.0
  0
LINE
  5
307
330
1F
100
AcDbEntity
  8
0-0
  6
JWW_DASHED1
 62
   120
370
     5
100
AcDbLine
 10
751.570112246593
 20
746.1626846576488
 30
0.0
 11
831.5701122465919
 21
826.1626846576477
 31
0.0
  0
LINE
  5
308
330
1F
100
AcDbEntity
  8
0-0
  6
JWW_DASHED1
 62
   120
370
     5
100
AcDbLine
 10
751.5701122465879
 20
756.0621795928596
 30
0.0
 11
831.5701122465867
 21
836.0621795928581
 31
0.0
  0
LINE
  5
309
330
1F
100
AcDbEntity
  8
0-0
  6
JWW_DASHED1
 62
   120
370
     5
100
AcDbLine
 10
751.5701122465956
 20
765.9616745280837
 30
0.0
 11
831.5701122465774
 21
845.9616745280655
 31
0.0
  0
LINE
  5
30A
330
1F
100
AcDbEntity
  8
0-0
  6
JWW_DASHED1
 62
   120
370
     5
100
AcDbLine
 10
751.5701122465964
 20
775.8611694632459
 30
0.0
 11
831.5701122465953
 21
855.8611694632448
 31
0.0
  0
LINE
  5
30B
330
1F
100
AcDbEntity
  8
0-0
  6
JWW_DASHED1
 62
   120
370
     5
100
AcDbLine
 10
751.5701122465879
 20
785.760664398454
 30
0.0
 11
831.5701122465867
 21
865.7606643984526
 31
0.0
  0
LINE
  5
30C
330
1F
100
AcDbEntity
  8
0-0
  6
JWW_DASHED1
 62
   120
370
     5
100
AcDbLine
 10
751.5701122465973
 20
795.6601593336799
 30
0.0
 11
831.5701122465799
 21
875.6601593336624
 31
0.0
  0
LINE
  5
30D
330
1F
100
AcDbEntity
  8
0-0
  6
JWW_DASHED1
 62
   120
370
     5
100
AcDbLine
 10
751.5701122465981
 20
805.5596542688429
 30
0.0
 11
831.5701122465816
 21
885.5596542688256
 31
0.0
  0
LINE
  5
30E
330
1F
100
AcDbEntity
  8
0-0
  6
JWW_DASHED1
 62
   120
370
     5
100
AcDbLine
 10
751.5701122465896
 20
815.4591492040507
 30
0.0
 11
831.5701122465885
 21
895.4591492040496
 31
0.0
  0
LINE
  5
30F
330
1F
100
AcDbEntity
  8
0-0
  6
JWW_DASHED1
 62
   120
370
     5
100
AcDbLine
 10
751.5701122465998
 20
825.3586441392765
 30
0.0
 11
831.5701122465816
 21
905.3586441392591
 31
0.0
  0
LINE
  5
310
330
1F
100
AcDbEntity
  8
0-0
  6
JWW_DASHED1
 62
   120
370
     5
100
AcDbLine
 10
751.5701122465871
 20
835.2581390744259
 30
0.0
 11
831.5701122465697
 21
915.2581390744084
 31
0.0
  0
LINE
  5
311
330
1F
100
AcDbEntity
  8
0-0
  6
JWW_DASHED1
 62
   120
370
     5
100
AcDbLine
 10
751.570112246593
 20
845.1576340096478
 30
0.0
 11
831.5701122465919
 21
925.1576340096467
 31
0.0
  0
LINE
  5
312
330
1F
100
AcDbEntity
  8
0-0
  6
JWW_DASHED1
 62
   120
370
     5
100
AcDbLine
 10
751.5701122465981
 20
855.0571289448147
 30
0.0
 11
831.5701122465808
 21
935.0571289447978
 31
0.0
  0
LINE
  5
313
330
1F
100
AcDbEntity
  8
0-0
  6
JWW_DASHED1
 62
   120
370
     5
100
AcDbLine
 10
751.5701122465896
 20
864.9566238800226
 30
0.0
 11
831.5701122465714
 21
944.9566238800052
 31
0.0
  0
LINE
  5
314
330
1F
100
AcDbEntity
  8
0-0
  6
JWW_DASHED1
 62
   120
370
     5
100
AcDbLine
 10
751.5701122465947
 20
874.8561188152448
 30
0.0
 11
831.5701122465936
 21
954.8561188152437
 31
0.0
  0
LINE
  5
315
330
1F
100
AcDbEntity
  8
0-0
  6
JWW_DASHED1
 62
   120
370
     5
100
AcDbLine
 10
751.5701122465998
 20
884.7556137504112
 30
0.0
 11
831.5701122465825
 21
964.755613750394
 31
0.0
  0
LINE
  5
316
330
1F
100
AcDbEntity
  8
0-0
  6
JWW_DASHED1
 62
   120
370
     5
100
AcDbLine
 10
751.5701122465913
 20
894.6551086856196
 30
0.0
 11
831.5701122465748
 21
974.6551086856023
 31
0.0
  0
LINE
  5
317
330
1F
100
AcDbEntity
  8
0-0
  6
JWW_DASHED1
 62
   120
370
     5
100
AcDbLine
 10
751.5701122465981
 20
904.5546036208419
 30
0.0
 11
831.570112246597
 21
984.5546036208408
 31
0.0
  0
LINE
  5
318
330
1F
100
AcDbEntity
  8
0-0
  6
JWW_DASHED1
 62
   120
370
     5
100
AcDbLine
 10
751.5701122465862
 20
914.454098555992
 30
0.0
 11
831.570112246585
 21
994.4540985559906
 31
0.0
  0
LINE
  5
319
330
1F
100
AcDbEntity
  8
0-0
  6
JWW_DASHED1
 62
   120
370
     5
100
AcDbLine
 10
751.5701122465939
 20
924.3535934912162
 30
0.0
 11
831.5701122465765
 21
1004.353593491199
 31
0.0
  0
LINE
  5
31A
330
1F
100
AcDbEntity
  8
0-0
  6
JWW_DASHED1
 62
   120
370
     5
100
AcDbLine
 10
751.5701122465998
 20
934.2530884264389
 30
0.0
 11
831.5701122465833
 21
1014.253088426422
 31
0.0
  0
LINE
  5
31B
330
1F
100
AcDbEntity
  8
0-0
  6
JWW_DASHED1
 62
   120
370
     5
100
AcDbLine
 10
751.5701122465888
 20
944.1525833615892
 30
0.0
 11
831.5701122465867
 21
1024.152583361588
 31
0.0
  0
LINE
  5
31C
330
1F
100
AcDbEntity
  8
0-0
  6
JWW_DASHED1
 62
   120
370
     5
100
AcDbLine
 10
751.5701122465964
 20
954.0520782968129
 30
0.0
 11
831.5701122465782
 21
1034.052078296796
 31
0.0
  0
LINE
  5
31D
330
1F
100
AcDbEntity
  8
0-0
  6
JWW_DASHED1
 62
   120
370
     5
100
AcDbLine
 10
751.5701122465879
 20
963.9515732320207
 30
0.0
 11
831.5701122465706
 21
1043.951573232004
 31
0.0
  0
LINE
  5
31E
330
1F
100
AcDbEntity
  8
0-0
  6
JWW_DASHED1
 62
   120
370
     5
100
AcDbLine
 10
751.5701122465896
 20
973.851068167185
 30
0.0
 11
831.5701122465885
 21
1053.851068167184
 31
0.0
  0
LINE
  5
31F
330
1F
100
AcDbEntity
  8
0-0
  6
JWW_DASHED1
 62
   120
370
     5
100
AcDbLine
 10
751.5701122465981
 20
983.7505631024094
 30
0.0
 11
831.5701122465816
 21
1063.750563102393
 31
0.0
  0
LINE
  5
320
330
1F
100
AcDbEntity
  8
0-0
  6
JWW_DASHED1
 62
   120
370
     5
100
AcDbLine
 10
751.5701122465896
 20
993.6500580376177
 30
0.0
 11
831.5701122465723
 21
1073.6500580376
 31
0.0
  0
LINE
  5
321
330
1F
100
AcDbEntity
  8
0-0
  6
JWW_DASHED1
 62
   120
370
     5
100
AcDbLine
 10
751.5701122465922
 20
1003.549552972782
 30
0.0
 11
831.5701122465919
 21
1083.549552972781
 31
0.0
  0
LINE
  5
322
330
1F
100
AcDbEntity
  8
0-0
  6
JWW_DASHED1
 62
   120
370
     5
100
AcDbLine
 10
751.5701122465845
 20
1013.44904790799
 30
0.0
 11
831.5701122465833
 21
1093.449047907989
 31
0.0
  0
LINE
  5
323
330
1F
100
AcDbEntity
  8
0-0
  6
JWW_DASHED1
 62
   120
370
     5
100
AcDbLine
 10
751.5701122465922
 20
1023.348542843214
 30
0.0
 11
831.5701122465748
 21
1103.348542843197
 31
0.0
  0
LINE
  5
324
330
1F
100
AcDbEntity
  8
0-0
  6
JWW_DASHED1
 62
   120
370
     5
100
AcDbLine
 10
751.5701122465947
 20
1033.248037778379
 30
0.0
 11
831.5701122465936
 21
1113.248037778377
 31
0.0
  0
LINE
  5
325
330
1F
100
AcDbEntity
  8
0-0
  6
JWW_DASHED1
 62
   120
370
     5
100
AcDbLine
 10
751.5701122465871
 20
1043.147532713587
 30
0.0
 11
830.6326792662259
 21
1122.210099733226
 31
0.0
  0
LINE
  5
326
330
1F
100
AcDbEntity
  8
0-0
  6
JWW_DASHED1
 62
   120
370
     5
100
AcDbLine
 10
751.5701122465896
 20
1053.047027648752
 30
0.0
 11
820.7331843310743
 21
1122.210099733236
 31
0.0
  0
LINE
  5
327
330
1F
100
AcDbEntity
  8
0-0
  6
JWW_DASHED1
 62
   120
370
     5
100
AcDbLine
 10
751.5701122465973
 20
1062.946522583975
 30
0.0
 11
810.8336893958367
 21
1122.210099733215
 31
0.0
  0
LINE
  5
328
330
1F
100
AcDbEntity
  8
0-0
  6
JWW_DASHED1
 62
   120
370
     5
100
AcDbLine
 10
751.5701122465896
 20
1072.846017519184
 30
0.0
 11
800.934194460628
 21
1122.210099733223
 31
0.0
  0
LINE
  5
329
330
1F
100
AcDbEntity
  8
0-0
  6
JWW_DASHED1
 62
   120
370
     5
100
AcDbLine
 10
751.570112246593
 20
1082.745512454349
 30
0.0
 11
791.0346995254713
 21
1122.210099733227
 31
0.0
  0
LINE
  5
32A
330
1F
100
AcDbEntity
  8
0-0
  6
JWW_DASHED1
 62
   120
370
     5
100
AcDbLine
 10
751.5701122465998
 20
1092.645007389573
 30
0.0
 11
781.1352045902456
 21
1122.210099733218
 31
0.0
  0
LINE
  5
32B
330
1F
100
AcDbEntity
  8
0-0
  6
JWW_DASHED1
 62
   120
370
     5
100
AcDbLine
 10
751.5701122465913
 20
1102.544502324781
 30
0.0
 11
771.2357096550318
 21
1122.210099733221
 31
0.0
  0
LINE
  5
32C
330
1F
100
AcDbEntity
  8
0-0
  6
JWW_DASHED1
 62
   120
370
     5
100
AcDbLine
 10
751.5701122465947
 20
1112.443997259946
 30
0.0
 11
761.3362147198683
 21
1122.210099733219
 31
0.0
  0
MTEXT
  5
32D
330
1F
100
AcDbEntity
  8
文字
  6
Continuous
 62
     7
370
     9
100
AcDbMText
 10
-1495.42988775341
 20
1475.193481673432
 30
0.0
 40
45.71999999999998
 41
1620.0
 46
0.0
 71
     7
 72
     1
  1
{\fＭＳ ゴシック|b0|i0|c128|p49;※ＸＭは縦木目柄、ＬＭは横木目柄のデザインとなります。}
 73
     1
 44
1.0
  0
LINE
  5
32E
330
1F
100
AcDbEntity
  8
寸法
  6
Continuous
 62
   120
370
     5
100
AcDbLine
 10
-1395.429887753408
 20
-1072.789900266782
 30
0.0
 11
-995.4298877534073
 21
-1072.789900266782
 31
0.0
  0
LINE
  5
32F
330
1F
100
AcDbEntity
  8
寸法
  6
Continuous
 62
   120
370
     5
100
AcDbLine
 10
-1195.42988775341
 20
-1052.789900266781
 30
0.0
 11
-995.4298877534073
 21
-1052.789900266781
 31
0.0
  0
LWPOLYLINE
  5
330
330
1F
100
AcDbEntity
  8
寸法
  6
Continuous
 62
     7
370
     9
100
AcDbPolyline
 90
        4
 70
     1
 43
3.0
 10
-1393.929887753409
 20
-1072.789900266782
 42
0.4142135623731
 10
-1395.429887753408
 20
-1071.289900266782
 42
0.4142135623731
 10
-1396.929887753408
 20
-1072.789900266782
 42
0.4142135623731
 10
-1395.429887753408
 20
-1074.289900266782
 42
0.4142135623731
  0
LWPOLYLINE
  5
331
330
1F
100
AcDbEntity
  8
寸法
  6
Continuous
 62
     7
370
     9
100
AcDbPolyline
 90
        4
 70
     1
 43
3.0
 10
-1193.92988775341
 20
-1052.789900266781
 42
0.4142135623731
 10
-1195.42988775341
 20
-1051.289900266781
 42
0.4142135623731
 10
-1196.92988775341
 20
-1052.789900266781
 42
0.4142135623731
 10
-1195.42988775341
 20
-1054.289900266781
 42
0.4142135623731
  0
LINE
  5
332
330
1F
100
AcDbEntity
  8
寸法
  6
Continuous
 62
   120
370
     5
100
AcDbLine
 10
-915.4298877534086
 20
-1522.789900266782
 30
0.0
 11
-915.4298877534086
 21
-1122.789900266782
 31
0.0
  0
LINE
  5
333
330
1F
100
AcDbEntity
  8
寸法
  6
Continuous
 62
   120
370
     5
100
AcDbLine
 10
-945.4298877534086
 20
-1722.789900266781
 30
0.0
 11
-945.4298877534086
 21
-1122.789900266782
 31
0.0
  0
LINE
  5
334
330
1F
100
AcDbEntity
  8
寸法
  6
Continuous
 62
   120
370
     5
100
AcDbLine
 10
-945.4298877534086
 20
-1722.789900266781
 30
0.0
 11
2261.570112246592
 21
-1722.789900266781
 31
0.0
  0
LINE
  5
335
330
1F
100
AcDbEntity
  8
寸法
  6
Continuous
 62
   120
370
     5
100
AcDbLine
 10
2261.570112246592
 20
-1722.789900266781
 30
0.0
 11
2261.570112246592
 21
-1122.789900266781
 31
0.0
  0
LINE
  5
336
330
1F
100
AcDbEntity
  8
寸法
  6
Continuous
 62
   120
370
     5
100
AcDbLine
 10
-918.4298877534093
 20
-1322.789900266782
 30
0.0
 11
-918.4298877534093
 21
-1122.789900266782
 31
0.0
  0
LINE
  5
337
330
1F
100
AcDbEntity
  8
寸法
  6
Continuous
 62
   120
370
     5
100
AcDbLine
 10
-918.4298877534093
 20
-1322.789900266782
 30
0.0
 11
-108.4298877534084
 21
-1322.789900266782
 31
0.0
  0
LINE
  5
338
330
1F
100
AcDbEntity
  8
寸法
  6
Continuous
 62
   120
370
     5
100
AcDbLine
 10
-108.4298877534084
 20
-1322.789900266782
 30
0.0
 11
-108.4298877534084
 21
-1122.789900266782
 31
0.0
  0
LINE
  5
339
330
1F
100
AcDbEntity
  8
寸法
  6
Continuous
 62
   120
370
     5
100
AcDbLine
 10
-915.4298877534086
 20
-1522.789900266782
 30
0.0
 11
1421.570112246592
 21
-1522.789900266781
 31
0.0
  0
LINE
  5
33A
330
1F
100
AcDbEntity
  8
寸法
  6
Continuous
 62
   120
370
     5
100
AcDbLine
 10
1421.570112246592
 20
-1522.789900266781
 30
0.0
 11
1421.570112246592
 21
-1122.789900266781
 31
0.0
  0
LWPOLYLINE
  5
33B
330
1F
100
AcDbEntity
  8
寸法
  6
Continuous
 62
     7
370
     9
100
AcDbPolyline
 90
        4
 70
     1
 43
3.0
 10
-913.9298877534086
 20
-1522.789900266782
 42
0.4142135623731
 10
-915.4298877534086
 20
-1521.289900266782
 42
0.4142135623731
 10
-916.9298877534086
 20
-1522.789900266782
 42
0.4142135623731
 10
-915.4298877534086
 20
-1524.289900266782
 42
0.4142135623731
  0
LWPOLYLINE
  5
33C
330
1F
100
AcDbEntity
  8
寸法
  6
Continuous
 62
     7
370
     9
100
AcDbPolyline
 90
        4
 70
     1
 43
3.0
 10
-943.9298877534086
 20
-1722.789900266781
 42
0.4142135623731
 10
-945.4298877534086
 20
-1721.289900266781
 42
0.4142135623731
 10
-946.9298877534086
 20
-1722.789900266781
 42
0.4142135623731
 10
-945.4298877534086
 20
-1724.289900266781
 42
0.4142135623731
  0
LWPOLYLINE
  5
33D
330
1F
100
AcDbEntity
  8
寸法
  6
Continuous
 62
     7
370
     9
100
AcDbPolyline
 90
        4
 70
     1
 43
3.0
 10
2263.070112246592
 20
-1722.789900266781
 42
0.4142135623731
 10
2261.570112246592
 20
-1721.289900266781
 42
0.4142135623731
 10
2260.070112246592
 20
-1722.789900266781
 42
0.4142135623731
 10
2261.570112246592
 20
-1724.289900266781
 42
0.4142135623731
  0
LWPOLYLINE
  5
33E
330
1F
100
AcDbEntity
  8
寸法
  6
Continuous
 62
     7
370
     9
100
AcDbPolyline
 90
        4
 70
     1
 43
3.0
 10
-916.9298877534093
 20
-1322.789900266782
 42
0.4142135623731
 10
-918.4298877534093
 20
-1321.289900266782
 42
0.4142135623731
 10
-919.9298877534093
 20
-1322.789900266782
 42
0.4142135623731
 10
-918.4298877534093
 20
-1324.289900266781
 42
0.4142135623731
  0
LWPOLYLINE
  5
33F
330
1F
100
AcDbEntity
  8
寸法
  6
Continuous
 62
     7
370
     9
100
AcDbPolyline
 90
        4
 70
     1
 43
3.0
 10
-106.9298877534084
 20
-1322.789900266782
 42
0.4142135623731
 10
-108.4298877534084
 20
-1321.289900266782
 42
0.4142135623731
 10
-109.9298877534084
 20
-1322.789900266782
 42
0.4142135623731
 10
-108.4298877534084
 20
-1324.289900266781
 42
0.4142135623731
  0
LWPOLYLINE
  5
340
330
1F
100
AcDbEntity
  8
寸法
  6
Continuous
 62
     7
370
     9
100
AcDbPolyline
 90
        4
 70
     1
 43
3.0
 10
1423.070112246592
 20
-1522.789900266781
 42
0.4142135623731
 10
1421.570112246592
 20
-1521.289900266781
 42
0.4142135623731
 10
1420.070112246592
 20
-1522.789900266781
 42
0.4142135623731
 10
1421.570112246592
 20
-1524.289900266781
 42
0.4142135623731
  0
LINE
  5
341
330
1F
100
AcDbEntity
  8
寸法
  6
Continuous
 62
   120
370
     5
100
AcDbLine
 10
-1395.429887753408
 20
1174.210099733218
 30
0.0
 11
-1395.429887753408
 21
-1072.789900266782
 31
0.0
  0
LINE
  5
342
330
1F
100
AcDbEntity
  8
寸法
  6
Continuous
 62
   120
370
     5
100
AcDbLine
 10
-1395.429887753408
 20
1174.210099733218
 30
0.0
 11
-995.4298877534073
 21
1174.210099733218
 31
0.0
  0
LWPOLYLINE
  5
343
330
1F
100
AcDbEntity
  8
寸法
  6
Continuous
 62
     7
370
     9
100
AcDbPolyline
 90
        4
 70
     1
 43
3.0
 10
-1393.929887753409
 20
1174.210099733218
 42
0.4142135623731
 10
-1395.429887753408
 20
1175.710099733217
 42
0.4142135623731
 10
-1396.929887753408
 20
1174.210099733218
 42
0.4142135623731
 10
-1395.429887753408
 20
1172.710099733218
 42
0.4142135623731
  0
LINE
  5
344
330
1F
100
AcDbEntity
  8
寸法
  6
Continuous
 62
   120
370
     5
100
AcDbLine
 10
-1195.42988775341
 20
1130.210099733218
 30
0.0
 11
-995.4298877534073
 21
1130.210099733218
 31
0.0
  0
LINE
  5
345
330
1F
100
AcDbEntity
  8
寸法
  6
Continuous
 62
   120
370
     5
100
AcDbLine
 10
-1195.42988775341
 20
1130.210099733218
 30
0.0
 11
-1195.42988775341
 21
-1052.789900266781
 31
0.0
  0
LWPOLYLINE
  5
346
330
1F
100
AcDbEntity
  8
寸法
  6
Continuous
 62
     7
370
     9
100
AcDbPolyline
 90
        4
 70
     1
 43
3.0
 10
-1193.92988775341
 20
1130.210099733218
 42
0.4142135623731
 10
-1195.42988775341
 20
1131.710099733218
 42
0.4142135623731
 10
-1196.92988775341
 20
1130.210099733218
 42
0.4142135623731
 10
-1195.42988775341
 20
1128.710099733219
 42
0.4142135623731
  0
MTEXT
  5
347
330
1F
100
AcDbEntity
  8
寸法
  6
Continuous
 62
     7
370
    70
100
AcDbMText
 10
-1410.429887753408
 20
-173.4649002667807
 30
0.0
 40
57.14999999999999
 41
412.5
 46
0.0
 71
     7
 72
     1
  1
{\fＭＳ ゴシック|b0|i0|c128|p49;枠外＝2,247}
 11
6.123031769111886E-17
 21
1.0
 31
0.0
 73
     1
 44
1.0
  0
MTEXT
  5
348
330
1F
100
AcDbEntity
  8
寸法
  6
Continuous
 62
     7
370
    70
100
AcDbMText
 10
-1210.42988775341
 20
-179.4649002667812
 30
0.0
 40
57.14999999999999
 41
412.5
 46
0.0
 71
     7
 72
     1
  1
{\fＭＳ ゴシック|b0|i0|c128|p49;ＤＨ＝2,183}
 11
6.123031769111886E-17
 21
1.0
 31
0.0
 73
     1
 44
1.0
  0
MTEXT
  5
349
330
1F
100
AcDbEntity
  8
寸法
  6
Continuous
 62
     7
370
   211
100
AcDbMText
 10
-682.1798877534084
 20
-1316.714900266782
 30
0.0
 40
57.15
 41
337.5
 46
0.0
 71
     7
 72
     1
  1
{\fＭＳ ゴシック|b0|i0|c128|p49;ＤＷ＝810}
 73
     1
 44
1.0
  0
MTEXT
  5
34A
330
1F
100
AcDbEntity
  8
寸法
  6
Continuous
 62
     7
370
   211
100
AcDbMText
 10
-28.17988775341103
 20
-1516.714900266782
 30
0.0
 40
57.1500000000001
 41
562.5000000000009
 46
0.0
 71
     7
 72
     1
  1
{\fＭＳ ゴシック|b0|i0|c128|p49;有効開口＝2,337}
 73
     1
 44
1.0
  0
MTEXT
  5
34B
330
1F
100
AcDbEntity
  8
寸法
  6
Continuous
 62
     7
370
   211
100
AcDbMText
 10
451.8201122465894
 20
-1716.714900266781
 30
0.0
 40
57.14999999999998
 41
412.4999999999999
 46
0.0
 71
     7
 72
     1
  1
{\fＭＳ ゴシック|b0|i0|c128|p49;枠外＝3,207}
 73
     1
 44
1.0
  0
ENDSEC
  0
SECTION
  2
OBJECTS
  0
DICTIONARY
  5
C
330
0
100
AcDbDictionary
281
     1
  3
ACAD_GROUP
350
D
  3
ACAD_LAYOUT
350
1A
  3
ACAD_MATERIAL
350
3B
  3
ACAD_MLEADERSTYLE
350
34D
  3
ACAD_MLINESTYLE
350
17
  3
ACAD_PLOTSETTINGS
350
19
  3
ACAD_PLOTSTYLENAME
350
E
  3
ACAD_TABLESTYLE
350
34C
  3
ACAD_VISUALSTYLE
350
2A
  0
DICTIONARY
  5
D
102
{ACAD_REACTORS
330
C
102
}
330
C
100
AcDbDictionary
281
     1
  0
DICTIONARY
  5
1A
102
{ACAD_REACTORS
330
C
102
}
330
C
100
AcDbDictionary
281
     1
  3
Layout1
350
1E
  3
Layout2
350
26
  3
Model
350
22
  0
DICTIONARY
  5
3B
102
{ACAD_REACTORS
330
C
102
}
330
C
100
AcDbDictionary
281
     1
  3
ByBlock
350
3D
  3
ByLayer
350
3C
  3
Global
350
3E
  0
DICTIONARY
  5
34D
102
{ACAD_REACTORS
330
C
102
}
330
C
100
AcDbDictionary
281
     1
  0
DICTIONARY
  5
17
102
{ACAD_REACTORS
330
C
102
}
330
C
100
AcDbDictionary
281
     1
  3
Standard
350
18
  0
DICTIONARY
  5
19
102
{ACAD_REACTORS
330
C
102
}
330
C
100
AcDbDictionary
281
     1
  0
ACDBDICTIONARYWDFLT
  5
E
102
{ACAD_REACTORS
330
C
102
}
330
C
100
AcDbDictionary
281
     1
  3
Normal
350
F
100
AcDbDictionaryWithDefault
340
F
  0
DICTIONARY
  5
34C
102
{ACAD_REACTORS
330
C
102
}
330
C
100
AcDbDictionary
281
     1
  0
DICTIONARY
  5
2A
102
{ACAD_REACTORS
330
C
102
}
330
C
100
AcDbDictionary
281
     1
  3
2dWireframe
350
2F
  3
3D Hidden
350
31
  3
3dWireframe
350
30
  3
Basic
350
32
  3
Brighten
350
36
  3
ColorChange
350
3A
  3
Conceptual
350
34
  3
Dim
350
35
  3
Facepattern
350
39
  3
Flat
350
2B
  3
FlatWithEdges
350
2C
  3
Gouraud
350
2D
  3
GouraudWithEdges
350
2E
  3
Linepattern
350
38
  3
Realistic
350
33
  3
Thicken
350
37
  0
LAYOUT
  5
1E
102
{ACAD_REACTORS
330
1A
102
}
330
1A
100
AcDbPlotSettings
  1

  2
none_device
  4

  6

 40
0.0
 41
0.0
 42
0.0
 43
0.0
 44
0.0
 45
0.0
 46
0.0
 47
0.0
 48
0.0
 49
0.0
140
0.0
141
0.0
142
1.0
143
1.0
 70
   688
 72
     0
 73
     0
 74
     5
  7

 75
    16
 76
     0
 77
     5
 78
   300
147
1.0
148
0.0
149
0.0
100
AcDbLayout
  1
Layout1
 70
     1
 71
     1
 10
0.0
 20
0.0
 11
420.0
 21
297.0
 12
0.0
 22
0.0
 32
0.0
 14
1.000000000000000E+20
 24
1.000000000000000E+20
 34
1.000000000000000E+20
 15
-1.000000000000000E+20
 25
-1.000000000000000E+20
 35
-1.000000000000000E+20
146
0.0
 13
0.0
 23
0.0
 33
0.0
 16
1.0
 26
0.0
 36
0.0
 17
0.0
 27
1.0
 37
0.0
 76
     0
330
1B
  0
LAYOUT
  5
26
102
{ACAD_REACTORS
330
1A
102
}
330
1A
100
AcDbPlotSettings
  1

  2
none_device
  4

  6

 40
0.0
 41
0.0
 42
0.0
 43
0.0
 44
0.0
 45
0.0
 46
0.0
 47
0.0
 48
0.0
 49
0.0
140
0.0
141
0.0
142
1.0
143
1.0
 70
   688
 72
     0
 73
     0
 74
     5
  7

 75
    16
 76
     0
 77
     5
 78
   300
147
1.0
148
0.0
149
0.0
100
AcDbLayout
  1
Layout2
 70
     1
 71
     2
 10
0.0
 20
0.0
 11
0.0
 21
0.0
 12
0.0
 22
0.0
 32
0.0
 14
0.0
 24
0.0
 34
0.0
 15
0.0
 25
0.0
 35
0.0
146
0.0
 13
0.0
 23
0.0
 33
0.0
 16
1.0
 26
0.0
 36
0.0
 17
0.0
 27
1.0
 37
0.0
 76
     0
330
23
  0
LAYOUT
  5
22
102
{ACAD_REACTORS
330
1A
102
}
330
1A
100
AcDbPlotSettings
  1

  2
none_device
  4

  6

 40
0.0
 41
0.0
 42
0.0
 43
0.0
 44
0.0
 45
0.0
 46
0.0
 47
0.0
 48
0.0
 49
0.0
140
0.0
141
0.0
142
1.0
143
1.0
 70
  1712
 72
     0
 73
     0
 74
     0
  7

 75
     0
 76
     0
 77
     5
 78
   300
147
1.0
148
0.0
149
0.0
100
AcDbLayout
  1
Model
 70
     1
 71
     0
 10
-4455.0
 20
-3150.0
 11
4455.0
 21
3150.0
 12
0.0
 22
0.0
 32
0.0
 14
-4455.0
 24
-3150.0
 34
0.0
 15
4455.0
 25
3150.0
 35
0.0
146
0.0
 13
0.0
 23
0.0
 33
0.0
 16
1.0
 26
0.0
 36
0.0
 17
0.0
 27
1.0
 37
0.0
 76
     0
330
1F
331
29
  0
MATERIAL
  5
3D
102
{ACAD_REACTORS
330
3B
102
}
330
3B
100
AcDbMaterial
  1
ByBlock
 72
     1
 94
      127
  0
MATERIAL
  5
3C
102
{ACAD_REACTORS
330
3B
102
}
330
3B
100
AcDbMaterial
  1
ByLayer
 72
     1
 94
      127
  0
MATERIAL
  5
3E
102
{ACAD_REACTORS
330
3B
102
}
330
3B
100
AcDbMaterial
  1
Global
 72
     1
 94
      127
  0
MLINESTYLE
  5
18
102
{ACAD_REACTORS
330
17
102
}
330
17
100
AcDbMlineStyle
  2
Standard
 70
     0
  3

 62
   256
 51
90.0
 52
90.0
 71
     2
 49
0.5
 62
   256
  6
BYLAYER
 49
-0.5
 62
   256
  6
BYLAYER
  0
ACDBPLACEHOLDER
  5
F
102
{ACAD_REACTORS
330
E
102
}
330
E
  0
VISUALSTYLE
  5
2F
102
{ACAD_REACTORS
330
2A
102
}
330
2A
100
AcDbVisualStyle
  2
2dWireframe
 70
     4
177
     2
291
     0
 71
     0
176
     1
 72
     2
176
     1
 73
     0
176
     1
 90
        0
176
     1
 40
-0.6
176
     1
 41
-30.0
176
     1
 62
     5
 63
     7
421
 16777215
176
     1
 74
     1
176
     1
 91
        4
176
     1
 64
     7
176
     1
 65
   257
176
     1
 75
     1
176
     1
175
     1
176
     1
 42
1.0
176
     1
 92
        0
176
     1
 66
   257
176
     1
 43
1.0
176
     1
 76
     1
176
     1
 77
     6
176
     1
 78
     2
176
     1
 67
     7
176
     1
 79
     5
176
     1
170
     0
176
     1
171
     0
176
     1
290
     0
176
     1
 93
        1
176
     1
 44
0.0
176
     1
173
     0
176
     1
  0
VISUALSTYLE
  5
31
102
{ACAD_REACTORS
330
2A
102
}
330
2A
100
AcDbVisualStyle
  2
3D Hidden
 70
     6
177
     2
291
     0
 71
     1
176
     1
 72
     2
176
     1
 73
     2
176
     1
 90
        0
176
     1
 40
-0.6
176
     1
 41
-30.0
176
     1
 62
     5
 63
     7
421
 16777215
176
     1
 74
     2
176
     1
 91
        2
176
     1
 64
     7
176
     1
 65
   257
176
     1
 75
     2
176
     1
175
     1
176
     1
 42
40.0
176
     1
 92
        0
176
     1
 66
   257
176
     1
 43
1.0
176
     1
 76
     1
176
     1
 77
     6
176
     1
 78
     2
176
     1
 67
     7
176
     1
 79
     3
176
     1
170
     0
176
     1
171
     0
176
     1
290
     0
176
     1
 93
        1
176
     1
 44
0.0
176
     1
173
     0
176
     1
  0
VISUALSTYLE
  5
30
102
{ACAD_REACTORS
330
2A
102
}
330
2A
100
AcDbVisualStyle
  2
3dWireframe
 70
     5
177
     2
291
     0
 71
     0
176
     1
 72
     2
176
     1
 73
     0
176
     1
 90
        0
176
     1
 40
-0.6
176
     1
 41
-30.0
176
     1
 62
     5
 63
     7
421
 16777215
176
     1
 74
     1
176
     1
 91
        4
176
     1
 64
     7
176
     1
 65
   257
176
     1
 75
     1
176
     1
175
     1
176
     1
 42
1.0
176
     1
 92
        0
176
     1
 66
   257
176
     1
 43
1.0
176
     1
 76
     1
176
     1
 77
     6
176
     1
 78
     2
176
     1
 67
     7
176
     1
 79
     5
176
     1
170
     0
176
     1
171
     0
176
     1
290
     0
176
     1
 93
        1
176
     1
 44
0.0
176
     1
173
     0
176
     1
  0
VISUALSTYLE
  5
32
102
{ACAD_REACTORS
330
2A
102
}
330
2A
100
AcDbVisualStyle
  2
Basic
 70
     7
177
     2
291
     1
 71
     1
176
     1
 72
     0
176
     1
 73
     1
176
     1
 90
        0
176
     1
 40
-0.6
176
     1
 41
-30.0
176
     1
 62
     5
 63
     7
421
 16777215
176
     1
 74
     0
176
     1
 91
        4
176
     1
 64
     7
176
     1
 65
   257
176
     1
 75
     1
176
     1
175
     1
176
     1
 42
1.0
176
     1
 92
        8
176
     1
 66
     7
176
     1
 43
1.0
176
     1
 76
     1
176
     1
 77
     6
176
     1
 78
     2
176
     1
 67
     7
176
     1
 79
     5
176
     1
170
     0
176
     1
171
     0
176
     1
290
     0
176
     1
 93
        1
176
     1
 44
0.0
176
     1
173
     0
176
     1
  0
VISUALSTYLE
  5
36
102
{ACAD_REACTORS
330
2A
102
}
330
2A
100
AcDbVisualStyle
  2
Brighten
 70
    12
177
     2
291
     1
 71
     2
176
     1
 72
     2
176
     1
 73
     0
176
     1
 90
        0
176
     1
 40
-0.6
176
     1
 41
-30.0
176
     1
 62
     5
 63
     7
421
 16777215
176
     1
 74
     1
176
     1
 91
        4
176
     1
 64
     7
176
     1
 65
   257
176
     1
 75
     1
176
     1
175
     1
176
     1
 42
1.0
176
     1
 92
        8
176
     1
 66
     7
176
     1
 43
1.0
176
     1
 76
     1
176
     1
 77
     6
176
     1
 78
     2
176
     1
 67
     7
176
     1
 79
     5
176
     1
170
     0
176
     1
171
     0
176
     1
290
     0
176
     1
 93
        1
176
     1
 44
50.0
176
     1
173
     0
176
     1
  0
VISUALSTYLE
  5
3A
102
{ACAD_REACTORS
330
2A
102
}
330
2A
100
AcDbVisualStyle
  2
ColorChange
 70
    16
177
     2
291
     1
 71
     2
176
     1
 72
     2
176
     1
 73
     3
176
     1
 90
        0
176
     1
 40
-0.6
176
     1
 41
-30.0
176
     1
 62
     5
 63
     8
421
  8421504
176
     1
 74
     1
176
     1
 91
        4
176
     1
 64
     7
176
     1
 65
   257
176
     1
 75
     1
176
     1
175
     1
176
     1
 42
1.0
176
     1
 92
        8
176
     1
 66
     8
424
  8421504
176
     1
 43
1.0
176
     1
 76
     1
176
     1
 77
     6
176
     1
 78
     2
176
     1
 67
     7
176
     1
 79
     5
176
     1
170
     0
176
     1
171
     0
176
     1
290
     0
176
     1
 93
        1
176
     1
 44
0.0
176
     1
173
     0
176
     1
  0
VISUALSTYLE
  5
34
102
{ACAD_REACTORS
330
2A
102
}
330
2A
100
AcDbVisualStyle
  2
Conceptual
 70
     9
177
     2
291
     0
 71
     3
176
     1
 72
     2
176
     1
 73
     0
176
     1
 90
        0
176
     1
 40
-0.6
176
     1
 41
-30.0
176
     1
 62
     5
 63
     7
421
 16777215
176
     1
 74
     2
176
     1
 91
        2
176
     1
 64
     7
176
     1
 65
   257
176
     1
 75
     1
176
     1
175
     1
176
     1
 42
40.0
176
     1
 92
        8
176
     1
 66
     7
176
     1
 43
1.0
176
     1
 76
     1
176
     1
 77
     6
176
     1
 78
     2
176
     1
 67
     7
176
     1
 79
     3
176
     1
170
     0
176
     1
171
     0
176
     1
290
     0
176
     1
 93
        1
176
     1
 44
0.0
176
     1
173
     0
176
     1
  0
VISUALSTYLE
  5
35
102
{ACAD_REACTORS
330
2A
102
}
330
2A
100
AcDbVisualStyle
  2
Dim
 70
    11
177
     2
291
     1
 71
     2
176
     1
 72
     2
176
     1
 73
     0
176
     1
 90
        0
176
     1
 40
-0.6
176
     1
 41
-30.0
176
     1
 62
     5
 63
     7
421
 16777215
176
     1
 74
     1
176
     1
 91
        4
176
     1
 64
     7
176
     1
 65
   257
176
     1
 75
     1
176
     1
175
     1
176
     1
 42
1.0
176
     1
 92
        8
176
     1
 66
     7
176
     1
 43
1.0
176
     1
 76
     1
176
     1
 77
     6
176
     1
 78
     2
176
     1
 67
     7
176
     1
 79
     5
176
     1
170
     0
176
     1
171
     0
176
     1
290
     0
176
     1
 93
        1
176
     1
 44
-50.0
176
     1
173
     0
176
     1
  0
VISUALSTYLE
  5
39
102
{ACAD_REACTORS
330
2A
102
}
330
2A
100
AcDbVisualStyle
  2
Facepattern
 70
    15
177
     2
291
     1
 71
     2
176
     1
 72
     2
176
     1
 73
     0
176
     1
 90
        0
176
     1
 40
-0.6
176
     1
 41
-30.0
176
     1
 62
     5
 63
     7
421
 16777215
176
     1
 74
     1
176
     1
 91
        4
176
     1
 64
     7
176
     1
 65
   257
176
     1
 75
     1
176
     1
175
     1
176
     1
 42
1.0
176
     1
 92
        8
176
     1
 66
     7
176
     1
 43
1.0
176
     1
 76
     1
176
     1
 77
     6
176
     1
 78
     2
176
     1
 67
     7
176
     1
 79
     5
176
     1
170
     0
176
     1
171
     0
176
     1
290
     0
176
     1
 93
        1
176
     1
 44
0.0
176
     1
173
     0
176
     1
  0
VISUALSTYLE
  5
2B
102
{ACAD_REACTORS
330
2A
102
}
330
2A
100
AcDbVisualStyle
  2
Flat
 70
     0
177
     2
291
     1
 71
     2
176
     1
 72
     1
176
     1
 73
     1
176
     1
 90
        2
176
     1
 40
-0.6
176
     1
 41
30.0
176
     1
 62
     5
 63
     7
421
 16777215
176
     1
 74
     0
176
     1
 91
        4
176
     1
 64
     7
176
     1
 65
   257
176
     1
 75
     1
176
     1
175
     1
176
     1
 42
1.0
176
     1
 92
        8
176
     1
 66
     7
176
     1
 43
1.0
176
     1
 76
     1
176
     1
 77
     6
176
     1
 78
     2
176
     1
 67
     7
176
     1
 79
     5
176
     1
170
     0
176
     1
171
     0
176
     1
290
     0
176
     1
 93
       13
176
     1
 44
0.0
176
     1
173
     0
176
     1
  0
VISUALSTYLE
  5
2C
102
{ACAD_REACTORS
330
2A
102
}
330
2A
100
AcDbVisualStyle
  2
FlatWithEdges
 70
     1
177
     2
291
     1
 71
     2
176
     1
 72
     1
176
     1
 73
     1
176
     1
 90
        2
176
     1
 40
-0.6
176
     1
 41
30.0
176
     1
 62
     5
 63
     7
421
 16777215
176
     1
 74
     1
176
     1
 91
        4
176
     1
 64
     7
176
     1
 65
   257
176
     1
 75
     1
176
     1
175
     1
176
     1
 42
1.0
176
     1
 92
        0
176
     1
 66
   257
176
     1
 43
1.0
176
     1
 76
     1
176
     1
 77
     6
176
     1
 78
     2
176
     1
 67
     7
176
     1
 79
     5
176
     1
170
     0
176
     1
171
     0
176
     1
290
     0
176
     1
 93
       13
176
     1
 44
0.0
176
     1
173
     0
176
     1
  0
VISUALSTYLE
  5
2D
102
{ACAD_REACTORS
330
2A
102
}
330
2A
100
AcDbVisualStyle
  2
Gouraud
 70
     2
177
     2
291
     1
 71
     2
176
     1
 72
     2
176
     1
 73
     1
176
     1
 90
        2
176
     1
 40
-0.6
176
     1
 41
30.0
176
     1
 62
     5
 63
     7
421
 16777215
176
     1
 74
     0
176
     1
 91
        4
176
     1
 64
     7
176
     1
 65
   257
176
     1
 75
     1
176
     1
175
     1
176
     1
 42
1.0
176
     1
 92
        0
176
     1
 66
     7
176
     1
 43
1.0
176
     1
 76
     1
176
     1
 77
     6
176
     1
 78
     2
176
     1
 67
     7
176
     1
 79
     5
176
     1
170
     0
176
     1
171
     0
176
     1
290
     0
176
     1
 93
       13
176
     1
 44
0.0
176
     1
173
     0
176
     1
  0
VISUALSTYLE
  5
2E
102
{ACAD_REACTORS
330
2A
102
}
330
2A
100
AcDbVisualStyle
  2
GouraudWithEdges
 70
     3
177
     2
291
     1
 71
     2
176
     1
 72
     2
176
     1
 73
     1
176
     1
 90
        2
176
     1
 40
-0.6
176
     1
 41
30.0
176
     1
 62
     5
 63
     7
421
 16777215
176
     1
 74
     1
176
     1
 91
        4
176
     1
 64
     7
176
     1
 65
   257
176
     1
 75
     1
176
     1
175
     1
176
     1
 42
1.0
176
     1
 92
        0
176
     1
 66
   257
176
     1
 43
1.0
176
     1
 76
     1
176
     1
 77
     6
176
     1
 78
     2
176
     1
 67
     7
176
     1
 79
     5
176
     1
170
     0
176
     1
171
     0
176
     1
290
     0
176
     1
 93
       13
176
     1
 44
0.0
176
     1
173
     0
176
     1
  0
VISUALSTYLE
  5
38
102
{ACAD_REACTORS
330
2A
102
}
330
2A
100
AcDbVisualStyle
  2
Linepattern
 70
    14
177
     2
291
     1
 71
     2
176
     1
 72
     2
176
     1
 73
     0
176
     1
 90
        0
176
     1
 40
-0.6
176
     1
 41
-30.0
176
     1
 62
     5
 63
     7
421
 16777215
176
     1
 74
     1
176
     1
 91
        4
176
     1
 64
     7
176
     1
 65
   257
176
     1
 75
     7
176
     1
175
     7
176
     1
 42
1.0
176
     1
 92
        8
176
     1
 66
     7
176
     1
 43
1.0
176
     1
 76
     1
176
     1
 77
     6
176
     1
 78
     2
176
     1
 67
     7
176
     1
 79
     5
176
     1
170
     0
176
     1
171
     0
176
     1
290
     0
176
     1
 93
        1
176
     1
 44
0.0
176
     1
173
     0
176
     1
  0
VISUALSTYLE
  5
33
102
{ACAD_REACTORS
330
2A
102
}
330
2A
100
AcDbVisualStyle
  2
Realistic
 70
     8
177
     2
291
     0
 71
     2
176
     1
 72
     2
176
     1
 73
     0
176
     1
 90
        0
176
     1
 40
-0.6
176
     1
 41
-30.0
176
     1
 62
     5
 63
     7
421
 16777215
176
     1
 74
     1
176
     1
 91
        0
176
     1
 64
     7
176
     1
 65
   257
176
     1
 75
     1
176
     1
175
     1
176
     1
 42
1.0
176
     1
 92
        8
176
     1
 66
     8
424
  7895160
176
     1
 43
1.0
176
     1
 76
     1
176
     1
 77
     6
176
     1
 78
     2
176
     1
 67
     7
176
     1
 79
     5
176
     1
170
     0
176
     1
171
     0
176
     1
290
     0
176
     1
 93
       13
176
     1
 44
0.0
176
     1
173
     0
176
     1
  0
VISUALSTYLE
  5
37
102
{ACAD_REACTORS
330
2A
102
}
330
2A
100
AcDbVisualStyle
  2
Thicken
 70
    13
177
     2
291
     1
 71
     2
176
     1
 72
     2
176
     1
 73
     0
176
     1
 90
        0
176
     1
 40
-0.6
176
     1
 41
-30.0
176
     1
 62
     5
 63
     7
421
 16777215
176
     1
 74
     1
176
     1
 91
        4
176
     1
 64
     7
176
     1
 65
   257
176
     1
 75
     1
176
     1
175
     1
176
     1
 42
1.0
176
     1
 92
       12
176
     1
 66
     7
176
     1
 43
1.0
176
     1
 76
     1
176
     1
 77
     6
176
     1
 78
     2
176
     1
 67
     7
176
     1
 79
     5
176
     1
170
     0
176
     1
171
     0
176
     1
290
     0
176
     1
 93
        1
176
     1
 44
0.0
176
     1
173
     0
176
     1
  0
ENDSEC
  0
EOF
