  0
SECTION
  2
HEADER
  9
$ACADVER
  1
AC1024
  9
$ACADMAINTVER
 70
     6
  9
$DWGCODEPAGE
  3
ANSI_932
  9
$INSBASE
 10
0.0
 20
0.0
 30
0.0
  9
$EXTMIN
 10
-4455.0
 20
-3150.0
 30
0.0
  9
$EXTMAX
 10
4455.0
 20
3150.0
 30
0.0
  9
$LIMMIN
 10
-4455.0
 20
-3150.0
  9
$LIMMAX
 10
4455.0
 20
3150.0
  9
$ORTHOMODE
 70
     0
  9
$REGENMODE
 70
     1
  9
$FILLMODE
 70
     1
  9
$QTEXTMODE
 70
     0
  9
$MIRRTEXT
 70
     1
  9
$LTSCALE
 40
30.0
  9
$ATTMODE
 70
     1
  9
$TEXTSIZE
 40
2.5
  9
$TRACEWID
 40
1.0
  9
$TEXTSTYLE
  7
Standard
  9
$CLAYER
  8
0
  9
$CELTYPE
  6
ByLayer
  9
$CECOLOR
 62
   256
  9
$CELTSCALE
 40
1.0
  9
$DISPSILH
 70
     0
  9
$DIMSCALE
 40
1.0
  9
$DIMASZ
 40
2.5
  9
$DIMEXO
 40
0.625
  9
$DIMDLI
 40
3.75
  9
$DIMRND
 40
0.0
  9
$DIMDLE
 40
0.0
  9
$DIMEXE
 40
1.25
  9
$DIMTP
 40
0.0
  9
$DIMTM
 40
0.0
  9
$DIMTXT
 40
2.5
  9
$DIMCEN
 40
2.5
  9
$DIMTSZ
 40
0.0
  9
$DIMTOL
 70
     0
  9
$DIMLIM
 70
     0
  9
$DIMTIH
 70
     0
  9
$DIMTOH
 70
     0
  9
$DIMSE1
 70
     0
  9
$DIMSE2
 70
     0
  9
$DIMTAD
 70
     1
  9
$DIMZIN
 70
     8
  9
$DIMBLK
  1

  9
$DIMASO
 70
     1
  9
$DIMSHO
 70
     1
  9
$DIMPOST
  1

  9
$DIMAPOST
  1

  9
$DIMALT
 70
     0
  9
$DIMALTD
 70
     3
  9
$DIMALTF
 40
0.03937007874016
  9
$DIMLFAC
 40
1.0
  9
$DIMTOFL
 70
     1
  9
$DIMTVP
 40
0.0
  9
$DIMTIX
 70
     0
  9
$DIMSOXD
 70
     0
  9
$DIMSAH
 70
     0
  9
$DIMBLK1
  1

  9
$DIMBLK2
  1

  9
$DIMSTYLE
  2
ISO-25
  9
$DIMCLRD
 70
     0
  9
$DIMCLRE
 70
     0
  9
$DIMCLRT
 70
     0
  9
$DIMTFAC
 40
1.0
  9
$DIMGAP
 40
0.625
  9
$DIMJUST
 70
     0
  9
$DIMSD1
 70
     0
  9
$DIMSD2
 70
     0
  9
$DIMTOLJ
 70
     0
  9
$DIMTZIN
 70
     8
  9
$DIMALTZ
 70
     0
  9
$DIMALTTZ
 70
     0
  9
$DIMUPT
 70
     0
  9
$DIMDEC
 70
     2
  9
$DIMTDEC
 70
     2
  9
$DIMALTU
 70
     2
  9
$DIMALTTD
 70
     3
  9
$DIMTXSTY
  7
Standard
  9
$DIMAUNIT
 70
     0
  9
$DIMADEC
 70
     0
  9
$DIMALTRND
 40
0.0
  9
$DIMAZIN
 70
     0
  9
$DIMDSEP
 70
    44
  9
$DIMATFIT
 70
     3
  9
$DIMFRAC
 70
     0
  9
$DIMLDRBLK
  1

  9
$DIMLUNIT
 70
     2
  9
$DIMLWD
 70
    -2
  9
$DIMLWE
 70
    -2
  9
$DIMTMOVE
 70
     0
  9
$DIMFXL
 40
1.0
  9
$DIMFXLON
 70
     0
  9
$DIMJOGANG
 40
0.7853981633974483
  9
$DIMTFILL
 70
     0
  9
$DIMTFILLCLR
 70
     0
  9
$DIMARCSYM
 70
     0
  9
$DIMLTYPE
  6

  9
$DIMLTEX1
  6

  9
$DIMLTEX2
  6

  9
$DIMTXTDIRECTION
 70
     0
  9
$LUNITS
 70
     2
  9
$LUPREC
 70
     4
  9
$SKETCHINC
 40
1.0
  9
$FILLETRAD
 40
10.0
  9
$AUNITS
 70
     0
  9
$AUPREC
 70
     0
  9
$MENU
  1
.
  9
$ELEVATION
 40
0.0
  9
$PELEVATION
 40
0.0
  9
$THICKNESS
 40
0.0
  9
$LIMCHECK
 70
     0
  9
$CHAMFERA
 40
10.0
  9
$CHAMFERB
 40
10.0
  9
$CHAMFERC
 40
20.0
  9
$CHAMFERD
 40
0.0
  9
$SKPOLY
 70
     0
  9
$TDCREATE
 40
2457953.40090103
  9
$TDUCREATE
 40
2457953.02590103
  9
$TDUPDATE
 40
2457953.400901041
  9
$TDUUPDATE
 40
2457953.025901041
  9
$TDINDWG
 40
0.0000000116
  9
$TDUSRTIMER
 40
0.0000000116
  9
$USRTIMER
 70
     1
  9
$ANGBASE
 50
0.0
  9
$ANGDIR
 70
     0
  9
$PDMODE
 70
     0
  9
$PDSIZE
 40
0.0
  9
$PLINEWID
 40
0.0
  9
$SPLFRAME
 70
     0
  9
$SPLINETYPE
 70
     6
  9
$SPLINESEGS
 70
     8
  9
$HANDSEED
  5
340
  9
$SURFTAB1
 70
     6
  9
$SURFTAB2
 70
     6
  9
$SURFTYPE
 70
     6
  9
$SURFU
 70
     6
  9
$SURFV
 70
     6
  9
$UCSBASE
  2

  9
$UCSNAME
  2

  9
$UCSORG
 10
0.0
 20
0.0
 30
0.0
  9
$UCSXDIR
 10
1.0
 20
0.0
 30
0.0
  9
$UCSYDIR
 10
0.0
 20
1.0
 30
0.0
  9
$UCSORTHOREF
  2

  9
$UCSORTHOVIEW
 70
     0
  9
$UCSORGTOP
 10
0.0
 20
0.0
 30
0.0
  9
$UCSORGBOTTOM
 10
0.0
 20
0.0
 30
0.0
  9
$UCSORGLEFT
 10
0.0
 20
0.0
 30
0.0
  9
$UCSORGRIGHT
 10
0.0
 20
0.0
 30
0.0
  9
$UCSORGFRONT
 10
0.0
 20
0.0
 30
0.0
  9
$UCSORGBACK
 10
0.0
 20
0.0
 30
0.0
  9
$PUCSBASE
  2

  9
$PUCSNAME
  2

  9
$PUCSORG
 10
0.0
 20
0.0
 30
0.0
  9
$PUCSXDIR
 10
1.0
 20
0.0
 30
0.0
  9
$PUCSYDIR
 10
0.0
 20
1.0
 30
0.0
  9
$PUCSORTHOREF
  2

  9
$PUCSORTHOVIEW
 70
     0
  9
$PUCSORGTOP
 10
0.0
 20
0.0
 30
0.0
  9
$PUCSORGBOTTOM
 10
0.0
 20
0.0
 30
0.0
  9
$PUCSORGLEFT
 10
0.0
 20
0.0
 30
0.0
  9
$PUCSORGRIGHT
 10
0.0
 20
0.0
 30
0.0
  9
$PUCSORGFRONT
 10
0.0
 20
0.0
 30
0.0
  9
$PUCSORGBACK
 10
0.0
 20
0.0
 30
0.0
  9
$USERI1
 70
     0
  9
$USERI2
 70
     0
  9
$USERI3
 70
     0
  9
$USERI4
 70
     0
  9
$USERI5
 70
     0
  9
$USERR1
 40
0.0
  9
$USERR2
 40
0.0
  9
$USERR3
 40
0.0
  9
$USERR4
 40
0.0
  9
$USERR5
 40
0.0
  9
$WORLDVIEW
 70
     1
  9
$SHADEDGE
 70
     3
  9
$SHADEDIF
 70
    70
  9
$TILEMODE
 70
     1
  9
$MAXACTVP
 70
    64
  9
$PINSBASE
 10
0.0
 20
0.0
 30
0.0
  9
$PLIMCHECK
 70
     0
  9
$PEXTMIN
 10
1.000000000000000E+20
 20
1.000000000000000E+20
 30
1.000000000000000E+20
  9
$PEXTMAX
 10
-1.000000000000000E+20
 20
-1.000000000000000E+20
 30
-1.000000000000000E+20
  9
$PLIMMIN
 10
0.0
 20
0.0
  9
$PLIMMAX
 10
420.0
 20
297.0
  9
$UNITMODE
 70
     0
  9
$VISRETAIN
 70
     1
  9
$PLINEGEN
 70
     0
  9
$PSLTSCALE
 70
     1
  9
$TREEDEPTH
 70
  3020
  9
$CMLSTYLE
  2
Standard
  9
$CMLJUST
 70
     0
  9
$CMLSCALE
 40
20.0
  9
$PROXYGRAPHICS
 70
     1
  9
$MEASUREMENT
 70
     1
  9
$CELWEIGHT
370
    -1
  9
$ENDCAPS
280
     0
  9
$JOINSTYLE
280
     0
  9
$LWDISPLAY
290
     0
  9
$INSUNITS
 70
     4
  9
$HYPERLINKBASE
  1

  9
$STYLESHEET
  1

  9
$XEDIT
290
     1
  9
$CEPSNTYPE
380
     0
  9
$PSTYLEMODE
290
     1
  9
$FINGERPRINTGUID
  2
{688A2C2A-D641-45F6-B644-7970EBE5DD76}
  9
$VERSIONGUID
  2
{FAEB1C32-E019-11D5-929B-00C0DF256EC4}
  9
$EXTNAMES
290
     1
  9
$PSVPSCALE
 40
0.0
  9
$OLESTARTUP
290
     0
  9
$SORTENTS
280
   127
  9
$INDEXCTL
280
     0
  9
$HIDETEXT
280
     1
  9
$XCLIPFRAME
280
     2
  9
$HALOGAP
280
     0
  9
$OBSCOLOR
 70
   257
  9
$OBSLTYPE
280
     0
  9
$INTERSECTIONDISPLAY
280
     0
  9
$INTERSECTIONCOLOR
 70
   257
  9
$DIMASSOC
280
     2
  9
$PROJECTNAME
  1

  9
$CAMERADISPLAY
290
     0
  9
$LENSLENGTH
 40
50.0
  9
$CAMERAHEIGHT
 40
0.0
  9
$STEPSPERSEC
 40
2.0
  9
$STEPSIZE
 40
6.0
  9
$3DDWFPREC
 40
2.0
  9
$PSOLWIDTH
 40
5.0
  9
$PSOLHEIGHT
 40
80.0
  9
$LOFTANG1
 40
1.570796326794897
  9
$LOFTANG2
 40
1.570796326794897
  9
$LOFTMAG1
 40
0.0
  9
$LOFTMAG2
 40
0.0
  9
$LOFTPARAM
 70
     7
  9
$LOFTNORMALS
280
     1
  9
$LATITUDE
 40
37.795
  9
$LONGITUDE
 40
-122.394
  9
$NORTHDIRECTION
 40
0.0
  9
$TIMEZONE
 70
 -8000
  9
$LIGHTGLYPHDISPLAY
280
     1
  9
$TILEMODELIGHTSYNCH
280
     1
  9
$SOLIDHIST
280
     1
  9
$SHOWHIST
280
     1
  9
$DWFFRAME
280
     2
  9
$DGNFRAME
280
     2
  9
$REALWORLDSCALE
290
     1
  9
$INTERFERECOLOR
 62
   256
  9
$CSHADOW
280
     0
  9
$SHADOWPLANELOCATION
 40
0.0
  0
ENDSEC
  0
SECTION
  2
CLASSES
  0
CLASS
  1
ACDBDICTIONARYWDFLT
  2
AcDbDictionaryWithDefault
  3
ObjectDBX Classes
 90
        0
 91
        4
280
     0
281
     0
  0
CLASS
  1
VISUALSTYLE
  2
AcDbVisualStyle
  3
ObjectDBX Classes
 90
     4095
 91
        4
280
     0
281
     0
  0
CLASS
  1
MATERIAL
  2
AcDbMaterial
  3
ObjectDBX Classes
 90
     1153
 91
        4
280
     0
281
     0
  0
ENDSEC
  0
SECTION
  2
TABLES
  0
TABLE
  2
VPORT
  5
8
330
0
100
AcDbSymbolTable
 70
     1
  0
VPORT
  5
29
330
8
100
AcDbSymbolTableRecord
100
AcDbViewportTableRecord
  2
*Active
 70
     0
 10
0.0
 20
0.0
 11
1.0
 21
1.0
 12
0.0
 22
0.0
 13
0.0
 23
0.0
 14
10.0
 24
10.0
 15
10.0
 25
10.0
 16
0.0
 26
0.0
 36
1.0
 17
0.0
 27
0.0
 37
0.0
 40
6930.000000000001
 41
1.414285714285714
 42
50.0
 43
0.0
 44
0.0
 50
0.0
 51
0.0
 71
     0
 72
 10000
 73
     1
 74
     3
 75
     0
 76
     0
 77
     0
 78
     0
281
     0
 65
     1
110
0.0
120
0.0
130
0.0
111
1.0
121
0.0
131
0.0
112
0.0
122
1.0
132
0.0
 79
     0
146
0.0
 60
     3
 61
     5
292
     1
282
     1
141
0.0
142
0.0
 63
   250
  0
ENDTAB
  0
TABLE
  2
LTYPE
  5
5
330
0
100
AcDbSymbolTable
 70
     2
  0
LTYPE
  5
14
330
5
100
AcDbSymbolTableRecord
100
AcDbLinetypeTableRecord
  2
ByBlock
 70
     0
  3

 72
    65
 73
     0
 40
0.0
  0
LTYPE
  5
15
330
5
100
AcDbSymbolTableRecord
100
AcDbLinetypeTableRecord
  2
ByLayer
 70
     0
  3

 72
    65
 73
     0
 40
0.0
  0
LTYPE
  5
16
330
5
100
AcDbSymbolTableRecord
100
AcDbLinetypeTableRecord
  2
Continuous
 70
     0
  3
Solid line
 72
    65
 73
     0
 40
0.0
  0
LTYPE
  5
3F
330
5
100
AcDbSymbolTableRecord
100
AcDbLinetypeTableRecord
  2
JWW_DASHED1
 70
     0
  3
-  --  --  --  --  --  --  --  -
 72
    65
 73
     2
 40
1.693333333333333
 49
0.8466666666666667
 74
     0
 49
-0.8466666666666667
 74
     0
  0
ENDTAB
  0
TABLE
  2
LAYER
  5
2
330
0
100
AcDbSymbolTable
 70
     3
  0
LAYER
  5
10
330
2
100
AcDbSymbolTableRecord
100
AcDbLayerTableRecord
  2
0
 70
     0
 62
     7
  6
Continuous
370
    -3
390
F
347
3E
  0
LAYER
  5
40
330
2
100
AcDbSymbolTableRecord
100
AcDbLayerTableRecord
  2
0-0
 70
     0
 62
     7
  6
Continuous
370
    -3
390
F
347
3E
  0
LAYER
  5
41
330
2
100
AcDbSymbolTableRecord
100
AcDbLayerTableRecord
  2
寸法
 70
     0
 62
     7
  6
Continuous
370
    -3
390
F
347
3E
  0
ENDTAB
  0
TABLE
  2
STYLE
  5
3
330
0
100
AcDbSymbolTable
 70
     1
  0
STYLE
  5
11
330
3
100
AcDbSymbolTableRecord
100
AcDbTextStyleTableRecord
  2
Standard
 70
     0
 40
0.0
 41
1.0
 50
0.0
 71
     0
 42
2.5
  3
txt
  4

  0
ENDTAB
  0
TABLE
  2
VIEW
  5
6
330
0
100
AcDbSymbolTable
 70
     0
  0
ENDTAB
  0
TABLE
  2
UCS
  5
7
330
0
100
AcDbSymbolTable
 70
     0
  0
ENDTAB
  0
TABLE
  2
APPID
  5
9
330
0
100
AcDbSymbolTable
 70
     1
  0
APPID
  5
12
330
9
100
AcDbSymbolTableRecord
100
AcDbRegAppTableRecord
  2
ACAD
 70
     0
  0
ENDTAB
  0
TABLE
  2
DIMSTYLE
  5
A
330
0
100
AcDbSymbolTable
 70
     1
100
AcDbDimStyleTable
  0
DIMSTYLE
105
27
330
A
100
AcDbSymbolTableRecord
100
AcDbDimStyleTableRecord
  2
ISO-25
 70
     0
 41
2.5
 42
0.625
 43
3.75
 44
1.25
 73
     0
 74
     0
 77
     1
 78
     8
140
2.5
141
2.5
143
0.03937007874016
147
0.625
171
     3
172
     1
178
     0
271
     2
272
     2
274
     3
278
    44
283
     0
284
     8
340
11
  0
ENDTAB
  0
TABLE
  2
BLOCK_RECORD
  5
1
330
0
100
AcDbSymbolTable
 70
     1
  0
BLOCK_RECORD
  5
1F
330
1
100
AcDbSymbolTableRecord
100
AcDbBlockTableRecord
  2
*Model_Space
340
22
 70
     0
280
     1
281
     0
  0
BLOCK_RECORD
  5
1B
330
1
100
AcDbSymbolTableRecord
100
AcDbBlockTableRecord
  2
*Paper_Space
340
1E
 70
     0
280
     1
281
     0
  0
BLOCK_RECORD
  5
23
330
1
100
AcDbSymbolTableRecord
100
AcDbBlockTableRecord
  2
*Paper_Space0
340
26
 70
     0
280
     1
281
     0
  0
ENDTAB
  0
ENDSEC
  0
SECTION
  2
BLOCKS
  0
BLOCK
  5
20
330
1F
100
AcDbEntity
  8
0
100
AcDbBlockBegin
  2
*Model_Space
 70
     0
 10
0.0
 20
0.0
 30
0.0
  3
*Model_Space
  1

  0
ENDBLK
  5
21
330
1F
100
AcDbEntity
  8
0
100
AcDbBlockEnd
  0
BLOCK
  5
1C
330
1B
100
AcDbEntity
 67
     1
  8
0
100
AcDbBlockBegin
  2
*Paper_Space
 70
     0
 10
0.0
 20
0.0
 30
0.0
  3
*Paper_Space
  1

  0
ENDBLK
  5
1D
330
1B
100
AcDbEntity
 67
     1
  8
0
100
AcDbBlockEnd
  0
BLOCK
  5
24
330
23
100
AcDbEntity
  8
0
100
AcDbBlockBegin
  2
*Paper_Space0
 70
     0
 10
0.0
 20
0.0
 30
0.0
  3
*Paper_Space0
  1

  0
ENDBLK
  5
25
330
23
100
AcDbEntity
  8
0
100
AcDbBlockEnd
  0
ENDSEC
  0
SECTION
  2
ENTITIES
  0
LINE
  5
42
330
1F
100
AcDbEntity
  8
0-0
  6
Continuous
 62
    92
370
    13
100
AcDbLine
 10
2034.515515973449
 20
-1067.542189026076
 30
0.0
 11
-1172.484484026551
 21
-1067.542189026076
 31
0.0
  0
LINE
  5
43
330
1F
100
AcDbEntity
  8
0-0
  6
Continuous
 62
    92
370
    13
100
AcDbLine
 10
2004.515515973449
 20
-1052.542189026076
 30
0.0
 11
-1142.484484026551
 21
-1052.542189026076
 31
0.0
  0
ARC
  5
44
330
1F
100
AcDbEntity
  8
0-0
  6
Continuous
 62
    92
370
    13
100
AcDbCircle
 10
-1113.98448402655
 20
-30.54218902607552
 30
0.0
 40
1.5
100
AcDbArc
 50
90.0
 51
180.0
  0
LINE
  5
45
330
1F
100
AcDbEntity
  8
0-0
  6
Continuous
 62
    92
370
    13
100
AcDbLine
 10
-1074.984484026551
 20
-29.0421890260756
 30
0.0
 11
-1113.98448402655
 21
-29.0421890260756
 31
0.0
  0
ARC
  5
46
330
1F
100
AcDbEntity
  8
0-0
  6
Continuous
 62
    92
370
    13
100
AcDbCircle
 10
-1074.984484026551
 20
-30.54218902607552
 30
0.0
 40
1.5
100
AcDbArc
 50
0.0
 51
90.00000000000001
  0
LINE
  5
47
330
1F
100
AcDbEntity
  8
0-0
  6
Continuous
 62
    92
370
    13
100
AcDbLine
 10
-1073.48448402655
 20
-149.542189026076
 30
0.0
 11
-1073.48448402655
 21
-30.54218902607552
 31
0.0
  0
ARC
  5
48
330
1F
100
AcDbEntity
  8
0-0
  6
Continuous
 62
    92
370
    13
100
AcDbCircle
 10
-1074.984484026551
 20
-149.542189026076
 30
0.0
 40
1.5
100
AcDbArc
 50
270.0
 51
0.0
  0
LINE
  5
49
330
1F
100
AcDbEntity
  8
0-0
  6
Continuous
 62
    92
370
    13
100
AcDbLine
 10
-1113.98448402655
 20
-151.0421890260755
 30
0.0
 11
-1074.984484026551
 21
-151.0421890260755
 31
0.0
  0
LINE
  5
4A
330
1F
100
AcDbEntity
  8
0-0
  6
Continuous
 62
    92
370
    13
100
AcDbLine
 10
-1115.48448402655
 20
-149.542189026076
 30
0.0
 11
-1115.48448402655
 21
-30.54218902607552
 31
0.0
  0
ARC
  5
4B
330
1F
100
AcDbEntity
  8
0-0
  6
Continuous
 62
    92
370
    13
100
AcDbCircle
 10
-1113.98448402655
 20
-149.542189026076
 30
0.0
 40
1.5
100
AcDbArc
 50
180.0
 51
270.0
  0
ARC
  5
4C
330
1F
100
AcDbEntity
  8
0-0
  6
Continuous
 62
     7
370
     9
100
AcDbCircle
 10
-1094.48448402655
 20
-119.6421890260759
 30
0.0
 40
15.0
100
AcDbArc
 50
180.0
 51
0.0
  0
ARC
  5
4D
330
1F
100
AcDbEntity
  8
0-0
  6
Continuous
 62
     7
370
     9
100
AcDbCircle
 10
-1094.48448402655
 20
-60.44218902607561
 30
0.0
 40
15.0
100
AcDbArc
 50
0.0
 51
180.0
  0
LINE
  5
4E
330
1F
100
AcDbEntity
  8
0-0
  6
Continuous
 62
     7
370
     9
100
AcDbLine
 10
-1079.48448402655
 20
-119.6421890260759
 30
0.0
 11
-1079.48448402655
 21
-60.44218902607561
 31
0.0
  0
LINE
  5
4F
330
1F
100
AcDbEntity
  8
0-0
  6
Continuous
 62
     7
370
     9
100
AcDbLine
 10
-1109.48448402655
 20
-60.44218902607561
 30
0.0
 11
-1109.48448402655
 21
-119.6421890260759
 31
0.0
  0
ARC
  5
50
330
1F
100
AcDbEntity
  8
0-0
  6
Continuous
 62
    92
370
    13
100
AcDbCircle
 10
-333.9844840265496
 20
-30.54218902607552
 30
0.0
 40
1.5
100
AcDbArc
 50
90.0
 51
180.0
  0
LINE
  5
51
330
1F
100
AcDbEntity
  8
0-0
  6
Continuous
 62
    92
370
    13
100
AcDbLine
 10
-294.9844840265509
 20
-29.0421890260756
 30
0.0
 11
-333.9844840265496
 21
-29.0421890260756
 31
0.0
  0
ARC
  5
52
330
1F
100
AcDbEntity
  8
0-0
  6
Continuous
 62
    92
370
    13
100
AcDbCircle
 10
-294.9844840265509
 20
-30.54218902607552
 30
0.0
 40
1.5
100
AcDbArc
 50
0.0
 51
90.00000000000001
  0
LINE
  5
53
330
1F
100
AcDbEntity
  8
0-0
  6
Continuous
 62
    92
370
    13
100
AcDbLine
 10
-293.4844840265489
 20
-149.542189026076
 30
0.0
 11
-293.4844840265489
 21
-30.54218902607552
 31
0.0
  0
ARC
  5
54
330
1F
100
AcDbEntity
  8
0-0
  6
Continuous
 62
    92
370
    13
100
AcDbCircle
 10
-294.9844840265509
 20
-149.542189026076
 30
0.0
 40
1.5
100
AcDbArc
 50
270.0
 51
0.0
  0
LINE
  5
55
330
1F
100
AcDbEntity
  8
0-0
  6
Continuous
 62
    92
370
    13
100
AcDbLine
 10
-333.9844840265496
 20
-151.0421890260755
 30
0.0
 11
-294.9844840265509
 21
-151.0421890260755
 31
0.0
  0
LINE
  5
56
330
1F
100
AcDbEntity
  8
0-0
  6
Continuous
 62
    92
370
    13
100
AcDbLine
 10
-335.4844840265499
 20
-149.542189026076
 30
0.0
 11
-335.4844840265499
 21
-30.54218902607552
 31
0.0
  0
ARC
  5
57
330
1F
100
AcDbEntity
  8
0-0
  6
Continuous
 62
    92
370
    13
100
AcDbCircle
 10
-333.9844840265496
 20
-149.542189026076
 30
0.0
 40
1.5
100
AcDbArc
 50
180.0
 51
270.0
  0
ARC
  5
58
330
1F
100
AcDbEntity
  8
0-0
  6
Continuous
 62
     7
370
     9
100
AcDbCircle
 10
-314.4844840265503
 20
-119.6421890260759
 30
0.0
 40
15.0
100
AcDbArc
 50
180.0
 51
0.0
  0
ARC
  5
59
330
1F
100
AcDbEntity
  8
0-0
  6
Continuous
 62
     7
370
     9
100
AcDbCircle
 10
-314.4844840265503
 20
-60.44218902607561
 30
0.0
 40
15.0
100
AcDbArc
 50
0.0
 51
180.0
  0
LINE
  5
5A
330
1F
100
AcDbEntity
  8
0-0
  6
Continuous
 62
     7
370
     9
100
AcDbLine
 10
-299.4844840265503
 20
-119.6421890260759
 30
0.0
 11
-299.4844840265503
 21
-60.44218902607561
 31
0.0
  0
LINE
  5
5B
330
1F
100
AcDbEntity
  8
0-0
  6
Continuous
 62
     7
370
     9
100
AcDbLine
 10
-329.4844840265503
 20
-60.44218902607561
 30
0.0
 11
-329.4844840265503
 21
-119.6421890260759
 31
0.0
  0
ARC
  5
5C
330
1F
100
AcDbEntity
  8
0-0
  6
Continuous
 62
    92
370
    13
100
AcDbCircle
 10
446.0155159734504
 20
-30.54218902607552
 30
0.0
 40
1.5
100
AcDbArc
 50
90.0
 51
180.0
  0
LINE
  5
5D
330
1F
100
AcDbEntity
  8
0-0
  6
Continuous
 62
    92
370
    13
100
AcDbLine
 10
485.0155159734491
 20
-29.0421890260756
 30
0.0
 11
446.0155159734504
 21
-29.0421890260756
 31
0.0
  0
ARC
  5
5E
330
1F
100
AcDbEntity
  8
0-0
  6
Continuous
 62
    92
370
    13
100
AcDbCircle
 10
485.0155159734491
 20
-30.54218902607552
 30
0.0
 40
1.5
100
AcDbArc
 50
0.0
 51
90.00000000000001
  0
LINE
  5
5F
330
1F
100
AcDbEntity
  8
0-0
  6
Continuous
 62
    92
370
    13
100
AcDbLine
 10
486.5155159734511
 20
-149.542189026076
 30
0.0
 11
486.5155159734511
 21
-30.54218902607552
 31
0.0
  0
ARC
  5
60
330
1F
100
AcDbEntity
  8
0-0
  6
Continuous
 62
    92
370
    13
100
AcDbCircle
 10
485.0155159734491
 20
-149.542189026076
 30
0.0
 40
1.5
100
AcDbArc
 50
270.0
 51
0.0
  0
LINE
  5
61
330
1F
100
AcDbEntity
  8
0-0
  6
Continuous
 62
    92
370
    13
100
AcDbLine
 10
446.0155159734504
 20
-151.0421890260755
 30
0.0
 11
485.0155159734491
 21
-151.0421890260755
 31
0.0
  0
LINE
  5
62
330
1F
100
AcDbEntity
  8
0-0
  6
Continuous
 62
    92
370
    13
100
AcDbLine
 10
444.5155159734501
 20
-149.542189026076
 30
0.0
 11
444.5155159734501
 21
-30.54218902607552
 31
0.0
  0
ARC
  5
63
330
1F
100
AcDbEntity
  8
0-0
  6
Continuous
 62
    92
370
    13
100
AcDbCircle
 10
446.0155159734504
 20
-149.542189026076
 30
0.0
 40
1.5
100
AcDbArc
 50
180.0
 51
270.0
  0
ARC
  5
64
330
1F
100
AcDbEntity
  8
0-0
  6
Continuous
 62
     7
370
     9
100
AcDbCircle
 10
465.5155159734497
 20
-119.6421890260759
 30
0.0
 40
15.0
100
AcDbArc
 50
180.0
 51
0.0
  0
ARC
  5
65
330
1F
100
AcDbEntity
  8
0-0
  6
Continuous
 62
     7
370
     9
100
AcDbCircle
 10
465.5155159734497
 20
-60.44218902607561
 30
0.0
 40
15.0
100
AcDbArc
 50
0.0
 51
180.0
  0
LINE
  5
66
330
1F
100
AcDbEntity
  8
0-0
  6
Continuous
 62
     7
370
     9
100
AcDbLine
 10
480.5155159734497
 20
-119.6421890260759
 30
0.0
 11
480.5155159734497
 21
-60.44218902607561
 31
0.0
  0
LINE
  5
67
330
1F
100
AcDbEntity
  8
0-0
  6
Continuous
 62
     7
370
     9
100
AcDbLine
 10
450.5155159734497
 20
-60.44218902607561
 30
0.0
 11
450.5155159734497
 21
-119.6421890260759
 31
0.0
  0
LINE
  5
68
330
1F
100
AcDbEntity
  8
0-0
  6
JWW_DASHED1
 62
   120
370
     5
100
AcDbLine
 10
-1142.484484026551
 20
-1047.542189026075
 30
0.0
 11
-1145.484484026552
 21
-1047.542189026075
 31
0.0
  0
LINE
  5
69
330
1F
100
AcDbEntity
  8
0-0
  6
Continuous
 62
    92
370
    13
100
AcDbLine
 10
-1142.484484026551
 20
-1047.542189026075
 30
0.0
 11
1224.515515973449
 21
-1047.542189026075
 31
0.0
  0
LINE
  5
6A
330
1F
100
AcDbEntity
  8
0-0
  6
Continuous
 62
    92
370
    13
100
AcDbLine
 10
-1142.484484026551
 20
1135.457810973923
 30
0.0
 11
1224.515515973449
 21
1135.457810973923
 31
0.0
  0
LINE
  5
6B
330
1F
100
AcDbEntity
  8
0-0
  6
Continuous
 62
    92
370
    13
100
AcDbLine
 10
-1172.484484026551
 20
-1067.542189026076
 30
0.0
 11
-1172.484484026551
 21
1179.457810973923
 31
0.0
  0
LINE
  5
6C
330
1F
100
AcDbEntity
  8
0-0
  6
Continuous
 62
    92
370
    13
100
AcDbLine
 10
2034.515515973449
 20
1179.457810973923
 30
0.0
 11
2034.515515973449
 21
-1067.542189026076
 31
0.0
  0
LINE
  5
6D
330
1F
100
AcDbEntity
  8
0-0
  6
JWW_DASHED1
 62
   120
370
     5
100
AcDbLine
 10
1194.515515973449
 20
-1052.542189026076
 30
0.0
 11
1194.515515973449
 21
1143.457810973923
 31
0.0
  0
LINE
  5
6E
330
1F
100
AcDbEntity
  8
0-0
  6
JWW_DASHED1
 62
   120
370
     5
100
AcDbLine
 10
1224.515515973449
 20
-1052.542189026076
 30
0.0
 11
1224.515515973449
 21
1143.457810973923
 31
0.0
  0
LINE
  5
6F
330
1F
100
AcDbEntity
  8
0-0
  6
Continuous
 62
    92
370
    13
100
AcDbLine
 10
-1142.484484026551
 20
-1067.542189026076
 30
0.0
 11
-1142.484484026551
 21
1179.457810973923
 31
0.0
  0
LINE
  5
70
330
1F
100
AcDbEntity
  8
0-0
  6
Continuous
 62
    92
370
    13
100
AcDbLine
 10
2004.515515973449
 20
-1067.542189026076
 30
0.0
 11
2004.515515973449
 21
1179.457810973923
 31
0.0
  0
LINE
  5
71
330
1F
100
AcDbEntity
  8
0-0
  6
Continuous
 62
    92
370
    13
100
AcDbLine
 10
-1142.484484026551
 20
1143.457810973923
 30
0.0
 11
2004.515515973449
 21
1143.457810973923
 31
0.0
  0
LINE
  5
72
330
1F
100
AcDbEntity
  8
0-0
  6
Continuous
 62
    92
370
    13
100
AcDbLine
 10
-1172.484484026551
 20
1179.457810973923
 30
0.0
 11
2034.515515973449
 21
1179.457810973923
 31
0.0
  0
LINE
  5
73
330
1F
100
AcDbEntity
  8
0-0
  6
JWW_DASHED1
 62
   120
370
     5
100
AcDbLine
 10
-1145.484484026552
 20
-1047.542189026075
 30
0.0
 11
-1145.484484026552
 21
1135.457810973923
 31
0.0
  0
LINE
  5
74
330
1F
100
AcDbEntity
  8
0-0
  6
JWW_DASHED1
 62
   120
370
     5
100
AcDbLine
 10
-1145.484484026552
 20
1135.457810973923
 30
0.0
 11
-1142.484484026551
 21
1135.457810973923
 31
0.0
  0
LINE
  5
75
330
1F
100
AcDbEntity
  8
0-0
  6
JWW_DASHED1
 62
   120
370
     5
100
AcDbLine
 10
-335.4844840265508
 20
-1047.542189026075
 30
0.0
 11
-335.4844840265508
 21
1135.457810973923
 31
0.0
  0
LINE
  5
76
330
1F
100
AcDbEntity
  8
0-0
  6
Continuous
 62
    92
370
    13
100
AcDbLine
 10
-365.4844840265508
 20
1135.457810973923
 30
0.0
 11
-365.4844840265508
 21
-1047.542189026075
 31
0.0
  0
LINE
  5
77
330
1F
100
AcDbEntity
  8
0-0
  6
JWW_DASHED1
 62
   120
370
     5
100
AcDbLine
 10
444.5155159734492
 20
-1047.542189026075
 30
0.0
 11
444.5155159734492
 21
1135.457810973923
 31
0.0
  0
LINE
  5
78
330
1F
100
AcDbEntity
  8
0-0
  6
Continuous
 62
    92
370
    13
100
AcDbLine
 10
414.5155159734492
 20
1135.457810973923
 30
0.0
 11
414.5155159734492
 21
-1047.542189026075
 31
0.0
  0
LINE
  5
79
330
1F
100
AcDbEntity
  8
0-0
  6
Continuous
 62
    92
370
    13
100
AcDbLine
 10
1224.515515973449
 20
1135.457810973923
 30
0.0
 11
1224.515515973449
 21
-1047.542189026075
 31
0.0
  0
LINE
  5
7A
330
1F
100
AcDbEntity
  8
0-0
  6
Continuous
 62
     7
370
     9
100
AcDbLine
 10
-759.484484026554
 20
-1039.542189026075
 30
0.0
 11
-721.4844840265536
 21
-1039.542189026075
 31
0.0
  0
LINE
  5
7B
330
1F
100
AcDbEntity
  8
0-0
  6
JWW_DASHED1
 62
   120
370
     5
100
AcDbLine
 10
-759.484484026554
 20
-1002.744889864662
 30
0.0
 11
-721.484484026557
 21
-964.7448898646624
 31
0.0
  0
LINE
  5
7C
330
1F
100
AcDbEntity
  8
0-0
  6
JWW_DASHED1
 62
   120
370
     5
100
AcDbLine
 10
-759.484484026554
 20
-992.8453949295001
 30
0.0
 11
-721.4844840265536
 21
-954.8453949294972
 31
0.0
  0
LINE
  5
7D
330
1F
100
AcDbEntity
  8
0-0
  6
JWW_DASHED1
 62
   120
370
     5
100
AcDbLine
 10
-759.484484026554
 20
-982.9458999942821
 30
0.0
 11
-721.4844840265467
 21
-944.945899994273
 31
0.0
  0
LINE
  5
7E
330
1F
100
AcDbEntity
  8
0-0
  6
JWW_DASHED1
 62
   120
370
     5
100
AcDbLine
 10
-759.484484026554
 20
-973.0464050590696
 30
0.0
 11
-721.4844840265536
 21
-935.0464050590651
 31
0.0
  0
LINE
  5
7F
330
1F
100
AcDbEntity
  8
0-0
  6
JWW_DASHED1
 62
   120
370
     5
100
AcDbLine
 10
-759.484484026554
 20
-963.146910123901
 30
0.0
 11
-721.4844840265501
 21
-925.1469101238999
 31
0.0
  0
LINE
  5
80
330
1F
100
AcDbEntity
  8
0-0
  6
JWW_DASHED1
 62
   120
370
     5
100
AcDbLine
 10
-759.484484026554
 20
-953.2474151886865
 30
0.0
 11
-721.4844840265604
 21
-915.2474151886921
 31
0.0
  0
LINE
  5
81
330
1F
100
AcDbEntity
  8
0-0
  6
JWW_DASHED1
 62
   120
370
     5
100
AcDbLine
 10
-759.484484026554
 20
-943.3479202534685
 30
0.0
 11
-721.4844840265501
 21
-905.3479202534683
 31
0.0
  0
LINE
  5
82
330
1F
100
AcDbEntity
  8
0-0
  6
JWW_DASHED1
 62
   120
370
     5
100
AcDbLine
 10
-759.484484026554
 20
-933.4484253183073
 30
0.0
 11
-721.4844840265467
 21
-895.4484253183035
 31
0.0
  0
LINE
  5
83
330
1F
100
AcDbEntity
  8
0-0
  6
JWW_DASHED1
 62
   120
370
     5
100
AcDbLine
 10
-759.484484026554
 20
-923.5489303830935
 30
0.0
 11
-721.484484026557
 21
-885.5489303830952
 31
0.0
  0
LINE
  5
84
330
1F
100
AcDbEntity
  8
0-0
  6
JWW_DASHED1
 62
   120
370
     5
100
AcDbLine
 10
-759.484484026554
 20
-913.6494354478763
 30
0.0
 11
-721.4844840265467
 21
-875.649435447871
 31
0.0
  0
LINE
  5
85
330
1F
100
AcDbEntity
  8
0-0
  6
JWW_DASHED1
 62
   120
370
     5
100
AcDbLine
 10
-759.484484026554
 20
-903.7499405127137
 30
0.0
 11
-721.4844840265604
 21
-865.7499405127222
 31
0.0
  0
LINE
  5
86
330
1F
100
AcDbEntity
  8
0-0
  6
JWW_DASHED1
 62
   120
370
     5
100
AcDbLine
 10
-759.484484026554
 20
-893.8504455774998
 30
0.0
 11
-721.4844840265536
 21
-855.8504455774986
 31
0.0
  0
LINE
  5
87
330
1F
100
AcDbEntity
  8
0-0
  6
JWW_DASHED1
 62
   120
370
     5
100
AcDbLine
 10
-759.484484026554
 20
-883.9509506422861
 30
0.0
 11
-721.4844840265467
 21
-845.9509506422746
 31
0.0
  0
LINE
  5
88
330
1F
100
AcDbEntity
  8
0-0
  6
JWW_DASHED1
 62
   120
370
     5
100
AcDbLine
 10
-759.484484026554
 20
-874.0514557071226
 30
0.0
 11
-721.4844840265604
 21
-836.0514557071256
 31
0.0
  0
LINE
  5
89
330
1F
100
AcDbEntity
  8
0-0
  6
JWW_DASHED1
 62
   120
370
     5
100
AcDbLine
 10
-759.484484026554
 20
-864.1519607719105
 30
0.0
 11
-721.4844840265536
 21
-826.1519607719016
 31
0.0
  0
LINE
  5
8A
330
1F
100
AcDbEntity
  8
0-0
  6
JWW_DASHED1
 62
   120
370
     5
100
AcDbLine
 10
-759.484484026554
 20
-854.2524658367372
 30
0.0
 11
-721.4844840265467
 21
-816.2524658367366
 31
0.0
  0
LINE
  5
8B
330
1F
100
AcDbEntity
  8
0-0
  6
JWW_DASHED1
 62
   120
370
     5
100
AcDbLine
 10
-759.484484026554
 20
-844.3529709015221
 30
0.0
 11
-721.484484026557
 21
-806.3529709015281
 31
0.0
  0
LINE
  5
8C
330
1F
100
AcDbEntity
  8
0-0
  6
JWW_DASHED1
 62
   120
370
     5
100
AcDbLine
 10
-759.484484026554
 20
-834.4534759663101
 30
0.0
 11
-721.4844840265501
 21
-796.453475966305
 31
0.0
  0
LINE
  5
8D
330
1F
100
AcDbEntity
  8
0-0
  6
JWW_DASHED1
 62
   120
370
     5
100
AcDbLine
 10
-759.484484026554
 20
-824.5539810311483
 30
0.0
 11
-721.4844840265467
 21
-786.5539810311398
 31
0.0
  0
LINE
  5
8E
330
1F
100
AcDbEntity
  8
0-0
  6
JWW_DASHED1
 62
   120
370
     5
100
AcDbLine
 10
-759.484484026554
 20
-814.6544860959281
 30
0.0
 11
-721.4844840265536
 21
-776.6544860959319
 31
0.0
  0
LINE
  5
8F
330
1F
100
AcDbEntity
  8
0-0
  6
JWW_DASHED1
 62
   120
370
     5
100
AcDbLine
 10
-759.484484026554
 20
-804.7549911607168
 30
0.0
 11
-721.4844840265467
 21
-766.7549911607078
 31
0.0
  0
LINE
  5
90
330
1F
100
AcDbEntity
  8
0-0
  6
JWW_DASHED1
 62
   120
370
     5
100
AcDbLine
 10
-759.484484026554
 20
-794.8554962255533
 30
0.0
 11
-721.4844840265604
 21
-756.8554962255585
 31
0.0
  0
LINE
  5
91
330
1F
100
AcDbEntity
  8
0-0
  6
JWW_DASHED1
 62
   120
370
     5
100
AcDbLine
 10
-759.484484026554
 20
-784.9560012903391
 30
0.0
 11
-721.4844840265536
 21
-746.9560012903348
 31
0.0
  0
LINE
  5
92
330
1F
100
AcDbEntity
  8
0-0
  6
JWW_DASHED1
 62
   120
370
     5
100
AcDbLine
 10
-759.484484026554
 20
-775.056506355124
 30
0.0
 11
-721.4844840265604
 21
-737.0565063551267
 31
0.0
  0
LINE
  5
93
330
1F
100
AcDbEntity
  8
0-0
  6
JWW_DASHED1
 62
   120
370
     5
100
AcDbLine
 10
-759.484484026554
 20
-765.1570114199596
 30
0.0
 11
-721.484484026557
 21
-727.1570114199618
 31
0.0
  0
LINE
  5
94
330
1F
100
AcDbEntity
  8
0-0
  6
JWW_DASHED1
 62
   120
370
     5
100
AcDbLine
 10
-759.484484026554
 20
-755.257516484745
 30
0.0
 11
-721.4844840265501
 21
-717.2575164847378
 31
0.0
  0
LINE
  5
95
330
1F
100
AcDbEntity
  8
0-0
  6
JWW_DASHED1
 62
   120
370
     5
100
AcDbLine
 10
-759.484484026554
 20
-745.3580215495283
 30
0.0
 11
-721.484484026557
 21
-707.3580215495296
 31
0.0
  0
LINE
  5
96
330
1F
100
AcDbEntity
  8
0-0
  6
JWW_DASHED1
 62
   120
370
     5
100
AcDbLine
 10
-759.484484026554
 20
-735.4585266143588
 30
0.0
 11
-721.4844840265536
 21
-697.4585266143648
 31
0.0
  0
LINE
  5
97
330
1F
100
AcDbEntity
  8
0-0
  6
JWW_DASHED1
 62
   120
370
     5
100
AcDbLine
 10
-759.484484026554
 20
-725.5590316791522
 30
0.0
 11
-721.4844840265467
 21
-687.5590316791407
 31
0.0
  0
LINE
  5
98
330
1F
100
AcDbEntity
  8
0-0
  6
JWW_DASHED1
 62
   120
370
     5
100
AcDbLine
 10
-759.484484026554
 20
-715.6595367439273
 30
0.0
 11
-721.4844840265536
 21
-677.6595367439329
 31
0.0
  0
LINE
  5
99
330
1F
100
AcDbEntity
  8
0-0
  6
JWW_DASHED1
 62
   120
370
     5
100
AcDbLine
 10
-759.484484026554
 20
-705.7600418087694
 30
0.0
 11
-721.4844840265536
 21
-667.7600418087677
 31
0.0
  0
LINE
  5
9A
330
1F
100
AcDbEntity
  8
0-0
  6
JWW_DASHED1
 62
   120
370
     5
100
AcDbLine
 10
-759.484484026554
 20
-695.8605468735552
 30
0.0
 11
-721.4844840265467
 21
-657.8605468735437
 31
0.0
  0
LINE
  5
9B
330
1F
100
AcDbEntity
  8
0-0
  6
JWW_DASHED1
 62
   120
370
     5
100
AcDbLine
 10
-759.484484026554
 20
-685.9610519383372
 30
0.0
 11
-721.4844840265536
 21
-647.9610519383359
 31
0.0
  0
LINE
  5
9C
330
1F
100
AcDbEntity
  8
0-0
  6
JWW_DASHED1
 62
   120
370
     5
100
AcDbLine
 10
-759.484484026554
 20
-676.0615570031762
 30
0.0
 11
-721.4844840265501
 21
-638.0615570031707
 31
0.0
  0
LINE
  5
9D
330
1F
100
AcDbEntity
  8
0-0
  6
JWW_DASHED1
 62
   120
370
     5
100
AcDbLine
 10
-759.484484026554
 20
-666.1620620679564
 30
0.0
 11
-721.484484026557
 21
-628.1620620679629
 31
0.0
  0
LINE
  5
9E
330
1F
100
AcDbEntity
  8
0-0
  6
JWW_DASHED1
 62
   120
370
     5
100
AcDbLine
 10
-759.484484026554
 20
-656.2625671327439
 30
0.0
 11
-721.4844840265501
 21
-618.2625671327388
 31
0.0
  0
LINE
  5
9F
330
1F
100
AcDbEntity
  8
0-0
  6
JWW_DASHED1
 62
   120
370
     5
100
AcDbLine
 10
-759.484484026554
 20
-646.3630721975826
 30
0.0
 11
-721.4844840265467
 21
-608.3630721975736
 31
0.0
  0
LINE
  5
A0
330
1F
100
AcDbEntity
  8
0-0
  6
JWW_DASHED1
 62
   120
370
     5
100
AcDbLine
 10
-759.484484026554
 20
-636.4635772623628
 30
0.0
 11
-721.4844840265536
 21
-598.4635772623658
 31
0.0
  0
LINE
  5
A1
330
1F
100
AcDbEntity
  8
0-0
  6
JWW_DASHED1
 62
   120
370
     5
100
AcDbLine
 10
-759.484484026554
 20
-626.5640823271431
 30
0.0
 11
-721.4844840265467
 21
-588.5640823271423
 31
0.0
  0
LINE
  5
A2
330
1F
100
AcDbEntity
  8
0-0
  6
JWW_DASHED1
 62
   120
370
     5
100
AcDbLine
 10
-759.484484026554
 20
-616.6645873919906
 30
0.0
 11
-721.4844840265604
 21
-578.6645873919928
 31
0.0
  0
LINE
  5
A3
330
1F
100
AcDbEntity
  8
0-0
  6
JWW_DASHED1
 62
   120
370
     5
100
AcDbLine
 10
-759.484484026554
 20
-606.7650924567735
 30
0.0
 11
-721.4844840265536
 21
-568.7650924567688
 31
0.0
  0
LINE
  5
A4
330
1F
100
AcDbEntity
  8
0-0
  6
JWW_DASHED1
 62
   120
370
     5
100
AcDbLine
 10
-759.484484026554
 20
-596.8655975215537
 30
0.0
 11
-721.4844840265467
 21
-558.8655975215447
 31
0.0
  0
LINE
  5
A5
330
1F
100
AcDbEntity
  8
0-0
  6
JWW_DASHED1
 62
   120
370
     5
100
AcDbLine
 10
-759.484484026554
 20
-586.9661025863936
 30
0.0
 11
-721.4844840265604
 21
-548.9661025863958
 31
0.0
  0
LINE
  5
A6
330
1F
100
AcDbEntity
  8
0-0
  6
JWW_DASHED1
 62
   120
370
     5
100
AcDbLine
 10
-759.484484026554
 20
-577.0666076511739
 30
0.0
 11
-721.4844840265501
 21
-539.0666076511717
 31
0.0
  0
LINE
  5
A7
330
1F
100
AcDbEntity
  8
0-0
  6
JWW_DASHED1
 62
   120
370
     5
100
AcDbLine
 10
-759.484484026554
 20
-567.1671127159592
 30
0.0
 11
-721.4844840265604
 21
-529.1671127159639
 31
0.0
  0
LINE
  5
A8
330
1F
100
AcDbEntity
  8
0-0
  6
JWW_DASHED1
 62
   120
370
     5
100
AcDbLine
 10
-759.484484026554
 20
-557.2676177807936
 30
0.0
 11
-721.4844840265536
 21
-519.2676177807987
 31
0.0
  0
LINE
  5
A9
330
1F
100
AcDbEntity
  8
0-0
  6
JWW_DASHED1
 62
   120
370
     5
100
AcDbLine
 10
-759.484484026554
 20
-547.3681228455794
 30
0.0
 11
-721.4844840265467
 21
-509.3681228455756
 31
0.0
  0
LINE
  5
AA
330
1F
100
AcDbEntity
  8
0-0
  6
JWW_DASHED1
 62
   120
370
     5
100
AcDbLine
 10
-759.484484026554
 20
-537.4686279103652
 30
0.0
 11
-721.484484026557
 21
-499.4686279103673
 31
0.0
  0
LINE
  5
AB
330
1F
100
AcDbEntity
  8
0-0
  6
JWW_DASHED1
 62
   120
370
     5
100
AcDbLine
 10
-759.484484026554
 20
-527.5691329752034
 30
0.0
 11
-721.4844840265536
 21
-489.5691329752021
 31
0.0
  0
LINE
  5
AC
330
1F
100
AcDbEntity
  8
0-0
  6
JWW_DASHED1
 62
   120
370
     5
100
AcDbLine
 10
-759.484484026554
 20
-517.669638039984
 30
0.0
 11
-721.4844840265604
 21
-479.6696380399939
 31
0.0
  0
LINE
  5
AD
330
1F
100
AcDbEntity
  8
0-0
  6
JWW_DASHED1
 62
   120
370
     5
100
AcDbLine
 10
-759.484484026554
 20
-507.7701431047715
 30
0.0
 11
-721.4844840265536
 21
-469.7701431047702
 31
0.0
  0
LINE
  5
AE
330
1F
100
AcDbEntity
  8
0-0
  6
JWW_DASHED1
 62
   120
370
     5
100
AcDbLine
 10
-759.484484026554
 20
-497.8706481696093
 30
0.0
 11
-721.4844840265501
 21
-459.8706481696055
 31
0.0
  0
LINE
  5
AF
330
1F
100
AcDbEntity
  8
0-0
  6
JWW_DASHED1
 62
   120
370
     5
100
AcDbLine
 10
-759.484484026554
 20
-487.9711532343959
 30
0.0
 11
-721.4844840265604
 21
-449.9711532343968
 31
0.0
  0
LINE
  5
B0
330
1F
100
AcDbEntity
  8
0-0
  6
JWW_DASHED1
 62
   120
370
     5
100
AcDbLine
 10
-759.484484026554
 20
-478.0716582991753
 30
0.0
 11
-721.4844840265536
 21
-440.0716582991732
 31
0.0
  0
LINE
  5
B1
330
1F
100
AcDbEntity
  8
0-0
  6
JWW_DASHED1
 62
   120
370
     5
100
AcDbLine
 10
-759.484484026554
 20
-468.1721633640092
 30
0.0
 11
-721.4844840265467
 21
-430.1721633640084
 31
0.0
  0
LINE
  5
B2
330
1F
100
AcDbEntity
  8
0-0
  6
JWW_DASHED1
 62
   120
370
     5
100
AcDbLine
 10
-759.484484026554
 20
-458.2726684287942
 30
0.0
 11
-721.484484026557
 21
-420.2726684288006
 31
0.0
  0
LINE
  5
B3
330
1F
100
AcDbEntity
  8
0-0
  6
JWW_DASHED1
 62
   120
370
     5
100
AcDbLine
 10
-759.484484026554
 20
-448.3731734935812
 30
0.0
 11
-721.4844840265501
 21
-410.3731734935766
 31
0.0
  0
LINE
  5
B4
330
1F
100
AcDbEntity
  8
0-0
  6
JWW_DASHED1
 62
   120
370
     5
100
AcDbLine
 10
-759.484484026554
 20
-438.4736785584203
 30
0.0
 11
-721.4844840265467
 21
-400.4736785584114
 31
0.0
  0
LINE
  5
B5
330
1F
100
AcDbEntity
  8
0-0
  6
JWW_DASHED1
 62
   120
370
     5
100
AcDbLine
 10
-759.484484026554
 20
-428.5741836232006
 30
0.0
 11
-721.4844840265536
 21
-390.5741836232036
 31
0.0
  0
LINE
  5
B6
330
1F
100
AcDbEntity
  8
0-0
  6
JWW_DASHED1
 62
   120
370
     5
100
AcDbLine
 10
-759.484484026554
 20
-418.6746886879885
 30
0.0
 11
-721.4844840265467
 21
-380.6746886879795
 31
0.0
  0
LINE
  5
B7
330
1F
100
AcDbEntity
  8
0-0
  6
JWW_DASHED1
 62
   120
370
     5
100
AcDbLine
 10
-759.484484026554
 20
-408.7751937528207
 30
0.0
 11
-721.4844840265536
 21
-370.775193752825
 31
0.0
  0
LINE
  5
B8
330
1F
100
AcDbEntity
  8
0-0
  6
JWW_DASHED1
 62
   120
370
     5
100
AcDbLine
 10
-759.484484026554
 20
-398.8756988176103
 30
0.0
 11
-721.4844840265536
 21
-360.8756988176065
 31
0.0
  0
LINE
  5
B9
330
1F
100
AcDbEntity
  8
0-0
  6
JWW_DASHED1
 62
   120
370
     5
100
AcDbLine
 10
-759.484484026554
 20
-388.9762038823965
 30
0.0
 11
-721.4844840265604
 21
-350.9762038823982
 31
0.0
  0
LINE
  5
BA
330
1F
100
AcDbEntity
  8
0-0
  6
JWW_DASHED1
 62
   120
370
     5
100
AcDbLine
 10
-759.484484026554
 20
-379.0767089472322
 30
0.0
 11
-721.484484026557
 21
-341.0767089472335
 31
0.0
  0
LINE
  5
BB
330
1F
100
AcDbEntity
  8
0-0
  6
JWW_DASHED1
 62
   120
370
     5
100
AcDbLine
 10
-759.484484026554
 20
-369.1772140120099
 30
0.0
 11
-721.4844840265501
 21
-331.1772140120095
 31
0.0
  0
LINE
  5
BC
330
1F
100
AcDbEntity
  8
0-0
  6
JWW_DASHED1
 62
   120
370
     5
100
AcDbLine
 10
-759.484484026554
 20
-359.2777190767952
 30
0.0
 11
-721.484484026557
 21
-321.2777190768016
 31
0.0
  0
LINE
  5
BD
330
1F
100
AcDbEntity
  8
0-0
  6
JWW_DASHED1
 62
   120
370
     5
100
AcDbLine
 10
-759.484484026554
 20
-349.3782241416313
 30
0.0
 11
-721.4844840265536
 21
-311.3782241416365
 31
0.0
  0
LINE
  5
BE
330
1F
100
AcDbEntity
  8
0-0
  6
JWW_DASHED1
 62
   120
370
     5
100
AcDbLine
 10
-759.484484026554
 20
-339.4787292064231
 30
0.0
 11
-721.4844840265467
 21
-301.4787292064124
 31
0.0
  0
LINE
  5
BF
330
1F
100
AcDbEntity
  8
0-0
  6
JWW_DASHED1
 62
   120
370
     5
100
AcDbLine
 10
-759.484484026554
 20
-329.5792342711994
 30
0.0
 11
-721.4844840265536
 21
-291.5792342712046
 31
0.0
  0
LINE
  5
C0
330
1F
100
AcDbEntity
  8
0-0
  6
JWW_DASHED1
 62
   120
370
     5
100
AcDbLine
 10
-759.484484026554
 20
-319.6797393360415
 30
0.0
 11
-721.4844840265536
 21
-281.6797393360394
 31
0.0
  0
LINE
  5
C1
330
1F
100
AcDbEntity
  8
0-0
  6
JWW_DASHED1
 62
   120
370
     5
100
AcDbLine
 10
-759.484484026554
 20
-309.7802444008281
 30
0.0
 11
-721.4844840265467
 21
-271.7802444008154
 31
0.0
  0
LINE
  5
C2
330
1F
100
AcDbEntity
  8
0-0
  6
JWW_DASHED1
 62
   120
370
     5
100
AcDbLine
 10
-759.484484026554
 20
-299.8807494656097
 30
0.0
 11
-721.4844840265536
 21
-261.8807494656076
 31
0.0
  0
LINE
  5
C3
330
1F
100
AcDbEntity
  8
0-0
  6
JWW_DASHED1
 62
   120
370
     5
100
AcDbLine
 10
-759.484484026554
 20
-289.9812545304479
 30
0.0
 11
-721.4844840265501
 21
-251.9812545304424
 31
0.0
  0
LINE
  5
C4
330
1F
100
AcDbEntity
  8
0-0
  6
JWW_DASHED1
 62
   120
370
     5
100
AcDbLine
 10
-759.484484026554
 20
-280.0817595952281
 30
0.0
 11
-721.484484026557
 21
-242.0817595952345
 31
0.0
  0
LINE
  5
C5
330
1F
100
AcDbEntity
  8
0-0
  6
JWW_DASHED1
 62
   120
370
     5
100
AcDbLine
 10
-759.484484026554
 20
-270.1822646600442
 30
0.0
 11
-721.4844840265536
 21
-232.1822646600403
 31
0.0
  0
LINE
  5
C6
330
1F
100
AcDbEntity
  8
0-0
  6
JWW_DASHED1
 62
   120
370
     5
100
AcDbLine
 10
-759.484484026554
 20
-260.2827697248466
 30
0.0
 11
-721.4844840265467
 21
-222.2827697248457
 31
0.0
  0
LINE
  5
C7
330
1F
100
AcDbEntity
  8
0-0
  6
JWW_DASHED1
 62
   120
370
     5
100
AcDbLine
 10
-759.484484026554
 20
-250.3832747896336
 30
0.0
 11
-721.4844840265536
 21
-212.3832747896379
 31
0.0
  0
LINE
  5
C8
330
1F
100
AcDbEntity
  8
0-0
  6
JWW_DASHED1
 62
   120
370
     5
100
AcDbLine
 10
-759.484484026554
 20
-240.4837798544437
 30
0.0
 11
-721.4844840265501
 21
-202.4837798544433
 31
0.0
  0
LINE
  5
C9
330
1F
100
AcDbEntity
  8
0-0
  6
JWW_DASHED1
 62
   120
370
     5
100
AcDbLine
 10
-759.484484026554
 20
-230.5842849192614
 30
0.0
 11
-721.4844840265604
 21
-192.5842849192645
 31
0.0
  0
LINE
  5
CA
330
1F
100
AcDbEntity
  8
0-0
  6
JWW_DASHED1
 62
   120
370
     5
100
AcDbLine
 10
-759.484484026554
 20
-220.6847899840463
 30
0.0
 11
-721.4844840265536
 21
-182.6847899840404
 31
0.0
  0
LINE
  5
CB
330
1F
100
AcDbEntity
  8
0-0
  6
JWW_DASHED1
 62
   120
370
     5
100
AcDbLine
 10
-759.484484026554
 20
-210.7852950488765
 30
0.0
 11
-721.4844840265501
 21
-172.7852950488761
 31
0.0
  0
LINE
  5
CC
330
1F
100
AcDbEntity
  8
0-0
  6
JWW_DASHED1
 62
   120
370
     5
100
AcDbLine
 10
-759.484484026554
 20
-200.8858001136665
 30
0.0
 11
-721.4844840265604
 21
-162.8858001136674
 31
0.0
  0
LINE
  5
CD
330
1F
100
AcDbEntity
  8
0-0
  6
JWW_DASHED1
 62
   120
370
     5
100
AcDbLine
 10
-759.484484026554
 20
-190.9863051784446
 30
0.0
 11
-721.4844840265501
 21
-152.9863051784442
 31
0.0
  0
LINE
  5
CE
330
1F
100
AcDbEntity
  8
0-0
  6
JWW_DASHED1
 62
   120
370
     5
100
AcDbLine
 10
-759.484484026554
 20
-181.0868102432829
 30
0.0
 11
-721.4844840265467
 21
-143.086810243279
 31
0.0
  0
LINE
  5
CF
330
1F
100
AcDbEntity
  8
0-0
  6
JWW_DASHED1
 62
   120
370
     5
100
AcDbLine
 10
-759.484484026554
 20
-171.1873153080682
 30
0.0
 11
-721.484484026557
 21
-133.1873153080712
 31
0.0
  0
LINE
  5
D0
330
1F
100
AcDbEntity
  8
0-0
  6
JWW_DASHED1
 62
   120
370
     5
100
AcDbLine
 10
-759.484484026554
 20
-161.287820372851
 30
0.0
 11
-721.4844840265467
 21
-123.2878203728472
 31
0.0
  0
LINE
  5
D1
330
1F
100
AcDbEntity
  8
0-0
  6
JWW_DASHED1
 62
   120
370
     5
100
AcDbLine
 10
-759.484484026554
 20
-151.3883254376926
 30
0.0
 11
-721.4844840265467
 21
-113.388325437682
 31
0.0
  0
LINE
  5
D2
330
1F
100
AcDbEntity
  8
0-0
  6
JWW_DASHED1
 62
   120
370
     5
100
AcDbLine
 10
-759.484484026554
 20
-141.4888305024746
 30
0.0
 11
-721.4844840265536
 21
-103.4888305024742
 31
0.0
  0
LINE
  5
D3
330
1F
100
AcDbEntity
  8
0-0
  6
JWW_DASHED1
 62
   120
370
     5
100
AcDbLine
 10
-759.484484026554
 20
-131.5893355672608
 30
0.0
 11
-721.4844840265467
 21
-93.58933556725013
 31
0.0
  0
LINE
  5
D4
330
1F
100
AcDbEntity
  8
0-0
  6
JWW_DASHED1
 62
   120
370
     5
100
AcDbLine
 10
-759.484484026554
 20
-121.6898406320939
 30
0.0
 11
-721.4844840265501
 21
-83.68984063209346
 31
0.0
  0
LINE
  5
D5
330
1F
100
AcDbEntity
  8
0-0
  6
JWW_DASHED1
 62
   120
370
     5
100
AcDbLine
 10
-759.484484026554
 20
-111.7903456968826
 30
0.0
 11
-721.4844840265501
 21
-73.79034569687711
 31
0.0
  0
LINE
  5
D6
330
1F
100
AcDbEntity
  8
0-0
  6
JWW_DASHED1
 62
   120
370
     5
100
AcDbLine
 10
-759.484484026554
 20
-101.8908507616663
 30
0.0
 11
-721.4844840265604
 21
-63.89085076166928
 31
0.0
  0
LINE
  5
D7
330
1F
100
AcDbEntity
  8
0-0
  6
JWW_DASHED1
 62
   120
370
     5
100
AcDbLine
 10
-759.484484026554
 20
-91.99135582649767
 30
0.0
 11
-721.484484026557
 21
-53.99135582650409
 31
0.0
  0
LINE
  5
D8
330
1F
100
AcDbEntity
  8
0-0
  6
JWW_DASHED1
 62
   120
370
     5
100
AcDbLine
 10
-759.484484026554
 20
-82.09186089128174
 30
0.0
 11
-721.4844840265467
 21
-44.09186089128006
 31
0.0
  0
LINE
  5
D9
330
1F
100
AcDbEntity
  8
0-0
  6
JWW_DASHED1
 62
   120
370
     5
100
AcDbLine
 10
-759.484484026554
 20
-72.19236595606581
 30
0.0
 11
-721.484484026557
 21
-34.19236595607224
 31
0.0
  0
LINE
  5
DA
330
1F
100
AcDbEntity
  8
0-0
  6
JWW_DASHED1
 62
   120
370
     5
100
AcDbLine
 10
-759.484484026554
 20
-62.29287102091213
 30
0.0
 11
-721.4844840265536
 21
-24.29287102090704
 31
0.0
  0
LINE
  5
DB
330
1F
100
AcDbEntity
  8
0-0
  6
JWW_DASHED1
 62
   120
370
     5
100
AcDbLine
 10
-759.484484026554
 20
-52.39337608569151
 30
0.0
 11
-721.4844840265467
 21
-14.39337608568344
 31
0.0
  0
LINE
  5
DC
330
1F
100
AcDbEntity
  8
0-0
  6
JWW_DASHED1
 62
   120
370
     5
100
AcDbLine
 10
-759.484484026554
 20
-42.49388115047218
 30
0.0
 11
-721.4844840265536
 21
-4.49388115047519
 31
0.0
  0
LINE
  5
DD
330
1F
100
AcDbEntity
  8
0-0
  6
JWW_DASHED1
 62
   120
370
     5
100
AcDbLine
 10
-759.484484026554
 20
-32.59438621531423
 30
0.0
 11
-721.4844840265536
 21
5.405613784689578
 31
0.0
  0
LINE
  5
DE
330
1F
100
AcDbEntity
  8
0-0
  6
JWW_DASHED1
 62
   120
370
     5
100
AcDbLine
 10
-759.484484026554
 20
-22.69489128009788
 30
0.0
 11
-721.4844840265433
 21
15.3051087199136
 31
0.0
  0
LINE
  5
DF
330
1F
100
AcDbEntity
  8
0-0
  6
JWW_DASHED1
 62
   120
370
     5
100
AcDbLine
 10
-759.484484026554
 20
-12.79539634488195
 30
0.0
 11
-721.4844840265536
 21
25.20460365512186
 31
0.0
  0
LINE
  5
E0
330
1F
100
AcDbEntity
  8
0-0
  6
JWW_DASHED1
 62
   120
370
     5
100
AcDbLine
 10
-759.484484026554
 20
-2.895901409720594
 30
0.0
 11
-721.4844840265501
 21
35.10409859028663
 31
0.0
  0
LINE
  5
E1
330
1F
100
AcDbEntity
  8
0-0
  6
JWW_DASHED1
 62
   120
370
     5
100
AcDbLine
 10
-759.484484026554
 20
7.003593525496186
 30
0.0
 11
-721.484484026557
 21
45.00359352549467
 31
0.0
  0
LINE
  5
E2
330
1F
100
AcDbEntity
  8
0-0
  6
JWW_DASHED1
 62
   120
370
     5
100
AcDbLine
 10
-759.484484026554
 20
16.90308846071808
 30
0.0
 11
-721.4844840265501
 21
54.90308846071848
 31
0.0
  0
LINE
  5
E3
330
1F
100
AcDbEntity
  8
0-0
  6
JWW_DASHED1
 62
   120
370
     5
100
AcDbLine
 10
-759.484484026554
 20
26.80258339587176
 30
0.0
 11
-721.4844840265467
 21
64.80258339588367
 31
0.0
  0
LINE
  5
E4
330
1F
100
AcDbEntity
  8
0-0
  6
JWW_DASHED1
 62
   120
370
     5
100
AcDbLine
 10
-759.484484026554
 20
36.7020783310975
 30
0.0
 11
-721.4844840265536
 21
74.7020783310915
 31
0.0
  0
LINE
  5
E5
330
1F
100
AcDbEntity
  8
0-0
  6
JWW_DASHED1
 62
   120
370
     5
100
AcDbLine
 10
-759.484484026554
 20
46.60157326631087
 30
0.0
 11
-721.4844840265467
 21
84.60157326631553
 31
0.0
  0
LINE
  5
E6
330
1F
100
AcDbEntity
  8
0-0
  6
JWW_DASHED1
 62
   120
370
     5
100
AcDbLine
 10
-759.484484026554
 20
56.50106820146668
 30
0.0
 11
-721.4844840265604
 21
94.50106820146495
 31
0.0
  0
LINE
  5
E7
330
1F
100
AcDbEntity
  8
0-0
  6
JWW_DASHED1
 62
   120
370
     5
100
AcDbLine
 10
-759.484484026554
 20
66.4005631366873
 30
0.0
 11
-721.4844840265536
 21
104.4005631366885
 31
0.0
  0
LINE
  5
E8
330
1F
100
AcDbEntity
  8
0-0
  6
JWW_DASHED1
 62
   120
370
     5
100
AcDbLine
 10
-759.484484026554
 20
76.30005807190152
 30
0.0
 11
-721.4844840265467
 21
114.3000580719121
 31
0.0
  0
LINE
  5
E9
330
1F
100
AcDbEntity
  8
0-0
  6
JWW_DASHED1
 62
   120
370
     5
100
AcDbLine
 10
-759.484484026554
 20
86.19955300706756
 30
0.0
 11
-721.484484026557
 21
124.1995530070618
 31
0.0
  0
LINE
  5
EA
330
1F
100
AcDbEntity
  8
0-0
  6
JWW_DASHED1
 62
   120
370
     5
100
AcDbLine
 10
-759.484484026554
 20
96.09904794228008
 30
0.0
 11
-721.4844840265501
 21
134.0990479422856
 31
0.0
  0
LINE
  5
EB
330
1F
100
AcDbEntity
  8
0-0
  6
JWW_DASHED1
 62
   120
370
     5
100
AcDbLine
 10
-759.484484026554
 20
105.9985428774986
 30
0.0
 11
-721.4844840265467
 21
143.9985428775032
 31
0.0
  0
LINE
  5
EC
330
1F
100
AcDbEntity
  8
0-0
  6
JWW_DASHED1
 62
   120
370
     5
100
AcDbLine
 10
-759.484484026554
 20
115.8980378126608
 30
0.0
 11
-721.4844840265536
 21
153.8980378126586
 31
0.0
  0
LINE
  5
ED
330
1F
100
AcDbEntity
  8
0-0
  6
JWW_DASHED1
 62
   120
370
     5
100
AcDbLine
 10
-759.484484026554
 20
125.7975327478814
 30
0.0
 11
-721.4844840265467
 21
163.7975327478822
 31
0.0
  0
LINE
  5
EE
330
1F
100
AcDbEntity
  8
0-0
  6
JWW_DASHED1
 62
   120
370
     5
100
AcDbLine
 10
-759.484484026554
 20
135.6970276830888
 30
0.0
 11
-721.484484026557
 21
173.6970276830905
 31
0.0
  0
LINE
  5
EF
330
1F
100
AcDbEntity
  8
0-0
  6
JWW_DASHED1
 62
   120
370
     5
100
AcDbLine
 10
-759.484484026554
 20
145.5965226182512
 30
0.0
 11
-721.4844840265536
 21
183.5965226182552
 31
0.0
  0
LINE
  5
F0
330
1F
100
AcDbEntity
  8
0-0
  6
JWW_DASHED1
 62
   120
370
     5
100
AcDbLine
 10
-759.484484026554
 20
155.4960175534733
 30
0.0
 11
-721.4844840265604
 21
193.4960175534635
 31
0.0
  0
LINE
  5
F1
330
1F
100
AcDbEntity
  8
0-0
  6
JWW_DASHED1
 62
   120
370
     5
100
AcDbLine
 10
-759.484484026554
 20
165.3955124886833
 30
0.0
 11
-721.4844840265536
 21
203.3955124886871
 31
0.0
  0
LINE
  5
F2
330
1F
100
AcDbEntity
  8
0-0
  6
JWW_DASHED1
 62
   120
370
     5
100
AcDbLine
 10
-759.484484026554
 20
175.2950074238519
 30
0.0
 11
-721.4844840265501
 21
213.2950074238521
 31
0.0
  0
LINE
  5
F3
330
1F
100
AcDbEntity
  8
0-0
  6
JWW_DASHED1
 62
   120
370
     5
100
AcDbLine
 10
-759.484484026554
 20
185.1945023590631
 30
0.0
 11
-721.4844840265604
 21
223.1945023590601
 31
0.0
  0
LINE
  5
F4
330
1F
100
AcDbEntity
  8
0-0
  6
JWW_DASHED1
 62
   120
370
     5
100
AcDbLine
 10
-759.484484026554
 20
195.0939972942837
 30
0.0
 11
-721.4844840265501
 21
233.0939972942841
 31
0.0
  0
LINE
  5
F5
330
1F
100
AcDbEntity
  8
0-0
  6
JWW_DASHED1
 62
   120
370
     5
100
AcDbLine
 10
-759.484484026554
 20
204.9934922294447
 30
0.0
 11
-721.4844840265467
 21
242.9934922294493
 31
0.0
  0
LINE
  5
F6
330
1F
100
AcDbEntity
  8
0-0
  6
JWW_DASHED1
 62
   120
370
     5
100
AcDbLine
 10
-759.484484026554
 20
214.8929871646593
 30
0.0
 11
-721.484484026557
 21
252.8929871646571
 31
0.0
  0
LINE
  5
F7
330
1F
100
AcDbEntity
  8
0-0
  6
JWW_DASHED1
 62
   120
370
     5
100
AcDbLine
 10
-759.484484026554
 20
224.7924820998774
 30
0.0
 11
-721.4844840265467
 21
262.7924820998812
 31
0.0
  0
LINE
  5
F8
330
1F
100
AcDbEntity
  8
0-0
  6
JWW_DASHED1
 62
   120
370
     5
100
AcDbLine
 10
-759.484484026554
 20
234.6919770350345
 30
0.0
 11
-721.4844840265467
 21
272.6919770350464
 31
0.0
  0
LINE
  5
F9
330
1F
100
AcDbEntity
  8
0-0
  6
JWW_DASHED1
 62
   120
370
     5
100
AcDbLine
 10
-759.484484026554
 20
244.5914719702521
 30
0.0
 11
-721.4844840265536
 21
282.5914719702542
 31
0.0
  0
LINE
  5
FA
330
1F
100
AcDbEntity
  8
0-0
  6
JWW_DASHED1
 62
   120
370
     5
100
AcDbLine
 10
-759.484484026554
 20
254.4909669054663
 30
0.0
 11
-721.4844840265467
 21
292.4909669054782
 31
0.0
  0
LINE
  5
FB
330
1F
100
AcDbEntity
  8
0-0
  6
JWW_DASHED1
 62
   120
370
     5
100
AcDbLine
 10
-759.484484026554
 20
264.3904618406358
 30
0.0
 11
-721.4844840265433
 21
302.390461840643
 31
0.0
  0
LINE
  5
FC
330
1F
100
AcDbEntity
  8
0-0
  6
JWW_DASHED1
 62
   120
370
     5
100
AcDbLine
 10
-759.484484026554
 20
274.2899567758456
 30
0.0
 11
-721.4844840265501
 21
312.2899567758512
 31
0.0
  0
LINE
  5
FD
330
1F
100
AcDbEntity
  8
0-0
  6
JWW_DASHED1
 62
   120
370
     5
100
AcDbLine
 10
-759.484484026554
 20
284.1894517110619
 30
0.0
 11
-721.4844840265604
 21
322.1894517110591
 31
0.0
  0
LINE
  5
FE
330
1F
100
AcDbEntity
  8
0-0
  6
JWW_DASHED1
 62
   120
370
     5
100
AcDbLine
 10
-759.484484026554
 20
294.0889466462237
 30
0.0
 11
-721.484484026557
 21
332.0889466462243
 31
0.0
  0
LINE
  5
FF
330
1F
100
AcDbEntity
  8
0-0
  6
JWW_DASHED1
 62
   120
370
     5
100
AcDbLine
 10
-759.484484026554
 20
303.9884415814469
 30
0.0
 11
-721.4844840265467
 21
341.9884415814479
 31
0.0
  0
LINE
  5
100
330
1F
100
AcDbEntity
  8
0-0
  6
JWW_DASHED1
 62
   120
370
     5
100
AcDbLine
 10
-759.484484026554
 20
313.8879365166625
 30
0.0
 11
-721.484484026557
 21
351.8879365166559
 31
0.0
  0
LINE
  5
101
330
1F
100
AcDbEntity
  8
0-0
  6
JWW_DASHED1
 62
   120
370
     5
100
AcDbLine
 10
-759.484484026554
 20
323.787431451818
 30
0.0
 11
-721.4844840265536
 21
361.7874314518209
 31
0.0
  0
LINE
  5
102
330
1F
100
AcDbEntity
  8
0-0
  6
JWW_DASHED1
 62
   120
370
     5
100
AcDbLine
 10
-759.484484026554
 20
333.6869263870369
 30
0.0
 11
-721.4844840265467
 21
371.6869263870449
 31
0.0
  0
LINE
  5
103
330
1F
100
AcDbEntity
  8
0-0
  6
JWW_DASHED1
 62
   120
370
     5
100
AcDbLine
 10
-759.484484026554
 20
343.5864213222297
 30
0.0
 11
-721.484484026557
 21
381.5864213222231
 31
0.0
  0
LINE
  5
104
330
1F
100
AcDbEntity
  8
0-0
  6
JWW_DASHED1
 62
   120
370
     5
100
AcDbLine
 10
-759.484484026554
 20
353.4859162574141
 30
0.0
 11
-721.4844840265536
 21
391.485916257418
 31
0.0
  0
LINE
  5
105
330
1F
100
AcDbEntity
  8
0-0
  6
JWW_DASHED1
 62
   120
370
     5
100
AcDbLine
 10
-759.484484026554
 20
363.3854111926296
 30
0.0
 11
-721.4844840265433
 21
401.385411192642
 31
0.0
  0
LINE
  5
106
330
1F
100
AcDbEntity
  8
0-0
  6
JWW_DASHED1
 62
   120
370
     5
100
AcDbLine
 10
-759.484484026554
 20
373.2849061277965
 30
0.0
 11
-721.484484026557
 21
411.284906127791
 31
0.0
  0
LINE
  5
107
330
1F
100
AcDbEntity
  8
0-0
  6
JWW_DASHED1
 62
   120
370
     5
100
AcDbLine
 10
-759.484484026554
 20
383.1844010630065
 30
0.0
 11
-721.4844840265501
 21
421.184401063015
 31
0.0
  0
LINE
  5
108
330
1F
100
AcDbEntity
  8
0-0
  6
JWW_DASHED1
 62
   120
370
     5
100
AcDbLine
 10
-759.484484026554
 20
393.083895998225
 30
0.0
 11
-721.484484026557
 21
431.0838959982228
 31
0.0
  0
LINE
  5
109
330
1F
100
AcDbEntity
  8
0-0
  6
JWW_DASHED1
 62
   120
370
     5
100
AcDbLine
 10
-759.484484026554
 20
402.9833909333931
 30
0.0
 11
-721.4844840265536
 21
440.983390933388
 31
0.0
  0
LINE
  5
10A
330
1F
100
AcDbEntity
  8
0-0
  6
JWW_DASHED1
 62
   120
370
     5
100
AcDbLine
 10
-759.484484026554
 20
412.882885868601
 30
0.0
 11
-721.4844840265467
 21
450.8828858686116
 31
0.0
  0
LINE
  5
10B
330
1F
100
AcDbEntity
  8
0-0
  6
JWW_DASHED1
 62
   120
370
     5
100
AcDbLine
 10
-759.484484026554
 20
422.7823808038258
 30
0.0
 11
-721.4844840265536
 21
460.7823808038199
 31
0.0
  0
LINE
  5
10C
330
1F
100
AcDbEntity
  8
0-0
  6
JWW_DASHED1
 62
   120
370
     5
100
AcDbLine
 10
-759.484484026554
 20
432.6818757389761
 30
0.0
 11
-721.4844840265536
 21
470.6818757389846
 31
0.0
  0
LINE
  5
10D
330
1F
100
AcDbEntity
  8
0-0
  6
JWW_DASHED1
 62
   120
370
     5
100
AcDbLine
 10
-759.484484026554
 20
442.5813706741959
 30
0.0
 11
-721.4844840265604
 21
480.5813706741929
 31
0.0
  0
LINE
  5
10E
330
1F
100
AcDbEntity
  8
0-0
  6
JWW_DASHED1
 62
   120
370
     5
100
AcDbLine
 10
-759.484484026554
 20
452.4808656094152
 30
0.0
 11
-721.4844840265536
 21
490.4808656094165
 31
0.0
  0
LINE
  5
10F
330
1F
100
AcDbEntity
  8
0-0
  6
JWW_DASHED1
 62
   120
370
     5
100
AcDbLine
 10
-759.484484026554
 20
462.380360544577
 30
0.0
 11
-721.4844840265501
 21
500.3803605445817
 31
0.0
  0
LINE
  5
110
330
1F
100
AcDbEntity
  8
0-0
  6
JWW_DASHED1
 62
   120
370
     5
100
AcDbLine
 10
-759.484484026554
 20
472.2798554797955
 30
0.0
 11
-721.484484026557
 21
510.2798554797899
 31
0.0
  0
LINE
  5
111
330
1F
100
AcDbEntity
  8
0-0
  6
JWW_DASHED1
 62
   120
370
     5
100
AcDbLine
 10
-759.484484026554
 20
482.179350415008
 30
0.0
 11
-721.4844840265501
 21
520.1793504150133
 31
0.0
  0
LINE
  5
112
330
1F
100
AcDbEntity
  8
0-0
  6
JWW_DASHED1
 62
   120
370
     5
100
AcDbLine
 10
-759.484484026554
 20
492.0788453501698
 30
0.0
 11
-721.4844840265467
 21
530.0788453501788
 31
0.0
  0
LINE
  5
113
330
1F
100
AcDbEntity
  8
0-0
  6
JWW_DASHED1
 62
   120
370
     5
100
AcDbLine
 10
-759.484484026554
 20
501.9783402853895
 30
0.0
 11
-721.4844840265536
 21
539.9783402853866
 31
0.0
  0
LINE
  5
114
330
1F
100
AcDbEntity
  8
0-0
  6
JWW_DASHED1
 62
   120
370
     5
100
AcDbLine
 10
-759.484484026554
 20
511.8778352206083
 30
0.0
 11
-721.4844840265467
 21
549.8778352206106
 31
0.0
  0
LINE
  5
115
330
1F
100
AcDbEntity
  8
0-0
  6
JWW_DASHED1
 62
   120
370
     5
100
AcDbLine
 10
-759.484484026554
 20
521.7773301557601
 30
0.0
 11
-721.4844840265467
 21
559.7773301557753
 31
0.0
  0
LINE
  5
116
330
1F
100
AcDbEntity
  8
0-0
  6
JWW_DASHED1
 62
   120
370
     5
100
AcDbLine
 10
-759.484484026554
 20
531.6768250909796
 30
0.0
 11
-721.4844840265536
 21
569.6768250909836
 31
0.0
  0
LINE
  5
117
330
1F
100
AcDbEntity
  8
0-0
  6
JWW_DASHED1
 62
   120
370
     5
100
AcDbLine
 10
-759.484484026554
 20
541.5763200261987
 30
0.0
 11
-721.4844840265467
 21
579.5763200262077
 31
0.0
  0
LINE
  5
118
330
1F
100
AcDbEntity
  8
0-0
  6
JWW_DASHED1
 62
   120
370
     5
100
AcDbLine
 10
-759.484484026554
 20
551.4758149613577
 30
0.0
 11
-721.4844840265433
 21
589.4758149613702
 31
0.0
  0
LINE
  5
119
330
1F
100
AcDbEntity
  8
0-0
  6
JWW_DASHED1
 62
   120
370
     5
100
AcDbLine
 10
-759.484484026554
 20
561.3753098965794
 30
0.0
 11
-721.4844840265501
 21
599.3753098965805
 31
0.0
  0
LINE
  5
11A
330
1F
100
AcDbEntity
  8
0-0
  6
JWW_DASHED1
 62
   120
370
     5
100
AcDbLine
 10
-759.484484026554
 20
571.2748048317915
 30
0.0
 11
-721.4844840265604
 21
609.2748048317885
 31
0.0
  0
LINE
  5
11B
330
1F
100
AcDbEntity
  8
0-0
  6
JWW_DASHED1
 62
   120
370
     5
100
AcDbLine
 10
-759.484484026554
 20
581.1742997669588
 30
0.0
 11
-721.4844840265536
 21
619.1742997669537
 31
0.0
  0
LINE
  5
11C
330
1F
100
AcDbEntity
  8
0-0
  6
JWW_DASHED1
 62
   120
370
     5
100
AcDbLine
 10
-759.484484026554
 20
591.0737947021735
 30
0.0
 11
-721.4844840265467
 21
629.0737947021772
 31
0.0
  0
LINE
  5
11D
330
1F
100
AcDbEntity
  8
0-0
  6
JWW_DASHED1
 62
   120
370
     5
100
AcDbLine
 10
-759.484484026554
 20
600.9732896373849
 30
0.0
 11
-721.484484026557
 21
638.9732896373855
 31
0.0
  0
LINE
  5
11E
330
1F
100
AcDbEntity
  8
0-0
  6
JWW_DASHED1
 62
   120
370
     5
100
AcDbLine
 10
-759.484484026554
 20
610.872784572549
 30
0.0
 11
-721.4844840265536
 21
648.8727845725499
 31
0.0
  0
LINE
  5
11F
330
1F
100
AcDbEntity
  8
0-0
  6
JWW_DASHED1
 62
   120
370
     5
100
AcDbLine
 10
-759.484484026554
 20
620.7722795077631
 30
0.0
 11
-721.4844840265467
 21
658.7722795077743
 31
0.0
  0
LINE
  5
120
330
1F
100
AcDbEntity
  8
0-0
  6
JWW_DASHED1
 62
   120
370
     5
100
AcDbLine
 10
-759.484484026554
 20
630.6717744429804
 30
0.0
 11
-721.4844840265536
 21
668.6717744429826
 31
0.0
  0
LINE
  5
121
330
1F
100
AcDbEntity
  8
0-0
  6
JWW_DASHED1
 62
   120
370
     5
100
AcDbLine
 10
-759.484484026554
 20
640.5712693781427
 30
0.0
 11
-721.4844840265501
 21
678.5712693781473
 31
0.0
  0
LINE
  5
122
330
1F
100
AcDbEntity
  8
0-0
  6
JWW_DASHED1
 62
   120
370
     5
100
AcDbLine
 10
-759.484484026554
 20
650.4707643133637
 30
0.0
 11
-721.4844840265433
 21
688.4707643133708
 31
0.0
  0
LINE
  5
123
330
1F
100
AcDbEntity
  8
0-0
  6
JWW_DASHED1
 62
   120
370
     5
100
AcDbLine
 10
-759.484484026554
 20
660.3702592485707
 30
0.0
 11
-721.4844840265536
 21
698.3702592485791
 31
0.0
  0
LINE
  5
124
330
1F
100
AcDbEntity
  8
0-0
  6
JWW_DASHED1
 62
   120
370
     5
100
AcDbLine
 10
-759.484484026554
 20
670.2697541837425
 30
0.0
 11
-721.4844840265467
 21
708.2697541837443
 31
0.0
  0
LINE
  5
125
330
1F
100
AcDbEntity
  8
0-0
  6
JWW_DASHED1
 62
   120
370
     5
100
AcDbLine
 10
-759.484484026554
 20
680.1692491189586
 30
0.0
 11
-721.484484026557
 21
718.1692491189516
 31
0.0
  0
LINE
  5
126
330
1F
100
AcDbEntity
  8
0-0
  6
JWW_DASHED1
 62
   120
370
     5
100
AcDbLine
 10
-759.484484026554
 20
690.0687440541752
 30
0.0
 11
-721.4844840265467
 21
728.0687440541762
 31
0.0
  0
LINE
  5
127
330
1F
100
AcDbEntity
  8
0-0
  6
JWW_DASHED1
 62
   120
370
     5
100
AcDbLine
 10
-759.484484026554
 20
699.9682389893329
 30
0.0
 11
-721.4844840265467
 21
737.968238989341
 31
0.0
  0
LINE
  5
128
330
1F
100
AcDbEntity
  8
0-0
  6
JWW_DASHED1
 62
   120
370
     5
100
AcDbLine
 10
-759.484484026554
 20
709.8677339245522
 30
0.0
 11
-721.4844840265536
 21
747.8677339245493
 31
0.0
  0
LINE
  5
129
330
1F
100
AcDbEntity
  8
0-0
  6
JWW_DASHED1
 62
   120
370
     5
100
AcDbLine
 10
-759.484484026554
 20
719.7672288597648
 30
0.0
 11
-721.4844840265467
 21
757.7672288597729
 31
0.0
  0
LINE
  5
12A
330
1F
100
AcDbEntity
  8
0-0
  6
JWW_DASHED1
 62
   120
370
     5
100
AcDbLine
 10
-759.484484026554
 20
729.6667237949247
 30
0.0
 11
-721.4844840265604
 21
767.6667237949223
 31
0.0
  0
LINE
  5
12B
330
1F
100
AcDbEntity
  8
0-0
  6
JWW_DASHED1
 62
   120
370
     5
100
AcDbLine
 10
-759.484484026554
 20
739.566218730141
 30
0.0
 11
-721.4844840265536
 21
777.5662187301461
 31
0.0
  0
LINE
  5
12C
330
1F
100
AcDbEntity
  8
0-0
  6
JWW_DASHED1
 62
   120
370
     5
100
AcDbLine
 10
-759.484484026554
 20
749.4657136653584
 30
0.0
 11
-721.4844840265433
 21
787.4657136653699
 31
0.0
  0
LINE
  5
12D
330
1F
100
AcDbEntity
  8
0-0
  6
JWW_DASHED1
 62
   120
370
     5
100
AcDbLine
 10
-759.484484026554
 20
759.3652086005253
 30
0.0
 11
-721.484484026557
 21
797.3652086005187
 31
0.0
  0
LINE
  5
12E
330
1F
100
AcDbEntity
  8
0-0
  6
JWW_DASHED1
 62
   120
370
     5
100
AcDbLine
 10
-759.484484026554
 20
769.2647035357355
 30
0.0
 11
-721.4844840265501
 21
807.2647035357429
 31
0.0
  0
LINE
  5
12F
330
1F
100
AcDbEntity
  8
0-0
  6
JWW_DASHED1
 62
   120
370
     5
100
AcDbLine
 10
-759.484484026554
 20
779.164198470958
 30
0.0
 11
-721.4844840265399
 21
817.1641984709665
 31
0.0
  0
LINE
  5
130
330
1F
100
AcDbEntity
  8
0-0
  6
JWW_DASHED1
 62
   120
370
     5
100
AcDbLine
 10
-759.484484026554
 20
789.063693406122
 30
0.0
 11
-721.4844840265536
 21
827.0636934061159
 31
0.0
  0
LINE
  5
131
330
1F
100
AcDbEntity
  8
0-0
  6
JWW_DASHED1
 62
   120
370
     5
100
AcDbLine
 10
-759.484484026554
 20
798.9631883413293
 30
0.0
 11
-721.4844840265467
 21
836.96318834134
 31
0.0
  0
LINE
  5
132
330
1F
100
AcDbEntity
  8
0-0
  6
JWW_DASHED1
 62
   120
370
     5
100
AcDbLine
 10
-759.484484026554
 20
808.8626832765532
 30
0.0
 11
-721.4844840265536
 21
846.8626832765478
 31
0.0
  0
LINE
  5
133
330
1F
100
AcDbEntity
  8
0-0
  6
JWW_DASHED1
 62
   120
370
     5
100
AcDbLine
 10
-759.484484026554
 20
828.6616731469335
 30
0.0
 11
-721.4844840265536
 21
866.6616731469226
 31
0.0
  0
LINE
  5
134
330
1F
100
AcDbEntity
  8
0-0
  6
JWW_DASHED1
 62
   120
370
     5
100
AcDbLine
 10
-759.484484026554
 20
818.762178211715
 30
0.0
 11
-721.4844840265536
 21
856.7621782117087
 31
0.0
  0
LINE
  5
135
330
1F
100
AcDbEntity
  8
0-0
  6
JWW_DASHED1
 62
   120
370
     5
100
AcDbLine
 10
-759.484484026554
 20
-1012.644384799827
 30
0.0
 11
-721.484484026557
 21
-974.6443847998266
 31
0.0
  0
LINE
  5
136
330
1F
100
AcDbEntity
  8
0-0
  6
JWW_DASHED1
 62
   120
370
     5
100
AcDbLine
 10
-759.484484026554
 20
-1022.543879734991
 30
0.0
 11
-721.484484026557
 21
-984.5438797349918
 31
0.0
  0
LINE
  5
137
330
1F
100
AcDbEntity
  8
0-0
  6
JWW_DASHED1
 62
   120
370
     5
100
AcDbLine
 10
-759.484484026554
 20
-1032.443374670157
 30
0.0
 11
-721.484484026557
 21
-994.4433746701562
 31
0.0
  0
LINE
  5
138
330
1F
100
AcDbEntity
  8
0-0
  6
JWW_DASHED1
 62
   120
370
     5
100
AcDbLine
 10
-756.6838034473087
 20
-1039.542189026075
 30
0.0
 11
-721.484484026557
 21
-1004.342869605321
 31
0.0
  0
LINE
  5
139
330
1F
100
AcDbEntity
  8
0-0
  6
JWW_DASHED1
 62
   120
370
     5
100
AcDbLine
 10
-726.9853186418165
 20
-1039.542189026075
 30
0.0
 11
-721.484484026557
 21
-1034.041354410815
 31
0.0
  0
LINE
  5
13A
330
1F
100
AcDbEntity
  8
0-0
  6
JWW_DASHED1
 62
   120
370
     5
100
AcDbLine
 10
-746.7843085121444
 20
-1039.542189026075
 30
0.0
 11
-721.484484026557
 21
-1014.242364540486
 31
0.0
  0
LINE
  5
13B
330
1F
100
AcDbEntity
  8
0-0
  6
JWW_DASHED1
 62
   120
370
     5
100
AcDbLine
 10
-736.88481357698
 20
-1039.542189026075
 30
0.0
 11
-721.484484026557
 21
-1024.141859475651
 31
0.0
  0
LINE
  5
13C
330
1F
100
AcDbEntity
  8
0-0
  6
JWW_DASHED1
 62
   120
370
     5
100
AcDbLine
 10
-759.484484026554
 20
838.5611680821521
 30
0.0
 11
-721.4844840265536
 21
876.5611680821409
 31
0.0
  0
LINE
  5
13D
330
1F
100
AcDbEntity
  8
0-0
  6
JWW_DASHED1
 62
   120
370
     5
100
AcDbLine
 10
-759.484484026554
 20
848.4606630173706
 30
0.0
 11
-721.4844840265536
 21
886.4606630173595
 31
0.0
  0
LINE
  5
13E
330
1F
100
AcDbEntity
  8
0-0
  6
JWW_DASHED1
 62
   120
370
     5
100
AcDbLine
 10
-759.484484026554
 20
858.3601579525891
 30
0.0
 11
-721.4844840265536
 21
896.360157952578
 31
0.0
  0
LINE
  5
13F
330
1F
100
AcDbEntity
  8
0-0
  6
JWW_DASHED1
 62
   120
370
     5
100
AcDbLine
 10
-759.484484026554
 20
868.2596528878072
 30
0.0
 11
-721.4844840265536
 21
906.2596528877965
 31
0.0
  0
LINE
  5
140
330
1F
100
AcDbEntity
  8
0-0
  6
JWW_DASHED1
 62
   120
370
     5
100
AcDbLine
 10
-759.484484026554
 20
878.159147823026
 30
0.0
 11
-721.4844840265536
 21
916.1591478230148
 31
0.0
  0
LINE
  5
141
330
1F
100
AcDbEntity
  8
0-0
  6
Continuous
 62
    92
370
    13
100
AcDbLine
 10
-759.484484026554
 20
1135.457810973926
 30
0.0
 11
-759.484484026554
 21
-1047.542189026075
 31
0.0
  0
LINE
  5
142
330
1F
100
AcDbEntity
  8
0-0
  6
Continuous
 62
    92
370
    13
100
AcDbLine
 10
-721.4844840265536
 20
1135.457810973926
 30
0.0
 11
-721.4844840265536
 21
-1047.542189026075
 31
0.0
  0
LINE
  5
143
330
1F
100
AcDbEntity
  8
0-0
  6
Continuous
 62
     7
370
     9
100
AcDbLine
 10
-759.484484026554
 20
1127.457810973928
 30
0.0
 11
-721.4844840265536
 21
1127.457810973928
 31
0.0
  0
LINE
  5
144
330
1F
100
AcDbEntity
  8
0-0
  6
JWW_DASHED1
 62
   120
370
     5
100
AcDbLine
 10
-759.484484026554
 20
888.0586427582446
 30
0.0
 11
-721.4844840265536
 21
926.0586427582334
 31
0.0
  0
LINE
  5
145
330
1F
100
AcDbEntity
  8
0-0
  6
JWW_DASHED1
 62
   120
370
     5
100
AcDbLine
 10
-759.484484026554
 20
917.7571275639
 30
0.0
 11
-721.4844840265536
 21
955.7571275638887
 31
0.0
  0
LINE
  5
146
330
1F
100
AcDbEntity
  8
0-0
  6
JWW_DASHED1
 62
   120
370
     5
100
AcDbLine
 10
-759.484484026554
 20
897.9581376934631
 30
0.0
 11
-721.4844840265536
 21
935.9581376934519
 31
0.0
  0
LINE
  5
147
330
1F
100
AcDbEntity
  8
0-0
  6
JWW_DASHED1
 62
   120
370
     5
100
AcDbLine
 10
-759.484484026554
 20
907.8576326286814
 30
0.0
 11
-721.4844840265536
 21
945.8576326286704
 31
0.0
  0
LINE
  5
148
330
1F
100
AcDbEntity
  8
0-0
  6
JWW_DASHED1
 62
   120
370
     5
100
AcDbLine
 10
-759.484484026554
 20
937.556117434337
 30
0.0
 11
-721.4844840265536
 21
975.5561174343259
 31
0.0
  0
LINE
  5
149
330
1F
100
AcDbEntity
  8
0-0
  6
JWW_DASHED1
 62
   120
370
     5
100
AcDbLine
 10
-759.484484026554
 20
927.6566224991185
 30
0.0
 11
-721.4844840265536
 21
965.6566224991074
 31
0.0
  0
LINE
  5
14A
330
1F
100
AcDbEntity
  8
0-0
  6
JWW_DASHED1
 62
   120
370
     5
100
AcDbLine
 10
-759.484484026554
 20
957.3551073047739
 30
0.0
 11
-721.4844840265536
 21
995.3551073047628
 31
0.0
  0
LINE
  5
14B
330
1F
100
AcDbEntity
  8
0-0
  6
JWW_DASHED1
 62
   120
370
     5
100
AcDbLine
 10
-759.484484026554
 20
947.4556123695553
 30
0.0
 11
-721.4844840265536
 21
985.4556123695444
 31
0.0
  0
LINE
  5
14C
330
1F
100
AcDbEntity
  8
0-0
  6
JWW_DASHED1
 62
   120
370
     5
100
AcDbLine
 10
-759.484484026554
 20
977.154097175211
 30
0.0
 11
-721.4844840265536
 21
1015.1540971752
 31
0.0
  0
LINE
  5
14D
330
1F
100
AcDbEntity
  8
0-0
  6
JWW_DASHED1
 62
   120
370
     5
100
AcDbLine
 10
-759.484484026554
 20
967.2546022399924
 30
0.0
 11
-721.4844840265536
 21
1005.254602239981
 31
0.0
  0
LINE
  5
14E
330
1F
100
AcDbEntity
  8
0-0
  6
JWW_DASHED1
 62
   120
370
     5
100
AcDbLine
 10
-759.484484026554
 20
996.9530870456479
 30
0.0
 11
-721.4844840265536
 21
1034.953087045637
 31
0.0
  0
LINE
  5
14F
330
1F
100
AcDbEntity
  8
0-0
  6
JWW_DASHED1
 62
   120
370
     5
100
AcDbLine
 10
-759.484484026554
 20
987.0535921104293
 30
0.0
 11
-721.4844840265536
 21
1025.053592110418
 31
0.0
  0
LINE
  5
150
330
1F
100
AcDbEntity
  8
0-0
  6
JWW_DASHED1
 62
   120
370
     5
100
AcDbLine
 10
-759.484484026554
 20
1016.752076916085
 30
0.0
 11
-721.4844840265536
 21
1054.752076916074
 31
0.0
  0
LINE
  5
151
330
1F
100
AcDbEntity
  8
0-0
  6
JWW_DASHED1
 62
   120
370
     5
100
AcDbLine
 10
-759.484484026554
 20
1006.852581980866
 30
0.0
 11
-721.4844840265536
 21
1044.852581980855
 31
0.0
  0
LINE
  5
152
330
1F
100
AcDbEntity
  8
0-0
  6
JWW_DASHED1
 62
   120
370
     5
100
AcDbLine
 10
-759.484484026554
 20
1036.551066786522
 30
0.0
 11
-721.4844840265536
 21
1074.551066786511
 31
0.0
  0
LINE
  5
153
330
1F
100
AcDbEntity
  8
0-0
  6
JWW_DASHED1
 62
   120
370
     5
100
AcDbLine
 10
-759.484484026554
 20
1026.651571851303
 30
0.0
 11
-721.4844840265536
 21
1064.651571851292
 31
0.0
  0
LINE
  5
154
330
1F
100
AcDbEntity
  8
0-0
  6
JWW_DASHED1
 62
   120
370
     5
100
AcDbLine
 10
-759.484484026554
 20
1056.350056656959
 30
0.0
 11
-721.4844840265536
 21
1094.350056656947
 31
0.0
  0
LINE
  5
155
330
1F
100
AcDbEntity
  8
0-0
  6
JWW_DASHED1
 62
   120
370
     5
100
AcDbLine
 10
-759.484484026554
 20
1046.45056172174
 30
0.0
 11
-721.4844840265536
 21
1084.450561721729
 31
0.0
  0
LINE
  5
156
330
1F
100
AcDbEntity
  8
0-0
  6
JWW_DASHED1
 62
   120
370
     5
100
AcDbLine
 10
-759.484484026554
 20
1076.149046527396
 30
0.0
 11
-721.4844840265536
 21
1114.149046527385
 31
0.0
  0
LINE
  5
157
330
1F
100
AcDbEntity
  8
0-0
  6
JWW_DASHED1
 62
   120
370
     5
100
AcDbLine
 10
-759.484484026554
 20
1066.249551592177
 30
0.0
 11
-721.4844840265536
 21
1104.249551592166
 31
0.0
  0
LINE
  5
158
330
1F
100
AcDbEntity
  8
0-0
  6
JWW_DASHED1
 62
   120
370
     5
100
AcDbLine
 10
-759.484484026554
 20
1086.048541462614
 30
0.0
 11
-721.4844840265536
 21
1124.048541462603
 31
0.0
  0
LINE
  5
159
330
1F
100
AcDbEntity
  8
0-0
  6
JWW_DASHED1
 62
   120
370
     5
100
AcDbLine
 10
-759.484484026554
 20
1115.74702626827
 30
0.0
 11
-747.7736993208925
 21
1127.457810973928
 31
0.0
  0
LINE
  5
15A
330
1F
100
AcDbEntity
  8
0-0
  6
JWW_DASHED1
 62
   120
370
     5
100
AcDbLine
 10
-759.484484026554
 20
1095.948036397832
 30
0.0
 11
-727.9747094504496
 21
1127.457810973928
 31
0.0
  0
LINE
  5
15B
330
1F
100
AcDbEntity
  8
0-0
  6
JWW_DASHED1
 62
   120
370
     5
100
AcDbLine
 10
-759.484484026554
 20
1105.847531333051
 30
0.0
 11
-737.8742043856711
 21
1127.457810973928
 31
0.0
  0
LINE
  5
15C
330
1F
100
AcDbEntity
  8
0-0
  6
Continuous
 62
     7
370
     9
100
AcDbLine
 10
20.51551597344687
 20
-1039.542189026075
 30
0.0
 11
58.51551597344727
 21
-1039.542189026075
 31
0.0
  0
LINE
  5
15D
330
1F
100
AcDbEntity
  8
0-0
  6
JWW_DASHED1
 62
   120
370
     5
100
AcDbLine
 10
20.51551597344687
 20
-1002.744889864662
 30
0.0
 11
58.51551597344386
 21
-964.7448898646624
 31
0.0
  0
LINE
  5
15E
330
1F
100
AcDbEntity
  8
0-0
  6
JWW_DASHED1
 62
   120
370
     5
100
AcDbLine
 10
20.51551597344687
 20
-992.8453949295001
 30
0.0
 11
58.51551597344727
 21
-954.8453949294972
 31
0.0
  0
LINE
  5
15F
330
1F
100
AcDbEntity
  8
0-0
  6
JWW_DASHED1
 62
   120
370
     5
100
AcDbLine
 10
20.51551597344687
 20
-982.9458999942821
 30
0.0
 11
58.51551597345409
 21
-944.945899994273
 31
0.0
  0
LINE
  5
160
330
1F
100
AcDbEntity
  8
0-0
  6
JWW_DASHED1
 62
   120
370
     5
100
AcDbLine
 10
20.51551597344687
 20
-973.0464050590696
 30
0.0
 11
58.51551597344727
 21
-935.0464050590651
 31
0.0
  0
LINE
  5
161
330
1F
100
AcDbEntity
  8
0-0
  6
JWW_DASHED1
 62
   120
370
     5
100
AcDbLine
 10
20.51551597344687
 20
-963.146910123901
 30
0.0
 11
58.51551597345068
 21
-925.1469101238999
 31
0.0
  0
LINE
  5
162
330
1F
100
AcDbEntity
  8
0-0
  6
JWW_DASHED1
 62
   120
370
     5
100
AcDbLine
 10
20.51551597344687
 20
-953.2474151886865
 30
0.0
 11
58.51551597344045
 21
-915.2474151886921
 31
0.0
  0
LINE
  5
163
330
1F
100
AcDbEntity
  8
0-0
  6
JWW_DASHED1
 62
   120
370
     5
100
AcDbLine
 10
20.51551597344687
 20
-943.3479202534685
 30
0.0
 11
58.51551597345068
 21
-905.3479202534683
 31
0.0
  0
LINE
  5
164
330
1F
100
AcDbEntity
  8
0-0
  6
JWW_DASHED1
 62
   120
370
     5
100
AcDbLine
 10
20.51551597344687
 20
-933.4484253183073
 30
0.0
 11
58.51551597345409
 21
-895.4484253183035
 31
0.0
  0
LINE
  5
165
330
1F
100
AcDbEntity
  8
0-0
  6
JWW_DASHED1
 62
   120
370
     5
100
AcDbLine
 10
20.51551597344687
 20
-923.5489303830935
 30
0.0
 11
58.51551597344386
 21
-885.5489303830952
 31
0.0
  0
LINE
  5
166
330
1F
100
AcDbEntity
  8
0-0
  6
JWW_DASHED1
 62
   120
370
     5
100
AcDbLine
 10
20.51551597344687
 20
-913.6494354478763
 30
0.0
 11
58.51551597345409
 21
-875.649435447871
 31
0.0
  0
LINE
  5
167
330
1F
100
AcDbEntity
  8
0-0
  6
JWW_DASHED1
 62
   120
370
     5
100
AcDbLine
 10
20.51551597344687
 20
-903.7499405127137
 30
0.0
 11
58.51551597344045
 21
-865.7499405127222
 31
0.0
  0
LINE
  5
168
330
1F
100
AcDbEntity
  8
0-0
  6
JWW_DASHED1
 62
   120
370
     5
100
AcDbLine
 10
20.51551597344687
 20
-893.8504455774998
 30
0.0
 11
58.51551597344727
 21
-855.8504455774986
 31
0.0
  0
LINE
  5
169
330
1F
100
AcDbEntity
  8
0-0
  6
JWW_DASHED1
 62
   120
370
     5
100
AcDbLine
 10
20.51551597344687
 20
-883.9509506422861
 30
0.0
 11
58.51551597345409
 21
-845.9509506422746
 31
0.0
  0
LINE
  5
16A
330
1F
100
AcDbEntity
  8
0-0
  6
JWW_DASHED1
 62
   120
370
     5
100
AcDbLine
 10
20.51551597344687
 20
-874.0514557071226
 30
0.0
 11
58.51551597344045
 21
-836.0514557071256
 31
0.0
  0
LINE
  5
16B
330
1F
100
AcDbEntity
  8
0-0
  6
JWW_DASHED1
 62
   120
370
     5
100
AcDbLine
 10
20.51551597344687
 20
-864.1519607719105
 30
0.0
 11
58.51551597344727
 21
-826.1519607719016
 31
0.0
  0
LINE
  5
16C
330
1F
100
AcDbEntity
  8
0-0
  6
JWW_DASHED1
 62
   120
370
     5
100
AcDbLine
 10
20.51551597344687
 20
-854.2524658367372
 30
0.0
 11
58.51551597345409
 21
-816.2524658367366
 31
0.0
  0
LINE
  5
16D
330
1F
100
AcDbEntity
  8
0-0
  6
JWW_DASHED1
 62
   120
370
     5
100
AcDbLine
 10
20.51551597344687
 20
-844.3529709015221
 30
0.0
 11
58.51551597344386
 21
-806.3529709015281
 31
0.0
  0
LINE
  5
16E
330
1F
100
AcDbEntity
  8
0-0
  6
JWW_DASHED1
 62
   120
370
     5
100
AcDbLine
 10
20.51551597344687
 20
-834.4534759663101
 30
0.0
 11
58.51551597345068
 21
-796.453475966305
 31
0.0
  0
LINE
  5
16F
330
1F
100
AcDbEntity
  8
0-0
  6
JWW_DASHED1
 62
   120
370
     5
100
AcDbLine
 10
20.51551597344687
 20
-824.5539810311483
 30
0.0
 11
58.51551597345409
 21
-786.5539810311398
 31
0.0
  0
LINE
  5
170
330
1F
100
AcDbEntity
  8
0-0
  6
JWW_DASHED1
 62
   120
370
     5
100
AcDbLine
 10
20.51551597344687
 20
-814.6544860959281
 30
0.0
 11
58.51551597344727
 21
-776.6544860959319
 31
0.0
  0
LINE
  5
171
330
1F
100
AcDbEntity
  8
0-0
  6
JWW_DASHED1
 62
   120
370
     5
100
AcDbLine
 10
20.51551597344687
 20
-804.7549911607168
 30
0.0
 11
58.51551597345409
 21
-766.7549911607078
 31
0.0
  0
LINE
  5
172
330
1F
100
AcDbEntity
  8
0-0
  6
JWW_DASHED1
 62
   120
370
     5
100
AcDbLine
 10
20.51551597344687
 20
-794.8554962255533
 30
0.0
 11
58.51551597344045
 21
-756.8554962255585
 31
0.0
  0
LINE
  5
173
330
1F
100
AcDbEntity
  8
0-0
  6
JWW_DASHED1
 62
   120
370
     5
100
AcDbLine
 10
20.51551597344687
 20
-784.9560012903391
 30
0.0
 11
58.51551597344727
 21
-746.9560012903348
 31
0.0
  0
LINE
  5
174
330
1F
100
AcDbEntity
  8
0-0
  6
JWW_DASHED1
 62
   120
370
     5
100
AcDbLine
 10
20.51551597344687
 20
-775.056506355124
 30
0.0
 11
58.51551597344045
 21
-737.0565063551267
 31
0.0
  0
LINE
  5
175
330
1F
100
AcDbEntity
  8
0-0
  6
JWW_DASHED1
 62
   120
370
     5
100
AcDbLine
 10
20.51551597344687
 20
-765.1570114199596
 30
0.0
 11
58.51551597344386
 21
-727.1570114199618
 31
0.0
  0
LINE
  5
176
330
1F
100
AcDbEntity
  8
0-0
  6
JWW_DASHED1
 62
   120
370
     5
100
AcDbLine
 10
20.51551597344687
 20
-755.257516484745
 30
0.0
 11
58.51551597345068
 21
-717.2575164847378
 31
0.0
  0
LINE
  5
177
330
1F
100
AcDbEntity
  8
0-0
  6
JWW_DASHED1
 62
   120
370
     5
100
AcDbLine
 10
20.51551597344687
 20
-745.3580215495283
 30
0.0
 11
58.51551597344386
 21
-707.3580215495296
 31
0.0
  0
LINE
  5
178
330
1F
100
AcDbEntity
  8
0-0
  6
JWW_DASHED1
 62
   120
370
     5
100
AcDbLine
 10
20.51551597344687
 20
-735.4585266143588
 30
0.0
 11
58.51551597344727
 21
-697.4585266143648
 31
0.0
  0
LINE
  5
179
330
1F
100
AcDbEntity
  8
0-0
  6
JWW_DASHED1
 62
   120
370
     5
100
AcDbLine
 10
20.51551597344687
 20
-725.5590316791522
 30
0.0
 11
58.51551597345409
 21
-687.5590316791407
 31
0.0
  0
LINE
  5
17A
330
1F
100
AcDbEntity
  8
0-0
  6
JWW_DASHED1
 62
   120
370
     5
100
AcDbLine
 10
20.51551597344687
 20
-715.6595367439273
 30
0.0
 11
58.51551597344727
 21
-677.6595367439329
 31
0.0
  0
LINE
  5
17B
330
1F
100
AcDbEntity
  8
0-0
  6
JWW_DASHED1
 62
   120
370
     5
100
AcDbLine
 10
20.51551597344687
 20
-705.7600418087694
 30
0.0
 11
58.51551597344727
 21
-667.7600418087677
 31
0.0
  0
LINE
  5
17C
330
1F
100
AcDbEntity
  8
0-0
  6
JWW_DASHED1
 62
   120
370
     5
100
AcDbLine
 10
20.51551597344687
 20
-695.8605468735552
 30
0.0
 11
58.51551597345409
 21
-657.8605468735437
 31
0.0
  0
LINE
  5
17D
330
1F
100
AcDbEntity
  8
0-0
  6
JWW_DASHED1
 62
   120
370
     5
100
AcDbLine
 10
20.51551597344687
 20
-685.9610519383372
 30
0.0
 11
58.51551597344727
 21
-647.9610519383359
 31
0.0
  0
LINE
  5
17E
330
1F
100
AcDbEntity
  8
0-0
  6
JWW_DASHED1
 62
   120
370
     5
100
AcDbLine
 10
20.51551597344687
 20
-676.0615570031762
 30
0.0
 11
58.51551597345068
 21
-638.0615570031707
 31
0.0
  0
LINE
  5
17F
330
1F
100
AcDbEntity
  8
0-0
  6
JWW_DASHED1
 62
   120
370
     5
100
AcDbLine
 10
20.51551597344687
 20
-666.1620620679564
 30
0.0
 11
58.51551597344386
 21
-628.1620620679629
 31
0.0
  0
LINE
  5
180
330
1F
100
AcDbEntity
  8
0-0
  6
JWW_DASHED1
 62
   120
370
     5
100
AcDbLine
 10
20.51551597344687
 20
-656.2625671327439
 30
0.0
 11
58.51551597345068
 21
-618.2625671327388
 31
0.0
  0
LINE
  5
181
330
1F
100
AcDbEntity
  8
0-0
  6
JWW_DASHED1
 62
   120
370
     5
100
AcDbLine
 10
20.51551597344687
 20
-646.3630721975826
 30
0.0
 11
58.51551597345409
 21
-608.3630721975736
 31
0.0
  0
LINE
  5
182
330
1F
100
AcDbEntity
  8
0-0
  6
JWW_DASHED1
 62
   120
370
     5
100
AcDbLine
 10
20.51551597344687
 20
-636.4635772623628
 30
0.0
 11
58.51551597344727
 21
-598.4635772623658
 31
0.0
  0
LINE
  5
183
330
1F
100
AcDbEntity
  8
0-0
  6
JWW_DASHED1
 62
   120
370
     5
100
AcDbLine
 10
20.51551597344687
 20
-626.5640823271431
 30
0.0
 11
58.51551597345409
 21
-588.5640823271423
 31
0.0
  0
LINE
  5
184
330
1F
100
AcDbEntity
  8
0-0
  6
JWW_DASHED1
 62
   120
370
     5
100
AcDbLine
 10
20.51551597344687
 20
-616.6645873919906
 30
0.0
 11
58.51551597344045
 21
-578.6645873919928
 31
0.0
  0
LINE
  5
185
330
1F
100
AcDbEntity
  8
0-0
  6
JWW_DASHED1
 62
   120
370
     5
100
AcDbLine
 10
20.51551597344687
 20
-606.7650924567735
 30
0.0
 11
58.51551597344727
 21
-568.7650924567688
 31
0.0
  0
LINE
  5
186
330
1F
100
AcDbEntity
  8
0-0
  6
JWW_DASHED1
 62
   120
370
     5
100
AcDbLine
 10
20.51551597344687
 20
-596.8655975215537
 30
0.0
 11
58.51551597345409
 21
-558.8655975215447
 31
0.0
  0
LINE
  5
187
330
1F
100
AcDbEntity
  8
0-0
  6
JWW_DASHED1
 62
   120
370
     5
100
AcDbLine
 10
20.51551597344687
 20
-586.9661025863936
 30
0.0
 11
58.51551597344045
 21
-548.9661025863958
 31
0.0
  0
LINE
  5
188
330
1F
100
AcDbEntity
  8
0-0
  6
JWW_DASHED1
 62
   120
370
     5
100
AcDbLine
 10
20.51551597344687
 20
-577.0666076511739
 30
0.0
 11
58.51551597345068
 21
-539.0666076511717
 31
0.0
  0
LINE
  5
189
330
1F
100
AcDbEntity
  8
0-0
  6
JWW_DASHED1
 62
   120
370
     5
100
AcDbLine
 10
20.51551597344687
 20
-567.1671127159592
 30
0.0
 11
58.51551597344045
 21
-529.1671127159639
 31
0.0
  0
LINE
  5
18A
330
1F
100
AcDbEntity
  8
0-0
  6
JWW_DASHED1
 62
   120
370
     5
100
AcDbLine
 10
20.51551597344687
 20
-557.2676177807936
 30
0.0
 11
58.51551597344727
 21
-519.2676177807987
 31
0.0
  0
LINE
  5
18B
330
1F
100
AcDbEntity
  8
0-0
  6
JWW_DASHED1
 62
   120
370
     5
100
AcDbLine
 10
20.51551597344687
 20
-547.3681228455794
 30
0.0
 11
58.51551597345409
 21
-509.3681228455756
 31
0.0
  0
LINE
  5
18C
330
1F
100
AcDbEntity
  8
0-0
  6
JWW_DASHED1
 62
   120
370
     5
100
AcDbLine
 10
20.51551597344687
 20
-537.4686279103652
 30
0.0
 11
58.51551597344386
 21
-499.4686279103673
 31
0.0
  0
LINE
  5
18D
330
1F
100
AcDbEntity
  8
0-0
  6
JWW_DASHED1
 62
   120
370
     5
100
AcDbLine
 10
20.51551597344687
 20
-527.5691329752034
 30
0.0
 11
58.51551597344727
 21
-489.5691329752021
 31
0.0
  0
LINE
  5
18E
330
1F
100
AcDbEntity
  8
0-0
  6
JWW_DASHED1
 62
   120
370
     5
100
AcDbLine
 10
20.51551597344687
 20
-517.669638039984
 30
0.0
 11
58.51551597344045
 21
-479.6696380399939
 31
0.0
  0
LINE
  5
18F
330
1F
100
AcDbEntity
  8
0-0
  6
JWW_DASHED1
 62
   120
370
     5
100
AcDbLine
 10
20.51551597344687
 20
-507.7701431047715
 30
0.0
 11
58.51551597344727
 21
-469.7701431047702
 31
0.0
  0
LINE
  5
190
330
1F
100
AcDbEntity
  8
0-0
  6
JWW_DASHED1
 62
   120
370
     5
100
AcDbLine
 10
20.51551597344687
 20
-497.8706481696093
 30
0.0
 11
58.51551597345068
 21
-459.8706481696055
 31
0.0
  0
LINE
  5
191
330
1F
100
AcDbEntity
  8
0-0
  6
JWW_DASHED1
 62
   120
370
     5
100
AcDbLine
 10
20.51551597344687
 20
-487.9711532343959
 30
0.0
 11
58.51551597344045
 21
-449.9711532343968
 31
0.0
  0
LINE
  5
192
330
1F
100
AcDbEntity
  8
0-0
  6
JWW_DASHED1
 62
   120
370
     5
100
AcDbLine
 10
20.51551597344687
 20
-478.0716582991753
 30
0.0
 11
58.51551597344727
 21
-440.0716582991732
 31
0.0
  0
LINE
  5
193
330
1F
100
AcDbEntity
  8
0-0
  6
JWW_DASHED1
 62
   120
370
     5
100
AcDbLine
 10
20.51551597344687
 20
-468.1721633640092
 30
0.0
 11
58.51551597345409
 21
-430.1721633640084
 31
0.0
  0
LINE
  5
194
330
1F
100
AcDbEntity
  8
0-0
  6
JWW_DASHED1
 62
   120
370
     5
100
AcDbLine
 10
20.51551597344687
 20
-458.2726684287942
 30
0.0
 11
58.51551597344386
 21
-420.2726684288006
 31
0.0
  0
LINE
  5
195
330
1F
100
AcDbEntity
  8
0-0
  6
JWW_DASHED1
 62
   120
370
     5
100
AcDbLine
 10
20.51551597344687
 20
-448.3731734935812
 30
0.0
 11
58.51551597345068
 21
-410.3731734935766
 31
0.0
  0
LINE
  5
196
330
1F
100
AcDbEntity
  8
0-0
  6
JWW_DASHED1
 62
   120
370
     5
100
AcDbLine
 10
20.51551597344687
 20
-438.4736785584203
 30
0.0
 11
58.51551597345409
 21
-400.4736785584114
 31
0.0
  0
LINE
  5
197
330
1F
100
AcDbEntity
  8
0-0
  6
JWW_DASHED1
 62
   120
370
     5
100
AcDbLine
 10
20.51551597344687
 20
-428.5741836232006
 30
0.0
 11
58.51551597344727
 21
-390.5741836232036
 31
0.0
  0
LINE
  5
198
330
1F
100
AcDbEntity
  8
0-0
  6
JWW_DASHED1
 62
   120
370
     5
100
AcDbLine
 10
20.51551597344687
 20
-418.6746886879885
 30
0.0
 11
58.51551597345409
 21
-380.6746886879795
 31
0.0
  0
LINE
  5
199
330
1F
100
AcDbEntity
  8
0-0
  6
JWW_DASHED1
 62
   120
370
     5
100
AcDbLine
 10
20.51551597344687
 20
-408.7751937528207
 30
0.0
 11
58.51551597344727
 21
-370.775193752825
 31
0.0
  0
LINE
  5
19A
330
1F
100
AcDbEntity
  8
0-0
  6
JWW_DASHED1
 62
   120
370
     5
100
AcDbLine
 10
20.51551597344687
 20
-398.8756988176103
 30
0.0
 11
58.51551597344727
 21
-360.8756988176065
 31
0.0
  0
LINE
  5
19B
330
1F
100
AcDbEntity
  8
0-0
  6
JWW_DASHED1
 62
   120
370
     5
100
AcDbLine
 10
20.51551597344687
 20
-388.9762038823965
 30
0.0
 11
58.51551597344045
 21
-350.9762038823982
 31
0.0
  0
LINE
  5
19C
330
1F
100
AcDbEntity
  8
0-0
  6
JWW_DASHED1
 62
   120
370
     5
100
AcDbLine
 10
20.51551597344687
 20
-379.0767089472322
 30
0.0
 11
58.51551597344386
 21
-341.0767089472335
 31
0.0
  0
LINE
  5
19D
330
1F
100
AcDbEntity
  8
0-0
  6
JWW_DASHED1
 62
   120
370
     5
100
AcDbLine
 10
20.51551597344687
 20
-369.1772140120099
 30
0.0
 11
58.51551597345068
 21
-331.1772140120095
 31
0.0
  0
LINE
  5
19E
330
1F
100
AcDbEntity
  8
0-0
  6
JWW_DASHED1
 62
   120
370
     5
100
AcDbLine
 10
20.51551597344687
 20
-359.2777190767952
 30
0.0
 11
58.51551597344386
 21
-321.2777190768016
 31
0.0
  0
LINE
  5
19F
330
1F
100
AcDbEntity
  8
0-0
  6
JWW_DASHED1
 62
   120
370
     5
100
AcDbLine
 10
20.51551597344687
 20
-349.3782241416313
 30
0.0
 11
58.51551597344727
 21
-311.3782241416365
 31
0.0
  0
LINE
  5
1A0
330
1F
100
AcDbEntity
  8
0-0
  6
JWW_DASHED1
 62
   120
370
     5
100
AcDbLine
 10
20.51551597344687
 20
-339.4787292064231
 30
0.0
 11
58.51551597345409
 21
-301.4787292064124
 31
0.0
  0
LINE
  5
1A1
330
1F
100
AcDbEntity
  8
0-0
  6
JWW_DASHED1
 62
   120
370
     5
100
AcDbLine
 10
20.51551597344687
 20
-329.5792342711994
 30
0.0
 11
58.51551597344727
 21
-291.5792342712046
 31
0.0
  0
LINE
  5
1A2
330
1F
100
AcDbEntity
  8
0-0
  6
JWW_DASHED1
 62
   120
370
     5
100
AcDbLine
 10
20.51551597344687
 20
-319.6797393360415
 30
0.0
 11
58.51551597344727
 21
-281.6797393360394
 31
0.0
  0
LINE
  5
1A3
330
1F
100
AcDbEntity
  8
0-0
  6
JWW_DASHED1
 62
   120
370
     5
100
AcDbLine
 10
20.51551597344687
 20
-309.7802444008281
 30
0.0
 11
58.51551597345409
 21
-271.7802444008154
 31
0.0
  0
LINE
  5
1A4
330
1F
100
AcDbEntity
  8
0-0
  6
JWW_DASHED1
 62
   120
370
     5
100
AcDbLine
 10
20.51551597344687
 20
-299.8807494656097
 30
0.0
 11
58.51551597344727
 21
-261.8807494656076
 31
0.0
  0
LINE
  5
1A5
330
1F
100
AcDbEntity
  8
0-0
  6
JWW_DASHED1
 62
   120
370
     5
100
AcDbLine
 10
20.51551597344687
 20
-289.9812545304479
 30
0.0
 11
58.51551597345068
 21
-251.9812545304424
 31
0.0
  0
LINE
  5
1A6
330
1F
100
AcDbEntity
  8
0-0
  6
JWW_DASHED1
 62
   120
370
     5
100
AcDbLine
 10
20.51551597344687
 20
-280.0817595952281
 30
0.0
 11
58.51551597344386
 21
-242.0817595952345
 31
0.0
  0
LINE
  5
1A7
330
1F
100
AcDbEntity
  8
0-0
  6
JWW_DASHED1
 62
   120
370
     5
100
AcDbLine
 10
20.51551597344687
 20
-270.1822646600442
 30
0.0
 11
58.51551597344727
 21
-232.1822646600403
 31
0.0
  0
LINE
  5
1A8
330
1F
100
AcDbEntity
  8
0-0
  6
JWW_DASHED1
 62
   120
370
     5
100
AcDbLine
 10
20.51551597344687
 20
-260.2827697248466
 30
0.0
 11
58.51551597345409
 21
-222.2827697248457
 31
0.0
  0
LINE
  5
1A9
330
1F
100
AcDbEntity
  8
0-0
  6
JWW_DASHED1
 62
   120
370
     5
100
AcDbLine
 10
20.51551597344687
 20
-250.3832747896336
 30
0.0
 11
58.51551597344727
 21
-212.3832747896379
 31
0.0
  0
LINE
  5
1AA
330
1F
100
AcDbEntity
  8
0-0
  6
JWW_DASHED1
 62
   120
370
     5
100
AcDbLine
 10
20.51551597344687
 20
-240.4837798544437
 30
0.0
 11
58.51551597345068
 21
-202.4837798544433
 31
0.0
  0
LINE
  5
1AB
330
1F
100
AcDbEntity
  8
0-0
  6
JWW_DASHED1
 62
   120
370
     5
100
AcDbLine
 10
20.51551597344687
 20
-230.5842849192614
 30
0.0
 11
58.51551597344045
 21
-192.5842849192645
 31
0.0
  0
LINE
  5
1AC
330
1F
100
AcDbEntity
  8
0-0
  6
JWW_DASHED1
 62
   120
370
     5
100
AcDbLine
 10
20.51551597344687
 20
-220.6847899840463
 30
0.0
 11
58.51551597344727
 21
-182.6847899840404
 31
0.0
  0
LINE
  5
1AD
330
1F
100
AcDbEntity
  8
0-0
  6
JWW_DASHED1
 62
   120
370
     5
100
AcDbLine
 10
20.51551597344687
 20
-210.7852950488765
 30
0.0
 11
58.51551597345068
 21
-172.7852950488761
 31
0.0
  0
LINE
  5
1AE
330
1F
100
AcDbEntity
  8
0-0
  6
JWW_DASHED1
 62
   120
370
     5
100
AcDbLine
 10
20.51551597344687
 20
-200.8858001136665
 30
0.0
 11
58.51551597344045
 21
-162.8858001136674
 31
0.0
  0
LINE
  5
1AF
330
1F
100
AcDbEntity
  8
0-0
  6
JWW_DASHED1
 62
   120
370
     5
100
AcDbLine
 10
20.51551597344687
 20
-190.9863051784446
 30
0.0
 11
58.51551597345068
 21
-152.9863051784442
 31
0.0
  0
LINE
  5
1B0
330
1F
100
AcDbEntity
  8
0-0
  6
JWW_DASHED1
 62
   120
370
     5
100
AcDbLine
 10
20.51551597344687
 20
-181.0868102432829
 30
0.0
 11
58.51551597345409
 21
-143.086810243279
 31
0.0
  0
LINE
  5
1B1
330
1F
100
AcDbEntity
  8
0-0
  6
JWW_DASHED1
 62
   120
370
     5
100
AcDbLine
 10
20.51551597344687
 20
-171.1873153080682
 30
0.0
 11
58.51551597344386
 21
-133.1873153080712
 31
0.0
  0
LINE
  5
1B2
330
1F
100
AcDbEntity
  8
0-0
  6
JWW_DASHED1
 62
   120
370
     5
100
AcDbLine
 10
20.51551597344687
 20
-161.287820372851
 30
0.0
 11
58.51551597345409
 21
-123.2878203728472
 31
0.0
  0
LINE
  5
1B3
330
1F
100
AcDbEntity
  8
0-0
  6
JWW_DASHED1
 62
   120
370
     5
100
AcDbLine
 10
20.51551597344687
 20
-151.3883254376926
 30
0.0
 11
58.51551597345409
 21
-113.388325437682
 31
0.0
  0
LINE
  5
1B4
330
1F
100
AcDbEntity
  8
0-0
  6
JWW_DASHED1
 62
   120
370
     5
100
AcDbLine
 10
20.51551597344687
 20
-141.4888305024746
 30
0.0
 11
58.51551597344727
 21
-103.4888305024742
 31
0.0
  0
LINE
  5
1B5
330
1F
100
AcDbEntity
  8
0-0
  6
JWW_DASHED1
 62
   120
370
     5
100
AcDbLine
 10
20.51551597344687
 20
-131.5893355672608
 30
0.0
 11
58.51551597345409
 21
-93.58933556725013
 31
0.0
  0
LINE
  5
1B6
330
1F
100
AcDbEntity
  8
0-0
  6
JWW_DASHED1
 62
   120
370
     5
100
AcDbLine
 10
20.51551597344687
 20
-121.6898406320939
 30
0.0
 11
58.51551597345068
 21
-83.68984063209346
 31
0.0
  0
LINE
  5
1B7
330
1F
100
AcDbEntity
  8
0-0
  6
JWW_DASHED1
 62
   120
370
     5
100
AcDbLine
 10
20.51551597344687
 20
-111.7903456968826
 30
0.0
 11
58.51551597345068
 21
-73.79034569687711
 31
0.0
  0
LINE
  5
1B8
330
1F
100
AcDbEntity
  8
0-0
  6
JWW_DASHED1
 62
   120
370
     5
100
AcDbLine
 10
20.51551597344687
 20
-101.8908507616663
 30
0.0
 11
58.51551597344045
 21
-63.89085076166928
 31
0.0
  0
LINE
  5
1B9
330
1F
100
AcDbEntity
  8
0-0
  6
JWW_DASHED1
 62
   120
370
     5
100
AcDbLine
 10
20.51551597344687
 20
-91.99135582649767
 30
0.0
 11
58.51551597344386
 21
-53.99135582650409
 31
0.0
  0
LINE
  5
1BA
330
1F
100
AcDbEntity
  8
0-0
  6
JWW_DASHED1
 62
   120
370
     5
100
AcDbLine
 10
20.51551597344687
 20
-82.09186089128174
 30
0.0
 11
58.51551597345409
 21
-44.09186089128006
 31
0.0
  0
LINE
  5
1BB
330
1F
100
AcDbEntity
  8
0-0
  6
JWW_DASHED1
 62
   120
370
     5
100
AcDbLine
 10
20.51551597344687
 20
-72.19236595606581
 30
0.0
 11
58.51551597344386
 21
-34.19236595607224
 31
0.0
  0
LINE
  5
1BC
330
1F
100
AcDbEntity
  8
0-0
  6
JWW_DASHED1
 62
   120
370
     5
100
AcDbLine
 10
20.51551597344687
 20
-62.29287102091213
 30
0.0
 11
58.51551597344727
 21
-24.29287102090704
 31
0.0
  0
LINE
  5
1BD
330
1F
100
AcDbEntity
  8
0-0
  6
JWW_DASHED1
 62
   120
370
     5
100
AcDbLine
 10
20.51551597344687
 20
-52.39337608569151
 30
0.0
 11
58.51551597345409
 21
-14.39337608568344
 31
0.0
  0
LINE
  5
1BE
330
1F
100
AcDbEntity
  8
0-0
  6
JWW_DASHED1
 62
   120
370
     5
100
AcDbLine
 10
20.51551597344687
 20
-42.49388115047218
 30
0.0
 11
58.51551597344727
 21
-4.49388115047519
 31
0.0
  0
LINE
  5
1BF
330
1F
100
AcDbEntity
  8
0-0
  6
JWW_DASHED1
 62
   120
370
     5
100
AcDbLine
 10
20.51551597344687
 20
-32.59438621531423
 30
0.0
 11
58.51551597344727
 21
5.405613784689578
 31
0.0
  0
LINE
  5
1C0
330
1F
100
AcDbEntity
  8
0-0
  6
JWW_DASHED1
 62
   120
370
     5
100
AcDbLine
 10
20.51551597344687
 20
-22.69489128009788
 30
0.0
 11
58.5155159734575
 21
15.3051087199136
 31
0.0
  0
LINE
  5
1C1
330
1F
100
AcDbEntity
  8
0-0
  6
JWW_DASHED1
 62
   120
370
     5
100
AcDbLine
 10
20.51551597344687
 20
-12.79539634488195
 30
0.0
 11
58.51551597344727
 21
25.20460365512186
 31
0.0
  0
LINE
  5
1C2
330
1F
100
AcDbEntity
  8
0-0
  6
JWW_DASHED1
 62
   120
370
     5
100
AcDbLine
 10
20.51551597344687
 20
-2.895901409720594
 30
0.0
 11
58.51551597345068
 21
35.10409859028663
 31
0.0
  0
LINE
  5
1C3
330
1F
100
AcDbEntity
  8
0-0
  6
JWW_DASHED1
 62
   120
370
     5
100
AcDbLine
 10
20.51551597344687
 20
7.003593525496186
 30
0.0
 11
58.51551597344386
 21
45.00359352549467
 31
0.0
  0
LINE
  5
1C4
330
1F
100
AcDbEntity
  8
0-0
  6
JWW_DASHED1
 62
   120
370
     5
100
AcDbLine
 10
20.51551597344687
 20
16.90308846071808
 30
0.0
 11
58.51551597345068
 21
54.90308846071848
 31
0.0
  0
LINE
  5
1C5
330
1F
100
AcDbEntity
  8
0-0
  6
JWW_DASHED1
 62
   120
370
     5
100
AcDbLine
 10
20.51551597344687
 20
26.80258339587176
 30
0.0
 11
58.51551597345409
 21
64.80258339588367
 31
0.0
  0
LINE
  5
1C6
330
1F
100
AcDbEntity
  8
0-0
  6
JWW_DASHED1
 62
   120
370
     5
100
AcDbLine
 10
20.51551597344687
 20
36.7020783310975
 30
0.0
 11
58.51551597344727
 21
74.7020783310915
 31
0.0
  0
LINE
  5
1C7
330
1F
100
AcDbEntity
  8
0-0
  6
JWW_DASHED1
 62
   120
370
     5
100
AcDbLine
 10
20.51551597344687
 20
46.60157326631087
 30
0.0
 11
58.51551597345409
 21
84.60157326631553
 31
0.0
  0
LINE
  5
1C8
330
1F
100
AcDbEntity
  8
0-0
  6
JWW_DASHED1
 62
   120
370
     5
100
AcDbLine
 10
20.51551597344687
 20
56.50106820146668
 30
0.0
 11
58.51551597344045
 21
94.50106820146495
 31
0.0
  0
LINE
  5
1C9
330
1F
100
AcDbEntity
  8
0-0
  6
JWW_DASHED1
 62
   120
370
     5
100
AcDbLine
 10
20.51551597344687
 20
66.4005631366873
 30
0.0
 11
58.51551597344727
 21
104.4005631366885
 31
0.0
  0
LINE
  5
1CA
330
1F
100
AcDbEntity
  8
0-0
  6
JWW_DASHED1
 62
   120
370
     5
100
AcDbLine
 10
20.51551597344687
 20
76.30005807190152
 30
0.0
 11
58.51551597345409
 21
114.3000580719121
 31
0.0
  0
LINE
  5
1CB
330
1F
100
AcDbEntity
  8
0-0
  6
JWW_DASHED1
 62
   120
370
     5
100
AcDbLine
 10
20.51551597344687
 20
86.19955300706756
 30
0.0
 11
58.51551597344386
 21
124.1995530070618
 31
0.0
  0
LINE
  5
1CC
330
1F
100
AcDbEntity
  8
0-0
  6
JWW_DASHED1
 62
   120
370
     5
100
AcDbLine
 10
20.51551597344687
 20
96.09904794228008
 30
0.0
 11
58.51551597345068
 21
134.0990479422856
 31
0.0
  0
LINE
  5
1CD
330
1F
100
AcDbEntity
  8
0-0
  6
JWW_DASHED1
 62
   120
370
     5
100
AcDbLine
 10
20.51551597344687
 20
105.9985428774986
 30
0.0
 11
58.51551597345409
 21
143.9985428775032
 31
0.0
  0
LINE
  5
1CE
330
1F
100
AcDbEntity
  8
0-0
  6
JWW_DASHED1
 62
   120
370
     5
100
AcDbLine
 10
20.51551597344687
 20
115.8980378126608
 30
0.0
 11
58.51551597344727
 21
153.8980378126586
 31
0.0
  0
LINE
  5
1CF
330
1F
100
AcDbEntity
  8
0-0
  6
JWW_DASHED1
 62
   120
370
     5
100
AcDbLine
 10
20.51551597344687
 20
125.7975327478814
 30
0.0
 11
58.51551597345409
 21
163.7975327478822
 31
0.0
  0
LINE
  5
1D0
330
1F
100
AcDbEntity
  8
0-0
  6
JWW_DASHED1
 62
   120
370
     5
100
AcDbLine
 10
20.51551597344687
 20
135.6970276830888
 30
0.0
 11
58.51551597344386
 21
173.6970276830905
 31
0.0
  0
LINE
  5
1D1
330
1F
100
AcDbEntity
  8
0-0
  6
JWW_DASHED1
 62
   120
370
     5
100
AcDbLine
 10
20.51551597344687
 20
145.5965226182512
 30
0.0
 11
58.51551597344727
 21
183.5965226182552
 31
0.0
  0
LINE
  5
1D2
330
1F
100
AcDbEntity
  8
0-0
  6
JWW_DASHED1
 62
   120
370
     5
100
AcDbLine
 10
20.51551597344687
 20
155.4960175534733
 30
0.0
 11
58.51551597344045
 21
193.4960175534635
 31
0.0
  0
LINE
  5
1D3
330
1F
100
AcDbEntity
  8
0-0
  6
JWW_DASHED1
 62
   120
370
     5
100
AcDbLine
 10
20.51551597344687
 20
165.3955124886833
 30
0.0
 11
58.51551597344727
 21
203.3955124886871
 31
0.0
  0
LINE
  5
1D4
330
1F
100
AcDbEntity
  8
0-0
  6
JWW_DASHED1
 62
   120
370
     5
100
AcDbLine
 10
20.51551597344687
 20
175.2950074238519
 30
0.0
 11
58.51551597345068
 21
213.2950074238521
 31
0.0
  0
LINE
  5
1D5
330
1F
100
AcDbEntity
  8
0-0
  6
JWW_DASHED1
 62
   120
370
     5
100
AcDbLine
 10
20.51551597344687
 20
185.1945023590631
 30
0.0
 11
58.51551597344045
 21
223.1945023590601
 31
0.0
  0
LINE
  5
1D6
330
1F
100
AcDbEntity
  8
0-0
  6
JWW_DASHED1
 62
   120
370
     5
100
AcDbLine
 10
20.51551597344687
 20
195.0939972942837
 30
0.0
 11
58.51551597345068
 21
233.0939972942841
 31
0.0
  0
LINE
  5
1D7
330
1F
100
AcDbEntity
  8
0-0
  6
JWW_DASHED1
 62
   120
370
     5
100
AcDbLine
 10
20.51551597344687
 20
204.9934922294447
 30
0.0
 11
58.51551597345409
 21
242.9934922294493
 31
0.0
  0
LINE
  5
1D8
330
1F
100
AcDbEntity
  8
0-0
  6
JWW_DASHED1
 62
   120
370
     5
100
AcDbLine
 10
20.51551597344687
 20
214.8929871646593
 30
0.0
 11
58.51551597344386
 21
252.8929871646571
 31
0.0
  0
LINE
  5
1D9
330
1F
100
AcDbEntity
  8
0-0
  6
JWW_DASHED1
 62
   120
370
     5
100
AcDbLine
 10
20.51551597344687
 20
224.7924820998774
 30
0.0
 11
58.51551597345409
 21
262.7924820998812
 31
0.0
  0
LINE
  5
1DA
330
1F
100
AcDbEntity
  8
0-0
  6
JWW_DASHED1
 62
   120
370
     5
100
AcDbLine
 10
20.51551597344687
 20
234.6919770350345
 30
0.0
 11
58.51551597345409
 21
272.6919770350464
 31
0.0
  0
LINE
  5
1DB
330
1F
100
AcDbEntity
  8
0-0
  6
JWW_DASHED1
 62
   120
370
     5
100
AcDbLine
 10
20.51551597344687
 20
244.5914719702521
 30
0.0
 11
58.51551597344727
 21
282.5914719702542
 31
0.0
  0
LINE
  5
1DC
330
1F
100
AcDbEntity
  8
0-0
  6
JWW_DASHED1
 62
   120
370
     5
100
AcDbLine
 10
20.51551597344687
 20
254.4909669054663
 30
0.0
 11
58.51551597345409
 21
292.4909669054782
 31
0.0
  0
LINE
  5
1DD
330
1F
100
AcDbEntity
  8
0-0
  6
JWW_DASHED1
 62
   120
370
     5
100
AcDbLine
 10
20.51551597344687
 20
264.3904618406358
 30
0.0
 11
58.5155159734575
 21
302.390461840643
 31
0.0
  0
LINE
  5
1DE
330
1F
100
AcDbEntity
  8
0-0
  6
JWW_DASHED1
 62
   120
370
     5
100
AcDbLine
 10
20.51551597344687
 20
274.2899567758456
 30
0.0
 11
58.51551597345068
 21
312.2899567758512
 31
0.0
  0
LINE
  5
1DF
330
1F
100
AcDbEntity
  8
0-0
  6
JWW_DASHED1
 62
   120
370
     5
100
AcDbLine
 10
20.51551597344687
 20
284.1894517110619
 30
0.0
 11
58.51551597344045
 21
322.1894517110591
 31
0.0
  0
LINE
  5
1E0
330
1F
100
AcDbEntity
  8
0-0
  6
JWW_DASHED1
 62
   120
370
     5
100
AcDbLine
 10
20.51551597344687
 20
294.0889466462237
 30
0.0
 11
58.51551597344386
 21
332.0889466462243
 31
0.0
  0
LINE
  5
1E1
330
1F
100
AcDbEntity
  8
0-0
  6
JWW_DASHED1
 62
   120
370
     5
100
AcDbLine
 10
20.51551597344687
 20
303.9884415814469
 30
0.0
 11
58.51551597345409
 21
341.9884415814479
 31
0.0
  0
LINE
  5
1E2
330
1F
100
AcDbEntity
  8
0-0
  6
JWW_DASHED1
 62
   120
370
     5
100
AcDbLine
 10
20.51551597344687
 20
313.8879365166625
 30
0.0
 11
58.51551597344386
 21
351.8879365166559
 31
0.0
  0
LINE
  5
1E3
330
1F
100
AcDbEntity
  8
0-0
  6
JWW_DASHED1
 62
   120
370
     5
100
AcDbLine
 10
20.51551597344687
 20
323.787431451818
 30
0.0
 11
58.51551597344727
 21
361.7874314518209
 31
0.0
  0
LINE
  5
1E4
330
1F
100
AcDbEntity
  8
0-0
  6
JWW_DASHED1
 62
   120
370
     5
100
AcDbLine
 10
20.51551597344687
 20
333.6869263870369
 30
0.0
 11
58.51551597345409
 21
371.6869263870449
 31
0.0
  0
LINE
  5
1E5
330
1F
100
AcDbEntity
  8
0-0
  6
JWW_DASHED1
 62
   120
370
     5
100
AcDbLine
 10
20.51551597344687
 20
343.5864213222297
 30
0.0
 11
58.51551597344386
 21
381.5864213222231
 31
0.0
  0
LINE
  5
1E6
330
1F
100
AcDbEntity
  8
0-0
  6
JWW_DASHED1
 62
   120
370
     5
100
AcDbLine
 10
20.51551597344687
 20
353.4859162574141
 30
0.0
 11
58.51551597344727
 21
391.485916257418
 31
0.0
  0
LINE
  5
1E7
330
1F
100
AcDbEntity
  8
0-0
  6
JWW_DASHED1
 62
   120
370
     5
100
AcDbLine
 10
20.51551597344687
 20
363.3854111926296
 30
0.0
 11
58.5155159734575
 21
401.385411192642
 31
0.0
  0
LINE
  5
1E8
330
1F
100
AcDbEntity
  8
0-0
  6
JWW_DASHED1
 62
   120
370
     5
100
AcDbLine
 10
20.51551597344687
 20
373.2849061277965
 30
0.0
 11
58.51551597344386
 21
411.284906127791
 31
0.0
  0
LINE
  5
1E9
330
1F
100
AcDbEntity
  8
0-0
  6
JWW_DASHED1
 62
   120
370
     5
100
AcDbLine
 10
20.51551597344687
 20
383.1844010630065
 30
0.0
 11
58.51551597345068
 21
421.184401063015
 31
0.0
  0
LINE
  5
1EA
330
1F
100
AcDbEntity
  8
0-0
  6
JWW_DASHED1
 62
   120
370
     5
100
AcDbLine
 10
20.51551597344687
 20
393.083895998225
 30
0.0
 11
58.51551597344386
 21
431.0838959982228
 31
0.0
  0
LINE
  5
1EB
330
1F
100
AcDbEntity
  8
0-0
  6
JWW_DASHED1
 62
   120
370
     5
100
AcDbLine
 10
20.51551597344687
 20
402.9833909333931
 30
0.0
 11
58.51551597344727
 21
440.983390933388
 31
0.0
  0
LINE
  5
1EC
330
1F
100
AcDbEntity
  8
0-0
  6
JWW_DASHED1
 62
   120
370
     5
100
AcDbLine
 10
20.51551597344687
 20
412.882885868601
 30
0.0
 11
58.51551597345409
 21
450.8828858686116
 31
0.0
  0
LINE
  5
1ED
330
1F
100
AcDbEntity
  8
0-0
  6
JWW_DASHED1
 62
   120
370
     5
100
AcDbLine
 10
20.51551597344687
 20
422.7823808038258
 30
0.0
 11
58.51551597344727
 21
460.7823808038199
 31
0.0
  0
LINE
  5
1EE
330
1F
100
AcDbEntity
  8
0-0
  6
JWW_DASHED1
 62
   120
370
     5
100
AcDbLine
 10
20.51551597344687
 20
432.6818757389761
 30
0.0
 11
58.51551597344727
 21
470.6818757389846
 31
0.0
  0
LINE
  5
1EF
330
1F
100
AcDbEntity
  8
0-0
  6
JWW_DASHED1
 62
   120
370
     5
100
AcDbLine
 10
20.51551597344687
 20
442.5813706741959
 30
0.0
 11
58.51551597344045
 21
480.5813706741929
 31
0.0
  0
LINE
  5
1F0
330
1F
100
AcDbEntity
  8
0-0
  6
JWW_DASHED1
 62
   120
370
     5
100
AcDbLine
 10
20.51551597344687
 20
452.4808656094152
 30
0.0
 11
58.51551597344727
 21
490.4808656094165
 31
0.0
  0
LINE
  5
1F1
330
1F
100
AcDbEntity
  8
0-0
  6
JWW_DASHED1
 62
   120
370
     5
100
AcDbLine
 10
20.51551597344687
 20
462.380360544577
 30
0.0
 11
58.51551597345068
 21
500.3803605445817
 31
0.0
  0
LINE
  5
1F2
330
1F
100
AcDbEntity
  8
0-0
  6
JWW_DASHED1
 62
   120
370
     5
100
AcDbLine
 10
20.51551597344687
 20
472.2798554797955
 30
0.0
 11
58.51551597344386
 21
510.2798554797899
 31
0.0
  0
LINE
  5
1F3
330
1F
100
AcDbEntity
  8
0-0
  6
JWW_DASHED1
 62
   120
370
     5
100
AcDbLine
 10
20.51551597344687
 20
482.179350415008
 30
0.0
 11
58.51551597345068
 21
520.1793504150133
 31
0.0
  0
LINE
  5
1F4
330
1F
100
AcDbEntity
  8
0-0
  6
JWW_DASHED1
 62
   120
370
     5
100
AcDbLine
 10
20.51551597344687
 20
492.0788453501698
 30
0.0
 11
58.51551597345409
 21
530.0788453501788
 31
0.0
  0
LINE
  5
1F5
330
1F
100
AcDbEntity
  8
0-0
  6
JWW_DASHED1
 62
   120
370
     5
100
AcDbLine
 10
20.51551597344687
 20
501.9783402853895
 30
0.0
 11
58.51551597344727
 21
539.9783402853866
 31
0.0
  0
LINE
  5
1F6
330
1F
100
AcDbEntity
  8
0-0
  6
JWW_DASHED1
 62
   120
370
     5
100
AcDbLine
 10
20.51551597344687
 20
511.8778352206083
 30
0.0
 11
58.51551597345409
 21
549.8778352206106
 31
0.0
  0
LINE
  5
1F7
330
1F
100
AcDbEntity
  8
0-0
  6
JWW_DASHED1
 62
   120
370
     5
100
AcDbLine
 10
20.51551597344687
 20
521.7773301557601
 30
0.0
 11
58.51551597345409
 21
559.7773301557753
 31
0.0
  0
LINE
  5
1F8
330
1F
100
AcDbEntity
  8
0-0
  6
JWW_DASHED1
 62
   120
370
     5
100
AcDbLine
 10
20.51551597344687
 20
531.6768250909796
 30
0.0
 11
58.51551597344727
 21
569.6768250909836
 31
0.0
  0
LINE
  5
1F9
330
1F
100
AcDbEntity
  8
0-0
  6
JWW_DASHED1
 62
   120
370
     5
100
AcDbLine
 10
20.51551597344687
 20
541.5763200261987
 30
0.0
 11
58.51551597345409
 21
579.5763200262077
 31
0.0
  0
LINE
  5
1FA
330
1F
100
AcDbEntity
  8
0-0
  6
JWW_DASHED1
 62
   120
370
     5
100
AcDbLine
 10
20.51551597344687
 20
551.4758149613577
 30
0.0
 11
58.5155159734575
 21
589.4758149613702
 31
0.0
  0
LINE
  5
1FB
330
1F
100
AcDbEntity
  8
0-0
  6
JWW_DASHED1
 62
   120
370
     5
100
AcDbLine
 10
20.51551597344687
 20
561.3753098965794
 30
0.0
 11
58.51551597345068
 21
599.3753098965805
 31
0.0
  0
LINE
  5
1FC
330
1F
100
AcDbEntity
  8
0-0
  6
JWW_DASHED1
 62
   120
370
     5
100
AcDbLine
 10
20.51551597344687
 20
571.2748048317915
 30
0.0
 11
58.51551597344045
 21
609.2748048317885
 31
0.0
  0
LINE
  5
1FD
330
1F
100
AcDbEntity
  8
0-0
  6
JWW_DASHED1
 62
   120
370
     5
100
AcDbLine
 10
20.51551597344687
 20
581.1742997669588
 30
0.0
 11
58.51551597344727
 21
619.1742997669537
 31
0.0
  0
LINE
  5
1FE
330
1F
100
AcDbEntity
  8
0-0
  6
JWW_DASHED1
 62
   120
370
     5
100
AcDbLine
 10
20.51551597344687
 20
591.0737947021735
 30
0.0
 11
58.51551597345409
 21
629.0737947021772
 31
0.0
  0
LINE
  5
1FF
330
1F
100
AcDbEntity
  8
0-0
  6
JWW_DASHED1
 62
   120
370
     5
100
AcDbLine
 10
20.51551597344687
 20
600.9732896373849
 30
0.0
 11
58.51551597344386
 21
638.9732896373855
 31
0.0
  0
LINE
  5
200
330
1F
100
AcDbEntity
  8
0-0
  6
JWW_DASHED1
 62
   120
370
     5
100
AcDbLine
 10
20.51551597344687
 20
610.872784572549
 30
0.0
 11
58.51551597344727
 21
648.8727845725499
 31
0.0
  0
LINE
  5
201
330
1F
100
AcDbEntity
  8
0-0
  6
JWW_DASHED1
 62
   120
370
     5
100
AcDbLine
 10
20.51551597344687
 20
620.7722795077631
 30
0.0
 11
58.51551597345409
 21
658.7722795077743
 31
0.0
  0
LINE
  5
202
330
1F
100
AcDbEntity
  8
0-0
  6
JWW_DASHED1
 62
   120
370
     5
100
AcDbLine
 10
20.51551597344687
 20
630.6717744429804
 30
0.0
 11
58.51551597344727
 21
668.6717744429826
 31
0.0
  0
LINE
  5
203
330
1F
100
AcDbEntity
  8
0-0
  6
JWW_DASHED1
 62
   120
370
     5
100
AcDbLine
 10
20.51551597344687
 20
640.5712693781427
 30
0.0
 11
58.51551597345068
 21
678.5712693781473
 31
0.0
  0
LINE
  5
204
330
1F
100
AcDbEntity
  8
0-0
  6
JWW_DASHED1
 62
   120
370
     5
100
AcDbLine
 10
20.51551597344687
 20
650.4707643133637
 30
0.0
 11
58.5155159734575
 21
688.4707643133708
 31
0.0
  0
LINE
  5
205
330
1F
100
AcDbEntity
  8
0-0
  6
JWW_DASHED1
 62
   120
370
     5
100
AcDbLine
 10
20.51551597344687
 20
660.3702592485707
 30
0.0
 11
58.51551597344727
 21
698.3702592485791
 31
0.0
  0
LINE
  5
206
330
1F
100
AcDbEntity
  8
0-0
  6
JWW_DASHED1
 62
   120
370
     5
100
AcDbLine
 10
20.51551597344687
 20
670.2697541837425
 30
0.0
 11
58.51551597345409
 21
708.2697541837443
 31
0.0
  0
LINE
  5
207
330
1F
100
AcDbEntity
  8
0-0
  6
JWW_DASHED1
 62
   120
370
     5
100
AcDbLine
 10
20.51551597344687
 20
680.1692491189586
 30
0.0
 11
58.51551597344386
 21
718.1692491189516
 31
0.0
  0
LINE
  5
208
330
1F
100
AcDbEntity
  8
0-0
  6
JWW_DASHED1
 62
   120
370
     5
100
AcDbLine
 10
20.51551597344687
 20
690.0687440541752
 30
0.0
 11
58.51551597345409
 21
728.0687440541762
 31
0.0
  0
LINE
  5
209
330
1F
100
AcDbEntity
  8
0-0
  6
JWW_DASHED1
 62
   120
370
     5
100
AcDbLine
 10
20.51551597344687
 20
699.9682389893329
 30
0.0
 11
58.51551597345409
 21
737.968238989341
 31
0.0
  0
LINE
  5
20A
330
1F
100
AcDbEntity
  8
0-0
  6
JWW_DASHED1
 62
   120
370
     5
100
AcDbLine
 10
20.51551597344687
 20
709.8677339245522
 30
0.0
 11
58.51551597344727
 21
747.8677339245493
 31
0.0
  0
LINE
  5
20B
330
1F
100
AcDbEntity
  8
0-0
  6
JWW_DASHED1
 62
   120
370
     5
100
AcDbLine
 10
20.51551597344687
 20
719.7672288597648
 30
0.0
 11
58.51551597345409
 21
757.7672288597729
 31
0.0
  0
LINE
  5
20C
330
1F
100
AcDbEntity
  8
0-0
  6
JWW_DASHED1
 62
   120
370
     5
100
AcDbLine
 10
20.51551597344687
 20
729.6667237949247
 30
0.0
 11
58.51551597344045
 21
767.6667237949223
 31
0.0
  0
LINE
  5
20D
330
1F
100
AcDbEntity
  8
0-0
  6
JWW_DASHED1
 62
   120
370
     5
100
AcDbLine
 10
20.51551597344687
 20
739.566218730141
 30
0.0
 11
58.51551597344727
 21
777.5662187301461
 31
0.0
  0
LINE
  5
20E
330
1F
100
AcDbEntity
  8
0-0
  6
JWW_DASHED1
 62
   120
370
     5
100
AcDbLine
 10
20.51551597344687
 20
749.4657136653584
 30
0.0
 11
58.5155159734575
 21
787.4657136653699
 31
0.0
  0
LINE
  5
20F
330
1F
100
AcDbEntity
  8
0-0
  6
JWW_DASHED1
 62
   120
370
     5
100
AcDbLine
 10
20.51551597344687
 20
759.3652086005253
 30
0.0
 11
58.51551597344386
 21
797.3652086005187
 31
0.0
  0
LINE
  5
210
330
1F
100
AcDbEntity
  8
0-0
  6
JWW_DASHED1
 62
   120
370
     5
100
AcDbLine
 10
20.51551597344687
 20
769.2647035357355
 30
0.0
 11
58.51551597345068
 21
807.2647035357429
 31
0.0
  0
LINE
  5
211
330
1F
100
AcDbEntity
  8
0-0
  6
JWW_DASHED1
 62
   120
370
     5
100
AcDbLine
 10
20.51551597344687
 20
779.164198470958
 30
0.0
 11
58.51551597346091
 21
817.1641984709665
 31
0.0
  0
LINE
  5
212
330
1F
100
AcDbEntity
  8
0-0
  6
JWW_DASHED1
 62
   120
370
     5
100
AcDbLine
 10
20.51551597344687
 20
789.063693406122
 30
0.0
 11
58.51551597344727
 21
827.0636934061159
 31
0.0
  0
LINE
  5
213
330
1F
100
AcDbEntity
  8
0-0
  6
JWW_DASHED1
 62
   120
370
     5
100
AcDbLine
 10
20.51551597344687
 20
798.9631883413293
 30
0.0
 11
58.51551597345409
 21
836.96318834134
 31
0.0
  0
LINE
  5
214
330
1F
100
AcDbEntity
  8
0-0
  6
JWW_DASHED1
 62
   120
370
     5
100
AcDbLine
 10
20.51551597344687
 20
808.8626832765532
 30
0.0
 11
58.51551597344727
 21
846.8626832765478
 31
0.0
  0
LINE
  5
215
330
1F
100
AcDbEntity
  8
0-0
  6
JWW_DASHED1
 62
   120
370
     5
100
AcDbLine
 10
20.51551597344687
 20
828.6616731469335
 30
0.0
 11
58.51551597344727
 21
866.6616731469226
 31
0.0
  0
LINE
  5
216
330
1F
100
AcDbEntity
  8
0-0
  6
JWW_DASHED1
 62
   120
370
     5
100
AcDbLine
 10
20.51551597344687
 20
818.762178211715
 30
0.0
 11
58.51551597344727
 21
856.7621782117087
 31
0.0
  0
LINE
  5
217
330
1F
100
AcDbEntity
  8
0-0
  6
JWW_DASHED1
 62
   120
370
     5
100
AcDbLine
 10
20.51551597344687
 20
-1012.644384799827
 30
0.0
 11
58.51551597344386
 21
-974.6443847998266
 31
0.0
  0
LINE
  5
218
330
1F
100
AcDbEntity
  8
0-0
  6
JWW_DASHED1
 62
   120
370
     5
100
AcDbLine
 10
20.51551597344687
 20
-1022.543879734991
 30
0.0
 11
58.51551597344386
 21
-984.5438797349918
 31
0.0
  0
LINE
  5
219
330
1F
100
AcDbEntity
  8
0-0
  6
JWW_DASHED1
 62
   120
370
     5
100
AcDbLine
 10
20.51551597344687
 20
-1032.443374670157
 30
0.0
 11
58.51551597344386
 21
-994.4433746701562
 31
0.0
  0
LINE
  5
21A
330
1F
100
AcDbEntity
  8
0-0
  6
JWW_DASHED1
 62
   120
370
     5
100
AcDbLine
 10
23.31619655269211
 20
-1039.542189026075
 30
0.0
 11
58.51551597344386
 21
-1004.342869605321
 31
0.0
  0
LINE
  5
21B
330
1F
100
AcDbEntity
  8
0-0
  6
JWW_DASHED1
 62
   120
370
     5
100
AcDbLine
 10
53.01468135818428
 20
-1039.542189026075
 30
0.0
 11
58.51551597344386
 21
-1034.041354410815
 31
0.0
  0
LINE
  5
21C
330
1F
100
AcDbEntity
  8
0-0
  6
JWW_DASHED1
 62
   120
370
     5
100
AcDbLine
 10
33.21569148785645
 20
-1039.542189026075
 30
0.0
 11
58.51551597344386
 21
-1014.242364540486
 31
0.0
  0
LINE
  5
21D
330
1F
100
AcDbEntity
  8
0-0
  6
JWW_DASHED1
 62
   120
370
     5
100
AcDbLine
 10
43.11518642302079
 20
-1039.542189026075
 30
0.0
 11
58.51551597344386
 21
-1024.141859475651
 31
0.0
  0
LINE
  5
21E
330
1F
100
AcDbEntity
  8
0-0
  6
JWW_DASHED1
 62
   120
370
     5
100
AcDbLine
 10
20.51551597344687
 20
838.5611680821521
 30
0.0
 11
58.51551597344727
 21
876.5611680821409
 31
0.0
  0
LINE
  5
21F
330
1F
100
AcDbEntity
  8
0-0
  6
JWW_DASHED1
 62
   120
370
     5
100
AcDbLine
 10
20.51551597344687
 20
848.4606630173706
 30
0.0
 11
58.51551597344727
 21
886.4606630173595
 31
0.0
  0
LINE
  5
220
330
1F
100
AcDbEntity
  8
0-0
  6
JWW_DASHED1
 62
   120
370
     5
100
AcDbLine
 10
20.51551597344687
 20
858.3601579525891
 30
0.0
 11
58.51551597344727
 21
896.360157952578
 31
0.0
  0
LINE
  5
221
330
1F
100
AcDbEntity
  8
0-0
  6
JWW_DASHED1
 62
   120
370
     5
100
AcDbLine
 10
20.51551597344687
 20
868.2596528878072
 30
0.0
 11
58.51551597344727
 21
906.2596528877965
 31
0.0
  0
LINE
  5
222
330
1F
100
AcDbEntity
  8
0-0
  6
JWW_DASHED1
 62
   120
370
     5
100
AcDbLine
 10
20.51551597344687
 20
878.159147823026
 30
0.0
 11
58.51551597344727
 21
916.1591478230148
 31
0.0
  0
LINE
  5
223
330
1F
100
AcDbEntity
  8
0-0
  6
Continuous
 62
    92
370
    13
100
AcDbLine
 10
20.51551597344687
 20
1135.457810973926
 30
0.0
 11
20.51551597344687
 21
-1047.542189026075
 31
0.0
  0
LINE
  5
224
330
1F
100
AcDbEntity
  8
0-0
  6
Continuous
 62
    92
370
    13
100
AcDbLine
 10
58.51551597344727
 20
1135.457810973926
 30
0.0
 11
58.51551597344727
 21
-1047.542189026075
 31
0.0
  0
LINE
  5
225
330
1F
100
AcDbEntity
  8
0-0
  6
Continuous
 62
     7
370
     9
100
AcDbLine
 10
20.51551597344687
 20
1127.457810973928
 30
0.0
 11
58.51551597344727
 21
1127.457810973928
 31
0.0
  0
LINE
  5
226
330
1F
100
AcDbEntity
  8
0-0
  6
JWW_DASHED1
 62
   120
370
     5
100
AcDbLine
 10
20.51551597344687
 20
888.0586427582446
 30
0.0
 11
58.51551597344727
 21
926.0586427582334
 31
0.0
  0
LINE
  5
227
330
1F
100
AcDbEntity
  8
0-0
  6
JWW_DASHED1
 62
   120
370
     5
100
AcDbLine
 10
20.51551597344687
 20
917.7571275639
 30
0.0
 11
58.51551597344727
 21
955.7571275638887
 31
0.0
  0
LINE
  5
228
330
1F
100
AcDbEntity
  8
0-0
  6
JWW_DASHED1
 62
   120
370
     5
100
AcDbLine
 10
20.51551597344687
 20
897.9581376934631
 30
0.0
 11
58.51551597344727
 21
935.9581376934519
 31
0.0
  0
LINE
  5
229
330
1F
100
AcDbEntity
  8
0-0
  6
JWW_DASHED1
 62
   120
370
     5
100
AcDbLine
 10
20.51551597344687
 20
907.8576326286814
 30
0.0
 11
58.51551597344727
 21
945.8576326286704
 31
0.0
  0
LINE
  5
22A
330
1F
100
AcDbEntity
  8
0-0
  6
JWW_DASHED1
 62
   120
370
     5
100
AcDbLine
 10
20.51551597344687
 20
937.556117434337
 30
0.0
 11
58.51551597344727
 21
975.5561174343259
 31
0.0
  0
LINE
  5
22B
330
1F
100
AcDbEntity
  8
0-0
  6
JWW_DASHED1
 62
   120
370
     5
100
AcDbLine
 10
20.51551597344687
 20
927.6566224991185
 30
0.0
 11
58.51551597344727
 21
965.6566224991074
 31
0.0
  0
LINE
  5
22C
330
1F
100
AcDbEntity
  8
0-0
  6
JWW_DASHED1
 62
   120
370
     5
100
AcDbLine
 10
20.51551597344687
 20
957.3551073047739
 30
0.0
 11
58.51551597344727
 21
995.3551073047628
 31
0.0
  0
LINE
  5
22D
330
1F
100
AcDbEntity
  8
0-0
  6
JWW_DASHED1
 62
   120
370
     5
100
AcDbLine
 10
20.51551597344687
 20
947.4556123695553
 30
0.0
 11
58.51551597344727
 21
985.4556123695444
 31
0.0
  0
LINE
  5
22E
330
1F
100
AcDbEntity
  8
0-0
  6
JWW_DASHED1
 62
   120
370
     5
100
AcDbLine
 10
20.51551597344687
 20
977.154097175211
 30
0.0
 11
58.51551597344727
 21
1015.1540971752
 31
0.0
  0
LINE
  5
22F
330
1F
100
AcDbEntity
  8
0-0
  6
JWW_DASHED1
 62
   120
370
     5
100
AcDbLine
 10
20.51551597344687
 20
967.2546022399924
 30
0.0
 11
58.51551597344727
 21
1005.254602239981
 31
0.0
  0
LINE
  5
230
330
1F
100
AcDbEntity
  8
0-0
  6
JWW_DASHED1
 62
   120
370
     5
100
AcDbLine
 10
20.51551597344687
 20
996.9530870456479
 30
0.0
 11
58.51551597344727
 21
1034.953087045637
 31
0.0
  0
LINE
  5
231
330
1F
100
AcDbEntity
  8
0-0
  6
JWW_DASHED1
 62
   120
370
     5
100
AcDbLine
 10
20.51551597344687
 20
987.0535921104293
 30
0.0
 11
58.51551597344727
 21
1025.053592110418
 31
0.0
  0
LINE
  5
232
330
1F
100
AcDbEntity
  8
0-0
  6
JWW_DASHED1
 62
   120
370
     5
100
AcDbLine
 10
20.51551597344687
 20
1016.752076916085
 30
0.0
 11
58.51551597344727
 21
1054.752076916074
 31
0.0
  0
LINE
  5
233
330
1F
100
AcDbEntity
  8
0-0
  6
JWW_DASHED1
 62
   120
370
     5
100
AcDbLine
 10
20.51551597344687
 20
1006.852581980866
 30
0.0
 11
58.51551597344727
 21
1044.852581980855
 31
0.0
  0
LINE
  5
234
330
1F
100
AcDbEntity
  8
0-0
  6
JWW_DASHED1
 62
   120
370
     5
100
AcDbLine
 10
20.51551597344687
 20
1036.551066786522
 30
0.0
 11
58.51551597344727
 21
1074.551066786511
 31
0.0
  0
LINE
  5
235
330
1F
100
AcDbEntity
  8
0-0
  6
JWW_DASHED1
 62
   120
370
     5
100
AcDbLine
 10
20.51551597344687
 20
1026.651571851303
 30
0.0
 11
58.51551597344727
 21
1064.651571851292
 31
0.0
  0
LINE
  5
236
330
1F
100
AcDbEntity
  8
0-0
  6
JWW_DASHED1
 62
   120
370
     5
100
AcDbLine
 10
20.51551597344687
 20
1056.350056656959
 30
0.0
 11
58.51551597344727
 21
1094.350056656947
 31
0.0
  0
LINE
  5
237
330
1F
100
AcDbEntity
  8
0-0
  6
JWW_DASHED1
 62
   120
370
     5
100
AcDbLine
 10
20.51551597344687
 20
1046.45056172174
 30
0.0
 11
58.51551597344727
 21
1084.450561721729
 31
0.0
  0
LINE
  5
238
330
1F
100
AcDbEntity
  8
0-0
  6
JWW_DASHED1
 62
   120
370
     5
100
AcDbLine
 10
20.51551597344687
 20
1076.149046527396
 30
0.0
 11
58.51551597344727
 21
1114.149046527385
 31
0.0
  0
LINE
  5
239
330
1F
100
AcDbEntity
  8
0-0
  6
JWW_DASHED1
 62
   120
370
     5
100
AcDbLine
 10
20.51551597344687
 20
1066.249551592177
 30
0.0
 11
58.51551597344727
 21
1104.249551592166
 31
0.0
  0
LINE
  5
23A
330
1F
100
AcDbEntity
  8
0-0
  6
JWW_DASHED1
 62
   120
370
     5
100
AcDbLine
 10
20.51551597344687
 20
1086.048541462614
 30
0.0
 11
58.51551597344727
 21
1124.048541462603
 31
0.0
  0
LINE
  5
23B
330
1F
100
AcDbEntity
  8
0-0
  6
JWW_DASHED1
 62
   120
370
     5
100
AcDbLine
 10
20.51551597344687
 20
1115.74702626827
 30
0.0
 11
32.22630067910826
 21
1127.457810973928
 31
0.0
  0
LINE
  5
23C
330
1F
100
AcDbEntity
  8
0-0
  6
JWW_DASHED1
 62
   120
370
     5
100
AcDbLine
 10
20.51551597344687
 20
1095.948036397832
 30
0.0
 11
52.0252905495512
 21
1127.457810973928
 31
0.0
  0
LINE
  5
23D
330
1F
100
AcDbEntity
  8
0-0
  6
JWW_DASHED1
 62
   120
370
     5
100
AcDbLine
 10
20.51551597344687
 20
1105.847531333051
 30
0.0
 11
42.12579561432973
 21
1127.457810973928
 31
0.0
  0
LINE
  5
23E
330
1F
100
AcDbEntity
  8
0-0
  6
Continuous
 62
     7
370
     9
100
AcDbLine
 10
800.5155159734469
 20
-1039.542189026075
 30
0.0
 11
838.5155159734472
 21
-1039.542189026075
 31
0.0
  0
LINE
  5
23F
330
1F
100
AcDbEntity
  8
0-0
  6
JWW_DASHED1
 62
   120
370
     5
100
AcDbLine
 10
800.5155159734469
 20
-1002.744889864662
 30
0.0
 11
838.5155159734438
 21
-964.7448898646624
 31
0.0
  0
LINE
  5
240
330
1F
100
AcDbEntity
  8
0-0
  6
JWW_DASHED1
 62
   120
370
     5
100
AcDbLine
 10
800.5155159734469
 20
-992.8453949295001
 30
0.0
 11
838.5155159734472
 21
-954.8453949294972
 31
0.0
  0
LINE
  5
241
330
1F
100
AcDbEntity
  8
0-0
  6
JWW_DASHED1
 62
   120
370
     5
100
AcDbLine
 10
800.5155159734469
 20
-982.9458999942821
 30
0.0
 11
838.5155159734541
 21
-944.945899994273
 31
0.0
  0
LINE
  5
242
330
1F
100
AcDbEntity
  8
0-0
  6
JWW_DASHED1
 62
   120
370
     5
100
AcDbLine
 10
800.5155159734469
 20
-973.0464050590696
 30
0.0
 11
838.5155159734472
 21
-935.0464050590651
 31
0.0
  0
LINE
  5
243
330
1F
100
AcDbEntity
  8
0-0
  6
JWW_DASHED1
 62
   120
370
     5
100
AcDbLine
 10
800.5155159734469
 20
-963.146910123901
 30
0.0
 11
838.5155159734506
 21
-925.1469101238999
 31
0.0
  0
LINE
  5
244
330
1F
100
AcDbEntity
  8
0-0
  6
JWW_DASHED1
 62
   120
370
     5
100
AcDbLine
 10
800.5155159734469
 20
-953.2474151886865
 30
0.0
 11
838.5155159734404
 21
-915.2474151886921
 31
0.0
  0
LINE
  5
245
330
1F
100
AcDbEntity
  8
0-0
  6
JWW_DASHED1
 62
   120
370
     5
100
AcDbLine
 10
800.5155159734469
 20
-943.3479202534685
 30
0.0
 11
838.5155159734506
 21
-905.3479202534683
 31
0.0
  0
LINE
  5
246
330
1F
100
AcDbEntity
  8
0-0
  6
JWW_DASHED1
 62
   120
370
     5
100
AcDbLine
 10
800.5155159734469
 20
-933.4484253183073
 30
0.0
 11
838.5155159734541
 21
-895.4484253183035
 31
0.0
  0
LINE
  5
247
330
1F
100
AcDbEntity
  8
0-0
  6
JWW_DASHED1
 62
   120
370
     5
100
AcDbLine
 10
800.5155159734469
 20
-923.5489303830935
 30
0.0
 11
838.5155159734438
 21
-885.5489303830952
 31
0.0
  0
LINE
  5
248
330
1F
100
AcDbEntity
  8
0-0
  6
JWW_DASHED1
 62
   120
370
     5
100
AcDbLine
 10
800.5155159734469
 20
-913.6494354478763
 30
0.0
 11
838.5155159734541
 21
-875.649435447871
 31
0.0
  0
LINE
  5
249
330
1F
100
AcDbEntity
  8
0-0
  6
JWW_DASHED1
 62
   120
370
     5
100
AcDbLine
 10
800.5155159734469
 20
-903.7499405127137
 30
0.0
 11
838.5155159734404
 21
-865.7499405127222
 31
0.0
  0
LINE
  5
24A
330
1F
100
AcDbEntity
  8
0-0
  6
JWW_DASHED1
 62
   120
370
     5
100
AcDbLine
 10
800.5155159734469
 20
-893.8504455774998
 30
0.0
 11
838.5155159734472
 21
-855.8504455774986
 31
0.0
  0
LINE
  5
24B
330
1F
100
AcDbEntity
  8
0-0
  6
JWW_DASHED1
 62
   120
370
     5
100
AcDbLine
 10
800.5155159734469
 20
-883.9509506422861
 30
0.0
 11
838.5155159734541
 21
-845.9509506422746
 31
0.0
  0
LINE
  5
24C
330
1F
100
AcDbEntity
  8
0-0
  6
JWW_DASHED1
 62
   120
370
     5
100
AcDbLine
 10
800.5155159734469
 20
-874.0514557071226
 30
0.0
 11
838.5155159734404
 21
-836.0514557071256
 31
0.0
  0
LINE
  5
24D
330
1F
100
AcDbEntity
  8
0-0
  6
JWW_DASHED1
 62
   120
370
     5
100
AcDbLine
 10
800.5155159734469
 20
-864.1519607719105
 30
0.0
 11
838.5155159734472
 21
-826.1519607719016
 31
0.0
  0
LINE
  5
24E
330
1F
100
AcDbEntity
  8
0-0
  6
JWW_DASHED1
 62
   120
370
     5
100
AcDbLine
 10
800.5155159734469
 20
-854.2524658367372
 30
0.0
 11
838.5155159734541
 21
-816.2524658367366
 31
0.0
  0
LINE
  5
24F
330
1F
100
AcDbEntity
  8
0-0
  6
JWW_DASHED1
 62
   120
370
     5
100
AcDbLine
 10
800.5155159734469
 20
-844.3529709015221
 30
0.0
 11
838.5155159734438
 21
-806.3529709015281
 31
0.0
  0
LINE
  5
250
330
1F
100
AcDbEntity
  8
0-0
  6
JWW_DASHED1
 62
   120
370
     5
100
AcDbLine
 10
800.5155159734469
 20
-834.4534759663101
 30
0.0
 11
838.5155159734506
 21
-796.453475966305
 31
0.0
  0
LINE
  5
251
330
1F
100
AcDbEntity
  8
0-0
  6
JWW_DASHED1
 62
   120
370
     5
100
AcDbLine
 10
800.5155159734469
 20
-824.5539810311483
 30
0.0
 11
838.5155159734541
 21
-786.5539810311398
 31
0.0
  0
LINE
  5
252
330
1F
100
AcDbEntity
  8
0-0
  6
JWW_DASHED1
 62
   120
370
     5
100
AcDbLine
 10
800.5155159734469
 20
-814.6544860959281
 30
0.0
 11
838.5155159734472
 21
-776.6544860959319
 31
0.0
  0
LINE
  5
253
330
1F
100
AcDbEntity
  8
0-0
  6
JWW_DASHED1
 62
   120
370
     5
100
AcDbLine
 10
800.5155159734469
 20
-804.7549911607168
 30
0.0
 11
838.5155159734541
 21
-766.7549911607078
 31
0.0
  0
LINE
  5
254
330
1F
100
AcDbEntity
  8
0-0
  6
JWW_DASHED1
 62
   120
370
     5
100
AcDbLine
 10
800.5155159734469
 20
-794.8554962255533
 30
0.0
 11
838.5155159734404
 21
-756.8554962255585
 31
0.0
  0
LINE
  5
255
330
1F
100
AcDbEntity
  8
0-0
  6
JWW_DASHED1
 62
   120
370
     5
100
AcDbLine
 10
800.5155159734469
 20
-784.9560012903391
 30
0.0
 11
838.5155159734472
 21
-746.9560012903348
 31
0.0
  0
LINE
  5
256
330
1F
100
AcDbEntity
  8
0-0
  6
JWW_DASHED1
 62
   120
370
     5
100
AcDbLine
 10
800.5155159734469
 20
-775.056506355124
 30
0.0
 11
838.5155159734404
 21
-737.0565063551267
 31
0.0
  0
LINE
  5
257
330
1F
100
AcDbEntity
  8
0-0
  6
JWW_DASHED1
 62
   120
370
     5
100
AcDbLine
 10
800.5155159734469
 20
-765.1570114199596
 30
0.0
 11
838.5155159734438
 21
-727.1570114199618
 31
0.0
  0
LINE
  5
258
330
1F
100
AcDbEntity
  8
0-0
  6
JWW_DASHED1
 62
   120
370
     5
100
AcDbLine
 10
800.5155159734469
 20
-755.257516484745
 30
0.0
 11
838.5155159734506
 21
-717.2575164847378
 31
0.0
  0
LINE
  5
259
330
1F
100
AcDbEntity
  8
0-0
  6
JWW_DASHED1
 62
   120
370
     5
100
AcDbLine
 10
800.5155159734469
 20
-745.3580215495283
 30
0.0
 11
838.5155159734438
 21
-707.3580215495296
 31
0.0
  0
LINE
  5
25A
330
1F
100
AcDbEntity
  8
0-0
  6
JWW_DASHED1
 62
   120
370
     5
100
AcDbLine
 10
800.5155159734469
 20
-735.4585266143588
 30
0.0
 11
838.5155159734472
 21
-697.4585266143648
 31
0.0
  0
LINE
  5
25B
330
1F
100
AcDbEntity
  8
0-0
  6
JWW_DASHED1
 62
   120
370
     5
100
AcDbLine
 10
800.5155159734469
 20
-725.5590316791522
 30
0.0
 11
838.5155159734541
 21
-687.5590316791407
 31
0.0
  0
LINE
  5
25C
330
1F
100
AcDbEntity
  8
0-0
  6
JWW_DASHED1
 62
   120
370
     5
100
AcDbLine
 10
800.5155159734469
 20
-715.6595367439273
 30
0.0
 11
838.5155159734472
 21
-677.6595367439329
 31
0.0
  0
LINE
  5
25D
330
1F
100
AcDbEntity
  8
0-0
  6
JWW_DASHED1
 62
   120
370
     5
100
AcDbLine
 10
800.5155159734469
 20
-705.7600418087694
 30
0.0
 11
838.5155159734472
 21
-667.7600418087677
 31
0.0
  0
LINE
  5
25E
330
1F
100
AcDbEntity
  8
0-0
  6
JWW_DASHED1
 62
   120
370
     5
100
AcDbLine
 10
800.5155159734469
 20
-695.8605468735552
 30
0.0
 11
838.5155159734541
 21
-657.8605468735437
 31
0.0
  0
LINE
  5
25F
330
1F
100
AcDbEntity
  8
0-0
  6
JWW_DASHED1
 62
   120
370
     5
100
AcDbLine
 10
800.5155159734469
 20
-685.9610519383372
 30
0.0
 11
838.5155159734472
 21
-647.9610519383359
 31
0.0
  0
LINE
  5
260
330
1F
100
AcDbEntity
  8
0-0
  6
JWW_DASHED1
 62
   120
370
     5
100
AcDbLine
 10
800.5155159734469
 20
-676.0615570031762
 30
0.0
 11
838.5155159734506
 21
-638.0615570031707
 31
0.0
  0
LINE
  5
261
330
1F
100
AcDbEntity
  8
0-0
  6
JWW_DASHED1
 62
   120
370
     5
100
AcDbLine
 10
800.5155159734469
 20
-666.1620620679564
 30
0.0
 11
838.5155159734438
 21
-628.1620620679629
 31
0.0
  0
LINE
  5
262
330
1F
100
AcDbEntity
  8
0-0
  6
JWW_DASHED1
 62
   120
370
     5
100
AcDbLine
 10
800.5155159734469
 20
-656.2625671327439
 30
0.0
 11
838.5155159734506
 21
-618.2625671327388
 31
0.0
  0
LINE
  5
263
330
1F
100
AcDbEntity
  8
0-0
  6
JWW_DASHED1
 62
   120
370
     5
100
AcDbLine
 10
800.5155159734469
 20
-646.3630721975826
 30
0.0
 11
838.5155159734541
 21
-608.3630721975736
 31
0.0
  0
LINE
  5
264
330
1F
100
AcDbEntity
  8
0-0
  6
JWW_DASHED1
 62
   120
370
     5
100
AcDbLine
 10
800.5155159734469
 20
-636.4635772623628
 30
0.0
 11
838.5155159734472
 21
-598.4635772623658
 31
0.0
  0
LINE
  5
265
330
1F
100
AcDbEntity
  8
0-0
  6
JWW_DASHED1
 62
   120
370
     5
100
AcDbLine
 10
800.5155159734469
 20
-626.5640823271431
 30
0.0
 11
838.5155159734541
 21
-588.5640823271423
 31
0.0
  0
LINE
  5
266
330
1F
100
AcDbEntity
  8
0-0
  6
JWW_DASHED1
 62
   120
370
     5
100
AcDbLine
 10
800.5155159734469
 20
-616.6645873919906
 30
0.0
 11
838.5155159734404
 21
-578.6645873919928
 31
0.0
  0
LINE
  5
267
330
1F
100
AcDbEntity
  8
0-0
  6
JWW_DASHED1
 62
   120
370
     5
100
AcDbLine
 10
800.5155159734469
 20
-606.7650924567735
 30
0.0
 11
838.5155159734472
 21
-568.7650924567688
 31
0.0
  0
LINE
  5
268
330
1F
100
AcDbEntity
  8
0-0
  6
JWW_DASHED1
 62
   120
370
     5
100
AcDbLine
 10
800.5155159734469
 20
-596.8655975215537
 30
0.0
 11
838.5155159734541
 21
-558.8655975215447
 31
0.0
  0
LINE
  5
269
330
1F
100
AcDbEntity
  8
0-0
  6
JWW_DASHED1
 62
   120
370
     5
100
AcDbLine
 10
800.5155159734469
 20
-586.9661025863936
 30
0.0
 11
838.5155159734404
 21
-548.9661025863958
 31
0.0
  0
LINE
  5
26A
330
1F
100
AcDbEntity
  8
0-0
  6
JWW_DASHED1
 62
   120
370
     5
100
AcDbLine
 10
800.5155159734469
 20
-577.0666076511739
 30
0.0
 11
838.5155159734506
 21
-539.0666076511717
 31
0.0
  0
LINE
  5
26B
330
1F
100
AcDbEntity
  8
0-0
  6
JWW_DASHED1
 62
   120
370
     5
100
AcDbLine
 10
800.5155159734469
 20
-567.1671127159592
 30
0.0
 11
838.5155159734404
 21
-529.1671127159639
 31
0.0
  0
LINE
  5
26C
330
1F
100
AcDbEntity
  8
0-0
  6
JWW_DASHED1
 62
   120
370
     5
100
AcDbLine
 10
800.5155159734469
 20
-557.2676177807936
 30
0.0
 11
838.5155159734472
 21
-519.2676177807987
 31
0.0
  0
LINE
  5
26D
330
1F
100
AcDbEntity
  8
0-0
  6
JWW_DASHED1
 62
   120
370
     5
100
AcDbLine
 10
800.5155159734469
 20
-547.3681228455794
 30
0.0
 11
838.5155159734541
 21
-509.3681228455756
 31
0.0
  0
LINE
  5
26E
330
1F
100
AcDbEntity
  8
0-0
  6
JWW_DASHED1
 62
   120
370
     5
100
AcDbLine
 10
800.5155159734469
 20
-537.4686279103652
 30
0.0
 11
838.5155159734438
 21
-499.4686279103673
 31
0.0
  0
LINE
  5
26F
330
1F
100
AcDbEntity
  8
0-0
  6
JWW_DASHED1
 62
   120
370
     5
100
AcDbLine
 10
800.5155159734469
 20
-527.5691329752034
 30
0.0
 11
838.5155159734472
 21
-489.5691329752021
 31
0.0
  0
LINE
  5
270
330
1F
100
AcDbEntity
  8
0-0
  6
JWW_DASHED1
 62
   120
370
     5
100
AcDbLine
 10
800.5155159734469
 20
-517.669638039984
 30
0.0
 11
838.5155159734404
 21
-479.6696380399939
 31
0.0
  0
LINE
  5
271
330
1F
100
AcDbEntity
  8
0-0
  6
JWW_DASHED1
 62
   120
370
     5
100
AcDbLine
 10
800.5155159734469
 20
-507.7701431047715
 30
0.0
 11
838.5155159734472
 21
-469.7701431047702
 31
0.0
  0
LINE
  5
272
330
1F
100
AcDbEntity
  8
0-0
  6
JWW_DASHED1
 62
   120
370
     5
100
AcDbLine
 10
800.5155159734469
 20
-497.8706481696093
 30
0.0
 11
838.5155159734506
 21
-459.8706481696055
 31
0.0
  0
LINE
  5
273
330
1F
100
AcDbEntity
  8
0-0
  6
JWW_DASHED1
 62
   120
370
     5
100
AcDbLine
 10
800.5155159734469
 20
-487.9711532343959
 30
0.0
 11
838.5155159734404
 21
-449.9711532343968
 31
0.0
  0
LINE
  5
274
330
1F
100
AcDbEntity
  8
0-0
  6
JWW_DASHED1
 62
   120
370
     5
100
AcDbLine
 10
800.5155159734469
 20
-478.0716582991753
 30
0.0
 11
838.5155159734472
 21
-440.0716582991732
 31
0.0
  0
LINE
  5
275
330
1F
100
AcDbEntity
  8
0-0
  6
JWW_DASHED1
 62
   120
370
     5
100
AcDbLine
 10
800.5155159734469
 20
-468.1721633640092
 30
0.0
 11
838.5155159734541
 21
-430.1721633640084
 31
0.0
  0
LINE
  5
276
330
1F
100
AcDbEntity
  8
0-0
  6
JWW_DASHED1
 62
   120
370
     5
100
AcDbLine
 10
800.5155159734469
 20
-458.2726684287942
 30
0.0
 11
838.5155159734438
 21
-420.2726684288006
 31
0.0
  0
LINE
  5
277
330
1F
100
AcDbEntity
  8
0-0
  6
JWW_DASHED1
 62
   120
370
     5
100
AcDbLine
 10
800.5155159734469
 20
-448.3731734935812
 30
0.0
 11
838.5155159734506
 21
-410.3731734935766
 31
0.0
  0
LINE
  5
278
330
1F
100
AcDbEntity
  8
0-0
  6
JWW_DASHED1
 62
   120
370
     5
100
AcDbLine
 10
800.5155159734469
 20
-438.4736785584203
 30
0.0
 11
838.5155159734541
 21
-400.4736785584114
 31
0.0
  0
LINE
  5
279
330
1F
100
AcDbEntity
  8
0-0
  6
JWW_DASHED1
 62
   120
370
     5
100
AcDbLine
 10
800.5155159734469
 20
-428.5741836232006
 30
0.0
 11
838.5155159734472
 21
-390.5741836232036
 31
0.0
  0
LINE
  5
27A
330
1F
100
AcDbEntity
  8
0-0
  6
JWW_DASHED1
 62
   120
370
     5
100
AcDbLine
 10
800.5155159734469
 20
-418.6746886879885
 30
0.0
 11
838.5155159734541
 21
-380.6746886879795
 31
0.0
  0
LINE
  5
27B
330
1F
100
AcDbEntity
  8
0-0
  6
JWW_DASHED1
 62
   120
370
     5
100
AcDbLine
 10
800.5155159734469
 20
-408.7751937528207
 30
0.0
 11
838.5155159734472
 21
-370.775193752825
 31
0.0
  0
LINE
  5
27C
330
1F
100
AcDbEntity
  8
0-0
  6
JWW_DASHED1
 62
   120
370
     5
100
AcDbLine
 10
800.5155159734469
 20
-398.8756988176103
 30
0.0
 11
838.5155159734472
 21
-360.8756988176065
 31
0.0
  0
LINE
  5
27D
330
1F
100
AcDbEntity
  8
0-0
  6
JWW_DASHED1
 62
   120
370
     5
100
AcDbLine
 10
800.5155159734469
 20
-388.9762038823965
 30
0.0
 11
838.5155159734404
 21
-350.9762038823982
 31
0.0
  0
LINE
  5
27E
330
1F
100
AcDbEntity
  8
0-0
  6
JWW_DASHED1
 62
   120
370
     5
100
AcDbLine
 10
800.5155159734469
 20
-379.0767089472322
 30
0.0
 11
838.5155159734438
 21
-341.0767089472335
 31
0.0
  0
LINE
  5
27F
330
1F
100
AcDbEntity
  8
0-0
  6
JWW_DASHED1
 62
   120
370
     5
100
AcDbLine
 10
800.5155159734469
 20
-369.1772140120099
 30
0.0
 11
838.5155159734506
 21
-331.1772140120095
 31
0.0
  0
LINE
  5
280
330
1F
100
AcDbEntity
  8
0-0
  6
JWW_DASHED1
 62
   120
370
     5
100
AcDbLine
 10
800.5155159734469
 20
-359.2777190767952
 30
0.0
 11
838.5155159734438
 21
-321.2777190768016
 31
0.0
  0
LINE
  5
281
330
1F
100
AcDbEntity
  8
0-0
  6
JWW_DASHED1
 62
   120
370
     5
100
AcDbLine
 10
800.5155159734469
 20
-349.3782241416313
 30
0.0
 11
838.5155159734472
 21
-311.3782241416365
 31
0.0
  0
LINE
  5
282
330
1F
100
AcDbEntity
  8
0-0
  6
JWW_DASHED1
 62
   120
370
     5
100
AcDbLine
 10
800.5155159734469
 20
-339.4787292064231
 30
0.0
 11
838.5155159734541
 21
-301.4787292064124
 31
0.0
  0
LINE
  5
283
330
1F
100
AcDbEntity
  8
0-0
  6
JWW_DASHED1
 62
   120
370
     5
100
AcDbLine
 10
800.5155159734469
 20
-329.5792342711994
 30
0.0
 11
838.5155159734472
 21
-291.5792342712046
 31
0.0
  0
LINE
  5
284
330
1F
100
AcDbEntity
  8
0-0
  6
JWW_DASHED1
 62
   120
370
     5
100
AcDbLine
 10
800.5155159734469
 20
-319.6797393360415
 30
0.0
 11
838.5155159734472
 21
-281.6797393360394
 31
0.0
  0
LINE
  5
285
330
1F
100
AcDbEntity
  8
0-0
  6
JWW_DASHED1
 62
   120
370
     5
100
AcDbLine
 10
800.5155159734469
 20
-309.7802444008281
 30
0.0
 11
838.5155159734541
 21
-271.7802444008154
 31
0.0
  0
LINE
  5
286
330
1F
100
AcDbEntity
  8
0-0
  6
JWW_DASHED1
 62
   120
370
     5
100
AcDbLine
 10
800.5155159734469
 20
-299.8807494656097
 30
0.0
 11
838.5155159734472
 21
-261.8807494656076
 31
0.0
  0
LINE
  5
287
330
1F
100
AcDbEntity
  8
0-0
  6
JWW_DASHED1
 62
   120
370
     5
100
AcDbLine
 10
800.5155159734469
 20
-289.9812545304479
 30
0.0
 11
838.5155159734506
 21
-251.9812545304424
 31
0.0
  0
LINE
  5
288
330
1F
100
AcDbEntity
  8
0-0
  6
JWW_DASHED1
 62
   120
370
     5
100
AcDbLine
 10
800.5155159734469
 20
-280.0817595952281
 30
0.0
 11
838.5155159734438
 21
-242.0817595952345
 31
0.0
  0
LINE
  5
289
330
1F
100
AcDbEntity
  8
0-0
  6
JWW_DASHED1
 62
   120
370
     5
100
AcDbLine
 10
800.5155159734469
 20
-270.1822646600442
 30
0.0
 11
838.5155159734472
 21
-232.1822646600403
 31
0.0
  0
LINE
  5
28A
330
1F
100
AcDbEntity
  8
0-0
  6
JWW_DASHED1
 62
   120
370
     5
100
AcDbLine
 10
800.5155159734469
 20
-260.2827697248466
 30
0.0
 11
838.5155159734541
 21
-222.2827697248457
 31
0.0
  0
LINE
  5
28B
330
1F
100
AcDbEntity
  8
0-0
  6
JWW_DASHED1
 62
   120
370
     5
100
AcDbLine
 10
800.5155159734469
 20
-250.3832747896336
 30
0.0
 11
838.5155159734472
 21
-212.3832747896379
 31
0.0
  0
LINE
  5
28C
330
1F
100
AcDbEntity
  8
0-0
  6
JWW_DASHED1
 62
   120
370
     5
100
AcDbLine
 10
800.5155159734469
 20
-240.4837798544437
 30
0.0
 11
838.5155159734506
 21
-202.4837798544433
 31
0.0
  0
LINE
  5
28D
330
1F
100
AcDbEntity
  8
0-0
  6
JWW_DASHED1
 62
   120
370
     5
100
AcDbLine
 10
800.5155159734469
 20
-230.5842849192614
 30
0.0
 11
838.5155159734404
 21
-192.5842849192645
 31
0.0
  0
LINE
  5
28E
330
1F
100
AcDbEntity
  8
0-0
  6
JWW_DASHED1
 62
   120
370
     5
100
AcDbLine
 10
800.5155159734469
 20
-220.6847899840463
 30
0.0
 11
838.5155159734472
 21
-182.6847899840404
 31
0.0
  0
LINE
  5
28F
330
1F
100
AcDbEntity
  8
0-0
  6
JWW_DASHED1
 62
   120
370
     5
100
AcDbLine
 10
800.5155159734469
 20
-210.7852950488765
 30
0.0
 11
838.5155159734506
 21
-172.7852950488761
 31
0.0
  0
LINE
  5
290
330
1F
100
AcDbEntity
  8
0-0
  6
JWW_DASHED1
 62
   120
370
     5
100
AcDbLine
 10
800.5155159734469
 20
-200.8858001136665
 30
0.0
 11
838.5155159734404
 21
-162.8858001136674
 31
0.0
  0
LINE
  5
291
330
1F
100
AcDbEntity
  8
0-0
  6
JWW_DASHED1
 62
   120
370
     5
100
AcDbLine
 10
800.5155159734469
 20
-190.9863051784446
 30
0.0
 11
838.5155159734506
 21
-152.9863051784442
 31
0.0
  0
LINE
  5
292
330
1F
100
AcDbEntity
  8
0-0
  6
JWW_DASHED1
 62
   120
370
     5
100
AcDbLine
 10
800.5155159734469
 20
-181.0868102432829
 30
0.0
 11
838.5155159734541
 21
-143.086810243279
 31
0.0
  0
LINE
  5
293
330
1F
100
AcDbEntity
  8
0-0
  6
JWW_DASHED1
 62
   120
370
     5
100
AcDbLine
 10
800.5155159734469
 20
-171.1873153080682
 30
0.0
 11
838.5155159734438
 21
-133.1873153080712
 31
0.0
  0
LINE
  5
294
330
1F
100
AcDbEntity
  8
0-0
  6
JWW_DASHED1
 62
   120
370
     5
100
AcDbLine
 10
800.5155159734469
 20
-161.287820372851
 30
0.0
 11
838.5155159734541
 21
-123.2878203728472
 31
0.0
  0
LINE
  5
295
330
1F
100
AcDbEntity
  8
0-0
  6
JWW_DASHED1
 62
   120
370
     5
100
AcDbLine
 10
800.5155159734469
 20
-151.3883254376926
 30
0.0
 11
838.5155159734541
 21
-113.388325437682
 31
0.0
  0
LINE
  5
296
330
1F
100
AcDbEntity
  8
0-0
  6
JWW_DASHED1
 62
   120
370
     5
100
AcDbLine
 10
800.5155159734469
 20
-141.4888305024746
 30
0.0
 11
838.5155159734472
 21
-103.4888305024742
 31
0.0
  0
LINE
  5
297
330
1F
100
AcDbEntity
  8
0-0
  6
JWW_DASHED1
 62
   120
370
     5
100
AcDbLine
 10
800.5155159734469
 20
-131.5893355672608
 30
0.0
 11
838.5155159734541
 21
-93.58933556725013
 31
0.0
  0
LINE
  5
298
330
1F
100
AcDbEntity
  8
0-0
  6
JWW_DASHED1
 62
   120
370
     5
100
AcDbLine
 10
800.5155159734469
 20
-121.6898406320939
 30
0.0
 11
838.5155159734506
 21
-83.68984063209346
 31
0.0
  0
LINE
  5
299
330
1F
100
AcDbEntity
  8
0-0
  6
JWW_DASHED1
 62
   120
370
     5
100
AcDbLine
 10
800.5155159734469
 20
-111.7903456968826
 30
0.0
 11
838.5155159734506
 21
-73.79034569687711
 31
0.0
  0
LINE
  5
29A
330
1F
100
AcDbEntity
  8
0-0
  6
JWW_DASHED1
 62
   120
370
     5
100
AcDbLine
 10
800.5155159734469
 20
-101.8908507616663
 30
0.0
 11
838.5155159734404
 21
-63.89085076166928
 31
0.0
  0
LINE
  5
29B
330
1F
100
AcDbEntity
  8
0-0
  6
JWW_DASHED1
 62
   120
370
     5
100
AcDbLine
 10
800.5155159734469
 20
-91.99135582649767
 30
0.0
 11
838.5155159734438
 21
-53.99135582650409
 31
0.0
  0
LINE
  5
29C
330
1F
100
AcDbEntity
  8
0-0
  6
JWW_DASHED1
 62
   120
370
     5
100
AcDbLine
 10
800.5155159734469
 20
-82.09186089128174
 30
0.0
 11
838.5155159734541
 21
-44.09186089128006
 31
0.0
  0
LINE
  5
29D
330
1F
100
AcDbEntity
  8
0-0
  6
JWW_DASHED1
 62
   120
370
     5
100
AcDbLine
 10
800.5155159734469
 20
-72.19236595606581
 30
0.0
 11
838.5155159734438
 21
-34.19236595607224
 31
0.0
  0
LINE
  5
29E
330
1F
100
AcDbEntity
  8
0-0
  6
JWW_DASHED1
 62
   120
370
     5
100
AcDbLine
 10
800.5155159734469
 20
-62.29287102091213
 30
0.0
 11
838.5155159734472
 21
-24.29287102090704
 31
0.0
  0
LINE
  5
29F
330
1F
100
AcDbEntity
  8
0-0
  6
JWW_DASHED1
 62
   120
370
     5
100
AcDbLine
 10
800.5155159734469
 20
-52.39337608569151
 30
0.0
 11
838.5155159734541
 21
-14.39337608568344
 31
0.0
  0
LINE
  5
2A0
330
1F
100
AcDbEntity
  8
0-0
  6
JWW_DASHED1
 62
   120
370
     5
100
AcDbLine
 10
800.5155159734469
 20
-42.49388115047218
 30
0.0
 11
838.5155159734472
 21
-4.49388115047519
 31
0.0
  0
LINE
  5
2A1
330
1F
100
AcDbEntity
  8
0-0
  6
JWW_DASHED1
 62
   120
370
     5
100
AcDbLine
 10
800.5155159734469
 20
-32.59438621531423
 30
0.0
 11
838.5155159734472
 21
5.405613784689578
 31
0.0
  0
LINE
  5
2A2
330
1F
100
AcDbEntity
  8
0-0
  6
JWW_DASHED1
 62
   120
370
     5
100
AcDbLine
 10
800.5155159734469
 20
-22.69489128009788
 30
0.0
 11
838.5155159734575
 21
15.3051087199136
 31
0.0
  0
LINE
  5
2A3
330
1F
100
AcDbEntity
  8
0-0
  6
JWW_DASHED1
 62
   120
370
     5
100
AcDbLine
 10
800.5155159734469
 20
-12.79539634488195
 30
0.0
 11
838.5155159734472
 21
25.20460365512186
 31
0.0
  0
LINE
  5
2A4
330
1F
100
AcDbEntity
  8
0-0
  6
JWW_DASHED1
 62
   120
370
     5
100
AcDbLine
 10
800.5155159734469
 20
-2.895901409720594
 30
0.0
 11
838.5155159734506
 21
35.10409859028663
 31
0.0
  0
LINE
  5
2A5
330
1F
100
AcDbEntity
  8
0-0
  6
JWW_DASHED1
 62
   120
370
     5
100
AcDbLine
 10
800.5155159734469
 20
7.003593525496186
 30
0.0
 11
838.5155159734438
 21
45.00359352549467
 31
0.0
  0
LINE
  5
2A6
330
1F
100
AcDbEntity
  8
0-0
  6
JWW_DASHED1
 62
   120
370
     5
100
AcDbLine
 10
800.5155159734469
 20
16.90308846071808
 30
0.0
 11
838.5155159734506
 21
54.90308846071848
 31
0.0
  0
LINE
  5
2A7
330
1F
100
AcDbEntity
  8
0-0
  6
JWW_DASHED1
 62
   120
370
     5
100
AcDbLine
 10
800.5155159734469
 20
26.80258339587176
 30
0.0
 11
838.5155159734541
 21
64.80258339588367
 31
0.0
  0
LINE
  5
2A8
330
1F
100
AcDbEntity
  8
0-0
  6
JWW_DASHED1
 62
   120
370
     5
100
AcDbLine
 10
800.5155159734469
 20
36.7020783310975
 30
0.0
 11
838.5155159734472
 21
74.7020783310915
 31
0.0
  0
LINE
  5
2A9
330
1F
100
AcDbEntity
  8
0-0
  6
JWW_DASHED1
 62
   120
370
     5
100
AcDbLine
 10
800.5155159734469
 20
46.60157326631087
 30
0.0
 11
838.5155159734541
 21
84.60157326631553
 31
0.0
  0
LINE
  5
2AA
330
1F
100
AcDbEntity
  8
0-0
  6
JWW_DASHED1
 62
   120
370
     5
100
AcDbLine
 10
800.5155159734469
 20
56.50106820146668
 30
0.0
 11
838.5155159734404
 21
94.50106820146495
 31
0.0
  0
LINE
  5
2AB
330
1F
100
AcDbEntity
  8
0-0
  6
JWW_DASHED1
 62
   120
370
     5
100
AcDbLine
 10
800.5155159734469
 20
66.4005631366873
 30
0.0
 11
838.5155159734472
 21
104.4005631366885
 31
0.0
  0
LINE
  5
2AC
330
1F
100
AcDbEntity
  8
0-0
  6
JWW_DASHED1
 62
   120
370
     5
100
AcDbLine
 10
800.5155159734469
 20
76.30005807190152
 30
0.0
 11
838.5155159734541
 21
114.3000580719121
 31
0.0
  0
LINE
  5
2AD
330
1F
100
AcDbEntity
  8
0-0
  6
JWW_DASHED1
 62
   120
370
     5
100
AcDbLine
 10
800.5155159734469
 20
86.19955300706756
 30
0.0
 11
838.5155159734438
 21
124.1995530070618
 31
0.0
  0
LINE
  5
2AE
330
1F
100
AcDbEntity
  8
0-0
  6
JWW_DASHED1
 62
   120
370
     5
100
AcDbLine
 10
800.5155159734469
 20
96.09904794228008
 30
0.0
 11
838.5155159734506
 21
134.0990479422856
 31
0.0
  0
LINE
  5
2AF
330
1F
100
AcDbEntity
  8
0-0
  6
JWW_DASHED1
 62
   120
370
     5
100
AcDbLine
 10
800.5155159734469
 20
105.9985428774986
 30
0.0
 11
838.5155159734541
 21
143.9985428775032
 31
0.0
  0
LINE
  5
2B0
330
1F
100
AcDbEntity
  8
0-0
  6
JWW_DASHED1
 62
   120
370
     5
100
AcDbLine
 10
800.5155159734469
 20
115.8980378126608
 30
0.0
 11
838.5155159734472
 21
153.8980378126586
 31
0.0
  0
LINE
  5
2B1
330
1F
100
AcDbEntity
  8
0-0
  6
JWW_DASHED1
 62
   120
370
     5
100
AcDbLine
 10
800.5155159734469
 20
125.7975327478814
 30
0.0
 11
838.5155159734541
 21
163.7975327478822
 31
0.0
  0
LINE
  5
2B2
330
1F
100
AcDbEntity
  8
0-0
  6
JWW_DASHED1
 62
   120
370
     5
100
AcDbLine
 10
800.5155159734469
 20
135.6970276830888
 30
0.0
 11
838.5155159734438
 21
173.6970276830905
 31
0.0
  0
LINE
  5
2B3
330
1F
100
AcDbEntity
  8
0-0
  6
JWW_DASHED1
 62
   120
370
     5
100
AcDbLine
 10
800.5155159734469
 20
145.5965226182512
 30
0.0
 11
838.5155159734472
 21
183.5965226182552
 31
0.0
  0
LINE
  5
2B4
330
1F
100
AcDbEntity
  8
0-0
  6
JWW_DASHED1
 62
   120
370
     5
100
AcDbLine
 10
800.5155159734469
 20
155.4960175534733
 30
0.0
 11
838.5155159734404
 21
193.4960175534635
 31
0.0
  0
LINE
  5
2B5
330
1F
100
AcDbEntity
  8
0-0
  6
JWW_DASHED1
 62
   120
370
     5
100
AcDbLine
 10
800.5155159734469
 20
165.3955124886833
 30
0.0
 11
838.5155159734472
 21
203.3955124886871
 31
0.0
  0
LINE
  5
2B6
330
1F
100
AcDbEntity
  8
0-0
  6
JWW_DASHED1
 62
   120
370
     5
100
AcDbLine
 10
800.5155159734469
 20
175.2950074238519
 30
0.0
 11
838.5155159734506
 21
213.2950074238521
 31
0.0
  0
LINE
  5
2B7
330
1F
100
AcDbEntity
  8
0-0
  6
JWW_DASHED1
 62
   120
370
     5
100
AcDbLine
 10
800.5155159734469
 20
185.1945023590631
 30
0.0
 11
838.5155159734404
 21
223.1945023590601
 31
0.0
  0
LINE
  5
2B8
330
1F
100
AcDbEntity
  8
0-0
  6
JWW_DASHED1
 62
   120
370
     5
100
AcDbLine
 10
800.5155159734469
 20
195.0939972942837
 30
0.0
 11
838.5155159734506
 21
233.0939972942841
 31
0.0
  0
LINE
  5
2B9
330
1F
100
AcDbEntity
  8
0-0
  6
JWW_DASHED1
 62
   120
370
     5
100
AcDbLine
 10
800.5155159734469
 20
204.9934922294447
 30
0.0
 11
838.5155159734541
 21
242.9934922294493
 31
0.0
  0
LINE
  5
2BA
330
1F
100
AcDbEntity
  8
0-0
  6
JWW_DASHED1
 62
   120
370
     5
100
AcDbLine
 10
800.5155159734469
 20
214.8929871646593
 30
0.0
 11
838.5155159734438
 21
252.8929871646571
 31
0.0
  0
LINE
  5
2BB
330
1F
100
AcDbEntity
  8
0-0
  6
JWW_DASHED1
 62
   120
370
     5
100
AcDbLine
 10
800.5155159734469
 20
224.7924820998774
 30
0.0
 11
838.5155159734541
 21
262.7924820998812
 31
0.0
  0
LINE
  5
2BC
330
1F
100
AcDbEntity
  8
0-0
  6
JWW_DASHED1
 62
   120
370
     5
100
AcDbLine
 10
800.5155159734469
 20
234.6919770350345
 30
0.0
 11
838.5155159734541
 21
272.6919770350464
 31
0.0
  0
LINE
  5
2BD
330
1F
100
AcDbEntity
  8
0-0
  6
JWW_DASHED1
 62
   120
370
     5
100
AcDbLine
 10
800.5155159734469
 20
244.5914719702521
 30
0.0
 11
838.5155159734472
 21
282.5914719702542
 31
0.0
  0
LINE
  5
2BE
330
1F
100
AcDbEntity
  8
0-0
  6
JWW_DASHED1
 62
   120
370
     5
100
AcDbLine
 10
800.5155159734469
 20
254.4909669054663
 30
0.0
 11
838.5155159734541
 21
292.4909669054782
 31
0.0
  0
LINE
  5
2BF
330
1F
100
AcDbEntity
  8
0-0
  6
JWW_DASHED1
 62
   120
370
     5
100
AcDbLine
 10
800.5155159734469
 20
264.3904618406358
 30
0.0
 11
838.5155159734575
 21
302.390461840643
 31
0.0
  0
LINE
  5
2C0
330
1F
100
AcDbEntity
  8
0-0
  6
JWW_DASHED1
 62
   120
370
     5
100
AcDbLine
 10
800.5155159734469
 20
274.2899567758456
 30
0.0
 11
838.5155159734506
 21
312.2899567758512
 31
0.0
  0
LINE
  5
2C1
330
1F
100
AcDbEntity
  8
0-0
  6
JWW_DASHED1
 62
   120
370
     5
100
AcDbLine
 10
800.5155159734469
 20
284.1894517110619
 30
0.0
 11
838.5155159734404
 21
322.1894517110591
 31
0.0
  0
LINE
  5
2C2
330
1F
100
AcDbEntity
  8
0-0
  6
JWW_DASHED1
 62
   120
370
     5
100
AcDbLine
 10
800.5155159734469
 20
294.0889466462237
 30
0.0
 11
838.5155159734438
 21
332.0889466462243
 31
0.0
  0
LINE
  5
2C3
330
1F
100
AcDbEntity
  8
0-0
  6
JWW_DASHED1
 62
   120
370
     5
100
AcDbLine
 10
800.5155159734469
 20
303.9884415814469
 30
0.0
 11
838.5155159734541
 21
341.9884415814479
 31
0.0
  0
LINE
  5
2C4
330
1F
100
AcDbEntity
  8
0-0
  6
JWW_DASHED1
 62
   120
370
     5
100
AcDbLine
 10
800.5155159734469
 20
313.8879365166625
 30
0.0
 11
838.5155159734438
 21
351.8879365166559
 31
0.0
  0
LINE
  5
2C5
330
1F
100
AcDbEntity
  8
0-0
  6
JWW_DASHED1
 62
   120
370
     5
100
AcDbLine
 10
800.5155159734469
 20
323.787431451818
 30
0.0
 11
838.5155159734472
 21
361.7874314518209
 31
0.0
  0
LINE
  5
2C6
330
1F
100
AcDbEntity
  8
0-0
  6
JWW_DASHED1
 62
   120
370
     5
100
AcDbLine
 10
800.5155159734469
 20
333.6869263870369
 30
0.0
 11
838.5155159734541
 21
371.6869263870449
 31
0.0
  0
LINE
  5
2C7
330
1F
100
AcDbEntity
  8
0-0
  6
JWW_DASHED1
 62
   120
370
     5
100
AcDbLine
 10
800.5155159734469
 20
343.5864213222297
 30
0.0
 11
838.5155159734438
 21
381.5864213222231
 31
0.0
  0
LINE
  5
2C8
330
1F
100
AcDbEntity
  8
0-0
  6
JWW_DASHED1
 62
   120
370
     5
100
AcDbLine
 10
800.5155159734469
 20
353.4859162574141
 30
0.0
 11
838.5155159734472
 21
391.485916257418
 31
0.0
  0
LINE
  5
2C9
330
1F
100
AcDbEntity
  8
0-0
  6
JWW_DASHED1
 62
   120
370
     5
100
AcDbLine
 10
800.5155159734469
 20
363.3854111926296
 30
0.0
 11
838.5155159734575
 21
401.385411192642
 31
0.0
  0
LINE
  5
2CA
330
1F
100
AcDbEntity
  8
0-0
  6
JWW_DASHED1
 62
   120
370
     5
100
AcDbLine
 10
800.5155159734469
 20
373.2849061277965
 30
0.0
 11
838.5155159734438
 21
411.284906127791
 31
0.0
  0
LINE
  5
2CB
330
1F
100
AcDbEntity
  8
0-0
  6
JWW_DASHED1
 62
   120
370
     5
100
AcDbLine
 10
800.5155159734469
 20
383.1844010630065
 30
0.0
 11
838.5155159734506
 21
421.184401063015
 31
0.0
  0
LINE
  5
2CC
330
1F
100
AcDbEntity
  8
0-0
  6
JWW_DASHED1
 62
   120
370
     5
100
AcDbLine
 10
800.5155159734469
 20
393.083895998225
 30
0.0
 11
838.5155159734438
 21
431.0838959982228
 31
0.0
  0
LINE
  5
2CD
330
1F
100
AcDbEntity
  8
0-0
  6
JWW_DASHED1
 62
   120
370
     5
100
AcDbLine
 10
800.5155159734469
 20
402.9833909333931
 30
0.0
 11
838.5155159734472
 21
440.983390933388
 31
0.0
  0
LINE
  5
2CE
330
1F
100
AcDbEntity
  8
0-0
  6
JWW_DASHED1
 62
   120
370
     5
100
AcDbLine
 10
800.5155159734469
 20
412.882885868601
 30
0.0
 11
838.5155159734541
 21
450.8828858686116
 31
0.0
  0
LINE
  5
2CF
330
1F
100
AcDbEntity
  8
0-0
  6
JWW_DASHED1
 62
   120
370
     5
100
AcDbLine
 10
800.5155159734469
 20
422.7823808038258
 30
0.0
 11
838.5155159734472
 21
460.7823808038199
 31
0.0
  0
LINE
  5
2D0
330
1F
100
AcDbEntity
  8
0-0
  6
JWW_DASHED1
 62
   120
370
     5
100
AcDbLine
 10
800.5155159734469
 20
432.6818757389761
 30
0.0
 11
838.5155159734472
 21
470.6818757389846
 31
0.0
  0
LINE
  5
2D1
330
1F
100
AcDbEntity
  8
0-0
  6
JWW_DASHED1
 62
   120
370
     5
100
AcDbLine
 10
800.5155159734469
 20
442.5813706741959
 30
0.0
 11
838.5155159734404
 21
480.5813706741929
 31
0.0
  0
LINE
  5
2D2
330
1F
100
AcDbEntity
  8
0-0
  6
JWW_DASHED1
 62
   120
370
     5
100
AcDbLine
 10
800.5155159734469
 20
452.4808656094152
 30
0.0
 11
838.5155159734472
 21
490.4808656094165
 31
0.0
  0
LINE
  5
2D3
330
1F
100
AcDbEntity
  8
0-0
  6
JWW_DASHED1
 62
   120
370
     5
100
AcDbLine
 10
800.5155159734469
 20
462.380360544577
 30
0.0
 11
838.5155159734506
 21
500.3803605445817
 31
0.0
  0
LINE
  5
2D4
330
1F
100
AcDbEntity
  8
0-0
  6
JWW_DASHED1
 62
   120
370
     5
100
AcDbLine
 10
800.5155159734469
 20
472.2798554797955
 30
0.0
 11
838.5155159734438
 21
510.2798554797899
 31
0.0
  0
LINE
  5
2D5
330
1F
100
AcDbEntity
  8
0-0
  6
JWW_DASHED1
 62
   120
370
     5
100
AcDbLine
 10
800.5155159734469
 20
482.179350415008
 30
0.0
 11
838.5155159734506
 21
520.1793504150133
 31
0.0
  0
LINE
  5
2D6
330
1F
100
AcDbEntity
  8
0-0
  6
JWW_DASHED1
 62
   120
370
     5
100
AcDbLine
 10
800.5155159734469
 20
492.0788453501698
 30
0.0
 11
838.5155159734541
 21
530.0788453501788
 31
0.0
  0
LINE
  5
2D7
330
1F
100
AcDbEntity
  8
0-0
  6
JWW_DASHED1
 62
   120
370
     5
100
AcDbLine
 10
800.5155159734469
 20
501.9783402853895
 30
0.0
 11
838.5155159734472
 21
539.9783402853866
 31
0.0
  0
LINE
  5
2D8
330
1F
100
AcDbEntity
  8
0-0
  6
JWW_DASHED1
 62
   120
370
     5
100
AcDbLine
 10
800.5155159734469
 20
511.8778352206083
 30
0.0
 11
838.5155159734541
 21
549.8778352206106
 31
0.0
  0
LINE
  5
2D9
330
1F
100
AcDbEntity
  8
0-0
  6
JWW_DASHED1
 62
   120
370
     5
100
AcDbLine
 10
800.5155159734469
 20
521.7773301557601
 30
0.0
 11
838.5155159734541
 21
559.7773301557753
 31
0.0
  0
LINE
  5
2DA
330
1F
100
AcDbEntity
  8
0-0
  6
JWW_DASHED1
 62
   120
370
     5
100
AcDbLine
 10
800.5155159734469
 20
531.6768250909796
 30
0.0
 11
838.5155159734472
 21
569.6768250909836
 31
0.0
  0
LINE
  5
2DB
330
1F
100
AcDbEntity
  8
0-0
  6
JWW_DASHED1
 62
   120
370
     5
100
AcDbLine
 10
800.5155159734469
 20
541.5763200261987
 30
0.0
 11
838.5155159734541
 21
579.5763200262077
 31
0.0
  0
LINE
  5
2DC
330
1F
100
AcDbEntity
  8
0-0
  6
JWW_DASHED1
 62
   120
370
     5
100
AcDbLine
 10
800.5155159734469
 20
551.4758149613577
 30
0.0
 11
838.5155159734575
 21
589.4758149613702
 31
0.0
  0
LINE
  5
2DD
330
1F
100
AcDbEntity
  8
0-0
  6
JWW_DASHED1
 62
   120
370
     5
100
AcDbLine
 10
800.5155159734469
 20
561.3753098965794
 30
0.0
 11
838.5155159734506
 21
599.3753098965805
 31
0.0
  0
LINE
  5
2DE
330
1F
100
AcDbEntity
  8
0-0
  6
JWW_DASHED1
 62
   120
370
     5
100
AcDbLine
 10
800.5155159734469
 20
571.2748048317915
 30
0.0
 11
838.5155159734404
 21
609.2748048317885
 31
0.0
  0
LINE
  5
2DF
330
1F
100
AcDbEntity
  8
0-0
  6
JWW_DASHED1
 62
   120
370
     5
100
AcDbLine
 10
800.5155159734469
 20
581.1742997669588
 30
0.0
 11
838.5155159734472
 21
619.1742997669537
 31
0.0
  0
LINE
  5
2E0
330
1F
100
AcDbEntity
  8
0-0
  6
JWW_DASHED1
 62
   120
370
     5
100
AcDbLine
 10
800.5155159734469
 20
591.0737947021735
 30
0.0
 11
838.5155159734541
 21
629.0737947021772
 31
0.0
  0
LINE
  5
2E1
330
1F
100
AcDbEntity
  8
0-0
  6
JWW_DASHED1
 62
   120
370
     5
100
AcDbLine
 10
800.5155159734469
 20
600.9732896373849
 30
0.0
 11
838.5155159734438
 21
638.9732896373855
 31
0.0
  0
LINE
  5
2E2
330
1F
100
AcDbEntity
  8
0-0
  6
JWW_DASHED1
 62
   120
370
     5
100
AcDbLine
 10
800.5155159734469
 20
610.872784572549
 30
0.0
 11
838.5155159734472
 21
648.8727845725499
 31
0.0
  0
LINE
  5
2E3
330
1F
100
AcDbEntity
  8
0-0
  6
JWW_DASHED1
 62
   120
370
     5
100
AcDbLine
 10
800.5155159734469
 20
620.7722795077631
 30
0.0
 11
838.5155159734541
 21
658.7722795077743
 31
0.0
  0
LINE
  5
2E4
330
1F
100
AcDbEntity
  8
0-0
  6
JWW_DASHED1
 62
   120
370
     5
100
AcDbLine
 10
800.5155159734469
 20
630.6717744429804
 30
0.0
 11
838.5155159734472
 21
668.6717744429826
 31
0.0
  0
LINE
  5
2E5
330
1F
100
AcDbEntity
  8
0-0
  6
JWW_DASHED1
 62
   120
370
     5
100
AcDbLine
 10
800.5155159734469
 20
640.5712693781427
 30
0.0
 11
838.5155159734506
 21
678.5712693781473
 31
0.0
  0
LINE
  5
2E6
330
1F
100
AcDbEntity
  8
0-0
  6
JWW_DASHED1
 62
   120
370
     5
100
AcDbLine
 10
800.5155159734469
 20
650.4707643133637
 30
0.0
 11
838.5155159734575
 21
688.4707643133708
 31
0.0
  0
LINE
  5
2E7
330
1F
100
AcDbEntity
  8
0-0
  6
JWW_DASHED1
 62
   120
370
     5
100
AcDbLine
 10
800.5155159734469
 20
660.3702592485707
 30
0.0
 11
838.5155159734472
 21
698.3702592485791
 31
0.0
  0
LINE
  5
2E8
330
1F
100
AcDbEntity
  8
0-0
  6
JWW_DASHED1
 62
   120
370
     5
100
AcDbLine
 10
800.5155159734469
 20
670.2697541837425
 30
0.0
 11
838.5155159734541
 21
708.2697541837443
 31
0.0
  0
LINE
  5
2E9
330
1F
100
AcDbEntity
  8
0-0
  6
JWW_DASHED1
 62
   120
370
     5
100
AcDbLine
 10
800.5155159734469
 20
680.1692491189586
 30
0.0
 11
838.5155159734438
 21
718.1692491189516
 31
0.0
  0
LINE
  5
2EA
330
1F
100
AcDbEntity
  8
0-0
  6
JWW_DASHED1
 62
   120
370
     5
100
AcDbLine
 10
800.5155159734469
 20
690.0687440541752
 30
0.0
 11
838.5155159734541
 21
728.0687440541762
 31
0.0
  0
LINE
  5
2EB
330
1F
100
AcDbEntity
  8
0-0
  6
JWW_DASHED1
 62
   120
370
     5
100
AcDbLine
 10
800.5155159734469
 20
699.9682389893329
 30
0.0
 11
838.5155159734541
 21
737.968238989341
 31
0.0
  0
LINE
  5
2EC
330
1F
100
AcDbEntity
  8
0-0
  6
JWW_DASHED1
 62
   120
370
     5
100
AcDbLine
 10
800.5155159734469
 20
709.8677339245522
 30
0.0
 11
838.5155159734472
 21
747.8677339245493
 31
0.0
  0
LINE
  5
2ED
330
1F
100
AcDbEntity
  8
0-0
  6
JWW_DASHED1
 62
   120
370
     5
100
AcDbLine
 10
800.5155159734469
 20
719.7672288597648
 30
0.0
 11
838.5155159734541
 21
757.7672288597729
 31
0.0
  0
LINE
  5
2EE
330
1F
100
AcDbEntity
  8
0-0
  6
JWW_DASHED1
 62
   120
370
     5
100
AcDbLine
 10
800.5155159734469
 20
729.6667237949247
 30
0.0
 11
838.5155159734404
 21
767.6667237949223
 31
0.0
  0
LINE
  5
2EF
330
1F
100
AcDbEntity
  8
0-0
  6
JWW_DASHED1
 62
   120
370
     5
100
AcDbLine
 10
800.5155159734469
 20
739.566218730141
 30
0.0
 11
838.5155159734472
 21
777.5662187301461
 31
0.0
  0
LINE
  5
2F0
330
1F
100
AcDbEntity
  8
0-0
  6
JWW_DASHED1
 62
   120
370
     5
100
AcDbLine
 10
800.5155159734469
 20
749.4657136653584
 30
0.0
 11
838.5155159734575
 21
787.4657136653699
 31
0.0
  0
LINE
  5
2F1
330
1F
100
AcDbEntity
  8
0-0
  6
JWW_DASHED1
 62
   120
370
     5
100
AcDbLine
 10
800.5155159734469
 20
759.3652086005253
 30
0.0
 11
838.5155159734438
 21
797.3652086005187
 31
0.0
  0
LINE
  5
2F2
330
1F
100
AcDbEntity
  8
0-0
  6
JWW_DASHED1
 62
   120
370
     5
100
AcDbLine
 10
800.5155159734469
 20
769.2647035357355
 30
0.0
 11
838.5155159734506
 21
807.2647035357429
 31
0.0
  0
LINE
  5
2F3
330
1F
100
AcDbEntity
  8
0-0
  6
JWW_DASHED1
 62
   120
370
     5
100
AcDbLine
 10
800.5155159734469
 20
779.164198470958
 30
0.0
 11
838.5155159734609
 21
817.1641984709665
 31
0.0
  0
LINE
  5
2F4
330
1F
100
AcDbEntity
  8
0-0
  6
JWW_DASHED1
 62
   120
370
     5
100
AcDbLine
 10
800.5155159734469
 20
789.063693406122
 30
0.0
 11
838.5155159734472
 21
827.0636934061159
 31
0.0
  0
LINE
  5
2F5
330
1F
100
AcDbEntity
  8
0-0
  6
JWW_DASHED1
 62
   120
370
     5
100
AcDbLine
 10
800.5155159734469
 20
798.9631883413293
 30
0.0
 11
838.5155159734541
 21
836.96318834134
 31
0.0
  0
LINE
  5
2F6
330
1F
100
AcDbEntity
  8
0-0
  6
JWW_DASHED1
 62
   120
370
     5
100
AcDbLine
 10
800.5155159734469
 20
808.8626832765532
 30
0.0
 11
838.5155159734472
 21
846.8626832765478
 31
0.0
  0
LINE
  5
2F7
330
1F
100
AcDbEntity
  8
0-0
  6
JWW_DASHED1
 62
   120
370
     5
100
AcDbLine
 10
800.5155159734469
 20
828.6616731469335
 30
0.0
 11
838.5155159734472
 21
866.6616731469226
 31
0.0
  0
LINE
  5
2F8
330
1F
100
AcDbEntity
  8
0-0
  6
JWW_DASHED1
 62
   120
370
     5
100
AcDbLine
 10
800.5155159734469
 20
818.762178211715
 30
0.0
 11
838.5155159734472
 21
856.7621782117087
 31
0.0
  0
LINE
  5
2F9
330
1F
100
AcDbEntity
  8
0-0
  6
JWW_DASHED1
 62
   120
370
     5
100
AcDbLine
 10
800.5155159734469
 20
-1012.644384799827
 30
0.0
 11
838.5155159734438
 21
-974.6443847998266
 31
0.0
  0
LINE
  5
2FA
330
1F
100
AcDbEntity
  8
0-0
  6
JWW_DASHED1
 62
   120
370
     5
100
AcDbLine
 10
800.5155159734469
 20
-1022.543879734991
 30
0.0
 11
838.5155159734438
 21
-984.5438797349918
 31
0.0
  0
LINE
  5
2FB
330
1F
100
AcDbEntity
  8
0-0
  6
JWW_DASHED1
 62
   120
370
     5
100
AcDbLine
 10
800.5155159734469
 20
-1032.443374670157
 30
0.0
 11
838.5155159734438
 21
-994.4433746701562
 31
0.0
  0
LINE
  5
2FC
330
1F
100
AcDbEntity
  8
0-0
  6
JWW_DASHED1
 62
   120
370
     5
100
AcDbLine
 10
803.3161965526921
 20
-1039.542189026075
 30
0.0
 11
838.5155159734438
 21
-1004.342869605321
 31
0.0
  0
LINE
  5
2FD
330
1F
100
AcDbEntity
  8
0-0
  6
JWW_DASHED1
 62
   120
370
     5
100
AcDbLine
 10
833.0146813581842
 20
-1039.542189026075
 30
0.0
 11
838.5155159734438
 21
-1034.041354410815
 31
0.0
  0
LINE
  5
2FE
330
1F
100
AcDbEntity
  8
0-0
  6
JWW_DASHED1
 62
   120
370
     5
100
AcDbLine
 10
813.2156914878565
 20
-1039.542189026075
 30
0.0
 11
838.5155159734438
 21
-1014.242364540486
 31
0.0
  0
LINE
  5
2FF
330
1F
100
AcDbEntity
  8
0-0
  6
JWW_DASHED1
 62
   120
370
     5
100
AcDbLine
 10
823.1151864230208
 20
-1039.542189026075
 30
0.0
 11
838.5155159734438
 21
-1024.141859475651
 31
0.0
  0
LINE
  5
300
330
1F
100
AcDbEntity
  8
0-0
  6
JWW_DASHED1
 62
   120
370
     5
100
AcDbLine
 10
800.5155159734469
 20
838.5611680821521
 30
0.0
 11
838.5155159734472
 21
876.5611680821409
 31
0.0
  0
LINE
  5
301
330
1F
100
AcDbEntity
  8
0-0
  6
JWW_DASHED1
 62
   120
370
     5
100
AcDbLine
 10
800.5155159734469
 20
848.4606630173706
 30
0.0
 11
838.5155159734472
 21
886.4606630173595
 31
0.0
  0
LINE
  5
302
330
1F
100
AcDbEntity
  8
0-0
  6
JWW_DASHED1
 62
   120
370
     5
100
AcDbLine
 10
800.5155159734469
 20
858.3601579525891
 30
0.0
 11
838.5155159734472
 21
896.360157952578
 31
0.0
  0
LINE
  5
303
330
1F
100
AcDbEntity
  8
0-0
  6
JWW_DASHED1
 62
   120
370
     5
100
AcDbLine
 10
800.5155159734469
 20
868.2596528878072
 30
0.0
 11
838.5155159734472
 21
906.2596528877965
 31
0.0
  0
LINE
  5
304
330
1F
100
AcDbEntity
  8
0-0
  6
JWW_DASHED1
 62
   120
370
     5
100
AcDbLine
 10
800.5155159734469
 20
878.159147823026
 30
0.0
 11
838.5155159734472
 21
916.1591478230148
 31
0.0
  0
LINE
  5
305
330
1F
100
AcDbEntity
  8
0-0
  6
Continuous
 62
    92
370
    13
100
AcDbLine
 10
800.5155159734469
 20
1135.457810973926
 30
0.0
 11
800.5155159734469
 21
-1047.542189026075
 31
0.0
  0
LINE
  5
306
330
1F
100
AcDbEntity
  8
0-0
  6
Continuous
 62
    92
370
    13
100
AcDbLine
 10
838.5155159734472
 20
1135.457810973926
 30
0.0
 11
838.5155159734472
 21
-1047.542189026075
 31
0.0
  0
LINE
  5
307
330
1F
100
AcDbEntity
  8
0-0
  6
Continuous
 62
     7
370
     9
100
AcDbLine
 10
800.5155159734469
 20
1127.457810973928
 30
0.0
 11
838.5155159734472
 21
1127.457810973928
 31
0.0
  0
LINE
  5
308
330
1F
100
AcDbEntity
  8
0-0
  6
JWW_DASHED1
 62
   120
370
     5
100
AcDbLine
 10
800.5155159734469
 20
888.0586427582446
 30
0.0
 11
838.5155159734472
 21
926.0586427582334
 31
0.0
  0
LINE
  5
309
330
1F
100
AcDbEntity
  8
0-0
  6
JWW_DASHED1
 62
   120
370
     5
100
AcDbLine
 10
800.5155159734469
 20
917.7571275639
 30
0.0
 11
838.5155159734472
 21
955.7571275638887
 31
0.0
  0
LINE
  5
30A
330
1F
100
AcDbEntity
  8
0-0
  6
JWW_DASHED1
 62
   120
370
     5
100
AcDbLine
 10
800.5155159734469
 20
897.9581376934631
 30
0.0
 11
838.5155159734472
 21
935.9581376934519
 31
0.0
  0
LINE
  5
30B
330
1F
100
AcDbEntity
  8
0-0
  6
JWW_DASHED1
 62
   120
370
     5
100
AcDbLine
 10
800.5155159734469
 20
907.8576326286814
 30
0.0
 11
838.5155159734472
 21
945.8576326286704
 31
0.0
  0
LINE
  5
30C
330
1F
100
AcDbEntity
  8
0-0
  6
JWW_DASHED1
 62
   120
370
     5
100
AcDbLine
 10
800.5155159734469
 20
937.556117434337
 30
0.0
 11
838.5155159734472
 21
975.5561174343259
 31
0.0
  0
LINE
  5
30D
330
1F
100
AcDbEntity
  8
0-0
  6
JWW_DASHED1
 62
   120
370
     5
100
AcDbLine
 10
800.5155159734469
 20
927.6566224991185
 30
0.0
 11
838.5155159734472
 21
965.6566224991074
 31
0.0
  0
LINE
  5
30E
330
1F
100
AcDbEntity
  8
0-0
  6
JWW_DASHED1
 62
   120
370
     5
100
AcDbLine
 10
800.5155159734469
 20
957.3551073047739
 30
0.0
 11
838.5155159734472
 21
995.3551073047628
 31
0.0
  0
LINE
  5
30F
330
1F
100
AcDbEntity
  8
0-0
  6
JWW_DASHED1
 62
   120
370
     5
100
AcDbLine
 10
800.5155159734469
 20
947.4556123695553
 30
0.0
 11
838.5155159734472
 21
985.4556123695444
 31
0.0
  0
LINE
  5
310
330
1F
100
AcDbEntity
  8
0-0
  6
JWW_DASHED1
 62
   120
370
     5
100
AcDbLine
 10
800.5155159734469
 20
977.154097175211
 30
0.0
 11
838.5155159734472
 21
1015.1540971752
 31
0.0
  0
LINE
  5
311
330
1F
100
AcDbEntity
  8
0-0
  6
JWW_DASHED1
 62
   120
370
     5
100
AcDbLine
 10
800.5155159734469
 20
967.2546022399924
 30
0.0
 11
838.5155159734472
 21
1005.254602239981
 31
0.0
  0
LINE
  5
312
330
1F
100
AcDbEntity
  8
0-0
  6
JWW_DASHED1
 62
   120
370
     5
100
AcDbLine
 10
800.5155159734469
 20
996.9530870456479
 30
0.0
 11
838.5155159734472
 21
1034.953087045637
 31
0.0
  0
LINE
  5
313
330
1F
100
AcDbEntity
  8
0-0
  6
JWW_DASHED1
 62
   120
370
     5
100
AcDbLine
 10
800.5155159734469
 20
987.0535921104293
 30
0.0
 11
838.5155159734472
 21
1025.053592110418
 31
0.0
  0
LINE
  5
314
330
1F
100
AcDbEntity
  8
0-0
  6
JWW_DASHED1
 62
   120
370
     5
100
AcDbLine
 10
800.5155159734469
 20
1016.752076916085
 30
0.0
 11
838.5155159734472
 21
1054.752076916074
 31
0.0
  0
LINE
  5
315
330
1F
100
AcDbEntity
  8
0-0
  6
JWW_DASHED1
 62
   120
370
     5
100
AcDbLine
 10
800.5155159734469
 20
1006.852581980866
 30
0.0
 11
838.5155159734472
 21
1044.852581980855
 31
0.0
  0
LINE
  5
316
330
1F
100
AcDbEntity
  8
0-0
  6
JWW_DASHED1
 62
   120
370
     5
100
AcDbLine
 10
800.5155159734469
 20
1036.551066786522
 30
0.0
 11
838.5155159734472
 21
1074.551066786511
 31
0.0
  0
LINE
  5
317
330
1F
100
AcDbEntity
  8
0-0
  6
JWW_DASHED1
 62
   120
370
     5
100
AcDbLine
 10
800.5155159734469
 20
1026.651571851303
 30
0.0
 11
838.5155159734472
 21
1064.651571851292
 31
0.0
  0
LINE
  5
318
330
1F
100
AcDbEntity
  8
0-0
  6
JWW_DASHED1
 62
   120
370
     5
100
AcDbLine
 10
800.5155159734469
 20
1056.350056656959
 30
0.0
 11
838.5155159734472
 21
1094.350056656947
 31
0.0
  0
LINE
  5
319
330
1F
100
AcDbEntity
  8
0-0
  6
JWW_DASHED1
 62
   120
370
     5
100
AcDbLine
 10
800.5155159734469
 20
1046.45056172174
 30
0.0
 11
838.5155159734472
 21
1084.450561721729
 31
0.0
  0
LINE
  5
31A
330
1F
100
AcDbEntity
  8
0-0
  6
JWW_DASHED1
 62
   120
370
     5
100
AcDbLine
 10
800.5155159734469
 20
1076.149046527396
 30
0.0
 11
838.5155159734472
 21
1114.149046527385
 31
0.0
  0
LINE
  5
31B
330
1F
100
AcDbEntity
  8
0-0
  6
JWW_DASHED1
 62
   120
370
     5
100
AcDbLine
 10
800.5155159734469
 20
1066.249551592177
 30
0.0
 11
838.5155159734472
 21
1104.249551592166
 31
0.0
  0
LINE
  5
31C
330
1F
100
AcDbEntity
  8
0-0
  6
JWW_DASHED1
 62
   120
370
     5
100
AcDbLine
 10
800.5155159734469
 20
1086.048541462614
 30
0.0
 11
838.5155159734472
 21
1124.048541462603
 31
0.0
  0
LINE
  5
31D
330
1F
100
AcDbEntity
  8
0-0
  6
JWW_DASHED1
 62
   120
370
     5
100
AcDbLine
 10
800.5155159734469
 20
1115.74702626827
 30
0.0
 11
812.2263006791082
 21
1127.457810973928
 31
0.0
  0
LINE
  5
31E
330
1F
100
AcDbEntity
  8
0-0
  6
JWW_DASHED1
 62
   120
370
     5
100
AcDbLine
 10
800.5155159734469
 20
1095.948036397832
 30
0.0
 11
832.0252905495512
 21
1127.457810973928
 31
0.0
  0
LINE
  5
31F
330
1F
100
AcDbEntity
  8
0-0
  6
JWW_DASHED1
 62
   120
370
     5
100
AcDbLine
 10
800.5155159734469
 20
1105.847531333051
 30
0.0
 11
822.1257956143297
 21
1127.457810973928
 31
0.0
  0
LINE
  5
320
330
1F
100
AcDbEntity
  8
寸法
  6
Continuous
 62
   120
370
     5
100
AcDbLine
 10
-1622.484484026551
 20
-1067.542189026076
 30
0.0
 11
-1222.48448402655
 21
-1067.542189026076
 31
0.0
  0
LINE
  5
321
330
1F
100
AcDbEntity
  8
寸法
  6
Continuous
 62
   120
370
     5
100
AcDbLine
 10
-1422.484484026552
 20
-1047.542189026076
 30
0.0
 11
-1222.48448402655
 21
-1047.542189026076
 31
0.0
  0
LWPOLYLINE
  5
322
330
1F
100
AcDbEntity
  8
寸法
  6
Continuous
 62
     7
370
     9
100
AcDbPolyline
 90
        4
 70
     1
 43
3.0
 10
-1620.984484026551
 20
-1067.542189026076
 42
0.4142135623731
 10
-1622.484484026551
 20
-1066.042189026077
 42
0.4142135623731
 10
-1623.984484026551
 20
-1067.542189026076
 42
0.4142135623731
 10
-1622.484484026551
 20
-1069.042189026076
 42
0.4142135623731
  0
LWPOLYLINE
  5
323
330
1F
100
AcDbEntity
  8
寸法
  6
Continuous
 62
     7
370
     9
100
AcDbPolyline
 90
        4
 70
     1
 43
3.0
 10
-1420.984484026552
 20
-1047.542189026076
 42
0.4142135623731
 10
-1422.484484026552
 20
-1046.042189026076
 42
0.4142135623731
 10
-1423.984484026552
 20
-1047.542189026076
 42
0.4142135623731
 10
-1422.484484026552
 20
-1049.042189026076
 42
0.4142135623731
  0
LINE
  5
324
330
1F
100
AcDbEntity
  8
寸法
  6
Continuous
 62
   120
370
     5
100
AcDbLine
 10
-1142.484484026551
 20
-1517.542189026076
 30
0.0
 11
-1142.484484026551
 21
-1117.542189026077
 31
0.0
  0
LINE
  5
325
330
1F
100
AcDbEntity
  8
寸法
  6
Continuous
 62
   120
370
     5
100
AcDbLine
 10
-1172.484484026551
 20
-1717.542189026076
 30
0.0
 11
-1172.484484026551
 21
-1117.542189026077
 31
0.0
  0
LINE
  5
326
330
1F
100
AcDbEntity
  8
寸法
  6
Continuous
 62
   120
370
     5
100
AcDbLine
 10
-1172.484484026551
 20
-1717.542189026076
 30
0.0
 11
2034.515515973449
 21
-1717.542189026076
 31
0.0
  0
LINE
  5
327
330
1F
100
AcDbEntity
  8
寸法
  6
Continuous
 62
   120
370
     5
100
AcDbLine
 10
2034.515515973449
 20
-1717.542189026076
 30
0.0
 11
2034.515515973449
 21
-1117.542189026076
 31
0.0
  0
LINE
  5
328
330
1F
100
AcDbEntity
  8
寸法
  6
Continuous
 62
   120
370
     5
100
AcDbLine
 10
-1145.484484026552
 20
-1317.542189026077
 30
0.0
 11
-1145.484484026552
 21
-1117.542189026077
 31
0.0
  0
LINE
  5
329
330
1F
100
AcDbEntity
  8
寸法
  6
Continuous
 62
   120
370
     5
100
AcDbLine
 10
-1145.484484026552
 20
-1317.542189026077
 30
0.0
 11
-335.4844840265508
 21
-1317.542189026077
 31
0.0
  0
LINE
  5
32A
330
1F
100
AcDbEntity
  8
寸法
  6
Continuous
 62
   120
370
     5
100
AcDbLine
 10
-335.4844840265508
 20
-1317.542189026077
 30
0.0
 11
-335.4844840265508
 21
-1117.542189026077
 31
0.0
  0
LINE
  5
32B
330
1F
100
AcDbEntity
  8
寸法
  6
Continuous
 62
   120
370
     5
100
AcDbLine
 10
-1142.484484026551
 20
-1517.542189026076
 30
0.0
 11
1194.515515973449
 21
-1517.542189026076
 31
0.0
  0
LINE
  5
32C
330
1F
100
AcDbEntity
  8
寸法
  6
Continuous
 62
   120
370
     5
100
AcDbLine
 10
1194.515515973449
 20
-1517.542189026076
 30
0.0
 11
1194.515515973449
 21
-1117.542189026076
 31
0.0
  0
LWPOLYLINE
  5
32D
330
1F
100
AcDbEntity
  8
寸法
  6
Continuous
 62
     7
370
     9
100
AcDbPolyline
 90
        4
 70
     1
 43
3.0
 10
-1140.984484026551
 20
-1517.542189026076
 42
0.4142135623731
 10
-1142.484484026551
 20
-1516.042189026077
 42
0.4142135623731
 10
-1143.984484026551
 20
-1517.542189026076
 42
0.4142135623731
 10
-1142.484484026551
 20
-1519.042189026076
 42
0.4142135623731
  0
LWPOLYLINE
  5
32E
330
1F
100
AcDbEntity
  8
寸法
  6
Continuous
 62
     7
370
     9
100
AcDbPolyline
 90
        4
 70
     1
 43
3.0
 10
-1170.984484026551
 20
-1717.542189026076
 42
0.4142135623731
 10
-1172.484484026551
 20
-1716.042189026077
 42
0.4142135623731
 10
-1173.984484026551
 20
-1717.542189026076
 42
0.4142135623731
 10
-1172.484484026551
 20
-1719.042189026076
 42
0.4142135623731
  0
LWPOLYLINE
  5
32F
330
1F
100
AcDbEntity
  8
寸法
  6
Continuous
 62
     7
370
     9
100
AcDbPolyline
 90
        4
 70
     1
 43
3.0
 10
2036.015515973449
 20
-1717.542189026076
 42
0.4142135623731
 10
2034.515515973449
 20
-1716.042189026076
 42
0.4142135623731
 10
2033.01551597345
 20
-1717.542189026076
 42
0.4142135623731
 10
2034.515515973449
 20
-1719.042189026076
 42
0.4142135623731
  0
LWPOLYLINE
  5
330
330
1F
100
AcDbEntity
  8
寸法
  6
Continuous
 62
     7
370
     9
100
AcDbPolyline
 90
        4
 70
     1
 43
3.0
 10
-1143.984484026552
 20
-1317.542189026077
 42
0.4142135623731
 10
-1145.484484026552
 20
-1316.042189026077
 42
0.4142135623731
 10
-1146.984484026551
 20
-1317.542189026077
 42
0.4142135623731
 10
-1145.484484026552
 20
-1319.042189026076
 42
0.4142135623731
  0
LWPOLYLINE
  5
331
330
1F
100
AcDbEntity
  8
寸法
  6
Continuous
 62
     7
370
     9
100
AcDbPolyline
 90
        4
 70
     1
 43
3.0
 10
-333.9844840265508
 20
-1317.542189026077
 42
0.4142135623731
 10
-335.4844840265508
 20
-1316.042189026077
 42
0.4142135623731
 10
-336.9844840265508
 20
-1317.542189026077
 42
0.4142135623731
 10
-335.4844840265508
 20
-1319.042189026076
 42
0.4142135623731
  0
LWPOLYLINE
  5
332
330
1F
100
AcDbEntity
  8
寸法
  6
Continuous
 62
     7
370
     9
100
AcDbPolyline
 90
        4
 70
     1
 43
3.0
 10
1196.015515973449
 20
-1517.542189026076
 42
0.4142135623731
 10
1194.515515973449
 20
-1516.042189026076
 42
0.4142135623731
 10
1193.01551597345
 20
-1517.542189026076
 42
0.4142135623731
 10
1194.515515973449
 20
-1519.042189026076
 42
0.4142135623731
  0
LINE
  5
333
330
1F
100
AcDbEntity
  8
寸法
  6
Continuous
 62
   120
370
     5
100
AcDbLine
 10
-1622.484484026551
 20
1179.457810973923
 30
0.0
 11
-1622.484484026551
 21
-1067.542189026076
 31
0.0
  0
LINE
  5
334
330
1F
100
AcDbEntity
  8
寸法
  6
Continuous
 62
   120
370
     5
100
AcDbLine
 10
-1622.484484026551
 20
1179.457810973923
 30
0.0
 11
-1222.48448402655
 21
1179.457810973923
 31
0.0
  0
LWPOLYLINE
  5
335
330
1F
100
AcDbEntity
  8
寸法
  6
Continuous
 62
     7
370
     9
100
AcDbPolyline
 90
        4
 70
     1
 43
3.0
 10
-1620.984484026551
 20
1179.457810973923
 42
0.4142135623731
 10
-1622.484484026551
 20
1180.957810973923
 42
0.4142135623731
 10
-1623.984484026551
 20
1179.457810973923
 42
0.4142135623731
 10
-1622.484484026551
 20
1177.957810973923
 42
0.4142135623731
  0
LINE
  5
336
330
1F
100
AcDbEntity
  8
寸法
  6
Continuous
 62
   120
370
     5
100
AcDbLine
 10
-1422.484484026552
 20
1135.457810973923
 30
0.0
 11
-1222.48448402655
 21
1135.457810973923
 31
0.0
  0
LINE
  5
337
330
1F
100
AcDbEntity
  8
寸法
  6
Continuous
 62
   120
370
     5
100
AcDbLine
 10
-1422.484484026552
 20
1135.457810973923
 30
0.0
 11
-1422.484484026552
 21
-1047.542189026076
 31
0.0
  0
LWPOLYLINE
  5
338
330
1F
100
AcDbEntity
  8
寸法
  6
Continuous
 62
     7
370
     9
100
AcDbPolyline
 90
        4
 70
     1
 43
3.0
 10
-1420.984484026552
 20
1135.457810973923
 42
0.4142135623731
 10
-1422.484484026552
 20
1136.957810973923
 42
0.4142135623731
 10
-1423.984484026552
 20
1135.457810973923
 42
0.4142135623731
 10
-1422.484484026552
 20
1133.957810973923
 42
0.4142135623731
  0
MTEXT
  5
339
330
1F
100
AcDbEntity
  8
寸法
  6
Continuous
 62
     7
370
    70
100
AcDbMText
 10
-1637.484484026551
 20
-168.2171890260757
 30
0.0
 40
57.14999999999999
 41
412.5
 46
0.0
 71
     7
 72
     1
  1
{\fＭＳ ゴシック|b0|i0|c128|p49;枠外＝2,247}
 11
6.123031769111886E-17
 21
1.0
 31
0.0
 73
     1
 44
1.0
  0
MTEXT
  5
33A
330
1F
100
AcDbEntity
  8
寸法
  6
Continuous
 62
     7
370
    70
100
AcDbMText
 10
-1437.484484026552
 20
-174.2171890260762
 30
0.0
 40
57.14999999999999
 41
412.5
 46
0.0
 71
     7
 72
     1
  1
{\fＭＳ ゴシック|b0|i0|c128|p49;ＤＨ＝2,183}
 11
6.123031769111886E-17
 21
1.0
 31
0.0
 73
     1
 44
1.0
  0
MTEXT
  5
33B
330
1F
100
AcDbEntity
  8
寸法
  6
Continuous
 62
     7
370
   211
100
AcDbMText
 10
-909.2344840265508
 20
-1311.467189026077
 30
0.0
 40
57.15
 41
337.5
 46
0.0
 71
     7
 72
     1
  1
{\fＭＳ ゴシック|b0|i0|c128|p49;ＤＷ＝810}
 73
     1
 44
1.0
  0
MTEXT
  5
33C
330
1F
100
AcDbEntity
  8
寸法
  6
Continuous
 62
     7
370
   211
100
AcDbMText
 10
-255.234484026553
 20
-1511.467189026076
 30
0.0
 40
57.15000000000001
 41
562.5
 46
0.0
 71
     7
 72
     1
  1
{\fＭＳ ゴシック|b0|i0|c128|p49;有効開口＝2,337}
 73
     1
 44
1.0
  0
MTEXT
  5
33D
330
1F
100
AcDbEntity
  8
寸法
  6
Continuous
 62
     7
370
   211
100
AcDbMText
 10
224.765515973447
 20
-1711.467189026076
 30
0.0
 40
57.14999999999999
 41
412.5
 46
0.0
 71
     7
 72
     1
  1
{\fＭＳ ゴシック|b0|i0|c128|p49;枠外＝3,207}
 73
     1
 44
1.0
  0
ENDSEC
  0
SECTION
  2
OBJECTS
  0
DICTIONARY
  5
C
330
0
100
AcDbDictionary
281
     1
  3
ACAD_GROUP
350
D
  3
ACAD_LAYOUT
350
1A
  3
ACAD_MATERIAL
350
3B
  3
ACAD_MLEADERSTYLE
350
33F
  3
ACAD_MLINESTYLE
350
17
  3
ACAD_PLOTSETTINGS
350
19
  3
ACAD_PLOTSTYLENAME
350
E
  3
ACAD_TABLESTYLE
350
33E
  3
ACAD_VISUALSTYLE
350
2A
  0
DICTIONARY
  5
D
102
{ACAD_REACTORS
330
C
102
}
330
C
100
AcDbDictionary
281
     1
  0
DICTIONARY
  5
1A
102
{ACAD_REACTORS
330
C
102
}
330
C
100
AcDbDictionary
281
     1
  3
Layout1
350
1E
  3
Layout2
350
26
  3
Model
350
22
  0
DICTIONARY
  5
3B
102
{ACAD_REACTORS
330
C
102
}
330
C
100
AcDbDictionary
281
     1
  3
ByBlock
350
3D
  3
ByLayer
350
3C
  3
Global
350
3E
  0
DICTIONARY
  5
33F
102
{ACAD_REACTORS
330
C
102
}
330
C
100
AcDbDictionary
281
     1
  0
DICTIONARY
  5
17
102
{ACAD_REACTORS
330
C
102
}
330
C
100
AcDbDictionary
281
     1
  3
Standard
350
18
  0
DICTIONARY
  5
19
102
{ACAD_REACTORS
330
C
102
}
330
C
100
AcDbDictionary
281
     1
  0
ACDBDICTIONARYWDFLT
  5
E
102
{ACAD_REACTORS
330
C
102
}
330
C
100
AcDbDictionary
281
     1
  3
Normal
350
F
100
AcDbDictionaryWithDefault
340
F
  0
DICTIONARY
  5
33E
102
{ACAD_REACTORS
330
C
102
}
330
C
100
AcDbDictionary
281
     1
  0
DICTIONARY
  5
2A
102
{ACAD_REACTORS
330
C
102
}
330
C
100
AcDbDictionary
281
     1
  3
2dWireframe
350
2F
  3
3D Hidden
350
31
  3
3dWireframe
350
30
  3
Basic
350
32
  3
Brighten
350
36
  3
ColorChange
350
3A
  3
Conceptual
350
34
  3
Dim
350
35
  3
Facepattern
350
39
  3
Flat
350
2B
  3
FlatWithEdges
350
2C
  3
Gouraud
350
2D
  3
GouraudWithEdges
350
2E
  3
Linepattern
350
38
  3
Realistic
350
33
  3
Thicken
350
37
  0
LAYOUT
  5
1E
102
{ACAD_REACTORS
330
1A
102
}
330
1A
100
AcDbPlotSettings
  1

  2
none_device
  4

  6

 40
0.0
 41
0.0
 42
0.0
 43
0.0
 44
0.0
 45
0.0
 46
0.0
 47
0.0
 48
0.0
 49
0.0
140
0.0
141
0.0
142
1.0
143
1.0
 70
   688
 72
     0
 73
     0
 74
     5
  7

 75
    16
 76
     0
 77
     5
 78
   300
147
1.0
148
0.0
149
0.0
100
AcDbLayout
  1
Layout1
 70
     1
 71
     1
 10
0.0
 20
0.0
 11
420.0
 21
297.0
 12
0.0
 22
0.0
 32
0.0
 14
1.000000000000000E+20
 24
1.000000000000000E+20
 34
1.000000000000000E+20
 15
-1.000000000000000E+20
 25
-1.000000000000000E+20
 35
-1.000000000000000E+20
146
0.0
 13
0.0
 23
0.0
 33
0.0
 16
1.0
 26
0.0
 36
0.0
 17
0.0
 27
1.0
 37
0.0
 76
     0
330
1B
  0
LAYOUT
  5
26
102
{ACAD_REACTORS
330
1A
102
}
330
1A
100
AcDbPlotSettings
  1

  2
none_device
  4

  6

 40
0.0
 41
0.0
 42
0.0
 43
0.0
 44
0.0
 45
0.0
 46
0.0
 47
0.0
 48
0.0
 49
0.0
140
0.0
141
0.0
142
1.0
143
1.0
 70
   688
 72
     0
 73
     0
 74
     5
  7

 75
    16
 76
     0
 77
     5
 78
   300
147
1.0
148
0.0
149
0.0
100
AcDbLayout
  1
Layout2
 70
     1
 71
     2
 10
0.0
 20
0.0
 11
0.0
 21
0.0
 12
0.0
 22
0.0
 32
0.0
 14
0.0
 24
0.0
 34
0.0
 15
0.0
 25
0.0
 35
0.0
146
0.0
 13
0.0
 23
0.0
 33
0.0
 16
1.0
 26
0.0
 36
0.0
 17
0.0
 27
1.0
 37
0.0
 76
     0
330
23
  0
LAYOUT
  5
22
102
{ACAD_REACTORS
330
1A
102
}
330
1A
100
AcDbPlotSettings
  1

  2
none_device
  4

  6

 40
0.0
 41
0.0
 42
0.0
 43
0.0
 44
0.0
 45
0.0
 46
0.0
 47
0.0
 48
0.0
 49
0.0
140
0.0
141
0.0
142
1.0
143
1.0
 70
  1712
 72
     0
 73
     0
 74
     0
  7

 75
     0
 76
     0
 77
     5
 78
   300
147
1.0
148
0.0
149
0.0
100
AcDbLayout
  1
Model
 70
     1
 71
     0
 10
-4455.0
 20
-3150.0
 11
4455.0
 21
3150.0
 12
0.0
 22
0.0
 32
0.0
 14
-4455.0
 24
-3150.0
 34
0.0
 15
4455.0
 25
3150.0
 35
0.0
146
0.0
 13
0.0
 23
0.0
 33
0.0
 16
1.0
 26
0.0
 36
0.0
 17
0.0
 27
1.0
 37
0.0
 76
     0
330
1F
331
29
  0
MATERIAL
  5
3D
102
{ACAD_REACTORS
330
3B
102
}
330
3B
100
AcDbMaterial
  1
ByBlock
 72
     1
 94
      127
  0
MATERIAL
  5
3C
102
{ACAD_REACTORS
330
3B
102
}
330
3B
100
AcDbMaterial
  1
ByLayer
 72
     1
 94
      127
  0
MATERIAL
  5
3E
102
{ACAD_REACTORS
330
3B
102
}
330
3B
100
AcDbMaterial
  1
Global
 72
     1
 94
      127
  0
MLINESTYLE
  5
18
102
{ACAD_REACTORS
330
17
102
}
330
17
100
AcDbMlineStyle
  2
Standard
 70
     0
  3

 62
   256
 51
90.0
 52
90.0
 71
     2
 49
0.5
 62
   256
  6
BYLAYER
 49
-0.5
 62
   256
  6
BYLAYER
  0
ACDBPLACEHOLDER
  5
F
102
{ACAD_REACTORS
330
E
102
}
330
E
  0
VISUALSTYLE
  5
2F
102
{ACAD_REACTORS
330
2A
102
}
330
2A
100
AcDbVisualStyle
  2
2dWireframe
 70
     4
177
     2
291
     0
 71
     0
176
     1
 72
     2
176
     1
 73
     0
176
     1
 90
        0
176
     1
 40
-0.6
176
     1
 41
-30.0
176
     1
 62
     5
 63
     7
421
 16777215
176
     1
 74
     1
176
     1
 91
        4
176
     1
 64
     7
176
     1
 65
   257
176
     1
 75
     1
176
     1
175
     1
176
     1
 42
1.0
176
     1
 92
        0
176
     1
 66
   257
176
     1
 43
1.0
176
     1
 76
     1
176
     1
 77
     6
176
     1
 78
     2
176
     1
 67
     7
176
     1
 79
     5
176
     1
170
     0
176
     1
171
     0
176
     1
290
     0
176
     1
 93
        1
176
     1
 44
0.0
176
     1
173
     0
176
     1
  0
VISUALSTYLE
  5
31
102
{ACAD_REACTORS
330
2A
102
}
330
2A
100
AcDbVisualStyle
  2
3D Hidden
 70
     6
177
     2
291
     0
 71
     1
176
     1
 72
     2
176
     1
 73
     2
176
     1
 90
        0
176
     1
 40
-0.6
176
     1
 41
-30.0
176
     1
 62
     5
 63
     7
421
 16777215
176
     1
 74
     2
176
     1
 91
        2
176
     1
 64
     7
176
     1
 65
   257
176
     1
 75
     2
176
     1
175
     1
176
     1
 42
40.0
176
     1
 92
        0
176
     1
 66
   257
176
     1
 43
1.0
176
     1
 76
     1
176
     1
 77
     6
176
     1
 78
     2
176
     1
 67
     7
176
     1
 79
     3
176
     1
170
     0
176
     1
171
     0
176
     1
290
     0
176
     1
 93
        1
176
     1
 44
0.0
176
     1
173
     0
176
     1
  0
VISUALSTYLE
  5
30
102
{ACAD_REACTORS
330
2A
102
}
330
2A
100
AcDbVisualStyle
  2
3dWireframe
 70
     5
177
     2
291
     0
 71
     0
176
     1
 72
     2
176
     1
 73
     0
176
     1
 90
        0
176
     1
 40
-0.6
176
     1
 41
-30.0
176
     1
 62
     5
 63
     7
421
 16777215
176
     1
 74
     1
176
     1
 91
        4
176
     1
 64
     7
176
     1
 65
   257
176
     1
 75
     1
176
     1
175
     1
176
     1
 42
1.0
176
     1
 92
        0
176
     1
 66
   257
176
     1
 43
1.0
176
     1
 76
     1
176
     1
 77
     6
176
     1
 78
     2
176
     1
 67
     7
176
     1
 79
     5
176
     1
170
     0
176
     1
171
     0
176
     1
290
     0
176
     1
 93
        1
176
     1
 44
0.0
176
     1
173
     0
176
     1
  0
VISUALSTYLE
  5
32
102
{ACAD_REACTORS
330
2A
102
}
330
2A
100
AcDbVisualStyle
  2
Basic
 70
     7
177
     2
291
     1
 71
     1
176
     1
 72
     0
176
     1
 73
     1
176
     1
 90
        0
176
     1
 40
-0.6
176
     1
 41
-30.0
176
     1
 62
     5
 63
     7
421
 16777215
176
     1
 74
     0
176
     1
 91
        4
176
     1
 64
     7
176
     1
 65
   257
176
     1
 75
     1
176
     1
175
     1
176
     1
 42
1.0
176
     1
 92
        8
176
     1
 66
     7
176
     1
 43
1.0
176
     1
 76
     1
176
     1
 77
     6
176
     1
 78
     2
176
     1
 67
     7
176
     1
 79
     5
176
     1
170
     0
176
     1
171
     0
176
     1
290
     0
176
     1
 93
        1
176
     1
 44
0.0
176
     1
173
     0
176
     1
  0
VISUALSTYLE
  5
36
102
{ACAD_REACTORS
330
2A
102
}
330
2A
100
AcDbVisualStyle
  2
Brighten
 70
    12
177
     2
291
     1
 71
     2
176
     1
 72
     2
176
     1
 73
     0
176
     1
 90
        0
176
     1
 40
-0.6
176
     1
 41
-30.0
176
     1
 62
     5
 63
     7
421
 16777215
176
     1
 74
     1
176
     1
 91
        4
176
     1
 64
     7
176
     1
 65
   257
176
     1
 75
     1
176
     1
175
     1
176
     1
 42
1.0
176
     1
 92
        8
176
     1
 66
     7
176
     1
 43
1.0
176
     1
 76
     1
176
     1
 77
     6
176
     1
 78
     2
176
     1
 67
     7
176
     1
 79
     5
176
     1
170
     0
176
     1
171
     0
176
     1
290
     0
176
     1
 93
        1
176
     1
 44
50.0
176
     1
173
     0
176
     1
  0
VISUALSTYLE
  5
3A
102
{ACAD_REACTORS
330
2A
102
}
330
2A
100
AcDbVisualStyle
  2
ColorChange
 70
    16
177
     2
291
     1
 71
     2
176
     1
 72
     2
176
     1
 73
     3
176
     1
 90
        0
176
     1
 40
-0.6
176
     1
 41
-30.0
176
     1
 62
     5
 63
     8
421
  8421504
176
     1
 74
     1
176
     1
 91
        4
176
     1
 64
     7
176
     1
 65
   257
176
     1
 75
     1
176
     1
175
     1
176
     1
 42
1.0
176
     1
 92
        8
176
     1
 66
     8
424
  8421504
176
     1
 43
1.0
176
     1
 76
     1
176
     1
 77
     6
176
     1
 78
     2
176
     1
 67
     7
176
     1
 79
     5
176
     1
170
     0
176
     1
171
     0
176
     1
290
     0
176
     1
 93
        1
176
     1
 44
0.0
176
     1
173
     0
176
     1
  0
VISUALSTYLE
  5
34
102
{ACAD_REACTORS
330
2A
102
}
330
2A
100
AcDbVisualStyle
  2
Conceptual
 70
     9
177
     2
291
     0
 71
     3
176
     1
 72
     2
176
     1
 73
     0
176
     1
 90
        0
176
     1
 40
-0.6
176
     1
 41
-30.0
176
     1
 62
     5
 63
     7
421
 16777215
176
     1
 74
     2
176
     1
 91
        2
176
     1
 64
     7
176
     1
 65
   257
176
     1
 75
     1
176
     1
175
     1
176
     1
 42
40.0
176
     1
 92
        8
176
     1
 66
     7
176
     1
 43
1.0
176
     1
 76
     1
176
     1
 77
     6
176
     1
 78
     2
176
     1
 67
     7
176
     1
 79
     3
176
     1
170
     0
176
     1
171
     0
176
     1
290
     0
176
     1
 93
        1
176
     1
 44
0.0
176
     1
173
     0
176
     1
  0
VISUALSTYLE
  5
35
102
{ACAD_REACTORS
330
2A
102
}
330
2A
100
AcDbVisualStyle
  2
Dim
 70
    11
177
     2
291
     1
 71
     2
176
     1
 72
     2
176
     1
 73
     0
176
     1
 90
        0
176
     1
 40
-0.6
176
     1
 41
-30.0
176
     1
 62
     5
 63
     7
421
 16777215
176
     1
 74
     1
176
     1
 91
        4
176
     1
 64
     7
176
     1
 65
   257
176
     1
 75
     1
176
     1
175
     1
176
     1
 42
1.0
176
     1
 92
        8
176
     1
 66
     7
176
     1
 43
1.0
176
     1
 76
     1
176
     1
 77
     6
176
     1
 78
     2
176
     1
 67
     7
176
     1
 79
     5
176
     1
170
     0
176
     1
171
     0
176
     1
290
     0
176
     1
 93
        1
176
     1
 44
-50.0
176
     1
173
     0
176
     1
  0
VISUALSTYLE
  5
39
102
{ACAD_REACTORS
330
2A
102
}
330
2A
100
AcDbVisualStyle
  2
Facepattern
 70
    15
177
     2
291
     1
 71
     2
176
     1
 72
     2
176
     1
 73
     0
176
     1
 90
        0
176
     1
 40
-0.6
176
     1
 41
-30.0
176
     1
 62
     5
 63
     7
421
 16777215
176
     1
 74
     1
176
     1
 91
        4
176
     1
 64
     7
176
     1
 65
   257
176
     1
 75
     1
176
     1
175
     1
176
     1
 42
1.0
176
     1
 92
        8
176
     1
 66
     7
176
     1
 43
1.0
176
     1
 76
     1
176
     1
 77
     6
176
     1
 78
     2
176
     1
 67
     7
176
     1
 79
     5
176
     1
170
     0
176
     1
171
     0
176
     1
290
     0
176
     1
 93
        1
176
     1
 44
0.0
176
     1
173
     0
176
     1
  0
VISUALSTYLE
  5
2B
102
{ACAD_REACTORS
330
2A
102
}
330
2A
100
AcDbVisualStyle
  2
Flat
 70
     0
177
     2
291
     1
 71
     2
176
     1
 72
     1
176
     1
 73
     1
176
     1
 90
        2
176
     1
 40
-0.6
176
     1
 41
30.0
176
     1
 62
     5
 63
     7
421
 16777215
176
     1
 74
     0
176
     1
 91
        4
176
     1
 64
     7
176
     1
 65
   257
176
     1
 75
     1
176
     1
175
     1
176
     1
 42
1.0
176
     1
 92
        8
176
     1
 66
     7
176
     1
 43
1.0
176
     1
 76
     1
176
     1
 77
     6
176
     1
 78
     2
176
     1
 67
     7
176
     1
 79
     5
176
     1
170
     0
176
     1
171
     0
176
     1
290
     0
176
     1
 93
       13
176
     1
 44
0.0
176
     1
173
     0
176
     1
  0
VISUALSTYLE
  5
2C
102
{ACAD_REACTORS
330
2A
102
}
330
2A
100
AcDbVisualStyle
  2
FlatWithEdges
 70
     1
177
     2
291
     1
 71
     2
176
     1
 72
     1
176
     1
 73
     1
176
     1
 90
        2
176
     1
 40
-0.6
176
     1
 41
30.0
176
     1
 62
     5
 63
     7
421
 16777215
176
     1
 74
     1
176
     1
 91
        4
176
     1
 64
     7
176
     1
 65
   257
176
     1
 75
     1
176
     1
175
     1
176
     1
 42
1.0
176
     1
 92
        0
176
     1
 66
   257
176
     1
 43
1.0
176
     1
 76
     1
176
     1
 77
     6
176
     1
 78
     2
176
     1
 67
     7
176
     1
 79
     5
176
     1
170
     0
176
     1
171
     0
176
     1
290
     0
176
     1
 93
       13
176
     1
 44
0.0
176
     1
173
     0
176
     1
  0
VISUALSTYLE
  5
2D
102
{ACAD_REACTORS
330
2A
102
}
330
2A
100
AcDbVisualStyle
  2
Gouraud
 70
     2
177
     2
291
     1
 71
     2
176
     1
 72
     2
176
     1
 73
     1
176
     1
 90
        2
176
     1
 40
-0.6
176
     1
 41
30.0
176
     1
 62
     5
 63
     7
421
 16777215
176
     1
 74
     0
176
     1
 91
        4
176
     1
 64
     7
176
     1
 65
   257
176
     1
 75
     1
176
     1
175
     1
176
     1
 42
1.0
176
     1
 92
        0
176
     1
 66
     7
176
     1
 43
1.0
176
     1
 76
     1
176
     1
 77
     6
176
     1
 78
     2
176
     1
 67
     7
176
     1
 79
     5
176
     1
170
     0
176
     1
171
     0
176
     1
290
     0
176
     1
 93
       13
176
     1
 44
0.0
176
     1
173
     0
176
     1
  0
VISUALSTYLE
  5
2E
102
{ACAD_REACTORS
330
2A
102
}
330
2A
100
AcDbVisualStyle
  2
GouraudWithEdges
 70
     3
177
     2
291
     1
 71
     2
176
     1
 72
     2
176
     1
 73
     1
176
     1
 90
        2
176
     1
 40
-0.6
176
     1
 41
30.0
176
     1
 62
     5
 63
     7
421
 16777215
176
     1
 74
     1
176
     1
 91
        4
176
     1
 64
     7
176
     1
 65
   257
176
     1
 75
     1
176
     1
175
     1
176
     1
 42
1.0
176
     1
 92
        0
176
     1
 66
   257
176
     1
 43
1.0
176
     1
 76
     1
176
     1
 77
     6
176
     1
 78
     2
176
     1
 67
     7
176
     1
 79
     5
176
     1
170
     0
176
     1
171
     0
176
     1
290
     0
176
     1
 93
       13
176
     1
 44
0.0
176
     1
173
     0
176
     1
  0
VISUALSTYLE
  5
38
102
{ACAD_REACTORS
330
2A
102
}
330
2A
100
AcDbVisualStyle
  2
Linepattern
 70
    14
177
     2
291
     1
 71
     2
176
     1
 72
     2
176
     1
 73
     0
176
     1
 90
        0
176
     1
 40
-0.6
176
     1
 41
-30.0
176
     1
 62
     5
 63
     7
421
 16777215
176
     1
 74
     1
176
     1
 91
        4
176
     1
 64
     7
176
     1
 65
   257
176
     1
 75
     7
176
     1
175
     7
176
     1
 42
1.0
176
     1
 92
        8
176
     1
 66
     7
176
     1
 43
1.0
176
     1
 76
     1
176
     1
 77
     6
176
     1
 78
     2
176
     1
 67
     7
176
     1
 79
     5
176
     1
170
     0
176
     1
171
     0
176
     1
290
     0
176
     1
 93
        1
176
     1
 44
0.0
176
     1
173
     0
176
     1
  0
VISUALSTYLE
  5
33
102
{ACAD_REACTORS
330
2A
102
}
330
2A
100
AcDbVisualStyle
  2
Realistic
 70
     8
177
     2
291
     0
 71
     2
176
     1
 72
     2
176
     1
 73
     0
176
     1
 90
        0
176
     1
 40
-0.6
176
     1
 41
-30.0
176
     1
 62
     5
 63
     7
421
 16777215
176
     1
 74
     1
176
     1
 91
        0
176
     1
 64
     7
176
     1
 65
   257
176
     1
 75
     1
176
     1
175
     1
176
     1
 42
1.0
176
     1
 92
        8
176
     1
 66
     8
424
  7895160
176
     1
 43
1.0
176
     1
 76
     1
176
     1
 77
     6
176
     1
 78
     2
176
     1
 67
     7
176
     1
 79
     5
176
     1
170
     0
176
     1
171
     0
176
     1
290
     0
176
     1
 93
       13
176
     1
 44
0.0
176
     1
173
     0
176
     1
  0
VISUALSTYLE
  5
37
102
{ACAD_REACTORS
330
2A
102
}
330
2A
100
AcDbVisualStyle
  2
Thicken
 70
    13
177
     2
291
     1
 71
     2
176
     1
 72
     2
176
     1
 73
     0
176
     1
 90
        0
176
     1
 40
-0.6
176
     1
 41
-30.0
176
     1
 62
     5
 63
     7
421
 16777215
176
     1
 74
     1
176
     1
 91
        4
176
     1
 64
     7
176
     1
 65
   257
176
     1
 75
     1
176
     1
175
     1
176
     1
 42
1.0
176
     1
 92
       12
176
     1
 66
     7
176
     1
 43
1.0
176
     1
 76
     1
176
     1
 77
     6
176
     1
 78
     2
176
     1
 67
     7
176
     1
 79
     5
176
     1
170
     0
176
     1
171
     0
176
     1
290
     0
176
     1
 93
        1
176
     1
 44
0.0
176
     1
173
     0
176
     1
  0
ENDSEC
  0
EOF
