  0
SECTION
  2
HEADER
  9
$ACADVER
  1
AC1024
  9
$ACADMAINTVER
 70
     6
  9
$DWGCODEPAGE
  3
ANSI_932
  9
$INSBASE
 10
0.0
 20
0.0
 30
0.0
  9
$EXTMIN
 10
-4455.0
 20
-3150.0
 30
0.0
  9
$EXTMAX
 10
4455.0
 20
3150.0
 30
0.0
  9
$LIMMIN
 10
-4455.0
 20
-3150.0
  9
$LIMMAX
 10
4455.0
 20
3150.0
  9
$ORTHOMODE
 70
     0
  9
$REGENMODE
 70
     1
  9
$FILLMODE
 70
     1
  9
$QTEXTMODE
 70
     0
  9
$MIRRTEXT
 70
     1
  9
$LTSCALE
 40
30.0
  9
$ATTMODE
 70
     1
  9
$TEXTSIZE
 40
2.5
  9
$TRACEWID
 40
1.0
  9
$TEXTSTYLE
  7
Standard
  9
$CLAYER
  8
0
  9
$CELTYPE
  6
ByLayer
  9
$CECOLOR
 62
   256
  9
$CELTSCALE
 40
1.0
  9
$DISPSILH
 70
     0
  9
$DIMSCALE
 40
1.0
  9
$DIMASZ
 40
2.5
  9
$DIMEXO
 40
0.625
  9
$DIMDLI
 40
3.75
  9
$DIMRND
 40
0.0
  9
$DIMDLE
 40
0.0
  9
$DIMEXE
 40
1.25
  9
$DIMTP
 40
0.0
  9
$DIMTM
 40
0.0
  9
$DIMTXT
 40
2.5
  9
$DIMCEN
 40
2.5
  9
$DIMTSZ
 40
0.0
  9
$DIMTOL
 70
     0
  9
$DIMLIM
 70
     0
  9
$DIMTIH
 70
     0
  9
$DIMTOH
 70
     0
  9
$DIMSE1
 70
     0
  9
$DIMSE2
 70
     0
  9
$DIMTAD
 70
     1
  9
$DIMZIN
 70
     8
  9
$DIMBLK
  1

  9
$DIMASO
 70
     1
  9
$DIMSHO
 70
     1
  9
$DIMPOST
  1

  9
$DIMAPOST
  1

  9
$DIMALT
 70
     0
  9
$DIMALTD
 70
     3
  9
$DIMALTF
 40
0.03937007874016
  9
$DIMLFAC
 40
1.0
  9
$DIMTOFL
 70
     1
  9
$DIMTVP
 40
0.0
  9
$DIMTIX
 70
     0
  9
$DIMSOXD
 70
     0
  9
$DIMSAH
 70
     0
  9
$DIMBLK1
  1

  9
$DIMBLK2
  1

  9
$DIMSTYLE
  2
ISO-25
  9
$DIMCLRD
 70
     0
  9
$DIMCLRE
 70
     0
  9
$DIMCLRT
 70
     0
  9
$DIMTFAC
 40
1.0
  9
$DIMGAP
 40
0.625
  9
$DIMJUST
 70
     0
  9
$DIMSD1
 70
     0
  9
$DIMSD2
 70
     0
  9
$DIMTOLJ
 70
     0
  9
$DIMTZIN
 70
     8
  9
$DIMALTZ
 70
     0
  9
$DIMALTTZ
 70
     0
  9
$DIMUPT
 70
     0
  9
$DIMDEC
 70
     2
  9
$DIMTDEC
 70
     2
  9
$DIMALTU
 70
     2
  9
$DIMALTTD
 70
     3
  9
$DIMTXSTY
  7
Standard
  9
$DIMAUNIT
 70
     0
  9
$DIMADEC
 70
     0
  9
$DIMALTRND
 40
0.0
  9
$DIMAZIN
 70
     0
  9
$DIMDSEP
 70
    44
  9
$DIMATFIT
 70
     3
  9
$DIMFRAC
 70
     0
  9
$DIMLDRBLK
  1

  9
$DIMLUNIT
 70
     2
  9
$DIMLWD
 70
    -2
  9
$DIMLWE
 70
    -2
  9
$DIMTMOVE
 70
     0
  9
$DIMFXL
 40
1.0
  9
$DIMFXLON
 70
     0
  9
$DIMJOGANG
 40
0.7853981633974483
  9
$DIMTFILL
 70
     0
  9
$DIMTFILLCLR
 70
     0
  9
$DIMARCSYM
 70
     0
  9
$DIMLTYPE
  6

  9
$DIMLTEX1
  6

  9
$DIMLTEX2
  6

  9
$DIMTXTDIRECTION
 70
     0
  9
$LUNITS
 70
     2
  9
$LUPREC
 70
     4
  9
$SKETCHINC
 40
1.0
  9
$FILLETRAD
 40
10.0
  9
$AUNITS
 70
     0
  9
$AUPREC
 70
     0
  9
$MENU
  1
.
  9
$ELEVATION
 40
0.0
  9
$PELEVATION
 40
0.0
  9
$THICKNESS
 40
0.0
  9
$LIMCHECK
 70
     0
  9
$CHAMFERA
 40
10.0
  9
$CHAMFERB
 40
10.0
  9
$CHAMFERC
 40
20.0
  9
$CHAMFERD
 40
0.0
  9
$SKPOLY
 70
     0
  9
$TDCREATE
 40
2457953.400894699
  9
$TDUCREATE
 40
2457953.025894699
  9
$TDUPDATE
 40
2457953.400894711
  9
$TDUUPDATE
 40
2457953.025894711
  9
$TDINDWG
 40
0.0000000116
  9
$TDUSRTIMER
 40
0.0000000116
  9
$USRTIMER
 70
     1
  9
$ANGBASE
 50
0.0
  9
$ANGDIR
 70
     0
  9
$PDMODE
 70
     0
  9
$PDSIZE
 40
0.0
  9
$PLINEWID
 40
0.0
  9
$SPLFRAME
 70
     0
  9
$SPLINETYPE
 70
     6
  9
$SPLINESEGS
 70
     8
  9
$HANDSEED
  5
3F7
  9
$SURFTAB1
 70
     6
  9
$SURFTAB2
 70
     6
  9
$SURFTYPE
 70
     6
  9
$SURFU
 70
     6
  9
$SURFV
 70
     6
  9
$UCSBASE
  2

  9
$UCSNAME
  2

  9
$UCSORG
 10
0.0
 20
0.0
 30
0.0
  9
$UCSXDIR
 10
1.0
 20
0.0
 30
0.0
  9
$UCSYDIR
 10
0.0
 20
1.0
 30
0.0
  9
$UCSORTHOREF
  2

  9
$UCSORTHOVIEW
 70
     0
  9
$UCSORGTOP
 10
0.0
 20
0.0
 30
0.0
  9
$UCSORGBOTTOM
 10
0.0
 20
0.0
 30
0.0
  9
$UCSORGLEFT
 10
0.0
 20
0.0
 30
0.0
  9
$UCSORGRIGHT
 10
0.0
 20
0.0
 30
0.0
  9
$UCSORGFRONT
 10
0.0
 20
0.0
 30
0.0
  9
$UCSORGBACK
 10
0.0
 20
0.0
 30
0.0
  9
$PUCSBASE
  2

  9
$PUCSNAME
  2

  9
$PUCSORG
 10
0.0
 20
0.0
 30
0.0
  9
$PUCSXDIR
 10
1.0
 20
0.0
 30
0.0
  9
$PUCSYDIR
 10
0.0
 20
1.0
 30
0.0
  9
$PUCSORTHOREF
  2

  9
$PUCSORTHOVIEW
 70
     0
  9
$PUCSORGTOP
 10
0.0
 20
0.0
 30
0.0
  9
$PUCSORGBOTTOM
 10
0.0
 20
0.0
 30
0.0
  9
$PUCSORGLEFT
 10
0.0
 20
0.0
 30
0.0
  9
$PUCSORGRIGHT
 10
0.0
 20
0.0
 30
0.0
  9
$PUCSORGFRONT
 10
0.0
 20
0.0
 30
0.0
  9
$PUCSORGBACK
 10
0.0
 20
0.0
 30
0.0
  9
$USERI1
 70
     0
  9
$USERI2
 70
     0
  9
$USERI3
 70
     0
  9
$USERI4
 70
     0
  9
$USERI5
 70
     0
  9
$USERR1
 40
0.0
  9
$USERR2
 40
0.0
  9
$USERR3
 40
0.0
  9
$USERR4
 40
0.0
  9
$USERR5
 40
0.0
  9
$WORLDVIEW
 70
     1
  9
$SHADEDGE
 70
     3
  9
$SHADEDIF
 70
    70
  9
$TILEMODE
 70
     1
  9
$MAXACTVP
 70
    64
  9
$PINSBASE
 10
0.0
 20
0.0
 30
0.0
  9
$PLIMCHECK
 70
     0
  9
$PEXTMIN
 10
1.000000000000000E+20
 20
1.000000000000000E+20
 30
1.000000000000000E+20
  9
$PEXTMAX
 10
-1.000000000000000E+20
 20
-1.000000000000000E+20
 30
-1.000000000000000E+20
  9
$PLIMMIN
 10
0.0
 20
0.0
  9
$PLIMMAX
 10
420.0
 20
297.0
  9
$UNITMODE
 70
     0
  9
$VISRETAIN
 70
     1
  9
$PLINEGEN
 70
     0
  9
$PSLTSCALE
 70
     1
  9
$TREEDEPTH
 70
  3020
  9
$CMLSTYLE
  2
Standard
  9
$CMLJUST
 70
     0
  9
$CMLSCALE
 40
20.0
  9
$PROXYGRAPHICS
 70
     1
  9
$MEASUREMENT
 70
     1
  9
$CELWEIGHT
370
    -1
  9
$ENDCAPS
280
     0
  9
$JOINSTYLE
280
     0
  9
$LWDISPLAY
290
     0
  9
$INSUNITS
 70
     4
  9
$HYPERLINKBASE
  1

  9
$STYLESHEET
  1

  9
$XEDIT
290
     1
  9
$CEPSNTYPE
380
     0
  9
$PSTYLEMODE
290
     1
  9
$FINGERPRINTGUID
  2
{58D3ED2E-8139-4DD3-A116-7D35F20C0129}
  9
$VERSIONGUID
  2
{FAEB1C32-E019-11D5-929B-00C0DF256EC4}
  9
$EXTNAMES
290
     1
  9
$PSVPSCALE
 40
0.0
  9
$OLESTARTUP
290
     0
  9
$SORTENTS
280
   127
  9
$INDEXCTL
280
     0
  9
$HIDETEXT
280
     1
  9
$XCLIPFRAME
280
     2
  9
$HALOGAP
280
     0
  9
$OBSCOLOR
 70
   257
  9
$OBSLTYPE
280
     0
  9
$INTERSECTIONDISPLAY
280
     0
  9
$INTERSECTIONCOLOR
 70
   257
  9
$DIMASSOC
280
     2
  9
$PROJECTNAME
  1

  9
$CAMERADISPLAY
290
     0
  9
$LENSLENGTH
 40
50.0
  9
$CAMERAHEIGHT
 40
0.0
  9
$STEPSPERSEC
 40
2.0
  9
$STEPSIZE
 40
6.0
  9
$3DDWFPREC
 40
2.0
  9
$PSOLWIDTH
 40
5.0
  9
$PSOLHEIGHT
 40
80.0
  9
$LOFTANG1
 40
1.570796326794897
  9
$LOFTANG2
 40
1.570796326794897
  9
$LOFTMAG1
 40
0.0
  9
$LOFTMAG2
 40
0.0
  9
$LOFTPARAM
 70
     7
  9
$LOFTNORMALS
280
     1
  9
$LATITUDE
 40
37.795
  9
$LONGITUDE
 40
-122.394
  9
$NORTHDIRECTION
 40
0.0
  9
$TIMEZONE
 70
 -8000
  9
$LIGHTGLYPHDISPLAY
280
     1
  9
$TILEMODELIGHTSYNCH
280
     1
  9
$SOLIDHIST
280
     1
  9
$SHOWHIST
280
     1
  9
$DWFFRAME
280
     2
  9
$DGNFRAME
280
     2
  9
$REALWORLDSCALE
290
     1
  9
$INTERFERECOLOR
 62
   256
  9
$CSHADOW
280
     0
  9
$SHADOWPLANELOCATION
 40
0.0
  0
ENDSEC
  0
SECTION
  2
CLASSES
  0
CLASS
  1
ACDBDICTIONARYWDFLT
  2
AcDbDictionaryWithDefault
  3
ObjectDBX Classes
 90
        0
 91
        4
280
     0
281
     0
  0
CLASS
  1
VISUALSTYLE
  2
AcDbVisualStyle
  3
ObjectDBX Classes
 90
     4095
 91
        4
280
     0
281
     0
  0
CLASS
  1
MATERIAL
  2
AcDbMaterial
  3
ObjectDBX Classes
 90
     1153
 91
        4
280
     0
281
     0
  0
ENDSEC
  0
SECTION
  2
TABLES
  0
TABLE
  2
VPORT
  5
8
330
0
100
AcDbSymbolTable
 70
     1
  0
VPORT
  5
29
330
8
100
AcDbSymbolTableRecord
100
AcDbViewportTableRecord
  2
*Active
 70
     0
 10
0.0
 20
0.0
 11
1.0
 21
1.0
 12
0.0
 22
0.0
 13
0.0
 23
0.0
 14
10.0
 24
10.0
 15
10.0
 25
10.0
 16
0.0
 26
0.0
 36
1.0
 17
0.0
 27
0.0
 37
0.0
 40
6930.000000000001
 41
1.414285714285714
 42
50.0
 43
0.0
 44
0.0
 50
0.0
 51
0.0
 71
     0
 72
 10000
 73
     1
 74
     3
 75
     0
 76
     0
 77
     0
 78
     0
281
     0
 65
     1
110
0.0
120
0.0
130
0.0
111
1.0
121
0.0
131
0.0
112
0.0
122
1.0
132
0.0
 79
     0
146
0.0
 60
     3
 61
     5
292
     1
282
     1
141
0.0
142
0.0
 63
   250
  0
ENDTAB
  0
TABLE
  2
LTYPE
  5
5
330
0
100
AcDbSymbolTable
 70
     2
  0
LTYPE
  5
14
330
5
100
AcDbSymbolTableRecord
100
AcDbLinetypeTableRecord
  2
ByBlock
 70
     0
  3

 72
    65
 73
     0
 40
0.0
  0
LTYPE
  5
15
330
5
100
AcDbSymbolTableRecord
100
AcDbLinetypeTableRecord
  2
ByLayer
 70
     0
  3

 72
    65
 73
     0
 40
0.0
  0
LTYPE
  5
16
330
5
100
AcDbSymbolTableRecord
100
AcDbLinetypeTableRecord
  2
Continuous
 70
     0
  3
Solid line
 72
    65
 73
     0
 40
0.0
  0
LTYPE
  5
3F
330
5
100
AcDbSymbolTableRecord
100
AcDbLinetypeTableRecord
  2
JWW_DASHED1
 70
     0
  3
-  --  --  --  --  --  --  --  -
 72
    65
 73
     2
 40
1.693333333333333
 49
0.8466666666666667
 74
     0
 49
-0.8466666666666667
 74
     0
  0
ENDTAB
  0
TABLE
  2
LAYER
  5
2
330
0
100
AcDbSymbolTable
 70
     3
  0
LAYER
  5
10
330
2
100
AcDbSymbolTableRecord
100
AcDbLayerTableRecord
  2
0
 70
     0
 62
     7
  6
Continuous
370
    -3
390
F
347
3E
  0
LAYER
  5
40
330
2
100
AcDbSymbolTableRecord
100
AcDbLayerTableRecord
  2
寸法
 70
     0
 62
     7
  6
Continuous
370
    -3
390
F
347
3E
  0
LAYER
  5
41
330
2
100
AcDbSymbolTableRecord
100
AcDbLayerTableRecord
  2
0-0
 70
     0
 62
     7
  6
Continuous
370
    -3
390
F
347
3E
  0
ENDTAB
  0
TABLE
  2
STYLE
  5
3
330
0
100
AcDbSymbolTable
 70
     1
  0
STYLE
  5
11
330
3
100
AcDbSymbolTableRecord
100
AcDbTextStyleTableRecord
  2
Standard
 70
     0
 40
0.0
 41
1.0
 50
0.0
 71
     0
 42
2.5
  3
txt
  4

  0
ENDTAB
  0
TABLE
  2
VIEW
  5
6
330
0
100
AcDbSymbolTable
 70
     0
  0
ENDTAB
  0
TABLE
  2
UCS
  5
7
330
0
100
AcDbSymbolTable
 70
     0
  0
ENDTAB
  0
TABLE
  2
APPID
  5
9
330
0
100
AcDbSymbolTable
 70
     1
  0
APPID
  5
12
330
9
100
AcDbSymbolTableRecord
100
AcDbRegAppTableRecord
  2
ACAD
 70
     0
  0
ENDTAB
  0
TABLE
  2
DIMSTYLE
  5
A
330
0
100
AcDbSymbolTable
 70
     1
100
AcDbDimStyleTable
  0
DIMSTYLE
105
27
330
A
100
AcDbSymbolTableRecord
100
AcDbDimStyleTableRecord
  2
ISO-25
 70
     0
 41
2.5
 42
0.625
 43
3.75
 44
1.25
 73
     0
 74
     0
 77
     1
 78
     8
140
2.5
141
2.5
143
0.03937007874016
147
0.625
171
     3
172
     1
178
     0
271
     2
272
     2
274
     3
278
    44
283
     0
284
     8
340
11
  0
ENDTAB
  0
TABLE
  2
BLOCK_RECORD
  5
1
330
0
100
AcDbSymbolTable
 70
     1
  0
BLOCK_RECORD
  5
1F
330
1
100
AcDbSymbolTableRecord
100
AcDbBlockTableRecord
  2
*Model_Space
340
22
 70
     0
280
     1
281
     0
  0
BLOCK_RECORD
  5
1B
330
1
100
AcDbSymbolTableRecord
100
AcDbBlockTableRecord
  2
*Paper_Space
340
1E
 70
     0
280
     1
281
     0
  0
BLOCK_RECORD
  5
23
330
1
100
AcDbSymbolTableRecord
100
AcDbBlockTableRecord
  2
*Paper_Space0
340
26
 70
     0
280
     1
281
     0
  0
ENDTAB
  0
ENDSEC
  0
SECTION
  2
BLOCKS
  0
BLOCK
  5
20
330
1F
100
AcDbEntity
  8
0
100
AcDbBlockBegin
  2
*Model_Space
 70
     0
 10
0.0
 20
0.0
 30
0.0
  3
*Model_Space
  1

  0
ENDBLK
  5
21
330
1F
100
AcDbEntity
  8
0
100
AcDbBlockEnd
  0
BLOCK
  5
1C
330
1B
100
AcDbEntity
 67
     1
  8
0
100
AcDbBlockBegin
  2
*Paper_Space
 70
     0
 10
0.0
 20
0.0
 30
0.0
  3
*Paper_Space
  1

  0
ENDBLK
  5
1D
330
1B
100
AcDbEntity
 67
     1
  8
0
100
AcDbBlockEnd
  0
BLOCK
  5
24
330
23
100
AcDbEntity
  8
0
100
AcDbBlockBegin
  2
*Paper_Space0
 70
     0
 10
0.0
 20
0.0
 30
0.0
  3
*Paper_Space0
  1

  0
ENDBLK
  5
25
330
23
100
AcDbEntity
  8
0
100
AcDbBlockEnd
  0
ENDSEC
  0
SECTION
  2
ENTITIES
  0
LINE
  5
42
330
1F
100
AcDbEntity
  8
寸法
  6
Continuous
 62
   120
370
     5
100
AcDbLine
 10
-1630.086593402035
 20
-1361.310393722184
 30
0.0
 11
-1230.086593402033
 21
-1361.310393722184
 31
0.0
  0
LINE
  5
43
330
1F
100
AcDbEntity
  8
寸法
  6
Continuous
 62
   120
370
     5
100
AcDbLine
 10
-1430.086593402036
 20
-1341.310393722184
 30
0.0
 11
-1230.086593402033
 21
-1341.310393722184
 31
0.0
  0
LWPOLYLINE
  5
44
330
1F
100
AcDbEntity
  8
寸法
  6
Continuous
 62
     7
370
     9
100
AcDbPolyline
 90
        4
 70
     1
 43
3.0
 10
-1628.586593402035
 20
-1361.310393722184
 42
0.4142135623731
 10
-1630.086593402035
 20
-1359.810393722184
 42
0.4142135623731
 10
-1631.586593402035
 20
-1361.310393722184
 42
0.4142135623731
 10
-1630.086593402035
 20
-1362.810393722184
 42
0.4142135623731
  0
LWPOLYLINE
  5
45
330
1F
100
AcDbEntity
  8
寸法
  6
Continuous
 62
     7
370
     9
100
AcDbPolyline
 90
        4
 70
     1
 43
3.0
 10
-1428.586593402036
 20
-1341.310393722184
 42
0.4142135623731
 10
-1430.086593402036
 20
-1339.810393722184
 42
0.4142135623731
 10
-1431.586593402036
 20
-1341.310393722184
 42
0.4142135623731
 10
-1430.086593402036
 20
-1342.810393722184
 42
0.4142135623731
  0
LINE
  5
46
330
1F
100
AcDbEntity
  8
寸法
  6
Continuous
 62
   120
370
     5
100
AcDbLine
 10
-1150.086593402035
 20
-1811.310393722184
 30
0.0
 11
-1150.086593402035
 21
-1411.310393722185
 31
0.0
  0
LINE
  5
47
330
1F
100
AcDbEntity
  8
寸法
  6
Continuous
 62
   120
370
     5
100
AcDbLine
 10
-1180.086593402035
 20
-2011.310393722184
 30
0.0
 11
-1180.086593402035
 21
-1411.310393722185
 31
0.0
  0
LINE
  5
48
330
1F
100
AcDbEntity
  8
寸法
  6
Continuous
 62
   120
370
     5
100
AcDbLine
 10
-1180.086593402035
 20
-2011.310393722184
 30
0.0
 11
2026.913406597966
 21
-2011.310393722183
 31
0.0
  0
LINE
  5
49
330
1F
100
AcDbEntity
  8
寸法
  6
Continuous
 62
   120
370
     5
100
AcDbLine
 10
2026.913406597966
 20
-2011.310393722183
 30
0.0
 11
2026.913406597966
 21
-1411.310393722184
 31
0.0
  0
LINE
  5
4A
330
1F
100
AcDbEntity
  8
寸法
  6
Continuous
 62
   120
370
     5
100
AcDbLine
 10
-1153.086593402035
 20
-1611.310393722184
 30
0.0
 11
-1153.086593402035
 21
-1411.310393722185
 31
0.0
  0
LINE
  5
4B
330
1F
100
AcDbEntity
  8
寸法
  6
Continuous
 62
   120
370
     5
100
AcDbLine
 10
-1153.086593402035
 20
-1611.310393722184
 30
0.0
 11
-343.0865934020344
 21
-1611.310393722184
 31
0.0
  0
LINE
  5
4C
330
1F
100
AcDbEntity
  8
寸法
  6
Continuous
 62
   120
370
     5
100
AcDbLine
 10
-343.0865934020344
 20
-1611.310393722184
 30
0.0
 11
-343.0865934020344
 21
-1411.310393722185
 31
0.0
  0
LINE
  5
4D
330
1F
100
AcDbEntity
  8
寸法
  6
Continuous
 62
   120
370
     5
100
AcDbLine
 10
-1150.086593402035
 20
-1811.310393722184
 30
0.0
 11
1186.913406597966
 21
-1811.310393722184
 31
0.0
  0
LINE
  5
4E
330
1F
100
AcDbEntity
  8
寸法
  6
Continuous
 62
   120
370
     5
100
AcDbLine
 10
1186.913406597966
 20
-1811.310393722184
 30
0.0
 11
1186.913406597966
 21
-1411.310393722184
 31
0.0
  0
LWPOLYLINE
  5
4F
330
1F
100
AcDbEntity
  8
寸法
  6
Continuous
 62
     7
370
     9
100
AcDbPolyline
 90
        4
 70
     1
 43
3.0
 10
-1148.586593402035
 20
-1811.310393722184
 42
0.4142135623731
 10
-1150.086593402035
 20
-1809.810393722184
 42
0.4142135623731
 10
-1151.586593402035
 20
-1811.310393722184
 42
0.4142135623731
 10
-1150.086593402035
 20
-1812.810393722184
 42
0.4142135623731
  0
LWPOLYLINE
  5
50
330
1F
100
AcDbEntity
  8
寸法
  6
Continuous
 62
     7
370
     9
100
AcDbPolyline
 90
        4
 70
     1
 43
3.0
 10
-1178.586593402035
 20
-2011.310393722184
 42
0.4142135623731
 10
-1180.086593402035
 20
-2009.810393722184
 42
0.4142135623731
 10
-1181.586593402035
 20
-2011.310393722184
 42
0.4142135623731
 10
-1180.086593402035
 20
-2012.810393722184
 42
0.4142135623731
  0
LWPOLYLINE
  5
51
330
1F
100
AcDbEntity
  8
寸法
  6
Continuous
 62
     7
370
     9
100
AcDbPolyline
 90
        4
 70
     1
 43
3.0
 10
2028.413406597965
 20
-2011.310393722183
 42
0.4142135623731
 10
2026.913406597966
 20
-2009.810393722184
 42
0.4142135623731
 10
2025.413406597966
 20
-2011.310393722183
 42
0.4142135623731
 10
2026.913406597966
 20
-2012.810393722183
 42
0.4142135623731
  0
LWPOLYLINE
  5
52
330
1F
100
AcDbEntity
  8
寸法
  6
Continuous
 62
     7
370
     9
100
AcDbPolyline
 90
        4
 70
     1
 43
3.0
 10
-1151.586593402035
 20
-1611.310393722184
 42
0.4142135623731
 10
-1153.086593402035
 20
-1609.810393722184
 42
0.4142135623731
 10
-1154.586593402035
 20
-1611.310393722184
 42
0.4142135623731
 10
-1153.086593402035
 20
-1612.810393722184
 42
0.4142135623731
  0
LWPOLYLINE
  5
53
330
1F
100
AcDbEntity
  8
寸法
  6
Continuous
 62
     7
370
     9
100
AcDbPolyline
 90
        4
 70
     1
 43
3.0
 10
-341.5865934020343
 20
-1611.310393722184
 42
0.4142135623731
 10
-343.0865934020344
 20
-1609.810393722184
 42
0.4142135623731
 10
-344.5865934020344
 20
-1611.310393722184
 42
0.4142135623731
 10
-343.0865934020344
 20
-1612.810393722184
 42
0.4142135623731
  0
LWPOLYLINE
  5
54
330
1F
100
AcDbEntity
  8
寸法
  6
Continuous
 62
     7
370
     9
100
AcDbPolyline
 90
        4
 70
     1
 43
3.0
 10
1188.413406597965
 20
-1811.310393722184
 42
0.4142135623731
 10
1186.913406597966
 20
-1809.810393722184
 42
0.4142135623731
 10
1185.413406597966
 20
-1811.310393722184
 42
0.4142135623731
 10
1186.913406597966
 20
-1812.810393722183
 42
0.4142135623731
  0
MTEXT
  5
55
330
1F
100
AcDbEntity
  8
寸法
  6
Continuous
 62
     7
370
   211
100
AcDbMText
 10
-916.8365934020344
 20
-1605.235393722184
 30
0.0
 40
57.15
 41
337.5
 46
0.0
 71
     7
 72
     1
  1
{\fＭＳ ゴシック|b0|i0|c128|p49;ＤＷ＝810}
 73
     1
 44
1.0
  0
MTEXT
  5
56
330
1F
100
AcDbEntity
  8
寸法
  6
Continuous
 62
     7
370
   211
100
AcDbMText
 10
-262.8365934020366
 20
-1805.235393722184
 30
0.0
 40
57.15000000000001
 41
562.5
 46
0.0
 71
     7
 72
     1
  1
{\fＭＳ ゴシック|b0|i0|c128|p49;有効開口＝2,337}
 73
     1
 44
1.0
  0
MTEXT
  5
57
330
1F
100
AcDbEntity
  8
寸法
  6
Continuous
 62
     7
370
   211
100
AcDbMText
 10
217.1634065979634
 20
-2005.235393722184
 30
0.0
 40
57.14999999999999
 41
412.5
 46
0.0
 71
     7
 72
     1
  1
{\fＭＳ ゴシック|b0|i0|c128|p49;枠外＝3,207}
 73
     1
 44
1.0
  0
LINE
  5
58
330
1F
100
AcDbEntity
  8
寸法
  6
Continuous
 62
   120
370
     5
100
AcDbLine
 10
-1630.086593402035
 20
885.6896062778161
 30
0.0
 11
-1630.086593402035
 21
-1361.310393722184
 31
0.0
  0
LINE
  5
59
330
1F
100
AcDbEntity
  8
寸法
  6
Continuous
 62
   120
370
     5
100
AcDbLine
 10
-1630.086593402035
 20
885.6896062778161
 30
0.0
 11
-1230.086593402033
 21
885.6896062778161
 31
0.0
  0
LWPOLYLINE
  5
5A
330
1F
100
AcDbEntity
  8
寸法
  6
Continuous
 62
     7
370
     9
100
AcDbPolyline
 90
        4
 70
     1
 43
3.0
 10
-1628.586593402035
 20
885.6896062778161
 42
0.4142135623731
 10
-1630.086593402035
 20
887.1896062778161
 42
0.4142135623731
 10
-1631.586593402035
 20
885.6896062778161
 42
0.4142135623731
 10
-1630.086593402035
 20
884.1896062778161
 42
0.4142135623731
  0
LINE
  5
5B
330
1F
100
AcDbEntity
  8
寸法
  6
Continuous
 62
   120
370
     5
100
AcDbLine
 10
-1430.086593402036
 20
841.6896062778169
 30
0.0
 11
-1230.086593402033
 21
841.6896062778169
 31
0.0
  0
LINE
  5
5C
330
1F
100
AcDbEntity
  8
寸法
  6
Continuous
 62
   120
370
     5
100
AcDbLine
 10
-1430.086593402036
 20
841.6896062778169
 30
0.0
 11
-1430.086593402036
 21
-1341.310393722184
 31
0.0
  0
LWPOLYLINE
  5
5D
330
1F
100
AcDbEntity
  8
寸法
  6
Continuous
 62
     7
370
     9
100
AcDbPolyline
 90
        4
 70
     1
 43
3.0
 10
-1428.586593402036
 20
841.6896062778169
 42
0.4142135623731
 10
-1430.086593402036
 20
843.1896062778169
 42
0.4142135623731
 10
-1431.586593402036
 20
841.6896062778169
 42
0.4142135623731
 10
-1430.086593402036
 20
840.1896062778169
 42
0.4142135623731
  0
MTEXT
  5
5E
330
1F
100
AcDbEntity
  8
寸法
  6
Continuous
 62
     7
370
    70
100
AcDbMText
 10
-1645.086593402035
 20
-464.985393722184
 30
0.0
 40
57.14999999999999
 41
412.5
 46
0.0
 71
     7
 72
     1
  1
{\fＭＳ ゴシック|b0|i0|c128|p49;枠外＝2,247}
 11
6.123031769111886E-17
 21
1.0
 31
0.0
 73
     1
 44
1.0
  0
MTEXT
  5
5F
330
1F
100
AcDbEntity
  8
寸法
  6
Continuous
 62
     7
370
    70
100
AcDbMText
 10
-1445.086593402036
 20
-464.985393722184
 30
0.0
 40
57.14999999999999
 41
412.5
 46
0.0
 71
     7
 72
     1
  1
{\fＭＳ ゴシック|b0|i0|c128|p49;ＤＨ＝2,183}
 11
6.123031769111886E-17
 21
1.0
 31
0.0
 73
     1
 44
1.0
  0
LINE
  5
60
330
1F
100
AcDbEntity
  8
0-0
  6
Continuous
 62
    92
370
    13
100
AcDbLine
 10
2026.913406597966
 20
-1361.310393722183
 30
0.0
 11
-1180.086593402035
 21
-1361.310393722183
 31
0.0
  0
LINE
  5
61
330
1F
100
AcDbEntity
  8
0-0
  6
Continuous
 62
    92
370
    13
100
AcDbLine
 10
1996.913406597966
 20
-1346.310393722183
 30
0.0
 11
-1150.086593402035
 21
-1346.310393722183
 31
0.0
  0
ARC
  5
62
330
1F
100
AcDbEntity
  8
0-0
  6
Continuous
 62
    92
370
    13
100
AcDbCircle
 10
-1121.586593402033
 20
-324.3103937221829
 30
0.0
 40
1.5
100
AcDbArc
 50
90.0
 51
180.0
  0
LINE
  5
63
330
1F
100
AcDbEntity
  8
0-0
  6
Continuous
 62
    92
370
    13
100
AcDbLine
 10
-1082.586593402035
 20
-322.810393722183
 30
0.0
 11
-1121.586593402033
 21
-322.810393722183
 31
0.0
  0
ARC
  5
64
330
1F
100
AcDbEntity
  8
0-0
  6
Continuous
 62
    92
370
    13
100
AcDbCircle
 10
-1082.586593402035
 20
-324.3103937221829
 30
0.0
 40
1.5
100
AcDbArc
 50
0.0
 51
90.00000000000001
  0
LINE
  5
65
330
1F
100
AcDbEntity
  8
0-0
  6
Continuous
 62
    92
370
    13
100
AcDbLine
 10
-1081.086593402034
 20
-443.3103937221834
 30
0.0
 11
-1081.086593402034
 21
-324.3103937221829
 31
0.0
  0
ARC
  5
66
330
1F
100
AcDbEntity
  8
0-0
  6
Continuous
 62
    92
370
    13
100
AcDbCircle
 10
-1082.586593402035
 20
-443.3103937221834
 30
0.0
 40
1.5
100
AcDbArc
 50
270.0
 51
0.0
  0
LINE
  5
67
330
1F
100
AcDbEntity
  8
0-0
  6
Continuous
 62
    92
370
    13
100
AcDbLine
 10
-1121.586593402033
 20
-444.8103937221829
 30
0.0
 11
-1082.586593402035
 21
-444.8103937221829
 31
0.0
  0
LINE
  5
68
330
1F
100
AcDbEntity
  8
0-0
  6
Continuous
 62
    92
370
    13
100
AcDbLine
 10
-1123.086593402034
 20
-443.3103937221834
 30
0.0
 11
-1123.086593402034
 21
-324.3103937221829
 31
0.0
  0
ARC
  5
69
330
1F
100
AcDbEntity
  8
0-0
  6
Continuous
 62
    92
370
    13
100
AcDbCircle
 10
-1121.586593402033
 20
-443.3103937221834
 30
0.0
 40
1.5
100
AcDbArc
 50
180.0
 51
270.0
  0
ARC
  5
6A
330
1F
100
AcDbEntity
  8
0-0
  6
Continuous
 62
     7
370
     9
100
AcDbCircle
 10
-1102.086593402034
 20
-413.4103937221834
 30
0.0
 40
15.0
100
AcDbArc
 50
180.0
 51
0.0
  0
ARC
  5
6B
330
1F
100
AcDbEntity
  8
0-0
  6
Continuous
 62
     7
370
     9
100
AcDbCircle
 10
-1102.086593402034
 20
-354.210393722183
 30
0.0
 40
15.0
100
AcDbArc
 50
0.0
 51
180.0
  0
LINE
  5
6C
330
1F
100
AcDbEntity
  8
0-0
  6
Continuous
 62
     7
370
     9
100
AcDbLine
 10
-1087.086593402034
 20
-413.4103937221834
 30
0.0
 11
-1087.086593402034
 21
-354.210393722183
 31
0.0
  0
LINE
  5
6D
330
1F
100
AcDbEntity
  8
0-0
  6
Continuous
 62
     7
370
     9
100
AcDbLine
 10
-1117.086593402034
 20
-354.210393722183
 30
0.0
 11
-1117.086593402034
 21
-413.4103937221834
 31
0.0
  0
ARC
  5
6E
330
1F
100
AcDbEntity
  8
0-0
  6
Continuous
 62
    92
370
    13
100
AcDbCircle
 10
-341.5865934020332
 20
-324.3103937221829
 30
0.0
 40
1.5
100
AcDbArc
 50
90.0
 51
180.0
  0
LINE
  5
6F
330
1F
100
AcDbEntity
  8
0-0
  6
Continuous
 62
    92
370
    13
100
AcDbLine
 10
-302.5865934020346
 20
-322.810393722183
 30
0.0
 11
-341.5865934020332
 21
-322.810393722183
 31
0.0
  0
ARC
  5
70
330
1F
100
AcDbEntity
  8
0-0
  6
Continuous
 62
    92
370
    13
100
AcDbCircle
 10
-302.5865934020346
 20
-324.3103937221829
 30
0.0
 40
1.5
100
AcDbArc
 50
0.0
 51
90.00000000000001
  0
LINE
  5
71
330
1F
100
AcDbEntity
  8
0-0
  6
Continuous
 62
    92
370
    13
100
AcDbLine
 10
-301.0865934020325
 20
-443.3103937221834
 30
0.0
 11
-301.0865934020325
 21
-324.3103937221829
 31
0.0
  0
ARC
  5
72
330
1F
100
AcDbEntity
  8
0-0
  6
Continuous
 62
    92
370
    13
100
AcDbCircle
 10
-302.5865934020346
 20
-443.3103937221834
 30
0.0
 40
1.5
100
AcDbArc
 50
270.0
 51
0.0
  0
LINE
  5
73
330
1F
100
AcDbEntity
  8
0-0
  6
Continuous
 62
    92
370
    13
100
AcDbLine
 10
-341.5865934020332
 20
-444.8103937221829
 30
0.0
 11
-302.5865934020346
 21
-444.8103937221829
 31
0.0
  0
LINE
  5
74
330
1F
100
AcDbEntity
  8
0-0
  6
Continuous
 62
    92
370
    13
100
AcDbLine
 10
-343.0865934020335
 20
-443.3103937221834
 30
0.0
 11
-343.0865934020335
 21
-324.3103937221829
 31
0.0
  0
ARC
  5
75
330
1F
100
AcDbEntity
  8
0-0
  6
Continuous
 62
    92
370
    13
100
AcDbCircle
 10
-341.5865934020332
 20
-443.3103937221834
 30
0.0
 40
1.5
100
AcDbArc
 50
180.0
 51
270.0
  0
ARC
  5
76
330
1F
100
AcDbEntity
  8
0-0
  6
Continuous
 62
     7
370
     9
100
AcDbCircle
 10
-322.0865934020339
 20
-413.4103937221834
 30
0.0
 40
15.0
100
AcDbArc
 50
180.0
 51
0.0
  0
ARC
  5
77
330
1F
100
AcDbEntity
  8
0-0
  6
Continuous
 62
     7
370
     9
100
AcDbCircle
 10
-322.0865934020339
 20
-354.210393722183
 30
0.0
 40
15.0
100
AcDbArc
 50
0.0
 51
180.0
  0
LINE
  5
78
330
1F
100
AcDbEntity
  8
0-0
  6
Continuous
 62
     7
370
     9
100
AcDbLine
 10
-307.0865934020339
 20
-413.4103937221834
 30
0.0
 11
-307.0865934020339
 21
-354.210393722183
 31
0.0
  0
LINE
  5
79
330
1F
100
AcDbEntity
  8
0-0
  6
Continuous
 62
     7
370
     9
100
AcDbLine
 10
-337.0865934020339
 20
-354.210393722183
 30
0.0
 11
-337.0865934020339
 21
-413.4103937221834
 31
0.0
  0
ARC
  5
7A
330
1F
100
AcDbEntity
  8
0-0
  6
Continuous
 62
    92
370
    13
100
AcDbCircle
 10
438.4134065979667
 20
-324.3103937221829
 30
0.0
 40
1.5
100
AcDbArc
 50
90.0
 51
180.0
  0
LINE
  5
7B
330
1F
100
AcDbEntity
  8
0-0
  6
Continuous
 62
    92
370
    13
100
AcDbLine
 10
477.4134065979654
 20
-322.810393722183
 30
0.0
 11
438.4134065979667
 21
-322.810393722183
 31
0.0
  0
ARC
  5
7C
330
1F
100
AcDbEntity
  8
0-0
  6
Continuous
 62
    92
370
    13
100
AcDbCircle
 10
477.4134065979654
 20
-324.3103937221829
 30
0.0
 40
1.5
100
AcDbArc
 50
0.0
 51
90.00000000000001
  0
LINE
  5
7D
330
1F
100
AcDbEntity
  8
0-0
  6
Continuous
 62
    92
370
    13
100
AcDbLine
 10
478.9134065979674
 20
-443.3103937221834
 30
0.0
 11
478.9134065979674
 21
-324.3103937221829
 31
0.0
  0
ARC
  5
7E
330
1F
100
AcDbEntity
  8
0-0
  6
Continuous
 62
    92
370
    13
100
AcDbCircle
 10
477.4134065979654
 20
-443.3103937221834
 30
0.0
 40
1.5
100
AcDbArc
 50
270.0
 51
0.0
  0
LINE
  5
7F
330
1F
100
AcDbEntity
  8
0-0
  6
Continuous
 62
    92
370
    13
100
AcDbLine
 10
438.4134065979667
 20
-444.8103937221829
 30
0.0
 11
477.4134065979654
 21
-444.8103937221829
 31
0.0
  0
LINE
  5
80
330
1F
100
AcDbEntity
  8
0-0
  6
Continuous
 62
    92
370
    13
100
AcDbLine
 10
436.9134065979664
 20
-443.3103937221834
 30
0.0
 11
436.9134065979664
 21
-324.3103937221829
 31
0.0
  0
ARC
  5
81
330
1F
100
AcDbEntity
  8
0-0
  6
Continuous
 62
    92
370
    13
100
AcDbCircle
 10
438.4134065979667
 20
-443.3103937221834
 30
0.0
 40
1.5
100
AcDbArc
 50
180.0
 51
270.0
  0
ARC
  5
82
330
1F
100
AcDbEntity
  8
0-0
  6
Continuous
 62
     7
370
     9
100
AcDbCircle
 10
457.9134065979661
 20
-413.4103937221834
 30
0.0
 40
15.0
100
AcDbArc
 50
180.0
 51
0.0
  0
ARC
  5
83
330
1F
100
AcDbEntity
  8
0-0
  6
Continuous
 62
     7
370
     9
100
AcDbCircle
 10
457.9134065979661
 20
-354.210393722183
 30
0.0
 40
15.0
100
AcDbArc
 50
0.0
 51
180.0
  0
LINE
  5
84
330
1F
100
AcDbEntity
  8
0-0
  6
Continuous
 62
     7
370
     9
100
AcDbLine
 10
472.9134065979661
 20
-413.4103937221834
 30
0.0
 11
472.9134065979661
 21
-354.210393722183
 31
0.0
  0
LINE
  5
85
330
1F
100
AcDbEntity
  8
0-0
  6
Continuous
 62
     7
370
     9
100
AcDbLine
 10
442.9134065979661
 20
-354.210393722183
 30
0.0
 11
442.9134065979661
 21
-413.4103937221834
 31
0.0
  0
LINE
  5
86
330
1F
100
AcDbEntity
  8
0-0
  6
JWW_DASHED1
 62
   120
370
     5
100
AcDbLine
 10
-1150.086593402035
 20
-1341.310393722183
 30
0.0
 11
-1153.086593402035
 21
-1341.310393722183
 31
0.0
  0
LINE
  5
87
330
1F
100
AcDbEntity
  8
0-0
  6
Continuous
 62
    92
370
    13
100
AcDbLine
 10
-1150.086593402035
 20
-1341.310393722183
 30
0.0
 11
1216.913406597966
 21
-1341.310393722183
 31
0.0
  0
LINE
  5
88
330
1F
100
AcDbEntity
  8
0-0
  6
Continuous
 62
     7
370
     9
100
AcDbLine
 10
-1034.586593402036
 20
-1191.310393722183
 30
0.0
 11
-1049.586593402036
 21
-1206.310393722183
 31
0.0
  0
LINE
  5
89
330
1F
100
AcDbEntity
  8
0-0
  6
Continuous
 62
     7
370
     9
100
AcDbLine
 10
-461.5865934020349
 20
-1191.310393722183
 30
0.0
 11
-446.5865934020349
 21
-1206.310393722183
 31
0.0
  0
LINE
  5
8A
330
1F
100
AcDbEntity
  8
0-0
  6
Continuous
 62
     7
370
     9
100
AcDbLine
 10
-1049.586593402036
 20
-1206.310393722183
 30
0.0
 11
-446.5865934020349
 21
-1206.310393722183
 31
0.0
  0
LINE
  5
8B
330
1F
100
AcDbEntity
  8
0-0
  6
Continuous
 62
     7
370
     9
100
AcDbLine
 10
-1004.586593402036
 20
-1161.310393722183
 30
0.0
 11
-1019.586593402036
 21
-1176.310393722183
 31
0.0
  0
LINE
  5
8C
330
1F
100
AcDbEntity
  8
0-0
  6
Continuous
 62
     7
370
     9
100
AcDbLine
 10
-491.5865934020349
 20
-1161.310393722183
 30
0.0
 11
-476.5865934020349
 21
-1176.310393722183
 31
0.0
  0
LINE
  5
8D
330
1F
100
AcDbEntity
  8
0-0
  6
Continuous
 62
     7
370
     9
100
AcDbLine
 10
-1004.586593402036
 20
-1161.310393722183
 30
0.0
 11
-491.5865934020349
 21
-1161.310393722183
 31
0.0
  0
LINE
  5
8E
330
1F
100
AcDbEntity
  8
0-0
  6
Continuous
 62
    92
370
    13
100
AcDbLine
 10
-1034.586593402036
 20
-1191.310393722183
 30
0.0
 11
-461.5865934020349
 21
-1191.310393722183
 31
0.0
  0
LINE
  5
8F
330
1F
100
AcDbEntity
  8
0-0
  6
Continuous
 62
     7
370
     9
100
AcDbLine
 10
-254.5865934020347
 20
-1191.310393722183
 30
0.0
 11
-269.5865934020347
 21
-1206.310393722183
 31
0.0
  0
LINE
  5
90
330
1F
100
AcDbEntity
  8
0-0
  6
Continuous
 62
     7
370
     9
100
AcDbLine
 10
318.4134065979659
 20
-1191.310393722183
 30
0.0
 11
333.4134065979659
 21
-1206.310393722183
 31
0.0
  0
LINE
  5
91
330
1F
100
AcDbEntity
  8
0-0
  6
Continuous
 62
     7
370
     9
100
AcDbLine
 10
-269.5865934020347
 20
-1206.310393722183
 30
0.0
 11
333.4134065979659
 21
-1206.310393722183
 31
0.0
  0
LINE
  5
92
330
1F
100
AcDbEntity
  8
0-0
  6
Continuous
 62
     7
370
     9
100
AcDbLine
 10
-224.5865934020347
 20
-1161.310393722183
 30
0.0
 11
-239.5865934020347
 21
-1176.310393722183
 31
0.0
  0
LINE
  5
93
330
1F
100
AcDbEntity
  8
0-0
  6
Continuous
 62
     7
370
     9
100
AcDbLine
 10
288.4134065979659
 20
-1161.310393722183
 30
0.0
 11
303.4134065979659
 21
-1176.310393722183
 31
0.0
  0
LINE
  5
94
330
1F
100
AcDbEntity
  8
0-0
  6
Continuous
 62
     7
370
     9
100
AcDbLine
 10
-224.5865934020347
 20
-1161.310393722183
 30
0.0
 11
288.4134065979659
 21
-1161.310393722183
 31
0.0
  0
LINE
  5
95
330
1F
100
AcDbEntity
  8
0-0
  6
Continuous
 62
    92
370
    13
100
AcDbLine
 10
-254.5865934020347
 20
-1191.310393722183
 30
0.0
 11
318.4134065979659
 21
-1191.310393722183
 31
0.0
  0
LINE
  5
96
330
1F
100
AcDbEntity
  8
0-0
  6
Continuous
 62
     7
370
     9
100
AcDbLine
 10
525.4134065979653
 20
-1191.310393722183
 30
0.0
 11
510.4134065979653
 21
-1206.310393722183
 31
0.0
  0
LINE
  5
97
330
1F
100
AcDbEntity
  8
0-0
  6
Continuous
 62
     7
370
     9
100
AcDbLine
 10
1098.413406597966
 20
-1191.310393722183
 30
0.0
 11
1113.413406597966
 21
-1206.310393722183
 31
0.0
  0
LINE
  5
98
330
1F
100
AcDbEntity
  8
0-0
  6
Continuous
 62
     7
370
     9
100
AcDbLine
 10
510.4134065979653
 20
-1206.310393722183
 30
0.0
 11
1113.413406597966
 21
-1206.310393722183
 31
0.0
  0
LINE
  5
99
330
1F
100
AcDbEntity
  8
0-0
  6
Continuous
 62
     7
370
     9
100
AcDbLine
 10
555.4134065979653
 20
-1161.310393722183
 30
0.0
 11
540.4134065979653
 21
-1176.310393722183
 31
0.0
  0
LINE
  5
9A
330
1F
100
AcDbEntity
  8
0-0
  6
Continuous
 62
     7
370
     9
100
AcDbLine
 10
1068.413406597966
 20
-1161.310393722183
 30
0.0
 11
1083.413406597966
 21
-1176.310393722183
 31
0.0
  0
LINE
  5
9B
330
1F
100
AcDbEntity
  8
0-0
  6
Continuous
 62
     7
370
     9
100
AcDbLine
 10
555.4134065979653
 20
-1161.310393722183
 30
0.0
 11
1068.413406597966
 21
-1161.310393722183
 31
0.0
  0
LINE
  5
9C
330
1F
100
AcDbEntity
  8
0-0
  6
Continuous
 62
    92
370
    13
100
AcDbLine
 10
525.4134065979653
 20
-1191.310393722183
 30
0.0
 11
1098.413406597966
 21
-1191.310393722183
 31
0.0
  0
LINE
  5
9D
330
1F
100
AcDbEntity
  8
0-0
  6
Continuous
 62
    92
370
    13
100
AcDbLine
 10
-1150.086593402035
 20
841.6896062778169
 30
0.0
 11
1216.913406597966
 21
841.6896062778169
 31
0.0
  0
LINE
  5
9E
330
1F
100
AcDbEntity
  8
0-0
  6
Continuous
 62
    92
370
    13
100
AcDbLine
 10
-1180.086593402035
 20
-1361.310393722183
 30
0.0
 11
-1180.086593402035
 21
885.6896062778161
 31
0.0
  0
LINE
  5
9F
330
1F
100
AcDbEntity
  8
0-0
  6
Continuous
 62
    92
370
    13
100
AcDbLine
 10
2026.913406597966
 20
885.6896062778161
 30
0.0
 11
2026.913406597966
 21
-1361.310393722183
 31
0.0
  0
LINE
  5
A0
330
1F
100
AcDbEntity
  8
0-0
  6
JWW_DASHED1
 62
   120
370
     5
100
AcDbLine
 10
1186.913406597966
 20
-1346.310393722183
 30
0.0
 11
1186.913406597966
 21
849.6896062778164
 31
0.0
  0
LINE
  5
A1
330
1F
100
AcDbEntity
  8
0-0
  6
JWW_DASHED1
 62
   120
370
     5
100
AcDbLine
 10
1216.913406597966
 20
-1346.310393722183
 30
0.0
 11
1216.913406597966
 21
849.6896062778164
 31
0.0
  0
LINE
  5
A2
330
1F
100
AcDbEntity
  8
0-0
  6
Continuous
 62
    92
370
    13
100
AcDbLine
 10
-1150.086593402035
 20
-1361.310393722183
 30
0.0
 11
-1150.086593402035
 21
885.6896062778161
 31
0.0
  0
LINE
  5
A3
330
1F
100
AcDbEntity
  8
0-0
  6
Continuous
 62
    92
370
    13
100
AcDbLine
 10
1996.913406597966
 20
-1361.310393722183
 30
0.0
 11
1996.913406597966
 21
885.6896062778161
 31
0.0
  0
LINE
  5
A4
330
1F
100
AcDbEntity
  8
0-0
  6
Continuous
 62
    92
370
    13
100
AcDbLine
 10
-1150.086593402035
 20
849.6896062778164
 30
0.0
 11
1996.913406597966
 21
849.6896062778164
 31
0.0
  0
LINE
  5
A5
330
1F
100
AcDbEntity
  8
0-0
  6
Continuous
 62
    92
370
    13
100
AcDbLine
 10
-1180.086593402035
 20
885.6896062778161
 30
0.0
 11
2026.913406597966
 21
885.6896062778161
 31
0.0
  0
LINE
  5
A6
330
1F
100
AcDbEntity
  8
0-0
  6
JWW_DASHED1
 62
   120
370
     5
100
AcDbLine
 10
-1153.086593402035
 20
-1341.310393722183
 30
0.0
 11
-1153.086593402035
 21
841.6896062778169
 31
0.0
  0
LINE
  5
A7
330
1F
100
AcDbEntity
  8
0-0
  6
JWW_DASHED1
 62
   120
370
     5
100
AcDbLine
 10
-1153.086593402035
 20
841.6896062778169
 30
0.0
 11
-1150.086593402035
 21
841.6896062778169
 31
0.0
  0
LINE
  5
A8
330
1F
100
AcDbEntity
  8
0-0
  6
JWW_DASHED1
 62
   120
370
     5
100
AcDbLine
 10
-343.0865934020344
 20
-1341.310393722183
 30
0.0
 11
-343.0865934020344
 21
841.6896062778169
 31
0.0
  0
LINE
  5
A9
330
1F
100
AcDbEntity
  8
0-0
  6
Continuous
 62
    92
370
    13
100
AcDbLine
 10
-373.0865934020344
 20
841.6896062778169
 30
0.0
 11
-373.0865934020344
 21
-1341.310393722183
 31
0.0
  0
LINE
  5
AA
330
1F
100
AcDbEntity
  8
0-0
  6
JWW_DASHED1
 62
   120
370
     5
100
AcDbLine
 10
436.9134065979655
 20
-1341.310393722183
 30
0.0
 11
436.9134065979655
 21
841.6896062778169
 31
0.0
  0
LINE
  5
AB
330
1F
100
AcDbEntity
  8
0-0
  6
Continuous
 62
    92
370
    13
100
AcDbLine
 10
406.9134065979655
 20
841.6896062778169
 30
0.0
 11
406.9134065979655
 21
-1341.310393722183
 31
0.0
  0
LINE
  5
AC
330
1F
100
AcDbEntity
  8
0-0
  6
Continuous
 62
    92
370
    13
100
AcDbLine
 10
1216.913406597966
 20
841.6896062778169
 30
0.0
 11
1216.913406597966
 21
-1341.310393722183
 31
0.0
  0
LINE
  5
AD
330
1F
100
AcDbEntity
  8
0-0
  6
Continuous
 62
     7
370
     9
100
AcDbLine
 10
-1049.586593402036
 20
-1341.310393722183
 30
0.0
 11
-1049.586593402036
 21
841.6896062778169
 31
0.0
  0
LINE
  5
AE
330
1F
100
AcDbEntity
  8
0-0
  6
Continuous
 62
     7
370
     9
100
AcDbLine
 10
-446.5865934020349
 20
-1341.310393722183
 30
0.0
 11
-446.5865934020349
 21
841.6896062778169
 31
0.0
  0
LINE
  5
AF
330
1F
100
AcDbEntity
  8
0-0
  6
Continuous
 62
     7
370
     9
100
AcDbLine
 10
-1034.586593402036
 20
-468.3103937221829
 30
0.0
 11
-1049.586593402036
 21
-483.3103937221829
 31
0.0
  0
LINE
  5
B0
330
1F
100
AcDbEntity
  8
0-0
  6
Continuous
 62
     7
370
     9
100
AcDbLine
 10
-1049.586593402036
 20
-558.3103937221829
 30
0.0
 11
-1034.586593402036
 21
-573.3103937221829
 31
0.0
  0
LINE
  5
B1
330
1F
100
AcDbEntity
  8
0-0
  6
Continuous
 62
     7
370
     9
100
AcDbLine
 10
-461.5865934020349
 20
-468.3103937221829
 30
0.0
 11
-446.5865934020349
 21
-483.3103937221829
 31
0.0
  0
LINE
  5
B2
330
1F
100
AcDbEntity
  8
0-0
  6
Continuous
 62
     7
370
     9
100
AcDbLine
 10
-446.5865934020349
 20
-558.3103937221829
 30
0.0
 11
-461.5865934020349
 21
-573.3103937221829
 31
0.0
  0
LINE
  5
B3
330
1F
100
AcDbEntity
  8
0-0
  6
Continuous
 62
     7
370
     9
100
AcDbLine
 10
-1049.586593402036
 20
-483.3103937221829
 30
0.0
 11
-446.5865934020349
 21
-483.3103937221829
 31
0.0
  0
LINE
  5
B4
330
1F
100
AcDbEntity
  8
0-0
  6
Continuous
 62
     7
370
     9
100
AcDbLine
 10
-1049.586593402036
 20
-558.3103937221829
 30
0.0
 11
-446.5865934020349
 21
-558.3103937221829
 31
0.0
  0
LINE
  5
B5
330
1F
100
AcDbEntity
  8
0-0
  6
Continuous
 62
     7
370
     9
100
AcDbLine
 10
-1004.586593402036
 20
-1161.310393722183
 30
0.0
 11
-1004.586593402036
 21
-603.3103937221829
 31
0.0
  0
LINE
  5
B6
330
1F
100
AcDbEntity
  8
0-0
  6
Continuous
 62
     7
370
     9
100
AcDbLine
 10
-1019.586593402036
 20
-588.3103937221829
 30
0.0
 11
-1004.586593402036
 21
-603.3103937221829
 31
0.0
  0
LINE
  5
B7
330
1F
100
AcDbEntity
  8
0-0
  6
Continuous
 62
     7
370
     9
100
AcDbLine
 10
-476.5865934020349
 20
-588.3103937221829
 30
0.0
 11
-491.5865934020349
 21
-603.3103937221829
 31
0.0
  0
LINE
  5
B8
330
1F
100
AcDbEntity
  8
0-0
  6
Continuous
 62
     7
370
     9
100
AcDbLine
 10
-1004.586593402036
 20
-603.3103937221829
 30
0.0
 11
-491.5865934020349
 21
-603.3103937221829
 31
0.0
  0
LINE
  5
B9
330
1F
100
AcDbEntity
  8
0-0
  6
Continuous
 62
     7
370
     9
100
AcDbLine
 10
-491.5865934020349
 20
-1161.310393722183
 30
0.0
 11
-491.5865934020349
 21
-603.3103937221829
 31
0.0
  0
LINE
  5
BA
330
1F
100
AcDbEntity
  8
0-0
  6
Continuous
 62
     7
370
     9
100
AcDbLine
 10
-1034.586593402037
 20
646.6893387335086
 30
0.0
 11
-1049.586989310981
 21
661.6897346424497
 31
0.0
  0
LINE
  5
BB
330
1F
100
AcDbEntity
  8
0-0
  6
Continuous
 62
     7
370
     9
100
AcDbLine
 10
-461.5865934020349
 20
646.6893387335086
 30
0.0
 11
-446.5865934020349
 21
661.6893387335086
 31
0.0
  0
ARC
  5
BC
330
1F
100
AcDbEntity
  8
0-0
  6
Continuous
 62
     7
370
     9
100
AcDbCircle
 10
-985.5739308306233
 20
796.6893387335086
 30
0.0
 40
135.0
100
AcDbArc
 50
270.0
 51
298.3577011236671
  0
ARC
  5
BD
330
1F
100
AcDbEntity
  8
0-0
  6
Continuous
 62
     7
370
     9
100
AcDbCircle
 10
-510.5992559734472
 20
796.6893387335086
 30
0.0
 40
135.0
100
AcDbArc
 50
241.6422988763328
 51
270.0
  0
ARC
  5
BE
330
1F
100
AcDbEntity
  8
0-0
  6
Continuous
 62
     7
370
     9
100
AcDbCircle
 10
-748.0865934020352
 20
356.6896062778169
 30
0.0
 40
365.0
100
AcDbArc
 50
61.64229887633292
 51
118.3577011236671
  0
LINE
  5
BF
330
1F
100
AcDbEntity
  8
0-0
  6
Continuous
 62
     7
370
     9
100
AcDbLine
 10
-1049.586642890005
 20
661.6893882214729
 30
0.0
 11
-985.5739308306233
 21
661.6893882214729
 31
0.0
  0
LINE
  5
C0
330
1F
100
AcDbEntity
  8
0-0
  6
Continuous
 62
     7
370
     9
100
AcDbLine
 10
-446.5865439140692
 20
661.6893882214729
 30
0.0
 11
-510.5992559734472
 21
661.6893882214729
 31
0.0
  0
LINE
  5
C1
330
1F
100
AcDbEntity
  8
0-0
  6
Continuous
 62
    92
370
    13
100
AcDbLine
 10
-1034.586593402036
 20
-573.3103937221829
 30
0.0
 11
-461.5865934020349
 21
-573.3103937221829
 31
0.0
  0
LINE
  5
C2
330
1F
100
AcDbEntity
  8
0-0
  6
Continuous
 62
    92
370
    13
100
AcDbLine
 10
-1034.586593402036
 20
-1191.310393722183
 30
0.0
 11
-1034.586593402036
 21
-573.3103937221829
 31
0.0
  0
LINE
  5
C3
330
1F
100
AcDbEntity
  8
0-0
  6
Continuous
 62
    92
370
    13
100
AcDbLine
 10
-461.5865934020349
 20
-1191.310393722183
 30
0.0
 11
-461.5865934020349
 21
-573.3103937221829
 31
0.0
  0
LINE
  5
C4
330
1F
100
AcDbEntity
  8
0-0
  6
Continuous
 62
    92
370
    13
100
AcDbLine
 10
-461.5865934020349
 20
646.6893387335086
 30
0.0
 11
-510.5992559734472
 21
646.6893387335086
 31
0.0
  0
ARC
  5
C5
330
1F
100
AcDbEntity
  8
0-0
  6
Continuous
 62
    92
370
    13
100
AcDbCircle
 10
-510.5992559734472
 20
796.6893387335086
 30
0.0
 40
150.0
100
AcDbArc
 50
241.6422988763328
 51
270.0
  0
ARC
  5
C6
330
1F
100
AcDbEntity
  8
0-0
  6
Continuous
 62
    92
370
    13
100
AcDbCircle
 10
-748.0865934020352
 20
356.6896062778169
 30
0.0
 40
350.0
100
AcDbArc
 50
61.64229887633292
 51
118.3577011236671
  0
ARC
  5
C7
330
1F
100
AcDbEntity
  8
0-0
  6
Continuous
 62
    92
370
    13
100
AcDbCircle
 10
-985.5739308306233
 20
796.6893387335086
 30
0.0
 40
150.0
100
AcDbArc
 50
270.0
 51
298.3577011236671
  0
LINE
  5
C8
330
1F
100
AcDbEntity
  8
0-0
  6
Continuous
 62
    92
370
    13
100
AcDbLine
 10
-1034.586593402037
 20
646.6893387335086
 30
0.0
 11
-985.5739308306233
 21
646.6893387335086
 31
0.0
  0
LINE
  5
C9
330
1F
100
AcDbEntity
  8
0-0
  6
Continuous
 62
    92
370
    13
100
AcDbLine
 10
-1034.586593402036
 20
-468.3103937221829
 30
0.0
 11
-1034.586593402036
 21
646.6893387335086
 31
0.0
  0
LINE
  5
CA
330
1F
100
AcDbEntity
  8
0-0
  6
Continuous
 62
    92
370
    13
100
AcDbLine
 10
-1034.586593402036
 20
-468.3103937221829
 30
0.0
 11
-461.5865934020349
 21
-468.3103937221829
 31
0.0
  0
LINE
  5
CB
330
1F
100
AcDbEntity
  8
0-0
  6
Continuous
 62
    92
370
    13
100
AcDbLine
 10
-461.5865934020349
 20
-468.3103937221829
 30
0.0
 11
-461.5865934020349
 21
646.6893387335086
 31
0.0
  0
LINE
  5
CC
330
1F
100
AcDbEntity
  8
0-0
  6
Continuous
 62
     7
370
     9
100
AcDbLine
 10
-269.5865934020347
 20
-1341.310393722183
 30
0.0
 11
-269.5865934020347
 21
841.6896062778169
 31
0.0
  0
LINE
  5
CD
330
1F
100
AcDbEntity
  8
0-0
  6
Continuous
 62
     7
370
     9
100
AcDbLine
 10
333.4134065979659
 20
-1341.310393722183
 30
0.0
 11
333.4134065979659
 21
841.6896062778169
 31
0.0
  0
LINE
  5
CE
330
1F
100
AcDbEntity
  8
0-0
  6
Continuous
 62
     7
370
     9
100
AcDbLine
 10
-254.5865934020347
 20
-468.3103937221829
 30
0.0
 11
-269.5865934020347
 21
-483.3103937221829
 31
0.0
  0
LINE
  5
CF
330
1F
100
AcDbEntity
  8
0-0
  6
Continuous
 62
     7
370
     9
100
AcDbLine
 10
-269.5865934020347
 20
-558.3103937221829
 30
0.0
 11
-254.5865934020347
 21
-573.3103937221829
 31
0.0
  0
LINE
  5
D0
330
1F
100
AcDbEntity
  8
0-0
  6
Continuous
 62
     7
370
     9
100
AcDbLine
 10
318.4134065979659
 20
-468.3103937221829
 30
0.0
 11
333.4134065979659
 21
-483.3103937221829
 31
0.0
  0
LINE
  5
D1
330
1F
100
AcDbEntity
  8
0-0
  6
Continuous
 62
     7
370
     9
100
AcDbLine
 10
333.4134065979659
 20
-558.3103937221829
 30
0.0
 11
318.4134065979659
 21
-573.3103937221829
 31
0.0
  0
LINE
  5
D2
330
1F
100
AcDbEntity
  8
0-0
  6
Continuous
 62
     7
370
     9
100
AcDbLine
 10
-269.5865934020347
 20
-483.3103937221829
 30
0.0
 11
333.4134065979659
 21
-483.3103937221829
 31
0.0
  0
LINE
  5
D3
330
1F
100
AcDbEntity
  8
0-0
  6
Continuous
 62
     7
370
     9
100
AcDbLine
 10
-269.5865934020347
 20
-558.3103937221829
 30
0.0
 11
333.4134065979659
 21
-558.3103937221829
 31
0.0
  0
LINE
  5
D4
330
1F
100
AcDbEntity
  8
0-0
  6
Continuous
 62
     7
370
     9
100
AcDbLine
 10
-224.5865934020347
 20
-1161.310393722183
 30
0.0
 11
-224.5865934020347
 21
-603.3103937221829
 31
0.0
  0
LINE
  5
D5
330
1F
100
AcDbEntity
  8
0-0
  6
Continuous
 62
     7
370
     9
100
AcDbLine
 10
-239.5865934020347
 20
-588.3103937221829
 30
0.0
 11
-224.5865934020347
 21
-603.3103937221829
 31
0.0
  0
LINE
  5
D6
330
1F
100
AcDbEntity
  8
0-0
  6
Continuous
 62
     7
370
     9
100
AcDbLine
 10
303.4134065979659
 20
-588.3103937221829
 30
0.0
 11
288.4134065979659
 21
-603.3103937221829
 31
0.0
  0
LINE
  5
D7
330
1F
100
AcDbEntity
  8
0-0
  6
Continuous
 62
     7
370
     9
100
AcDbLine
 10
-224.5865934020347
 20
-603.3103937221829
 30
0.0
 11
288.4134065979659
 21
-603.3103937221829
 31
0.0
  0
LINE
  5
D8
330
1F
100
AcDbEntity
  8
0-0
  6
Continuous
 62
     7
370
     9
100
AcDbLine
 10
288.4134065979659
 20
-1161.310393722183
 30
0.0
 11
288.4134065979659
 21
-603.3103937221829
 31
0.0
  0
LINE
  5
D9
330
1F
100
AcDbEntity
  8
0-0
  6
Continuous
 62
     7
370
     9
100
AcDbLine
 10
-254.5865934020364
 20
646.6893387335086
 30
0.0
 11
-269.5869893109805
 21
661.6897346424497
 31
0.0
  0
LINE
  5
DA
330
1F
100
AcDbEntity
  8
0-0
  6
Continuous
 62
     7
370
     9
100
AcDbLine
 10
318.4134065979659
 20
646.6893387335086
 30
0.0
 11
333.4134065979659
 21
661.6893387335086
 31
0.0
  0
ARC
  5
DB
330
1F
100
AcDbEntity
  8
0-0
  6
Continuous
 62
     7
370
     9
100
AcDbCircle
 10
-205.5739308306224
 20
796.6893387335086
 30
0.0
 40
135.0
100
AcDbArc
 50
270.0
 51
298.3577011236671
  0
ARC
  5
DC
330
1F
100
AcDbEntity
  8
0-0
  6
Continuous
 62
     7
370
     9
100
AcDbCircle
 10
269.4007440265536
 20
796.6893387335086
 30
0.0
 40
135.0
100
AcDbArc
 50
241.6422988763328
 51
270.0
  0
ARC
  5
DD
330
1F
100
AcDbEntity
  8
0-0
  6
Continuous
 62
     7
370
     9
100
AcDbCircle
 10
31.91340659796563
 20
356.6896062778169
 30
0.0
 40
365.0
100
AcDbArc
 50
61.64229887633292
 51
118.3577011236671
  0
LINE
  5
DE
330
1F
100
AcDbEntity
  8
0-0
  6
Continuous
 62
     7
370
     9
100
AcDbLine
 10
-269.5866428900039
 20
661.6893882214729
 30
0.0
 11
-205.5739308306224
 21
661.6893882214729
 31
0.0
  0
LINE
  5
DF
330
1F
100
AcDbEntity
  8
0-0
  6
Continuous
 62
     7
370
     9
100
AcDbLine
 10
333.4134560859317
 20
661.6893882214729
 30
0.0
 11
269.4007440265536
 21
661.6893882214729
 31
0.0
  0
LINE
  5
E0
330
1F
100
AcDbEntity
  8
0-0
  6
Continuous
 62
    92
370
    13
100
AcDbLine
 10
-254.5865934020347
 20
-573.3103937221829
 30
0.0
 11
318.4134065979659
 21
-573.3103937221829
 31
0.0
  0
LINE
  5
E1
330
1F
100
AcDbEntity
  8
0-0
  6
Continuous
 62
    92
370
    13
100
AcDbLine
 10
-254.5865934020347
 20
-1191.310393722183
 30
0.0
 11
-254.5865934020347
 21
-573.3103937221829
 31
0.0
  0
LINE
  5
E2
330
1F
100
AcDbEntity
  8
0-0
  6
Continuous
 62
    92
370
    13
100
AcDbLine
 10
318.4134065979659
 20
-1191.310393722183
 30
0.0
 11
318.4134065979659
 21
-573.3103937221829
 31
0.0
  0
LINE
  5
E3
330
1F
100
AcDbEntity
  8
0-0
  6
Continuous
 62
    92
370
    13
100
AcDbLine
 10
318.4134065979659
 20
646.6893387335086
 30
0.0
 11
269.4007440265536
 21
646.6893387335086
 31
0.0
  0
ARC
  5
E4
330
1F
100
AcDbEntity
  8
0-0
  6
Continuous
 62
    92
370
    13
100
AcDbCircle
 10
269.4007440265536
 20
796.6893387335086
 30
0.0
 40
150.0
100
AcDbArc
 50
241.6422988763328
 51
270.0
  0
ARC
  5
E5
330
1F
100
AcDbEntity
  8
0-0
  6
Continuous
 62
    92
370
    13
100
AcDbCircle
 10
31.91340659796563
 20
356.6896062778169
 30
0.0
 40
350.0
100
AcDbArc
 50
61.64229887633292
 51
118.3577011236671
  0
ARC
  5
E6
330
1F
100
AcDbEntity
  8
0-0
  6
Continuous
 62
    92
370
    13
100
AcDbCircle
 10
-205.5739308306224
 20
796.6893387335086
 30
0.0
 40
150.0
100
AcDbArc
 50
270.0
 51
298.3577011236671
  0
LINE
  5
E7
330
1F
100
AcDbEntity
  8
0-0
  6
Continuous
 62
    92
370
    13
100
AcDbLine
 10
-254.5865934020364
 20
646.6893387335086
 30
0.0
 11
-205.5739308306224
 21
646.6893387335086
 31
0.0
  0
LINE
  5
E8
330
1F
100
AcDbEntity
  8
0-0
  6
Continuous
 62
    92
370
    13
100
AcDbLine
 10
-254.5865934020347
 20
-468.3103937221829
 30
0.0
 11
-254.5865934020347
 21
646.6893387335086
 31
0.0
  0
LINE
  5
E9
330
1F
100
AcDbEntity
  8
0-0
  6
Continuous
 62
    92
370
    13
100
AcDbLine
 10
-254.5865934020347
 20
-468.3103937221829
 30
0.0
 11
318.4134065979659
 21
-468.3103937221829
 31
0.0
  0
LINE
  5
EA
330
1F
100
AcDbEntity
  8
0-0
  6
Continuous
 62
    92
370
    13
100
AcDbLine
 10
318.4134065979659
 20
-468.3103937221829
 30
0.0
 11
318.4134065979659
 21
646.6893387335086
 31
0.0
  0
LINE
  5
EB
330
1F
100
AcDbEntity
  8
0-0
  6
Continuous
 62
     7
370
     9
100
AcDbLine
 10
510.4134065979653
 20
-1341.310393722183
 30
0.0
 11
510.4134065979653
 21
841.6896062778169
 31
0.0
  0
LINE
  5
EC
330
1F
100
AcDbEntity
  8
0-0
  6
Continuous
 62
     7
370
     9
100
AcDbLine
 10
1113.413406597966
 20
-1341.310393722183
 30
0.0
 11
1113.413406597966
 21
841.6896062778169
 31
0.0
  0
LINE
  5
ED
330
1F
100
AcDbEntity
  8
0-0
  6
Continuous
 62
     7
370
     9
100
AcDbLine
 10
525.4134065979653
 20
-468.3103937221829
 30
0.0
 11
510.4134065979653
 21
-483.3103937221829
 31
0.0
  0
LINE
  5
EE
330
1F
100
AcDbEntity
  8
0-0
  6
Continuous
 62
     7
370
     9
100
AcDbLine
 10
510.4134065979653
 20
-558.3103937221829
 30
0.0
 11
525.4134065979653
 21
-573.3103937221829
 31
0.0
  0
LINE
  5
EF
330
1F
100
AcDbEntity
  8
0-0
  6
Continuous
 62
     7
370
     9
100
AcDbLine
 10
1098.413406597966
 20
-468.3103937221829
 30
0.0
 11
1113.413406597966
 21
-483.3103937221829
 31
0.0
  0
LINE
  5
F0
330
1F
100
AcDbEntity
  8
0-0
  6
Continuous
 62
     7
370
     9
100
AcDbLine
 10
1113.413406597966
 20
-558.3103937221829
 30
0.0
 11
1098.413406597966
 21
-573.3103937221829
 31
0.0
  0
LINE
  5
F1
330
1F
100
AcDbEntity
  8
0-0
  6
Continuous
 62
     7
370
     9
100
AcDbLine
 10
510.4134065979653
 20
-483.3103937221829
 30
0.0
 11
1113.413406597966
 21
-483.3103937221829
 31
0.0
  0
LINE
  5
F2
330
1F
100
AcDbEntity
  8
0-0
  6
Continuous
 62
     7
370
     9
100
AcDbLine
 10
510.4134065979653
 20
-558.3103937221829
 30
0.0
 11
1113.413406597966
 21
-558.3103937221829
 31
0.0
  0
LINE
  5
F3
330
1F
100
AcDbEntity
  8
0-0
  6
Continuous
 62
     7
370
     9
100
AcDbLine
 10
555.4134065979653
 20
-1161.310393722183
 30
0.0
 11
555.4134065979653
 21
-603.3103937221829
 31
0.0
  0
LINE
  5
F4
330
1F
100
AcDbEntity
  8
0-0
  6
Continuous
 62
     7
370
     9
100
AcDbLine
 10
540.4134065979653
 20
-588.3103937221829
 30
0.0
 11
555.4134065979653
 21
-603.3103937221829
 31
0.0
  0
LINE
  5
F5
330
1F
100
AcDbEntity
  8
0-0
  6
Continuous
 62
     7
370
     9
100
AcDbLine
 10
1083.413406597966
 20
-588.3103937221829
 30
0.0
 11
1068.413406597966
 21
-603.3103937221829
 31
0.0
  0
LINE
  5
F6
330
1F
100
AcDbEntity
  8
0-0
  6
Continuous
 62
     7
370
     9
100
AcDbLine
 10
555.4134065979653
 20
-603.3103937221829
 30
0.0
 11
1068.413406597966
 21
-603.3103937221829
 31
0.0
  0
LINE
  5
F7
330
1F
100
AcDbEntity
  8
0-0
  6
Continuous
 62
     7
370
     9
100
AcDbLine
 10
1068.413406597966
 20
-1161.310393722183
 30
0.0
 11
1068.413406597966
 21
-603.3103937221829
 31
0.0
  0
LINE
  5
F8
330
1F
100
AcDbEntity
  8
0-0
  6
Continuous
 62
     7
370
     9
100
AcDbLine
 10
525.4134065979636
 20
646.6893387335086
 30
0.0
 11
510.4130106890195
 21
661.6897346424497
 31
0.0
  0
LINE
  5
F9
330
1F
100
AcDbEntity
  8
0-0
  6
Continuous
 62
     7
370
     9
100
AcDbLine
 10
1098.413406597966
 20
646.6893387335086
 30
0.0
 11
1113.413406597966
 21
661.6893387335086
 31
0.0
  0
ARC
  5
FA
330
1F
100
AcDbEntity
  8
0-0
  6
Continuous
 62
     7
370
     9
100
AcDbCircle
 10
574.4260691693776
 20
796.6893387335086
 30
0.0
 40
135.0
100
AcDbArc
 50
270.0
 51
298.3577011236671
  0
ARC
  5
FB
330
1F
100
AcDbEntity
  8
0-0
  6
Continuous
 62
     7
370
     9
100
AcDbCircle
 10
1049.400744026554
 20
796.6893387335086
 30
0.0
 40
135.0
100
AcDbArc
 50
241.6422988763328
 51
270.0
  0
ARC
  5
FC
330
1F
100
AcDbEntity
  8
0-0
  6
Continuous
 62
     7
370
     9
100
AcDbCircle
 10
811.9134065979656
 20
356.6896062778169
 30
0.0
 40
365.0
100
AcDbArc
 50
61.64229887633292
 51
118.3577011236671
  0
LINE
  5
FD
330
1F
100
AcDbEntity
  8
0-0
  6
Continuous
 62
     7
370
     9
100
AcDbLine
 10
510.4133571099961
 20
661.6893882214729
 30
0.0
 11
574.4260691693776
 21
661.6893882214729
 31
0.0
  0
LINE
  5
FE
330
1F
100
AcDbEntity
  8
0-0
  6
Continuous
 62
     7
370
     9
100
AcDbLine
 10
1113.413456085932
 20
661.6893882214729
 30
0.0
 11
1049.400744026554
 21
661.6893882214729
 31
0.0
  0
LINE
  5
FF
330
1F
100
AcDbEntity
  8
0-0
  6
Continuous
 62
    92
370
    13
100
AcDbLine
 10
525.4134065979653
 20
-573.3103937221829
 30
0.0
 11
1098.413406597966
 21
-573.3103937221829
 31
0.0
  0
LINE
  5
100
330
1F
100
AcDbEntity
  8
0-0
  6
Continuous
 62
    92
370
    13
100
AcDbLine
 10
525.4134065979653
 20
-1191.310393722183
 30
0.0
 11
525.4134065979653
 21
-573.3103937221829
 31
0.0
  0
LINE
  5
101
330
1F
100
AcDbEntity
  8
0-0
  6
Continuous
 62
    92
370
    13
100
AcDbLine
 10
1098.413406597966
 20
-1191.310393722183
 30
0.0
 11
1098.413406597966
 21
-573.3103937221829
 31
0.0
  0
LINE
  5
102
330
1F
100
AcDbEntity
  8
0-0
  6
Continuous
 62
    92
370
    13
100
AcDbLine
 10
1098.413406597966
 20
646.6893387335086
 30
0.0
 11
1049.400744026554
 21
646.6893387335086
 31
0.0
  0
ARC
  5
103
330
1F
100
AcDbEntity
  8
0-0
  6
Continuous
 62
    92
370
    13
100
AcDbCircle
 10
1049.400744026554
 20
796.6893387335086
 30
0.0
 40
150.0
100
AcDbArc
 50
241.6422988763328
 51
270.0
  0
ARC
  5
104
330
1F
100
AcDbEntity
  8
0-0
  6
Continuous
 62
    92
370
    13
100
AcDbCircle
 10
811.9134065979656
 20
356.6896062778169
 30
0.0
 40
350.0
100
AcDbArc
 50
61.64229887633292
 51
118.3577011236671
  0
ARC
  5
105
330
1F
100
AcDbEntity
  8
0-0
  6
Continuous
 62
    92
370
    13
100
AcDbCircle
 10
574.4260691693776
 20
796.6893387335086
 30
0.0
 40
150.0
100
AcDbArc
 50
270.0
 51
298.3577011236671
  0
LINE
  5
106
330
1F
100
AcDbEntity
  8
0-0
  6
Continuous
 62
    92
370
    13
100
AcDbLine
 10
525.4134065979636
 20
646.6893387335086
 30
0.0
 11
574.4260691693776
 21
646.6893387335086
 31
0.0
  0
LINE
  5
107
330
1F
100
AcDbEntity
  8
0-0
  6
Continuous
 62
    92
370
    13
100
AcDbLine
 10
525.4134065979653
 20
-468.3103937221829
 30
0.0
 11
525.4134065979653
 21
646.6893387335086
 31
0.0
  0
LINE
  5
108
330
1F
100
AcDbEntity
  8
0-0
  6
Continuous
 62
    92
370
    13
100
AcDbLine
 10
525.4134065979653
 20
-468.3103937221829
 30
0.0
 11
1098.413406597966
 21
-468.3103937221829
 31
0.0
  0
LINE
  5
109
330
1F
100
AcDbEntity
  8
0-0
  6
Continuous
 62
    92
370
    13
100
AcDbLine
 10
1098.413406597966
 20
-468.3103937221829
 30
0.0
 11
1098.413406597966
 21
646.6893387335086
 31
0.0
  0
LINE
  5
10A
330
1F
100
AcDbEntity
  8
0-0
  6
JWW_DASHED1
 62
   120
370
     5
100
AcDbLine
 10
-1034.586593402036
 20
-467.3105420361264
 30
0.0
 11
-461.5865934020349
 21
-467.3105420361264
 31
0.0
  0
LINE
  5
10B
330
1F
100
AcDbEntity
  8
0-0
  6
JWW_DASHED1
 62
   120
370
     5
100
AcDbLine
 10
-1034.586593402036
 20
-454.3105420350269
 30
0.0
 11
-461.5865934020349
 21
-454.3105420350269
 31
0.0
  0
LINE
  5
10C
330
1F
100
AcDbEntity
  8
0-0
  6
JWW_DASHED1
 62
   120
370
     5
100
AcDbLine
 10
-1034.586593402036
 20
-453.3105420351267
 30
0.0
 11
-461.5865934020349
 21
-453.3105420351267
 31
0.0
  0
LINE
  5
10D
330
1F
100
AcDbEntity
  8
0-0
  6
JWW_DASHED1
 62
   120
370
     5
100
AcDbLine
 10
-1034.586593402036
 20
-440.310542034027
 30
0.0
 11
-461.5865934020349
 21
-440.310542034027
 31
0.0
  0
LINE
  5
10E
330
1F
100
AcDbEntity
  8
0-0
  6
JWW_DASHED1
 62
   120
370
     5
100
AcDbLine
 10
-1034.586593402036
 20
-439.3105420341269
 30
0.0
 11
-461.5865934020349
 21
-439.3105420341269
 31
0.0
  0
LINE
  5
10F
330
1F
100
AcDbEntity
  8
0-0
  6
JWW_DASHED1
 62
   120
370
     5
100
AcDbLine
 10
-1034.586593402036
 20
-426.3105420330272
 30
0.0
 11
-461.5865934020349
 21
-426.3105420330272
 31
0.0
  0
LINE
  5
110
330
1F
100
AcDbEntity
  8
0-0
  6
JWW_DASHED1
 62
   120
370
     5
100
AcDbLine
 10
-1034.586593402036
 20
-425.310542033127
 30
0.0
 11
-461.5865934020349
 21
-425.310542033127
 31
0.0
  0
LINE
  5
111
330
1F
100
AcDbEntity
  8
0-0
  6
JWW_DASHED1
 62
   120
370
     5
100
AcDbLine
 10
-1034.586593402036
 20
-412.3105420320275
 30
0.0
 11
-461.5865934020349
 21
-412.3105420320275
 31
0.0
  0
LINE
  5
112
330
1F
100
AcDbEntity
  8
0-0
  6
JWW_DASHED1
 62
   120
370
     5
100
AcDbLine
 10
-1034.586593402036
 20
-411.3105420321273
 30
0.0
 11
-461.5865934020349
 21
-411.3105420321273
 31
0.0
  0
LINE
  5
113
330
1F
100
AcDbEntity
  8
0-0
  6
JWW_DASHED1
 62
   120
370
     5
100
AcDbLine
 10
-1034.586593402036
 20
-398.3105420310277
 30
0.0
 11
-461.5865934020349
 21
-398.3105420310277
 31
0.0
  0
LINE
  5
114
330
1F
100
AcDbEntity
  8
0-0
  6
JWW_DASHED1
 62
   120
370
     5
100
AcDbLine
 10
-1034.586593402036
 20
-397.3105420311275
 30
0.0
 11
-461.5865934020349
 21
-397.3105420311275
 31
0.0
  0
LINE
  5
115
330
1F
100
AcDbEntity
  8
0-0
  6
JWW_DASHED1
 62
   120
370
     5
100
AcDbLine
 10
-1034.586593402036
 20
-384.3105420300279
 30
0.0
 11
-461.5865934020349
 21
-384.3105420300279
 31
0.0
  0
LINE
  5
116
330
1F
100
AcDbEntity
  8
0-0
  6
JWW_DASHED1
 62
   120
370
     5
100
AcDbLine
 10
-1034.586593402036
 20
-383.3105420301277
 30
0.0
 11
-461.5865934020349
 21
-383.3105420301277
 31
0.0
  0
LINE
  5
117
330
1F
100
AcDbEntity
  8
0-0
  6
JWW_DASHED1
 62
   120
370
     5
100
AcDbLine
 10
-1034.586593402036
 20
-370.3105420290281
 30
0.0
 11
-461.5865934020349
 21
-370.3105420290281
 31
0.0
  0
LINE
  5
118
330
1F
100
AcDbEntity
  8
0-0
  6
JWW_DASHED1
 62
   120
370
     5
100
AcDbLine
 10
-1034.586593402036
 20
-369.3105420291279
 30
0.0
 11
-461.5865934020349
 21
-369.3105420291279
 31
0.0
  0
LINE
  5
119
330
1F
100
AcDbEntity
  8
0-0
  6
JWW_DASHED1
 62
   120
370
     5
100
AcDbLine
 10
-1034.586593402036
 20
-356.3105420280283
 30
0.0
 11
-461.5865934020349
 21
-356.3105420280283
 31
0.0
  0
LINE
  5
11A
330
1F
100
AcDbEntity
  8
0-0
  6
JWW_DASHED1
 62
   120
370
     5
100
AcDbLine
 10
-1034.586593402036
 20
-355.3105420281281
 30
0.0
 11
-461.5865934020349
 21
-355.3105420281281
 31
0.0
  0
LINE
  5
11B
330
1F
100
AcDbEntity
  8
0-0
  6
JWW_DASHED1
 62
   120
370
     5
100
AcDbLine
 10
-1034.586593402036
 20
-342.3105420270285
 30
0.0
 11
-461.5865934020349
 21
-342.3105420270285
 31
0.0
  0
LINE
  5
11C
330
1F
100
AcDbEntity
  8
0-0
  6
JWW_DASHED1
 62
   120
370
     5
100
AcDbLine
 10
-1034.586593402036
 20
-341.3105420271283
 30
0.0
 11
-461.5865934020349
 21
-341.3105420271283
 31
0.0
  0
LINE
  5
11D
330
1F
100
AcDbEntity
  8
0-0
  6
JWW_DASHED1
 62
   120
370
     5
100
AcDbLine
 10
-1034.586593402036
 20
-328.3105420260287
 30
0.0
 11
-461.5865934020349
 21
-328.3105420260287
 31
0.0
  0
LINE
  5
11E
330
1F
100
AcDbEntity
  8
0-0
  6
JWW_DASHED1
 62
   120
370
     5
100
AcDbLine
 10
-1034.586593402036
 20
-327.3105420261285
 30
0.0
 11
-461.5865934020349
 21
-327.3105420261285
 31
0.0
  0
LINE
  5
11F
330
1F
100
AcDbEntity
  8
0-0
  6
JWW_DASHED1
 62
   120
370
     5
100
AcDbLine
 10
-1034.586593402036
 20
-314.3105420250289
 30
0.0
 11
-461.5865934020349
 21
-314.3105420250289
 31
0.0
  0
LINE
  5
120
330
1F
100
AcDbEntity
  8
0-0
  6
JWW_DASHED1
 62
   120
370
     5
100
AcDbLine
 10
-1034.586593402036
 20
-313.3105420251287
 30
0.0
 11
-461.5865934020349
 21
-313.3105420251287
 31
0.0
  0
LINE
  5
121
330
1F
100
AcDbEntity
  8
0-0
  6
JWW_DASHED1
 62
   120
370
     5
100
AcDbLine
 10
-1034.586593402036
 20
-300.3105420240291
 30
0.0
 11
-461.5865934020349
 21
-300.3105420240291
 31
0.0
  0
LINE
  5
122
330
1F
100
AcDbEntity
  8
0-0
  6
JWW_DASHED1
 62
   120
370
     5
100
AcDbLine
 10
-1034.586593402036
 20
-299.3105420241289
 30
0.0
 11
-461.5865934020349
 21
-299.3105420241289
 31
0.0
  0
LINE
  5
123
330
1F
100
AcDbEntity
  8
0-0
  6
JWW_DASHED1
 62
   120
370
     5
100
AcDbLine
 10
-1034.586593402036
 20
-286.3105420230294
 30
0.0
 11
-461.5865934020349
 21
-286.3105420230294
 31
0.0
  0
LINE
  5
124
330
1F
100
AcDbEntity
  8
0-0
  6
JWW_DASHED1
 62
   120
370
     5
100
AcDbLine
 10
-1034.586593402036
 20
-285.3105420231292
 30
0.0
 11
-461.5865934020349
 21
-285.3105420231292
 31
0.0
  0
LINE
  5
125
330
1F
100
AcDbEntity
  8
0-0
  6
JWW_DASHED1
 62
   120
370
     5
100
AcDbLine
 10
-1034.586593402036
 20
-272.3105420220296
 30
0.0
 11
-461.5865934020349
 21
-272.3105420220296
 31
0.0
  0
LINE
  5
126
330
1F
100
AcDbEntity
  8
0-0
  6
JWW_DASHED1
 62
   120
370
     5
100
AcDbLine
 10
-1034.586593402036
 20
-271.3105420221294
 30
0.0
 11
-461.5865934020349
 21
-271.3105420221294
 31
0.0
  0
LINE
  5
127
330
1F
100
AcDbEntity
  8
0-0
  6
JWW_DASHED1
 62
   120
370
     5
100
AcDbLine
 10
-1034.586593402036
 20
-258.3105420210297
 30
0.0
 11
-461.5865934020349
 21
-258.3105420210297
 31
0.0
  0
LINE
  5
128
330
1F
100
AcDbEntity
  8
0-0
  6
JWW_DASHED1
 62
   120
370
     5
100
AcDbLine
 10
-1034.586593402036
 20
-257.3105420211295
 30
0.0
 11
-461.5865934020349
 21
-257.3105420211295
 31
0.0
  0
LINE
  5
129
330
1F
100
AcDbEntity
  8
0-0
  6
JWW_DASHED1
 62
   120
370
     5
100
AcDbLine
 10
-1034.586593402036
 20
-244.31054202003
 30
0.0
 11
-461.5865934020349
 21
-244.31054202003
 31
0.0
  0
LINE
  5
12A
330
1F
100
AcDbEntity
  8
0-0
  6
JWW_DASHED1
 62
   120
370
     5
100
AcDbLine
 10
-1034.586593402036
 20
-243.3105420201298
 30
0.0
 11
-461.5865934020349
 21
-243.3105420201298
 31
0.0
  0
LINE
  5
12B
330
1F
100
AcDbEntity
  8
0-0
  6
JWW_DASHED1
 62
   120
370
     5
100
AcDbLine
 10
-1034.586593402036
 20
-230.3105420190302
 30
0.0
 11
-461.5865934020349
 21
-230.3105420190302
 31
0.0
  0
LINE
  5
12C
330
1F
100
AcDbEntity
  8
0-0
  6
JWW_DASHED1
 62
   120
370
     5
100
AcDbLine
 10
-1034.586593402036
 20
-229.31054201913
 30
0.0
 11
-461.5865934020349
 21
-229.31054201913
 31
0.0
  0
LINE
  5
12D
330
1F
100
AcDbEntity
  8
0-0
  6
JWW_DASHED1
 62
   120
370
     5
100
AcDbLine
 10
-1034.586593402036
 20
-216.3105420180304
 30
0.0
 11
-461.5865934020349
 21
-216.3105420180304
 31
0.0
  0
LINE
  5
12E
330
1F
100
AcDbEntity
  8
0-0
  6
JWW_DASHED1
 62
   120
370
     5
100
AcDbLine
 10
-1034.586593402036
 20
-215.3105420181302
 30
0.0
 11
-461.5865934020349
 21
-215.3105420181302
 31
0.0
  0
LINE
  5
12F
330
1F
100
AcDbEntity
  8
0-0
  6
JWW_DASHED1
 62
   120
370
     5
100
AcDbLine
 10
-1034.586593402036
 20
-202.3105420170306
 30
0.0
 11
-461.5865934020349
 21
-202.3105420170306
 31
0.0
  0
LINE
  5
130
330
1F
100
AcDbEntity
  8
0-0
  6
JWW_DASHED1
 62
   120
370
     5
100
AcDbLine
 10
-1034.586593402036
 20
-201.3105420171304
 30
0.0
 11
-461.5865934020349
 21
-201.3105420171304
 31
0.0
  0
LINE
  5
131
330
1F
100
AcDbEntity
  8
0-0
  6
JWW_DASHED1
 62
   120
370
     5
100
AcDbLine
 10
-1034.586593402036
 20
-188.3105420160308
 30
0.0
 11
-461.5865934020349
 21
-188.3105420160308
 31
0.0
  0
LINE
  5
132
330
1F
100
AcDbEntity
  8
0-0
  6
JWW_DASHED1
 62
   120
370
     5
100
AcDbLine
 10
-1034.586593402036
 20
-187.3105420161306
 30
0.0
 11
-461.5865934020349
 21
-187.3105420161306
 31
0.0
  0
LINE
  5
133
330
1F
100
AcDbEntity
  8
0-0
  6
JWW_DASHED1
 62
   120
370
     5
100
AcDbLine
 10
-1034.586593402036
 20
-174.310542015031
 30
0.0
 11
-461.5865934020349
 21
-174.310542015031
 31
0.0
  0
LINE
  5
134
330
1F
100
AcDbEntity
  8
0-0
  6
JWW_DASHED1
 62
   120
370
     5
100
AcDbLine
 10
-1034.586593402036
 20
-173.3105420151308
 30
0.0
 11
-461.5865934020349
 21
-173.3105420151308
 31
0.0
  0
LINE
  5
135
330
1F
100
AcDbEntity
  8
0-0
  6
JWW_DASHED1
 62
   120
370
     5
100
AcDbLine
 10
-1034.586593402036
 20
-160.3105420140312
 30
0.0
 11
-461.5865934020349
 21
-160.3105420140312
 31
0.0
  0
LINE
  5
136
330
1F
100
AcDbEntity
  8
0-0
  6
JWW_DASHED1
 62
   120
370
     5
100
AcDbLine
 10
-1034.586593402036
 20
-159.310542014131
 30
0.0
 11
-461.5865934020349
 21
-159.310542014131
 31
0.0
  0
LINE
  5
137
330
1F
100
AcDbEntity
  8
0-0
  6
JWW_DASHED1
 62
   120
370
     5
100
AcDbLine
 10
-1034.586593402036
 20
-146.3105420130314
 30
0.0
 11
-461.5865934020349
 21
-146.3105420130314
 31
0.0
  0
LINE
  5
138
330
1F
100
AcDbEntity
  8
0-0
  6
JWW_DASHED1
 62
   120
370
     5
100
AcDbLine
 10
-1034.586593402036
 20
-145.3105420131313
 30
0.0
 11
-461.5865934020349
 21
-145.3105420131313
 31
0.0
  0
LINE
  5
139
330
1F
100
AcDbEntity
  8
0-0
  6
JWW_DASHED1
 62
   120
370
     5
100
AcDbLine
 10
-1034.586593402036
 20
-132.3105420120316
 30
0.0
 11
-461.5865934020349
 21
-132.3105420120316
 31
0.0
  0
LINE
  5
13A
330
1F
100
AcDbEntity
  8
0-0
  6
JWW_DASHED1
 62
   120
370
     5
100
AcDbLine
 10
-1034.586593402036
 20
-131.3105420121315
 30
0.0
 11
-461.5865934020349
 21
-131.3105420121315
 31
0.0
  0
LINE
  5
13B
330
1F
100
AcDbEntity
  8
0-0
  6
JWW_DASHED1
 62
   120
370
     5
100
AcDbLine
 10
-1034.586593402036
 20
-118.3105420110319
 30
0.0
 11
-461.5865934020349
 21
-118.3105420110319
 31
0.0
  0
LINE
  5
13C
330
1F
100
AcDbEntity
  8
0-0
  6
JWW_DASHED1
 62
   120
370
     5
100
AcDbLine
 10
-1034.586593402036
 20
-117.3105420111317
 30
0.0
 11
-461.5865934020349
 21
-117.3105420111317
 31
0.0
  0
LINE
  5
13D
330
1F
100
AcDbEntity
  8
0-0
  6
JWW_DASHED1
 62
   120
370
     5
100
AcDbLine
 10
-1034.586593402036
 20
-104.3105420100321
 30
0.0
 11
-461.5865934020349
 21
-104.3105420100321
 31
0.0
  0
LINE
  5
13E
330
1F
100
AcDbEntity
  8
0-0
  6
JWW_DASHED1
 62
   120
370
     5
100
AcDbLine
 10
-1034.586593402036
 20
-103.3105420101319
 30
0.0
 11
-461.5865934020349
 21
-103.3105420101319
 31
0.0
  0
LINE
  5
13F
330
1F
100
AcDbEntity
  8
0-0
  6
JWW_DASHED1
 62
   120
370
     5
100
AcDbLine
 10
-1034.586593402036
 20
-90.31054200903228
 30
0.0
 11
-461.5865934020349
 21
-90.31054200903228
 31
0.0
  0
LINE
  5
140
330
1F
100
AcDbEntity
  8
0-0
  6
JWW_DASHED1
 62
   120
370
     5
100
AcDbLine
 10
-1034.586593402036
 20
-89.31054200913209
 30
0.0
 11
-461.5865934020349
 21
-89.31054200913209
 31
0.0
  0
LINE
  5
141
330
1F
100
AcDbEntity
  8
0-0
  6
JWW_DASHED1
 62
   120
370
     5
100
AcDbLine
 10
-1034.586593402036
 20
-76.31054200803248
 30
0.0
 11
-461.5865934020349
 21
-76.31054200803248
 31
0.0
  0
LINE
  5
142
330
1F
100
AcDbEntity
  8
0-0
  6
JWW_DASHED1
 62
   120
370
     5
100
AcDbLine
 10
-1034.586593402036
 20
-75.3105420081323
 30
0.0
 11
-461.5865934020349
 21
-75.3105420081323
 31
0.0
  0
LINE
  5
143
330
1F
100
AcDbEntity
  8
0-0
  6
JWW_DASHED1
 62
   120
370
     5
100
AcDbLine
 10
-1034.586593402036
 20
-62.31054200703269
 30
0.0
 11
-461.5865934020349
 21
-62.31054200703269
 31
0.0
  0
LINE
  5
144
330
1F
100
AcDbEntity
  8
0-0
  6
JWW_DASHED1
 62
   120
370
     5
100
AcDbLine
 10
-1034.586593402036
 20
-61.31054200713251
 30
0.0
 11
-461.5865934020349
 21
-61.31054200713251
 31
0.0
  0
LINE
  5
145
330
1F
100
AcDbEntity
  8
0-0
  6
JWW_DASHED1
 62
   120
370
     5
100
AcDbLine
 10
-1034.586593402036
 20
-48.3105420060329
 30
0.0
 11
-461.5865934020349
 21
-48.3105420060329
 31
0.0
  0
LINE
  5
146
330
1F
100
AcDbEntity
  8
0-0
  6
JWW_DASHED1
 62
   120
370
     5
100
AcDbLine
 10
-1034.586593402036
 20
-47.31054200613272
 30
0.0
 11
-461.5865934020349
 21
-47.31054200613272
 31
0.0
  0
LINE
  5
147
330
1F
100
AcDbEntity
  8
0-0
  6
JWW_DASHED1
 62
   120
370
     5
100
AcDbLine
 10
-1034.586593402036
 20
-34.31054200503311
 30
0.0
 11
-461.5865934020349
 21
-34.31054200503311
 31
0.0
  0
LINE
  5
148
330
1F
100
AcDbEntity
  8
0-0
  6
JWW_DASHED1
 62
   120
370
     5
100
AcDbLine
 10
-1034.586593402036
 20
-33.31054200513293
 30
0.0
 11
-461.5865934020349
 21
-33.31054200513293
 31
0.0
  0
LINE
  5
149
330
1F
100
AcDbEntity
  8
0-0
  6
JWW_DASHED1
 62
   120
370
     5
100
AcDbLine
 10
-1034.586593402036
 20
-20.31054200403332
 30
0.0
 11
-461.5865934020349
 21
-20.31054200403332
 31
0.0
  0
LINE
  5
14A
330
1F
100
AcDbEntity
  8
0-0
  6
JWW_DASHED1
 62
   120
370
     5
100
AcDbLine
 10
-1034.586593402036
 20
-19.31054200413314
 30
0.0
 11
-461.5865934020349
 21
-19.31054200413314
 31
0.0
  0
LINE
  5
14B
330
1F
100
AcDbEntity
  8
0-0
  6
JWW_DASHED1
 62
   120
370
     5
100
AcDbLine
 10
-1034.586593402036
 20
-6.310542003033532
 30
0.0
 11
-461.5865934020349
 21
-6.310542003033532
 31
0.0
  0
LINE
  5
14C
330
1F
100
AcDbEntity
  8
0-0
  6
JWW_DASHED1
 62
   120
370
     5
100
AcDbLine
 10
-1034.586593402036
 20
-5.310542003133349
 30
0.0
 11
-461.5865934020349
 21
-5.310542003133349
 31
0.0
  0
LINE
  5
14D
330
1F
100
AcDbEntity
  8
0-0
  6
JWW_DASHED1
 62
   120
370
     5
100
AcDbLine
 10
-1034.586593402036
 20
7.689457997966258
 30
0.0
 11
-461.5865934020349
 21
7.689457997966258
 31
0.0
  0
LINE
  5
14E
330
1F
100
AcDbEntity
  8
0-0
  6
JWW_DASHED1
 62
   120
370
     5
100
AcDbLine
 10
-1034.586593402036
 20
8.689457997866441
 30
0.0
 11
-461.5865934020349
 21
8.689457997866441
 31
0.0
  0
LINE
  5
14F
330
1F
100
AcDbEntity
  8
0-0
  6
JWW_DASHED1
 62
   120
370
     5
100
AcDbLine
 10
-1034.586593402036
 20
21.68945799896605
 30
0.0
 11
-461.5865934020349
 21
21.68945799896605
 31
0.0
  0
LINE
  5
150
330
1F
100
AcDbEntity
  8
0-0
  6
JWW_DASHED1
 62
   120
370
     5
100
AcDbLine
 10
-1034.586593402036
 20
22.68945799886623
 30
0.0
 11
-461.5865934020349
 21
22.68945799886623
 31
0.0
  0
LINE
  5
151
330
1F
100
AcDbEntity
  8
0-0
  6
JWW_DASHED1
 62
   120
370
     5
100
AcDbLine
 10
-1034.586593402036
 20
35.68945799996584
 30
0.0
 11
-461.5865934020349
 21
35.68945799996584
 31
0.0
  0
LINE
  5
152
330
1F
100
AcDbEntity
  8
0-0
  6
JWW_DASHED1
 62
   120
370
     5
100
AcDbLine
 10
-1034.586593402036
 20
36.68945799986602
 30
0.0
 11
-461.5865934020349
 21
36.68945799986602
 31
0.0
  0
LINE
  5
153
330
1F
100
AcDbEntity
  8
0-0
  6
JWW_DASHED1
 62
   120
370
     5
100
AcDbLine
 10
-1034.586593402036
 20
49.68945800096563
 30
0.0
 11
-461.5865934020349
 21
49.68945800096563
 31
0.0
  0
LINE
  5
154
330
1F
100
AcDbEntity
  8
0-0
  6
JWW_DASHED1
 62
   120
370
     5
100
AcDbLine
 10
-1034.586593402036
 20
50.68945800086581
 30
0.0
 11
-461.5865934020349
 21
50.68945800086581
 31
0.0
  0
LINE
  5
155
330
1F
100
AcDbEntity
  8
0-0
  6
JWW_DASHED1
 62
   120
370
     5
100
AcDbLine
 10
-1034.586593402036
 20
63.68945800196542
 30
0.0
 11
-461.5865934020349
 21
63.68945800196542
 31
0.0
  0
LINE
  5
156
330
1F
100
AcDbEntity
  8
0-0
  6
JWW_DASHED1
 62
   120
370
     5
100
AcDbLine
 10
-1034.586593402036
 20
64.6894580018656
 30
0.0
 11
-461.5865934020349
 21
64.6894580018656
 31
0.0
  0
LINE
  5
157
330
1F
100
AcDbEntity
  8
0-0
  6
JWW_DASHED1
 62
   120
370
     5
100
AcDbLine
 10
-1034.586593402036
 20
77.68945800296521
 30
0.0
 11
-461.5865934020349
 21
77.68945800296521
 31
0.0
  0
LINE
  5
158
330
1F
100
AcDbEntity
  8
0-0
  6
JWW_DASHED1
 62
   120
370
     5
100
AcDbLine
 10
-1034.586593402036
 20
78.6894580028654
 30
0.0
 11
-461.5865934020349
 21
78.6894580028654
 31
0.0
  0
LINE
  5
159
330
1F
100
AcDbEntity
  8
0-0
  6
JWW_DASHED1
 62
   120
370
     5
100
AcDbLine
 10
-1034.586593402036
 20
91.689458003965
 30
0.0
 11
-461.5865934020349
 21
91.689458003965
 31
0.0
  0
LINE
  5
15A
330
1F
100
AcDbEntity
  8
0-0
  6
JWW_DASHED1
 62
   120
370
     5
100
AcDbLine
 10
-1034.586593402036
 20
92.68945800386518
 30
0.0
 11
-461.5865934020349
 21
92.68945800386518
 31
0.0
  0
LINE
  5
15B
330
1F
100
AcDbEntity
  8
0-0
  6
JWW_DASHED1
 62
   120
370
     5
100
AcDbLine
 10
-1034.586593402036
 20
105.6894580049648
 30
0.0
 11
-461.5865934020349
 21
105.6894580049648
 31
0.0
  0
LINE
  5
15C
330
1F
100
AcDbEntity
  8
0-0
  6
JWW_DASHED1
 62
   120
370
     5
100
AcDbLine
 10
-1034.586593402036
 20
106.689458004865
 30
0.0
 11
-461.5865934020349
 21
106.689458004865
 31
0.0
  0
LINE
  5
15D
330
1F
100
AcDbEntity
  8
0-0
  6
JWW_DASHED1
 62
   120
370
     5
100
AcDbLine
 10
-1034.586593402036
 20
119.6894580059646
 30
0.0
 11
-461.5865934020349
 21
119.6894580059646
 31
0.0
  0
LINE
  5
15E
330
1F
100
AcDbEntity
  8
0-0
  6
JWW_DASHED1
 62
   120
370
     5
100
AcDbLine
 10
-1034.586593402036
 20
120.6894580058648
 30
0.0
 11
-461.5865934020349
 21
120.6894580058648
 31
0.0
  0
LINE
  5
15F
330
1F
100
AcDbEntity
  8
0-0
  6
JWW_DASHED1
 62
   120
370
     5
100
AcDbLine
 10
-1034.586593402036
 20
133.6894580069644
 30
0.0
 11
-461.5865934020349
 21
133.6894580069644
 31
0.0
  0
LINE
  5
160
330
1F
100
AcDbEntity
  8
0-0
  6
JWW_DASHED1
 62
   120
370
     5
100
AcDbLine
 10
-1034.586593402036
 20
134.6894580068646
 30
0.0
 11
-461.5865934020349
 21
134.6894580068646
 31
0.0
  0
LINE
  5
161
330
1F
100
AcDbEntity
  8
0-0
  6
JWW_DASHED1
 62
   120
370
     5
100
AcDbLine
 10
-1034.586593402036
 20
147.6894580079642
 30
0.0
 11
-461.5865934020349
 21
147.6894580079642
 31
0.0
  0
LINE
  5
162
330
1F
100
AcDbEntity
  8
0-0
  6
JWW_DASHED1
 62
   120
370
     5
100
AcDbLine
 10
-1034.586593402036
 20
148.6894580078643
 30
0.0
 11
-461.5865934020349
 21
148.6894580078643
 31
0.0
  0
LINE
  5
163
330
1F
100
AcDbEntity
  8
0-0
  6
JWW_DASHED1
 62
   120
370
     5
100
AcDbLine
 10
-1034.586593402036
 20
161.689458008964
 30
0.0
 11
-461.5865934020349
 21
161.689458008964
 31
0.0
  0
LINE
  5
164
330
1F
100
AcDbEntity
  8
0-0
  6
JWW_DASHED1
 62
   120
370
     5
100
AcDbLine
 10
-1034.586593402036
 20
162.6894580088641
 30
0.0
 11
-461.5865934020349
 21
162.6894580088641
 31
0.0
  0
LINE
  5
165
330
1F
100
AcDbEntity
  8
0-0
  6
JWW_DASHED1
 62
   120
370
     5
100
AcDbLine
 10
-1034.586593402036
 20
175.6894580099637
 30
0.0
 11
-461.5865934020349
 21
175.6894580099637
 31
0.0
  0
LINE
  5
166
330
1F
100
AcDbEntity
  8
0-0
  6
JWW_DASHED1
 62
   120
370
     5
100
AcDbLine
 10
-1034.586593402036
 20
176.6894580098639
 30
0.0
 11
-461.5865934020349
 21
176.6894580098639
 31
0.0
  0
LINE
  5
167
330
1F
100
AcDbEntity
  8
0-0
  6
JWW_DASHED1
 62
   120
370
     5
100
AcDbLine
 10
-1034.586593402036
 20
189.6894580109635
 30
0.0
 11
-461.5865934020349
 21
189.6894580109635
 31
0.0
  0
LINE
  5
168
330
1F
100
AcDbEntity
  8
0-0
  6
JWW_DASHED1
 62
   120
370
     5
100
AcDbLine
 10
-1034.586593402036
 20
190.6894580108637
 30
0.0
 11
-461.5865934020349
 21
190.6894580108637
 31
0.0
  0
LINE
  5
169
330
1F
100
AcDbEntity
  8
0-0
  6
JWW_DASHED1
 62
   120
370
     5
100
AcDbLine
 10
-1034.586593402036
 20
203.6894580119633
 30
0.0
 11
-461.5865934020349
 21
203.6894580119633
 31
0.0
  0
LINE
  5
16A
330
1F
100
AcDbEntity
  8
0-0
  6
JWW_DASHED1
 62
   120
370
     5
100
AcDbLine
 10
-1034.586593402036
 20
204.6894580118635
 30
0.0
 11
-461.5865934020349
 21
204.6894580118635
 31
0.0
  0
LINE
  5
16B
330
1F
100
AcDbEntity
  8
0-0
  6
JWW_DASHED1
 62
   120
370
     5
100
AcDbLine
 10
-1034.586593402036
 20
217.6894580129631
 30
0.0
 11
-461.5865934020349
 21
217.6894580129631
 31
0.0
  0
LINE
  5
16C
330
1F
100
AcDbEntity
  8
0-0
  6
JWW_DASHED1
 62
   120
370
     5
100
AcDbLine
 10
-1034.586593402036
 20
218.6894580128633
 30
0.0
 11
-461.5865934020349
 21
218.6894580128633
 31
0.0
  0
LINE
  5
16D
330
1F
100
AcDbEntity
  8
0-0
  6
JWW_DASHED1
 62
   120
370
     5
100
AcDbLine
 10
-1034.586593402036
 20
231.6894580139629
 30
0.0
 11
-461.5865934020349
 21
231.6894580139629
 31
0.0
  0
LINE
  5
16E
330
1F
100
AcDbEntity
  8
0-0
  6
JWW_DASHED1
 62
   120
370
     5
100
AcDbLine
 10
-1034.586593402036
 20
232.6894580138631
 30
0.0
 11
-461.5865934020349
 21
232.6894580138631
 31
0.0
  0
LINE
  5
16F
330
1F
100
AcDbEntity
  8
0-0
  6
JWW_DASHED1
 62
   120
370
     5
100
AcDbLine
 10
-1034.586593402036
 20
245.6894580149627
 30
0.0
 11
-461.5865934020349
 21
245.6894580149627
 31
0.0
  0
LINE
  5
170
330
1F
100
AcDbEntity
  8
0-0
  6
JWW_DASHED1
 62
   120
370
     5
100
AcDbLine
 10
-1034.586593402036
 20
246.6894580148629
 30
0.0
 11
-461.5865934020349
 21
246.6894580148629
 31
0.0
  0
LINE
  5
171
330
1F
100
AcDbEntity
  8
0-0
  6
JWW_DASHED1
 62
   120
370
     5
100
AcDbLine
 10
-1034.586593402036
 20
259.6894580159625
 30
0.0
 11
-461.5865934020349
 21
259.6894580159625
 31
0.0
  0
LINE
  5
172
330
1F
100
AcDbEntity
  8
0-0
  6
JWW_DASHED1
 62
   120
370
     5
100
AcDbLine
 10
-1034.586593402036
 20
260.6894580158627
 30
0.0
 11
-461.5865934020349
 21
260.6894580158627
 31
0.0
  0
LINE
  5
173
330
1F
100
AcDbEntity
  8
0-0
  6
JWW_DASHED1
 62
   120
370
     5
100
AcDbLine
 10
-1034.586593402036
 20
273.6894580169622
 30
0.0
 11
-461.5865934020349
 21
273.6894580169622
 31
0.0
  0
LINE
  5
174
330
1F
100
AcDbEntity
  8
0-0
  6
JWW_DASHED1
 62
   120
370
     5
100
AcDbLine
 10
-1034.586593402036
 20
274.6894580168624
 30
0.0
 11
-461.5865934020349
 21
274.6894580168624
 31
0.0
  0
LINE
  5
175
330
1F
100
AcDbEntity
  8
0-0
  6
JWW_DASHED1
 62
   120
370
     5
100
AcDbLine
 10
-1034.586593402036
 20
287.6894580179621
 30
0.0
 11
-461.5865934020349
 21
287.6894580179621
 31
0.0
  0
LINE
  5
176
330
1F
100
AcDbEntity
  8
0-0
  6
JWW_DASHED1
 62
   120
370
     5
100
AcDbLine
 10
-1034.586593402036
 20
288.6894580178623
 30
0.0
 11
-461.5865934020349
 21
288.6894580178623
 31
0.0
  0
LINE
  5
177
330
1F
100
AcDbEntity
  8
0-0
  6
JWW_DASHED1
 62
   120
370
     5
100
AcDbLine
 10
-1034.586593402036
 20
301.6894580189619
 30
0.0
 11
-461.5865934020349
 21
301.6894580189619
 31
0.0
  0
LINE
  5
178
330
1F
100
AcDbEntity
  8
0-0
  6
JWW_DASHED1
 62
   120
370
     5
100
AcDbLine
 10
-1034.586593402036
 20
302.6894580188621
 30
0.0
 11
-461.5865934020349
 21
302.6894580188621
 31
0.0
  0
LINE
  5
179
330
1F
100
AcDbEntity
  8
0-0
  6
JWW_DASHED1
 62
   120
370
     5
100
AcDbLine
 10
-1034.586593402036
 20
315.6894580199616
 30
0.0
 11
-461.5865934020349
 21
315.6894580199616
 31
0.0
  0
LINE
  5
17A
330
1F
100
AcDbEntity
  8
0-0
  6
JWW_DASHED1
 62
   120
370
     5
100
AcDbLine
 10
-1034.586593402036
 20
316.6894580198618
 30
0.0
 11
-461.5865934020349
 21
316.6894580198618
 31
0.0
  0
LINE
  5
17B
330
1F
100
AcDbEntity
  8
0-0
  6
JWW_DASHED1
 62
   120
370
     5
100
AcDbLine
 10
-1034.586593402036
 20
329.6894580209614
 30
0.0
 11
-461.5865934020349
 21
329.6894580209614
 31
0.0
  0
LINE
  5
17C
330
1F
100
AcDbEntity
  8
0-0
  6
JWW_DASHED1
 62
   120
370
     5
100
AcDbLine
 10
-1034.586593402036
 20
330.6894580208616
 30
0.0
 11
-461.5865934020349
 21
330.6894580208616
 31
0.0
  0
LINE
  5
17D
330
1F
100
AcDbEntity
  8
0-0
  6
JWW_DASHED1
 62
   120
370
     5
100
AcDbLine
 10
-1034.586593402036
 20
343.6894580219612
 30
0.0
 11
-461.5865934020349
 21
343.6894580219612
 31
0.0
  0
LINE
  5
17E
330
1F
100
AcDbEntity
  8
0-0
  6
JWW_DASHED1
 62
   120
370
     5
100
AcDbLine
 10
-1034.586593402036
 20
344.6894580218614
 30
0.0
 11
-461.5865934020349
 21
344.6894580218614
 31
0.0
  0
LINE
  5
17F
330
1F
100
AcDbEntity
  8
0-0
  6
JWW_DASHED1
 62
   120
370
     5
100
AcDbLine
 10
-1034.586593402036
 20
357.689458022961
 30
0.0
 11
-461.5865934020349
 21
357.689458022961
 31
0.0
  0
LINE
  5
180
330
1F
100
AcDbEntity
  8
0-0
  6
JWW_DASHED1
 62
   120
370
     5
100
AcDbLine
 10
-1034.586593402036
 20
358.6894580228612
 30
0.0
 11
-461.5865934020349
 21
358.6894580228612
 31
0.0
  0
LINE
  5
181
330
1F
100
AcDbEntity
  8
0-0
  6
JWW_DASHED1
 62
   120
370
     5
100
AcDbLine
 10
-1034.586593402036
 20
371.6894580239608
 30
0.0
 11
-461.5865934020349
 21
371.6894580239608
 31
0.0
  0
LINE
  5
182
330
1F
100
AcDbEntity
  8
0-0
  6
JWW_DASHED1
 62
   120
370
     5
100
AcDbLine
 10
-1034.586593402036
 20
372.689458023861
 30
0.0
 11
-461.5865934020349
 21
372.689458023861
 31
0.0
  0
LINE
  5
183
330
1F
100
AcDbEntity
  8
0-0
  6
JWW_DASHED1
 62
   120
370
     5
100
AcDbLine
 10
-1034.586593402036
 20
385.6894580249606
 30
0.0
 11
-461.5865934020349
 21
385.6894580249606
 31
0.0
  0
LINE
  5
184
330
1F
100
AcDbEntity
  8
0-0
  6
JWW_DASHED1
 62
   120
370
     5
100
AcDbLine
 10
-1034.586593402036
 20
386.6894580248608
 30
0.0
 11
-461.5865934020349
 21
386.6894580248608
 31
0.0
  0
LINE
  5
185
330
1F
100
AcDbEntity
  8
0-0
  6
JWW_DASHED1
 62
   120
370
     5
100
AcDbLine
 10
-1034.586593402036
 20
399.6894580259604
 30
0.0
 11
-461.5865934020349
 21
399.6894580259604
 31
0.0
  0
LINE
  5
186
330
1F
100
AcDbEntity
  8
0-0
  6
JWW_DASHED1
 62
   120
370
     5
100
AcDbLine
 10
-1034.586593402036
 20
400.6894580258606
 30
0.0
 11
-461.5865934020349
 21
400.6894580258606
 31
0.0
  0
LINE
  5
187
330
1F
100
AcDbEntity
  8
0-0
  6
JWW_DASHED1
 62
   120
370
     5
100
AcDbLine
 10
-1034.586593402036
 20
413.6894580269602
 30
0.0
 11
-461.5865934020349
 21
413.6894580269602
 31
0.0
  0
LINE
  5
188
330
1F
100
AcDbEntity
  8
0-0
  6
JWW_DASHED1
 62
   120
370
     5
100
AcDbLine
 10
-1034.586593402036
 20
414.6894580268604
 30
0.0
 11
-461.5865934020349
 21
414.6894580268604
 31
0.0
  0
LINE
  5
189
330
1F
100
AcDbEntity
  8
0-0
  6
JWW_DASHED1
 62
   120
370
     5
100
AcDbLine
 10
-1034.586593402036
 20
427.68945802796
 30
0.0
 11
-461.5865934020349
 21
427.68945802796
 31
0.0
  0
LINE
  5
18A
330
1F
100
AcDbEntity
  8
0-0
  6
JWW_DASHED1
 62
   120
370
     5
100
AcDbLine
 10
-1034.586593402036
 20
428.6894580278602
 30
0.0
 11
-461.5865934020349
 21
428.6894580278602
 31
0.0
  0
LINE
  5
18B
330
1F
100
AcDbEntity
  8
0-0
  6
JWW_DASHED1
 62
   120
370
     5
100
AcDbLine
 10
-1034.586593402036
 20
441.6894580289597
 30
0.0
 11
-461.5865934020349
 21
441.6894580289597
 31
0.0
  0
LINE
  5
18C
330
1F
100
AcDbEntity
  8
0-0
  6
JWW_DASHED1
 62
   120
370
     5
100
AcDbLine
 10
-1034.586593402036
 20
442.6894580288599
 30
0.0
 11
-461.5865934020349
 21
442.6894580288599
 31
0.0
  0
LINE
  5
18D
330
1F
100
AcDbEntity
  8
0-0
  6
JWW_DASHED1
 62
   120
370
     5
100
AcDbLine
 10
-1034.586593402036
 20
455.6894580299596
 30
0.0
 11
-461.5865934020349
 21
455.6894580299596
 31
0.0
  0
LINE
  5
18E
330
1F
100
AcDbEntity
  8
0-0
  6
JWW_DASHED1
 62
   120
370
     5
100
AcDbLine
 10
-1034.586593402036
 20
456.6894580298597
 30
0.0
 11
-461.5865934020349
 21
456.6894580298597
 31
0.0
  0
LINE
  5
18F
330
1F
100
AcDbEntity
  8
0-0
  6
JWW_DASHED1
 62
   120
370
     5
100
AcDbLine
 10
-1034.586593402036
 20
469.6894580309594
 30
0.0
 11
-461.5865934020349
 21
469.6894580309594
 31
0.0
  0
LINE
  5
190
330
1F
100
AcDbEntity
  8
0-0
  6
JWW_DASHED1
 62
   120
370
     5
100
AcDbLine
 10
-1034.586593402036
 20
470.6894580308596
 30
0.0
 11
-461.5865934020349
 21
470.6894580308596
 31
0.0
  0
LINE
  5
191
330
1F
100
AcDbEntity
  8
0-0
  6
JWW_DASHED1
 62
   120
370
     5
100
AcDbLine
 10
-1034.586593402036
 20
483.6894580319591
 30
0.0
 11
-461.5865934020349
 21
483.6894580319591
 31
0.0
  0
LINE
  5
192
330
1F
100
AcDbEntity
  8
0-0
  6
JWW_DASHED1
 62
   120
370
     5
100
AcDbLine
 10
-1034.586593402036
 20
484.6894580318593
 30
0.0
 11
-461.5865934020349
 21
484.6894580318593
 31
0.0
  0
LINE
  5
193
330
1F
100
AcDbEntity
  8
0-0
  6
JWW_DASHED1
 62
   120
370
     5
100
AcDbLine
 10
-1034.586593402036
 20
497.6894580329589
 30
0.0
 11
-461.5865934020349
 21
497.6894580329589
 31
0.0
  0
LINE
  5
194
330
1F
100
AcDbEntity
  8
0-0
  6
JWW_DASHED1
 62
   120
370
     5
100
AcDbLine
 10
-1034.586593402036
 20
498.6894580328591
 30
0.0
 11
-461.5865934020349
 21
498.6894580328591
 31
0.0
  0
LINE
  5
195
330
1F
100
AcDbEntity
  8
0-0
  6
JWW_DASHED1
 62
   120
370
     5
100
AcDbLine
 10
-1034.586593402036
 20
511.6894580339587
 30
0.0
 11
-461.5865934020349
 21
511.6894580339587
 31
0.0
  0
LINE
  5
196
330
1F
100
AcDbEntity
  8
0-0
  6
JWW_DASHED1
 62
   120
370
     5
100
AcDbLine
 10
-1034.586593402036
 20
512.689458033859
 30
0.0
 11
-461.5865934020349
 21
512.689458033859
 31
0.0
  0
LINE
  5
197
330
1F
100
AcDbEntity
  8
0-0
  6
JWW_DASHED1
 62
   120
370
     5
100
AcDbLine
 10
-1034.586593402036
 20
525.6894580349585
 30
0.0
 11
-461.5865934020349
 21
525.6894580349585
 31
0.0
  0
LINE
  5
198
330
1F
100
AcDbEntity
  8
0-0
  6
JWW_DASHED1
 62
   120
370
     5
100
AcDbLine
 10
-1034.586593402036
 20
526.6894580348587
 30
0.0
 11
-461.5865934020349
 21
526.6894580348587
 31
0.0
  0
LINE
  5
199
330
1F
100
AcDbEntity
  8
0-0
  6
JWW_DASHED1
 62
   120
370
     5
100
AcDbLine
 10
-1034.586593402036
 20
539.6894580359583
 30
0.0
 11
-461.5865934020349
 21
539.6894580359583
 31
0.0
  0
LINE
  5
19A
330
1F
100
AcDbEntity
  8
0-0
  6
JWW_DASHED1
 62
   120
370
     5
100
AcDbLine
 10
-1034.586593402036
 20
540.6894580358585
 30
0.0
 11
-461.5865934020349
 21
540.6894580358585
 31
0.0
  0
LINE
  5
19B
330
1F
100
AcDbEntity
  8
0-0
  6
JWW_DASHED1
 62
   120
370
     5
100
AcDbLine
 10
-1034.586593402036
 20
553.6894580369581
 30
0.0
 11
-461.5865934020349
 21
553.6894580369581
 31
0.0
  0
LINE
  5
19C
330
1F
100
AcDbEntity
  8
0-0
  6
JWW_DASHED1
 62
   120
370
     5
100
AcDbLine
 10
-1034.586593402036
 20
554.6894580368582
 30
0.0
 11
-461.5865934020349
 21
554.6894580368582
 31
0.0
  0
LINE
  5
19D
330
1F
100
AcDbEntity
  8
0-0
  6
JWW_DASHED1
 62
   120
370
     5
100
AcDbLine
 10
-1034.586593402036
 20
567.6894580379578
 30
0.0
 11
-461.5865934020349
 21
567.6894580379578
 31
0.0
  0
LINE
  5
19E
330
1F
100
AcDbEntity
  8
0-0
  6
JWW_DASHED1
 62
   120
370
     5
100
AcDbLine
 10
-1034.586593402036
 20
568.689458037858
 30
0.0
 11
-461.5865934020349
 21
568.689458037858
 31
0.0
  0
LINE
  5
19F
330
1F
100
AcDbEntity
  8
0-0
  6
JWW_DASHED1
 62
   120
370
     5
100
AcDbLine
 10
-1034.586593402036
 20
581.6894580389577
 30
0.0
 11
-461.5865934020349
 21
581.6894580389577
 31
0.0
  0
LINE
  5
1A0
330
1F
100
AcDbEntity
  8
0-0
  6
JWW_DASHED1
 62
   120
370
     5
100
AcDbLine
 10
-1034.586593402036
 20
582.6894580388579
 30
0.0
 11
-461.5865934020349
 21
582.6894580388579
 31
0.0
  0
LINE
  5
1A1
330
1F
100
AcDbEntity
  8
0-0
  6
JWW_DASHED1
 62
   120
370
     5
100
AcDbLine
 10
-1034.586593402036
 20
595.6894580399575
 30
0.0
 11
-461.5865934020349
 21
595.6894580399575
 31
0.0
  0
LINE
  5
1A2
330
1F
100
AcDbEntity
  8
0-0
  6
JWW_DASHED1
 62
   120
370
     5
100
AcDbLine
 10
-1034.586593402036
 20
596.6894580398576
 30
0.0
 11
-461.5865934020349
 21
596.6894580398576
 31
0.0
  0
LINE
  5
1A3
330
1F
100
AcDbEntity
  8
0-0
  6
JWW_DASHED1
 62
   120
370
     5
100
AcDbLine
 10
-1034.586593402036
 20
609.6894580409572
 30
0.0
 11
-461.5865934020349
 21
609.6894580409572
 31
0.0
  0
LINE
  5
1A4
330
1F
100
AcDbEntity
  8
0-0
  6
JWW_DASHED1
 62
   120
370
     5
100
AcDbLine
 10
-1034.586593402036
 20
610.6894580408572
 30
0.0
 11
-461.5865934020349
 21
610.6894580408572
 31
0.0
  0
LINE
  5
1A5
330
1F
100
AcDbEntity
  8
0-0
  6
JWW_DASHED1
 62
   120
370
     5
100
AcDbLine
 10
-1034.586593402036
 20
623.6894580419571
 30
0.0
 11
-461.5865934020349
 21
623.6894580419571
 31
0.0
  0
LINE
  5
1A6
330
1F
100
AcDbEntity
  8
0-0
  6
JWW_DASHED1
 62
   120
370
     5
100
AcDbLine
 10
-1034.586593402036
 20
624.6894580418573
 30
0.0
 11
-461.5865934020349
 21
624.6894580418573
 31
0.0
  0
LINE
  5
1A7
330
1F
100
AcDbEntity
  8
0-0
  6
JWW_DASHED1
 62
   120
370
     5
100
AcDbLine
 10
-1034.586593402036
 20
637.6894580429569
 30
0.0
 11
-461.5865934020349
 21
637.6894580429569
 31
0.0
  0
LINE
  5
1A8
330
1F
100
AcDbEntity
  8
0-0
  6
JWW_DASHED1
 62
   120
370
     5
100
AcDbLine
 10
-1034.586593402036
 20
638.689458042857
 30
0.0
 11
-461.5865934020349
 21
638.689458042857
 31
0.0
  0
LINE
  5
1A9
330
1F
100
AcDbEntity
  8
0-0
  6
JWW_DASHED1
 62
   120
370
     5
100
AcDbLine
 10
-947.1677516400722
 20
651.6894580439566
 30
0.0
 11
-549.0054351639991
 21
651.6894580439566
 31
0.0
  0
LINE
  5
1AA
330
1F
100
AcDbEntity
  8
0-0
  6
JWW_DASHED1
 62
   120
370
     5
100
AcDbLine
 10
-943.5735217687123
 20
652.6894580438568
 30
0.0
 11
-552.599665035359
 21
652.6894580438568
 31
0.0
  0
LINE
  5
1AB
330
1F
100
AcDbEntity
  8
0-0
  6
JWW_DASHED1
 62
   120
370
     5
100
AcDbLine
 10
-912.4614443004565
 20
665.6894580449564
 30
0.0
 11
-583.7117425036148
 21
665.6894580449564
 31
0.0
  0
LINE
  5
1AC
330
1F
100
AcDbEntity
  8
0-0
  6
JWW_DASHED1
 62
   120
370
     5
100
AcDbLine
 10
-910.5676443107903
 20
666.6894580448566
 30
0.0
 11
-585.605542493281
 21
666.6894580448566
 31
0.0
  0
LINE
  5
1AD
330
1F
100
AcDbEntity
  8
0-0
  6
JWW_DASHED1
 62
   120
370
     5
100
AcDbLine
 10
-882.8868002184707
 20
679.6894580459561
 30
0.0
 11
-613.2863865856006
 21
679.6894580459561
 31
0.0
  0
LINE
  5
1AE
330
1F
100
AcDbEntity
  8
0-0
  6
JWW_DASHED1
 62
   120
370
     5
100
AcDbLine
 10
-880.4652021508945
 20
680.6894580458563
 30
0.0
 11
-615.7079846531768
 21
680.6894580458563
 31
0.0
  0
LINE
  5
1AF
330
1F
100
AcDbEntity
  8
0-0
  6
JWW_DASHED1
 62
   120
370
     5
100
AcDbLine
 10
-842.5910901605265
 20
693.689458046956
 30
0.0
 11
-653.5820966435448
 21
693.689458046956
 31
0.0
  0
LINE
  5
1B0
330
1F
100
AcDbEntity
  8
0-0
  6
JWW_DASHED1
 62
   120
370
     5
100
AcDbLine
 10
-838.9496783381536
 20
694.6894580468562
 30
0.0
 11
-657.2235084659177
 21
694.6894580468562
 31
0.0
  0
LINE
  5
1B1
330
1F
100
AcDbEntity
  8
0-0
  6
JWW_DASHED1
 62
   120
370
     5
100
AcDbLine
 10
-467.5865749041036
 20
-468.3103937221829
 30
0.0
 11
-467.5865749041035
 21
646.6893387335086
 31
0.0
  0
LINE
  5
1B2
330
1F
100
AcDbEntity
  8
0-0
  6
JWW_DASHED1
 62
   120
370
     5
100
AcDbLine
 10
-468.5865749040037
 20
-468.3103937221829
 30
0.0
 11
-468.5865749040034
 21
646.6893387335086
 31
0.0
  0
LINE
  5
1B3
330
1F
100
AcDbEntity
  8
0-0
  6
JWW_DASHED1
 62
   120
370
     5
100
AcDbLine
 10
-481.5865749051037
 20
-468.3103937221829
 30
0.0
 11
-481.5865749051035
 21
646.6893387335086
 31
0.0
  0
LINE
  5
1B4
330
1F
100
AcDbEntity
  8
0-0
  6
JWW_DASHED1
 62
   120
370
     5
100
AcDbLine
 10
-482.5865749050035
 20
-468.3103937221829
 30
0.0
 11
-482.5865749050034
 21
646.6893387335086
 31
0.0
  0
LINE
  5
1B5
330
1F
100
AcDbEntity
  8
0-0
  6
JWW_DASHED1
 62
   120
370
     5
100
AcDbLine
 10
-495.5865749061036
 20
-468.3103937221829
 30
0.0
 11
-495.5865749061035
 21
646.6893387335086
 31
0.0
  0
LINE
  5
1B6
330
1F
100
AcDbEntity
  8
0-0
  6
JWW_DASHED1
 62
   120
370
     5
100
AcDbLine
 10
-496.5865749060035
 20
-468.3103937221829
 30
0.0
 11
-496.5865749060034
 21
646.6893387335086
 31
0.0
  0
LINE
  5
1B7
330
1F
100
AcDbEntity
  8
0-0
  6
JWW_DASHED1
 62
   120
370
     5
100
AcDbLine
 10
-509.5865749071036
 20
-468.3103937221829
 30
0.0
 11
-509.5865749071035
 21
646.6893387335086
 31
0.0
  0
LINE
  5
1B8
330
1F
100
AcDbEntity
  8
0-0
  6
JWW_DASHED1
 62
   120
370
     5
100
AcDbLine
 10
-510.5865749070035
 20
-468.3103937221829
 30
0.0
 11
-510.5865749070035
 21
646.6893387335086
 31
0.0
  0
LINE
  5
1B9
330
1F
100
AcDbEntity
  8
0-0
  6
JWW_DASHED1
 62
   120
370
     5
100
AcDbLine
 10
-523.5865749081036
 20
-468.3103937221829
 30
0.0
 11
-523.5865749081034
 21
647.2526312387209
 31
0.0
  0
LINE
  5
1BA
330
1F
100
AcDbEntity
  8
0-0
  6
JWW_DASHED1
 62
   120
370
     5
100
AcDbLine
 10
-524.5865749080035
 20
-468.3103937221829
 30
0.0
 11
-524.5865749080033
 21
647.3429129007537
 31
0.0
  0
LINE
  5
1BB
330
1F
100
AcDbEntity
  8
0-0
  6
JWW_DASHED1
 62
   120
370
     5
100
AcDbLine
 10
-537.5865749091037
 20
-468.3103937221829
 30
0.0
 11
-537.5865749091033
 21
649.1370272752876
 31
0.0
  0
LINE
  5
1BC
330
1F
100
AcDbEntity
  8
0-0
  6
JWW_DASHED1
 62
   120
370
     5
100
AcDbLine
 10
-538.5865749090035
 20
-468.3103937221829
 30
0.0
 11
-538.5865749090035
 21
649.3234336577235
 31
0.0
  0
LINE
  5
1BD
330
1F
100
AcDbEntity
  8
0-0
  6
JWW_DASHED1
 62
   120
370
     5
100
AcDbLine
 10
-551.5865749101035
 20
-468.3103937221829
 30
0.0
 11
-551.5865749101035
 21
652.3978293284791
 31
0.0
  0
LINE
  5
1BE
330
1F
100
AcDbEntity
  8
0-0
  6
JWW_DASHED1
 62
   120
370
     5
100
AcDbLine
 10
-552.5865749100037
 20
-468.3103937221829
 30
0.0
 11
-552.5865749100035
 21
652.6856406958588
 31
0.0
  0
LINE
  5
1BF
330
1F
100
AcDbEntity
  8
0-0
  6
JWW_DASHED1
 62
   120
370
     5
100
AcDbLine
 10
-565.5865749111038
 20
-468.3103937221829
 30
0.0
 11
-565.5865749111035
 21
657.1314842213225
 31
0.0
  0
LINE
  5
1C0
330
1F
100
AcDbEntity
  8
0-0
  6
JWW_DASHED1
 62
   120
370
     5
100
AcDbLine
 10
-566.5865749110035
 20
-468.3103937221829
 30
0.0
 11
-566.5865749110035
 21
657.52964586884
 31
0.0
  0
LINE
  5
1C1
330
1F
100
AcDbEntity
  8
0-0
  6
JWW_DASHED1
 62
   120
370
     5
100
AcDbLine
 10
-579.5865749121035
 20
-468.3103937221829
 30
0.0
 11
-579.5865749121035
 21
663.4949325984827
 31
0.0
  0
LINE
  5
1C2
330
1F
100
AcDbEntity
  8
0-0
  6
JWW_DASHED1
 62
   120
370
     5
100
AcDbLine
 10
-580.5865749120037
 20
-468.3103937221829
 30
0.0
 11
-580.5865749120035
 21
664.0176567972823
 31
0.0
  0
LINE
  5
1C3
330
1F
100
AcDbEntity
  8
0-0
  6
JWW_DASHED1
 62
   120
370
     5
100
AcDbLine
 10
-593.5865749131033
 20
-468.3103937221829
 30
0.0
 11
-593.5865749131033
 21
670.7433346220416
 31
0.0
  0
LINE
  5
1C4
330
1F
100
AcDbEntity
  8
0-0
  6
JWW_DASHED1
 62
   120
370
     5
100
AcDbLine
 10
-594.5865749130035
 20
-468.3103937221829
 30
0.0
 11
-594.5865749130035
 21
671.2333144073484
 31
0.0
  0
LINE
  5
1C5
330
1F
100
AcDbEntity
  8
0-0
  6
JWW_DASHED1
 62
   120
370
     5
100
AcDbLine
 10
-607.5865749141033
 20
-468.3103937221829
 30
0.0
 11
-607.5865749141033
 21
677.2512147166738
 31
0.0
  0
LINE
  5
1C6
330
1F
100
AcDbEntity
  8
0-0
  6
JWW_DASHED1
 62
   120
370
     5
100
AcDbLine
 10
-608.5865749140034
 20
-468.3103937221829
 30
0.0
 11
-608.5865749140034
 21
677.6876511968505
 31
0.0
  0
LINE
  5
1C7
330
1F
100
AcDbEntity
  8
0-0
  6
JWW_DASHED1
 62
   120
370
     5
100
AcDbLine
 10
-621.5865749151033
 20
-468.3103937221829
 30
0.0
 11
-621.5865749151033
 21
683.029529245908
 31
0.0
  0
LINE
  5
1C8
330
1F
100
AcDbEntity
  8
0-0
  6
JWW_DASHED1
 62
   120
370
     5
100
AcDbLine
 10
-622.5865749150034
 20
-468.3103937221829
 30
0.0
 11
-622.5865749150034
 21
683.4154016471832
 31
0.0
  0
LINE
  5
1C9
330
1F
100
AcDbEntity
  8
0-0
  6
JWW_DASHED1
 62
   120
370
     5
100
AcDbLine
 10
-635.5865749161032
 20
-468.3103937221829
 30
0.0
 11
-635.5865749161032
 21
688.1164395919798
 31
0.0
  0
LINE
  5
1CA
330
1F
100
AcDbEntity
  8
0-0
  6
JWW_DASHED1
 62
   120
370
     5
100
AcDbLine
 10
-636.5865749160034
 20
-468.3103937221829
 30
0.0
 11
-636.5865749160034
 21
688.4542003465897
 31
0.0
  0
LINE
  5
1CB
330
1F
100
AcDbEntity
  8
0-0
  6
JWW_DASHED1
 62
   120
370
     5
100
AcDbLine
 10
-649.5865749171033
 20
-468.3103937221829
 30
0.0
 11
-649.5865749171033
 21
692.5433636759983
 31
0.0
  0
LINE
  5
1CC
330
1F
100
AcDbEntity
  8
0-0
  6
JWW_DASHED1
 62
   120
370
     5
100
AcDbLine
 10
-650.5865749170035
 20
-468.3103937221829
 30
0.0
 11
-650.5865749170035
 21
692.8350307527246
 31
0.0
  0
LINE
  5
1CD
330
1F
100
AcDbEntity
  8
0-0
  6
JWW_DASHED1
 62
   120
370
     5
100
AcDbLine
 10
-663.5865749181033
 20
-468.3103937221829
 30
0.0
 11
-663.5865749181033
 21
696.3361090953761
 31
0.0
  0
LINE
  5
1CE
330
1F
100
AcDbEntity
  8
0-0
  6
JWW_DASHED1
 62
   120
370
     5
100
AcDbLine
 10
-664.5865749180035
 20
-468.3103937221829
 30
0.0
 11
-664.5865749180035
 21
696.5833351301656
 31
0.0
  0
LINE
  5
1CF
330
1F
100
AcDbEntity
  8
0-0
  6
JWW_DASHED1
 62
   120
370
     5
100
AcDbLine
 10
-677.5865749191033
 20
-468.3103937221829
 30
0.0
 11
-677.5865749191033
 21
699.5157245854928
 31
0.0
  0
LINE
  5
1D0
330
1F
100
AcDbEntity
  8
0-0
  6
JWW_DASHED1
 62
   120
370
     5
100
AcDbLine
 10
-678.5865749190035
 20
-468.3103937221829
 30
0.0
 11
-678.5865749190035
 21
699.7198490128569
 31
0.0
  0
LINE
  5
1D1
330
1F
100
AcDbEntity
  8
0-0
  6
JWW_DASHED1
 62
   120
370
     5
100
AcDbLine
 10
-691.5865749201033
 20
-468.3103937221829
 30
0.0
 11
-691.5865749201033
 21
702.0991427870861
 31
0.0
  0
LINE
  5
1D2
330
1F
100
AcDbEntity
  8
0-0
  6
JWW_DASHED1
 62
   120
370
     5
100
AcDbLine
 10
-692.5865749200035
 20
-468.3103937221829
 30
0.0
 11
-692.5865749200035
 21
702.2612311958649
 31
0.0
  0
LINE
  5
1D3
330
1F
100
AcDbEntity
  8
0-0
  6
JWW_DASHED1
 62
   120
370
     5
100
AcDbLine
 10
-705.5865749211033
 20
-468.3103937221829
 30
0.0
 11
-705.5865749211033
 21
704.0996643203682
 31
0.0
  0
LINE
  5
1D4
330
1F
100
AcDbEntity
  8
0-0
  6
JWW_DASHED1
 62
   120
370
     5
100
AcDbLine
 10
-706.5865749210035
 20
-468.3103937221829
 30
0.0
 11
-706.5865749210035
 21
704.2205379458603
 31
0.0
  0
LINE
  5
1D5
330
1F
100
AcDbEntity
  8
0-0
  6
JWW_DASHED1
 62
   120
370
     5
100
AcDbLine
 10
-719.5865749221033
 20
-468.3103937221829
 30
0.0
 11
-719.5865749221033
 21
705.5273177521333
 31
0.0
  0
LINE
  5
1D6
330
1F
100
AcDbEntity
  8
0-0
  6
JWW_DASHED1
 62
   120
370
     5
100
AcDbLine
 10
-720.5865749220035
 20
-468.3103937221829
 30
0.0
 11
-720.5865749220035
 21
705.6075751237797
 31
0.0
  0
LINE
  5
1D7
330
1F
100
AcDbEntity
  8
0-0
  6
JWW_DASHED1
 62
   120
370
     5
100
AcDbLine
 10
-733.5865749231033
 20
-468.3103937221829
 30
0.0
 11
-733.5865749231033
 21
706.3891193802949
 31
0.0
  0
LINE
  5
1D8
330
1F
100
AcDbEntity
  8
0-0
  6
JWW_DASHED1
 62
   120
370
     5
100
AcDbLine
 10
-734.5865749230035
 20
-468.3103937221829
 30
0.0
 11
-734.5865749230035
 21
706.4291515126235
 31
0.0
  0
LINE
  5
1D9
330
1F
100
AcDbEntity
  8
0-0
  6
JWW_DASHED1
 62
   120
370
     5
100
AcDbLine
 10
-747.5865749241032
 20
-468.3103937221829
 30
0.0
 11
-747.5865749241032
 21
706.6892491083702
 31
0.0
  0
LINE
  5
1DA
330
1F
100
AcDbEntity
  8
0-0
  6
JWW_DASHED1
 62
   120
370
     5
100
AcDbLine
 10
-748.5865749240033
 20
-468.3103937221829
 30
0.0
 11
-748.5865749240033
 21
706.6892491611936
 31
0.0
  0
LINE
  5
1DB
330
1F
100
AcDbEntity
  8
0-0
  6
JWW_DASHED1
 62
   120
370
     5
100
AcDbLine
 10
-761.5865749251034
 20
-468.3103937221829
 30
0.0
 11
-761.5865749251034
 21
706.4291529391296
 31
0.0
  0
LINE
  5
1DC
330
1F
100
AcDbEntity
  8
0-0
  6
JWW_DASHED1
 62
   120
370
     5
100
AcDbLine
 10
-762.5865749250036
 20
-468.3103937221829
 30
0.0
 11
-762.5865749250036
 21
706.3891209126662
 31
0.0
  0
LINE
  5
1DD
330
1F
100
AcDbEntity
  8
0-0
  6
JWW_DASHED1
 62
   120
370
     5
100
AcDbLine
 10
-775.5865749261034
 20
-468.3103937221829
 30
0.0
 11
-775.5865749261034
 21
705.6075780364911
 31
0.0
  0
LINE
  5
1DE
330
1F
100
AcDbEntity
  8
0-0
  6
JWW_DASHED1
 62
   120
370
     5
100
AcDbLine
 10
-776.5865749260035
 20
-468.3103937221829
 30
0.0
 11
-776.5865749260035
 21
705.5273207714192
 31
0.0
  0
LINE
  5
1DF
330
1F
100
AcDbEntity
  8
0-0
  6
JWW_DASHED1
 62
   120
370
     5
100
AcDbLine
 10
-789.5865749271034
 20
-468.3103937221829
 30
0.0
 11
-789.5865749271034
 21
704.2205423589105
 31
0.0
  0
LINE
  5
1E0
330
1F
100
AcDbEntity
  8
0-0
  6
JWW_DASHED1
 62
   120
370
     5
100
AcDbLine
 10
-790.5865749270035
 20
-468.3103937221829
 30
0.0
 11
-790.5865749270035
 21
704.0996688413027
 31
0.0
  0
LINE
  5
1E1
330
1F
100
AcDbEntity
  8
0-0
  6
JWW_DASHED1
 62
   120
370
     5
100
AcDbLine
 10
-803.5865749281033
 20
-468.3103937221829
 30
0.0
 11
-803.5865749281033
 21
702.2612371311363
 31
0.0
  0
LINE
  5
1E2
330
1F
100
AcDbEntity
  8
0-0
  6
JWW_DASHED1
 62
   120
370
     5
100
AcDbLine
 10
-804.5865749280035
 20
-468.3103937221829
 30
0.0
 11
-804.5865749280035
 21
702.0991488320972
 31
0.0
  0
LINE
  5
1E3
330
1F
100
AcDbEntity
  8
0-0
  6
JWW_DASHED1
 62
   120
370
     5
100
AcDbLine
 10
-817.5865749291033
 20
-468.3103937221829
 30
0.0
 11
-817.5865749291033
 21
699.719856500363
 31
0.0
  0
LINE
  5
1E4
330
1F
100
AcDbEntity
  8
0-0
  6
JWW_DASHED1
 62
   120
370
     5
100
AcDbLine
 10
-818.5865749290035
 20
-468.3103937221829
 30
0.0
 11
-818.5865749290035
 21
699.5157321852487
 31
0.0
  0
LINE
  5
1E5
330
1F
100
AcDbEntity
  8
0-0
  6
JWW_DASHED1
 62
   120
370
     5
100
AcDbLine
 10
-831.5865749301033
 20
-468.3103937221829
 30
0.0
 11
-831.5865749301033
 21
696.5833442089781
 31
0.0
  0
LINE
  5
1E6
330
1F
100
AcDbEntity
  8
0-0
  6
JWW_DASHED1
 62
   120
370
     5
100
AcDbLine
 10
-832.5865749300035
 20
-468.3103937221829
 30
0.0
 11
-832.5865749300035
 21
696.3361182896035
 31
0.0
  0
LINE
  5
1E7
330
1F
100
AcDbEntity
  8
0-0
  6
JWW_DASHED1
 62
   120
370
     5
100
AcDbLine
 10
-845.5865749311033
 20
-468.3103937221829
 30
0.0
 11
-845.5865749311033
 21
692.8350414719018
 31
0.0
  0
LINE
  5
1E8
330
1F
100
AcDbEntity
  8
0-0
  6
JWW_DASHED1
 62
   120
370
     5
100
AcDbLine
 10
-846.5865749310035
 20
-468.3103937221829
 30
0.0
 11
-846.5865749310035
 21
692.5433745145194
 31
0.0
  0
LINE
  5
1E9
330
1F
100
AcDbEntity
  8
0-0
  6
JWW_DASHED1
 62
   120
370
     5
100
AcDbLine
 10
-859.5865749321033
 20
-468.3103937221829
 30
0.0
 11
-859.5865749321033
 21
688.454212766813
 31
0.0
  0
LINE
  5
1EA
330
1F
100
AcDbEntity
  8
0-0
  6
JWW_DASHED1
 62
   120
370
     5
100
AcDbLine
 10
-860.5865749320035
 20
-468.3103937221829
 30
0.0
 11
-860.5865749320035
 21
688.1164521364037
 31
0.0
  0
LINE
  5
1EB
330
1F
100
AcDbEntity
  8
0-0
  6
JWW_DASHED1
 62
   120
370
     5
100
AcDbLine
 10
-873.5865749331034
 20
-468.3103937221829
 30
0.0
 11
-873.5865749331034
 21
683.4154158425038
 31
0.0
  0
LINE
  5
1EC
330
1F
100
AcDbEntity
  8
0-0
  6
JWW_DASHED1
 62
   120
370
     5
100
AcDbLine
 10
-874.5865749330036
 20
-468.3103937221829
 30
0.0
 11
-874.5865749330036
 21
683.0295435712135
 31
0.0
  0
LINE
  5
1ED
330
1F
100
AcDbEntity
  8
0-0
  6
JWW_DASHED1
 62
   120
370
     5
100
AcDbLine
 10
-887.5865749341034
 20
-468.3103937221829
 30
0.0
 11
-887.5865749341034
 21
677.6876672572537
 31
0.0
  0
LINE
  5
1EE
330
1F
100
AcDbEntity
  8
0-0
  6
JWW_DASHED1
 62
   120
370
     5
100
AcDbLine
 10
-888.5865749340036
 20
-468.3103937221829
 30
0.0
 11
-888.5865749340036
 21
677.2512309142105
 31
0.0
  0
LINE
  5
1EF
330
1F
100
AcDbEntity
  8
0-0
  6
JWW_DASHED1
 62
   120
370
     5
100
AcDbLine
 10
-901.5865749351034
 20
-468.3103937221829
 30
0.0
 11
-901.5865749351034
 21
671.2333324421372
 31
0.0
  0
LINE
  5
1F0
330
1F
100
AcDbEntity
  8
0-0
  6
JWW_DASHED1
 62
   120
370
     5
100
AcDbLine
 10
-902.5865749350036
 20
-468.3103937221829
 30
0.0
 11
-902.5865749350036
 21
670.7433528026952
 31
0.0
  0
LINE
  5
1F1
330
1F
100
AcDbEntity
  8
0-0
  6
JWW_DASHED1
 62
   120
370
     5
100
AcDbLine
 10
-915.5865749361034
 20
-468.3103937221829
 30
0.0
 11
-915.5865749361034
 21
664.0176762923558
 31
0.0
  0
LINE
  5
1F2
330
1F
100
AcDbEntity
  8
0-0
  6
JWW_DASHED1
 62
   120
370
     5
100
AcDbLine
 10
-916.5865749360036
 20
-468.3103937221829
 30
0.0
 11
-916.5865749360036
 21
663.4949517396718
 31
0.0
  0
LINE
  5
1F3
330
1F
100
AcDbEntity
  8
0-0
  6
JWW_DASHED1
 62
   120
370
     5
100
AcDbLine
 10
-929.5865749371034
 20
-468.3103937221829
 30
0.0
 11
-929.5865749371034
 21
657.5296607371685
 31
0.0
  0
LINE
  5
1F4
330
1F
100
AcDbEntity
  8
0-0
  6
JWW_DASHED1
 62
   120
370
     5
100
AcDbLine
 10
-930.5865749370035
 20
-468.3103937221829
 30
0.0
 11
-930.5865749370035
 21
657.131498782369
 31
0.0
  0
LINE
  5
1F5
330
1F
100
AcDbEntity
  8
0-0
  6
JWW_DASHED1
 62
   120
370
     5
100
AcDbLine
 10
-943.5865749381034
 20
-468.3103937221829
 30
0.0
 11
-943.5865749381034
 21
652.6856514711336
 31
0.0
  0
LINE
  5
1F6
330
1F
100
AcDbEntity
  8
0-0
  6
JWW_DASHED1
 62
   120
370
     5
100
AcDbLine
 10
-944.5865749380035
 20
-468.3103937221829
 30
0.0
 11
-944.5865749380035
 21
652.397839826158
 31
0.0
  0
LINE
  5
1F7
330
1F
100
AcDbEntity
  8
0-0
  6
JWW_DASHED1
 62
   120
370
     5
100
AcDbLine
 10
-957.5865749391033
 20
-468.3103937221829
 30
0.0
 11
-957.5865749391033
 21
649.3234406763123
 31
0.0
  0
LINE
  5
1F8
330
1F
100
AcDbEntity
  8
0-0
  6
JWW_DASHED1
 62
   120
370
     5
100
AcDbLine
 10
-958.5865749390035
 20
-468.3103937221829
 30
0.0
 11
-958.5865749390035
 21
649.1370340345612
 31
0.0
  0
LINE
  5
1F9
330
1F
100
AcDbEntity
  8
0-0
  6
JWW_DASHED1
 62
   120
370
     5
100
AcDbLine
 10
-971.5865749401032
 20
-468.3103937221829
 30
0.0
 11
-971.5865749401032
 21
647.342916361945
 31
0.0
  0
LINE
  5
1FA
330
1F
100
AcDbEntity
  8
0-0
  6
JWW_DASHED1
 62
   120
370
     5
100
AcDbLine
 10
-972.5865749400034
 20
-468.3103937221829
 30
0.0
 11
-972.5865749400034
 21
647.2526344504741
 31
0.0
  0
LINE
  5
1FB
330
1F
100
AcDbEntity
  8
0-0
  6
JWW_DASHED1
 62
   120
370
     5
100
AcDbLine
 10
-985.5865749411034
 20
-468.3103937221829
 30
0.0
 11
-985.5865749411034
 21
646.6893387335086
 31
0.0
  0
LINE
  5
1FC
330
1F
100
AcDbEntity
  8
0-0
  6
JWW_DASHED1
 62
   120
370
     5
100
AcDbLine
 10
-986.5865749410036
 20
-468.3103937221829
 30
0.0
 11
-986.5865749410036
 21
646.6893387335086
 31
0.0
  0
LINE
  5
1FD
330
1F
100
AcDbEntity
  8
0-0
  6
JWW_DASHED1
 62
   120
370
     5
100
AcDbLine
 10
-999.5865749421033
 20
-468.3103937221829
 30
0.0
 11
-999.5865749421033
 21
646.6893387335086
 31
0.0
  0
LINE
  5
1FE
330
1F
100
AcDbEntity
  8
0-0
  6
JWW_DASHED1
 62
   120
370
     5
100
AcDbLine
 10
-1000.586574942003
 20
-468.3103937221829
 30
0.0
 11
-1000.586574942003
 21
646.6893387335086
 31
0.0
  0
LINE
  5
1FF
330
1F
100
AcDbEntity
  8
0-0
  6
JWW_DASHED1
 62
   120
370
     5
100
AcDbLine
 10
-1013.586574943104
 20
-468.3103937221829
 30
0.0
 11
-1013.586574943104
 21
646.6893387335086
 31
0.0
  0
LINE
  5
200
330
1F
100
AcDbEntity
  8
0-0
  6
JWW_DASHED1
 62
   120
370
     5
100
AcDbLine
 10
-1014.586574943004
 20
-468.3103937221829
 30
0.0
 11
-1014.586574943004
 21
646.6893387335086
 31
0.0
  0
LINE
  5
201
330
1F
100
AcDbEntity
  8
0-0
  6
JWW_DASHED1
 62
   120
370
     5
100
AcDbLine
 10
-1027.586574944103
 20
-468.3103937221829
 30
0.0
 11
-1027.586574944103
 21
646.6893387335086
 31
0.0
  0
LINE
  5
202
330
1F
100
AcDbEntity
  8
0-0
  6
JWW_DASHED1
 62
   120
370
     5
100
AcDbLine
 10
-1028.586574944004
 20
-468.3103937221829
 30
0.0
 11
-1028.586574944004
 21
646.6893387335086
 31
0.0
  0
LINE
  5
203
330
1F
100
AcDbEntity
  8
0-0
  6
JWW_DASHED1
 62
   120
370
     5
100
AcDbLine
 10
-254.5865934020347
 20
-467.3105420361264
 30
0.0
 11
318.4134065979659
 21
-467.3105420361264
 31
0.0
  0
LINE
  5
204
330
1F
100
AcDbEntity
  8
0-0
  6
JWW_DASHED1
 62
   120
370
     5
100
AcDbLine
 10
-254.5865934020347
 20
-454.3105420350269
 30
0.0
 11
318.4134065979659
 21
-454.3105420350269
 31
0.0
  0
LINE
  5
205
330
1F
100
AcDbEntity
  8
0-0
  6
JWW_DASHED1
 62
   120
370
     5
100
AcDbLine
 10
-254.5865934020347
 20
-453.3105420351267
 30
0.0
 11
318.4134065979659
 21
-453.3105420351267
 31
0.0
  0
LINE
  5
206
330
1F
100
AcDbEntity
  8
0-0
  6
JWW_DASHED1
 62
   120
370
     5
100
AcDbLine
 10
-254.5865934020347
 20
-440.310542034027
 30
0.0
 11
318.4134065979659
 21
-440.310542034027
 31
0.0
  0
LINE
  5
207
330
1F
100
AcDbEntity
  8
0-0
  6
JWW_DASHED1
 62
   120
370
     5
100
AcDbLine
 10
-254.5865934020347
 20
-439.3105420341269
 30
0.0
 11
318.4134065979659
 21
-439.3105420341269
 31
0.0
  0
LINE
  5
208
330
1F
100
AcDbEntity
  8
0-0
  6
JWW_DASHED1
 62
   120
370
     5
100
AcDbLine
 10
-254.5865934020347
 20
-426.3105420330272
 30
0.0
 11
318.4134065979659
 21
-426.3105420330272
 31
0.0
  0
LINE
  5
209
330
1F
100
AcDbEntity
  8
0-0
  6
JWW_DASHED1
 62
   120
370
     5
100
AcDbLine
 10
-254.5865934020347
 20
-425.310542033127
 30
0.0
 11
318.4134065979659
 21
-425.310542033127
 31
0.0
  0
LINE
  5
20A
330
1F
100
AcDbEntity
  8
0-0
  6
JWW_DASHED1
 62
   120
370
     5
100
AcDbLine
 10
-254.5865934020347
 20
-412.3105420320275
 30
0.0
 11
318.4134065979659
 21
-412.3105420320275
 31
0.0
  0
LINE
  5
20B
330
1F
100
AcDbEntity
  8
0-0
  6
JWW_DASHED1
 62
   120
370
     5
100
AcDbLine
 10
-254.5865934020347
 20
-411.3105420321273
 30
0.0
 11
318.4134065979659
 21
-411.3105420321273
 31
0.0
  0
LINE
  5
20C
330
1F
100
AcDbEntity
  8
0-0
  6
JWW_DASHED1
 62
   120
370
     5
100
AcDbLine
 10
-254.5865934020347
 20
-398.3105420310277
 30
0.0
 11
318.4134065979659
 21
-398.3105420310277
 31
0.0
  0
LINE
  5
20D
330
1F
100
AcDbEntity
  8
0-0
  6
JWW_DASHED1
 62
   120
370
     5
100
AcDbLine
 10
-254.5865934020347
 20
-397.3105420311275
 30
0.0
 11
318.4134065979659
 21
-397.3105420311275
 31
0.0
  0
LINE
  5
20E
330
1F
100
AcDbEntity
  8
0-0
  6
JWW_DASHED1
 62
   120
370
     5
100
AcDbLine
 10
-254.5865934020347
 20
-384.3105420300279
 30
0.0
 11
318.4134065979659
 21
-384.3105420300279
 31
0.0
  0
LINE
  5
20F
330
1F
100
AcDbEntity
  8
0-0
  6
JWW_DASHED1
 62
   120
370
     5
100
AcDbLine
 10
-254.5865934020347
 20
-383.3105420301277
 30
0.0
 11
318.4134065979659
 21
-383.3105420301277
 31
0.0
  0
LINE
  5
210
330
1F
100
AcDbEntity
  8
0-0
  6
JWW_DASHED1
 62
   120
370
     5
100
AcDbLine
 10
-254.5865934020347
 20
-370.3105420290281
 30
0.0
 11
318.4134065979659
 21
-370.3105420290281
 31
0.0
  0
LINE
  5
211
330
1F
100
AcDbEntity
  8
0-0
  6
JWW_DASHED1
 62
   120
370
     5
100
AcDbLine
 10
-254.5865934020347
 20
-369.3105420291279
 30
0.0
 11
318.4134065979659
 21
-369.3105420291279
 31
0.0
  0
LINE
  5
212
330
1F
100
AcDbEntity
  8
0-0
  6
JWW_DASHED1
 62
   120
370
     5
100
AcDbLine
 10
-254.5865934020347
 20
-356.3105420280283
 30
0.0
 11
318.4134065979659
 21
-356.3105420280283
 31
0.0
  0
LINE
  5
213
330
1F
100
AcDbEntity
  8
0-0
  6
JWW_DASHED1
 62
   120
370
     5
100
AcDbLine
 10
-254.5865934020347
 20
-355.3105420281281
 30
0.0
 11
318.4134065979659
 21
-355.3105420281281
 31
0.0
  0
LINE
  5
214
330
1F
100
AcDbEntity
  8
0-0
  6
JWW_DASHED1
 62
   120
370
     5
100
AcDbLine
 10
-254.5865934020347
 20
-342.3105420270285
 30
0.0
 11
318.4134065979659
 21
-342.3105420270285
 31
0.0
  0
LINE
  5
215
330
1F
100
AcDbEntity
  8
0-0
  6
JWW_DASHED1
 62
   120
370
     5
100
AcDbLine
 10
-254.5865934020347
 20
-341.3105420271283
 30
0.0
 11
318.4134065979659
 21
-341.3105420271283
 31
0.0
  0
LINE
  5
216
330
1F
100
AcDbEntity
  8
0-0
  6
JWW_DASHED1
 62
   120
370
     5
100
AcDbLine
 10
-254.5865934020347
 20
-328.3105420260287
 30
0.0
 11
318.4134065979659
 21
-328.3105420260287
 31
0.0
  0
LINE
  5
217
330
1F
100
AcDbEntity
  8
0-0
  6
JWW_DASHED1
 62
   120
370
     5
100
AcDbLine
 10
-254.5865934020347
 20
-327.3105420261285
 30
0.0
 11
318.4134065979659
 21
-327.3105420261285
 31
0.0
  0
LINE
  5
218
330
1F
100
AcDbEntity
  8
0-0
  6
JWW_DASHED1
 62
   120
370
     5
100
AcDbLine
 10
-254.5865934020347
 20
-314.3105420250289
 30
0.0
 11
318.4134065979659
 21
-314.3105420250289
 31
0.0
  0
LINE
  5
219
330
1F
100
AcDbEntity
  8
0-0
  6
JWW_DASHED1
 62
   120
370
     5
100
AcDbLine
 10
-254.5865934020347
 20
-313.3105420251287
 30
0.0
 11
318.4134065979659
 21
-313.3105420251287
 31
0.0
  0
LINE
  5
21A
330
1F
100
AcDbEntity
  8
0-0
  6
JWW_DASHED1
 62
   120
370
     5
100
AcDbLine
 10
-254.5865934020347
 20
-300.3105420240291
 30
0.0
 11
318.4134065979659
 21
-300.3105420240291
 31
0.0
  0
LINE
  5
21B
330
1F
100
AcDbEntity
  8
0-0
  6
JWW_DASHED1
 62
   120
370
     5
100
AcDbLine
 10
-254.5865934020347
 20
-299.3105420241289
 30
0.0
 11
318.4134065979659
 21
-299.3105420241289
 31
0.0
  0
LINE
  5
21C
330
1F
100
AcDbEntity
  8
0-0
  6
JWW_DASHED1
 62
   120
370
     5
100
AcDbLine
 10
-254.5865934020347
 20
-286.3105420230294
 30
0.0
 11
318.4134065979659
 21
-286.3105420230294
 31
0.0
  0
LINE
  5
21D
330
1F
100
AcDbEntity
  8
0-0
  6
JWW_DASHED1
 62
   120
370
     5
100
AcDbLine
 10
-254.5865934020347
 20
-285.3105420231292
 30
0.0
 11
318.4134065979659
 21
-285.3105420231292
 31
0.0
  0
LINE
  5
21E
330
1F
100
AcDbEntity
  8
0-0
  6
JWW_DASHED1
 62
   120
370
     5
100
AcDbLine
 10
-254.5865934020347
 20
-272.3105420220296
 30
0.0
 11
318.4134065979659
 21
-272.3105420220296
 31
0.0
  0
LINE
  5
21F
330
1F
100
AcDbEntity
  8
0-0
  6
JWW_DASHED1
 62
   120
370
     5
100
AcDbLine
 10
-254.5865934020347
 20
-271.3105420221294
 30
0.0
 11
318.4134065979659
 21
-271.3105420221294
 31
0.0
  0
LINE
  5
220
330
1F
100
AcDbEntity
  8
0-0
  6
JWW_DASHED1
 62
   120
370
     5
100
AcDbLine
 10
-254.5865934020347
 20
-258.3105420210297
 30
0.0
 11
318.4134065979659
 21
-258.3105420210297
 31
0.0
  0
LINE
  5
221
330
1F
100
AcDbEntity
  8
0-0
  6
JWW_DASHED1
 62
   120
370
     5
100
AcDbLine
 10
-254.5865934020347
 20
-257.3105420211295
 30
0.0
 11
318.4134065979659
 21
-257.3105420211295
 31
0.0
  0
LINE
  5
222
330
1F
100
AcDbEntity
  8
0-0
  6
JWW_DASHED1
 62
   120
370
     5
100
AcDbLine
 10
-254.5865934020347
 20
-244.31054202003
 30
0.0
 11
318.4134065979659
 21
-244.31054202003
 31
0.0
  0
LINE
  5
223
330
1F
100
AcDbEntity
  8
0-0
  6
JWW_DASHED1
 62
   120
370
     5
100
AcDbLine
 10
-254.5865934020347
 20
-243.3105420201298
 30
0.0
 11
318.4134065979659
 21
-243.3105420201298
 31
0.0
  0
LINE
  5
224
330
1F
100
AcDbEntity
  8
0-0
  6
JWW_DASHED1
 62
   120
370
     5
100
AcDbLine
 10
-254.5865934020347
 20
-230.3105420190302
 30
0.0
 11
318.4134065979659
 21
-230.3105420190302
 31
0.0
  0
LINE
  5
225
330
1F
100
AcDbEntity
  8
0-0
  6
JWW_DASHED1
 62
   120
370
     5
100
AcDbLine
 10
-254.5865934020347
 20
-229.31054201913
 30
0.0
 11
318.4134065979659
 21
-229.31054201913
 31
0.0
  0
LINE
  5
226
330
1F
100
AcDbEntity
  8
0-0
  6
JWW_DASHED1
 62
   120
370
     5
100
AcDbLine
 10
-254.5865934020347
 20
-216.3105420180304
 30
0.0
 11
318.4134065979659
 21
-216.3105420180304
 31
0.0
  0
LINE
  5
227
330
1F
100
AcDbEntity
  8
0-0
  6
JWW_DASHED1
 62
   120
370
     5
100
AcDbLine
 10
-254.5865934020347
 20
-215.3105420181302
 30
0.0
 11
318.4134065979659
 21
-215.3105420181302
 31
0.0
  0
LINE
  5
228
330
1F
100
AcDbEntity
  8
0-0
  6
JWW_DASHED1
 62
   120
370
     5
100
AcDbLine
 10
-254.5865934020347
 20
-202.3105420170306
 30
0.0
 11
318.4134065979659
 21
-202.3105420170306
 31
0.0
  0
LINE
  5
229
330
1F
100
AcDbEntity
  8
0-0
  6
JWW_DASHED1
 62
   120
370
     5
100
AcDbLine
 10
-254.5865934020347
 20
-201.3105420171304
 30
0.0
 11
318.4134065979659
 21
-201.3105420171304
 31
0.0
  0
LINE
  5
22A
330
1F
100
AcDbEntity
  8
0-0
  6
JWW_DASHED1
 62
   120
370
     5
100
AcDbLine
 10
-254.5865934020347
 20
-188.3105420160308
 30
0.0
 11
318.4134065979659
 21
-188.3105420160308
 31
0.0
  0
LINE
  5
22B
330
1F
100
AcDbEntity
  8
0-0
  6
JWW_DASHED1
 62
   120
370
     5
100
AcDbLine
 10
-254.5865934020347
 20
-187.3105420161306
 30
0.0
 11
318.4134065979659
 21
-187.3105420161306
 31
0.0
  0
LINE
  5
22C
330
1F
100
AcDbEntity
  8
0-0
  6
JWW_DASHED1
 62
   120
370
     5
100
AcDbLine
 10
-254.5865934020347
 20
-174.310542015031
 30
0.0
 11
318.4134065979659
 21
-174.310542015031
 31
0.0
  0
LINE
  5
22D
330
1F
100
AcDbEntity
  8
0-0
  6
JWW_DASHED1
 62
   120
370
     5
100
AcDbLine
 10
-254.5865934020347
 20
-173.3105420151308
 30
0.0
 11
318.4134065979659
 21
-173.3105420151308
 31
0.0
  0
LINE
  5
22E
330
1F
100
AcDbEntity
  8
0-0
  6
JWW_DASHED1
 62
   120
370
     5
100
AcDbLine
 10
-254.5865934020347
 20
-160.3105420140312
 30
0.0
 11
318.4134065979659
 21
-160.3105420140312
 31
0.0
  0
LINE
  5
22F
330
1F
100
AcDbEntity
  8
0-0
  6
JWW_DASHED1
 62
   120
370
     5
100
AcDbLine
 10
-254.5865934020347
 20
-159.310542014131
 30
0.0
 11
318.4134065979659
 21
-159.310542014131
 31
0.0
  0
LINE
  5
230
330
1F
100
AcDbEntity
  8
0-0
  6
JWW_DASHED1
 62
   120
370
     5
100
AcDbLine
 10
-254.5865934020347
 20
-146.3105420130314
 30
0.0
 11
318.4134065979659
 21
-146.3105420130314
 31
0.0
  0
LINE
  5
231
330
1F
100
AcDbEntity
  8
0-0
  6
JWW_DASHED1
 62
   120
370
     5
100
AcDbLine
 10
-254.5865934020347
 20
-145.3105420131313
 30
0.0
 11
318.4134065979659
 21
-145.3105420131313
 31
0.0
  0
LINE
  5
232
330
1F
100
AcDbEntity
  8
0-0
  6
JWW_DASHED1
 62
   120
370
     5
100
AcDbLine
 10
-254.5865934020347
 20
-132.3105420120316
 30
0.0
 11
318.4134065979659
 21
-132.3105420120316
 31
0.0
  0
LINE
  5
233
330
1F
100
AcDbEntity
  8
0-0
  6
JWW_DASHED1
 62
   120
370
     5
100
AcDbLine
 10
-254.5865934020347
 20
-131.3105420121315
 30
0.0
 11
318.4134065979659
 21
-131.3105420121315
 31
0.0
  0
LINE
  5
234
330
1F
100
AcDbEntity
  8
0-0
  6
JWW_DASHED1
 62
   120
370
     5
100
AcDbLine
 10
-254.5865934020347
 20
-118.3105420110319
 30
0.0
 11
318.4134065979659
 21
-118.3105420110319
 31
0.0
  0
LINE
  5
235
330
1F
100
AcDbEntity
  8
0-0
  6
JWW_DASHED1
 62
   120
370
     5
100
AcDbLine
 10
-254.5865934020347
 20
-117.3105420111317
 30
0.0
 11
318.4134065979659
 21
-117.3105420111317
 31
0.0
  0
LINE
  5
236
330
1F
100
AcDbEntity
  8
0-0
  6
JWW_DASHED1
 62
   120
370
     5
100
AcDbLine
 10
-254.5865934020347
 20
-104.3105420100321
 30
0.0
 11
318.4134065979659
 21
-104.3105420100321
 31
0.0
  0
LINE
  5
237
330
1F
100
AcDbEntity
  8
0-0
  6
JWW_DASHED1
 62
   120
370
     5
100
AcDbLine
 10
-254.5865934020347
 20
-103.3105420101319
 30
0.0
 11
318.4134065979659
 21
-103.3105420101319
 31
0.0
  0
LINE
  5
238
330
1F
100
AcDbEntity
  8
0-0
  6
JWW_DASHED1
 62
   120
370
     5
100
AcDbLine
 10
-254.5865934020347
 20
-90.31054200903228
 30
0.0
 11
318.4134065979659
 21
-90.31054200903228
 31
0.0
  0
LINE
  5
239
330
1F
100
AcDbEntity
  8
0-0
  6
JWW_DASHED1
 62
   120
370
     5
100
AcDbLine
 10
-254.5865934020347
 20
-89.31054200913209
 30
0.0
 11
318.4134065979659
 21
-89.31054200913209
 31
0.0
  0
LINE
  5
23A
330
1F
100
AcDbEntity
  8
0-0
  6
JWW_DASHED1
 62
   120
370
     5
100
AcDbLine
 10
-254.5865934020347
 20
-76.31054200803248
 30
0.0
 11
318.4134065979659
 21
-76.31054200803248
 31
0.0
  0
LINE
  5
23B
330
1F
100
AcDbEntity
  8
0-0
  6
JWW_DASHED1
 62
   120
370
     5
100
AcDbLine
 10
-254.5865934020347
 20
-75.3105420081323
 30
0.0
 11
318.4134065979659
 21
-75.3105420081323
 31
0.0
  0
LINE
  5
23C
330
1F
100
AcDbEntity
  8
0-0
  6
JWW_DASHED1
 62
   120
370
     5
100
AcDbLine
 10
-254.5865934020347
 20
-62.31054200703269
 30
0.0
 11
318.4134065979659
 21
-62.31054200703269
 31
0.0
  0
LINE
  5
23D
330
1F
100
AcDbEntity
  8
0-0
  6
JWW_DASHED1
 62
   120
370
     5
100
AcDbLine
 10
-254.5865934020347
 20
-61.31054200713251
 30
0.0
 11
318.4134065979659
 21
-61.31054200713251
 31
0.0
  0
LINE
  5
23E
330
1F
100
AcDbEntity
  8
0-0
  6
JWW_DASHED1
 62
   120
370
     5
100
AcDbLine
 10
-254.5865934020347
 20
-48.3105420060329
 30
0.0
 11
318.4134065979659
 21
-48.3105420060329
 31
0.0
  0
LINE
  5
23F
330
1F
100
AcDbEntity
  8
0-0
  6
JWW_DASHED1
 62
   120
370
     5
100
AcDbLine
 10
-254.5865934020347
 20
-47.31054200613272
 30
0.0
 11
318.4134065979659
 21
-47.31054200613272
 31
0.0
  0
LINE
  5
240
330
1F
100
AcDbEntity
  8
0-0
  6
JWW_DASHED1
 62
   120
370
     5
100
AcDbLine
 10
-254.5865934020347
 20
-34.31054200503311
 30
0.0
 11
318.4134065979659
 21
-34.31054200503311
 31
0.0
  0
LINE
  5
241
330
1F
100
AcDbEntity
  8
0-0
  6
JWW_DASHED1
 62
   120
370
     5
100
AcDbLine
 10
-254.5865934020347
 20
-33.31054200513293
 30
0.0
 11
318.4134065979659
 21
-33.31054200513293
 31
0.0
  0
LINE
  5
242
330
1F
100
AcDbEntity
  8
0-0
  6
JWW_DASHED1
 62
   120
370
     5
100
AcDbLine
 10
-254.5865934020347
 20
-20.31054200403332
 30
0.0
 11
318.4134065979659
 21
-20.31054200403332
 31
0.0
  0
LINE
  5
243
330
1F
100
AcDbEntity
  8
0-0
  6
JWW_DASHED1
 62
   120
370
     5
100
AcDbLine
 10
-254.5865934020347
 20
-19.31054200413314
 30
0.0
 11
318.4134065979659
 21
-19.31054200413314
 31
0.0
  0
LINE
  5
244
330
1F
100
AcDbEntity
  8
0-0
  6
JWW_DASHED1
 62
   120
370
     5
100
AcDbLine
 10
-254.5865934020347
 20
-6.310542003033532
 30
0.0
 11
318.4134065979659
 21
-6.310542003033532
 31
0.0
  0
LINE
  5
245
330
1F
100
AcDbEntity
  8
0-0
  6
JWW_DASHED1
 62
   120
370
     5
100
AcDbLine
 10
-254.5865934020347
 20
-5.310542003133349
 30
0.0
 11
318.4134065979659
 21
-5.310542003133349
 31
0.0
  0
LINE
  5
246
330
1F
100
AcDbEntity
  8
0-0
  6
JWW_DASHED1
 62
   120
370
     5
100
AcDbLine
 10
-254.5865934020347
 20
7.689457997966258
 30
0.0
 11
318.4134065979659
 21
7.689457997966258
 31
0.0
  0
LINE
  5
247
330
1F
100
AcDbEntity
  8
0-0
  6
JWW_DASHED1
 62
   120
370
     5
100
AcDbLine
 10
-254.5865934020347
 20
8.689457997866441
 30
0.0
 11
318.4134065979659
 21
8.689457997866441
 31
0.0
  0
LINE
  5
248
330
1F
100
AcDbEntity
  8
0-0
  6
JWW_DASHED1
 62
   120
370
     5
100
AcDbLine
 10
-254.5865934020347
 20
21.68945799896605
 30
0.0
 11
318.4134065979659
 21
21.68945799896605
 31
0.0
  0
LINE
  5
249
330
1F
100
AcDbEntity
  8
0-0
  6
JWW_DASHED1
 62
   120
370
     5
100
AcDbLine
 10
-254.5865934020347
 20
22.68945799886623
 30
0.0
 11
318.4134065979659
 21
22.68945799886623
 31
0.0
  0
LINE
  5
24A
330
1F
100
AcDbEntity
  8
0-0
  6
JWW_DASHED1
 62
   120
370
     5
100
AcDbLine
 10
-254.5865934020347
 20
35.68945799996584
 30
0.0
 11
318.4134065979659
 21
35.68945799996584
 31
0.0
  0
LINE
  5
24B
330
1F
100
AcDbEntity
  8
0-0
  6
JWW_DASHED1
 62
   120
370
     5
100
AcDbLine
 10
-254.5865934020347
 20
36.68945799986602
 30
0.0
 11
318.4134065979659
 21
36.68945799986602
 31
0.0
  0
LINE
  5
24C
330
1F
100
AcDbEntity
  8
0-0
  6
JWW_DASHED1
 62
   120
370
     5
100
AcDbLine
 10
-254.5865934020347
 20
49.68945800096563
 30
0.0
 11
318.4134065979659
 21
49.68945800096563
 31
0.0
  0
LINE
  5
24D
330
1F
100
AcDbEntity
  8
0-0
  6
JWW_DASHED1
 62
   120
370
     5
100
AcDbLine
 10
-254.5865934020347
 20
50.68945800086581
 30
0.0
 11
318.4134065979659
 21
50.68945800086581
 31
0.0
  0
LINE
  5
24E
330
1F
100
AcDbEntity
  8
0-0
  6
JWW_DASHED1
 62
   120
370
     5
100
AcDbLine
 10
-254.5865934020347
 20
63.68945800196542
 30
0.0
 11
318.4134065979659
 21
63.68945800196542
 31
0.0
  0
LINE
  5
24F
330
1F
100
AcDbEntity
  8
0-0
  6
JWW_DASHED1
 62
   120
370
     5
100
AcDbLine
 10
-254.5865934020347
 20
64.6894580018656
 30
0.0
 11
318.4134065979659
 21
64.6894580018656
 31
0.0
  0
LINE
  5
250
330
1F
100
AcDbEntity
  8
0-0
  6
JWW_DASHED1
 62
   120
370
     5
100
AcDbLine
 10
-254.5865934020347
 20
77.68945800296521
 30
0.0
 11
318.4134065979659
 21
77.68945800296521
 31
0.0
  0
LINE
  5
251
330
1F
100
AcDbEntity
  8
0-0
  6
JWW_DASHED1
 62
   120
370
     5
100
AcDbLine
 10
-254.5865934020347
 20
78.6894580028654
 30
0.0
 11
318.4134065979659
 21
78.6894580028654
 31
0.0
  0
LINE
  5
252
330
1F
100
AcDbEntity
  8
0-0
  6
JWW_DASHED1
 62
   120
370
     5
100
AcDbLine
 10
-254.5865934020347
 20
91.689458003965
 30
0.0
 11
318.4134065979659
 21
91.689458003965
 31
0.0
  0
LINE
  5
253
330
1F
100
AcDbEntity
  8
0-0
  6
JWW_DASHED1
 62
   120
370
     5
100
AcDbLine
 10
-254.5865934020347
 20
92.68945800386518
 30
0.0
 11
318.4134065979659
 21
92.68945800386518
 31
0.0
  0
LINE
  5
254
330
1F
100
AcDbEntity
  8
0-0
  6
JWW_DASHED1
 62
   120
370
     5
100
AcDbLine
 10
-254.5865934020347
 20
105.6894580049648
 30
0.0
 11
318.4134065979659
 21
105.6894580049648
 31
0.0
  0
LINE
  5
255
330
1F
100
AcDbEntity
  8
0-0
  6
JWW_DASHED1
 62
   120
370
     5
100
AcDbLine
 10
-254.5865934020347
 20
106.689458004865
 30
0.0
 11
318.4134065979659
 21
106.689458004865
 31
0.0
  0
LINE
  5
256
330
1F
100
AcDbEntity
  8
0-0
  6
JWW_DASHED1
 62
   120
370
     5
100
AcDbLine
 10
-254.5865934020347
 20
119.6894580059646
 30
0.0
 11
318.4134065979659
 21
119.6894580059646
 31
0.0
  0
LINE
  5
257
330
1F
100
AcDbEntity
  8
0-0
  6
JWW_DASHED1
 62
   120
370
     5
100
AcDbLine
 10
-254.5865934020347
 20
120.6894580058648
 30
0.0
 11
318.4134065979659
 21
120.6894580058648
 31
0.0
  0
LINE
  5
258
330
1F
100
AcDbEntity
  8
0-0
  6
JWW_DASHED1
 62
   120
370
     5
100
AcDbLine
 10
-254.5865934020347
 20
133.6894580069644
 30
0.0
 11
318.4134065979659
 21
133.6894580069644
 31
0.0
  0
LINE
  5
259
330
1F
100
AcDbEntity
  8
0-0
  6
JWW_DASHED1
 62
   120
370
     5
100
AcDbLine
 10
-254.5865934020347
 20
134.6894580068646
 30
0.0
 11
318.4134065979659
 21
134.6894580068646
 31
0.0
  0
LINE
  5
25A
330
1F
100
AcDbEntity
  8
0-0
  6
JWW_DASHED1
 62
   120
370
     5
100
AcDbLine
 10
-254.5865934020347
 20
147.6894580079642
 30
0.0
 11
318.4134065979659
 21
147.6894580079642
 31
0.0
  0
LINE
  5
25B
330
1F
100
AcDbEntity
  8
0-0
  6
JWW_DASHED1
 62
   120
370
     5
100
AcDbLine
 10
-254.5865934020347
 20
148.6894580078643
 30
0.0
 11
318.4134065979659
 21
148.6894580078643
 31
0.0
  0
LINE
  5
25C
330
1F
100
AcDbEntity
  8
0-0
  6
JWW_DASHED1
 62
   120
370
     5
100
AcDbLine
 10
-254.5865934020347
 20
161.689458008964
 30
0.0
 11
318.4134065979659
 21
161.689458008964
 31
0.0
  0
LINE
  5
25D
330
1F
100
AcDbEntity
  8
0-0
  6
JWW_DASHED1
 62
   120
370
     5
100
AcDbLine
 10
-254.5865934020347
 20
162.6894580088641
 30
0.0
 11
318.4134065979659
 21
162.6894580088641
 31
0.0
  0
LINE
  5
25E
330
1F
100
AcDbEntity
  8
0-0
  6
JWW_DASHED1
 62
   120
370
     5
100
AcDbLine
 10
-254.5865934020347
 20
175.6894580099637
 30
0.0
 11
318.4134065979659
 21
175.6894580099637
 31
0.0
  0
LINE
  5
25F
330
1F
100
AcDbEntity
  8
0-0
  6
JWW_DASHED1
 62
   120
370
     5
100
AcDbLine
 10
-254.5865934020347
 20
176.6894580098639
 30
0.0
 11
318.4134065979659
 21
176.6894580098639
 31
0.0
  0
LINE
  5
260
330
1F
100
AcDbEntity
  8
0-0
  6
JWW_DASHED1
 62
   120
370
     5
100
AcDbLine
 10
-254.5865934020347
 20
189.6894580109635
 30
0.0
 11
318.4134065979659
 21
189.6894580109635
 31
0.0
  0
LINE
  5
261
330
1F
100
AcDbEntity
  8
0-0
  6
JWW_DASHED1
 62
   120
370
     5
100
AcDbLine
 10
-254.5865934020347
 20
190.6894580108637
 30
0.0
 11
318.4134065979659
 21
190.6894580108637
 31
0.0
  0
LINE
  5
262
330
1F
100
AcDbEntity
  8
0-0
  6
JWW_DASHED1
 62
   120
370
     5
100
AcDbLine
 10
-254.5865934020347
 20
203.6894580119633
 30
0.0
 11
318.4134065979659
 21
203.6894580119633
 31
0.0
  0
LINE
  5
263
330
1F
100
AcDbEntity
  8
0-0
  6
JWW_DASHED1
 62
   120
370
     5
100
AcDbLine
 10
-254.5865934020347
 20
204.6894580118635
 30
0.0
 11
318.4134065979659
 21
204.6894580118635
 31
0.0
  0
LINE
  5
264
330
1F
100
AcDbEntity
  8
0-0
  6
JWW_DASHED1
 62
   120
370
     5
100
AcDbLine
 10
-254.5865934020347
 20
217.6894580129631
 30
0.0
 11
318.4134065979659
 21
217.6894580129631
 31
0.0
  0
LINE
  5
265
330
1F
100
AcDbEntity
  8
0-0
  6
JWW_DASHED1
 62
   120
370
     5
100
AcDbLine
 10
-254.5865934020347
 20
218.6894580128633
 30
0.0
 11
318.4134065979659
 21
218.6894580128633
 31
0.0
  0
LINE
  5
266
330
1F
100
AcDbEntity
  8
0-0
  6
JWW_DASHED1
 62
   120
370
     5
100
AcDbLine
 10
-254.5865934020347
 20
231.6894580139629
 30
0.0
 11
318.4134065979659
 21
231.6894580139629
 31
0.0
  0
LINE
  5
267
330
1F
100
AcDbEntity
  8
0-0
  6
JWW_DASHED1
 62
   120
370
     5
100
AcDbLine
 10
-254.5865934020347
 20
232.6894580138631
 30
0.0
 11
318.4134065979659
 21
232.6894580138631
 31
0.0
  0
LINE
  5
268
330
1F
100
AcDbEntity
  8
0-0
  6
JWW_DASHED1
 62
   120
370
     5
100
AcDbLine
 10
-254.5865934020347
 20
245.6894580149627
 30
0.0
 11
318.4134065979659
 21
245.6894580149627
 31
0.0
  0
LINE
  5
269
330
1F
100
AcDbEntity
  8
0-0
  6
JWW_DASHED1
 62
   120
370
     5
100
AcDbLine
 10
-254.5865934020347
 20
246.6894580148629
 30
0.0
 11
318.4134065979659
 21
246.6894580148629
 31
0.0
  0
LINE
  5
26A
330
1F
100
AcDbEntity
  8
0-0
  6
JWW_DASHED1
 62
   120
370
     5
100
AcDbLine
 10
-254.5865934020347
 20
259.6894580159625
 30
0.0
 11
318.4134065979659
 21
259.6894580159625
 31
0.0
  0
LINE
  5
26B
330
1F
100
AcDbEntity
  8
0-0
  6
JWW_DASHED1
 62
   120
370
     5
100
AcDbLine
 10
-254.5865934020347
 20
260.6894580158627
 30
0.0
 11
318.4134065979659
 21
260.6894580158627
 31
0.0
  0
LINE
  5
26C
330
1F
100
AcDbEntity
  8
0-0
  6
JWW_DASHED1
 62
   120
370
     5
100
AcDbLine
 10
-254.5865934020347
 20
273.6894580169622
 30
0.0
 11
318.4134065979659
 21
273.6894580169622
 31
0.0
  0
LINE
  5
26D
330
1F
100
AcDbEntity
  8
0-0
  6
JWW_DASHED1
 62
   120
370
     5
100
AcDbLine
 10
-254.5865934020347
 20
274.6894580168624
 30
0.0
 11
318.4134065979659
 21
274.6894580168624
 31
0.0
  0
LINE
  5
26E
330
1F
100
AcDbEntity
  8
0-0
  6
JWW_DASHED1
 62
   120
370
     5
100
AcDbLine
 10
-254.5865934020347
 20
287.6894580179621
 30
0.0
 11
318.4134065979659
 21
287.6894580179621
 31
0.0
  0
LINE
  5
26F
330
1F
100
AcDbEntity
  8
0-0
  6
JWW_DASHED1
 62
   120
370
     5
100
AcDbLine
 10
-254.5865934020347
 20
288.6894580178623
 30
0.0
 11
318.4134065979659
 21
288.6894580178623
 31
0.0
  0
LINE
  5
270
330
1F
100
AcDbEntity
  8
0-0
  6
JWW_DASHED1
 62
   120
370
     5
100
AcDbLine
 10
-254.5865934020347
 20
301.6894580189619
 30
0.0
 11
318.4134065979659
 21
301.6894580189619
 31
0.0
  0
LINE
  5
271
330
1F
100
AcDbEntity
  8
0-0
  6
JWW_DASHED1
 62
   120
370
     5
100
AcDbLine
 10
-254.5865934020347
 20
302.6894580188621
 30
0.0
 11
318.4134065979659
 21
302.6894580188621
 31
0.0
  0
LINE
  5
272
330
1F
100
AcDbEntity
  8
0-0
  6
JWW_DASHED1
 62
   120
370
     5
100
AcDbLine
 10
-254.5865934020347
 20
315.6894580199616
 30
0.0
 11
318.4134065979659
 21
315.6894580199616
 31
0.0
  0
LINE
  5
273
330
1F
100
AcDbEntity
  8
0-0
  6
JWW_DASHED1
 62
   120
370
     5
100
AcDbLine
 10
-254.5865934020347
 20
316.6894580198618
 30
0.0
 11
318.4134065979659
 21
316.6894580198618
 31
0.0
  0
LINE
  5
274
330
1F
100
AcDbEntity
  8
0-0
  6
JWW_DASHED1
 62
   120
370
     5
100
AcDbLine
 10
-254.5865934020347
 20
329.6894580209614
 30
0.0
 11
318.4134065979659
 21
329.6894580209614
 31
0.0
  0
LINE
  5
275
330
1F
100
AcDbEntity
  8
0-0
  6
JWW_DASHED1
 62
   120
370
     5
100
AcDbLine
 10
-254.5865934020347
 20
330.6894580208616
 30
0.0
 11
318.4134065979659
 21
330.6894580208616
 31
0.0
  0
LINE
  5
276
330
1F
100
AcDbEntity
  8
0-0
  6
JWW_DASHED1
 62
   120
370
     5
100
AcDbLine
 10
-254.5865934020347
 20
343.6894580219612
 30
0.0
 11
318.4134065979659
 21
343.6894580219612
 31
0.0
  0
LINE
  5
277
330
1F
100
AcDbEntity
  8
0-0
  6
JWW_DASHED1
 62
   120
370
     5
100
AcDbLine
 10
-254.5865934020347
 20
344.6894580218614
 30
0.0
 11
318.4134065979659
 21
344.6894580218614
 31
0.0
  0
LINE
  5
278
330
1F
100
AcDbEntity
  8
0-0
  6
JWW_DASHED1
 62
   120
370
     5
100
AcDbLine
 10
-254.5865934020347
 20
357.689458022961
 30
0.0
 11
318.4134065979659
 21
357.689458022961
 31
0.0
  0
LINE
  5
279
330
1F
100
AcDbEntity
  8
0-0
  6
JWW_DASHED1
 62
   120
370
     5
100
AcDbLine
 10
-254.5865934020347
 20
358.6894580228612
 30
0.0
 11
318.4134065979659
 21
358.6894580228612
 31
0.0
  0
LINE
  5
27A
330
1F
100
AcDbEntity
  8
0-0
  6
JWW_DASHED1
 62
   120
370
     5
100
AcDbLine
 10
-254.5865934020347
 20
371.6894580239608
 30
0.0
 11
318.4134065979659
 21
371.6894580239608
 31
0.0
  0
LINE
  5
27B
330
1F
100
AcDbEntity
  8
0-0
  6
JWW_DASHED1
 62
   120
370
     5
100
AcDbLine
 10
-254.5865934020347
 20
372.689458023861
 30
0.0
 11
318.4134065979659
 21
372.689458023861
 31
0.0
  0
LINE
  5
27C
330
1F
100
AcDbEntity
  8
0-0
  6
JWW_DASHED1
 62
   120
370
     5
100
AcDbLine
 10
-254.5865934020347
 20
385.6894580249606
 30
0.0
 11
318.4134065979659
 21
385.6894580249606
 31
0.0
  0
LINE
  5
27D
330
1F
100
AcDbEntity
  8
0-0
  6
JWW_DASHED1
 62
   120
370
     5
100
AcDbLine
 10
-254.5865934020347
 20
386.6894580248608
 30
0.0
 11
318.4134065979659
 21
386.6894580248608
 31
0.0
  0
LINE
  5
27E
330
1F
100
AcDbEntity
  8
0-0
  6
JWW_DASHED1
 62
   120
370
     5
100
AcDbLine
 10
-254.5865934020347
 20
399.6894580259604
 30
0.0
 11
318.4134065979659
 21
399.6894580259604
 31
0.0
  0
LINE
  5
27F
330
1F
100
AcDbEntity
  8
0-0
  6
JWW_DASHED1
 62
   120
370
     5
100
AcDbLine
 10
-254.5865934020347
 20
400.6894580258606
 30
0.0
 11
318.4134065979659
 21
400.6894580258606
 31
0.0
  0
LINE
  5
280
330
1F
100
AcDbEntity
  8
0-0
  6
JWW_DASHED1
 62
   120
370
     5
100
AcDbLine
 10
-254.5865934020347
 20
413.6894580269602
 30
0.0
 11
318.4134065979659
 21
413.6894580269602
 31
0.0
  0
LINE
  5
281
330
1F
100
AcDbEntity
  8
0-0
  6
JWW_DASHED1
 62
   120
370
     5
100
AcDbLine
 10
-254.5865934020347
 20
414.6894580268604
 30
0.0
 11
318.4134065979659
 21
414.6894580268604
 31
0.0
  0
LINE
  5
282
330
1F
100
AcDbEntity
  8
0-0
  6
JWW_DASHED1
 62
   120
370
     5
100
AcDbLine
 10
-254.5865934020347
 20
427.68945802796
 30
0.0
 11
318.4134065979659
 21
427.68945802796
 31
0.0
  0
LINE
  5
283
330
1F
100
AcDbEntity
  8
0-0
  6
JWW_DASHED1
 62
   120
370
     5
100
AcDbLine
 10
-254.5865934020347
 20
428.6894580278602
 30
0.0
 11
318.4134065979659
 21
428.6894580278602
 31
0.0
  0
LINE
  5
284
330
1F
100
AcDbEntity
  8
0-0
  6
JWW_DASHED1
 62
   120
370
     5
100
AcDbLine
 10
-254.5865934020347
 20
441.6894580289597
 30
0.0
 11
318.4134065979659
 21
441.6894580289597
 31
0.0
  0
LINE
  5
285
330
1F
100
AcDbEntity
  8
0-0
  6
JWW_DASHED1
 62
   120
370
     5
100
AcDbLine
 10
-254.5865934020347
 20
442.6894580288599
 30
0.0
 11
318.4134065979659
 21
442.6894580288599
 31
0.0
  0
LINE
  5
286
330
1F
100
AcDbEntity
  8
0-0
  6
JWW_DASHED1
 62
   120
370
     5
100
AcDbLine
 10
-254.5865934020347
 20
455.6894580299596
 30
0.0
 11
318.4134065979659
 21
455.6894580299596
 31
0.0
  0
LINE
  5
287
330
1F
100
AcDbEntity
  8
0-0
  6
JWW_DASHED1
 62
   120
370
     5
100
AcDbLine
 10
-254.5865934020347
 20
456.6894580298597
 30
0.0
 11
318.4134065979659
 21
456.6894580298597
 31
0.0
  0
LINE
  5
288
330
1F
100
AcDbEntity
  8
0-0
  6
JWW_DASHED1
 62
   120
370
     5
100
AcDbLine
 10
-254.5865934020347
 20
469.6894580309594
 30
0.0
 11
318.4134065979659
 21
469.6894580309594
 31
0.0
  0
LINE
  5
289
330
1F
100
AcDbEntity
  8
0-0
  6
JWW_DASHED1
 62
   120
370
     5
100
AcDbLine
 10
-254.5865934020347
 20
470.6894580308596
 30
0.0
 11
318.4134065979659
 21
470.6894580308596
 31
0.0
  0
LINE
  5
28A
330
1F
100
AcDbEntity
  8
0-0
  6
JWW_DASHED1
 62
   120
370
     5
100
AcDbLine
 10
-254.5865934020347
 20
483.6894580319591
 30
0.0
 11
318.4134065979659
 21
483.6894580319591
 31
0.0
  0
LINE
  5
28B
330
1F
100
AcDbEntity
  8
0-0
  6
JWW_DASHED1
 62
   120
370
     5
100
AcDbLine
 10
-254.5865934020347
 20
484.6894580318593
 30
0.0
 11
318.4134065979659
 21
484.6894580318593
 31
0.0
  0
LINE
  5
28C
330
1F
100
AcDbEntity
  8
0-0
  6
JWW_DASHED1
 62
   120
370
     5
100
AcDbLine
 10
-254.5865934020347
 20
497.6894580329589
 30
0.0
 11
318.4134065979659
 21
497.6894580329589
 31
0.0
  0
LINE
  5
28D
330
1F
100
AcDbEntity
  8
0-0
  6
JWW_DASHED1
 62
   120
370
     5
100
AcDbLine
 10
-254.5865934020347
 20
498.6894580328591
 30
0.0
 11
318.4134065979659
 21
498.6894580328591
 31
0.0
  0
LINE
  5
28E
330
1F
100
AcDbEntity
  8
0-0
  6
JWW_DASHED1
 62
   120
370
     5
100
AcDbLine
 10
-254.5865934020347
 20
511.6894580339587
 30
0.0
 11
318.4134065979659
 21
511.6894580339587
 31
0.0
  0
LINE
  5
28F
330
1F
100
AcDbEntity
  8
0-0
  6
JWW_DASHED1
 62
   120
370
     5
100
AcDbLine
 10
-254.5865934020347
 20
512.689458033859
 30
0.0
 11
318.4134065979659
 21
512.689458033859
 31
0.0
  0
LINE
  5
290
330
1F
100
AcDbEntity
  8
0-0
  6
JWW_DASHED1
 62
   120
370
     5
100
AcDbLine
 10
-254.5865934020347
 20
525.6894580349585
 30
0.0
 11
318.4134065979659
 21
525.6894580349585
 31
0.0
  0
LINE
  5
291
330
1F
100
AcDbEntity
  8
0-0
  6
JWW_DASHED1
 62
   120
370
     5
100
AcDbLine
 10
-254.5865934020347
 20
526.6894580348587
 30
0.0
 11
318.4134065979659
 21
526.6894580348587
 31
0.0
  0
LINE
  5
292
330
1F
100
AcDbEntity
  8
0-0
  6
JWW_DASHED1
 62
   120
370
     5
100
AcDbLine
 10
-254.5865934020347
 20
539.6894580359583
 30
0.0
 11
318.4134065979659
 21
539.6894580359583
 31
0.0
  0
LINE
  5
293
330
1F
100
AcDbEntity
  8
0-0
  6
JWW_DASHED1
 62
   120
370
     5
100
AcDbLine
 10
-254.5865934020347
 20
540.6894580358585
 30
0.0
 11
318.4134065979659
 21
540.6894580358585
 31
0.0
  0
LINE
  5
294
330
1F
100
AcDbEntity
  8
0-0
  6
JWW_DASHED1
 62
   120
370
     5
100
AcDbLine
 10
-254.5865934020347
 20
553.6894580369581
 30
0.0
 11
318.4134065979659
 21
553.6894580369581
 31
0.0
  0
LINE
  5
295
330
1F
100
AcDbEntity
  8
0-0
  6
JWW_DASHED1
 62
   120
370
     5
100
AcDbLine
 10
-254.5865934020347
 20
554.6894580368582
 30
0.0
 11
318.4134065979659
 21
554.6894580368582
 31
0.0
  0
LINE
  5
296
330
1F
100
AcDbEntity
  8
0-0
  6
JWW_DASHED1
 62
   120
370
     5
100
AcDbLine
 10
-254.5865934020347
 20
567.6894580379578
 30
0.0
 11
318.4134065979659
 21
567.6894580379578
 31
0.0
  0
LINE
  5
297
330
1F
100
AcDbEntity
  8
0-0
  6
JWW_DASHED1
 62
   120
370
     5
100
AcDbLine
 10
-254.5865934020347
 20
568.689458037858
 30
0.0
 11
318.4134065979659
 21
568.689458037858
 31
0.0
  0
LINE
  5
298
330
1F
100
AcDbEntity
  8
0-0
  6
JWW_DASHED1
 62
   120
370
     5
100
AcDbLine
 10
-254.5865934020347
 20
581.6894580389577
 30
0.0
 11
318.4134065979659
 21
581.6894580389577
 31
0.0
  0
LINE
  5
299
330
1F
100
AcDbEntity
  8
0-0
  6
JWW_DASHED1
 62
   120
370
     5
100
AcDbLine
 10
-254.5865934020347
 20
582.6894580388579
 30
0.0
 11
318.4134065979659
 21
582.6894580388579
 31
0.0
  0
LINE
  5
29A
330
1F
100
AcDbEntity
  8
0-0
  6
JWW_DASHED1
 62
   120
370
     5
100
AcDbLine
 10
-254.5865934020347
 20
595.6894580399575
 30
0.0
 11
318.4134065979659
 21
595.6894580399575
 31
0.0
  0
LINE
  5
29B
330
1F
100
AcDbEntity
  8
0-0
  6
JWW_DASHED1
 62
   120
370
     5
100
AcDbLine
 10
-254.5865934020347
 20
596.6894580398576
 30
0.0
 11
318.4134065979659
 21
596.6894580398576
 31
0.0
  0
LINE
  5
29C
330
1F
100
AcDbEntity
  8
0-0
  6
JWW_DASHED1
 62
   120
370
     5
100
AcDbLine
 10
-254.5865934020347
 20
609.6894580409572
 30
0.0
 11
318.4134065979659
 21
609.6894580409572
 31
0.0
  0
LINE
  5
29D
330
1F
100
AcDbEntity
  8
0-0
  6
JWW_DASHED1
 62
   120
370
     5
100
AcDbLine
 10
-254.5865934020347
 20
610.6894580408572
 30
0.0
 11
318.4134065979659
 21
610.6894580408572
 31
0.0
  0
LINE
  5
29E
330
1F
100
AcDbEntity
  8
0-0
  6
JWW_DASHED1
 62
   120
370
     5
100
AcDbLine
 10
-254.5865934020347
 20
623.6894580419571
 30
0.0
 11
318.4134065979659
 21
623.6894580419571
 31
0.0
  0
LINE
  5
29F
330
1F
100
AcDbEntity
  8
0-0
  6
JWW_DASHED1
 62
   120
370
     5
100
AcDbLine
 10
-254.5865934020347
 20
624.6894580418573
 30
0.0
 11
318.4134065979659
 21
624.6894580418573
 31
0.0
  0
LINE
  5
2A0
330
1F
100
AcDbEntity
  8
0-0
  6
JWW_DASHED1
 62
   120
370
     5
100
AcDbLine
 10
-254.5865934020347
 20
637.6894580429569
 30
0.0
 11
318.4134065979659
 21
637.6894580429569
 31
0.0
  0
LINE
  5
2A1
330
1F
100
AcDbEntity
  8
0-0
  6
JWW_DASHED1
 62
   120
370
     5
100
AcDbLine
 10
-254.5865934020347
 20
638.689458042857
 30
0.0
 11
318.4134065979659
 21
638.689458042857
 31
0.0
  0
LINE
  5
2A2
330
1F
100
AcDbEntity
  8
0-0
  6
JWW_DASHED1
 62
   120
370
     5
100
AcDbLine
 10
-167.1677516400713
 20
651.6894580439566
 30
0.0
 11
230.9945648360018
 21
651.6894580439566
 31
0.0
  0
LINE
  5
2A3
330
1F
100
AcDbEntity
  8
0-0
  6
JWW_DASHED1
 62
   120
370
     5
100
AcDbLine
 10
-163.5735217687115
 20
652.6894580438568
 30
0.0
 11
227.4003349646419
 21
652.6894580438568
 31
0.0
  0
LINE
  5
2A4
330
1F
100
AcDbEntity
  8
0-0
  6
JWW_DASHED1
 62
   120
370
     5
100
AcDbLine
 10
-132.4614443004556
 20
665.6894580449564
 30
0.0
 11
196.288257496386
 21
665.6894580449564
 31
0.0
  0
LINE
  5
2A5
330
1F
100
AcDbEntity
  8
0-0
  6
JWW_DASHED1
 62
   120
370
     5
100
AcDbLine
 10
-130.5676443107895
 20
666.6894580448566
 30
0.0
 11
194.3944575067198
 21
666.6894580448566
 31
0.0
  0
LINE
  5
2A6
330
1F
100
AcDbEntity
  8
0-0
  6
JWW_DASHED1
 62
   120
370
     5
100
AcDbLine
 10
-102.8868002184699
 20
679.6894580459561
 30
0.0
 11
166.7136134144002
 21
679.6894580459561
 31
0.0
  0
LINE
  5
2A7
330
1F
100
AcDbEntity
  8
0-0
  6
JWW_DASHED1
 62
   120
370
     5
100
AcDbLine
 10
-100.4652021508936
 20
680.6894580458563
 30
0.0
 11
164.292015346824
 21
680.6894580458563
 31
0.0
  0
LINE
  5
2A8
330
1F
100
AcDbEntity
  8
0-0
  6
JWW_DASHED1
 62
   120
370
     5
100
AcDbLine
 10
-62.59109016052566
 20
693.689458046956
 30
0.0
 11
126.417903356456
 21
693.689458046956
 31
0.0
  0
LINE
  5
2A9
330
1F
100
AcDbEntity
  8
0-0
  6
JWW_DASHED1
 62
   120
370
     5
100
AcDbLine
 10
-58.94967833815276
 20
694.6894580468562
 30
0.0
 11
122.7764915340831
 21
694.6894580468562
 31
0.0
  0
LINE
  5
2AA
330
1F
100
AcDbEntity
  8
0-0
  6
JWW_DASHED1
 62
   120
370
     5
100
AcDbLine
 10
312.4134250958973
 20
-468.3103937221829
 30
0.0
 11
312.4134250958974
 21
646.6893387335086
 31
0.0
  0
LINE
  5
2AB
330
1F
100
AcDbEntity
  8
0-0
  6
JWW_DASHED1
 62
   120
370
     5
100
AcDbLine
 10
311.4134250959972
 20
-468.3103937221829
 30
0.0
 11
311.4134250959974
 21
646.6893387335086
 31
0.0
  0
LINE
  5
2AC
330
1F
100
AcDbEntity
  8
0-0
  6
JWW_DASHED1
 62
   120
370
     5
100
AcDbLine
 10
298.4134250948971
 20
-468.3103937221829
 30
0.0
 11
298.4134250948974
 21
646.6893387335086
 31
0.0
  0
LINE
  5
2AD
330
1F
100
AcDbEntity
  8
0-0
  6
JWW_DASHED1
 62
   120
370
     5
100
AcDbLine
 10
297.4134250949973
 20
-468.3103937221829
 30
0.0
 11
297.4134250949974
 21
646.6893387335086
 31
0.0
  0
LINE
  5
2AE
330
1F
100
AcDbEntity
  8
0-0
  6
JWW_DASHED1
 62
   120
370
     5
100
AcDbLine
 10
284.4134250938973
 20
-468.3103937221829
 30
0.0
 11
284.4134250938974
 21
646.6893387335086
 31
0.0
  0
LINE
  5
2AF
330
1F
100
AcDbEntity
  8
0-0
  6
JWW_DASHED1
 62
   120
370
     5
100
AcDbLine
 10
283.4134250939973
 20
-468.3103937221829
 30
0.0
 11
283.4134250939974
 21
646.6893387335086
 31
0.0
  0
LINE
  5
2B0
330
1F
100
AcDbEntity
  8
0-0
  6
JWW_DASHED1
 62
   120
370
     5
100
AcDbLine
 10
270.4134250928973
 20
-468.3103937221829
 30
0.0
 11
270.4134250928974
 21
646.6893387335086
 31
0.0
  0
LINE
  5
2B1
330
1F
100
AcDbEntity
  8
0-0
  6
JWW_DASHED1
 62
   120
370
     5
100
AcDbLine
 10
269.4134250929973
 20
-468.3103937221829
 30
0.0
 11
269.4134250929974
 21
646.6893387335086
 31
0.0
  0
LINE
  5
2B2
330
1F
100
AcDbEntity
  8
0-0
  6
JWW_DASHED1
 62
   120
370
     5
100
AcDbLine
 10
256.4134250918972
 20
-468.3103937221829
 30
0.0
 11
256.4134250918974
 21
647.2526312387209
 31
0.0
  0
LINE
  5
2B3
330
1F
100
AcDbEntity
  8
0-0
  6
JWW_DASHED1
 62
   120
370
     5
100
AcDbLine
 10
255.4134250919973
 20
-468.3103937221829
 30
0.0
 11
255.4134250919974
 21
647.3429129007537
 31
0.0
  0
LINE
  5
2B4
330
1F
100
AcDbEntity
  8
0-0
  6
JWW_DASHED1
 62
   120
370
     5
100
AcDbLine
 10
242.4134250908972
 20
-468.3103937221829
 30
0.0
 11
242.4134250908974
 21
649.1370272752876
 31
0.0
  0
LINE
  5
2B5
330
1F
100
AcDbEntity
  8
0-0
  6
JWW_DASHED1
 62
   120
370
     5
100
AcDbLine
 10
241.4134250909973
 20
-468.3103937221829
 30
0.0
 11
241.4134250909974
 21
649.3234336577235
 31
0.0
  0
LINE
  5
2B6
330
1F
100
AcDbEntity
  8
0-0
  6
JWW_DASHED1
 62
   120
370
     5
100
AcDbLine
 10
228.4134250898973
 20
-468.3103937221829
 30
0.0
 11
228.4134250898974
 21
652.3978293284791
 31
0.0
  0
LINE
  5
2B7
330
1F
100
AcDbEntity
  8
0-0
  6
JWW_DASHED1
 62
   120
370
     5
100
AcDbLine
 10
227.4134250899973
 20
-468.3103937221829
 30
0.0
 11
227.4134250899974
 21
652.6856406958588
 31
0.0
  0
LINE
  5
2B8
330
1F
100
AcDbEntity
  8
0-0
  6
JWW_DASHED1
 62
   120
370
     5
100
AcDbLine
 10
214.4134250888972
 20
-468.3103937221829
 30
0.0
 11
214.4134250888974
 21
657.1314842213225
 31
0.0
  0
LINE
  5
2B9
330
1F
100
AcDbEntity
  8
0-0
  6
JWW_DASHED1
 62
   120
370
     5
100
AcDbLine
 10
213.4134250889973
 20
-468.3103937221829
 30
0.0
 11
213.4134250889974
 21
657.52964586884
 31
0.0
  0
LINE
  5
2BA
330
1F
100
AcDbEntity
  8
0-0
  6
JWW_DASHED1
 62
   120
370
     5
100
AcDbLine
 10
200.4134250878973
 20
-468.3103937221829
 30
0.0
 11
200.4134250878974
 21
663.4949325984827
 31
0.0
  0
LINE
  5
2BB
330
1F
100
AcDbEntity
  8
0-0
  6
JWW_DASHED1
 62
   120
370
     5
100
AcDbLine
 10
199.4134250879973
 20
-468.3103937221829
 30
0.0
 11
199.4134250879974
 21
664.0176567972823
 31
0.0
  0
LINE
  5
2BC
330
1F
100
AcDbEntity
  8
0-0
  6
JWW_DASHED1
 62
   120
370
     5
100
AcDbLine
 10
186.4134250868975
 20
-468.3103937221829
 30
0.0
 11
186.4134250868975
 21
670.7433346220416
 31
0.0
  0
LINE
  5
2BD
330
1F
100
AcDbEntity
  8
0-0
  6
JWW_DASHED1
 62
   120
370
     5
100
AcDbLine
 10
185.4134250869973
 20
-468.3103937221829
 30
0.0
 11
185.4134250869973
 21
671.2333144073484
 31
0.0
  0
LINE
  5
2BE
330
1F
100
AcDbEntity
  8
0-0
  6
JWW_DASHED1
 62
   120
370
     5
100
AcDbLine
 10
172.4134250858976
 20
-468.3103937221829
 30
0.0
 11
172.4134250858976
 21
677.2512147166738
 31
0.0
  0
LINE
  5
2BF
330
1F
100
AcDbEntity
  8
0-0
  6
JWW_DASHED1
 62
   120
370
     5
100
AcDbLine
 10
171.4134250859974
 20
-468.3103937221829
 30
0.0
 11
171.4134250859974
 21
677.6876511968505
 31
0.0
  0
LINE
  5
2C0
330
1F
100
AcDbEntity
  8
0-0
  6
JWW_DASHED1
 62
   120
370
     5
100
AcDbLine
 10
158.4134250848976
 20
-468.3103937221829
 30
0.0
 11
158.4134250848976
 21
683.029529245908
 31
0.0
  0
LINE
  5
2C1
330
1F
100
AcDbEntity
  8
0-0
  6
JWW_DASHED1
 62
   120
370
     5
100
AcDbLine
 10
157.4134250849974
 20
-468.3103937221829
 30
0.0
 11
157.4134250849974
 21
683.4154016471832
 31
0.0
  0
LINE
  5
2C2
330
1F
100
AcDbEntity
  8
0-0
  6
JWW_DASHED1
 62
   120
370
     5
100
AcDbLine
 10
144.4134250838976
 20
-468.3103937221829
 30
0.0
 11
144.4134250838976
 21
688.1164395919798
 31
0.0
  0
LINE
  5
2C3
330
1F
100
AcDbEntity
  8
0-0
  6
JWW_DASHED1
 62
   120
370
     5
100
AcDbLine
 10
143.4134250839974
 20
-468.3103937221829
 30
0.0
 11
143.4134250839974
 21
688.4542003465897
 31
0.0
  0
LINE
  5
2C4
330
1F
100
AcDbEntity
  8
0-0
  6
JWW_DASHED1
 62
   120
370
     5
100
AcDbLine
 10
130.4134250828976
 20
-468.3103937221829
 30
0.0
 11
130.4134250828976
 21
692.5433636759983
 31
0.0
  0
LINE
  5
2C5
330
1F
100
AcDbEntity
  8
0-0
  6
JWW_DASHED1
 62
   120
370
     5
100
AcDbLine
 10
129.4134250829974
 20
-468.3103937221829
 30
0.0
 11
129.4134250829974
 21
692.8350307527246
 31
0.0
  0
LINE
  5
2C6
330
1F
100
AcDbEntity
  8
0-0
  6
JWW_DASHED1
 62
   120
370
     5
100
AcDbLine
 10
116.4134250818975
 20
-468.3103937221829
 30
0.0
 11
116.4134250818975
 21
696.3361090953761
 31
0.0
  0
LINE
  5
2C7
330
1F
100
AcDbEntity
  8
0-0
  6
JWW_DASHED1
 62
   120
370
     5
100
AcDbLine
 10
115.4134250819974
 20
-468.3103937221829
 30
0.0
 11
115.4134250819974
 21
696.5833351301656
 31
0.0
  0
LINE
  5
2C8
330
1F
100
AcDbEntity
  8
0-0
  6
JWW_DASHED1
 62
   120
370
     5
100
AcDbLine
 10
102.4134250808976
 20
-468.3103937221829
 30
0.0
 11
102.4134250808976
 21
699.5157245854928
 31
0.0
  0
LINE
  5
2C9
330
1F
100
AcDbEntity
  8
0-0
  6
JWW_DASHED1
 62
   120
370
     5
100
AcDbLine
 10
101.4134250809974
 20
-468.3103937221829
 30
0.0
 11
101.4134250809974
 21
699.7198490128569
 31
0.0
  0
LINE
  5
2CA
330
1F
100
AcDbEntity
  8
0-0
  6
JWW_DASHED1
 62
   120
370
     5
100
AcDbLine
 10
88.41342507989754
 20
-468.3103937221829
 30
0.0
 11
88.41342507989754
 21
702.0991427870861
 31
0.0
  0
LINE
  5
2CB
330
1F
100
AcDbEntity
  8
0-0
  6
JWW_DASHED1
 62
   120
370
     5
100
AcDbLine
 10
87.41342507999735
 20
-468.3103937221829
 30
0.0
 11
87.41342507999735
 21
702.2612311958649
 31
0.0
  0
LINE
  5
2CC
330
1F
100
AcDbEntity
  8
0-0
  6
JWW_DASHED1
 62
   120
370
     5
100
AcDbLine
 10
74.41342507889749
 20
-468.3103937221829
 30
0.0
 11
74.41342507889749
 21
704.0996643203682
 31
0.0
  0
LINE
  5
2CD
330
1F
100
AcDbEntity
  8
0-0
  6
JWW_DASHED1
 62
   120
370
     5
100
AcDbLine
 10
73.4134250789973
 20
-468.3103937221829
 30
0.0
 11
73.4134250789973
 21
704.2205379458603
 31
0.0
  0
LINE
  5
2CE
330
1F
100
AcDbEntity
  8
0-0
  6
JWW_DASHED1
 62
   120
370
     5
100
AcDbLine
 10
60.41342507789754
 20
-468.3103937221829
 30
0.0
 11
60.41342507789754
 21
705.5273177521333
 31
0.0
  0
LINE
  5
2CF
330
1F
100
AcDbEntity
  8
0-0
  6
JWW_DASHED1
 62
   120
370
     5
100
AcDbLine
 10
59.41342507799735
 20
-468.3103937221829
 30
0.0
 11
59.41342507799735
 21
705.6075751237797
 31
0.0
  0
LINE
  5
2D0
330
1F
100
AcDbEntity
  8
0-0
  6
JWW_DASHED1
 62
   120
370
     5
100
AcDbLine
 10
46.41342507689753
 20
-468.3103937221829
 30
0.0
 11
46.41342507689753
 21
706.3891193802949
 31
0.0
  0
LINE
  5
2D1
330
1F
100
AcDbEntity
  8
0-0
  6
JWW_DASHED1
 62
   120
370
     5
100
AcDbLine
 10
45.41342507699735
 20
-468.3103937221829
 30
0.0
 11
45.41342507699735
 21
706.4291515126235
 31
0.0
  0
LINE
  5
2D2
330
1F
100
AcDbEntity
  8
0-0
  6
JWW_DASHED1
 62
   120
370
     5
100
AcDbLine
 10
32.41342507589753
 20
-468.3103937221829
 30
0.0
 11
32.41342507589753
 21
706.6892491083702
 31
0.0
  0
LINE
  5
2D3
330
1F
100
AcDbEntity
  8
0-0
  6
JWW_DASHED1
 62
   120
370
     5
100
AcDbLine
 10
31.41342507599735
 20
-468.3103937221829
 30
0.0
 11
31.41342507599735
 21
706.6892491611936
 31
0.0
  0
LINE
  5
2D4
330
1F
100
AcDbEntity
  8
0-0
  6
JWW_DASHED1
 62
   120
370
     5
100
AcDbLine
 10
18.41342507489752
 20
-468.3103937221829
 30
0.0
 11
18.41342507489752
 21
706.4291529391296
 31
0.0
  0
LINE
  5
2D5
330
1F
100
AcDbEntity
  8
0-0
  6
JWW_DASHED1
 62
   120
370
     5
100
AcDbLine
 10
17.41342507499734
 20
-468.3103937221829
 30
0.0
 11
17.41342507499734
 21
706.3891209126662
 31
0.0
  0
LINE
  5
2D6
330
1F
100
AcDbEntity
  8
0-0
  6
JWW_DASHED1
 62
   120
370
     5
100
AcDbLine
 10
4.413425073897521
 20
-468.3103937221829
 30
0.0
 11
4.413425073897521
 21
705.6075780364911
 31
0.0
  0
LINE
  5
2D7
330
1F
100
AcDbEntity
  8
0-0
  6
JWW_DASHED1
 62
   120
370
     5
100
AcDbLine
 10
3.413425073997338
 20
-468.3103937221829
 30
0.0
 11
3.413425073997338
 21
705.5273207714192
 31
0.0
  0
LINE
  5
2D8
330
1F
100
AcDbEntity
  8
0-0
  6
JWW_DASHED1
 62
   120
370
     5
100
AcDbLine
 10
-9.586574927102482
 20
-468.3103937221829
 30
0.0
 11
-9.586574927102482
 21
704.2205423589105
 31
0.0
  0
LINE
  5
2D9
330
1F
100
AcDbEntity
  8
0-0
  6
JWW_DASHED1
 62
   120
370
     5
100
AcDbLine
 10
-10.58657492700267
 20
-468.3103937221829
 30
0.0
 11
-10.58657492700267
 21
704.0996688413027
 31
0.0
  0
LINE
  5
2DA
330
1F
100
AcDbEntity
  8
0-0
  6
JWW_DASHED1
 62
   120
370
     5
100
AcDbLine
 10
-23.58657492810249
 20
-468.3103937221829
 30
0.0
 11
-23.58657492810249
 21
702.2612371311363
 31
0.0
  0
LINE
  5
2DB
330
1F
100
AcDbEntity
  8
0-0
  6
JWW_DASHED1
 62
   120
370
     5
100
AcDbLine
 10
-24.58657492800267
 20
-468.3103937221829
 30
0.0
 11
-24.58657492800267
 21
702.0991488320972
 31
0.0
  0
LINE
  5
2DC
330
1F
100
AcDbEntity
  8
0-0
  6
JWW_DASHED1
 62
   120
370
     5
100
AcDbLine
 10
-37.58657492910249
 20
-468.3103937221829
 30
0.0
 11
-37.58657492910249
 21
699.719856500363
 31
0.0
  0
LINE
  5
2DD
330
1F
100
AcDbEntity
  8
0-0
  6
JWW_DASHED1
 62
   120
370
     5
100
AcDbLine
 10
-38.58657492900267
 20
-468.3103937221829
 30
0.0
 11
-38.58657492900267
 21
699.5157321852487
 31
0.0
  0
LINE
  5
2DE
330
1F
100
AcDbEntity
  8
0-0
  6
JWW_DASHED1
 62
   120
370
     5
100
AcDbLine
 10
-51.58657493010249
 20
-468.3103937221829
 30
0.0
 11
-51.58657493010249
 21
696.5833442089781
 31
0.0
  0
LINE
  5
2DF
330
1F
100
AcDbEntity
  8
0-0
  6
JWW_DASHED1
 62
   120
370
     5
100
AcDbLine
 10
-52.58657493000268
 20
-468.3103937221829
 30
0.0
 11
-52.58657493000268
 21
696.3361182896035
 31
0.0
  0
LINE
  5
2E0
330
1F
100
AcDbEntity
  8
0-0
  6
JWW_DASHED1
 62
   120
370
     5
100
AcDbLine
 10
-65.58657493110249
 20
-468.3103937221829
 30
0.0
 11
-65.58657493110249
 21
692.8350414719018
 31
0.0
  0
LINE
  5
2E1
330
1F
100
AcDbEntity
  8
0-0
  6
JWW_DASHED1
 62
   120
370
     5
100
AcDbLine
 10
-66.58657493100267
 20
-468.3103937221829
 30
0.0
 11
-66.58657493100267
 21
692.5433745145194
 31
0.0
  0
LINE
  5
2E2
330
1F
100
AcDbEntity
  8
0-0
  6
JWW_DASHED1
 62
   120
370
     5
100
AcDbLine
 10
-79.58657493210251
 20
-468.3103937221829
 30
0.0
 11
-79.58657493210251
 21
688.454212766813
 31
0.0
  0
LINE
  5
2E3
330
1F
100
AcDbEntity
  8
0-0
  6
JWW_DASHED1
 62
   120
370
     5
100
AcDbLine
 10
-80.58657493200269
 20
-468.3103937221829
 30
0.0
 11
-80.58657493200269
 21
688.1164521364037
 31
0.0
  0
LINE
  5
2E4
330
1F
100
AcDbEntity
  8
0-0
  6
JWW_DASHED1
 62
   120
370
     5
100
AcDbLine
 10
-93.5865749331025
 20
-468.3103937221829
 30
0.0
 11
-93.5865749331025
 21
683.4154158425038
 31
0.0
  0
LINE
  5
2E5
330
1F
100
AcDbEntity
  8
0-0
  6
JWW_DASHED1
 62
   120
370
     5
100
AcDbLine
 10
-94.58657493300268
 20
-468.3103937221829
 30
0.0
 11
-94.58657493300268
 21
683.0295435712135
 31
0.0
  0
LINE
  5
2E6
330
1F
100
AcDbEntity
  8
0-0
  6
JWW_DASHED1
 62
   120
370
     5
100
AcDbLine
 10
-107.5865749341025
 20
-468.3103937221829
 30
0.0
 11
-107.5865749341025
 21
677.6876672572537
 31
0.0
  0
LINE
  5
2E7
330
1F
100
AcDbEntity
  8
0-0
  6
JWW_DASHED1
 62
   120
370
     5
100
AcDbLine
 10
-108.5865749340027
 20
-468.3103937221829
 30
0.0
 11
-108.5865749340027
 21
677.2512309142105
 31
0.0
  0
LINE
  5
2E8
330
1F
100
AcDbEntity
  8
0-0
  6
JWW_DASHED1
 62
   120
370
     5
100
AcDbLine
 10
-121.5865749351025
 20
-468.3103937221829
 30
0.0
 11
-121.5865749351025
 21
671.2333324421372
 31
0.0
  0
LINE
  5
2E9
330
1F
100
AcDbEntity
  8
0-0
  6
JWW_DASHED1
 62
   120
370
     5
100
AcDbLine
 10
-122.5865749350027
 20
-468.3103937221829
 30
0.0
 11
-122.5865749350027
 21
670.7433528026952
 31
0.0
  0
LINE
  5
2EA
330
1F
100
AcDbEntity
  8
0-0
  6
JWW_DASHED1
 62
   120
370
     5
100
AcDbLine
 10
-135.5865749361025
 20
-468.3103937221829
 30
0.0
 11
-135.5865749361025
 21
664.0176762923558
 31
0.0
  0
LINE
  5
2EB
330
1F
100
AcDbEntity
  8
0-0
  6
JWW_DASHED1
 62
   120
370
     5
100
AcDbLine
 10
-136.5865749360027
 20
-468.3103937221829
 30
0.0
 11
-136.5865749360027
 21
663.4949517396718
 31
0.0
  0
LINE
  5
2EC
330
1F
100
AcDbEntity
  8
0-0
  6
JWW_DASHED1
 62
   120
370
     5
100
AcDbLine
 10
-149.5865749371025
 20
-468.3103937221829
 30
0.0
 11
-149.5865749371025
 21
657.5296607371685
 31
0.0
  0
LINE
  5
2ED
330
1F
100
AcDbEntity
  8
0-0
  6
JWW_DASHED1
 62
   120
370
     5
100
AcDbLine
 10
-150.5865749370027
 20
-468.3103937221829
 30
0.0
 11
-150.5865749370027
 21
657.131498782369
 31
0.0
  0
LINE
  5
2EE
330
1F
100
AcDbEntity
  8
0-0
  6
JWW_DASHED1
 62
   120
370
     5
100
AcDbLine
 10
-163.5865749381025
 20
-468.3103937221829
 30
0.0
 11
-163.5865749381025
 21
652.6856514711336
 31
0.0
  0
LINE
  5
2EF
330
1F
100
AcDbEntity
  8
0-0
  6
JWW_DASHED1
 62
   120
370
     5
100
AcDbLine
 10
-164.5865749380027
 20
-468.3103937221829
 30
0.0
 11
-164.5865749380027
 21
652.397839826158
 31
0.0
  0
LINE
  5
2F0
330
1F
100
AcDbEntity
  8
0-0
  6
JWW_DASHED1
 62
   120
370
     5
100
AcDbLine
 10
-177.5865749391025
 20
-468.3103937221829
 30
0.0
 11
-177.5865749391025
 21
649.3234406763123
 31
0.0
  0
LINE
  5
2F1
330
1F
100
AcDbEntity
  8
0-0
  6
JWW_DASHED1
 62
   120
370
     5
100
AcDbLine
 10
-178.5865749390027
 20
-468.3103937221829
 30
0.0
 11
-178.5865749390027
 21
649.1370340345612
 31
0.0
  0
LINE
  5
2F2
330
1F
100
AcDbEntity
  8
0-0
  6
JWW_DASHED1
 62
   120
370
     5
100
AcDbLine
 10
-191.5865749401025
 20
-468.3103937221829
 30
0.0
 11
-191.5865749401025
 21
647.342916361945
 31
0.0
  0
LINE
  5
2F3
330
1F
100
AcDbEntity
  8
0-0
  6
JWW_DASHED1
 62
   120
370
     5
100
AcDbLine
 10
-192.5865749400027
 20
-468.3103937221829
 30
0.0
 11
-192.5865749400027
 21
647.2526344504741
 31
0.0
  0
LINE
  5
2F4
330
1F
100
AcDbEntity
  8
0-0
  6
JWW_DASHED1
 62
   120
370
     5
100
AcDbLine
 10
-205.5865749411025
 20
-468.3103937221829
 30
0.0
 11
-205.5865749411025
 21
646.6893387335086
 31
0.0
  0
LINE
  5
2F5
330
1F
100
AcDbEntity
  8
0-0
  6
JWW_DASHED1
 62
   120
370
     5
100
AcDbLine
 10
-206.5865749410027
 20
-468.3103937221829
 30
0.0
 11
-206.5865749410027
 21
646.6893387335086
 31
0.0
  0
LINE
  5
2F6
330
1F
100
AcDbEntity
  8
0-0
  6
JWW_DASHED1
 62
   120
370
     5
100
AcDbLine
 10
-219.5865749421025
 20
-468.3103937221829
 30
0.0
 11
-219.5865749421025
 21
646.6893387335086
 31
0.0
  0
LINE
  5
2F7
330
1F
100
AcDbEntity
  8
0-0
  6
JWW_DASHED1
 62
   120
370
     5
100
AcDbLine
 10
-220.5865749420027
 20
-468.3103937221829
 30
0.0
 11
-220.5865749420027
 21
646.6893387335086
 31
0.0
  0
LINE
  5
2F8
330
1F
100
AcDbEntity
  8
0-0
  6
JWW_DASHED1
 62
   120
370
     5
100
AcDbLine
 10
-233.5865749431025
 20
-468.3103937221829
 30
0.0
 11
-233.5865749431025
 21
646.6893387335086
 31
0.0
  0
LINE
  5
2F9
330
1F
100
AcDbEntity
  8
0-0
  6
JWW_DASHED1
 62
   120
370
     5
100
AcDbLine
 10
-234.5865749430027
 20
-468.3103937221829
 30
0.0
 11
-234.5865749430027
 21
646.6893387335086
 31
0.0
  0
LINE
  5
2FA
330
1F
100
AcDbEntity
  8
0-0
  6
JWW_DASHED1
 62
   120
370
     5
100
AcDbLine
 10
-247.5865749441026
 20
-468.3103937221829
 30
0.0
 11
-247.5865749441026
 21
646.6893387335086
 31
0.0
  0
LINE
  5
2FB
330
1F
100
AcDbEntity
  8
0-0
  6
JWW_DASHED1
 62
   120
370
     5
100
AcDbLine
 10
-248.5865749440027
 20
-468.3103937221829
 30
0.0
 11
-248.5865749440027
 21
646.6893387335086
 31
0.0
  0
LINE
  5
2FC
330
1F
100
AcDbEntity
  8
0-0
  6
JWW_DASHED1
 62
   120
370
     5
100
AcDbLine
 10
525.4134065979653
 20
-467.3105420361264
 30
0.0
 11
1098.413406597966
 21
-467.3105420361264
 31
0.0
  0
LINE
  5
2FD
330
1F
100
AcDbEntity
  8
0-0
  6
JWW_DASHED1
 62
   120
370
     5
100
AcDbLine
 10
525.4134065979653
 20
-454.3105420350269
 30
0.0
 11
1098.413406597966
 21
-454.3105420350269
 31
0.0
  0
LINE
  5
2FE
330
1F
100
AcDbEntity
  8
0-0
  6
JWW_DASHED1
 62
   120
370
     5
100
AcDbLine
 10
525.4134065979653
 20
-453.3105420351267
 30
0.0
 11
1098.413406597966
 21
-453.3105420351267
 31
0.0
  0
LINE
  5
2FF
330
1F
100
AcDbEntity
  8
0-0
  6
JWW_DASHED1
 62
   120
370
     5
100
AcDbLine
 10
525.4134065979653
 20
-440.310542034027
 30
0.0
 11
1098.413406597966
 21
-440.310542034027
 31
0.0
  0
LINE
  5
300
330
1F
100
AcDbEntity
  8
0-0
  6
JWW_DASHED1
 62
   120
370
     5
100
AcDbLine
 10
525.4134065979653
 20
-439.3105420341269
 30
0.0
 11
1098.413406597966
 21
-439.3105420341269
 31
0.0
  0
LINE
  5
301
330
1F
100
AcDbEntity
  8
0-0
  6
JWW_DASHED1
 62
   120
370
     5
100
AcDbLine
 10
525.4134065979653
 20
-426.3105420330272
 30
0.0
 11
1098.413406597966
 21
-426.3105420330272
 31
0.0
  0
LINE
  5
302
330
1F
100
AcDbEntity
  8
0-0
  6
JWW_DASHED1
 62
   120
370
     5
100
AcDbLine
 10
525.4134065979653
 20
-425.310542033127
 30
0.0
 11
1098.413406597966
 21
-425.310542033127
 31
0.0
  0
LINE
  5
303
330
1F
100
AcDbEntity
  8
0-0
  6
JWW_DASHED1
 62
   120
370
     5
100
AcDbLine
 10
525.4134065979653
 20
-412.3105420320275
 30
0.0
 11
1098.413406597966
 21
-412.3105420320275
 31
0.0
  0
LINE
  5
304
330
1F
100
AcDbEntity
  8
0-0
  6
JWW_DASHED1
 62
   120
370
     5
100
AcDbLine
 10
525.4134065979653
 20
-411.3105420321273
 30
0.0
 11
1098.413406597966
 21
-411.3105420321273
 31
0.0
  0
LINE
  5
305
330
1F
100
AcDbEntity
  8
0-0
  6
JWW_DASHED1
 62
   120
370
     5
100
AcDbLine
 10
525.4134065979653
 20
-398.3105420310277
 30
0.0
 11
1098.413406597966
 21
-398.3105420310277
 31
0.0
  0
LINE
  5
306
330
1F
100
AcDbEntity
  8
0-0
  6
JWW_DASHED1
 62
   120
370
     5
100
AcDbLine
 10
525.4134065979653
 20
-397.3105420311275
 30
0.0
 11
1098.413406597966
 21
-397.3105420311275
 31
0.0
  0
LINE
  5
307
330
1F
100
AcDbEntity
  8
0-0
  6
JWW_DASHED1
 62
   120
370
     5
100
AcDbLine
 10
525.4134065979653
 20
-384.3105420300279
 30
0.0
 11
1098.413406597966
 21
-384.3105420300279
 31
0.0
  0
LINE
  5
308
330
1F
100
AcDbEntity
  8
0-0
  6
JWW_DASHED1
 62
   120
370
     5
100
AcDbLine
 10
525.4134065979653
 20
-383.3105420301277
 30
0.0
 11
1098.413406597966
 21
-383.3105420301277
 31
0.0
  0
LINE
  5
309
330
1F
100
AcDbEntity
  8
0-0
  6
JWW_DASHED1
 62
   120
370
     5
100
AcDbLine
 10
525.4134065979653
 20
-370.3105420290281
 30
0.0
 11
1098.413406597966
 21
-370.3105420290281
 31
0.0
  0
LINE
  5
30A
330
1F
100
AcDbEntity
  8
0-0
  6
JWW_DASHED1
 62
   120
370
     5
100
AcDbLine
 10
525.4134065979653
 20
-369.3105420291279
 30
0.0
 11
1098.413406597966
 21
-369.3105420291279
 31
0.0
  0
LINE
  5
30B
330
1F
100
AcDbEntity
  8
0-0
  6
JWW_DASHED1
 62
   120
370
     5
100
AcDbLine
 10
525.4134065979653
 20
-356.3105420280283
 30
0.0
 11
1098.413406597966
 21
-356.3105420280283
 31
0.0
  0
LINE
  5
30C
330
1F
100
AcDbEntity
  8
0-0
  6
JWW_DASHED1
 62
   120
370
     5
100
AcDbLine
 10
525.4134065979653
 20
-355.3105420281281
 30
0.0
 11
1098.413406597966
 21
-355.3105420281281
 31
0.0
  0
LINE
  5
30D
330
1F
100
AcDbEntity
  8
0-0
  6
JWW_DASHED1
 62
   120
370
     5
100
AcDbLine
 10
525.4134065979653
 20
-342.3105420270285
 30
0.0
 11
1098.413406597966
 21
-342.3105420270285
 31
0.0
  0
LINE
  5
30E
330
1F
100
AcDbEntity
  8
0-0
  6
JWW_DASHED1
 62
   120
370
     5
100
AcDbLine
 10
525.4134065979653
 20
-341.3105420271283
 30
0.0
 11
1098.413406597966
 21
-341.3105420271283
 31
0.0
  0
LINE
  5
30F
330
1F
100
AcDbEntity
  8
0-0
  6
JWW_DASHED1
 62
   120
370
     5
100
AcDbLine
 10
525.4134065979653
 20
-328.3105420260287
 30
0.0
 11
1098.413406597966
 21
-328.3105420260287
 31
0.0
  0
LINE
  5
310
330
1F
100
AcDbEntity
  8
0-0
  6
JWW_DASHED1
 62
   120
370
     5
100
AcDbLine
 10
525.4134065979653
 20
-327.3105420261285
 30
0.0
 11
1098.413406597966
 21
-327.3105420261285
 31
0.0
  0
LINE
  5
311
330
1F
100
AcDbEntity
  8
0-0
  6
JWW_DASHED1
 62
   120
370
     5
100
AcDbLine
 10
525.4134065979653
 20
-314.3105420250289
 30
0.0
 11
1098.413406597966
 21
-314.3105420250289
 31
0.0
  0
LINE
  5
312
330
1F
100
AcDbEntity
  8
0-0
  6
JWW_DASHED1
 62
   120
370
     5
100
AcDbLine
 10
525.4134065979653
 20
-313.3105420251287
 30
0.0
 11
1098.413406597966
 21
-313.3105420251287
 31
0.0
  0
LINE
  5
313
330
1F
100
AcDbEntity
  8
0-0
  6
JWW_DASHED1
 62
   120
370
     5
100
AcDbLine
 10
525.4134065979653
 20
-300.3105420240291
 30
0.0
 11
1098.413406597966
 21
-300.3105420240291
 31
0.0
  0
LINE
  5
314
330
1F
100
AcDbEntity
  8
0-0
  6
JWW_DASHED1
 62
   120
370
     5
100
AcDbLine
 10
525.4134065979653
 20
-299.3105420241289
 30
0.0
 11
1098.413406597966
 21
-299.3105420241289
 31
0.0
  0
LINE
  5
315
330
1F
100
AcDbEntity
  8
0-0
  6
JWW_DASHED1
 62
   120
370
     5
100
AcDbLine
 10
525.4134065979653
 20
-286.3105420230294
 30
0.0
 11
1098.413406597966
 21
-286.3105420230294
 31
0.0
  0
LINE
  5
316
330
1F
100
AcDbEntity
  8
0-0
  6
JWW_DASHED1
 62
   120
370
     5
100
AcDbLine
 10
525.4134065979653
 20
-285.3105420231292
 30
0.0
 11
1098.413406597966
 21
-285.3105420231292
 31
0.0
  0
LINE
  5
317
330
1F
100
AcDbEntity
  8
0-0
  6
JWW_DASHED1
 62
   120
370
     5
100
AcDbLine
 10
525.4134065979653
 20
-272.3105420220296
 30
0.0
 11
1098.413406597966
 21
-272.3105420220296
 31
0.0
  0
LINE
  5
318
330
1F
100
AcDbEntity
  8
0-0
  6
JWW_DASHED1
 62
   120
370
     5
100
AcDbLine
 10
525.4134065979653
 20
-271.3105420221294
 30
0.0
 11
1098.413406597966
 21
-271.3105420221294
 31
0.0
  0
LINE
  5
319
330
1F
100
AcDbEntity
  8
0-0
  6
JWW_DASHED1
 62
   120
370
     5
100
AcDbLine
 10
525.4134065979653
 20
-258.3105420210297
 30
0.0
 11
1098.413406597966
 21
-258.3105420210297
 31
0.0
  0
LINE
  5
31A
330
1F
100
AcDbEntity
  8
0-0
  6
JWW_DASHED1
 62
   120
370
     5
100
AcDbLine
 10
525.4134065979653
 20
-257.3105420211295
 30
0.0
 11
1098.413406597966
 21
-257.3105420211295
 31
0.0
  0
LINE
  5
31B
330
1F
100
AcDbEntity
  8
0-0
  6
JWW_DASHED1
 62
   120
370
     5
100
AcDbLine
 10
525.4134065979653
 20
-244.31054202003
 30
0.0
 11
1098.413406597966
 21
-244.31054202003
 31
0.0
  0
LINE
  5
31C
330
1F
100
AcDbEntity
  8
0-0
  6
JWW_DASHED1
 62
   120
370
     5
100
AcDbLine
 10
525.4134065979653
 20
-243.3105420201298
 30
0.0
 11
1098.413406597966
 21
-243.3105420201298
 31
0.0
  0
LINE
  5
31D
330
1F
100
AcDbEntity
  8
0-0
  6
JWW_DASHED1
 62
   120
370
     5
100
AcDbLine
 10
525.4134065979653
 20
-230.3105420190302
 30
0.0
 11
1098.413406597966
 21
-230.3105420190302
 31
0.0
  0
LINE
  5
31E
330
1F
100
AcDbEntity
  8
0-0
  6
JWW_DASHED1
 62
   120
370
     5
100
AcDbLine
 10
525.4134065979653
 20
-229.31054201913
 30
0.0
 11
1098.413406597966
 21
-229.31054201913
 31
0.0
  0
LINE
  5
31F
330
1F
100
AcDbEntity
  8
0-0
  6
JWW_DASHED1
 62
   120
370
     5
100
AcDbLine
 10
525.4134065979653
 20
-216.3105420180304
 30
0.0
 11
1098.413406597966
 21
-216.3105420180304
 31
0.0
  0
LINE
  5
320
330
1F
100
AcDbEntity
  8
0-0
  6
JWW_DASHED1
 62
   120
370
     5
100
AcDbLine
 10
525.4134065979653
 20
-215.3105420181302
 30
0.0
 11
1098.413406597966
 21
-215.3105420181302
 31
0.0
  0
LINE
  5
321
330
1F
100
AcDbEntity
  8
0-0
  6
JWW_DASHED1
 62
   120
370
     5
100
AcDbLine
 10
525.4134065979653
 20
-202.3105420170306
 30
0.0
 11
1098.413406597966
 21
-202.3105420170306
 31
0.0
  0
LINE
  5
322
330
1F
100
AcDbEntity
  8
0-0
  6
JWW_DASHED1
 62
   120
370
     5
100
AcDbLine
 10
525.4134065979653
 20
-201.3105420171304
 30
0.0
 11
1098.413406597966
 21
-201.3105420171304
 31
0.0
  0
LINE
  5
323
330
1F
100
AcDbEntity
  8
0-0
  6
JWW_DASHED1
 62
   120
370
     5
100
AcDbLine
 10
525.4134065979653
 20
-188.3105420160308
 30
0.0
 11
1098.413406597966
 21
-188.3105420160308
 31
0.0
  0
LINE
  5
324
330
1F
100
AcDbEntity
  8
0-0
  6
JWW_DASHED1
 62
   120
370
     5
100
AcDbLine
 10
525.4134065979653
 20
-187.3105420161306
 30
0.0
 11
1098.413406597966
 21
-187.3105420161306
 31
0.0
  0
LINE
  5
325
330
1F
100
AcDbEntity
  8
0-0
  6
JWW_DASHED1
 62
   120
370
     5
100
AcDbLine
 10
525.4134065979653
 20
-174.310542015031
 30
0.0
 11
1098.413406597966
 21
-174.310542015031
 31
0.0
  0
LINE
  5
326
330
1F
100
AcDbEntity
  8
0-0
  6
JWW_DASHED1
 62
   120
370
     5
100
AcDbLine
 10
525.4134065979653
 20
-173.3105420151308
 30
0.0
 11
1098.413406597966
 21
-173.3105420151308
 31
0.0
  0
LINE
  5
327
330
1F
100
AcDbEntity
  8
0-0
  6
JWW_DASHED1
 62
   120
370
     5
100
AcDbLine
 10
525.4134065979653
 20
-160.3105420140312
 30
0.0
 11
1098.413406597966
 21
-160.3105420140312
 31
0.0
  0
LINE
  5
328
330
1F
100
AcDbEntity
  8
0-0
  6
JWW_DASHED1
 62
   120
370
     5
100
AcDbLine
 10
525.4134065979653
 20
-159.310542014131
 30
0.0
 11
1098.413406597966
 21
-159.310542014131
 31
0.0
  0
LINE
  5
329
330
1F
100
AcDbEntity
  8
0-0
  6
JWW_DASHED1
 62
   120
370
     5
100
AcDbLine
 10
525.4134065979653
 20
-146.3105420130314
 30
0.0
 11
1098.413406597966
 21
-146.3105420130314
 31
0.0
  0
LINE
  5
32A
330
1F
100
AcDbEntity
  8
0-0
  6
JWW_DASHED1
 62
   120
370
     5
100
AcDbLine
 10
525.4134065979653
 20
-145.3105420131313
 30
0.0
 11
1098.413406597966
 21
-145.3105420131313
 31
0.0
  0
LINE
  5
32B
330
1F
100
AcDbEntity
  8
0-0
  6
JWW_DASHED1
 62
   120
370
     5
100
AcDbLine
 10
525.4134065979653
 20
-132.3105420120316
 30
0.0
 11
1098.413406597966
 21
-132.3105420120316
 31
0.0
  0
LINE
  5
32C
330
1F
100
AcDbEntity
  8
0-0
  6
JWW_DASHED1
 62
   120
370
     5
100
AcDbLine
 10
525.4134065979653
 20
-131.3105420121315
 30
0.0
 11
1098.413406597966
 21
-131.3105420121315
 31
0.0
  0
LINE
  5
32D
330
1F
100
AcDbEntity
  8
0-0
  6
JWW_DASHED1
 62
   120
370
     5
100
AcDbLine
 10
525.4134065979653
 20
-118.3105420110319
 30
0.0
 11
1098.413406597966
 21
-118.3105420110319
 31
0.0
  0
LINE
  5
32E
330
1F
100
AcDbEntity
  8
0-0
  6
JWW_DASHED1
 62
   120
370
     5
100
AcDbLine
 10
525.4134065979653
 20
-117.3105420111317
 30
0.0
 11
1098.413406597966
 21
-117.3105420111317
 31
0.0
  0
LINE
  5
32F
330
1F
100
AcDbEntity
  8
0-0
  6
JWW_DASHED1
 62
   120
370
     5
100
AcDbLine
 10
525.4134065979653
 20
-104.3105420100321
 30
0.0
 11
1098.413406597966
 21
-104.3105420100321
 31
0.0
  0
LINE
  5
330
330
1F
100
AcDbEntity
  8
0-0
  6
JWW_DASHED1
 62
   120
370
     5
100
AcDbLine
 10
525.4134065979653
 20
-103.3105420101319
 30
0.0
 11
1098.413406597966
 21
-103.3105420101319
 31
0.0
  0
LINE
  5
331
330
1F
100
AcDbEntity
  8
0-0
  6
JWW_DASHED1
 62
   120
370
     5
100
AcDbLine
 10
525.4134065979653
 20
-90.31054200903228
 30
0.0
 11
1098.413406597966
 21
-90.31054200903228
 31
0.0
  0
LINE
  5
332
330
1F
100
AcDbEntity
  8
0-0
  6
JWW_DASHED1
 62
   120
370
     5
100
AcDbLine
 10
525.4134065979653
 20
-89.31054200913209
 30
0.0
 11
1098.413406597966
 21
-89.31054200913209
 31
0.0
  0
LINE
  5
333
330
1F
100
AcDbEntity
  8
0-0
  6
JWW_DASHED1
 62
   120
370
     5
100
AcDbLine
 10
525.4134065979653
 20
-76.31054200803248
 30
0.0
 11
1098.413406597966
 21
-76.31054200803248
 31
0.0
  0
LINE
  5
334
330
1F
100
AcDbEntity
  8
0-0
  6
JWW_DASHED1
 62
   120
370
     5
100
AcDbLine
 10
525.4134065979653
 20
-75.3105420081323
 30
0.0
 11
1098.413406597966
 21
-75.3105420081323
 31
0.0
  0
LINE
  5
335
330
1F
100
AcDbEntity
  8
0-0
  6
JWW_DASHED1
 62
   120
370
     5
100
AcDbLine
 10
525.4134065979653
 20
-62.31054200703269
 30
0.0
 11
1098.413406597966
 21
-62.31054200703269
 31
0.0
  0
LINE
  5
336
330
1F
100
AcDbEntity
  8
0-0
  6
JWW_DASHED1
 62
   120
370
     5
100
AcDbLine
 10
525.4134065979653
 20
-61.31054200713251
 30
0.0
 11
1098.413406597966
 21
-61.31054200713251
 31
0.0
  0
LINE
  5
337
330
1F
100
AcDbEntity
  8
0-0
  6
JWW_DASHED1
 62
   120
370
     5
100
AcDbLine
 10
525.4134065979653
 20
-48.3105420060329
 30
0.0
 11
1098.413406597966
 21
-48.3105420060329
 31
0.0
  0
LINE
  5
338
330
1F
100
AcDbEntity
  8
0-0
  6
JWW_DASHED1
 62
   120
370
     5
100
AcDbLine
 10
525.4134065979653
 20
-47.31054200613272
 30
0.0
 11
1098.413406597966
 21
-47.31054200613272
 31
0.0
  0
LINE
  5
339
330
1F
100
AcDbEntity
  8
0-0
  6
JWW_DASHED1
 62
   120
370
     5
100
AcDbLine
 10
525.4134065979653
 20
-34.31054200503311
 30
0.0
 11
1098.413406597966
 21
-34.31054200503311
 31
0.0
  0
LINE
  5
33A
330
1F
100
AcDbEntity
  8
0-0
  6
JWW_DASHED1
 62
   120
370
     5
100
AcDbLine
 10
525.4134065979653
 20
-33.31054200513293
 30
0.0
 11
1098.413406597966
 21
-33.31054200513293
 31
0.0
  0
LINE
  5
33B
330
1F
100
AcDbEntity
  8
0-0
  6
JWW_DASHED1
 62
   120
370
     5
100
AcDbLine
 10
525.4134065979653
 20
-20.31054200403332
 30
0.0
 11
1098.413406597966
 21
-20.31054200403332
 31
0.0
  0
LINE
  5
33C
330
1F
100
AcDbEntity
  8
0-0
  6
JWW_DASHED1
 62
   120
370
     5
100
AcDbLine
 10
525.4134065979653
 20
-19.31054200413314
 30
0.0
 11
1098.413406597966
 21
-19.31054200413314
 31
0.0
  0
LINE
  5
33D
330
1F
100
AcDbEntity
  8
0-0
  6
JWW_DASHED1
 62
   120
370
     5
100
AcDbLine
 10
525.4134065979653
 20
-6.310542003033532
 30
0.0
 11
1098.413406597966
 21
-6.310542003033532
 31
0.0
  0
LINE
  5
33E
330
1F
100
AcDbEntity
  8
0-0
  6
JWW_DASHED1
 62
   120
370
     5
100
AcDbLine
 10
525.4134065979653
 20
-5.310542003133349
 30
0.0
 11
1098.413406597966
 21
-5.310542003133349
 31
0.0
  0
LINE
  5
33F
330
1F
100
AcDbEntity
  8
0-0
  6
JWW_DASHED1
 62
   120
370
     5
100
AcDbLine
 10
525.4134065979653
 20
7.689457997966258
 30
0.0
 11
1098.413406597966
 21
7.689457997966258
 31
0.0
  0
LINE
  5
340
330
1F
100
AcDbEntity
  8
0-0
  6
JWW_DASHED1
 62
   120
370
     5
100
AcDbLine
 10
525.4134065979653
 20
8.689457997866441
 30
0.0
 11
1098.413406597966
 21
8.689457997866441
 31
0.0
  0
LINE
  5
341
330
1F
100
AcDbEntity
  8
0-0
  6
JWW_DASHED1
 62
   120
370
     5
100
AcDbLine
 10
525.4134065979653
 20
21.68945799896605
 30
0.0
 11
1098.413406597966
 21
21.68945799896605
 31
0.0
  0
LINE
  5
342
330
1F
100
AcDbEntity
  8
0-0
  6
JWW_DASHED1
 62
   120
370
     5
100
AcDbLine
 10
525.4134065979653
 20
22.68945799886623
 30
0.0
 11
1098.413406597966
 21
22.68945799886623
 31
0.0
  0
LINE
  5
343
330
1F
100
AcDbEntity
  8
0-0
  6
JWW_DASHED1
 62
   120
370
     5
100
AcDbLine
 10
525.4134065979653
 20
35.68945799996584
 30
0.0
 11
1098.413406597966
 21
35.68945799996584
 31
0.0
  0
LINE
  5
344
330
1F
100
AcDbEntity
  8
0-0
  6
JWW_DASHED1
 62
   120
370
     5
100
AcDbLine
 10
525.4134065979653
 20
36.68945799986602
 30
0.0
 11
1098.413406597966
 21
36.68945799986602
 31
0.0
  0
LINE
  5
345
330
1F
100
AcDbEntity
  8
0-0
  6
JWW_DASHED1
 62
   120
370
     5
100
AcDbLine
 10
525.4134065979653
 20
49.68945800096563
 30
0.0
 11
1098.413406597966
 21
49.68945800096563
 31
0.0
  0
LINE
  5
346
330
1F
100
AcDbEntity
  8
0-0
  6
JWW_DASHED1
 62
   120
370
     5
100
AcDbLine
 10
525.4134065979653
 20
50.68945800086581
 30
0.0
 11
1098.413406597966
 21
50.68945800086581
 31
0.0
  0
LINE
  5
347
330
1F
100
AcDbEntity
  8
0-0
  6
JWW_DASHED1
 62
   120
370
     5
100
AcDbLine
 10
525.4134065979653
 20
63.68945800196542
 30
0.0
 11
1098.413406597966
 21
63.68945800196542
 31
0.0
  0
LINE
  5
348
330
1F
100
AcDbEntity
  8
0-0
  6
JWW_DASHED1
 62
   120
370
     5
100
AcDbLine
 10
525.4134065979653
 20
64.6894580018656
 30
0.0
 11
1098.413406597966
 21
64.6894580018656
 31
0.0
  0
LINE
  5
349
330
1F
100
AcDbEntity
  8
0-0
  6
JWW_DASHED1
 62
   120
370
     5
100
AcDbLine
 10
525.4134065979653
 20
77.68945800296521
 30
0.0
 11
1098.413406597966
 21
77.68945800296521
 31
0.0
  0
LINE
  5
34A
330
1F
100
AcDbEntity
  8
0-0
  6
JWW_DASHED1
 62
   120
370
     5
100
AcDbLine
 10
525.4134065979653
 20
78.6894580028654
 30
0.0
 11
1098.413406597966
 21
78.6894580028654
 31
0.0
  0
LINE
  5
34B
330
1F
100
AcDbEntity
  8
0-0
  6
JWW_DASHED1
 62
   120
370
     5
100
AcDbLine
 10
525.4134065979653
 20
91.689458003965
 30
0.0
 11
1098.413406597966
 21
91.689458003965
 31
0.0
  0
LINE
  5
34C
330
1F
100
AcDbEntity
  8
0-0
  6
JWW_DASHED1
 62
   120
370
     5
100
AcDbLine
 10
525.4134065979653
 20
92.68945800386518
 30
0.0
 11
1098.413406597966
 21
92.68945800386518
 31
0.0
  0
LINE
  5
34D
330
1F
100
AcDbEntity
  8
0-0
  6
JWW_DASHED1
 62
   120
370
     5
100
AcDbLine
 10
525.4134065979653
 20
105.6894580049648
 30
0.0
 11
1098.413406597966
 21
105.6894580049648
 31
0.0
  0
LINE
  5
34E
330
1F
100
AcDbEntity
  8
0-0
  6
JWW_DASHED1
 62
   120
370
     5
100
AcDbLine
 10
525.4134065979653
 20
106.689458004865
 30
0.0
 11
1098.413406597966
 21
106.689458004865
 31
0.0
  0
LINE
  5
34F
330
1F
100
AcDbEntity
  8
0-0
  6
JWW_DASHED1
 62
   120
370
     5
100
AcDbLine
 10
525.4134065979653
 20
119.6894580059646
 30
0.0
 11
1098.413406597966
 21
119.6894580059646
 31
0.0
  0
LINE
  5
350
330
1F
100
AcDbEntity
  8
0-0
  6
JWW_DASHED1
 62
   120
370
     5
100
AcDbLine
 10
525.4134065979653
 20
120.6894580058648
 30
0.0
 11
1098.413406597966
 21
120.6894580058648
 31
0.0
  0
LINE
  5
351
330
1F
100
AcDbEntity
  8
0-0
  6
JWW_DASHED1
 62
   120
370
     5
100
AcDbLine
 10
525.4134065979653
 20
133.6894580069644
 30
0.0
 11
1098.413406597966
 21
133.6894580069644
 31
0.0
  0
LINE
  5
352
330
1F
100
AcDbEntity
  8
0-0
  6
JWW_DASHED1
 62
   120
370
     5
100
AcDbLine
 10
525.4134065979653
 20
134.6894580068646
 30
0.0
 11
1098.413406597966
 21
134.6894580068646
 31
0.0
  0
LINE
  5
353
330
1F
100
AcDbEntity
  8
0-0
  6
JWW_DASHED1
 62
   120
370
     5
100
AcDbLine
 10
525.4134065979653
 20
147.6894580079642
 30
0.0
 11
1098.413406597966
 21
147.6894580079642
 31
0.0
  0
LINE
  5
354
330
1F
100
AcDbEntity
  8
0-0
  6
JWW_DASHED1
 62
   120
370
     5
100
AcDbLine
 10
525.4134065979653
 20
148.6894580078643
 30
0.0
 11
1098.413406597966
 21
148.6894580078643
 31
0.0
  0
LINE
  5
355
330
1F
100
AcDbEntity
  8
0-0
  6
JWW_DASHED1
 62
   120
370
     5
100
AcDbLine
 10
525.4134065979653
 20
161.689458008964
 30
0.0
 11
1098.413406597966
 21
161.689458008964
 31
0.0
  0
LINE
  5
356
330
1F
100
AcDbEntity
  8
0-0
  6
JWW_DASHED1
 62
   120
370
     5
100
AcDbLine
 10
525.4134065979653
 20
162.6894580088641
 30
0.0
 11
1098.413406597966
 21
162.6894580088641
 31
0.0
  0
LINE
  5
357
330
1F
100
AcDbEntity
  8
0-0
  6
JWW_DASHED1
 62
   120
370
     5
100
AcDbLine
 10
525.4134065979653
 20
175.6894580099637
 30
0.0
 11
1098.413406597966
 21
175.6894580099637
 31
0.0
  0
LINE
  5
358
330
1F
100
AcDbEntity
  8
0-0
  6
JWW_DASHED1
 62
   120
370
     5
100
AcDbLine
 10
525.4134065979653
 20
176.6894580098639
 30
0.0
 11
1098.413406597966
 21
176.6894580098639
 31
0.0
  0
LINE
  5
359
330
1F
100
AcDbEntity
  8
0-0
  6
JWW_DASHED1
 62
   120
370
     5
100
AcDbLine
 10
525.4134065979653
 20
189.6894580109635
 30
0.0
 11
1098.413406597966
 21
189.6894580109635
 31
0.0
  0
LINE
  5
35A
330
1F
100
AcDbEntity
  8
0-0
  6
JWW_DASHED1
 62
   120
370
     5
100
AcDbLine
 10
525.4134065979653
 20
190.6894580108637
 30
0.0
 11
1098.413406597966
 21
190.6894580108637
 31
0.0
  0
LINE
  5
35B
330
1F
100
AcDbEntity
  8
0-0
  6
JWW_DASHED1
 62
   120
370
     5
100
AcDbLine
 10
525.4134065979653
 20
203.6894580119633
 30
0.0
 11
1098.413406597966
 21
203.6894580119633
 31
0.0
  0
LINE
  5
35C
330
1F
100
AcDbEntity
  8
0-0
  6
JWW_DASHED1
 62
   120
370
     5
100
AcDbLine
 10
525.4134065979653
 20
204.6894580118635
 30
0.0
 11
1098.413406597966
 21
204.6894580118635
 31
0.0
  0
LINE
  5
35D
330
1F
100
AcDbEntity
  8
0-0
  6
JWW_DASHED1
 62
   120
370
     5
100
AcDbLine
 10
525.4134065979653
 20
217.6894580129631
 30
0.0
 11
1098.413406597966
 21
217.6894580129631
 31
0.0
  0
LINE
  5
35E
330
1F
100
AcDbEntity
  8
0-0
  6
JWW_DASHED1
 62
   120
370
     5
100
AcDbLine
 10
525.4134065979653
 20
218.6894580128633
 30
0.0
 11
1098.413406597966
 21
218.6894580128633
 31
0.0
  0
LINE
  5
35F
330
1F
100
AcDbEntity
  8
0-0
  6
JWW_DASHED1
 62
   120
370
     5
100
AcDbLine
 10
525.4134065979653
 20
231.6894580139629
 30
0.0
 11
1098.413406597966
 21
231.6894580139629
 31
0.0
  0
LINE
  5
360
330
1F
100
AcDbEntity
  8
0-0
  6
JWW_DASHED1
 62
   120
370
     5
100
AcDbLine
 10
525.4134065979653
 20
232.6894580138631
 30
0.0
 11
1098.413406597966
 21
232.6894580138631
 31
0.0
  0
LINE
  5
361
330
1F
100
AcDbEntity
  8
0-0
  6
JWW_DASHED1
 62
   120
370
     5
100
AcDbLine
 10
525.4134065979653
 20
245.6894580149627
 30
0.0
 11
1098.413406597966
 21
245.6894580149627
 31
0.0
  0
LINE
  5
362
330
1F
100
AcDbEntity
  8
0-0
  6
JWW_DASHED1
 62
   120
370
     5
100
AcDbLine
 10
525.4134065979653
 20
246.6894580148629
 30
0.0
 11
1098.413406597966
 21
246.6894580148629
 31
0.0
  0
LINE
  5
363
330
1F
100
AcDbEntity
  8
0-0
  6
JWW_DASHED1
 62
   120
370
     5
100
AcDbLine
 10
525.4134065979653
 20
259.6894580159625
 30
0.0
 11
1098.413406597966
 21
259.6894580159625
 31
0.0
  0
LINE
  5
364
330
1F
100
AcDbEntity
  8
0-0
  6
JWW_DASHED1
 62
   120
370
     5
100
AcDbLine
 10
525.4134065979653
 20
260.6894580158627
 30
0.0
 11
1098.413406597966
 21
260.6894580158627
 31
0.0
  0
LINE
  5
365
330
1F
100
AcDbEntity
  8
0-0
  6
JWW_DASHED1
 62
   120
370
     5
100
AcDbLine
 10
525.4134065979653
 20
273.6894580169622
 30
0.0
 11
1098.413406597966
 21
273.6894580169622
 31
0.0
  0
LINE
  5
366
330
1F
100
AcDbEntity
  8
0-0
  6
JWW_DASHED1
 62
   120
370
     5
100
AcDbLine
 10
525.4134065979653
 20
274.6894580168624
 30
0.0
 11
1098.413406597966
 21
274.6894580168624
 31
0.0
  0
LINE
  5
367
330
1F
100
AcDbEntity
  8
0-0
  6
JWW_DASHED1
 62
   120
370
     5
100
AcDbLine
 10
525.4134065979653
 20
287.6894580179621
 30
0.0
 11
1098.413406597966
 21
287.6894580179621
 31
0.0
  0
LINE
  5
368
330
1F
100
AcDbEntity
  8
0-0
  6
JWW_DASHED1
 62
   120
370
     5
100
AcDbLine
 10
525.4134065979653
 20
288.6894580178623
 30
0.0
 11
1098.413406597966
 21
288.6894580178623
 31
0.0
  0
LINE
  5
369
330
1F
100
AcDbEntity
  8
0-0
  6
JWW_DASHED1
 62
   120
370
     5
100
AcDbLine
 10
525.4134065979653
 20
301.6894580189619
 30
0.0
 11
1098.413406597966
 21
301.6894580189619
 31
0.0
  0
LINE
  5
36A
330
1F
100
AcDbEntity
  8
0-0
  6
JWW_DASHED1
 62
   120
370
     5
100
AcDbLine
 10
525.4134065979653
 20
302.6894580188621
 30
0.0
 11
1098.413406597966
 21
302.6894580188621
 31
0.0
  0
LINE
  5
36B
330
1F
100
AcDbEntity
  8
0-0
  6
JWW_DASHED1
 62
   120
370
     5
100
AcDbLine
 10
525.4134065979653
 20
315.6894580199616
 30
0.0
 11
1098.413406597966
 21
315.6894580199616
 31
0.0
  0
LINE
  5
36C
330
1F
100
AcDbEntity
  8
0-0
  6
JWW_DASHED1
 62
   120
370
     5
100
AcDbLine
 10
525.4134065979653
 20
316.6894580198618
 30
0.0
 11
1098.413406597966
 21
316.6894580198618
 31
0.0
  0
LINE
  5
36D
330
1F
100
AcDbEntity
  8
0-0
  6
JWW_DASHED1
 62
   120
370
     5
100
AcDbLine
 10
525.4134065979653
 20
329.6894580209614
 30
0.0
 11
1098.413406597966
 21
329.6894580209614
 31
0.0
  0
LINE
  5
36E
330
1F
100
AcDbEntity
  8
0-0
  6
JWW_DASHED1
 62
   120
370
     5
100
AcDbLine
 10
525.4134065979653
 20
330.6894580208616
 30
0.0
 11
1098.413406597966
 21
330.6894580208616
 31
0.0
  0
LINE
  5
36F
330
1F
100
AcDbEntity
  8
0-0
  6
JWW_DASHED1
 62
   120
370
     5
100
AcDbLine
 10
525.4134065979653
 20
343.6894580219612
 30
0.0
 11
1098.413406597966
 21
343.6894580219612
 31
0.0
  0
LINE
  5
370
330
1F
100
AcDbEntity
  8
0-0
  6
JWW_DASHED1
 62
   120
370
     5
100
AcDbLine
 10
525.4134065979653
 20
344.6894580218614
 30
0.0
 11
1098.413406597966
 21
344.6894580218614
 31
0.0
  0
LINE
  5
371
330
1F
100
AcDbEntity
  8
0-0
  6
JWW_DASHED1
 62
   120
370
     5
100
AcDbLine
 10
525.4134065979653
 20
357.689458022961
 30
0.0
 11
1098.413406597966
 21
357.689458022961
 31
0.0
  0
LINE
  5
372
330
1F
100
AcDbEntity
  8
0-0
  6
JWW_DASHED1
 62
   120
370
     5
100
AcDbLine
 10
525.4134065979653
 20
358.6894580228612
 30
0.0
 11
1098.413406597966
 21
358.6894580228612
 31
0.0
  0
LINE
  5
373
330
1F
100
AcDbEntity
  8
0-0
  6
JWW_DASHED1
 62
   120
370
     5
100
AcDbLine
 10
525.4134065979653
 20
371.6894580239608
 30
0.0
 11
1098.413406597966
 21
371.6894580239608
 31
0.0
  0
LINE
  5
374
330
1F
100
AcDbEntity
  8
0-0
  6
JWW_DASHED1
 62
   120
370
     5
100
AcDbLine
 10
525.4134065979653
 20
372.689458023861
 30
0.0
 11
1098.413406597966
 21
372.689458023861
 31
0.0
  0
LINE
  5
375
330
1F
100
AcDbEntity
  8
0-0
  6
JWW_DASHED1
 62
   120
370
     5
100
AcDbLine
 10
525.4134065979653
 20
385.6894580249606
 30
0.0
 11
1098.413406597966
 21
385.6894580249606
 31
0.0
  0
LINE
  5
376
330
1F
100
AcDbEntity
  8
0-0
  6
JWW_DASHED1
 62
   120
370
     5
100
AcDbLine
 10
525.4134065979653
 20
386.6894580248608
 30
0.0
 11
1098.413406597966
 21
386.6894580248608
 31
0.0
  0
LINE
  5
377
330
1F
100
AcDbEntity
  8
0-0
  6
JWW_DASHED1
 62
   120
370
     5
100
AcDbLine
 10
525.4134065979653
 20
399.6894580259604
 30
0.0
 11
1098.413406597966
 21
399.6894580259604
 31
0.0
  0
LINE
  5
378
330
1F
100
AcDbEntity
  8
0-0
  6
JWW_DASHED1
 62
   120
370
     5
100
AcDbLine
 10
525.4134065979653
 20
400.6894580258606
 30
0.0
 11
1098.413406597966
 21
400.6894580258606
 31
0.0
  0
LINE
  5
379
330
1F
100
AcDbEntity
  8
0-0
  6
JWW_DASHED1
 62
   120
370
     5
100
AcDbLine
 10
525.4134065979653
 20
413.6894580269602
 30
0.0
 11
1098.413406597966
 21
413.6894580269602
 31
0.0
  0
LINE
  5
37A
330
1F
100
AcDbEntity
  8
0-0
  6
JWW_DASHED1
 62
   120
370
     5
100
AcDbLine
 10
525.4134065979653
 20
414.6894580268604
 30
0.0
 11
1098.413406597966
 21
414.6894580268604
 31
0.0
  0
LINE
  5
37B
330
1F
100
AcDbEntity
  8
0-0
  6
JWW_DASHED1
 62
   120
370
     5
100
AcDbLine
 10
525.4134065979653
 20
427.68945802796
 30
0.0
 11
1098.413406597966
 21
427.68945802796
 31
0.0
  0
LINE
  5
37C
330
1F
100
AcDbEntity
  8
0-0
  6
JWW_DASHED1
 62
   120
370
     5
100
AcDbLine
 10
525.4134065979653
 20
428.6894580278602
 30
0.0
 11
1098.413406597966
 21
428.6894580278602
 31
0.0
  0
LINE
  5
37D
330
1F
100
AcDbEntity
  8
0-0
  6
JWW_DASHED1
 62
   120
370
     5
100
AcDbLine
 10
525.4134065979653
 20
441.6894580289597
 30
0.0
 11
1098.413406597966
 21
441.6894580289597
 31
0.0
  0
LINE
  5
37E
330
1F
100
AcDbEntity
  8
0-0
  6
JWW_DASHED1
 62
   120
370
     5
100
AcDbLine
 10
525.4134065979653
 20
442.6894580288599
 30
0.0
 11
1098.413406597966
 21
442.6894580288599
 31
0.0
  0
LINE
  5
37F
330
1F
100
AcDbEntity
  8
0-0
  6
JWW_DASHED1
 62
   120
370
     5
100
AcDbLine
 10
525.4134065979653
 20
455.6894580299596
 30
0.0
 11
1098.413406597966
 21
455.6894580299596
 31
0.0
  0
LINE
  5
380
330
1F
100
AcDbEntity
  8
0-0
  6
JWW_DASHED1
 62
   120
370
     5
100
AcDbLine
 10
525.4134065979653
 20
456.6894580298597
 30
0.0
 11
1098.413406597966
 21
456.6894580298597
 31
0.0
  0
LINE
  5
381
330
1F
100
AcDbEntity
  8
0-0
  6
JWW_DASHED1
 62
   120
370
     5
100
AcDbLine
 10
525.4134065979653
 20
469.6894580309594
 30
0.0
 11
1098.413406597966
 21
469.6894580309594
 31
0.0
  0
LINE
  5
382
330
1F
100
AcDbEntity
  8
0-0
  6
JWW_DASHED1
 62
   120
370
     5
100
AcDbLine
 10
525.4134065979653
 20
470.6894580308596
 30
0.0
 11
1098.413406597966
 21
470.6894580308596
 31
0.0
  0
LINE
  5
383
330
1F
100
AcDbEntity
  8
0-0
  6
JWW_DASHED1
 62
   120
370
     5
100
AcDbLine
 10
525.4134065979653
 20
483.6894580319591
 30
0.0
 11
1098.413406597966
 21
483.6894580319591
 31
0.0
  0
LINE
  5
384
330
1F
100
AcDbEntity
  8
0-0
  6
JWW_DASHED1
 62
   120
370
     5
100
AcDbLine
 10
525.4134065979653
 20
484.6894580318593
 30
0.0
 11
1098.413406597966
 21
484.6894580318593
 31
0.0
  0
LINE
  5
385
330
1F
100
AcDbEntity
  8
0-0
  6
JWW_DASHED1
 62
   120
370
     5
100
AcDbLine
 10
525.4134065979653
 20
497.6894580329589
 30
0.0
 11
1098.413406597966
 21
497.6894580329589
 31
0.0
  0
LINE
  5
386
330
1F
100
AcDbEntity
  8
0-0
  6
JWW_DASHED1
 62
   120
370
     5
100
AcDbLine
 10
525.4134065979653
 20
498.6894580328591
 30
0.0
 11
1098.413406597966
 21
498.6894580328591
 31
0.0
  0
LINE
  5
387
330
1F
100
AcDbEntity
  8
0-0
  6
JWW_DASHED1
 62
   120
370
     5
100
AcDbLine
 10
525.4134065979653
 20
511.6894580339587
 30
0.0
 11
1098.413406597966
 21
511.6894580339587
 31
0.0
  0
LINE
  5
388
330
1F
100
AcDbEntity
  8
0-0
  6
JWW_DASHED1
 62
   120
370
     5
100
AcDbLine
 10
525.4134065979653
 20
512.689458033859
 30
0.0
 11
1098.413406597966
 21
512.689458033859
 31
0.0
  0
LINE
  5
389
330
1F
100
AcDbEntity
  8
0-0
  6
JWW_DASHED1
 62
   120
370
     5
100
AcDbLine
 10
525.4134065979653
 20
525.6894580349585
 30
0.0
 11
1098.413406597966
 21
525.6894580349585
 31
0.0
  0
LINE
  5
38A
330
1F
100
AcDbEntity
  8
0-0
  6
JWW_DASHED1
 62
   120
370
     5
100
AcDbLine
 10
525.4134065979653
 20
526.6894580348587
 30
0.0
 11
1098.413406597966
 21
526.6894580348587
 31
0.0
  0
LINE
  5
38B
330
1F
100
AcDbEntity
  8
0-0
  6
JWW_DASHED1
 62
   120
370
     5
100
AcDbLine
 10
525.4134065979653
 20
539.6894580359583
 30
0.0
 11
1098.413406597966
 21
539.6894580359583
 31
0.0
  0
LINE
  5
38C
330
1F
100
AcDbEntity
  8
0-0
  6
JWW_DASHED1
 62
   120
370
     5
100
AcDbLine
 10
525.4134065979653
 20
540.6894580358585
 30
0.0
 11
1098.413406597966
 21
540.6894580358585
 31
0.0
  0
LINE
  5
38D
330
1F
100
AcDbEntity
  8
0-0
  6
JWW_DASHED1
 62
   120
370
     5
100
AcDbLine
 10
525.4134065979653
 20
553.6894580369581
 30
0.0
 11
1098.413406597966
 21
553.6894580369581
 31
0.0
  0
LINE
  5
38E
330
1F
100
AcDbEntity
  8
0-0
  6
JWW_DASHED1
 62
   120
370
     5
100
AcDbLine
 10
525.4134065979653
 20
554.6894580368582
 30
0.0
 11
1098.413406597966
 21
554.6894580368582
 31
0.0
  0
LINE
  5
38F
330
1F
100
AcDbEntity
  8
0-0
  6
JWW_DASHED1
 62
   120
370
     5
100
AcDbLine
 10
525.4134065979653
 20
567.6894580379578
 30
0.0
 11
1098.413406597966
 21
567.6894580379578
 31
0.0
  0
LINE
  5
390
330
1F
100
AcDbEntity
  8
0-0
  6
JWW_DASHED1
 62
   120
370
     5
100
AcDbLine
 10
525.4134065979653
 20
568.689458037858
 30
0.0
 11
1098.413406597966
 21
568.689458037858
 31
0.0
  0
LINE
  5
391
330
1F
100
AcDbEntity
  8
0-0
  6
JWW_DASHED1
 62
   120
370
     5
100
AcDbLine
 10
525.4134065979653
 20
581.6894580389577
 30
0.0
 11
1098.413406597966
 21
581.6894580389577
 31
0.0
  0
LINE
  5
392
330
1F
100
AcDbEntity
  8
0-0
  6
JWW_DASHED1
 62
   120
370
     5
100
AcDbLine
 10
525.4134065979653
 20
582.6894580388579
 30
0.0
 11
1098.413406597966
 21
582.6894580388579
 31
0.0
  0
LINE
  5
393
330
1F
100
AcDbEntity
  8
0-0
  6
JWW_DASHED1
 62
   120
370
     5
100
AcDbLine
 10
525.4134065979653
 20
595.6894580399575
 30
0.0
 11
1098.413406597966
 21
595.6894580399575
 31
0.0
  0
LINE
  5
394
330
1F
100
AcDbEntity
  8
0-0
  6
JWW_DASHED1
 62
   120
370
     5
100
AcDbLine
 10
525.4134065979653
 20
596.6894580398576
 30
0.0
 11
1098.413406597966
 21
596.6894580398576
 31
0.0
  0
LINE
  5
395
330
1F
100
AcDbEntity
  8
0-0
  6
JWW_DASHED1
 62
   120
370
     5
100
AcDbLine
 10
525.4134065979653
 20
609.6894580409572
 30
0.0
 11
1098.413406597966
 21
609.6894580409572
 31
0.0
  0
LINE
  5
396
330
1F
100
AcDbEntity
  8
0-0
  6
JWW_DASHED1
 62
   120
370
     5
100
AcDbLine
 10
525.4134065979653
 20
610.6894580408572
 30
0.0
 11
1098.413406597966
 21
610.6894580408572
 31
0.0
  0
LINE
  5
397
330
1F
100
AcDbEntity
  8
0-0
  6
JWW_DASHED1
 62
   120
370
     5
100
AcDbLine
 10
525.4134065979653
 20
623.6894580419571
 30
0.0
 11
1098.413406597966
 21
623.6894580419571
 31
0.0
  0
LINE
  5
398
330
1F
100
AcDbEntity
  8
0-0
  6
JWW_DASHED1
 62
   120
370
     5
100
AcDbLine
 10
525.4134065979653
 20
624.6894580418573
 30
0.0
 11
1098.413406597966
 21
624.6894580418573
 31
0.0
  0
LINE
  5
399
330
1F
100
AcDbEntity
  8
0-0
  6
JWW_DASHED1
 62
   120
370
     5
100
AcDbLine
 10
525.4134065979653
 20
637.6894580429569
 30
0.0
 11
1098.413406597966
 21
637.6894580429569
 31
0.0
  0
LINE
  5
39A
330
1F
100
AcDbEntity
  8
0-0
  6
JWW_DASHED1
 62
   120
370
     5
100
AcDbLine
 10
525.4134065979653
 20
638.689458042857
 30
0.0
 11
1098.413406597966
 21
638.689458042857
 31
0.0
  0
LINE
  5
39B
330
1F
100
AcDbEntity
  8
0-0
  6
JWW_DASHED1
 62
   120
370
     5
100
AcDbLine
 10
612.8322483599286
 20
651.6894580439566
 30
0.0
 11
1010.994564836002
 21
651.6894580439566
 31
0.0
  0
LINE
  5
39C
330
1F
100
AcDbEntity
  8
0-0
  6
JWW_DASHED1
 62
   120
370
     5
100
AcDbLine
 10
616.4264782312885
 20
652.6894580438568
 30
0.0
 11
1007.400334964642
 21
652.6894580438568
 31
0.0
  0
LINE
  5
39D
330
1F
100
AcDbEntity
  8
0-0
  6
JWW_DASHED1
 62
   120
370
     5
100
AcDbLine
 10
647.5385556995443
 20
665.6894580449564
 30
0.0
 11
976.288257496386
 21
665.6894580449564
 31
0.0
  0
LINE
  5
39E
330
1F
100
AcDbEntity
  8
0-0
  6
JWW_DASHED1
 62
   120
370
     5
100
AcDbLine
 10
649.4323556892105
 20
666.6894580448566
 30
0.0
 11
974.3944575067198
 21
666.6894580448566
 31
0.0
  0
LINE
  5
39F
330
1F
100
AcDbEntity
  8
0-0
  6
JWW_DASHED1
 62
   120
370
     5
100
AcDbLine
 10
677.11319978153
 20
679.6894580459561
 30
0.0
 11
946.7136134144002
 21
679.6894580459561
 31
0.0
  0
LINE
  5
3A0
330
1F
100
AcDbEntity
  8
0-0
  6
JWW_DASHED1
 62
   120
370
     5
100
AcDbLine
 10
679.5347978491063
 20
680.6894580458563
 30
0.0
 11
944.292015346824
 21
680.6894580458563
 31
0.0
  0
LINE
  5
3A1
330
1F
100
AcDbEntity
  8
0-0
  6
JWW_DASHED1
 62
   120
370
     5
100
AcDbLine
 10
717.4089098394743
 20
693.689458046956
 30
0.0
 11
906.417903356456
 21
693.689458046956
 31
0.0
  0
LINE
  5
3A2
330
1F
100
AcDbEntity
  8
0-0
  6
JWW_DASHED1
 62
   120
370
     5
100
AcDbLine
 10
721.0503216618472
 20
694.6894580468562
 30
0.0
 11
902.7764915340831
 21
694.6894580468562
 31
0.0
  0
LINE
  5
3A3
330
1F
100
AcDbEntity
  8
0-0
  6
JWW_DASHED1
 62
   120
370
     5
100
AcDbLine
 10
1092.413425095897
 20
-468.3103937221829
 30
0.0
 11
1092.413425095897
 21
646.6893387335086
 31
0.0
  0
LINE
  5
3A4
330
1F
100
AcDbEntity
  8
0-0
  6
JWW_DASHED1
 62
   120
370
     5
100
AcDbLine
 10
1091.413425095997
 20
-468.3103937221829
 30
0.0
 11
1091.413425095998
 21
646.6893387335086
 31
0.0
  0
LINE
  5
3A5
330
1F
100
AcDbEntity
  8
0-0
  6
JWW_DASHED1
 62
   120
370
     5
100
AcDbLine
 10
1078.413425094897
 20
-468.3103937221829
 30
0.0
 11
1078.413425094898
 21
646.6893387335086
 31
0.0
  0
LINE
  5
3A6
330
1F
100
AcDbEntity
  8
0-0
  6
JWW_DASHED1
 62
   120
370
     5
100
AcDbLine
 10
1077.413425094997
 20
-468.3103937221829
 30
0.0
 11
1077.413425094997
 21
646.6893387335086
 31
0.0
  0
LINE
  5
3A7
330
1F
100
AcDbEntity
  8
0-0
  6
JWW_DASHED1
 62
   120
370
     5
100
AcDbLine
 10
1064.413425093897
 20
-468.3103937221829
 30
0.0
 11
1064.413425093897
 21
646.6893387335086
 31
0.0
  0
LINE
  5
3A8
330
1F
100
AcDbEntity
  8
0-0
  6
JWW_DASHED1
 62
   120
370
     5
100
AcDbLine
 10
1063.413425093997
 20
-468.3103937221829
 30
0.0
 11
1063.413425093998
 21
646.6893387335086
 31
0.0
  0
LINE
  5
3A9
330
1F
100
AcDbEntity
  8
0-0
  6
JWW_DASHED1
 62
   120
370
     5
100
AcDbLine
 10
1050.413425092897
 20
-468.3103937221829
 30
0.0
 11
1050.413425092898
 21
646.6893387335086
 31
0.0
  0
LINE
  5
3AA
330
1F
100
AcDbEntity
  8
0-0
  6
JWW_DASHED1
 62
   120
370
     5
100
AcDbLine
 10
1049.413425092997
 20
-468.3103937221829
 30
0.0
 11
1049.413425092997
 21
646.6893387335086
 31
0.0
  0
LINE
  5
3AB
330
1F
100
AcDbEntity
  8
0-0
  6
JWW_DASHED1
 62
   120
370
     5
100
AcDbLine
 10
1036.413425091897
 20
-468.3103937221829
 30
0.0
 11
1036.413425091897
 21
647.2526312387209
 31
0.0
  0
LINE
  5
3AC
330
1F
100
AcDbEntity
  8
0-0
  6
JWW_DASHED1
 62
   120
370
     5
100
AcDbLine
 10
1035.413425091997
 20
-468.3103937221829
 30
0.0
 11
1035.413425091997
 21
647.3429129007537
 31
0.0
  0
LINE
  5
3AD
330
1F
100
AcDbEntity
  8
0-0
  6
JWW_DASHED1
 62
   120
370
     5
100
AcDbLine
 10
1022.413425090897
 20
-468.3103937221829
 30
0.0
 11
1022.413425090897
 21
649.1370272752876
 31
0.0
  0
LINE
  5
3AE
330
1F
100
AcDbEntity
  8
0-0
  6
JWW_DASHED1
 62
   120
370
     5
100
AcDbLine
 10
1021.413425090997
 20
-468.3103937221829
 30
0.0
 11
1021.413425090997
 21
649.3234336577235
 31
0.0
  0
LINE
  5
3AF
330
1F
100
AcDbEntity
  8
0-0
  6
JWW_DASHED1
 62
   120
370
     5
100
AcDbLine
 10
1008.413425089897
 20
-468.3103937221829
 30
0.0
 11
1008.413425089897
 21
652.3978293284791
 31
0.0
  0
LINE
  5
3B0
330
1F
100
AcDbEntity
  8
0-0
  6
JWW_DASHED1
 62
   120
370
     5
100
AcDbLine
 10
1007.413425089997
 20
-468.3103937221829
 30
0.0
 11
1007.413425089998
 21
652.6856406958588
 31
0.0
  0
LINE
  5
3B1
330
1F
100
AcDbEntity
  8
0-0
  6
JWW_DASHED1
 62
   120
370
     5
100
AcDbLine
 10
994.413425088897
 20
-468.3103937221829
 30
0.0
 11
994.4134250888975
 21
657.1314842213225
 31
0.0
  0
LINE
  5
3B2
330
1F
100
AcDbEntity
  8
0-0
  6
JWW_DASHED1
 62
   120
370
     5
100
AcDbLine
 10
993.4134250889973
 20
-468.3103937221829
 30
0.0
 11
993.4134250889973
 21
657.52964586884
 31
0.0
  0
LINE
  5
3B3
330
1F
100
AcDbEntity
  8
0-0
  6
JWW_DASHED1
 62
   120
370
     5
100
AcDbLine
 10
980.4134250878973
 20
-468.3103937221829
 30
0.0
 11
980.4134250878973
 21
663.4949325984827
 31
0.0
  0
LINE
  5
3B4
330
1F
100
AcDbEntity
  8
0-0
  6
JWW_DASHED1
 62
   120
370
     5
100
AcDbLine
 10
979.4134250879973
 20
-468.3103937221829
 30
0.0
 11
979.4134250879974
 21
664.0176567972823
 31
0.0
  0
LINE
  5
3B5
330
1F
100
AcDbEntity
  8
0-0
  6
JWW_DASHED1
 62
   120
370
     5
100
AcDbLine
 10
966.4134250868974
 20
-468.3103937221829
 30
0.0
 11
966.4134250868974
 21
670.7433346220416
 31
0.0
  0
LINE
  5
3B6
330
1F
100
AcDbEntity
  8
0-0
  6
JWW_DASHED1
 62
   120
370
     5
100
AcDbLine
 10
965.4134250869972
 20
-468.3103937221829
 30
0.0
 11
965.4134250869972
 21
671.2333144073484
 31
0.0
  0
LINE
  5
3B7
330
1F
100
AcDbEntity
  8
0-0
  6
JWW_DASHED1
 62
   120
370
     5
100
AcDbLine
 10
952.4134250858975
 20
-468.3103937221829
 30
0.0
 11
952.4134250858975
 21
677.2512147166738
 31
0.0
  0
LINE
  5
3B8
330
1F
100
AcDbEntity
  8
0-0
  6
JWW_DASHED1
 62
   120
370
     5
100
AcDbLine
 10
951.4134250859973
 20
-468.3103937221829
 30
0.0
 11
951.4134250859973
 21
677.6876511968505
 31
0.0
  0
LINE
  5
3B9
330
1F
100
AcDbEntity
  8
0-0
  6
JWW_DASHED1
 62
   120
370
     5
100
AcDbLine
 10
938.4134250848975
 20
-468.3103937221829
 30
0.0
 11
938.4134250848975
 21
683.029529245908
 31
0.0
  0
LINE
  5
3BA
330
1F
100
AcDbEntity
  8
0-0
  6
JWW_DASHED1
 62
   120
370
     5
100
AcDbLine
 10
937.4134250849974
 20
-468.3103937221829
 30
0.0
 11
937.4134250849974
 21
683.4154016471832
 31
0.0
  0
LINE
  5
3BB
330
1F
100
AcDbEntity
  8
0-0
  6
JWW_DASHED1
 62
   120
370
     5
100
AcDbLine
 10
924.4134250838976
 20
-468.3103937221829
 30
0.0
 11
924.4134250838976
 21
688.1164395919798
 31
0.0
  0
LINE
  5
3BC
330
1F
100
AcDbEntity
  8
0-0
  6
JWW_DASHED1
 62
   120
370
     5
100
AcDbLine
 10
923.4134250839974
 20
-468.3103937221829
 30
0.0
 11
923.4134250839974
 21
688.4542003465897
 31
0.0
  0
LINE
  5
3BD
330
1F
100
AcDbEntity
  8
0-0
  6
JWW_DASHED1
 62
   120
370
     5
100
AcDbLine
 10
910.4134250828976
 20
-468.3103937221829
 30
0.0
 11
910.4134250828976
 21
692.5433636759983
 31
0.0
  0
LINE
  5
3BE
330
1F
100
AcDbEntity
  8
0-0
  6
JWW_DASHED1
 62
   120
370
     5
100
AcDbLine
 10
909.4134250829974
 20
-468.3103937221829
 30
0.0
 11
909.4134250829974
 21
692.8350307527246
 31
0.0
  0
LINE
  5
3BF
330
1F
100
AcDbEntity
  8
0-0
  6
JWW_DASHED1
 62
   120
370
     5
100
AcDbLine
 10
896.4134250818976
 20
-468.3103937221829
 30
0.0
 11
896.4134250818976
 21
696.3361090953761
 31
0.0
  0
LINE
  5
3C0
330
1F
100
AcDbEntity
  8
0-0
  6
JWW_DASHED1
 62
   120
370
     5
100
AcDbLine
 10
895.4134250819974
 20
-468.3103937221829
 30
0.0
 11
895.4134250819974
 21
696.5833351301656
 31
0.0
  0
LINE
  5
3C1
330
1F
100
AcDbEntity
  8
0-0
  6
JWW_DASHED1
 62
   120
370
     5
100
AcDbLine
 10
882.4134250808976
 20
-468.3103937221829
 30
0.0
 11
882.4134250808976
 21
699.5157245854928
 31
0.0
  0
LINE
  5
3C2
330
1F
100
AcDbEntity
  8
0-0
  6
JWW_DASHED1
 62
   120
370
     5
100
AcDbLine
 10
881.4134250809974
 20
-468.3103937221829
 30
0.0
 11
881.4134250809974
 21
699.7198490128569
 31
0.0
  0
LINE
  5
3C3
330
1F
100
AcDbEntity
  8
0-0
  6
JWW_DASHED1
 62
   120
370
     5
100
AcDbLine
 10
868.4134250798976
 20
-468.3103937221829
 30
0.0
 11
868.4134250798976
 21
702.0991427870861
 31
0.0
  0
LINE
  5
3C4
330
1F
100
AcDbEntity
  8
0-0
  6
JWW_DASHED1
 62
   120
370
     5
100
AcDbLine
 10
867.4134250799974
 20
-468.3103937221829
 30
0.0
 11
867.4134250799974
 21
702.2612311958649
 31
0.0
  0
LINE
  5
3C5
330
1F
100
AcDbEntity
  8
0-0
  6
JWW_DASHED1
 62
   120
370
     5
100
AcDbLine
 10
854.4134250788975
 20
-468.3103937221829
 30
0.0
 11
854.4134250788975
 21
704.0996643203682
 31
0.0
  0
LINE
  5
3C6
330
1F
100
AcDbEntity
  8
0-0
  6
JWW_DASHED1
 62
   120
370
     5
100
AcDbLine
 10
853.4134250789973
 20
-468.3103937221829
 30
0.0
 11
853.4134250789973
 21
704.2205379458603
 31
0.0
  0
LINE
  5
3C7
330
1F
100
AcDbEntity
  8
0-0
  6
JWW_DASHED1
 62
   120
370
     5
100
AcDbLine
 10
840.4134250778975
 20
-468.3103937221829
 30
0.0
 11
840.4134250778975
 21
705.5273177521333
 31
0.0
  0
LINE
  5
3C8
330
1F
100
AcDbEntity
  8
0-0
  6
JWW_DASHED1
 62
   120
370
     5
100
AcDbLine
 10
839.4134250779973
 20
-468.3103937221829
 30
0.0
 11
839.4134250779973
 21
705.6075751237797
 31
0.0
  0
LINE
  5
3C9
330
1F
100
AcDbEntity
  8
0-0
  6
JWW_DASHED1
 62
   120
370
     5
100
AcDbLine
 10
826.4134250768975
 20
-468.3103937221829
 30
0.0
 11
826.4134250768975
 21
706.3891193802949
 31
0.0
  0
LINE
  5
3CA
330
1F
100
AcDbEntity
  8
0-0
  6
JWW_DASHED1
 62
   120
370
     5
100
AcDbLine
 10
825.4134250769973
 20
-468.3103937221829
 30
0.0
 11
825.4134250769973
 21
706.4291515126235
 31
0.0
  0
LINE
  5
3CB
330
1F
100
AcDbEntity
  8
0-0
  6
JWW_DASHED1
 62
   120
370
     5
100
AcDbLine
 10
812.4134250758975
 20
-468.3103937221829
 30
0.0
 11
812.4134250758975
 21
706.6892491083702
 31
0.0
  0
LINE
  5
3CC
330
1F
100
AcDbEntity
  8
0-0
  6
JWW_DASHED1
 62
   120
370
     5
100
AcDbLine
 10
811.4134250759973
 20
-468.3103937221829
 30
0.0
 11
811.4134250759973
 21
706.6892491611936
 31
0.0
  0
LINE
  5
3CD
330
1F
100
AcDbEntity
  8
0-0
  6
JWW_DASHED1
 62
   120
370
     5
100
AcDbLine
 10
798.4134250748975
 20
-468.3103937221829
 30
0.0
 11
798.4134250748975
 21
706.4291529391296
 31
0.0
  0
LINE
  5
3CE
330
1F
100
AcDbEntity
  8
0-0
  6
JWW_DASHED1
 62
   120
370
     5
100
AcDbLine
 10
797.4134250749973
 20
-468.3103937221829
 30
0.0
 11
797.4134250749973
 21
706.3891209126662
 31
0.0
  0
LINE
  5
3CF
330
1F
100
AcDbEntity
  8
0-0
  6
JWW_DASHED1
 62
   120
370
     5
100
AcDbLine
 10
784.4134250738975
 20
-468.3103937221829
 30
0.0
 11
784.4134250738975
 21
705.6075780364911
 31
0.0
  0
LINE
  5
3D0
330
1F
100
AcDbEntity
  8
0-0
  6
JWW_DASHED1
 62
   120
370
     5
100
AcDbLine
 10
783.4134250739974
 20
-468.3103937221829
 30
0.0
 11
783.4134250739974
 21
705.5273207714192
 31
0.0
  0
LINE
  5
3D1
330
1F
100
AcDbEntity
  8
0-0
  6
JWW_DASHED1
 62
   120
370
     5
100
AcDbLine
 10
770.4134250728976
 20
-468.3103937221829
 30
0.0
 11
770.4134250728976
 21
704.2205423589105
 31
0.0
  0
LINE
  5
3D2
330
1F
100
AcDbEntity
  8
0-0
  6
JWW_DASHED1
 62
   120
370
     5
100
AcDbLine
 10
769.4134250729974
 20
-468.3103937221829
 30
0.0
 11
769.4134250729974
 21
704.0996688413027
 31
0.0
  0
LINE
  5
3D3
330
1F
100
AcDbEntity
  8
0-0
  6
JWW_DASHED1
 62
   120
370
     5
100
AcDbLine
 10
756.4134250718976
 20
-468.3103937221829
 30
0.0
 11
756.4134250718976
 21
702.2612371311363
 31
0.0
  0
LINE
  5
3D4
330
1F
100
AcDbEntity
  8
0-0
  6
JWW_DASHED1
 62
   120
370
     5
100
AcDbLine
 10
755.4134250719974
 20
-468.3103937221829
 30
0.0
 11
755.4134250719974
 21
702.0991488320972
 31
0.0
  0
LINE
  5
3D5
330
1F
100
AcDbEntity
  8
0-0
  6
JWW_DASHED1
 62
   120
370
     5
100
AcDbLine
 10
742.4134250708973
 20
-468.3103937221829
 30
0.0
 11
742.4134250708973
 21
699.719856500363
 31
0.0
  0
LINE
  5
3D6
330
1F
100
AcDbEntity
  8
0-0
  6
JWW_DASHED1
 62
   120
370
     5
100
AcDbLine
 10
741.4134250709972
 20
-468.3103937221829
 30
0.0
 11
741.4134250709972
 21
699.5157321852487
 31
0.0
  0
LINE
  5
3D7
330
1F
100
AcDbEntity
  8
0-0
  6
JWW_DASHED1
 62
   120
370
     5
100
AcDbLine
 10
728.4134250698975
 20
-468.3103937221829
 30
0.0
 11
728.4134250698975
 21
696.5833442089781
 31
0.0
  0
LINE
  5
3D8
330
1F
100
AcDbEntity
  8
0-0
  6
JWW_DASHED1
 62
   120
370
     5
100
AcDbLine
 10
727.4134250699973
 20
-468.3103937221829
 30
0.0
 11
727.4134250699973
 21
696.3361182896035
 31
0.0
  0
LINE
  5
3D9
330
1F
100
AcDbEntity
  8
0-0
  6
JWW_DASHED1
 62
   120
370
     5
100
AcDbLine
 10
714.4134250688975
 20
-468.3103937221829
 30
0.0
 11
714.4134250688975
 21
692.8350414719018
 31
0.0
  0
LINE
  5
3DA
330
1F
100
AcDbEntity
  8
0-0
  6
JWW_DASHED1
 62
   120
370
     5
100
AcDbLine
 10
713.4134250689973
 20
-468.3103937221829
 30
0.0
 11
713.4134250689973
 21
692.5433745145194
 31
0.0
  0
LINE
  5
3DB
330
1F
100
AcDbEntity
  8
0-0
  6
JWW_DASHED1
 62
   120
370
     5
100
AcDbLine
 10
700.4134250678975
 20
-468.3103937221829
 30
0.0
 11
700.4134250678975
 21
688.454212766813
 31
0.0
  0
LINE
  5
3DC
330
1F
100
AcDbEntity
  8
0-0
  6
JWW_DASHED1
 62
   120
370
     5
100
AcDbLine
 10
699.4134250679973
 20
-468.3103937221829
 30
0.0
 11
699.4134250679973
 21
688.1164521364037
 31
0.0
  0
LINE
  5
3DD
330
1F
100
AcDbEntity
  8
0-0
  6
JWW_DASHED1
 62
   120
370
     5
100
AcDbLine
 10
686.4134250668975
 20
-468.3103937221829
 30
0.0
 11
686.4134250668975
 21
683.4154158425038
 31
0.0
  0
LINE
  5
3DE
330
1F
100
AcDbEntity
  8
0-0
  6
JWW_DASHED1
 62
   120
370
     5
100
AcDbLine
 10
685.4134250669973
 20
-468.3103937221829
 30
0.0
 11
685.4134250669973
 21
683.0295435712135
 31
0.0
  0
LINE
  5
3DF
330
1F
100
AcDbEntity
  8
0-0
  6
JWW_DASHED1
 62
   120
370
     5
100
AcDbLine
 10
672.4134250658975
 20
-468.3103937221829
 30
0.0
 11
672.4134250658975
 21
677.6876672572537
 31
0.0
  0
LINE
  5
3E0
330
1F
100
AcDbEntity
  8
0-0
  6
JWW_DASHED1
 62
   120
370
     5
100
AcDbLine
 10
671.4134250659973
 20
-468.3103937221829
 30
0.0
 11
671.4134250659973
 21
677.2512309142105
 31
0.0
  0
LINE
  5
3E1
330
1F
100
AcDbEntity
  8
0-0
  6
JWW_DASHED1
 62
   120
370
     5
100
AcDbLine
 10
658.4134250648975
 20
-468.3103937221829
 30
0.0
 11
658.4134250648975
 21
671.2333324421372
 31
0.0
  0
LINE
  5
3E2
330
1F
100
AcDbEntity
  8
0-0
  6
JWW_DASHED1
 62
   120
370
     5
100
AcDbLine
 10
657.4134250649973
 20
-468.3103937221829
 30
0.0
 11
657.4134250649973
 21
670.7433528026952
 31
0.0
  0
LINE
  5
3E3
330
1F
100
AcDbEntity
  8
0-0
  6
JWW_DASHED1
 62
   120
370
     5
100
AcDbLine
 10
644.4134250638975
 20
-468.3103937221829
 30
0.0
 11
644.4134250638975
 21
664.0176762923558
 31
0.0
  0
LINE
  5
3E4
330
1F
100
AcDbEntity
  8
0-0
  6
JWW_DASHED1
 62
   120
370
     5
100
AcDbLine
 10
643.4134250639974
 20
-468.3103937221829
 30
0.0
 11
643.4134250639974
 21
663.4949517396718
 31
0.0
  0
LINE
  5
3E5
330
1F
100
AcDbEntity
  8
0-0
  6
JWW_DASHED1
 62
   120
370
     5
100
AcDbLine
 10
630.4134250628974
 20
-468.3103937221829
 30
0.0
 11
630.4134250628974
 21
657.5296607371685
 31
0.0
  0
LINE
  5
3E6
330
1F
100
AcDbEntity
  8
0-0
  6
JWW_DASHED1
 62
   120
370
     5
100
AcDbLine
 10
629.4134250629972
 20
-468.3103937221829
 30
0.0
 11
629.4134250629972
 21
657.131498782369
 31
0.0
  0
LINE
  5
3E7
330
1F
100
AcDbEntity
  8
0-0
  6
JWW_DASHED1
 62
   120
370
     5
100
AcDbLine
 10
616.4134250618974
 20
-468.3103937221829
 30
0.0
 11
616.4134250618974
 21
652.6856514711336
 31
0.0
  0
LINE
  5
3E8
330
1F
100
AcDbEntity
  8
0-0
  6
JWW_DASHED1
 62
   120
370
     5
100
AcDbLine
 10
615.4134250619973
 20
-468.3103937221829
 30
0.0
 11
615.4134250619973
 21
652.397839826158
 31
0.0
  0
LINE
  5
3E9
330
1F
100
AcDbEntity
  8
0-0
  6
JWW_DASHED1
 62
   120
370
     5
100
AcDbLine
 10
602.4134250608975
 20
-468.3103937221829
 30
0.0
 11
602.4134250608975
 21
649.3234406763123
 31
0.0
  0
LINE
  5
3EA
330
1F
100
AcDbEntity
  8
0-0
  6
JWW_DASHED1
 62
   120
370
     5
100
AcDbLine
 10
601.4134250609973
 20
-468.3103937221829
 30
0.0
 11
601.4134250609973
 21
649.1370340345612
 31
0.0
  0
LINE
  5
3EB
330
1F
100
AcDbEntity
  8
0-0
  6
JWW_DASHED1
 62
   120
370
     5
100
AcDbLine
 10
588.4134250598975
 20
-468.3103937221829
 30
0.0
 11
588.4134250598975
 21
647.342916361945
 31
0.0
  0
LINE
  5
3EC
330
1F
100
AcDbEntity
  8
0-0
  6
JWW_DASHED1
 62
   120
370
     5
100
AcDbLine
 10
587.4134250599973
 20
-468.3103937221829
 30
0.0
 11
587.4134250599973
 21
647.2526344504741
 31
0.0
  0
LINE
  5
3ED
330
1F
100
AcDbEntity
  8
0-0
  6
JWW_DASHED1
 62
   120
370
     5
100
AcDbLine
 10
574.4134250588975
 20
-468.3103937221829
 30
0.0
 11
574.4134250588975
 21
646.6893387335086
 31
0.0
  0
LINE
  5
3EE
330
1F
100
AcDbEntity
  8
0-0
  6
JWW_DASHED1
 62
   120
370
     5
100
AcDbLine
 10
573.4134250589973
 20
-468.3103937221829
 30
0.0
 11
573.4134250589973
 21
646.6893387335086
 31
0.0
  0
LINE
  5
3EF
330
1F
100
AcDbEntity
  8
0-0
  6
JWW_DASHED1
 62
   120
370
     5
100
AcDbLine
 10
560.4134250578975
 20
-468.3103937221829
 30
0.0
 11
560.4134250578975
 21
646.6893387335086
 31
0.0
  0
LINE
  5
3F0
330
1F
100
AcDbEntity
  8
0-0
  6
JWW_DASHED1
 62
   120
370
     5
100
AcDbLine
 10
559.4134250579973
 20
-468.3103937221829
 30
0.0
 11
559.4134250579973
 21
646.6893387335086
 31
0.0
  0
LINE
  5
3F1
330
1F
100
AcDbEntity
  8
0-0
  6
JWW_DASHED1
 62
   120
370
     5
100
AcDbLine
 10
546.4134250568975
 20
-468.3103937221829
 30
0.0
 11
546.4134250568975
 21
646.6893387335086
 31
0.0
  0
LINE
  5
3F2
330
1F
100
AcDbEntity
  8
0-0
  6
JWW_DASHED1
 62
   120
370
     5
100
AcDbLine
 10
545.4134250569973
 20
-468.3103937221829
 30
0.0
 11
545.4134250569973
 21
646.6893387335086
 31
0.0
  0
LINE
  5
3F3
330
1F
100
AcDbEntity
  8
0-0
  6
JWW_DASHED1
 62
   120
370
     5
100
AcDbLine
 10
532.4134250558975
 20
-468.3103937221829
 30
0.0
 11
532.4134250558975
 21
646.6893387335086
 31
0.0
  0
LINE
  5
3F4
330
1F
100
AcDbEntity
  8
0-0
  6
JWW_DASHED1
 62
   120
370
     5
100
AcDbLine
 10
531.4134250559973
 20
-468.3103937221829
 30
0.0
 11
531.4134250559973
 21
646.6893387335086
 31
0.0
  0
ENDSEC
  0
SECTION
  2
OBJECTS
  0
DICTIONARY
  5
C
330
0
100
AcDbDictionary
281
     1
  3
ACAD_GROUP
350
D
  3
ACAD_LAYOUT
350
1A
  3
ACAD_MATERIAL
350
3B
  3
ACAD_MLEADERSTYLE
350
3F6
  3
ACAD_MLINESTYLE
350
17
  3
ACAD_PLOTSETTINGS
350
19
  3
ACAD_PLOTSTYLENAME
350
E
  3
ACAD_TABLESTYLE
350
3F5
  3
ACAD_VISUALSTYLE
350
2A
  0
DICTIONARY
  5
D
102
{ACAD_REACTORS
330
C
102
}
330
C
100
AcDbDictionary
281
     1
  0
DICTIONARY
  5
1A
102
{ACAD_REACTORS
330
C
102
}
330
C
100
AcDbDictionary
281
     1
  3
Layout1
350
1E
  3
Layout2
350
26
  3
Model
350
22
  0
DICTIONARY
  5
3B
102
{ACAD_REACTORS
330
C
102
}
330
C
100
AcDbDictionary
281
     1
  3
ByBlock
350
3D
  3
ByLayer
350
3C
  3
Global
350
3E
  0
DICTIONARY
  5
3F6
102
{ACAD_REACTORS
330
C
102
}
330
C
100
AcDbDictionary
281
     1
  0
DICTIONARY
  5
17
102
{ACAD_REACTORS
330
C
102
}
330
C
100
AcDbDictionary
281
     1
  3
Standard
350
18
  0
DICTIONARY
  5
19
102
{ACAD_REACTORS
330
C
102
}
330
C
100
AcDbDictionary
281
     1
  0
ACDBDICTIONARYWDFLT
  5
E
102
{ACAD_REACTORS
330
C
102
}
330
C
100
AcDbDictionary
281
     1
  3
Normal
350
F
100
AcDbDictionaryWithDefault
340
F
  0
DICTIONARY
  5
3F5
102
{ACAD_REACTORS
330
C
102
}
330
C
100
AcDbDictionary
281
     1
  0
DICTIONARY
  5
2A
102
{ACAD_REACTORS
330
C
102
}
330
C
100
AcDbDictionary
281
     1
  3
2dWireframe
350
2F
  3
3D Hidden
350
31
  3
3dWireframe
350
30
  3
Basic
350
32
  3
Brighten
350
36
  3
ColorChange
350
3A
  3
Conceptual
350
34
  3
Dim
350
35
  3
Facepattern
350
39
  3
Flat
350
2B
  3
FlatWithEdges
350
2C
  3
Gouraud
350
2D
  3
GouraudWithEdges
350
2E
  3
Linepattern
350
38
  3
Realistic
350
33
  3
Thicken
350
37
  0
LAYOUT
  5
1E
102
{ACAD_REACTORS
330
1A
102
}
330
1A
100
AcDbPlotSettings
  1

  2
none_device
  4

  6

 40
0.0
 41
0.0
 42
0.0
 43
0.0
 44
0.0
 45
0.0
 46
0.0
 47
0.0
 48
0.0
 49
0.0
140
0.0
141
0.0
142
1.0
143
1.0
 70
   688
 72
     0
 73
     0
 74
     5
  7

 75
    16
 76
     0
 77
     5
 78
   300
147
1.0
148
0.0
149
0.0
100
AcDbLayout
  1
Layout1
 70
     1
 71
     1
 10
0.0
 20
0.0
 11
420.0
 21
297.0
 12
0.0
 22
0.0
 32
0.0
 14
1.000000000000000E+20
 24
1.000000000000000E+20
 34
1.000000000000000E+20
 15
-1.000000000000000E+20
 25
-1.000000000000000E+20
 35
-1.000000000000000E+20
146
0.0
 13
0.0
 23
0.0
 33
0.0
 16
1.0
 26
0.0
 36
0.0
 17
0.0
 27
1.0
 37
0.0
 76
     0
330
1B
  0
LAYOUT
  5
26
102
{ACAD_REACTORS
330
1A
102
}
330
1A
100
AcDbPlotSettings
  1

  2
none_device
  4

  6

 40
0.0
 41
0.0
 42
0.0
 43
0.0
 44
0.0
 45
0.0
 46
0.0
 47
0.0
 48
0.0
 49
0.0
140
0.0
141
0.0
142
1.0
143
1.0
 70
   688
 72
     0
 73
     0
 74
     5
  7

 75
    16
 76
     0
 77
     5
 78
   300
147
1.0
148
0.0
149
0.0
100
AcDbLayout
  1
Layout2
 70
     1
 71
     2
 10
0.0
 20
0.0
 11
0.0
 21
0.0
 12
0.0
 22
0.0
 32
0.0
 14
0.0
 24
0.0
 34
0.0
 15
0.0
 25
0.0
 35
0.0
146
0.0
 13
0.0
 23
0.0
 33
0.0
 16
1.0
 26
0.0
 36
0.0
 17
0.0
 27
1.0
 37
0.0
 76
     0
330
23
  0
LAYOUT
  5
22
102
{ACAD_REACTORS
330
1A
102
}
330
1A
100
AcDbPlotSettings
  1

  2
none_device
  4

  6

 40
0.0
 41
0.0
 42
0.0
 43
0.0
 44
0.0
 45
0.0
 46
0.0
 47
0.0
 48
0.0
 49
0.0
140
0.0
141
0.0
142
1.0
143
1.0
 70
  1712
 72
     0
 73
     0
 74
     0
  7

 75
     0
 76
     0
 77
     5
 78
   300
147
1.0
148
0.0
149
0.0
100
AcDbLayout
  1
Model
 70
     1
 71
     0
 10
-4455.0
 20
-3150.0
 11
4455.0
 21
3150.0
 12
0.0
 22
0.0
 32
0.0
 14
-4455.0
 24
-3150.0
 34
0.0
 15
4455.0
 25
3150.0
 35
0.0
146
0.0
 13
0.0
 23
0.0
 33
0.0
 16
1.0
 26
0.0
 36
0.0
 17
0.0
 27
1.0
 37
0.0
 76
     0
330
1F
331
29
  0
MATERIAL
  5
3D
102
{ACAD_REACTORS
330
3B
102
}
330
3B
100
AcDbMaterial
  1
ByBlock
 72
     1
 94
      127
  0
MATERIAL
  5
3C
102
{ACAD_REACTORS
330
3B
102
}
330
3B
100
AcDbMaterial
  1
ByLayer
 72
     1
 94
      127
  0
MATERIAL
  5
3E
102
{ACAD_REACTORS
330
3B
102
}
330
3B
100
AcDbMaterial
  1
Global
 72
     1
 94
      127
  0
MLINESTYLE
  5
18
102
{ACAD_REACTORS
330
17
102
}
330
17
100
AcDbMlineStyle
  2
Standard
 70
     0
  3

 62
   256
 51
90.0
 52
90.0
 71
     2
 49
0.5
 62
   256
  6
BYLAYER
 49
-0.5
 62
   256
  6
BYLAYER
  0
ACDBPLACEHOLDER
  5
F
102
{ACAD_REACTORS
330
E
102
}
330
E
  0
VISUALSTYLE
  5
2F
102
{ACAD_REACTORS
330
2A
102
}
330
2A
100
AcDbVisualStyle
  2
2dWireframe
 70
     4
177
     2
291
     0
 71
     0
176
     1
 72
     2
176
     1
 73
     0
176
     1
 90
        0
176
     1
 40
-0.6
176
     1
 41
-30.0
176
     1
 62
     5
 63
     7
421
 16777215
176
     1
 74
     1
176
     1
 91
        4
176
     1
 64
     7
176
     1
 65
   257
176
     1
 75
     1
176
     1
175
     1
176
     1
 42
1.0
176
     1
 92
        0
176
     1
 66
   257
176
     1
 43
1.0
176
     1
 76
     1
176
     1
 77
     6
176
     1
 78
     2
176
     1
 67
     7
176
     1
 79
     5
176
     1
170
     0
176
     1
171
     0
176
     1
290
     0
176
     1
 93
        1
176
     1
 44
0.0
176
     1
173
     0
176
     1
  0
VISUALSTYLE
  5
31
102
{ACAD_REACTORS
330
2A
102
}
330
2A
100
AcDbVisualStyle
  2
3D Hidden
 70
     6
177
     2
291
     0
 71
     1
176
     1
 72
     2
176
     1
 73
     2
176
     1
 90
        0
176
     1
 40
-0.6
176
     1
 41
-30.0
176
     1
 62
     5
 63
     7
421
 16777215
176
     1
 74
     2
176
     1
 91
        2
176
     1
 64
     7
176
     1
 65
   257
176
     1
 75
     2
176
     1
175
     1
176
     1
 42
40.0
176
     1
 92
        0
176
     1
 66
   257
176
     1
 43
1.0
176
     1
 76
     1
176
     1
 77
     6
176
     1
 78
     2
176
     1
 67
     7
176
     1
 79
     3
176
     1
170
     0
176
     1
171
     0
176
     1
290
     0
176
     1
 93
        1
176
     1
 44
0.0
176
     1
173
     0
176
     1
  0
VISUALSTYLE
  5
30
102
{ACAD_REACTORS
330
2A
102
}
330
2A
100
AcDbVisualStyle
  2
3dWireframe
 70
     5
177
     2
291
     0
 71
     0
176
     1
 72
     2
176
     1
 73
     0
176
     1
 90
        0
176
     1
 40
-0.6
176
     1
 41
-30.0
176
     1
 62
     5
 63
     7
421
 16777215
176
     1
 74
     1
176
     1
 91
        4
176
     1
 64
     7
176
     1
 65
   257
176
     1
 75
     1
176
     1
175
     1
176
     1
 42
1.0
176
     1
 92
        0
176
     1
 66
   257
176
     1
 43
1.0
176
     1
 76
     1
176
     1
 77
     6
176
     1
 78
     2
176
     1
 67
     7
176
     1
 79
     5
176
     1
170
     0
176
     1
171
     0
176
     1
290
     0
176
     1
 93
        1
176
     1
 44
0.0
176
     1
173
     0
176
     1
  0
VISUALSTYLE
  5
32
102
{ACAD_REACTORS
330
2A
102
}
330
2A
100
AcDbVisualStyle
  2
Basic
 70
     7
177
     2
291
     1
 71
     1
176
     1
 72
     0
176
     1
 73
     1
176
     1
 90
        0
176
     1
 40
-0.6
176
     1
 41
-30.0
176
     1
 62
     5
 63
     7
421
 16777215
176
     1
 74
     0
176
     1
 91
        4
176
     1
 64
     7
176
     1
 65
   257
176
     1
 75
     1
176
     1
175
     1
176
     1
 42
1.0
176
     1
 92
        8
176
     1
 66
     7
176
     1
 43
1.0
176
     1
 76
     1
176
     1
 77
     6
176
     1
 78
     2
176
     1
 67
     7
176
     1
 79
     5
176
     1
170
     0
176
     1
171
     0
176
     1
290
     0
176
     1
 93
        1
176
     1
 44
0.0
176
     1
173
     0
176
     1
  0
VISUALSTYLE
  5
36
102
{ACAD_REACTORS
330
2A
102
}
330
2A
100
AcDbVisualStyle
  2
Brighten
 70
    12
177
     2
291
     1
 71
     2
176
     1
 72
     2
176
     1
 73
     0
176
     1
 90
        0
176
     1
 40
-0.6
176
     1
 41
-30.0
176
     1
 62
     5
 63
     7
421
 16777215
176
     1
 74
     1
176
     1
 91
        4
176
     1
 64
     7
176
     1
 65
   257
176
     1
 75
     1
176
     1
175
     1
176
     1
 42
1.0
176
     1
 92
        8
176
     1
 66
     7
176
     1
 43
1.0
176
     1
 76
     1
176
     1
 77
     6
176
     1
 78
     2
176
     1
 67
     7
176
     1
 79
     5
176
     1
170
     0
176
     1
171
     0
176
     1
290
     0
176
     1
 93
        1
176
     1
 44
50.0
176
     1
173
     0
176
     1
  0
VISUALSTYLE
  5
3A
102
{ACAD_REACTORS
330
2A
102
}
330
2A
100
AcDbVisualStyle
  2
ColorChange
 70
    16
177
     2
291
     1
 71
     2
176
     1
 72
     2
176
     1
 73
     3
176
     1
 90
        0
176
     1
 40
-0.6
176
     1
 41
-30.0
176
     1
 62
     5
 63
     8
421
  8421504
176
     1
 74
     1
176
     1
 91
        4
176
     1
 64
     7
176
     1
 65
   257
176
     1
 75
     1
176
     1
175
     1
176
     1
 42
1.0
176
     1
 92
        8
176
     1
 66
     8
424
  8421504
176
     1
 43
1.0
176
     1
 76
     1
176
     1
 77
     6
176
     1
 78
     2
176
     1
 67
     7
176
     1
 79
     5
176
     1
170
     0
176
     1
171
     0
176
     1
290
     0
176
     1
 93
        1
176
     1
 44
0.0
176
     1
173
     0
176
     1
  0
VISUALSTYLE
  5
34
102
{ACAD_REACTORS
330
2A
102
}
330
2A
100
AcDbVisualStyle
  2
Conceptual
 70
     9
177
     2
291
     0
 71
     3
176
     1
 72
     2
176
     1
 73
     0
176
     1
 90
        0
176
     1
 40
-0.6
176
     1
 41
-30.0
176
     1
 62
     5
 63
     7
421
 16777215
176
     1
 74
     2
176
     1
 91
        2
176
     1
 64
     7
176
     1
 65
   257
176
     1
 75
     1
176
     1
175
     1
176
     1
 42
40.0
176
     1
 92
        8
176
     1
 66
     7
176
     1
 43
1.0
176
     1
 76
     1
176
     1
 77
     6
176
     1
 78
     2
176
     1
 67
     7
176
     1
 79
     3
176
     1
170
     0
176
     1
171
     0
176
     1
290
     0
176
     1
 93
        1
176
     1
 44
0.0
176
     1
173
     0
176
     1
  0
VISUALSTYLE
  5
35
102
{ACAD_REACTORS
330
2A
102
}
330
2A
100
AcDbVisualStyle
  2
Dim
 70
    11
177
     2
291
     1
 71
     2
176
     1
 72
     2
176
     1
 73
     0
176
     1
 90
        0
176
     1
 40
-0.6
176
     1
 41
-30.0
176
     1
 62
     5
 63
     7
421
 16777215
176
     1
 74
     1
176
     1
 91
        4
176
     1
 64
     7
176
     1
 65
   257
176
     1
 75
     1
176
     1
175
     1
176
     1
 42
1.0
176
     1
 92
        8
176
     1
 66
     7
176
     1
 43
1.0
176
     1
 76
     1
176
     1
 77
     6
176
     1
 78
     2
176
     1
 67
     7
176
     1
 79
     5
176
     1
170
     0
176
     1
171
     0
176
     1
290
     0
176
     1
 93
        1
176
     1
 44
-50.0
176
     1
173
     0
176
     1
  0
VISUALSTYLE
  5
39
102
{ACAD_REACTORS
330
2A
102
}
330
2A
100
AcDbVisualStyle
  2
Facepattern
 70
    15
177
     2
291
     1
 71
     2
176
     1
 72
     2
176
     1
 73
     0
176
     1
 90
        0
176
     1
 40
-0.6
176
     1
 41
-30.0
176
     1
 62
     5
 63
     7
421
 16777215
176
     1
 74
     1
176
     1
 91
        4
176
     1
 64
     7
176
     1
 65
   257
176
     1
 75
     1
176
     1
175
     1
176
     1
 42
1.0
176
     1
 92
        8
176
     1
 66
     7
176
     1
 43
1.0
176
     1
 76
     1
176
     1
 77
     6
176
     1
 78
     2
176
     1
 67
     7
176
     1
 79
     5
176
     1
170
     0
176
     1
171
     0
176
     1
290
     0
176
     1
 93
        1
176
     1
 44
0.0
176
     1
173
     0
176
     1
  0
VISUALSTYLE
  5
2B
102
{ACAD_REACTORS
330
2A
102
}
330
2A
100
AcDbVisualStyle
  2
Flat
 70
     0
177
     2
291
     1
 71
     2
176
     1
 72
     1
176
     1
 73
     1
176
     1
 90
        2
176
     1
 40
-0.6
176
     1
 41
30.0
176
     1
 62
     5
 63
     7
421
 16777215
176
     1
 74
     0
176
     1
 91
        4
176
     1
 64
     7
176
     1
 65
   257
176
     1
 75
     1
176
     1
175
     1
176
     1
 42
1.0
176
     1
 92
        8
176
     1
 66
     7
176
     1
 43
1.0
176
     1
 76
     1
176
     1
 77
     6
176
     1
 78
     2
176
     1
 67
     7
176
     1
 79
     5
176
     1
170
     0
176
     1
171
     0
176
     1
290
     0
176
     1
 93
       13
176
     1
 44
0.0
176
     1
173
     0
176
     1
  0
VISUALSTYLE
  5
2C
102
{ACAD_REACTORS
330
2A
102
}
330
2A
100
AcDbVisualStyle
  2
FlatWithEdges
 70
     1
177
     2
291
     1
 71
     2
176
     1
 72
     1
176
     1
 73
     1
176
     1
 90
        2
176
     1
 40
-0.6
176
     1
 41
30.0
176
     1
 62
     5
 63
     7
421
 16777215
176
     1
 74
     1
176
     1
 91
        4
176
     1
 64
     7
176
     1
 65
   257
176
     1
 75
     1
176
     1
175
     1
176
     1
 42
1.0
176
     1
 92
        0
176
     1
 66
   257
176
     1
 43
1.0
176
     1
 76
     1
176
     1
 77
     6
176
     1
 78
     2
176
     1
 67
     7
176
     1
 79
     5
176
     1
170
     0
176
     1
171
     0
176
     1
290
     0
176
     1
 93
       13
176
     1
 44
0.0
176
     1
173
     0
176
     1
  0
VISUALSTYLE
  5
2D
102
{ACAD_REACTORS
330
2A
102
}
330
2A
100
AcDbVisualStyle
  2
Gouraud
 70
     2
177
     2
291
     1
 71
     2
176
     1
 72
     2
176
     1
 73
     1
176
     1
 90
        2
176
     1
 40
-0.6
176
     1
 41
30.0
176
     1
 62
     5
 63
     7
421
 16777215
176
     1
 74
     0
176
     1
 91
        4
176
     1
 64
     7
176
     1
 65
   257
176
     1
 75
     1
176
     1
175
     1
176
     1
 42
1.0
176
     1
 92
        0
176
     1
 66
     7
176
     1
 43
1.0
176
     1
 76
     1
176
     1
 77
     6
176
     1
 78
     2
176
     1
 67
     7
176
     1
 79
     5
176
     1
170
     0
176
     1
171
     0
176
     1
290
     0
176
     1
 93
       13
176
     1
 44
0.0
176
     1
173
     0
176
     1
  0
VISUALSTYLE
  5
2E
102
{ACAD_REACTORS
330
2A
102
}
330
2A
100
AcDbVisualStyle
  2
GouraudWithEdges
 70
     3
177
     2
291
     1
 71
     2
176
     1
 72
     2
176
     1
 73
     1
176
     1
 90
        2
176
     1
 40
-0.6
176
     1
 41
30.0
176
     1
 62
     5
 63
     7
421
 16777215
176
     1
 74
     1
176
     1
 91
        4
176
     1
 64
     7
176
     1
 65
   257
176
     1
 75
     1
176
     1
175
     1
176
     1
 42
1.0
176
     1
 92
        0
176
     1
 66
   257
176
     1
 43
1.0
176
     1
 76
     1
176
     1
 77
     6
176
     1
 78
     2
176
     1
 67
     7
176
     1
 79
     5
176
     1
170
     0
176
     1
171
     0
176
     1
290
     0
176
     1
 93
       13
176
     1
 44
0.0
176
     1
173
     0
176
     1
  0
VISUALSTYLE
  5
38
102
{ACAD_REACTORS
330
2A
102
}
330
2A
100
AcDbVisualStyle
  2
Linepattern
 70
    14
177
     2
291
     1
 71
     2
176
     1
 72
     2
176
     1
 73
     0
176
     1
 90
        0
176
     1
 40
-0.6
176
     1
 41
-30.0
176
     1
 62
     5
 63
     7
421
 16777215
176
     1
 74
     1
176
     1
 91
        4
176
     1
 64
     7
176
     1
 65
   257
176
     1
 75
     7
176
     1
175
     7
176
     1
 42
1.0
176
     1
 92
        8
176
     1
 66
     7
176
     1
 43
1.0
176
     1
 76
     1
176
     1
 77
     6
176
     1
 78
     2
176
     1
 67
     7
176
     1
 79
     5
176
     1
170
     0
176
     1
171
     0
176
     1
290
     0
176
     1
 93
        1
176
     1
 44
0.0
176
     1
173
     0
176
     1
  0
VISUALSTYLE
  5
33
102
{ACAD_REACTORS
330
2A
102
}
330
2A
100
AcDbVisualStyle
  2
Realistic
 70
     8
177
     2
291
     0
 71
     2
176
     1
 72
     2
176
     1
 73
     0
176
     1
 90
        0
176
     1
 40
-0.6
176
     1
 41
-30.0
176
     1
 62
     5
 63
     7
421
 16777215
176
     1
 74
     1
176
     1
 91
        0
176
     1
 64
     7
176
     1
 65
   257
176
     1
 75
     1
176
     1
175
     1
176
     1
 42
1.0
176
     1
 92
        8
176
     1
 66
     8
424
  7895160
176
     1
 43
1.0
176
     1
 76
     1
176
     1
 77
     6
176
     1
 78
     2
176
     1
 67
     7
176
     1
 79
     5
176
     1
170
     0
176
     1
171
     0
176
     1
290
     0
176
     1
 93
       13
176
     1
 44
0.0
176
     1
173
     0
176
     1
  0
VISUALSTYLE
  5
37
102
{ACAD_REACTORS
330
2A
102
}
330
2A
100
AcDbVisualStyle
  2
Thicken
 70
    13
177
     2
291
     1
 71
     2
176
     1
 72
     2
176
     1
 73
     0
176
     1
 90
        0
176
     1
 40
-0.6
176
     1
 41
-30.0
176
     1
 62
     5
 63
     7
421
 16777215
176
     1
 74
     1
176
     1
 91
        4
176
     1
 64
     7
176
     1
 65
   257
176
     1
 75
     1
176
     1
175
     1
176
     1
 42
1.0
176
     1
 92
       12
176
     1
 66
     7
176
     1
 43
1.0
176
     1
 76
     1
176
     1
 77
     6
176
     1
 78
     2
176
     1
 67
     7
176
     1
 79
     5
176
     1
170
     0
176
     1
171
     0
176
     1
290
     0
176
     1
 93
        1
176
     1
 44
0.0
176
     1
173
     0
176
     1
  0
ENDSEC
  0
EOF
