  0
SECTION
  2
HEADER
  9
$ACADVER
  1
AC1024
  9
$ACADMAINTVER
 70
     6
  9
$DWGCODEPAGE
  3
ANSI_932
  9
$INSBASE
 10
0.0
 20
0.0
 30
0.0
  9
$EXTMIN
 10
-4455.0
 20
-3150.0
 30
0.0
  9
$EXTMAX
 10
4455.0
 20
3150.0
 30
0.0
  9
$LIMMIN
 10
-4455.0
 20
-3150.0
  9
$LIMMAX
 10
4455.0
 20
3150.0
  9
$ORTHOMODE
 70
     0
  9
$REGENMODE
 70
     1
  9
$FILLMODE
 70
     1
  9
$QTEXTMODE
 70
     0
  9
$MIRRTEXT
 70
     1
  9
$LTSCALE
 40
30.0
  9
$ATTMODE
 70
     1
  9
$TEXTSIZE
 40
2.5
  9
$TRACEWID
 40
1.0
  9
$TEXTSTYLE
  7
Standard
  9
$CLAYER
  8
0
  9
$CELTYPE
  6
ByLayer
  9
$CECOLOR
 62
   256
  9
$CELTSCALE
 40
1.0
  9
$DISPSILH
 70
     0
  9
$DIMSCALE
 40
1.0
  9
$DIMASZ
 40
2.5
  9
$DIMEXO
 40
0.625
  9
$DIMDLI
 40
3.75
  9
$DIMRND
 40
0.0
  9
$DIMDLE
 40
0.0
  9
$DIMEXE
 40
1.25
  9
$DIMTP
 40
0.0
  9
$DIMTM
 40
0.0
  9
$DIMTXT
 40
2.5
  9
$DIMCEN
 40
2.5
  9
$DIMTSZ
 40
0.0
  9
$DIMTOL
 70
     0
  9
$DIMLIM
 70
     0
  9
$DIMTIH
 70
     0
  9
$DIMTOH
 70
     0
  9
$DIMSE1
 70
     0
  9
$DIMSE2
 70
     0
  9
$DIMTAD
 70
     1
  9
$DIMZIN
 70
     8
  9
$DIMBLK
  1

  9
$DIMASO
 70
     1
  9
$DIMSHO
 70
     1
  9
$DIMPOST
  1

  9
$DIMAPOST
  1

  9
$DIMALT
 70
     0
  9
$DIMALTD
 70
     3
  9
$DIMALTF
 40
0.03937007874016
  9
$DIMLFAC
 40
1.0
  9
$DIMTOFL
 70
     1
  9
$DIMTVP
 40
0.0
  9
$DIMTIX
 70
     0
  9
$DIMSOXD
 70
     0
  9
$DIMSAH
 70
     0
  9
$DIMBLK1
  1

  9
$DIMBLK2
  1

  9
$DIMSTYLE
  2
ISO-25
  9
$DIMCLRD
 70
     0
  9
$DIMCLRE
 70
     0
  9
$DIMCLRT
 70
     0
  9
$DIMTFAC
 40
1.0
  9
$DIMGAP
 40
0.625
  9
$DIMJUST
 70
     0
  9
$DIMSD1
 70
     0
  9
$DIMSD2
 70
     0
  9
$DIMTOLJ
 70
     0
  9
$DIMTZIN
 70
     8
  9
$DIMALTZ
 70
     0
  9
$DIMALTTZ
 70
     0
  9
$DIMUPT
 70
     0
  9
$DIMDEC
 70
     2
  9
$DIMTDEC
 70
     2
  9
$DIMALTU
 70
     2
  9
$DIMALTTD
 70
     3
  9
$DIMTXSTY
  7
Standard
  9
$DIMAUNIT
 70
     0
  9
$DIMADEC
 70
     0
  9
$DIMALTRND
 40
0.0
  9
$DIMAZIN
 70
     0
  9
$DIMDSEP
 70
    44
  9
$DIMATFIT
 70
     3
  9
$DIMFRAC
 70
     0
  9
$DIMLDRBLK
  1

  9
$DIMLUNIT
 70
     2
  9
$DIMLWD
 70
    -2
  9
$DIMLWE
 70
    -2
  9
$DIMTMOVE
 70
     0
  9
$DIMFXL
 40
1.0
  9
$DIMFXLON
 70
     0
  9
$DIMJOGANG
 40
0.7853981633974483
  9
$DIMTFILL
 70
     0
  9
$DIMTFILLCLR
 70
     0
  9
$DIMARCSYM
 70
     0
  9
$DIMLTYPE
  6

  9
$DIMLTEX1
  6

  9
$DIMLTEX2
  6

  9
$DIMTXTDIRECTION
 70
     0
  9
$LUNITS
 70
     2
  9
$LUPREC
 70
     4
  9
$SKETCHINC
 40
1.0
  9
$FILLETRAD
 40
10.0
  9
$AUNITS
 70
     0
  9
$AUPREC
 70
     0
  9
$MENU
  1
.
  9
$ELEVATION
 40
0.0
  9
$PELEVATION
 40
0.0
  9
$THICKNESS
 40
0.0
  9
$LIMCHECK
 70
     0
  9
$CHAMFERA
 40
10.0
  9
$CHAMFERB
 40
10.0
  9
$CHAMFERC
 40
20.0
  9
$CHAMFERD
 40
0.0
  9
$SKPOLY
 70
     0
  9
$TDCREATE
 40
2457953.400883484
  9
$TDUCREATE
 40
2457953.025883484
  9
$TDUPDATE
 40
2457953.400883495
  9
$TDUUPDATE
 40
2457953.025883495
  9
$TDINDWG
 40
0.0000000116
  9
$TDUSRTIMER
 40
0.0000000116
  9
$USRTIMER
 70
     1
  9
$ANGBASE
 50
0.0
  9
$ANGDIR
 70
     0
  9
$PDMODE
 70
     0
  9
$PDSIZE
 40
0.0
  9
$PLINEWID
 40
0.0
  9
$SPLFRAME
 70
     0
  9
$SPLINETYPE
 70
     6
  9
$SPLINESEGS
 70
     8
  9
$HANDSEED
  5
397
  9
$SURFTAB1
 70
     6
  9
$SURFTAB2
 70
     6
  9
$SURFTYPE
 70
     6
  9
$SURFU
 70
     6
  9
$SURFV
 70
     6
  9
$UCSBASE
  2

  9
$UCSNAME
  2

  9
$UCSORG
 10
0.0
 20
0.0
 30
0.0
  9
$UCSXDIR
 10
1.0
 20
0.0
 30
0.0
  9
$UCSYDIR
 10
0.0
 20
1.0
 30
0.0
  9
$UCSORTHOREF
  2

  9
$UCSORTHOVIEW
 70
     0
  9
$UCSORGTOP
 10
0.0
 20
0.0
 30
0.0
  9
$UCSORGBOTTOM
 10
0.0
 20
0.0
 30
0.0
  9
$UCSORGLEFT
 10
0.0
 20
0.0
 30
0.0
  9
$UCSORGRIGHT
 10
0.0
 20
0.0
 30
0.0
  9
$UCSORGFRONT
 10
0.0
 20
0.0
 30
0.0
  9
$UCSORGBACK
 10
0.0
 20
0.0
 30
0.0
  9
$PUCSBASE
  2

  9
$PUCSNAME
  2

  9
$PUCSORG
 10
0.0
 20
0.0
 30
0.0
  9
$PUCSXDIR
 10
1.0
 20
0.0
 30
0.0
  9
$PUCSYDIR
 10
0.0
 20
1.0
 30
0.0
  9
$PUCSORTHOREF
  2

  9
$PUCSORTHOVIEW
 70
     0
  9
$PUCSORGTOP
 10
0.0
 20
0.0
 30
0.0
  9
$PUCSORGBOTTOM
 10
0.0
 20
0.0
 30
0.0
  9
$PUCSORGLEFT
 10
0.0
 20
0.0
 30
0.0
  9
$PUCSORGRIGHT
 10
0.0
 20
0.0
 30
0.0
  9
$PUCSORGFRONT
 10
0.0
 20
0.0
 30
0.0
  9
$PUCSORGBACK
 10
0.0
 20
0.0
 30
0.0
  9
$USERI1
 70
     0
  9
$USERI2
 70
     0
  9
$USERI3
 70
     0
  9
$USERI4
 70
     0
  9
$USERI5
 70
     0
  9
$USERR1
 40
0.0
  9
$USERR2
 40
0.0
  9
$USERR3
 40
0.0
  9
$USERR4
 40
0.0
  9
$USERR5
 40
0.0
  9
$WORLDVIEW
 70
     1
  9
$SHADEDGE
 70
     3
  9
$SHADEDIF
 70
    70
  9
$TILEMODE
 70
     1
  9
$MAXACTVP
 70
    64
  9
$PINSBASE
 10
0.0
 20
0.0
 30
0.0
  9
$PLIMCHECK
 70
     0
  9
$PEXTMIN
 10
1.000000000000000E+20
 20
1.000000000000000E+20
 30
1.000000000000000E+20
  9
$PEXTMAX
 10
-1.000000000000000E+20
 20
-1.000000000000000E+20
 30
-1.000000000000000E+20
  9
$PLIMMIN
 10
0.0
 20
0.0
  9
$PLIMMAX
 10
420.0
 20
297.0
  9
$UNITMODE
 70
     0
  9
$VISRETAIN
 70
     1
  9
$PLINEGEN
 70
     0
  9
$PSLTSCALE
 70
     1
  9
$TREEDEPTH
 70
  3020
  9
$CMLSTYLE
  2
Standard
  9
$CMLJUST
 70
     0
  9
$CMLSCALE
 40
20.0
  9
$PROXYGRAPHICS
 70
     1
  9
$MEASUREMENT
 70
     1
  9
$CELWEIGHT
370
    -1
  9
$ENDCAPS
280
     0
  9
$JOINSTYLE
280
     0
  9
$LWDISPLAY
290
     0
  9
$INSUNITS
 70
     4
  9
$HYPERLINKBASE
  1

  9
$STYLESHEET
  1

  9
$XEDIT
290
     1
  9
$CEPSNTYPE
380
     0
  9
$PSTYLEMODE
290
     1
  9
$FINGERPRINTGUID
  2
{715B1114-8906-4FB9-BBE2-1DEC45DB143F}
  9
$VERSIONGUID
  2
{FAEB1C32-E019-11D5-929B-00C0DF256EC4}
  9
$EXTNAMES
290
     1
  9
$PSVPSCALE
 40
0.0
  9
$OLESTARTUP
290
     0
  9
$SORTENTS
280
   127
  9
$INDEXCTL
280
     0
  9
$HIDETEXT
280
     1
  9
$XCLIPFRAME
280
     2
  9
$HALOGAP
280
     0
  9
$OBSCOLOR
 70
   257
  9
$OBSLTYPE
280
     0
  9
$INTERSECTIONDISPLAY
280
     0
  9
$INTERSECTIONCOLOR
 70
   257
  9
$DIMASSOC
280
     2
  9
$PROJECTNAME
  1

  9
$CAMERADISPLAY
290
     0
  9
$LENSLENGTH
 40
50.0
  9
$CAMERAHEIGHT
 40
0.0
  9
$STEPSPERSEC
 40
2.0
  9
$STEPSIZE
 40
6.0
  9
$3DDWFPREC
 40
2.0
  9
$PSOLWIDTH
 40
5.0
  9
$PSOLHEIGHT
 40
80.0
  9
$LOFTANG1
 40
1.570796326794897
  9
$LOFTANG2
 40
1.570796326794897
  9
$LOFTMAG1
 40
0.0
  9
$LOFTMAG2
 40
0.0
  9
$LOFTPARAM
 70
     7
  9
$LOFTNORMALS
280
     1
  9
$LATITUDE
 40
37.795
  9
$LONGITUDE
 40
-122.394
  9
$NORTHDIRECTION
 40
0.0
  9
$TIMEZONE
 70
 -8000
  9
$LIGHTGLYPHDISPLAY
280
     1
  9
$TILEMODELIGHTSYNCH
280
     1
  9
$SOLIDHIST
280
     1
  9
$SHOWHIST
280
     1
  9
$DWFFRAME
280
     2
  9
$DGNFRAME
280
     2
  9
$REALWORLDSCALE
290
     1
  9
$INTERFERECOLOR
 62
   256
  9
$CSHADOW
280
     0
  9
$SHADOWPLANELOCATION
 40
0.0
  0
ENDSEC
  0
SECTION
  2
CLASSES
  0
CLASS
  1
ACDBDICTIONARYWDFLT
  2
AcDbDictionaryWithDefault
  3
ObjectDBX Classes
 90
        0
 91
        4
280
     0
281
     0
  0
CLASS
  1
VISUALSTYLE
  2
AcDbVisualStyle
  3
ObjectDBX Classes
 90
     4095
 91
        4
280
     0
281
     0
  0
CLASS
  1
MATERIAL
  2
AcDbMaterial
  3
ObjectDBX Classes
 90
     1153
 91
        4
280
     0
281
     0
  0
ENDSEC
  0
SECTION
  2
TABLES
  0
TABLE
  2
VPORT
  5
8
330
0
100
AcDbSymbolTable
 70
     1
  0
VPORT
  5
29
330
8
100
AcDbSymbolTableRecord
100
AcDbViewportTableRecord
  2
*Active
 70
     0
 10
0.0
 20
0.0
 11
1.0
 21
1.0
 12
0.0
 22
0.0
 13
0.0
 23
0.0
 14
10.0
 24
10.0
 15
10.0
 25
10.0
 16
0.0
 26
0.0
 36
1.0
 17
0.0
 27
0.0
 37
0.0
 40
6930.000000000001
 41
1.414285714285714
 42
50.0
 43
0.0
 44
0.0
 50
0.0
 51
0.0
 71
     0
 72
 10000
 73
     1
 74
     3
 75
     0
 76
     0
 77
     0
 78
     0
281
     0
 65
     1
110
0.0
120
0.0
130
0.0
111
1.0
121
0.0
131
0.0
112
0.0
122
1.0
132
0.0
 79
     0
146
0.0
 60
     3
 61
     5
292
     1
282
     1
141
0.0
142
0.0
 63
   250
  0
ENDTAB
  0
TABLE
  2
LTYPE
  5
5
330
0
100
AcDbSymbolTable
 70
     2
  0
LTYPE
  5
14
330
5
100
AcDbSymbolTableRecord
100
AcDbLinetypeTableRecord
  2
ByBlock
 70
     0
  3

 72
    65
 73
     0
 40
0.0
  0
LTYPE
  5
15
330
5
100
AcDbSymbolTableRecord
100
AcDbLinetypeTableRecord
  2
ByLayer
 70
     0
  3

 72
    65
 73
     0
 40
0.0
  0
LTYPE
  5
16
330
5
100
AcDbSymbolTableRecord
100
AcDbLinetypeTableRecord
  2
Continuous
 70
     0
  3
Solid line
 72
    65
 73
     0
 40
0.0
  0
LTYPE
  5
3F
330
5
100
AcDbSymbolTableRecord
100
AcDbLinetypeTableRecord
  2
JWW_DASHED1
 70
     0
  3
-  --  --  --  --  --  --  --  -
 72
    65
 73
     2
 40
1.693333333333333
 49
0.8466666666666667
 74
     0
 49
-0.8466666666666667
 74
     0
  0
ENDTAB
  0
TABLE
  2
LAYER
  5
2
330
0
100
AcDbSymbolTable
 70
     3
  0
LAYER
  5
10
330
2
100
AcDbSymbolTableRecord
100
AcDbLayerTableRecord
  2
0
 70
     0
 62
     7
  6
Continuous
370
    -3
390
F
347
3E
  0
LAYER
  5
40
330
2
100
AcDbSymbolTableRecord
100
AcDbLayerTableRecord
  2
0-0
 70
     0
 62
     7
  6
Continuous
370
    -3
390
F
347
3E
  0
LAYER
  5
41
330
2
100
AcDbSymbolTableRecord
100
AcDbLayerTableRecord
  2
寸法
 70
     0
 62
     7
  6
Continuous
370
    -3
390
F
347
3E
  0
ENDTAB
  0
TABLE
  2
STYLE
  5
3
330
0
100
AcDbSymbolTable
 70
     1
  0
STYLE
  5
11
330
3
100
AcDbSymbolTableRecord
100
AcDbTextStyleTableRecord
  2
Standard
 70
     0
 40
0.0
 41
1.0
 50
0.0
 71
     0
 42
2.5
  3
txt
  4

  0
ENDTAB
  0
TABLE
  2
VIEW
  5
6
330
0
100
AcDbSymbolTable
 70
     0
  0
ENDTAB
  0
TABLE
  2
UCS
  5
7
330
0
100
AcDbSymbolTable
 70
     0
  0
ENDTAB
  0
TABLE
  2
APPID
  5
9
330
0
100
AcDbSymbolTable
 70
     1
  0
APPID
  5
12
330
9
100
AcDbSymbolTableRecord
100
AcDbRegAppTableRecord
  2
ACAD
 70
     0
  0
ENDTAB
  0
TABLE
  2
DIMSTYLE
  5
A
330
0
100
AcDbSymbolTable
 70
     1
100
AcDbDimStyleTable
  0
DIMSTYLE
105
27
330
A
100
AcDbSymbolTableRecord
100
AcDbDimStyleTableRecord
  2
ISO-25
 70
     0
 41
2.5
 42
0.625
 43
3.75
 44
1.25
 73
     0
 74
     0
 77
     1
 78
     8
140
2.5
141
2.5
143
0.03937007874016
147
0.625
171
     3
172
     1
178
     0
271
     2
272
     2
274
     3
278
    44
283
     0
284
     8
340
11
  0
ENDTAB
  0
TABLE
  2
BLOCK_RECORD
  5
1
330
0
100
AcDbSymbolTable
 70
     1
  0
BLOCK_RECORD
  5
1F
330
1
100
AcDbSymbolTableRecord
100
AcDbBlockTableRecord
  2
*Model_Space
340
22
 70
     0
280
     1
281
     0
  0
BLOCK_RECORD
  5
1B
330
1
100
AcDbSymbolTableRecord
100
AcDbBlockTableRecord
  2
*Paper_Space
340
1E
 70
     0
280
     1
281
     0
  0
BLOCK_RECORD
  5
23
330
1
100
AcDbSymbolTableRecord
100
AcDbBlockTableRecord
  2
*Paper_Space0
340
26
 70
     0
280
     1
281
     0
  0
ENDTAB
  0
ENDSEC
  0
SECTION
  2
BLOCKS
  0
BLOCK
  5
20
330
1F
100
AcDbEntity
  8
0
100
AcDbBlockBegin
  2
*Model_Space
 70
     0
 10
0.0
 20
0.0
 30
0.0
  3
*Model_Space
  1

  0
ENDBLK
  5
21
330
1F
100
AcDbEntity
  8
0
100
AcDbBlockEnd
  0
BLOCK
  5
1C
330
1B
100
AcDbEntity
 67
     1
  8
0
100
AcDbBlockBegin
  2
*Paper_Space
 70
     0
 10
0.0
 20
0.0
 30
0.0
  3
*Paper_Space
  1

  0
ENDBLK
  5
1D
330
1B
100
AcDbEntity
 67
     1
  8
0
100
AcDbBlockEnd
  0
BLOCK
  5
24
330
23
100
AcDbEntity
  8
0
100
AcDbBlockBegin
  2
*Paper_Space0
 70
     0
 10
0.0
 20
0.0
 30
0.0
  3
*Paper_Space0
  1

  0
ENDBLK
  5
25
330
23
100
AcDbEntity
  8
0
100
AcDbBlockEnd
  0
ENDSEC
  0
SECTION
  2
ENTITIES
  0
ARC
  5
42
330
1F
100
AcDbEntity
  8
0-0
  6
Continuous
 62
    92
370
    13
100
AcDbCircle
 10
-1118.122749125964
 20
-44.56077764747484
 30
0.0
 40
1.5
100
AcDbArc
 50
90.0
 51
180.0
  0
LINE
  5
43
330
1F
100
AcDbEntity
  8
0-0
  6
Continuous
 62
    92
370
    13
100
AcDbLine
 10
-1079.122749125966
 20
-43.06077764747492
 30
0.0
 11
-1118.122749125964
 21
-43.06077764747492
 31
0.0
  0
ARC
  5
44
330
1F
100
AcDbEntity
  8
0-0
  6
Continuous
 62
    92
370
    13
100
AcDbCircle
 10
-1079.122749125966
 20
-44.56077764747484
 30
0.0
 40
1.5
100
AcDbArc
 50
0.0
 51
90.00000000000001
  0
LINE
  5
45
330
1F
100
AcDbEntity
  8
0-0
  6
Continuous
 62
    92
370
    13
100
AcDbLine
 10
-1077.622749125965
 20
-163.5607776474753
 30
0.0
 11
-1077.622749125965
 21
-44.56077764747484
 31
0.0
  0
ARC
  5
46
330
1F
100
AcDbEntity
  8
0-0
  6
Continuous
 62
    92
370
    13
100
AcDbCircle
 10
-1079.122749125966
 20
-163.5607776474753
 30
0.0
 40
1.5
100
AcDbArc
 50
270.0
 51
0.0
  0
LINE
  5
47
330
1F
100
AcDbEntity
  8
0-0
  6
Continuous
 62
    92
370
    13
100
AcDbLine
 10
-1118.122749125964
 20
-165.0607776474748
 30
0.0
 11
-1079.122749125966
 21
-165.0607776474748
 31
0.0
  0
LINE
  5
48
330
1F
100
AcDbEntity
  8
0-0
  6
Continuous
 62
    92
370
    13
100
AcDbLine
 10
-1119.622749125965
 20
-163.5607776474753
 30
0.0
 11
-1119.622749125965
 21
-44.56077764747484
 31
0.0
  0
ARC
  5
49
330
1F
100
AcDbEntity
  8
0-0
  6
Continuous
 62
    92
370
    13
100
AcDbCircle
 10
-1118.122749125964
 20
-163.5607776474753
 30
0.0
 40
1.5
100
AcDbArc
 50
180.0
 51
270.0
  0
ARC
  5
4A
330
1F
100
AcDbEntity
  8
0-0
  6
Continuous
 62
     7
370
     9
100
AcDbCircle
 10
-1098.622749125965
 20
-133.6607776474752
 30
0.0
 40
15.0
100
AcDbArc
 50
180.0
 51
0.0
  0
ARC
  5
4B
330
1F
100
AcDbEntity
  8
0-0
  6
Continuous
 62
     7
370
     9
100
AcDbCircle
 10
-1098.622749125965
 20
-74.46077764747493
 30
0.0
 40
15.0
100
AcDbArc
 50
0.0
 51
180.0
  0
LINE
  5
4C
330
1F
100
AcDbEntity
  8
0-0
  6
Continuous
 62
     7
370
     9
100
AcDbLine
 10
-1083.622749125965
 20
-133.6607776474752
 30
0.0
 11
-1083.622749125965
 21
-74.46077764747493
 31
0.0
  0
LINE
  5
4D
330
1F
100
AcDbEntity
  8
0-0
  6
Continuous
 62
     7
370
     9
100
AcDbLine
 10
-1113.622749125965
 20
-74.46077764747493
 30
0.0
 11
-1113.622749125965
 21
-133.6607776474752
 31
0.0
  0
ARC
  5
4E
330
1F
100
AcDbEntity
  8
0-0
  6
Continuous
 62
    92
370
    13
100
AcDbCircle
 10
-338.1227491259643
 20
-44.56077764747484
 30
0.0
 40
1.5
100
AcDbArc
 50
90.0
 51
180.0
  0
LINE
  5
4F
330
1F
100
AcDbEntity
  8
0-0
  6
Continuous
 62
    92
370
    13
100
AcDbLine
 10
-299.1227491259656
 20
-43.06077764747492
 30
0.0
 11
-338.1227491259643
 21
-43.06077764747492
 31
0.0
  0
ARC
  5
50
330
1F
100
AcDbEntity
  8
0-0
  6
Continuous
 62
    92
370
    13
100
AcDbCircle
 10
-299.1227491259656
 20
-44.56077764747484
 30
0.0
 40
1.5
100
AcDbArc
 50
0.0
 51
90.00000000000001
  0
LINE
  5
51
330
1F
100
AcDbEntity
  8
0-0
  6
Continuous
 62
    92
370
    13
100
AcDbLine
 10
-297.6227491259636
 20
-163.5607776474753
 30
0.0
 11
-297.6227491259636
 21
-44.56077764747484
 31
0.0
  0
ARC
  5
52
330
1F
100
AcDbEntity
  8
0-0
  6
Continuous
 62
    92
370
    13
100
AcDbCircle
 10
-299.1227491259656
 20
-163.5607776474753
 30
0.0
 40
1.5
100
AcDbArc
 50
270.0
 51
0.0
  0
LINE
  5
53
330
1F
100
AcDbEntity
  8
0-0
  6
Continuous
 62
    92
370
    13
100
AcDbLine
 10
-338.1227491259643
 20
-165.0607776474748
 30
0.0
 11
-299.1227491259656
 21
-165.0607776474748
 31
0.0
  0
LINE
  5
54
330
1F
100
AcDbEntity
  8
0-0
  6
Continuous
 62
    92
370
    13
100
AcDbLine
 10
-339.6227491259646
 20
-163.5607776474753
 30
0.0
 11
-339.6227491259646
 21
-44.56077764747484
 31
0.0
  0
ARC
  5
55
330
1F
100
AcDbEntity
  8
0-0
  6
Continuous
 62
    92
370
    13
100
AcDbCircle
 10
-338.1227491259643
 20
-163.5607776474753
 30
0.0
 40
1.5
100
AcDbArc
 50
180.0
 51
270.0
  0
ARC
  5
56
330
1F
100
AcDbEntity
  8
0-0
  6
Continuous
 62
     7
370
     9
100
AcDbCircle
 10
-318.622749125965
 20
-133.6607776474752
 30
0.0
 40
15.0
100
AcDbArc
 50
180.0
 51
0.0
  0
ARC
  5
57
330
1F
100
AcDbEntity
  8
0-0
  6
Continuous
 62
     7
370
     9
100
AcDbCircle
 10
-318.622749125965
 20
-74.46077764747493
 30
0.0
 40
15.0
100
AcDbArc
 50
0.0
 51
180.0
  0
LINE
  5
58
330
1F
100
AcDbEntity
  8
0-0
  6
Continuous
 62
     7
370
     9
100
AcDbLine
 10
-303.622749125965
 20
-133.6607776474752
 30
0.0
 11
-303.622749125965
 21
-74.46077764747493
 31
0.0
  0
LINE
  5
59
330
1F
100
AcDbEntity
  8
0-0
  6
Continuous
 62
     7
370
     9
100
AcDbLine
 10
-333.622749125965
 20
-74.46077764747493
 30
0.0
 11
-333.622749125965
 21
-133.6607776474752
 31
0.0
  0
ARC
  5
5A
330
1F
100
AcDbEntity
  8
0-0
  6
Continuous
 62
    92
370
    13
100
AcDbCircle
 10
441.8772508740357
 20
-44.56077764747484
 30
0.0
 40
1.5
100
AcDbArc
 50
90.0
 51
180.0
  0
LINE
  5
5B
330
1F
100
AcDbEntity
  8
0-0
  6
Continuous
 62
    92
370
    13
100
AcDbLine
 10
480.8772508740344
 20
-43.06077764747492
 30
0.0
 11
441.8772508740357
 21
-43.06077764747492
 31
0.0
  0
ARC
  5
5C
330
1F
100
AcDbEntity
  8
0-0
  6
Continuous
 62
    92
370
    13
100
AcDbCircle
 10
480.8772508740344
 20
-44.56077764747484
 30
0.0
 40
1.5
100
AcDbArc
 50
0.0
 51
90.00000000000001
  0
LINE
  5
5D
330
1F
100
AcDbEntity
  8
0-0
  6
Continuous
 62
    92
370
    13
100
AcDbLine
 10
482.3772508740365
 20
-163.5607776474753
 30
0.0
 11
482.3772508740365
 21
-44.56077764747484
 31
0.0
  0
ARC
  5
5E
330
1F
100
AcDbEntity
  8
0-0
  6
Continuous
 62
    92
370
    13
100
AcDbCircle
 10
480.8772508740344
 20
-163.5607776474753
 30
0.0
 40
1.5
100
AcDbArc
 50
270.0
 51
0.0
  0
LINE
  5
5F
330
1F
100
AcDbEntity
  8
0-0
  6
Continuous
 62
    92
370
    13
100
AcDbLine
 10
441.8772508740357
 20
-165.0607776474748
 30
0.0
 11
480.8772508740344
 21
-165.0607776474748
 31
0.0
  0
LINE
  5
60
330
1F
100
AcDbEntity
  8
0-0
  6
Continuous
 62
    92
370
    13
100
AcDbLine
 10
440.3772508740354
 20
-163.5607776474753
 30
0.0
 11
440.3772508740354
 21
-44.56077764747484
 31
0.0
  0
ARC
  5
61
330
1F
100
AcDbEntity
  8
0-0
  6
Continuous
 62
    92
370
    13
100
AcDbCircle
 10
441.8772508740357
 20
-163.5607776474753
 30
0.0
 40
1.5
100
AcDbArc
 50
180.0
 51
270.0
  0
ARC
  5
62
330
1F
100
AcDbEntity
  8
0-0
  6
Continuous
 62
     7
370
     9
100
AcDbCircle
 10
461.377250874035
 20
-133.6607776474752
 30
0.0
 40
15.0
100
AcDbArc
 50
180.0
 51
0.0
  0
ARC
  5
63
330
1F
100
AcDbEntity
  8
0-0
  6
Continuous
 62
     7
370
     9
100
AcDbCircle
 10
461.377250874035
 20
-74.46077764747493
 30
0.0
 40
15.0
100
AcDbArc
 50
0.0
 51
180.0
  0
LINE
  5
64
330
1F
100
AcDbEntity
  8
0-0
  6
Continuous
 62
     7
370
     9
100
AcDbLine
 10
476.377250874035
 20
-133.6607776474752
 30
0.0
 11
476.377250874035
 21
-74.46077764747493
 31
0.0
  0
LINE
  5
65
330
1F
100
AcDbEntity
  8
0-0
  6
Continuous
 62
     7
370
     9
100
AcDbLine
 10
446.377250874035
 20
-74.46077764747493
 30
0.0
 11
446.377250874035
 21
-133.6607776474752
 31
0.0
  0
LINE
  5
66
330
1F
100
AcDbEntity
  8
0-0
  6
Continuous
 62
    92
370
    13
100
AcDbLine
 10
-1146.622749125966
 20
1121.439222352524
 30
0.0
 11
1220.377250874035
 21
1121.439222352524
 31
0.0
  0
LINE
  5
67
330
1F
100
AcDbEntity
  8
0-0
  6
Continuous
 62
    92
370
    13
100
AcDbLine
 10
-1146.622749125966
 20
1129.439222352524
 30
0.0
 11
2000.377250874035
 21
1129.439222352524
 31
0.0
  0
LINE
  5
68
330
1F
100
AcDbEntity
  8
0-0
  6
Continuous
 62
    92
370
    13
100
AcDbLine
 10
-1176.622749125966
 20
1165.439222352523
 30
0.0
 11
2030.377250874035
 21
1165.439222352523
 31
0.0
  0
LINE
  5
69
330
1F
100
AcDbEntity
  8
0-0
  6
JWW_DASHED1
 62
   120
370
     5
100
AcDbLine
 10
-1149.622749125966
 20
1121.439222352524
 30
0.0
 11
-1146.622749125966
 21
1121.439222352524
 31
0.0
  0
LINE
  5
6A
330
1F
100
AcDbEntity
  8
0-0
  6
Continuous
 62
    92
370
    13
100
AcDbLine
 10
-1039.622749125967
 20
986.4392223525239
 30
0.0
 11
-449.6227491259652
 21
986.4392223525239
 31
0.0
  0
LINE
  5
6B
330
1F
100
AcDbEntity
  8
0-0
  6
Continuous
 62
    92
370
    13
100
AcDbLine
 10
-259.6227491259675
 20
986.4392223525239
 30
0.0
 11
330.3772508740348
 21
986.4392223525239
 31
0.0
  0
LINE
  5
6C
330
1F
100
AcDbEntity
  8
0-0
  6
Continuous
 62
    92
370
    13
100
AcDbLine
 10
520.3772508740326
 20
986.4392223525239
 30
0.0
 11
1110.377250874035
 21
986.4392223525239
 31
0.0
  0
LINE
  5
6D
330
1F
100
AcDbEntity
  8
0-0
  6
JWW_DASHED1
 62
   120
370
     5
100
AcDbLine
 10
-1039.622749125964
 20
-13.38814515469615
 30
0.0
 11
-449.6227491259737
 21
-603.3881451546865
 31
0.0
  0
LINE
  5
6E
330
1F
100
AcDbEntity
  8
0-0
  6
JWW_DASHED1
 62
   120
370
     5
100
AcDbLine
 10
-1039.622749125956
 20
-3.488650219488321
 30
0.0
 11
-449.6227491259652
 21
-593.488650219479
 31
0.0
  0
LINE
  5
6F
330
1F
100
AcDbEntity
  8
0-0
  6
JWW_DASHED1
 62
   120
370
     5
100
AcDbLine
 10
-1039.62274912596
 20
6.4108447156773
 30
0.0
 11
-449.6227491259686
 21
-583.5891552843135
 31
0.0
  0
LINE
  5
70
330
1F
100
AcDbEntity
  8
0-0
  6
JWW_DASHED1
 62
   120
370
     5
100
AcDbLine
 10
-1039.622749125966
 20
16.3103396509009
 30
0.0
 11
-449.6227491259754
 21
-573.6896603490903
 31
0.0
  0
LINE
  5
71
330
1F
100
AcDbEntity
  8
0-0
  6
JWW_DASHED1
 62
   120
370
     5
100
AcDbLine
 10
-1039.622749125958
 20
26.20983458610873
 30
0.0
 11
-449.6227491259669
 21
-563.790165413882
 31
0.0
  0
LINE
  5
72
330
1F
100
AcDbEntity
  8
0-0
  6
JWW_DASHED1
 62
   120
370
     5
100
AcDbLine
 10
-1039.622749125961
 20
36.10932952127392
 30
0.0
 11
-449.6227491259712
 21
-553.8906704787164
 31
0.0
  0
LINE
  5
73
330
1F
100
AcDbEntity
  8
0-0
  6
JWW_DASHED1
 62
   120
370
     5
100
AcDbLine
 10
-1039.622749125969
 20
46.00882445649795
 30
0.0
 11
-449.6227491259618
 21
-543.991175543509
 31
0.0
  0
LINE
  5
74
330
1F
100
AcDbEntity
  8
0-0
  6
JWW_DASHED1
 62
   120
370
     5
100
AcDbLine
 10
-1039.622749125961
 20
55.90831939170577
 30
0.0
 11
-449.6227491259703
 21
-534.091680608285
 31
0.0
  0
LINE
  5
75
330
1F
100
AcDbEntity
  8
0-0
  6
JWW_DASHED1
 62
   120
370
     5
100
AcDbLine
 10
-1039.622749125956
 20
65.80781432686244
 30
0.0
 11
-449.6227491259703
 21
-524.1921856731232
 31
0.0
  0
LINE
  5
76
330
1F
100
AcDbEntity
  8
0-0
  6
JWW_DASHED1
 62
   120
370
     5
100
AcDbLine
 10
-1039.622749125972
 20
75.707309262095
 30
0.0
 11
-449.6227491259652
 21
-514.2926907379119
 31
0.0
  0
LINE
  5
77
330
1F
100
AcDbEntity
  8
0-0
  6
JWW_DASHED1
 62
   120
370
     5
100
AcDbLine
 10
-1039.622749125963
 20
85.60680419730282
 30
0.0
 11
-449.622749125972
 21
-504.393195802688
 31
0.0
  0
LINE
  5
78
330
1F
100
AcDbEntity
  8
0-0
  6
JWW_DASHED1
 62
   120
370
     5
100
AcDbLine
 10
-1039.622749125957
 20
95.50629913245906
 30
0.0
 11
-449.622749125972
 21
-494.4937008675266
 31
0.0
  0
LINE
  5
79
330
1F
100
AcDbEntity
  8
0-0
  6
JWW_DASHED1
 62
   120
370
     5
100
AcDbLine
 10
-1039.622749125974
 20
105.405794067692
 30
0.0
 11
-449.6227491259677
 21
-484.5942059323149
 31
0.0
  0
LINE
  5
7A
330
1F
100
AcDbEntity
  8
0-0
  6
JWW_DASHED1
 62
   120
370
     5
100
AcDbLine
 10
-1039.622749125966
 20
115.3052890028999
 30
0.0
 11
-449.6227491259746
 21
-474.6947109970913
 31
0.0
  0
LINE
  5
7B
330
1F
100
AcDbEntity
  8
0-0
  6
JWW_DASHED1
 62
   120
370
     5
100
AcDbLine
 10
-1039.622749125961
 20
125.2047839380561
 30
0.0
 11
-449.6227491259746
 21
-464.7952160619295
 31
0.0
  0
LINE
  5
7C
330
1F
100
AcDbEntity
  8
0-0
  6
JWW_DASHED1
 62
   120
370
     5
100
AcDbLine
 10
-1039.622749125961
 20
135.1042788732733
 30
0.0
 11
-449.6227491259703
 21
-454.8957211267179
 31
0.0
  0
LINE
  5
7D
330
1F
100
AcDbEntity
  8
0-0
  6
JWW_DASHED1
 62
   120
370
     5
100
AcDbLine
 10
-1039.622749125968
 20
145.0037738084969
 30
0.0
 11
-449.6227491259618
 21
-444.9962261915101
 31
0.0
  0
LINE
  5
7E
330
1F
100
AcDbEntity
  8
0-0
  6
JWW_DASHED1
 62
   120
370
     5
100
AcDbLine
 10
-1039.622749125956
 20
154.9032687436459
 30
0.0
 11
-449.6227491259652
 21
-435.0967312563444
 31
0.0
  0
LINE
  5
7F
330
1F
100
AcDbEntity
  8
0-0
  6
JWW_DASHED1
 62
   120
370
     5
100
AcDbLine
 10
-1039.622749125954
 20
164.802763678861
 30
0.0
 11
-449.6227491259677
 21
-425.1972363211255
 31
0.0
  0
LINE
  5
80
330
1F
100
AcDbEntity
  8
0-0
  6
JWW_DASHED1
 62
   120
370
     5
100
AcDbLine
 10
-1039.622749125966
 20
174.7022586140351
 30
0.0
 11
-449.6227491259754
 21
-415.297741385956
 31
0.0
  0
LINE
  5
81
330
1F
100
AcDbEntity
  8
0-0
  6
JWW_DASHED1
 62
   120
370
     5
100
AcDbLine
 10
-1039.622749125958
 20
184.601753549243
 30
0.0
 11
-449.6227491259677
 21
-405.3982464507474
 31
0.0
  0
LINE
  5
82
330
1F
100
AcDbEntity
  8
0-0
  6
JWW_DASHED1
 62
   120
370
     5
100
AcDbLine
 10
-1039.622749125957
 20
194.501248484458
 30
0.0
 11
-449.6227491259703
 21
-395.4987515155285
 31
0.0
  0
LINE
  5
83
330
1F
100
AcDbEntity
  8
0-0
  6
JWW_DASHED1
 62
   120
370
     5
100
AcDbLine
 10
-1039.622749125969
 20
204.4007434196322
 30
0.0
 11
-449.6227491259626
 21
-385.5992565803743
 31
0.0
  0
LINE
  5
84
330
1F
100
AcDbEntity
  8
0-0
  6
JWW_DASHED1
 62
   120
370
     5
100
AcDbLine
 10
-1039.622749125961
 20
214.30023835484
 30
0.0
 11
-449.6227491259694
 21
-375.6997616451512
 31
0.0
  0
LINE
  5
85
330
1F
100
AcDbEntity
  8
0-0
  6
JWW_DASHED1
 62
   120
370
     5
100
AcDbLine
 10
-1039.622749125959
 20
224.1997332900542
 30
0.0
 11
-449.6227491259729
 21
-365.8002667099314
 31
0.0
  0
LINE
  5
86
330
1F
100
AcDbEntity
  8
0-0
  6
JWW_DASHED1
 62
   120
370
     5
100
AcDbLine
 10
-1039.622749125971
 20
234.0992282252288
 30
0.0
 11
-449.6227491259652
 21
-355.9007717747773
 31
0.0
  0
LINE
  5
87
330
1F
100
AcDbEntity
  8
0-0
  6
JWW_DASHED1
 62
   120
370
     5
100
AcDbLine
 10
-1039.622749125963
 20
243.9987231604371
 30
0.0
 11
-449.622749125972
 21
-346.0012768395541
 31
0.0
  0
LINE
  5
88
330
1F
100
AcDbEntity
  8
0-0
  6
JWW_DASHED1
 62
   120
370
     5
100
AcDbLine
 10
-1039.622749125955
 20
253.8982180956449
 30
0.0
 11
-449.6227491259635
 21
-336.1017819043463
 31
0.0
  0
LINE
  5
89
330
1F
100
AcDbEntity
  8
0-0
  6
JWW_DASHED1
 62
   120
370
     5
100
AcDbLine
 10
-1039.622749125974
 20
263.7977130308258
 30
0.0
 11
-449.6227491259669
 21
-326.2022869691811
 31
0.0
  0
LINE
  5
8A
330
1F
100
AcDbEntity
  8
0-0
  6
JWW_DASHED1
 62
   120
370
     5
100
AcDbLine
 10
-1039.622749125966
 20
273.6972079660337
 30
0.0
 11
-449.6227491259746
 21
-316.3027920339571
 31
0.0
  0
LINE
  5
8B
330
1F
100
AcDbEntity
  8
0-0
  6
JWW_DASHED1
 62
   120
370
     5
100
AcDbLine
 10
-1039.622749125957
 20
283.5967029012419
 30
0.0
 11
-449.6227491259669
 21
-306.4032970987489
 31
0.0
  0
LINE
  5
8C
330
1F
100
AcDbEntity
  8
0-0
  6
JWW_DASHED1
 62
   120
370
     5
100
AcDbLine
 10
-1039.622749125961
 20
293.4961978364071
 30
0.0
 11
-449.6227491259703
 21
-296.5038021635841
 31
0.0
  0
LINE
  5
8D
330
1F
100
AcDbEntity
  8
0-0
  6
JWW_DASHED1
 62
   120
370
     5
100
AcDbLine
 10
-1039.622749125968
 20
303.3956927716312
 30
0.0
 11
-449.6227491259771
 21
-286.60430722836
 31
0.0
  0
LINE
  5
8E
330
1F
100
AcDbEntity
  8
0-0
  6
JWW_DASHED1
 62
   120
370
     5
100
AcDbLine
 10
-1039.62274912596
 20
313.295187706839
 30
0.0
 11
-449.6227491259694
 21
-276.7048122931513
 31
0.0
  0
LINE
  5
8F
330
1F
100
AcDbEntity
  8
0-0
  6
JWW_DASHED1
 62
   120
370
     5
100
AcDbLine
 10
-1039.622749125953
 20
323.1946826419939
 30
0.0
 11
-449.6227491259669
 21
-266.8053173579921
 31
0.0
  0
LINE
  5
90
330
1F
100
AcDbEntity
  8
0-0
  6
JWW_DASHED1
 62
   120
370
     5
100
AcDbLine
 10
-1039.622749125971
 20
333.0941775772282
 30
0.0
 11
-449.6227491259643
 21
-256.9058224227783
 31
0.0
  0
LINE
  5
91
330
1F
100
AcDbEntity
  8
0-0
  6
JWW_DASHED1
 62
   120
370
     5
100
AcDbLine
 10
-1039.622749125962
 20
342.993672512436
 30
0.0
 11
-449.6227491259712
 21
-247.0063274875552
 31
0.0
  0
LINE
  5
92
330
1F
100
AcDbEntity
  8
0-0
  6
JWW_DASHED1
 62
   120
370
     5
100
AcDbLine
 10
-1039.622749125956
 20
352.8931674475905
 30
0.0
 11
-449.6227491259694
 21
-237.1068325523951
 31
0.0
  0
LINE
  5
93
330
1F
100
AcDbEntity
  8
0-0
  6
JWW_DASHED1
 62
   120
370
     5
100
AcDbLine
 10
-1039.622749125973
 20
362.7926623828253
 30
0.0
 11
-449.6227491259669
 21
-227.2073376171813
 31
0.0
  0
LINE
  5
94
330
1F
100
AcDbEntity
  8
0-0
  6
JWW_DASHED1
 62
   120
370
     5
100
AcDbLine
 10
-1039.622749125965
 20
372.6921573180331
 30
0.0
 11
-449.6227491259737
 21
-217.3078426819581
 31
0.0
  0
LINE
  5
95
330
1F
100
AcDbEntity
  8
0-0
  6
JWW_DASHED1
 62
   120
370
     5
100
AcDbLine
 10
-1039.622749125957
 20
382.5916522531867
 30
0.0
 11
-449.622749125972
 21
-207.4083477467989
 31
0.0
  0
LINE
  5
96
330
1F
100
AcDbEntity
  8
0-0
  6
JWW_DASHED1
 62
   120
370
     5
100
AcDbLine
 10
-1039.622749125976
 20
392.4911471884218
 30
0.0
 11
-449.6227491259694
 21
-197.5088528115842
 31
0.0
  0
LINE
  5
97
330
1F
100
AcDbEntity
  8
0-0
  6
JWW_DASHED1
 62
   120
370
     5
100
AcDbLine
 10
-1039.622749125967
 20
402.3906421236301
 30
0.0
 11
-449.6227491259763
 21
-187.6093578763611
 31
0.0
  0
LINE
  5
98
330
1F
100
AcDbEntity
  8
0-0
  6
JWW_DASHED1
 62
   120
370
     5
100
AcDbLine
 10
-1039.62274912596
 20
412.2901370587838
 30
0.0
 11
-449.6227491259737
 21
-177.7098629412023
 31
0.0
  0
LINE
  5
99
330
1F
100
AcDbEntity
  8
0-0
  6
JWW_DASHED1
 62
   120
370
     5
100
AcDbLine
 10
-1039.622749125962
 20
422.1896319940027
 30
0.0
 11
-449.6227491259712
 21
-167.810368005988
 31
0.0
  0
LINE
  5
9A
330
1F
100
AcDbEntity
  8
0-0
  6
JWW_DASHED1
 62
   120
370
     5
100
AcDbLine
 10
-1039.62274912597
 20
432.0891269292272
 30
0.0
 11
-449.6227491259635
 21
-157.9108730707798
 31
0.0
  0
LINE
  5
9B
330
1F
100
AcDbEntity
  8
0-0
  6
JWW_DASHED1
 62
   120
370
     5
100
AcDbLine
 10
-1039.622749125957
 20
441.9886218643762
 30
0.0
 11
-449.6227491259669
 21
-148.011378135615
 31
0.0
  0
LINE
  5
9C
330
1F
100
AcDbEntity
  8
0-0
  6
JWW_DASHED1
 62
   120
370
     5
100
AcDbLine
 10
-1039.622749125954
 20
451.8881167995887
 30
0.0
 11
-449.6227491259669
 21
-138.1118832003974
 31
0.0
  0
LINE
  5
9D
330
1F
100
AcDbEntity
  8
0-0
  6
JWW_DASHED1
 62
   120
370
     5
100
AcDbLine
 10
-1039.62274912597
 20
461.7876117347939
 30
0.0
 11
-449.6227491259788
 21
-128.2123882651964
 31
0.0
  0
LINE
  5
9E
330
1F
100
AcDbEntity
  8
0-0
  6
JWW_DASHED1
 62
   120
370
     5
100
AcDbLine
 10
-1039.622749125961
 20
471.6871066699732
 30
0.0
 11
-449.6227491259686
 21
-118.312893330018
 31
0.0
  0
LINE
  5
9F
330
1F
100
AcDbEntity
  8
0-0
  6
JWW_DASHED1
 62
   120
370
     5
100
AcDbLine
 10
-1039.622749125956
 20
481.5866016051857
 30
0.0
 11
-449.6227491259703
 21
-108.4133983948004
 31
0.0
  0
LINE
  5
A0
330
1F
100
AcDbEntity
  8
0-0
  6
JWW_DASHED1
 62
   120
370
     5
100
AcDbLine
 10
-1039.622749125971
 20
491.486096540362
 30
0.0
 11
-449.6227491259635
 21
-98.51390345964454
 31
0.0
  0
LINE
  5
A1
330
1F
100
AcDbEntity
  8
0-0
  6
JWW_DASHED1
 62
   120
370
     5
100
AcDbLine
 10
-1039.622749125962
 20
501.3855914755703
 30
0.0
 11
-449.622749125972
 21
-88.61440852442094
 31
0.0
  0
LINE
  5
A2
330
1F
100
AcDbEntity
  8
0-0
  6
JWW_DASHED1
 62
   120
370
     5
100
AcDbLine
 10
-1039.622749125957
 20
511.2850864107815
 30
0.0
 11
-449.622749125972
 21
-78.7149135892033
 31
0.0
  0
LINE
  5
A3
330
1F
100
AcDbEntity
  8
0-0
  6
JWW_DASHED1
 62
   120
370
     5
100
AcDbLine
 10
-1039.622749125972
 20
521.1845813459586
 30
0.0
 11
-449.6227491259669
 21
-68.81541865404749
 31
0.0
  0
LINE
  5
A4
330
1F
100
AcDbEntity
  8
0-0
  6
JWW_DASHED1
 62
   120
370
     5
100
AcDbLine
 10
-1039.622749125966
 20
531.0840762811673
 30
0.0
 11
-449.6227491259737
 21
-58.91592371882346
 31
0.0
  0
LINE
  5
A5
330
1F
100
AcDbEntity
  8
0-0
  6
JWW_DASHED1
 62
   120
370
     5
100
AcDbLine
 10
-1039.622749125956
 20
540.9835712163751
 30
0.0
 11
-449.6227491259652
 21
-49.01642878361606
 31
0.0
  0
LINE
  5
A6
330
1F
100
AcDbEntity
  8
0-0
  6
JWW_DASHED1
 62
   120
370
     5
100
AcDbLine
 10
-1039.622749125975
 20
550.8830661515557
 30
0.0
 11
-449.6227491259686
 21
-39.11693384845044
 31
0.0
  0
LINE
  5
A7
330
1F
100
AcDbEntity
  8
0-0
  6
JWW_DASHED1
 62
   120
370
     5
100
AcDbLine
 10
-1039.622749125967
 20
560.782561086764
 30
0.0
 11
-449.6227491259771
 21
-29.21743891322642
 31
0.0
  0
LINE
  5
A8
330
1F
100
AcDbEntity
  8
0-0
  6
JWW_DASHED1
 62
   120
370
     5
100
AcDbLine
 10
-1039.622749125959
 20
570.6820560219718
 30
0.0
 11
-449.6227491259677
 21
-19.31794397801902
 31
0.0
  0
LINE
  5
A9
330
1F
100
AcDbEntity
  8
0-0
  6
JWW_DASHED1
 62
   120
370
     5
100
AcDbLine
 10
-1039.622749125962
 20
580.581550957137
 30
0.0
 11
-449.6227491259703
 21
-9.418449042854249
 31
0.0
  0
LINE
  5
AA
330
1F
100
AcDbEntity
  8
0-0
  6
JWW_DASHED1
 62
   120
370
     5
100
AcDbLine
 10
-1039.62274912597
 20
590.481045892361
 30
0.0
 11
-449.6227491259635
 21
0.4810458923548566
 31
0.0
  0
LINE
  5
AB
330
1F
100
AcDbEntity
  8
0-0
  6
JWW_DASHED1
 62
   120
370
     5
100
AcDbLine
 10
-1039.622749125961
 20
600.3805408275688
 30
0.0
 11
-449.6227491259703
 21
10.38054082757803
 31
0.0
  0
LINE
  5
AC
330
1F
100
AcDbEntity
  8
0-0
  6
JWW_DASHED1
 62
   120
370
     5
100
AcDbLine
 10
-1039.622749125952
 20
610.2800357627212
 30
0.0
 11
-449.6227491259669
 21
20.28003576273555
 31
0.0
  0
LINE
  5
AD
330
1F
100
AcDbEntity
  8
0-0
  6
JWW_DASHED1
 62
   120
370
     5
100
AcDbLine
 10
-1039.622749125972
 20
620.1795306979571
 30
0.0
 11
-449.6227491259652
 21
30.17953069795105
 31
0.0
  0
LINE
  5
AE
330
1F
100
AcDbEntity
  8
0-0
  6
JWW_DASHED1
 62
   120
370
     5
100
AcDbLine
 10
-1039.622749125964
 20
630.0790256331659
 30
0.0
 11
-449.6227491259737
 21
40.07902563317508
 31
0.0
  0
LINE
  5
AF
330
1F
100
AcDbEntity
  8
0-0
  6
JWW_DASHED1
 62
   120
370
     5
100
AcDbLine
 10
-1039.622749125954
 20
639.9785205683174
 30
0.0
 11
-449.6227491259686
 21
49.9785205683326
 31
0.0
  0
LINE
  5
B0
330
1F
100
AcDbEntity
  8
0-0
  6
JWW_DASHED1
 62
   120
370
     5
100
AcDbLine
 10
-1039.622749125974
 20
649.8780155035543
 30
0.0
 11
-449.6227491259686
 21
59.8780155035481
 31
0.0
  0
LINE
  5
B1
330
1F
100
AcDbEntity
  8
0-0
  6
JWW_DASHED1
 62
   120
370
     5
100
AcDbLine
 10
-1039.622749125966
 20
659.7775104387638
 30
0.0
 11
-449.6227491259754
 21
69.77751043877213
 31
0.0
  0
LINE
  5
B2
330
1F
100
AcDbEntity
  8
0-0
  6
JWW_DASHED1
 62
   120
370
     5
100
AcDbLine
 10
-1039.622749125956
 20
669.6770053739144
 30
0.0
 11
-449.6227491259703
 21
79.6770053739288
 31
0.0
  0
LINE
  5
B3
330
1F
100
AcDbEntity
  8
0-0
  6
JWW_DASHED1
 62
   120
370
     5
100
AcDbLine
 10
-1039.622749125977
 20
679.5765003091512
 30
0.0
 11
-449.6227491259703
 21
89.57650030914515
 31
0.0
  0
LINE
  5
B4
330
1F
100
AcDbEntity
  8
0-0
  6
JWW_DASHED1
 62
   120
370
     5
100
AcDbLine
 10
-1039.622749125969
 20
689.4759952443608
 30
0.0
 11
-449.6227491259788
 21
99.47599524436917
 31
0.0
  0
LINE
  5
B5
330
1F
100
AcDbEntity
  8
0-0
  6
JWW_DASHED1
 62
   120
370
     5
100
AcDbLine
 10
-1039.622749125959
 20
699.3754901795115
 30
0.0
 11
-449.6227491259729
 21
109.3754901795258
 31
0.0
  0
LINE
  5
B6
330
1F
100
AcDbEntity
  8
0-0
  6
JWW_DASHED1
 62
   120
370
     5
100
AcDbLine
 10
-1039.622749125964
 20
709.274985114733
 30
0.0
 11
-449.6227491259737
 21
119.2749851147426
 31
0.0
  0
LINE
  5
B7
330
1F
100
AcDbEntity
  8
0-0
  6
JWW_DASHED1
 62
   120
370
     5
100
AcDbLine
 10
-1039.622749125972
 20
719.174480049957
 30
0.0
 11
-449.6227491259652
 21
129.1744800499509
 31
0.0
  0
LINE
  5
B8
330
1F
100
AcDbEntity
  8
0-0
  6
JWW_DASHED1
 62
   120
370
     5
100
AcDbLine
 10
-1039.622749125959
 20
729.0739749851068
 30
0.0
 11
-449.6227491259686
 21
139.0739749851156
 31
0.0
  0
LINE
  5
B9
330
1F
100
AcDbEntity
  8
0-0
  6
JWW_DASHED1
 62
   120
370
     5
100
AcDbLine
 10
-1039.622749125952
 20
738.9734699203163
 30
0.0
 11
-449.6227491259669
 21
148.9734699203303
 31
0.0
  0
LINE
  5
BA
330
1F
100
AcDbEntity
  8
0-0
  6
JWW_DASHED1
 62
   120
370
     5
100
AcDbLine
 10
-1039.622749125973
 20
748.8729648555532
 30
0.0
 11
-449.6227491259677
 21
158.8729648555479
 31
0.0
  0
LINE
  5
BB
330
1F
100
AcDbEntity
  8
0-0
  6
JWW_DASHED1
 62
   120
370
     5
100
AcDbLine
 10
-1039.622749125961
 20
758.772459790703
 30
0.0
 11
-449.6227491259703
 21
168.7724597907127
 31
0.0
  0
LINE
  5
BC
330
1F
100
AcDbEntity
  8
0-0
  6
JWW_DASHED1
 62
   120
370
     5
100
AcDbLine
 10
-1039.622749125955
 20
768.6719547259135
 30
0.0
 11
-449.6227491259694
 21
178.6719547259273
 31
0.0
  0
LINE
  5
BD
330
1F
100
AcDbEntity
  8
0-0
  6
JWW_DASHED1
 62
   120
370
     5
100
AcDbLine
 10
-1039.622749125972
 20
778.5714496610914
 30
0.0
 11
-449.6227491259652
 21
188.5714496610848
 31
0.0
  0
LINE
  5
BE
330
1F
100
AcDbEntity
  8
0-0
  6
JWW_DASHED1
 62
   120
370
     5
100
AcDbLine
 10
-1039.622749125964
 20
788.4709445963001
 30
0.0
 11
-449.6227491259737
 21
198.4709445963097
 31
0.0
  0
LINE
  5
BF
330
1F
100
AcDbEntity
  8
0-0
  6
JWW_DASHED1
 62
   120
370
     5
100
AcDbLine
 10
-1039.622749125957
 20
798.3704395315096
 30
0.0
 11
-449.622749125972
 21
208.3704395315244
 31
0.0
  0
LINE
  5
C0
330
1F
100
AcDbEntity
  8
0-0
  6
JWW_DASHED1
 62
   120
370
     5
100
AcDbLine
 10
-1039.622749125974
 20
808.2699344666885
 30
0.0
 11
-449.6227491259677
 21
218.2699344666819
 31
0.0
  0
LINE
  5
C1
330
1F
100
AcDbEntity
  8
0-0
  6
JWW_DASHED1
 62
   120
370
     5
100
AcDbLine
 10
-1039.622749125966
 20
818.1694294018971
 30
0.0
 11
-449.6227491259754
 21
228.1694294019068
 31
0.0
  0
LINE
  5
C2
330
1F
100
AcDbEntity
  8
0-0
  6
JWW_DASHED1
 62
   120
370
     5
100
AcDbLine
 10
-1039.622749125958
 20
828.0689243371058
 30
0.0
 11
-449.6227491259669
 21
238.0689243371142
 31
0.0
  0
LINE
  5
C3
330
1F
100
AcDbEntity
  8
0-0
  6
JWW_DASHED1
 62
   120
370
     5
100
AcDbLine
 10
-1039.622749125977
 20
837.9684192722855
 30
0.0
 11
-449.6227491259703
 21
247.9684192722798
 31
0.0
  0
LINE
  5
C4
330
1F
100
AcDbEntity
  8
0-0
  6
JWW_DASHED1
 62
   120
370
     5
100
AcDbLine
 10
-1039.622749125968
 20
847.8679142074933
 30
0.0
 11
-449.6227491259788
 21
257.8679142075038
 31
0.0
  0
LINE
  5
C5
330
1F
100
AcDbEntity
  8
0-0
  6
JWW_DASHED1
 62
   120
370
     5
100
AcDbLine
 10
-1039.622749125961
 20
857.7674091427028
 30
0.0
 11
-449.6227491259703
 21
267.7674091427112
 31
0.0
  0
LINE
  5
C6
330
1F
100
AcDbEntity
  8
0-0
  6
JWW_DASHED1
 62
   120
370
     5
100
AcDbLine
 10
-1039.622749125964
 20
867.6669040778672
 30
0.0
 11
-449.6227491259729
 21
277.666904077876
 31
0.0
  0
LINE
  5
C7
330
1F
100
AcDbEntity
  8
0-0
  6
JWW_DASHED1
 62
   120
370
     5
100
AcDbLine
 10
-1039.622749125971
 20
877.5663990130904
 30
0.0
 11
-449.6227491259652
 21
287.5663990130851
 31
0.0
  0
LINE
  5
C8
330
1F
100
AcDbEntity
  8
0-0
  6
JWW_DASHED1
 62
   120
370
     5
100
AcDbLine
 10
-1039.622749125963
 20
887.4658939482999
 30
0.0
 11
-449.622749125972
 21
297.4658939483087
 31
0.0
  0
LINE
  5
C9
330
1F
100
AcDbEntity
  8
0-0
  6
JWW_DASHED1
 62
   120
370
     5
100
AcDbLine
 10
-1039.62274912595
 20
897.3653888834489
 30
0.0
 11
-449.6227491259652
 21
307.3653888834637
 31
0.0
  0
LINE
  5
CA
330
1F
100
AcDbEntity
  8
0-0
  6
JWW_DASHED1
 62
   120
370
     5
100
AcDbLine
 10
-1039.622749125973
 20
907.2648838186874
 30
0.0
 11
-449.6227491259669
 21
317.2648838186809
 31
0.0
  0
LINE
  5
CB
330
1F
100
AcDbEntity
  8
0-0
  6
JWW_DASHED1
 62
   120
370
     5
100
AcDbLine
 10
-1039.622749125966
 20
917.1643787538961
 30
0.0
 11
-449.6227491259754
 21
327.1643787539057
 31
0.0
  0
LINE
  5
CC
330
1F
100
AcDbEntity
  8
0-0
  6
JWW_DASHED1
 62
   120
370
     5
100
AcDbLine
 10
-1039.622749125953
 20
927.063873689046
 30
0.0
 11
-449.6227491259677
 21
337.0638736890598
 31
0.0
  0
LINE
  5
CD
330
1F
100
AcDbEntity
  8
0-0
  6
JWW_DASHED1
 62
   120
370
     5
100
AcDbLine
 10
-1039.622749125976
 20
936.9633686242845
 30
0.0
 11
-449.6227491259694
 21
346.9633686242779
 31
0.0
  0
LINE
  5
CE
330
1F
100
AcDbEntity
  8
0-0
  6
JWW_DASHED1
 62
   120
370
     5
100
AcDbLine
 10
-1039.622749125968
 20
946.8628635594931
 30
0.0
 11
-449.6227491259771
 21
356.8628635595028
 31
0.0
  0
LINE
  5
CF
330
1F
100
AcDbEntity
  8
0-0
  6
JWW_DASHED1
 62
   120
370
     5
100
AcDbLine
 10
-1039.622749125956
 20
956.762358494643
 30
0.0
 11
-449.6227491259694
 21
366.7623584946565
 31
0.0
  0
LINE
  5
D0
330
1F
100
AcDbEntity
  8
0-0
  6
JWW_DASHED1
 62
   120
370
     5
100
AcDbLine
 10
-1039.622749125963
 20
966.6618534298661
 30
0.0
 11
-449.622749125972
 21
376.6618534298758
 31
0.0
  0
LINE
  5
D1
330
1F
100
AcDbEntity
  8
0-0
  6
JWW_DASHED1
 62
   120
370
     5
100
AcDbLine
 10
-1039.62274912597
 20
976.5613483650893
 30
0.0
 11
-449.6227491259805
 21
386.5613483650998
 31
0.0
  0
LINE
  5
D2
330
1F
100
AcDbEntity
  8
0-0
  6
JWW_DASHED1
 62
   120
370
     5
100
AcDbLine
 10
-1039.601128178252
 20
986.4392223525335
 30
0.0
 11
-449.6227491259669
 21
396.4608433002488
 31
0.0
  0
LINE
  5
D3
330
1F
100
AcDbEntity
  8
0-0
  6
JWW_DASHED1
 62
   120
370
     5
100
AcDbLine
 10
-1029.701633243028
 20
986.4392223525258
 30
0.0
 11
-449.6227491259754
 21
406.3603382354729
 31
0.0
  0
LINE
  5
D4
330
1F
100
AcDbEntity
  8
0-0
  6
JWW_DASHED1
 62
   120
370
     5
100
AcDbLine
 10
-1019.802138307804
 20
986.439222352519
 30
0.0
 11
-449.6227491259669
 21
416.2598331706803
 31
0.0
  0
LINE
  5
D5
330
1F
100
AcDbEntity
  8
0-0
  6
JWW_DASHED1
 62
   120
370
     5
100
AcDbLine
 10
-1009.902643372654
 20
986.4392223525309
 30
0.0
 11
-449.6227491259703
 21
426.1593281058459
 31
0.0
  0
LINE
  5
D6
330
1F
100
AcDbEntity
  8
0-0
  6
JWW_DASHED1
 62
   120
370
     5
100
AcDbLine
 10
-1000.003148437447
 20
986.4392223525386
 30
0.0
 11
-449.622749125966
 21
436.0588230410584
 31
0.0
  0
LINE
  5
D7
330
1F
100
AcDbEntity
  8
0-0
  6
JWW_DASHED1
 62
   120
370
     5
100
AcDbLine
 10
-990.1036535022072
 20
986.4392223525156
 30
0.0
 11
-449.6227491259686
 21
445.9583179762773
 31
0.0
  0
LINE
  5
D8
330
1F
100
AcDbEntity
  8
0-0
  6
JWW_DASHED1
 62
   120
370
     5
100
AcDbLine
 10
-980.2041585670574
 20
986.4392223525275
 30
0.0
 11
-449.622749125972
 21
455.8578129114429
 31
0.0
  0
LINE
  5
D9
330
1F
100
AcDbEntity
  8
0-0
  6
JWW_DASHED1
 62
   120
370
     5
100
AcDbLine
 10
-970.3046636318487
 20
986.4392223525352
 30
0.0
 11
-449.6227491259686
 21
465.7573078466555
 31
0.0
  0
LINE
  5
DA
330
1F
100
AcDbEntity
  8
0-0
  6
JWW_DASHED1
 62
   120
370
     5
100
AcDbLine
 10
-960.4051686966699
 20
986.4392223525182
 30
0.0
 11
-449.6227491259669
 21
475.6568027818155
 31
0.0
  0
LINE
  5
DB
330
1F
100
AcDbEntity
  8
0-0
  6
JWW_DASHED1
 62
   120
370
     5
100
AcDbLine
 10
-950.5056737614586
 20
986.4392223525241
 30
0.0
 11
-449.6227491259746
 21
485.5562977170391
 31
0.0
  0
LINE
  5
DC
330
1F
100
AcDbEntity
  8
0-0
  6
JWW_DASHED1
 62
   120
370
     5
100
AcDbLine
 10
-940.6061788262508
 20
986.4392223525326
 30
0.0
 11
-449.6227491259703
 21
495.4557926522521
 31
0.0
  0
LINE
  5
DD
330
1F
100
AcDbEntity
  8
0-0
  6
JWW_DASHED1
 62
   120
370
     5
100
AcDbLine
 10
-930.7066838910728
 20
986.4392223525165
 30
0.0
 11
-449.6227491259694
 21
505.3552875874126
 31
0.0
  0
LINE
  5
DE
330
1F
100
AcDbEntity
  8
0-0
  6
JWW_DASHED1
 62
   120
370
     5
100
AcDbLine
 10
-920.8071889558616
 20
986.4392223525216
 30
0.0
 11
-449.6227491259763
 21
515.2547825226358
 31
0.0
  0
LINE
  5
DF
330
1F
100
AcDbEntity
  8
0-0
  6
JWW_DASHED1
 62
   120
370
     5
100
AcDbLine
 10
-910.9076940206537
 20
986.4392223525292
 30
0.0
 11
-449.6227491259686
 21
525.1542774578448
 31
0.0
  0
LINE
  5
E0
330
1F
100
AcDbEntity
  8
0-0
  6
JWW_DASHED1
 62
   120
370
     5
100
AcDbLine
 10
-901.0081990854758
 20
986.4392223525139
 30
0.0
 11
-449.622749125972
 21
535.0537723930096
 31
0.0
  0
LINE
  5
E1
330
1F
100
AcDbEntity
  8
0-0
  6
JWW_DASHED1
 62
   120
370
     5
100
AcDbLine
 10
-891.1087041502645
 20
986.439222352519
 30
0.0
 11
-449.6227491259797
 21
544.9532673282337
 31
0.0
  0
LINE
  5
E2
330
1F
100
AcDbEntity
  8
0-0
  6
JWW_DASHED1
 62
   120
370
     5
100
AcDbLine
 10
-881.2092092150558
 20
986.4392223525258
 30
0.0
 11
-449.622749125972
 21
554.852762263442
 31
0.0
  0
LINE
  5
E3
330
1F
100
AcDbEntity
  8
0-0
  6
JWW_DASHED1
 62
   120
370
     5
100
AcDbLine
 10
-871.3097142798906
 20
986.4392223525233
 30
0.0
 11
-449.6227491259746
 21
564.7522571986067
 31
0.0
  0
LINE
  5
E4
330
1F
100
AcDbEntity
  8
0-0
  6
JWW_DASHED1
 62
   120
370
     5
100
AcDbLine
 10
-861.4102193446708
 20
986.4392223525199
 30
0.0
 11
-449.622749125966
 21
574.651752133814
 31
0.0
  0
LINE
  5
E5
330
1F
100
AcDbEntity
  8
0-0
  6
JWW_DASHED1
 62
   120
370
     5
100
AcDbLine
 10
-851.5107244094588
 20
986.4392223525233
 30
0.0
 11
-449.6227491259737
 21
584.5512470690389
 31
0.0
  0
LINE
  5
E6
330
1F
100
AcDbEntity
  8
0-0
  6
JWW_DASHED1
 62
   120
370
     5
100
AcDbLine
 10
-841.611229474309
 20
986.4392223525352
 30
0.0
 11
-449.6227491259643
 21
594.4507420041909
 31
0.0
  0
LINE
  5
E7
330
1F
100
AcDbEntity
  8
0-0
  6
JWW_DASHED1
 62
   120
370
     5
100
AcDbLine
 10
-831.7117345390756
 20
986.4392223525182
 30
0.0
 11
-449.6227491259686
 21
604.3502369394112
 31
0.0
  0
LINE
  5
E8
330
1F
100
AcDbEntity
  8
0-0
  6
JWW_DASHED1
 62
   120
370
     5
100
AcDbLine
 10
-821.8122396038609
 20
986.4392223525207
 30
0.0
 11
-449.6227491259771
 21
614.249731874636
 31
0.0
  0
LINE
  5
E9
330
1F
100
AcDbEntity
  8
0-0
  6
JWW_DASHED1
 62
   120
370
     5
100
AcDbLine
 10
-811.9127446687111
 20
986.4392223525326
 30
0.0
 11
-449.6227491259669
 21
624.1492268097876
 31
0.0
  0
LINE
  5
EA
330
1F
100
AcDbEntity
  8
0-0
  6
JWW_DASHED1
 62
   120
370
     5
100
AcDbLine
 10
-802.0132497334785
 20
986.4392223525156
 30
0.0
 11
-449.6227491259712
 21
634.0487217450082
 31
0.0
  0
LINE
  5
EB
330
1F
100
AcDbEntity
  8
0-0
  6
JWW_DASHED1
 62
   120
370
     5
100
AcDbLine
 10
-792.1137547982639
 20
986.4392223525173
 30
0.0
 11
-449.622749125978
 21
643.9482166802318
 31
0.0
  0
LINE
  5
EC
330
1F
100
AcDbEntity
  8
0-0
  6
JWW_DASHED1
 62
   120
370
     5
100
AcDbLine
 10
-782.214259863114
 20
986.4392223525292
 30
0.0
 11
-449.6227491259686
 21
653.8477116153846
 31
0.0
  0
LINE
  5
ED
330
1F
100
AcDbEntity
  8
0-0
  6
JWW_DASHED1
 62
   120
370
     5
100
AcDbLine
 10
-772.31476492789
 20
986.4392223525216
 30
0.0
 11
-449.6227491259737
 21
663.7472065506056
 31
0.0
  0
LINE
  5
EE
330
1F
100
AcDbEntity
  8
0-0
  6
JWW_DASHED1
 62
   120
370
     5
100
AcDbLine
 10
-762.415269992666
 20
986.4392223525139
 30
0.0
 11
-449.6227491259814
 21
673.6467014858292
 31
0.0
  0
LINE
  5
EF
330
1F
100
AcDbEntity
  8
0-0
  6
JWW_DASHED1
 62
   120
370
     5
100
AcDbLine
 10
-752.5157750575161
 20
986.4392223525258
 30
0.0
 11
-449.6227491259686
 21
683.5461964209786
 31
0.0
  0
LINE
  5
F0
330
1F
100
AcDbEntity
  8
0-0
  6
JWW_DASHED1
 62
   120
370
     5
100
AcDbLine
 10
-742.6162801223084
 20
986.4392223525343
 30
0.0
 11
-449.6227491259635
 21
693.4456913561891
 31
0.0
  0
LINE
  5
F1
330
1F
100
AcDbEntity
  8
0-0
  6
JWW_DASHED1
 62
   120
370
     5
100
AcDbLine
 10
-732.7167851870765
 20
986.439222352519
 30
0.0
 11
-449.6227491259677
 21
703.3451862914101
 31
0.0
  0
LINE
  5
F2
330
1F
100
AcDbEntity
  8
0-0
  6
JWW_DASHED1
 62
   120
370
     5
100
AcDbLine
 10
-722.8172902519191
 20
986.4392223525233
 30
0.0
 11
-449.622749125972
 21
713.2446812265762
 31
0.0
  0
LINE
  5
F3
330
1F
100
AcDbEntity
  8
0-0
  6
JWW_DASHED1
 62
   120
370
     5
100
AcDbLine
 10
-712.9177953167105
 20
986.4392223525318
 30
0.0
 11
-449.6227491259652
 21
723.1441761617857
 31
0.0
  0
LINE
  5
F4
330
1F
100
AcDbEntity
  8
0-0
  6
JWW_DASHED1
 62
   120
370
     5
100
AcDbLine
 10
-703.0183003815384
 20
986.4392223525216
 30
0.0
 11
-449.622749125966
 21
733.0436710969487
 31
0.0
  0
LINE
  5
F5
330
1F
100
AcDbEntity
  8
0-0
  6
JWW_DASHED1
 62
   120
370
     5
100
AcDbLine
 10
-693.1188054463212
 20
986.4392223525207
 30
0.0
 11
-449.6227491259737
 21
742.9431660321727
 31
0.0
  0
LINE
  5
F6
330
1F
100
AcDbEntity
  8
0-0
  6
JWW_DASHED1
 62
   120
370
     5
100
AcDbLine
 10
-683.2193105111133
 20
986.4392223525284
 30
0.0
 11
-449.6227491259669
 21
752.8426609673822
 31
0.0
  0
LINE
  5
F7
330
1F
100
AcDbEntity
  8
0-0
  6
JWW_DASHED1
 62
   120
370
     5
100
AcDbLine
 10
-673.3198155759421
 20
986.439222352519
 30
0.0
 11
-449.6227491259686
 21
762.7421559025457
 31
0.0
  0
LINE
  5
F8
330
1F
100
AcDbEntity
  8
0-0
  6
JWW_DASHED1
 62
   120
370
     5
100
AcDbLine
 10
-663.4203206407242
 20
986.4392223525173
 30
0.0
 11
-449.6227491259754
 21
772.6416508377688
 31
0.0
  0
LINE
  5
F9
330
1F
100
AcDbEntity
  8
0-0
  6
JWW_DASHED1
 62
   120
370
     5
100
AcDbLine
 10
-653.5208257055162
 20
986.4392223525258
 30
0.0
 11
-449.6227491259694
 21
782.5411457729793
 31
0.0
  0
LINE
  5
FA
330
1F
100
AcDbEntity
  8
0-0
  6
JWW_DASHED1
 62
   120
370
     5
100
AcDbLine
 10
-643.6213307703451
 20
986.4392223525165
 30
0.0
 11
-449.6227491259712
 21
792.4406407081428
 31
0.0
  0
LINE
  5
FB
330
1F
100
AcDbEntity
  8
0-0
  6
JWW_DASHED1
 62
   120
370
     5
100
AcDbLine
 10
-633.7218358351263
 20
986.4392223525139
 30
0.0
 11
-449.6227491259788
 21
802.340135643366
 31
0.0
  0
LINE
  5
FC
330
1F
100
AcDbEntity
  8
0-0
  6
JWW_DASHED1
 62
   120
370
     5
100
AcDbLine
 10
-623.8223408999175
 20
986.4392223525216
 30
0.0
 11
-449.6227491259703
 21
812.2396305785743
 31
0.0
  0
LINE
  5
FD
330
1F
100
AcDbEntity
  8
0-0
  6
JWW_DASHED1
 62
   120
370
     5
100
AcDbLine
 10
-613.9228459647524
 20
986.4392223525185
 30
0.0
 11
-449.6227491259737
 21
822.1391255137397
 31
0.0
  0
LINE
  5
FE
330
1F
100
AcDbEntity
  8
0-0
  6
JWW_DASHED1
 62
   120
370
     5
100
AcDbLine
 10
-604.0233510295284
 20
986.4392223525109
 30
0.0
 11
-449.6227491259805
 21
832.0386204489629
 31
0.0
  0
LINE
  5
FF
330
1F
100
AcDbEntity
  8
0-0
  6
JWW_DASHED1
 62
   120
370
     5
100
AcDbLine
 10
-594.1238560943204
 20
986.4392223525194
 30
0.0
 11
-449.6227491259729
 21
841.9381153841717
 31
0.0
  0
LINE
  5
100
330
1F
100
AcDbEntity
  8
0-0
  6
JWW_DASHED1
 62
   120
370
     5
100
AcDbLine
 10
-584.2243611591553
 20
986.439222352516
 30
0.0
 11
-449.6227491259763
 21
851.8376103193369
 31
0.0
  0
LINE
  5
101
330
1F
100
AcDbEntity
  8
0-0
  6
JWW_DASHED1
 62
   120
370
     5
100
AcDbLine
 10
-574.3248662239432
 20
986.4392223525202
 30
0.0
 11
-449.6227491259677
 21
861.7371052545448
 31
0.0
  0
LINE
  5
102
330
1F
100
AcDbEntity
  8
0-0
  6
JWW_DASHED1
 62
   120
370
     5
100
AcDbLine
 10
-564.4253712887217
 20
986.4392223525156
 30
0.0
 11
-449.6227491259754
 21
871.6366001897686
 31
0.0
  0
LINE
  5
103
330
1F
100
AcDbEntity
  8
0-0
  6
JWW_DASHED1
 62
   120
370
     5
100
AcDbLine
 10
-554.5258763535736
 20
986.4392223525284
 30
0.0
 11
-449.6227491259635
 21
881.5360951249182
 31
0.0
  0
LINE
  5
104
330
1F
100
AcDbEntity
  8
0-0
  6
JWW_DASHED1
 62
   120
370
     5
100
AcDbLine
 10
-544.626381418347
 20
986.4392223525182
 30
0.0
 11
-449.6227491259703
 21
891.4355900601416
 31
0.0
  0
LINE
  5
105
330
1F
100
AcDbEntity
  8
0-0
  6
JWW_DASHED1
 62
   120
370
     5
100
AcDbLine
 10
-534.7268864831256
 20
986.4392223525131
 30
0.0
 11
-449.622749125978
 21
901.3350849953658
 31
0.0
  0
LINE
  5
106
330
1F
100
AcDbEntity
  8
0-0
  6
JWW_DASHED1
 62
   120
370
     5
100
AcDbLine
 10
-524.8273915479757
 20
986.4392223525258
 30
0.0
 11
-449.622749125966
 21
911.2345799305152
 31
0.0
  0
LINE
  5
107
330
1F
100
AcDbEntity
  8
0-0
  6
JWW_DASHED1
 62
   120
370
     5
100
AcDbLine
 10
-514.9278966127508
 20
986.4392223525165
 30
0.0
 11
-449.6227491259729
 21
921.1340748657389
 31
0.0
  0
LINE
  5
108
330
1F
100
AcDbEntity
  8
0-0
  6
JWW_DASHED1
 62
   120
370
     5
100
AcDbLine
 10
-505.0284016775277
 20
986.43922235251
 30
0.0
 11
-449.6227491259805
 21
931.033569800962
 31
0.0
  0
LINE
  5
109
330
1F
100
AcDbEntity
  8
0-0
  6
JWW_DASHED1
 62
   120
370
     5
100
AcDbLine
 10
-495.1289067423778
 20
986.4392223525219
 30
0.0
 11
-449.6227491259686
 21
940.9330647361123
 31
0.0
  0
LINE
  5
10A
330
1F
100
AcDbEntity
  8
0-0
  6
JWW_DASHED1
 62
   120
370
     5
100
AcDbLine
 10
-485.2294118071538
 20
986.4392223525143
 30
0.0
 11
-449.6227491259754
 21
950.8325596713357
 31
0.0
  0
LINE
  5
10B
330
1F
100
AcDbEntity
  8
0-0
  6
JWW_DASHED1
 62
   120
370
     5
100
AcDbLine
 10
-475.3299168719886
 20
986.4392223525109
 30
0.0
 11
-449.6227491259788
 21
960.7320546065007
 31
0.0
  0
LINE
  5
10C
330
1F
100
AcDbEntity
  8
0-0
  6
JWW_DASHED1
 62
   120
370
     5
100
AcDbLine
 10
-465.4304219367808
 20
986.4392223525194
 30
0.0
 11
-449.6227491259703
 21
970.6315495417089
 31
0.0
  0
LINE
  5
10D
330
1F
100
AcDbEntity
  8
0-0
  6
JWW_DASHED1
 62
   120
370
     5
100
AcDbLine
 10
-455.5309270015721
 20
986.4392223525267
 30
0.0
 11
-449.6227491259618
 21
980.5310444769171
 31
0.0
  0
LINE
  5
10E
330
1F
100
AcDbEntity
  8
0-0
  6
JWW_DASHED1
 62
   120
370
     5
100
AcDbLine
 10
-259.622749125964
 20
-13.38814515469529
 30
0.0
 11
330.3772508740263
 21
-603.3881451546856
 31
0.0
  0
LINE
  5
10F
330
1F
100
AcDbEntity
  8
0-0
  6
JWW_DASHED1
 62
   120
370
     5
100
AcDbLine
 10
-259.6227491259555
 20
-3.488650219487468
 30
0.0
 11
330.3772508740348
 21
-593.4886502194782
 31
0.0
  0
LINE
  5
110
330
1F
100
AcDbEntity
  8
0-0
  6
JWW_DASHED1
 62
   120
370
     5
100
AcDbLine
 10
-259.6227491259598
 20
6.410844715678152
 30
0.0
 11
330.3772508740314
 21
-583.5891552843126
 31
0.0
  0
LINE
  5
111
330
1F
100
AcDbEntity
  8
0-0
  6
JWW_DASHED1
 62
   120
370
     5
100
AcDbLine
 10
-259.6227491259666
 20
16.31033965090175
 30
0.0
 11
330.3772508740246
 21
-573.6896603490894
 31
0.0
  0
LINE
  5
112
330
1F
100
AcDbEntity
  8
0-0
  6
JWW_DASHED1
 62
   120
370
     5
100
AcDbLine
 10
-259.6227491259581
 20
26.20983458610958
 30
0.0
 11
330.3772508740331
 21
-563.7901654138811
 31
0.0
  0
LINE
  5
113
330
1F
100
AcDbEntity
  8
0-0
  6
JWW_DASHED1
 62
   120
370
     5
100
AcDbLine
 10
-259.6227491259615
 20
36.10932952127477
 30
0.0
 11
330.3772508740288
 21
-553.8906704787156
 31
0.0
  0
LINE
  5
114
330
1F
100
AcDbEntity
  8
0-0
  6
JWW_DASHED1
 62
   120
370
     5
100
AcDbLine
 10
-259.6227491259692
 20
46.0088244564988
 30
0.0
 11
330.3772508740382
 21
-543.9911755435081
 31
0.0
  0
LINE
  5
115
330
1F
100
AcDbEntity
  8
0-0
  6
JWW_DASHED1
 62
   120
370
     5
100
AcDbLine
 10
-259.6227491259606
 20
55.90831939170663
 30
0.0
 11
330.3772508740297
 21
-534.0916806082842
 31
0.0
  0
LINE
  5
116
330
1F
100
AcDbEntity
  8
0-0
  6
JWW_DASHED1
 62
   120
370
     5
100
AcDbLine
 10
-259.6227491259555
 20
65.8078143268633
 30
0.0
 11
330.3772508740297
 21
-524.1921856731224
 31
0.0
  0
LINE
  5
117
330
1F
100
AcDbEntity
  8
0-0
  6
JWW_DASHED1
 62
   120
370
     5
100
AcDbLine
 10
-259.6227491259717
 20
75.70730926209585
 30
0.0
 11
330.3772508740348
 21
-514.2926907379111
 31
0.0
  0
LINE
  5
118
330
1F
100
AcDbEntity
  8
0-0
  6
JWW_DASHED1
 62
   120
370
     5
100
AcDbLine
 10
-259.6227491259632
 20
85.60680419730367
 30
0.0
 11
330.377250874028
 21
-504.3931958026871
 31
0.0
  0
LINE
  5
119
330
1F
100
AcDbEntity
  8
0-0
  6
JWW_DASHED1
 62
   120
370
     5
100
AcDbLine
 10
-259.6227491259572
 20
95.50629913245992
 30
0.0
 11
330.377250874028
 21
-494.4937008675257
 31
0.0
  0
LINE
  5
11A
330
1F
100
AcDbEntity
  8
0-0
  6
JWW_DASHED1
 62
   120
370
     5
100
AcDbLine
 10
-259.6227491259743
 20
105.4057940676929
 30
0.0
 11
330.3772508740323
 21
-484.5942059323141
 31
0.0
  0
LINE
  5
11B
330
1F
100
AcDbEntity
  8
0-0
  6
JWW_DASHED1
 62
   120
370
     5
100
AcDbLine
 10
-259.6227491259658
 20
115.3052890029007
 30
0.0
 11
330.3772508740254
 21
-474.6947109970905
 31
0.0
  0
LINE
  5
11C
330
1F
100
AcDbEntity
  8
0-0
  6
JWW_DASHED1
 62
   120
370
     5
100
AcDbLine
 10
-259.6227491259606
 20
125.204783938057
 30
0.0
 11
330.3772508740254
 21
-464.7952160619287
 31
0.0
  0
LINE
  5
11D
330
1F
100
AcDbEntity
  8
0-0
  6
JWW_DASHED1
 62
   120
370
     5
100
AcDbLine
 10
-259.6227491259606
 20
135.1042788732742
 30
0.0
 11
330.3772508740297
 21
-454.895721126717
 31
0.0
  0
LINE
  5
11E
330
1F
100
AcDbEntity
  8
0-0
  6
JWW_DASHED1
 62
   120
370
     5
100
AcDbLine
 10
-259.6227491259683
 20
145.0037738084978
 30
0.0
 11
330.3772508740382
 21
-444.9962261915092
 31
0.0
  0
LINE
  5
11F
330
1F
100
AcDbEntity
  8
0-0
  6
JWW_DASHED1
 62
   120
370
     5
100
AcDbLine
 10
-259.6227491259555
 20
154.9032687436468
 30
0.0
 11
330.3772508740348
 21
-435.0967312563436
 31
0.0
  0
LINE
  5
120
330
1F
100
AcDbEntity
  8
0-0
  6
JWW_DASHED1
 62
   120
370
     5
100
AcDbLine
 10
-259.6227491259538
 20
164.8027636788618
 30
0.0
 11
330.3772508740323
 21
-425.1972363211246
 31
0.0
  0
LINE
  5
121
330
1F
100
AcDbEntity
  8
0-0
  6
JWW_DASHED1
 62
   120
370
     5
100
AcDbLine
 10
-259.6227491259666
 20
174.702258614036
 30
0.0
 11
330.3772508740246
 21
-415.2977413859552
 31
0.0
  0
LINE
  5
122
330
1F
100
AcDbEntity
  8
0-0
  6
JWW_DASHED1
 62
   120
370
     5
100
AcDbLine
 10
-259.6227491259581
 20
184.6017535492438
 30
0.0
 11
330.3772508740323
 21
-405.3982464507465
 31
0.0
  0
LINE
  5
123
330
1F
100
AcDbEntity
  8
0-0
  6
JWW_DASHED1
 62
   120
370
     5
100
AcDbLine
 10
-259.6227491259572
 20
194.5012484844589
 30
0.0
 11
330.3772508740297
 21
-395.4987515155276
 31
0.0
  0
LINE
  5
124
330
1F
100
AcDbEntity
  8
0-0
  6
JWW_DASHED1
 62
   120
370
     5
100
AcDbLine
 10
-259.6227491259692
 20
204.400743419633
 30
0.0
 11
330.3772508740374
 21
-385.5992565803735
 31
0.0
  0
LINE
  5
125
330
1F
100
AcDbEntity
  8
0-0
  6
JWW_DASHED1
 62
   120
370
     5
100
AcDbLine
 10
-259.6227491259606
 20
214.3002383548409
 30
0.0
 11
330.3772508740306
 21
-375.6997616451503
 31
0.0
  0
LINE
  5
126
330
1F
100
AcDbEntity
  8
0-0
  6
JWW_DASHED1
 62
   120
370
     5
100
AcDbLine
 10
-259.6227491259589
 20
224.1997332900551
 30
0.0
 11
330.3772508740271
 21
-365.8002667099306
 31
0.0
  0
LINE
  5
127
330
1F
100
AcDbEntity
  8
0-0
  6
JWW_DASHED1
 62
   120
370
     5
100
AcDbLine
 10
-259.6227491259709
 20
234.0992282252296
 30
0.0
 11
330.3772508740348
 21
-355.9007717747764
 31
0.0
  0
LINE
  5
128
330
1F
100
AcDbEntity
  8
0-0
  6
JWW_DASHED1
 62
   120
370
     5
100
AcDbLine
 10
-259.6227491259632
 20
243.9987231604379
 30
0.0
 11
330.377250874028
 21
-346.0012768395533
 31
0.0
  0
LINE
  5
129
330
1F
100
AcDbEntity
  8
0-0
  6
JWW_DASHED1
 62
   120
370
     5
100
AcDbLine
 10
-259.6227491259547
 20
253.8982180956457
 30
0.0
 11
330.3772508740365
 21
-336.1017819043454
 31
0.0
  0
LINE
  5
12A
330
1F
100
AcDbEntity
  8
0-0
  6
JWW_DASHED1
 62
   120
370
     5
100
AcDbLine
 10
-259.6227491259743
 20
263.7977130308267
 30
0.0
 11
330.3772508740331
 21
-326.2022869691802
 31
0.0
  0
LINE
  5
12B
330
1F
100
AcDbEntity
  8
0-0
  6
JWW_DASHED1
 62
   120
370
     5
100
AcDbLine
 10
-259.6227491259658
 20
273.6972079660345
 30
0.0
 11
330.3772508740254
 21
-316.3027920339562
 31
0.0
  0
LINE
  5
12C
330
1F
100
AcDbEntity
  8
0-0
  6
JWW_DASHED1
 62
   120
370
     5
100
AcDbLine
 10
-259.6227491259572
 20
283.5967029012428
 30
0.0
 11
330.3772508740331
 21
-306.403297098748
 31
0.0
  0
LINE
  5
12D
330
1F
100
AcDbEntity
  8
0-0
  6
JWW_DASHED1
 62
   120
370
     5
100
AcDbLine
 10
-259.6227491259606
 20
293.496197836408
 30
0.0
 11
330.3772508740297
 21
-296.5038021635832
 31
0.0
  0
LINE
  5
12E
330
1F
100
AcDbEntity
  8
0-0
  6
JWW_DASHED1
 62
   120
370
     5
100
AcDbLine
 10
-259.6227491259683
 20
303.395692771632
 30
0.0
 11
330.3772508740229
 21
-286.6043072283592
 31
0.0
  0
LINE
  5
12F
330
1F
100
AcDbEntity
  8
0-0
  6
JWW_DASHED1
 62
   120
370
     5
100
AcDbLine
 10
-259.6227491259598
 20
313.2951877068398
 30
0.0
 11
330.3772508740306
 21
-276.7048122931505
 31
0.0
  0
LINE
  5
130
330
1F
100
AcDbEntity
  8
0-0
  6
JWW_DASHED1
 62
   120
370
     5
100
AcDbLine
 10
-259.622749125953
 20
323.1946826419948
 30
0.0
 11
330.3772508740331
 21
-266.8053173579913
 31
0.0
  0
LINE
  5
131
330
1F
100
AcDbEntity
  8
0-0
  6
JWW_DASHED1
 62
   120
370
     5
100
AcDbLine
 10
-259.6227491259709
 20
333.0941775772291
 30
0.0
 11
330.3772508740357
 21
-256.9058224227775
 31
0.0
  0
LINE
  5
132
330
1F
100
AcDbEntity
  8
0-0
  6
JWW_DASHED1
 62
   120
370
     5
100
AcDbLine
 10
-259.6227491259623
 20
342.9936725124369
 30
0.0
 11
330.3772508740288
 21
-247.0063274875543
 31
0.0
  0
LINE
  5
133
330
1F
100
AcDbEntity
  8
0-0
  6
JWW_DASHED1
 62
   120
370
     5
100
AcDbLine
 10
-259.6227491259555
 20
352.8931674475914
 30
0.0
 11
330.3772508740306
 21
-237.1068325523942
 31
0.0
  0
LINE
  5
134
330
1F
100
AcDbEntity
  8
0-0
  6
JWW_DASHED1
 62
   120
370
     5
100
AcDbLine
 10
-259.6227491259734
 20
362.7926623828261
 30
0.0
 11
330.3772508740331
 21
-227.2073376171804
 31
0.0
  0
LINE
  5
135
330
1F
100
AcDbEntity
  8
0-0
  6
JWW_DASHED1
 62
   120
370
     5
100
AcDbLine
 10
-259.6227491259649
 20
372.6921573180339
 30
0.0
 11
330.3772508740263
 21
-217.3078426819573
 31
0.0
  0
LINE
  5
136
330
1F
100
AcDbEntity
  8
0-0
  6
JWW_DASHED1
 62
   120
370
     5
100
AcDbLine
 10
-259.6227491259572
 20
382.5916522531876
 30
0.0
 11
330.377250874028
 21
-207.408347746798
 31
0.0
  0
LINE
  5
137
330
1F
100
AcDbEntity
  8
0-0
  6
JWW_DASHED1
 62
   120
370
     5
100
AcDbLine
 10
-259.622749125976
 20
392.4911471884227
 30
0.0
 11
330.3772508740306
 21
-197.5088528115834
 31
0.0
  0
LINE
  5
138
330
1F
100
AcDbEntity
  8
0-0
  6
JWW_DASHED1
 62
   120
370
     5
100
AcDbLine
 10
-259.6227491259675
 20
402.390642123631
 30
0.0
 11
330.3772508740237
 21
-187.6093578763602
 31
0.0
  0
LINE
  5
139
330
1F
100
AcDbEntity
  8
0-0
  6
JWW_DASHED1
 62
   120
370
     5
100
AcDbLine
 10
-259.6227491259598
 20
412.2901370587846
 30
0.0
 11
330.3772508740263
 21
-177.7098629412014
 31
0.0
  0
LINE
  5
13A
330
1F
100
AcDbEntity
  8
0-0
  6
JWW_DASHED1
 62
   120
370
     5
100
AcDbLine
 10
-259.6227491259623
 20
422.1896319940035
 30
0.0
 11
330.3772508740288
 21
-167.8103680059872
 31
0.0
  0
LINE
  5
13B
330
1F
100
AcDbEntity
  8
0-0
  6
JWW_DASHED1
 62
   120
370
     5
100
AcDbLine
 10
-259.62274912597
 20
432.089126929228
 30
0.0
 11
330.3772508740365
 21
-157.910873070779
 31
0.0
  0
LINE
  5
13C
330
1F
100
AcDbEntity
  8
0-0
  6
JWW_DASHED1
 62
   120
370
     5
100
AcDbLine
 10
-259.6227491259572
 20
441.988621864377
 30
0.0
 11
330.3772508740331
 21
-148.0113781356142
 31
0.0
  0
LINE
  5
13D
330
1F
100
AcDbEntity
  8
0-0
  6
JWW_DASHED1
 62
   120
370
     5
100
AcDbLine
 10
-259.6227491259538
 20
451.8881167995895
 30
0.0
 11
330.3772508740331
 21
-138.1118832003966
 31
0.0
  0
LINE
  5
13E
330
1F
100
AcDbEntity
  8
0-0
  6
JWW_DASHED1
 62
   120
370
     5
100
AcDbLine
 10
-259.62274912597
 20
461.7876117347948
 30
0.0
 11
330.3772508740212
 21
-128.2123882651956
 31
0.0
  0
LINE
  5
13F
330
1F
100
AcDbEntity
  8
0-0
  6
JWW_DASHED1
 62
   120
370
     5
100
AcDbLine
 10
-259.6227491259606
 20
471.6871066699741
 30
0.0
 11
330.3772508740314
 21
-118.3128933300171
 31
0.0
  0
LINE
  5
140
330
1F
100
AcDbEntity
  8
0-0
  6
JWW_DASHED1
 62
   120
370
     5
100
AcDbLine
 10
-259.6227491259564
 20
481.5866016051866
 30
0.0
 11
330.3772508740297
 21
-108.4133983947995
 31
0.0
  0
LINE
  5
141
330
1F
100
AcDbEntity
  8
0-0
  6
JWW_DASHED1
 62
   120
370
     5
100
AcDbLine
 10
-259.6227491259709
 20
491.4860965403628
 30
0.0
 11
330.3772508740365
 21
-98.51390345964369
 31
0.0
  0
LINE
  5
142
330
1F
100
AcDbEntity
  8
0-0
  6
JWW_DASHED1
 62
   120
370
     5
100
AcDbLine
 10
-259.6227491259623
 20
501.3855914755711
 30
0.0
 11
330.377250874028
 21
-88.61440852442009
 31
0.0
  0
LINE
  5
143
330
1F
100
AcDbEntity
  8
0-0
  6
JWW_DASHED1
 62
   120
370
     5
100
AcDbLine
 10
-259.6227491259572
 20
511.2850864107824
 30
0.0
 11
330.377250874028
 21
-78.71491358920245
 31
0.0
  0
LINE
  5
144
330
1F
100
AcDbEntity
  8
0-0
  6
JWW_DASHED1
 62
   120
370
     5
100
AcDbLine
 10
-259.6227491259726
 20
521.1845813459595
 30
0.0
 11
330.3772508740331
 21
-68.81541865404664
 31
0.0
  0
LINE
  5
145
330
1F
100
AcDbEntity
  8
0-0
  6
JWW_DASHED1
 62
   120
370
     5
100
AcDbLine
 10
-259.6227491259658
 20
531.0840762811681
 30
0.0
 11
330.3772508740263
 21
-58.91592371882261
 31
0.0
  0
LINE
  5
146
330
1F
100
AcDbEntity
  8
0-0
  6
JWW_DASHED1
 62
   120
370
     5
100
AcDbLine
 10
-259.6227491259564
 20
540.9835712163759
 30
0.0
 11
330.3772508740348
 21
-49.01642878361521
 31
0.0
  0
LINE
  5
147
330
1F
100
AcDbEntity
  8
0-0
  6
JWW_DASHED1
 62
   120
370
     5
100
AcDbLine
 10
-259.6227491259751
 20
550.8830661515565
 30
0.0
 11
330.3772508740314
 21
-39.11693384844959
 31
0.0
  0
LINE
  5
148
330
1F
100
AcDbEntity
  8
0-0
  6
JWW_DASHED1
 62
   120
370
     5
100
AcDbLine
 10
-259.6227491259675
 20
560.7825610867648
 30
0.0
 11
330.3772508740229
 21
-29.21743891322556
 31
0.0
  0
LINE
  5
149
330
1F
100
AcDbEntity
  8
0-0
  6
JWW_DASHED1
 62
   120
370
     5
100
AcDbLine
 10
-259.6227491259589
 20
570.6820560219726
 30
0.0
 11
330.3772508740323
 21
-19.31794397801816
 31
0.0
  0
LINE
  5
14A
330
1F
100
AcDbEntity
  8
0-0
  6
JWW_DASHED1
 62
   120
370
     5
100
AcDbLine
 10
-259.6227491259623
 20
580.5815509571378
 30
0.0
 11
330.3772508740297
 21
-9.418449042853396
 31
0.0
  0
LINE
  5
14B
330
1F
100
AcDbEntity
  8
0-0
  6
JWW_DASHED1
 62
   120
370
     5
100
AcDbLine
 10
-259.62274912597
 20
590.4810458923619
 30
0.0
 11
330.3772508740365
 21
0.4810458923557093
 31
0.0
  0
LINE
  5
14C
330
1F
100
AcDbEntity
  8
0-0
  6
JWW_DASHED1
 62
   120
370
     5
100
AcDbLine
 10
-259.6227491259606
 20
600.3805408275697
 30
0.0
 11
330.3772508740297
 21
10.38054082757888
 31
0.0
  0
LINE
  5
14D
330
1F
100
AcDbEntity
  8
0-0
  6
JWW_DASHED1
 62
   120
370
     5
100
AcDbLine
 10
-259.6227491259521
 20
610.280035762722
 30
0.0
 11
330.3772508740331
 21
20.2800357627364
 31
0.0
  0
LINE
  5
14E
330
1F
100
AcDbEntity
  8
0-0
  6
JWW_DASHED1
 62
   120
370
     5
100
AcDbLine
 10
-259.6227491259717
 20
620.1795306979581
 30
0.0
 11
330.3772508740348
 21
30.1795306979519
 31
0.0
  0
LINE
  5
14F
330
1F
100
AcDbEntity
  8
0-0
  6
JWW_DASHED1
 62
   120
370
     5
100
AcDbLine
 10
-259.622749125964
 20
630.0790256331667
 30
0.0
 11
330.3772508740263
 21
40.07902563317593
 31
0.0
  0
LINE
  5
150
330
1F
100
AcDbEntity
  8
0-0
  6
JWW_DASHED1
 62
   120
370
     5
100
AcDbLine
 10
-259.6227491259538
 20
639.9785205683182
 30
0.0
 11
330.3772508740314
 21
49.97852056833345
 31
0.0
  0
LINE
  5
151
330
1F
100
AcDbEntity
  8
0-0
  6
JWW_DASHED1
 62
   120
370
     5
100
AcDbLine
 10
-259.6227491259743
 20
649.878015503555
 30
0.0
 11
330.3772508740314
 21
59.87801550354895
 31
0.0
  0
LINE
  5
152
330
1F
100
AcDbEntity
  8
0-0
  6
JWW_DASHED1
 62
   120
370
     5
100
AcDbLine
 10
-259.6227491259666
 20
659.7775104387646
 30
0.0
 11
330.3772508740246
 21
69.77751043877298
 31
0.0
  0
LINE
  5
153
330
1F
100
AcDbEntity
  8
0-0
  6
JWW_DASHED1
 62
   120
370
     5
100
AcDbLine
 10
-259.6227491259564
 20
669.6770053739153
 30
0.0
 11
330.3772508740297
 21
79.67700537392965
 31
0.0
  0
LINE
  5
154
330
1F
100
AcDbEntity
  8
0-0
  6
JWW_DASHED1
 62
   120
370
     5
100
AcDbLine
 10
-259.6227491259768
 20
679.5765003091522
 30
0.0
 11
330.3772508740297
 21
89.576500309146
 31
0.0
  0
LINE
  5
155
330
1F
100
AcDbEntity
  8
0-0
  6
JWW_DASHED1
 62
   120
370
     5
100
AcDbLine
 10
-259.6227491259692
 20
689.4759952443617
 30
0.0
 11
330.3772508740212
 21
99.47599524437003
 31
0.0
  0
LINE
  5
156
330
1F
100
AcDbEntity
  8
0-0
  6
JWW_DASHED1
 62
   120
370
     5
100
AcDbLine
 10
-259.6227491259589
 20
699.3754901795123
 30
0.0
 11
330.3772508740271
 21
109.3754901795267
 31
0.0
  0
LINE
  5
157
330
1F
100
AcDbEntity
  8
0-0
  6
JWW_DASHED1
 62
   120
370
     5
100
AcDbLine
 10
-259.622749125964
 20
709.2749851147338
 30
0.0
 11
330.3772508740263
 21
119.2749851147435
 31
0.0
  0
LINE
  5
158
330
1F
100
AcDbEntity
  8
0-0
  6
JWW_DASHED1
 62
   120
370
     5
100
AcDbLine
 10
-259.6227491259717
 20
719.1744800499579
 30
0.0
 11
330.3772508740348
 21
129.1744800499517
 31
0.0
  0
LINE
  5
159
330
1F
100
AcDbEntity
  8
0-0
  6
JWW_DASHED1
 62
   120
370
     5
100
AcDbLine
 10
-259.6227491259589
 20
729.0739749851077
 30
0.0
 11
330.3772508740314
 21
139.0739749851165
 31
0.0
  0
LINE
  5
15A
330
1F
100
AcDbEntity
  8
0-0
  6
JWW_DASHED1
 62
   120
370
     5
100
AcDbLine
 10
-259.6227491259521
 20
738.9734699203173
 30
0.0
 11
330.3772508740331
 21
148.9734699203311
 31
0.0
  0
LINE
  5
15B
330
1F
100
AcDbEntity
  8
0-0
  6
JWW_DASHED1
 62
   120
370
     5
100
AcDbLine
 10
-259.6227491259734
 20
748.8729648555541
 30
0.0
 11
330.3772508740323
 21
158.8729648555488
 31
0.0
  0
LINE
  5
15C
330
1F
100
AcDbEntity
  8
0-0
  6
JWW_DASHED1
 62
   120
370
     5
100
AcDbLine
 10
-259.6227491259615
 20
758.7724597907039
 30
0.0
 11
330.3772508740297
 21
168.7724597907135
 31
0.0
  0
LINE
  5
15D
330
1F
100
AcDbEntity
  8
0-0
  6
JWW_DASHED1
 62
   120
370
     5
100
AcDbLine
 10
-259.6227491259547
 20
768.6719547259142
 30
0.0
 11
330.3772508740306
 21
178.6719547259282
 31
0.0
  0
LINE
  5
15E
330
1F
100
AcDbEntity
  8
0-0
  6
JWW_DASHED1
 62
   120
370
     5
100
AcDbLine
 10
-259.6227491259717
 20
778.5714496610923
 30
0.0
 11
330.3772508740348
 21
188.5714496610857
 31
0.0
  0
LINE
  5
15F
330
1F
100
AcDbEntity
  8
0-0
  6
JWW_DASHED1
 62
   120
370
     5
100
AcDbLine
 10
-259.622749125964
 20
788.4709445963009
 30
0.0
 11
330.3772508740263
 21
198.4709445963106
 31
0.0
  0
LINE
  5
160
330
1F
100
AcDbEntity
  8
0-0
  6
JWW_DASHED1
 62
   120
370
     5
100
AcDbLine
 10
-259.6227491259572
 20
798.3704395315104
 30
0.0
 11
330.377250874028
 21
208.3704395315252
 31
0.0
  0
LINE
  5
161
330
1F
100
AcDbEntity
  8
0-0
  6
JWW_DASHED1
 62
   120
370
     5
100
AcDbLine
 10
-259.6227491259743
 20
808.2699344666893
 30
0.0
 11
330.3772508740323
 21
218.2699344666827
 31
0.0
  0
LINE
  5
162
330
1F
100
AcDbEntity
  8
0-0
  6
JWW_DASHED1
 62
   120
370
     5
100
AcDbLine
 10
-259.6227491259666
 20
818.169429401898
 30
0.0
 11
330.3772508740246
 21
228.1694294019076
 31
0.0
  0
LINE
  5
163
330
1F
100
AcDbEntity
  8
0-0
  6
JWW_DASHED1
 62
   120
370
     5
100
AcDbLine
 10
-259.6227491259581
 20
828.0689243371066
 30
0.0
 11
330.3772508740331
 21
238.068924337115
 31
0.0
  0
LINE
  5
164
330
1F
100
AcDbEntity
  8
0-0
  6
JWW_DASHED1
 62
   120
370
     5
100
AcDbLine
 10
-259.6227491259768
 20
837.9684192722864
 30
0.0
 11
330.3772508740297
 21
247.9684192722806
 31
0.0
  0
LINE
  5
165
330
1F
100
AcDbEntity
  8
0-0
  6
JWW_DASHED1
 62
   120
370
     5
100
AcDbLine
 10
-259.6227491259683
 20
847.8679142074942
 30
0.0
 11
330.3772508740212
 21
257.8679142075047
 31
0.0
  0
LINE
  5
166
330
1F
100
AcDbEntity
  8
0-0
  6
JWW_DASHED1
 62
   120
370
     5
100
AcDbLine
 10
-259.6227491259606
 20
857.7674091427037
 30
0.0
 11
330.3772508740297
 21
267.7674091427121
 31
0.0
  0
LINE
  5
167
330
1F
100
AcDbEntity
  8
0-0
  6
JWW_DASHED1
 62
   120
370
     5
100
AcDbLine
 10
-259.622749125964
 20
867.666904077868
 30
0.0
 11
330.3772508740271
 21
277.6669040778768
 31
0.0
  0
LINE
  5
168
330
1F
100
AcDbEntity
  8
0-0
  6
JWW_DASHED1
 62
   120
370
     5
100
AcDbLine
 10
-259.6227491259709
 20
877.5663990130912
 30
0.0
 11
330.3772508740348
 21
287.566399013086
 31
0.0
  0
LINE
  5
169
330
1F
100
AcDbEntity
  8
0-0
  6
JWW_DASHED1
 62
   120
370
     5
100
AcDbLine
 10
-259.6227491259632
 20
887.4658939483007
 30
0.0
 11
330.377250874028
 21
297.4658939483095
 31
0.0
  0
LINE
  5
16A
330
1F
100
AcDbEntity
  8
0-0
  6
JWW_DASHED1
 62
   120
370
     5
100
AcDbLine
 10
-259.6227491259504
 20
897.3653888834498
 30
0.0
 11
330.3772508740348
 21
307.3653888834645
 31
0.0
  0
LINE
  5
16B
330
1F
100
AcDbEntity
  8
0-0
  6
JWW_DASHED1
 62
   120
370
     5
100
AcDbLine
 10
-259.6227491259734
 20
907.2648838186883
 30
0.0
 11
330.3772508740331
 21
317.2648838186817
 31
0.0
  0
LINE
  5
16C
330
1F
100
AcDbEntity
  8
0-0
  6
JWW_DASHED1
 62
   120
370
     5
100
AcDbLine
 10
-259.6227491259658
 20
917.1643787538969
 30
0.0
 11
330.3772508740246
 21
327.1643787539066
 31
0.0
  0
LINE
  5
16D
330
1F
100
AcDbEntity
  8
0-0
  6
JWW_DASHED1
 62
   120
370
     5
100
AcDbLine
 10
-259.622749125953
 20
927.0638736890468
 30
0.0
 11
330.3772508740323
 21
337.0638736890607
 31
0.0
  0
LINE
  5
16E
330
1F
100
AcDbEntity
  8
0-0
  6
JWW_DASHED1
 62
   120
370
     5
100
AcDbLine
 10
-259.622749125976
 20
936.9633686242853
 30
0.0
 11
330.3772508740306
 21
346.9633686242788
 31
0.0
  0
LINE
  5
16F
330
1F
100
AcDbEntity
  8
0-0
  6
JWW_DASHED1
 62
   120
370
     5
100
AcDbLine
 10
-259.6227491259683
 20
946.862863559494
 30
0.0
 11
330.3772508740229
 21
356.8628635595036
 31
0.0
  0
LINE
  5
170
330
1F
100
AcDbEntity
  8
0-0
  6
JWW_DASHED1
 62
   120
370
     5
100
AcDbLine
 10
-259.6227491259555
 20
956.7623584946439
 30
0.0
 11
330.3772508740306
 21
366.7623584946573
 31
0.0
  0
LINE
  5
171
330
1F
100
AcDbEntity
  8
0-0
  6
JWW_DASHED1
 62
   120
370
     5
100
AcDbLine
 10
-259.6227491259632
 20
966.661853429867
 30
0.0
 11
330.377250874028
 21
376.6618534298767
 31
0.0
  0
LINE
  5
172
330
1F
100
AcDbEntity
  8
0-0
  6
JWW_DASHED1
 62
   120
370
     5
100
AcDbLine
 10
-259.62274912597
 20
976.5613483650902
 30
0.0
 11
330.3772508740195
 21
386.5613483651007
 31
0.0
  0
LINE
  5
173
330
1F
100
AcDbEntity
  8
0-0
  6
JWW_DASHED1
 62
   120
370
     5
100
AcDbLine
 10
-259.6011281782524
 20
986.4392223525343
 30
0.0
 11
330.3772508740331
 21
396.4608433002497
 31
0.0
  0
LINE
  5
174
330
1F
100
AcDbEntity
  8
0-0
  6
JWW_DASHED1
 62
   120
370
     5
100
AcDbLine
 10
-249.7016332430284
 20
986.4392223525267
 30
0.0
 11
330.3772508740246
 21
406.3603382354737
 31
0.0
  0
LINE
  5
175
330
1F
100
AcDbEntity
  8
0-0
  6
JWW_DASHED1
 62
   120
370
     5
100
AcDbLine
 10
-239.8021383078043
 20
986.4392223525199
 30
0.0
 11
330.3772508740331
 21
416.2598331706811
 31
0.0
  0
LINE
  5
176
330
1F
100
AcDbEntity
  8
0-0
  6
JWW_DASHED1
 62
   120
370
     5
100
AcDbLine
 10
-229.9026433726545
 20
986.4392223525318
 30
0.0
 11
330.3772508740297
 21
426.1593281058467
 31
0.0
  0
LINE
  5
177
330
1F
100
AcDbEntity
  8
0-0
  6
JWW_DASHED1
 62
   120
370
     5
100
AcDbLine
 10
-220.0031484374467
 20
986.4392223525394
 30
0.0
 11
330.377250874034
 21
436.0588230410593
 31
0.0
  0
LINE
  5
178
330
1F
100
AcDbEntity
  8
0-0
  6
JWW_DASHED1
 62
   120
370
     5
100
AcDbLine
 10
-210.1036535022073
 20
986.4392223525165
 30
0.0
 11
330.3772508740314
 21
445.9583179762782
 31
0.0
  0
LINE
  5
179
330
1F
100
AcDbEntity
  8
0-0
  6
JWW_DASHED1
 62
   120
370
     5
100
AcDbLine
 10
-200.2041585670574
 20
986.4392223525284
 30
0.0
 11
330.377250874028
 21
455.8578129114438
 31
0.0
  0
LINE
  5
17A
330
1F
100
AcDbEntity
  8
0-0
  6
JWW_DASHED1
 62
   120
370
     5
100
AcDbLine
 10
-190.3046636318488
 20
986.439222352536
 30
0.0
 11
330.3772508740314
 21
465.7573078466563
 31
0.0
  0
LINE
  5
17B
330
1F
100
AcDbEntity
  8
0-0
  6
JWW_DASHED1
 62
   120
370
     5
100
AcDbLine
 10
-180.4051686966699
 20
986.439222352519
 30
0.0
 11
330.3772508740331
 21
475.6568027818164
 31
0.0
  0
LINE
  5
17C
330
1F
100
AcDbEntity
  8
0-0
  6
JWW_DASHED1
 62
   120
370
     5
100
AcDbLine
 10
-170.5056737614587
 20
986.439222352525
 30
0.0
 11
330.3772508740254
 21
485.55629771704
 31
0.0
  0
LINE
  5
17D
330
1F
100
AcDbEntity
  8
0-0
  6
JWW_DASHED1
 62
   120
370
     5
100
AcDbLine
 10
-160.6061788262509
 20
986.4392223525335
 30
0.0
 11
330.3772508740297
 21
495.4557926522529
 31
0.0
  0
LINE
  5
17E
330
1F
100
AcDbEntity
  8
0-0
  6
JWW_DASHED1
 62
   120
370
     5
100
AcDbLine
 10
-150.7066838910729
 20
986.4392223525173
 30
0.0
 11
330.3772508740306
 21
505.3552875874134
 31
0.0
  0
LINE
  5
17F
330
1F
100
AcDbEntity
  8
0-0
  6
JWW_DASHED1
 62
   120
370
     5
100
AcDbLine
 10
-140.8071889558616
 20
986.4392223525224
 30
0.0
 11
330.3772508740237
 21
515.2547825226366
 31
0.0
  0
LINE
  5
180
330
1F
100
AcDbEntity
  8
0-0
  6
JWW_DASHED1
 62
   120
370
     5
100
AcDbLine
 10
-130.9076940206538
 20
986.4392223525301
 30
0.0
 11
330.3772508740314
 21
525.1542774578458
 31
0.0
  0
LINE
  5
181
330
1F
100
AcDbEntity
  8
0-0
  6
JWW_DASHED1
 62
   120
370
     5
100
AcDbLine
 10
-121.0081990854758
 20
986.4392223525148
 30
0.0
 11
330.377250874028
 21
535.0537723930105
 31
0.0
  0
LINE
  5
182
330
1F
100
AcDbEntity
  8
0-0
  6
JWW_DASHED1
 62
   120
370
     5
100
AcDbLine
 10
-111.1087041502646
 20
986.4392223525199
 30
0.0
 11
330.3772508740203
 21
544.9532673282345
 31
0.0
  0
LINE
  5
183
330
1F
100
AcDbEntity
  8
0-0
  6
JWW_DASHED1
 62
   120
370
     5
100
AcDbLine
 10
-101.2092092150559
 20
986.4392223525267
 30
0.0
 11
330.377250874028
 21
554.8527622634427
 31
0.0
  0
LINE
  5
184
330
1F
100
AcDbEntity
  8
0-0
  6
JWW_DASHED1
 62
   120
370
     5
100
AcDbLine
 10
-91.30971427989073
 20
986.4392223525241
 30
0.0
 11
330.3772508740254
 21
564.7522571986075
 31
0.0
  0
LINE
  5
185
330
1F
100
AcDbEntity
  8
0-0
  6
JWW_DASHED1
 62
   120
370
     5
100
AcDbLine
 10
-81.41021934467096
 20
986.4392223525207
 30
0.0
 11
330.377250874034
 21
574.651752133815
 31
0.0
  0
LINE
  5
186
330
1F
100
AcDbEntity
  8
0-0
  6
JWW_DASHED1
 62
   120
370
     5
100
AcDbLine
 10
-71.51072440945887
 20
986.4392223525241
 30
0.0
 11
330.3772508740263
 21
584.5512470690398
 31
0.0
  0
LINE
  5
187
330
1F
100
AcDbEntity
  8
0-0
  6
JWW_DASHED1
 62
   120
370
     5
100
AcDbLine
 10
-61.61122947430903
 20
986.439222352536
 30
0.0
 11
330.3772508740357
 21
594.4507420041917
 31
0.0
  0
LINE
  5
188
330
1F
100
AcDbEntity
  8
0-0
  6
JWW_DASHED1
 62
   120
370
     5
100
AcDbLine
 10
-51.71173453907562
 20
986.439222352519
 30
0.0
 11
330.3772508740314
 21
604.350236939412
 31
0.0
  0
LINE
  5
189
330
1F
100
AcDbEntity
  8
0-0
  6
JWW_DASHED1
 62
   120
370
     5
100
AcDbLine
 10
-41.81223960386097
 20
986.4392223525216
 30
0.0
 11
330.3772508740229
 21
614.2497318746368
 31
0.0
  0
LINE
  5
18A
330
1F
100
AcDbEntity
  8
0-0
  6
JWW_DASHED1
 62
   120
370
     5
100
AcDbLine
 10
-31.91274466871112
 20
986.4392223525335
 30
0.0
 11
330.3772508740331
 21
624.1492268097884
 31
0.0
  0
LINE
  5
18B
330
1F
100
AcDbEntity
  8
0-0
  6
JWW_DASHED1
 62
   120
370
     5
100
AcDbLine
 10
-22.01324973347857
 20
986.4392223525165
 30
0.0
 11
330.3772508740288
 21
634.0487217450091
 31
0.0
  0
LINE
  5
18C
330
1F
100
AcDbEntity
  8
0-0
  6
JWW_DASHED1
 62
   120
370
     5
100
AcDbLine
 10
-12.11375479826392
 20
986.4392223525182
 30
0.0
 11
330.377250874022
 21
643.9482166802326
 31
0.0
  0
LINE
  5
18D
330
1F
100
AcDbEntity
  8
0-0
  6
JWW_DASHED1
 62
   120
370
     5
100
AcDbLine
 10
-2.214259863114076
 20
986.4392223525301
 30
0.0
 11
330.3772508740314
 21
653.8477116153855
 31
0.0
  0
LINE
  5
18E
330
1F
100
AcDbEntity
  8
0-0
  6
JWW_DASHED1
 62
   120
370
     5
100
AcDbLine
 10
7.68523507210995
 20
986.4392223525224
 30
0.0
 11
330.3772508740263
 21
663.7472065506065
 31
0.0
  0
LINE
  5
18F
330
1F
100
AcDbEntity
  8
0-0
  6
JWW_DASHED1
 62
   120
370
     5
100
AcDbLine
 10
17.58473000733398
 20
986.4392223525148
 30
0.0
 11
330.3772508740186
 21
673.6467014858301
 31
0.0
  0
LINE
  5
190
330
1F
100
AcDbEntity
  8
0-0
  6
JWW_DASHED1
 62
   120
370
     5
100
AcDbLine
 10
27.48422494248382
 20
986.4392223525267
 30
0.0
 11
330.3772508740314
 21
683.5461964209795
 31
0.0
  0
LINE
  5
191
330
1F
100
AcDbEntity
  8
0-0
  6
JWW_DASHED1
 62
   120
370
     5
100
AcDbLine
 10
37.38371987769165
 20
986.4392223525352
 30
0.0
 11
330.3772508740365
 21
693.4456913561899
 31
0.0
  0
LINE
  5
192
330
1F
100
AcDbEntity
  8
0-0
  6
JWW_DASHED1
 62
   120
370
     5
100
AcDbLine
 10
47.28321481292335
 20
986.4392223525199
 30
0.0
 11
330.3772508740323
 21
703.345186291411
 31
0.0
  0
LINE
  5
193
330
1F
100
AcDbEntity
  8
0-0
  6
JWW_DASHED1
 62
   120
370
     5
100
AcDbLine
 10
57.18270974808087
 20
986.4392223525241
 30
0.0
 11
330.377250874028
 21
713.244681226577
 31
0.0
  0
LINE
  5
194
330
1F
100
AcDbEntity
  8
0-0
  6
JWW_DASHED1
 62
   120
370
     5
100
AcDbLine
 10
67.08220468328955
 20
986.4392223525326
 30
0.0
 11
330.3772508740348
 21
723.1441761617865
 31
0.0
  0
LINE
  5
195
330
1F
100
AcDbEntity
  8
0-0
  6
JWW_DASHED1
 62
   120
370
     5
100
AcDbLine
 10
76.98169961846156
 20
986.4392223525224
 30
0.0
 11
330.377250874034
 21
733.0436710969495
 31
0.0
  0
LINE
  5
196
330
1F
100
AcDbEntity
  8
0-0
  6
JWW_DASHED1
 62
   120
370
     5
100
AcDbLine
 10
86.88119455367877
 20
986.4392223525216
 30
0.0
 11
330.3772508740263
 21
742.9431660321736
 31
0.0
  0
LINE
  5
197
330
1F
100
AcDbEntity
  8
0-0
  6
JWW_DASHED1
 62
   120
370
     5
100
AcDbLine
 10
96.7806894888866
 20
986.4392223525292
 30
0.0
 11
330.3772508740331
 21
752.8426609673832
 31
0.0
  0
LINE
  5
198
330
1F
100
AcDbEntity
  8
0-0
  6
JWW_DASHED1
 62
   120
370
     5
100
AcDbLine
 10
106.6801844240578
 20
986.4392223525199
 30
0.0
 11
330.3772508740314
 21
762.7421559025466
 31
0.0
  0
LINE
  5
199
330
1F
100
AcDbEntity
  8
0-0
  6
JWW_DASHED1
 62
   120
370
     5
100
AcDbLine
 10
116.5796793592758
 20
986.4392223525182
 30
0.0
 11
330.3772508740246
 21
772.6416508377698
 31
0.0
  0
LINE
  5
19A
330
1F
100
AcDbEntity
  8
0-0
  6
JWW_DASHED1
 62
   120
370
     5
100
AcDbLine
 10
126.4791742944836
 20
986.4392223525267
 30
0.0
 11
330.3772508740306
 21
782.54114577298
 31
0.0
  0
LINE
  5
19B
330
1F
100
AcDbEntity
  8
0-0
  6
JWW_DASHED1
 62
   120
370
     5
100
AcDbLine
 10
136.3786692296548
 20
986.4392223525173
 30
0.0
 11
330.3772508740288
 21
792.4406407081435
 31
0.0
  0
LINE
  5
19C
330
1F
100
AcDbEntity
  8
0-0
  6
JWW_DASHED1
 62
   120
370
     5
100
AcDbLine
 10
146.2781641648737
 20
986.4392223525148
 30
0.0
 11
330.3772508740212
 21
802.3401356433667
 31
0.0
  0
LINE
  5
19D
330
1F
100
AcDbEntity
  8
0-0
  6
JWW_DASHED1
 62
   120
370
     5
100
AcDbLine
 10
156.1776591000824
 20
986.4392223525224
 30
0.0
 11
330.3772508740297
 21
812.2396305785751
 31
0.0
  0
LINE
  5
19E
330
1F
100
AcDbEntity
  8
0-0
  6
JWW_DASHED1
 62
   120
370
     5
100
AcDbLine
 10
166.0771540352476
 20
986.4392223525194
 30
0.0
 11
330.3772508740263
 21
822.1391255137407
 31
0.0
  0
LINE
  5
19F
330
1F
100
AcDbEntity
  8
0-0
  6
JWW_DASHED1
 62
   120
370
     5
100
AcDbLine
 10
175.9766489704716
 20
986.4392223525117
 30
0.0
 11
330.3772508740195
 21
832.0386204489639
 31
0.0
  0
LINE
  5
1A0
330
1F
100
AcDbEntity
  8
0-0
  6
JWW_DASHED1
 62
   120
370
     5
100
AcDbLine
 10
185.8761439056794
 20
986.4392223525202
 30
0.0
 11
330.3772508740271
 21
841.9381153841724
 31
0.0
  0
LINE
  5
1A1
330
1F
100
AcDbEntity
  8
0-0
  6
JWW_DASHED1
 62
   120
370
     5
100
AcDbLine
 10
195.7756388408446
 20
986.4392223525168
 30
0.0
 11
330.3772508740237
 21
851.8376103193376
 31
0.0
  0
LINE
  5
1A2
330
1F
100
AcDbEntity
  8
0-0
  6
JWW_DASHED1
 62
   120
370
     5
100
AcDbLine
 10
205.6751337760567
 20
986.4392223525211
 30
0.0
 11
330.3772508740323
 21
861.7371052545454
 31
0.0
  0
LINE
  5
1A3
330
1F
100
AcDbEntity
  8
0-0
  6
JWW_DASHED1
 62
   120
370
     5
100
AcDbLine
 10
215.5746287112782
 20
986.4392223525165
 30
0.0
 11
330.3772508740246
 21
871.6366001897696
 31
0.0
  0
LINE
  5
1A4
330
1F
100
AcDbEntity
  8
0-0
  6
JWW_DASHED1
 62
   120
370
     5
100
AcDbLine
 10
225.4741236464263
 20
986.4392223525292
 30
0.0
 11
330.3772508740365
 21
881.536095124919
 31
0.0
  0
LINE
  5
1A5
330
1F
100
AcDbEntity
  8
0-0
  6
JWW_DASHED1
 62
   120
370
     5
100
AcDbLine
 10
235.3736185816529
 20
986.439222352519
 30
0.0
 11
330.3772508740297
 21
891.4355900601427
 31
0.0
  0
LINE
  5
1A6
330
1F
100
AcDbEntity
  8
0-0
  6
JWW_DASHED1
 62
   120
370
     5
100
AcDbLine
 10
245.2731135168744
 20
986.4392223525139
 30
0.0
 11
330.377250874022
 21
901.3350849953665
 31
0.0
  0
LINE
  5
1A7
330
1F
100
AcDbEntity
  8
0-0
  6
JWW_DASHED1
 62
   120
370
     5
100
AcDbLine
 10
255.1726084520242
 20
986.4392223525267
 30
0.0
 11
330.377250874034
 21
911.2345799305161
 31
0.0
  0
LINE
  5
1A8
330
1F
100
AcDbEntity
  8
0-0
  6
JWW_DASHED1
 62
   120
370
     5
100
AcDbLine
 10
265.0721033872491
 20
986.4392223525173
 30
0.0
 11
330.3772508740271
 21
921.1340748657395
 31
0.0
  0
LINE
  5
1A9
330
1F
100
AcDbEntity
  8
0-0
  6
JWW_DASHED1
 62
   120
370
     5
100
AcDbLine
 10
274.9715983224723
 20
986.4392223525109
 30
0.0
 11
330.3772508740195
 21
931.0335698009627
 31
0.0
  0
LINE
  5
1AA
330
1F
100
AcDbEntity
  8
0-0
  6
JWW_DASHED1
 62
   120
370
     5
100
AcDbLine
 10
284.8710932576221
 20
986.4392223525228
 30
0.0
 11
330.3772508740314
 21
940.9330647361131
 31
0.0
  0
LINE
  5
1AB
330
1F
100
AcDbEntity
  8
0-0
  6
JWW_DASHED1
 62
   120
370
     5
100
AcDbLine
 10
294.7705881928462
 20
986.4392223525151
 30
0.0
 11
330.3772508740246
 21
950.8325596713368
 31
0.0
  0
LINE
  5
1AC
330
1F
100
AcDbEntity
  8
0-0
  6
JWW_DASHED1
 62
   120
370
     5
100
AcDbLine
 10
304.6700831280114
 20
986.4392223525117
 30
0.0
 11
330.3772508740212
 21
960.7320546065015
 31
0.0
  0
LINE
  5
1AD
330
1F
100
AcDbEntity
  8
0-0
  6
JWW_DASHED1
 62
   120
370
     5
100
AcDbLine
 10
314.5695780632192
 20
986.4392223525202
 30
0.0
 11
330.3772508740297
 21
970.6315495417098
 31
0.0
  0
LINE
  5
1AE
330
1F
100
AcDbEntity
  8
0-0
  6
JWW_DASHED1
 62
   120
370
     5
100
AcDbLine
 10
324.4690729984279
 20
986.4392223525275
 30
0.0
 11
330.3772508740382
 21
980.531044476918
 31
0.0
  0
LINE
  5
1AF
330
1F
100
AcDbEntity
  8
0-0
  6
JWW_DASHED1
 62
   120
370
     5
100
AcDbLine
 10
520.377250874036
 20
-13.38814515469529
 30
0.0
 11
1110.377250874026
 21
-603.3881451546856
 31
0.0
  0
LINE
  5
1B0
330
1F
100
AcDbEntity
  8
0-0
  6
JWW_DASHED1
 62
   120
370
     5
100
AcDbLine
 10
520.3772508740445
 20
-3.488650219487468
 30
0.0
 11
1110.377250874035
 21
-593.4886502194782
 31
0.0
  0
LINE
  5
1B1
330
1F
100
AcDbEntity
  8
0-0
  6
JWW_DASHED1
 62
   120
370
     5
100
AcDbLine
 10
520.3772508740403
 20
6.410844715678152
 30
0.0
 11
1110.377250874031
 21
-583.5891552843126
 31
0.0
  0
LINE
  5
1B2
330
1F
100
AcDbEntity
  8
0-0
  6
JWW_DASHED1
 62
   120
370
     5
100
AcDbLine
 10
520.3772508740335
 20
16.31033965090175
 30
0.0
 11
1110.377250874025
 21
-573.6896603490894
 31
0.0
  0
LINE
  5
1B3
330
1F
100
AcDbEntity
  8
0-0
  6
JWW_DASHED1
 62
   120
370
     5
100
AcDbLine
 10
520.3772508740419
 20
26.20983458610958
 30
0.0
 11
1110.377250874033
 21
-563.7901654138811
 31
0.0
  0
LINE
  5
1B4
330
1F
100
AcDbEntity
  8
0-0
  6
JWW_DASHED1
 62
   120
370
     5
100
AcDbLine
 10
520.3772508740385
 20
36.10932952127477
 30
0.0
 11
1110.377250874029
 21
-553.8906704787156
 31
0.0
  0
LINE
  5
1B5
330
1F
100
AcDbEntity
  8
0-0
  6
JWW_DASHED1
 62
   120
370
     5
100
AcDbLine
 10
520.3772508740309
 20
46.0088244564988
 30
0.0
 11
1110.377250874038
 21
-543.9911755435081
 31
0.0
  0
LINE
  5
1B6
330
1F
100
AcDbEntity
  8
0-0
  6
JWW_DASHED1
 62
   120
370
     5
100
AcDbLine
 10
520.3772508740394
 20
55.90831939170663
 30
0.0
 11
1110.37725087403
 21
-534.0916806082842
 31
0.0
  0
LINE
  5
1B7
330
1F
100
AcDbEntity
  8
0-0
  6
JWW_DASHED1
 62
   120
370
     5
100
AcDbLine
 10
520.3772508740445
 20
65.8078143268633
 30
0.0
 11
1110.37725087403
 21
-524.1921856731224
 31
0.0
  0
LINE
  5
1B8
330
1F
100
AcDbEntity
  8
0-0
  6
JWW_DASHED1
 62
   120
370
     5
100
AcDbLine
 10
520.3772508740283
 20
75.70730926209585
 30
0.0
 11
1110.377250874035
 21
-514.2926907379111
 31
0.0
  0
LINE
  5
1B9
330
1F
100
AcDbEntity
  8
0-0
  6
JWW_DASHED1
 62
   120
370
     5
100
AcDbLine
 10
520.3772508740369
 20
85.60680419730367
 30
0.0
 11
1110.377250874028
 21
-504.3931958026871
 31
0.0
  0
LINE
  5
1BA
330
1F
100
AcDbEntity
  8
0-0
  6
JWW_DASHED1
 62
   120
370
     5
100
AcDbLine
 10
520.3772508740428
 20
95.50629913245992
 30
0.0
 11
1110.377250874028
 21
-494.4937008675257
 31
0.0
  0
LINE
  5
1BB
330
1F
100
AcDbEntity
  8
0-0
  6
JWW_DASHED1
 62
   120
370
     5
100
AcDbLine
 10
520.3772508740258
 20
105.4057940676929
 30
0.0
 11
1110.377250874032
 21
-484.5942059323141
 31
0.0
  0
LINE
  5
1BC
330
1F
100
AcDbEntity
  8
0-0
  6
JWW_DASHED1
 62
   120
370
     5
100
AcDbLine
 10
520.3772508740343
 20
115.3052890029007
 30
0.0
 11
1110.377250874026
 21
-474.6947109970905
 31
0.0
  0
LINE
  5
1BD
330
1F
100
AcDbEntity
  8
0-0
  6
JWW_DASHED1
 62
   120
370
     5
100
AcDbLine
 10
520.3772508740394
 20
125.204783938057
 30
0.0
 11
1110.377250874026
 21
-464.7952160619287
 31
0.0
  0
LINE
  5
1BE
330
1F
100
AcDbEntity
  8
0-0
  6
JWW_DASHED1
 62
   120
370
     5
100
AcDbLine
 10
520.3772508740394
 20
135.1042788732742
 30
0.0
 11
1110.37725087403
 21
-454.895721126717
 31
0.0
  0
LINE
  5
1BF
330
1F
100
AcDbEntity
  8
0-0
  6
JWW_DASHED1
 62
   120
370
     5
100
AcDbLine
 10
520.3772508740317
 20
145.0037738084978
 30
0.0
 11
1110.377250874038
 21
-444.9962261915092
 31
0.0
  0
LINE
  5
1C0
330
1F
100
AcDbEntity
  8
0-0
  6
JWW_DASHED1
 62
   120
370
     5
100
AcDbLine
 10
520.3772508740445
 20
154.9032687436468
 30
0.0
 11
1110.377250874035
 21
-435.0967312563436
 31
0.0
  0
LINE
  5
1C1
330
1F
100
AcDbEntity
  8
0-0
  6
JWW_DASHED1
 62
   120
370
     5
100
AcDbLine
 10
520.3772508740462
 20
164.8027636788618
 30
0.0
 11
1110.377250874032
 21
-425.1972363211246
 31
0.0
  0
LINE
  5
1C2
330
1F
100
AcDbEntity
  8
0-0
  6
JWW_DASHED1
 62
   120
370
     5
100
AcDbLine
 10
520.3772508740335
 20
174.702258614036
 30
0.0
 11
1110.377250874025
 21
-415.2977413859552
 31
0.0
  0
LINE
  5
1C3
330
1F
100
AcDbEntity
  8
0-0
  6
JWW_DASHED1
 62
   120
370
     5
100
AcDbLine
 10
520.3772508740419
 20
184.6017535492438
 30
0.0
 11
1110.377250874032
 21
-405.3982464507465
 31
0.0
  0
LINE
  5
1C4
330
1F
100
AcDbEntity
  8
0-0
  6
JWW_DASHED1
 62
   120
370
     5
100
AcDbLine
 10
520.3772508740428
 20
194.5012484844589
 30
0.0
 11
1110.37725087403
 21
-395.4987515155276
 31
0.0
  0
LINE
  5
1C5
330
1F
100
AcDbEntity
  8
0-0
  6
JWW_DASHED1
 62
   120
370
     5
100
AcDbLine
 10
520.3772508740309
 20
204.400743419633
 30
0.0
 11
1110.377250874037
 21
-385.5992565803735
 31
0.0
  0
LINE
  5
1C6
330
1F
100
AcDbEntity
  8
0-0
  6
JWW_DASHED1
 62
   120
370
     5
100
AcDbLine
 10
520.3772508740394
 20
214.3002383548409
 30
0.0
 11
1110.377250874031
 21
-375.6997616451503
 31
0.0
  0
LINE
  5
1C7
330
1F
100
AcDbEntity
  8
0-0
  6
JWW_DASHED1
 62
   120
370
     5
100
AcDbLine
 10
520.3772508740411
 20
224.1997332900551
 30
0.0
 11
1110.377250874027
 21
-365.8002667099306
 31
0.0
  0
LINE
  5
1C8
330
1F
100
AcDbEntity
  8
0-0
  6
JWW_DASHED1
 62
   120
370
     5
100
AcDbLine
 10
520.3772508740292
 20
234.0992282252296
 30
0.0
 11
1110.377250874035
 21
-355.9007717747764
 31
0.0
  0
LINE
  5
1C9
330
1F
100
AcDbEntity
  8
0-0
  6
JWW_DASHED1
 62
   120
370
     5
100
AcDbLine
 10
520.3772508740369
 20
243.9987231604379
 30
0.0
 11
1110.377250874028
 21
-346.0012768395533
 31
0.0
  0
LINE
  5
1CA
330
1F
100
AcDbEntity
  8
0-0
  6
JWW_DASHED1
 62
   120
370
     5
100
AcDbLine
 10
520.3772508740453
 20
253.8982180956457
 30
0.0
 11
1110.377250874037
 21
-336.1017819043454
 31
0.0
  0
LINE
  5
1CB
330
1F
100
AcDbEntity
  8
0-0
  6
JWW_DASHED1
 62
   120
370
     5
100
AcDbLine
 10
520.3772508740258
 20
263.7977130308267
 30
0.0
 11
1110.377250874033
 21
-326.2022869691802
 31
0.0
  0
LINE
  5
1CC
330
1F
100
AcDbEntity
  8
0-0
  6
JWW_DASHED1
 62
   120
370
     5
100
AcDbLine
 10
520.3772508740343
 20
273.6972079660345
 30
0.0
 11
1110.377250874026
 21
-316.3027920339562
 31
0.0
  0
LINE
  5
1CD
330
1F
100
AcDbEntity
  8
0-0
  6
JWW_DASHED1
 62
   120
370
     5
100
AcDbLine
 10
520.3772508740428
 20
283.5967029012428
 30
0.0
 11
1110.377250874033
 21
-306.403297098748
 31
0.0
  0
LINE
  5
1CE
330
1F
100
AcDbEntity
  8
0-0
  6
JWW_DASHED1
 62
   120
370
     5
100
AcDbLine
 10
520.3772508740394
 20
293.496197836408
 30
0.0
 11
1110.37725087403
 21
-296.5038021635832
 31
0.0
  0
LINE
  5
1CF
330
1F
100
AcDbEntity
  8
0-0
  6
JWW_DASHED1
 62
   120
370
     5
100
AcDbLine
 10
520.3772508740317
 20
303.395692771632
 30
0.0
 11
1110.377250874023
 21
-286.6043072283592
 31
0.0
  0
LINE
  5
1D0
330
1F
100
AcDbEntity
  8
0-0
  6
JWW_DASHED1
 62
   120
370
     5
100
AcDbLine
 10
520.3772508740403
 20
313.2951877068398
 30
0.0
 11
1110.377250874031
 21
-276.7048122931505
 31
0.0
  0
LINE
  5
1D1
330
1F
100
AcDbEntity
  8
0-0
  6
JWW_DASHED1
 62
   120
370
     5
100
AcDbLine
 10
520.3772508740471
 20
323.1946826419948
 30
0.0
 11
1110.377250874033
 21
-266.8053173579913
 31
0.0
  0
LINE
  5
1D2
330
1F
100
AcDbEntity
  8
0-0
  6
JWW_DASHED1
 62
   120
370
     5
100
AcDbLine
 10
520.3772508740292
 20
333.0941775772291
 30
0.0
 11
1110.377250874036
 21
-256.9058224227775
 31
0.0
  0
LINE
  5
1D3
330
1F
100
AcDbEntity
  8
0-0
  6
JWW_DASHED1
 62
   120
370
     5
100
AcDbLine
 10
520.3772508740377
 20
342.9936725124369
 30
0.0
 11
1110.377250874029
 21
-247.0063274875543
 31
0.0
  0
LINE
  5
1D4
330
1F
100
AcDbEntity
  8
0-0
  6
JWW_DASHED1
 62
   120
370
     5
100
AcDbLine
 10
520.3772508740445
 20
352.8931674475914
 30
0.0
 11
1110.377250874031
 21
-237.1068325523942
 31
0.0
  0
LINE
  5
1D5
330
1F
100
AcDbEntity
  8
0-0
  6
JWW_DASHED1
 62
   120
370
     5
100
AcDbLine
 10
520.3772508740267
 20
362.7926623828261
 30
0.0
 11
1110.377250874033
 21
-227.2073376171804
 31
0.0
  0
LINE
  5
1D6
330
1F
100
AcDbEntity
  8
0-0
  6
JWW_DASHED1
 62
   120
370
     5
100
AcDbLine
 10
520.3772508740351
 20
372.6921573180339
 30
0.0
 11
1110.377250874026
 21
-217.3078426819573
 31
0.0
  0
LINE
  5
1D7
330
1F
100
AcDbEntity
  8
0-0
  6
JWW_DASHED1
 62
   120
370
     5
100
AcDbLine
 10
520.3772508740428
 20
382.5916522531876
 30
0.0
 11
1110.377250874028
 21
-207.408347746798
 31
0.0
  0
LINE
  5
1D8
330
1F
100
AcDbEntity
  8
0-0
  6
JWW_DASHED1
 62
   120
370
     5
100
AcDbLine
 10
520.3772508740241
 20
392.4911471884227
 30
0.0
 11
1110.377250874031
 21
-197.5088528115834
 31
0.0
  0
LINE
  5
1D9
330
1F
100
AcDbEntity
  8
0-0
  6
JWW_DASHED1
 62
   120
370
     5
100
AcDbLine
 10
520.3772508740326
 20
402.390642123631
 30
0.0
 11
1110.377250874024
 21
-187.6093578763602
 31
0.0
  0
LINE
  5
1DA
330
1F
100
AcDbEntity
  8
0-0
  6
JWW_DASHED1
 62
   120
370
     5
100
AcDbLine
 10
520.3772508740403
 20
412.2901370587846
 30
0.0
 11
1110.377250874026
 21
-177.7098629412014
 31
0.0
  0
LINE
  5
1DB
330
1F
100
AcDbEntity
  8
0-0
  6
JWW_DASHED1
 62
   120
370
     5
100
AcDbLine
 10
520.3772508740377
 20
422.1896319940035
 30
0.0
 11
1110.377250874029
 21
-167.8103680059872
 31
0.0
  0
LINE
  5
1DC
330
1F
100
AcDbEntity
  8
0-0
  6
JWW_DASHED1
 62
   120
370
     5
100
AcDbLine
 10
520.3772508740301
 20
432.089126929228
 30
0.0
 11
1110.377250874037
 21
-157.910873070779
 31
0.0
  0
LINE
  5
1DD
330
1F
100
AcDbEntity
  8
0-0
  6
JWW_DASHED1
 62
   120
370
     5
100
AcDbLine
 10
520.3772508740428
 20
441.988621864377
 30
0.0
 11
1110.377250874033
 21
-148.0113781356142
 31
0.0
  0
LINE
  5
1DE
330
1F
100
AcDbEntity
  8
0-0
  6
JWW_DASHED1
 62
   120
370
     5
100
AcDbLine
 10
520.3772508740462
 20
451.8881167995895
 30
0.0
 11
1110.377250874033
 21
-138.1118832003966
 31
0.0
  0
LINE
  5
1DF
330
1F
100
AcDbEntity
  8
0-0
  6
JWW_DASHED1
 62
   120
370
     5
100
AcDbLine
 10
520.3772508740301
 20
461.7876117347948
 30
0.0
 11
1110.377250874021
 21
-128.2123882651956
 31
0.0
  0
LINE
  5
1E0
330
1F
100
AcDbEntity
  8
0-0
  6
JWW_DASHED1
 62
   120
370
     5
100
AcDbLine
 10
520.3772508740394
 20
471.6871066699741
 30
0.0
 11
1110.377250874031
 21
-118.3128933300171
 31
0.0
  0
LINE
  5
1E1
330
1F
100
AcDbEntity
  8
0-0
  6
JWW_DASHED1
 62
   120
370
     5
100
AcDbLine
 10
520.3772508740437
 20
481.5866016051866
 30
0.0
 11
1110.37725087403
 21
-108.4133983947995
 31
0.0
  0
LINE
  5
1E2
330
1F
100
AcDbEntity
  8
0-0
  6
JWW_DASHED1
 62
   120
370
     5
100
AcDbLine
 10
520.3772508740292
 20
491.4860965403628
 30
0.0
 11
1110.377250874037
 21
-98.51390345964369
 31
0.0
  0
LINE
  5
1E3
330
1F
100
AcDbEntity
  8
0-0
  6
JWW_DASHED1
 62
   120
370
     5
100
AcDbLine
 10
520.3772508740377
 20
501.3855914755711
 30
0.0
 11
1110.377250874028
 21
-88.61440852442009
 31
0.0
  0
LINE
  5
1E4
330
1F
100
AcDbEntity
  8
0-0
  6
JWW_DASHED1
 62
   120
370
     5
100
AcDbLine
 10
520.3772508740428
 20
511.2850864107824
 30
0.0
 11
1110.377250874028
 21
-78.71491358920245
 31
0.0
  0
LINE
  5
1E5
330
1F
100
AcDbEntity
  8
0-0
  6
JWW_DASHED1
 62
   120
370
     5
100
AcDbLine
 10
520.3772508740275
 20
521.1845813459595
 30
0.0
 11
1110.377250874033
 21
-68.81541865404664
 31
0.0
  0
LINE
  5
1E6
330
1F
100
AcDbEntity
  8
0-0
  6
JWW_DASHED1
 62
   120
370
     5
100
AcDbLine
 10
520.3772508740343
 20
531.0840762811681
 30
0.0
 11
1110.377250874026
 21
-58.91592371882261
 31
0.0
  0
LINE
  5
1E7
330
1F
100
AcDbEntity
  8
0-0
  6
JWW_DASHED1
 62
   120
370
     5
100
AcDbLine
 10
520.3772508740437
 20
540.9835712163759
 30
0.0
 11
1110.377250874035
 21
-49.01642878361521
 31
0.0
  0
LINE
  5
1E8
330
1F
100
AcDbEntity
  8
0-0
  6
JWW_DASHED1
 62
   120
370
     5
100
AcDbLine
 10
520.3772508740249
 20
550.8830661515565
 30
0.0
 11
1110.377250874031
 21
-39.11693384844959
 31
0.0
  0
LINE
  5
1E9
330
1F
100
AcDbEntity
  8
0-0
  6
JWW_DASHED1
 62
   120
370
     5
100
AcDbLine
 10
520.3772508740326
 20
560.7825610867648
 30
0.0
 11
1110.377250874023
 21
-29.21743891322556
 31
0.0
  0
LINE
  5
1EA
330
1F
100
AcDbEntity
  8
0-0
  6
JWW_DASHED1
 62
   120
370
     5
100
AcDbLine
 10
520.3772508740411
 20
570.6820560219726
 30
0.0
 11
1110.377250874032
 21
-19.31794397801816
 31
0.0
  0
LINE
  5
1EB
330
1F
100
AcDbEntity
  8
0-0
  6
JWW_DASHED1
 62
   120
370
     5
100
AcDbLine
 10
520.3772508740377
 20
580.5815509571378
 30
0.0
 11
1110.37725087403
 21
-9.418449042853396
 31
0.0
  0
LINE
  5
1EC
330
1F
100
AcDbEntity
  8
0-0
  6
JWW_DASHED1
 62
   120
370
     5
100
AcDbLine
 10
520.3772508740301
 20
590.4810458923619
 30
0.0
 11
1110.377250874037
 21
0.4810458923557093
 31
0.0
  0
LINE
  5
1ED
330
1F
100
AcDbEntity
  8
0-0
  6
JWW_DASHED1
 62
   120
370
     5
100
AcDbLine
 10
520.3772508740394
 20
600.3805408275697
 30
0.0
 11
1110.37725087403
 21
10.38054082757888
 31
0.0
  0
LINE
  5
1EE
330
1F
100
AcDbEntity
  8
0-0
  6
JWW_DASHED1
 62
   120
370
     5
100
AcDbLine
 10
520.377250874048
 20
610.280035762722
 30
0.0
 11
1110.377250874033
 21
20.2800357627364
 31
0.0
  0
LINE
  5
1EF
330
1F
100
AcDbEntity
  8
0-0
  6
JWW_DASHED1
 62
   120
370
     5
100
AcDbLine
 10
520.3772508740283
 20
620.1795306979581
 30
0.0
 11
1110.377250874035
 21
30.1795306979519
 31
0.0
  0
LINE
  5
1F0
330
1F
100
AcDbEntity
  8
0-0
  6
JWW_DASHED1
 62
   120
370
     5
100
AcDbLine
 10
520.377250874036
 20
630.0790256331667
 30
0.0
 11
1110.377250874026
 21
40.07902563317593
 31
0.0
  0
LINE
  5
1F1
330
1F
100
AcDbEntity
  8
0-0
  6
JWW_DASHED1
 62
   120
370
     5
100
AcDbLine
 10
520.3772508740462
 20
639.9785205683182
 30
0.0
 11
1110.377250874031
 21
49.97852056833345
 31
0.0
  0
LINE
  5
1F2
330
1F
100
AcDbEntity
  8
0-0
  6
JWW_DASHED1
 62
   120
370
     5
100
AcDbLine
 10
520.3772508740258
 20
649.878015503555
 30
0.0
 11
1110.377250874031
 21
59.87801550354895
 31
0.0
  0
LINE
  5
1F3
330
1F
100
AcDbEntity
  8
0-0
  6
JWW_DASHED1
 62
   120
370
     5
100
AcDbLine
 10
520.3772508740335
 20
659.7775104387646
 30
0.0
 11
1110.377250874025
 21
69.77751043877298
 31
0.0
  0
LINE
  5
1F4
330
1F
100
AcDbEntity
  8
0-0
  6
JWW_DASHED1
 62
   120
370
     5
100
AcDbLine
 10
520.3772508740437
 20
669.6770053739153
 30
0.0
 11
1110.37725087403
 21
79.67700537392965
 31
0.0
  0
LINE
  5
1F5
330
1F
100
AcDbEntity
  8
0-0
  6
JWW_DASHED1
 62
   120
370
     5
100
AcDbLine
 10
520.3772508740233
 20
679.5765003091522
 30
0.0
 11
1110.37725087403
 21
89.576500309146
 31
0.0
  0
LINE
  5
1F6
330
1F
100
AcDbEntity
  8
0-0
  6
JWW_DASHED1
 62
   120
370
     5
100
AcDbLine
 10
520.3772508740309
 20
689.4759952443617
 30
0.0
 11
1110.377250874021
 21
99.47599524437003
 31
0.0
  0
LINE
  5
1F7
330
1F
100
AcDbEntity
  8
0-0
  6
JWW_DASHED1
 62
   120
370
     5
100
AcDbLine
 10
520.3772508740411
 20
699.3754901795123
 30
0.0
 11
1110.377250874027
 21
109.3754901795267
 31
0.0
  0
LINE
  5
1F8
330
1F
100
AcDbEntity
  8
0-0
  6
JWW_DASHED1
 62
   120
370
     5
100
AcDbLine
 10
520.377250874036
 20
709.2749851147338
 30
0.0
 11
1110.377250874026
 21
119.2749851147435
 31
0.0
  0
LINE
  5
1F9
330
1F
100
AcDbEntity
  8
0-0
  6
JWW_DASHED1
 62
   120
370
     5
100
AcDbLine
 10
520.3772508740283
 20
719.1744800499579
 30
0.0
 11
1110.377250874035
 21
129.1744800499517
 31
0.0
  0
LINE
  5
1FA
330
1F
100
AcDbEntity
  8
0-0
  6
JWW_DASHED1
 62
   120
370
     5
100
AcDbLine
 10
520.3772508740411
 20
729.0739749851077
 30
0.0
 11
1110.377250874031
 21
139.0739749851165
 31
0.0
  0
LINE
  5
1FB
330
1F
100
AcDbEntity
  8
0-0
  6
JWW_DASHED1
 62
   120
370
     5
100
AcDbLine
 10
520.377250874048
 20
738.9734699203173
 30
0.0
 11
1110.377250874033
 21
148.9734699203311
 31
0.0
  0
LINE
  5
1FC
330
1F
100
AcDbEntity
  8
0-0
  6
JWW_DASHED1
 62
   120
370
     5
100
AcDbLine
 10
520.3772508740267
 20
748.8729648555541
 30
0.0
 11
1110.377250874032
 21
158.8729648555488
 31
0.0
  0
LINE
  5
1FD
330
1F
100
AcDbEntity
  8
0-0
  6
JWW_DASHED1
 62
   120
370
     5
100
AcDbLine
 10
520.3772508740385
 20
758.7724597907039
 30
0.0
 11
1110.37725087403
 21
168.7724597907135
 31
0.0
  0
LINE
  5
1FE
330
1F
100
AcDbEntity
  8
0-0
  6
JWW_DASHED1
 62
   120
370
     5
100
AcDbLine
 10
520.3772508740453
 20
768.6719547259142
 30
0.0
 11
1110.377250874031
 21
178.6719547259282
 31
0.0
  0
LINE
  5
1FF
330
1F
100
AcDbEntity
  8
0-0
  6
JWW_DASHED1
 62
   120
370
     5
100
AcDbLine
 10
520.3772508740283
 20
778.5714496610923
 30
0.0
 11
1110.377250874035
 21
188.5714496610857
 31
0.0
  0
LINE
  5
200
330
1F
100
AcDbEntity
  8
0-0
  6
JWW_DASHED1
 62
   120
370
     5
100
AcDbLine
 10
520.377250874036
 20
788.4709445963009
 30
0.0
 11
1110.377250874026
 21
198.4709445963106
 31
0.0
  0
LINE
  5
201
330
1F
100
AcDbEntity
  8
0-0
  6
JWW_DASHED1
 62
   120
370
     5
100
AcDbLine
 10
520.3772508740428
 20
798.3704395315104
 30
0.0
 11
1110.377250874028
 21
208.3704395315252
 31
0.0
  0
LINE
  5
202
330
1F
100
AcDbEntity
  8
0-0
  6
JWW_DASHED1
 62
   120
370
     5
100
AcDbLine
 10
520.3772508740258
 20
808.2699344666893
 30
0.0
 11
1110.377250874032
 21
218.2699344666827
 31
0.0
  0
LINE
  5
203
330
1F
100
AcDbEntity
  8
0-0
  6
JWW_DASHED1
 62
   120
370
     5
100
AcDbLine
 10
520.3772508740335
 20
818.169429401898
 30
0.0
 11
1110.377250874025
 21
228.1694294019076
 31
0.0
  0
LINE
  5
204
330
1F
100
AcDbEntity
  8
0-0
  6
JWW_DASHED1
 62
   120
370
     5
100
AcDbLine
 10
520.3772508740419
 20
828.0689243371066
 30
0.0
 11
1110.377250874033
 21
238.068924337115
 31
0.0
  0
LINE
  5
205
330
1F
100
AcDbEntity
  8
0-0
  6
JWW_DASHED1
 62
   120
370
     5
100
AcDbLine
 10
520.3772508740233
 20
837.9684192722864
 30
0.0
 11
1110.37725087403
 21
247.9684192722806
 31
0.0
  0
LINE
  5
206
330
1F
100
AcDbEntity
  8
0-0
  6
JWW_DASHED1
 62
   120
370
     5
100
AcDbLine
 10
520.3772508740317
 20
847.8679142074942
 30
0.0
 11
1110.377250874021
 21
257.8679142075047
 31
0.0
  0
LINE
  5
207
330
1F
100
AcDbEntity
  8
0-0
  6
JWW_DASHED1
 62
   120
370
     5
100
AcDbLine
 10
520.3772508740394
 20
857.7674091427037
 30
0.0
 11
1110.37725087403
 21
267.7674091427121
 31
0.0
  0
LINE
  5
208
330
1F
100
AcDbEntity
  8
0-0
  6
JWW_DASHED1
 62
   120
370
     5
100
AcDbLine
 10
520.377250874036
 20
867.666904077868
 30
0.0
 11
1110.377250874027
 21
277.6669040778768
 31
0.0
  0
LINE
  5
209
330
1F
100
AcDbEntity
  8
0-0
  6
JWW_DASHED1
 62
   120
370
     5
100
AcDbLine
 10
520.3772508740292
 20
877.5663990130912
 30
0.0
 11
1110.377250874035
 21
287.566399013086
 31
0.0
  0
LINE
  5
20A
330
1F
100
AcDbEntity
  8
0-0
  6
JWW_DASHED1
 62
   120
370
     5
100
AcDbLine
 10
520.3772508740369
 20
887.4658939483007
 30
0.0
 11
1110.377250874028
 21
297.4658939483095
 31
0.0
  0
LINE
  5
20B
330
1F
100
AcDbEntity
  8
0-0
  6
JWW_DASHED1
 62
   120
370
     5
100
AcDbLine
 10
520.3772508740497
 20
897.3653888834498
 30
0.0
 11
1110.377250874035
 21
307.3653888834645
 31
0.0
  0
LINE
  5
20C
330
1F
100
AcDbEntity
  8
0-0
  6
JWW_DASHED1
 62
   120
370
     5
100
AcDbLine
 10
520.3772508740267
 20
907.2648838186883
 30
0.0
 11
1110.377250874033
 21
317.2648838186817
 31
0.0
  0
LINE
  5
20D
330
1F
100
AcDbEntity
  8
0-0
  6
JWW_DASHED1
 62
   120
370
     5
100
AcDbLine
 10
520.3772508740343
 20
917.1643787538969
 30
0.0
 11
1110.377250874025
 21
327.1643787539066
 31
0.0
  0
LINE
  5
20E
330
1F
100
AcDbEntity
  8
0-0
  6
JWW_DASHED1
 62
   120
370
     5
100
AcDbLine
 10
520.3772508740471
 20
927.0638736890468
 30
0.0
 11
1110.377250874032
 21
337.0638736890607
 31
0.0
  0
LINE
  5
20F
330
1F
100
AcDbEntity
  8
0-0
  6
JWW_DASHED1
 62
   120
370
     5
100
AcDbLine
 10
520.3772508740241
 20
936.9633686242853
 30
0.0
 11
1110.377250874031
 21
346.9633686242788
 31
0.0
  0
LINE
  5
210
330
1F
100
AcDbEntity
  8
0-0
  6
JWW_DASHED1
 62
   120
370
     5
100
AcDbLine
 10
520.3772508740317
 20
946.862863559494
 30
0.0
 11
1110.377250874023
 21
356.8628635595036
 31
0.0
  0
LINE
  5
211
330
1F
100
AcDbEntity
  8
0-0
  6
JWW_DASHED1
 62
   120
370
     5
100
AcDbLine
 10
520.3772508740445
 20
956.7623584946439
 30
0.0
 11
1110.377250874031
 21
366.7623584946573
 31
0.0
  0
LINE
  5
212
330
1F
100
AcDbEntity
  8
0-0
  6
JWW_DASHED1
 62
   120
370
     5
100
AcDbLine
 10
520.3772508740369
 20
966.661853429867
 30
0.0
 11
1110.377250874028
 21
376.6618534298767
 31
0.0
  0
LINE
  5
213
330
1F
100
AcDbEntity
  8
0-0
  6
JWW_DASHED1
 62
   120
370
     5
100
AcDbLine
 10
520.3772508740301
 20
976.5613483650902
 30
0.0
 11
1110.377250874019
 21
386.5613483651007
 31
0.0
  0
LINE
  5
214
330
1F
100
AcDbEntity
  8
0-0
  6
JWW_DASHED1
 62
   120
370
     5
100
AcDbLine
 10
520.3988718217477
 20
986.4392223525343
 30
0.0
 11
1110.377250874033
 21
396.4608433002497
 31
0.0
  0
LINE
  5
215
330
1F
100
AcDbEntity
  8
0-0
  6
JWW_DASHED1
 62
   120
370
     5
100
AcDbLine
 10
530.2983667569717
 20
986.4392223525267
 30
0.0
 11
1110.377250874025
 21
406.3603382354737
 31
0.0
  0
LINE
  5
216
330
1F
100
AcDbEntity
  8
0-0
  6
JWW_DASHED1
 62
   120
370
     5
100
AcDbLine
 10
540.1978616921957
 20
986.4392223525199
 30
0.0
 11
1110.377250874033
 21
416.2598331706811
 31
0.0
  0
LINE
  5
217
330
1F
100
AcDbEntity
  8
0-0
  6
JWW_DASHED1
 62
   120
370
     5
100
AcDbLine
 10
550.0973566273456
 20
986.4392223525318
 30
0.0
 11
1110.37725087403
 21
426.1593281058467
 31
0.0
  0
LINE
  5
218
330
1F
100
AcDbEntity
  8
0-0
  6
JWW_DASHED1
 62
   120
370
     5
100
AcDbLine
 10
559.9968515625534
 20
986.4392223525394
 30
0.0
 11
1110.377250874034
 21
436.0588230410593
 31
0.0
  0
LINE
  5
219
330
1F
100
AcDbEntity
  8
0-0
  6
JWW_DASHED1
 62
   120
370
     5
100
AcDbLine
 10
569.8963464977928
 20
986.4392223525165
 30
0.0
 11
1110.377250874031
 21
445.9583179762782
 31
0.0
  0
LINE
  5
21A
330
1F
100
AcDbEntity
  8
0-0
  6
JWW_DASHED1
 62
   120
370
     5
100
AcDbLine
 10
579.7958414329426
 20
986.4392223525284
 30
0.0
 11
1110.377250874028
 21
455.8578129114438
 31
0.0
  0
LINE
  5
21B
330
1F
100
AcDbEntity
  8
0-0
  6
JWW_DASHED1
 62
   120
370
     5
100
AcDbLine
 10
589.6953363681513
 20
986.439222352536
 30
0.0
 11
1110.377250874031
 21
465.7573078466563
 31
0.0
  0
LINE
  5
21C
330
1F
100
AcDbEntity
  8
0-0
  6
JWW_DASHED1
 62
   120
370
     5
100
AcDbLine
 10
599.5948313033301
 20
986.439222352519
 30
0.0
 11
1110.377250874033
 21
475.6568027818164
 31
0.0
  0
LINE
  5
21D
330
1F
100
AcDbEntity
  8
0-0
  6
JWW_DASHED1
 62
   120
370
     5
100
AcDbLine
 10
609.4943262385414
 20
986.439222352525
 30
0.0
 11
1110.377250874026
 21
485.55629771704
 31
0.0
  0
LINE
  5
21E
330
1F
100
AcDbEntity
  8
0-0
  6
JWW_DASHED1
 62
   120
370
     5
100
AcDbLine
 10
619.3938211737492
 20
986.4392223525335
 30
0.0
 11
1110.37725087403
 21
495.4557926522529
 31
0.0
  0
LINE
  5
21F
330
1F
100
AcDbEntity
  8
0-0
  6
JWW_DASHED1
 62
   120
370
     5
100
AcDbLine
 10
629.2933161089272
 20
986.4392223525173
 30
0.0
 11
1110.377250874031
 21
505.3552875874134
 31
0.0
  0
LINE
  5
220
330
1F
100
AcDbEntity
  8
0-0
  6
JWW_DASHED1
 62
   120
370
     5
100
AcDbLine
 10
639.1928110441384
 20
986.4392223525224
 30
0.0
 11
1110.377250874024
 21
515.2547825226366
 31
0.0
  0
LINE
  5
221
330
1F
100
AcDbEntity
  8
0-0
  6
JWW_DASHED1
 62
   120
370
     5
100
AcDbLine
 10
649.0923059793463
 20
986.4392223525301
 30
0.0
 11
1110.377250874031
 21
525.1542774578458
 31
0.0
  0
LINE
  5
222
330
1F
100
AcDbEntity
  8
0-0
  6
JWW_DASHED1
 62
   120
370
     5
100
AcDbLine
 10
658.9918009145242
 20
986.4392223525148
 30
0.0
 11
1110.377250874028
 21
535.0537723930105
 31
0.0
  0
LINE
  5
223
330
1F
100
AcDbEntity
  8
0-0
  6
JWW_DASHED1
 62
   120
370
     5
100
AcDbLine
 10
668.8912958497355
 20
986.4392223525199
 30
0.0
 11
1110.37725087402
 21
544.9532673282345
 31
0.0
  0
LINE
  5
224
330
1F
100
AcDbEntity
  8
0-0
  6
JWW_DASHED1
 62
   120
370
     5
100
AcDbLine
 10
678.7907907849442
 20
986.4392223525267
 30
0.0
 11
1110.377250874028
 21
554.8527622634427
 31
0.0
  0
LINE
  5
225
330
1F
100
AcDbEntity
  8
0-0
  6
JWW_DASHED1
 62
   120
370
     5
100
AcDbLine
 10
688.6902857201094
 20
986.4392223525241
 30
0.0
 11
1110.377250874026
 21
564.7522571986075
 31
0.0
  0
LINE
  5
226
330
1F
100
AcDbEntity
  8
0-0
  6
JWW_DASHED1
 62
   120
370
     5
100
AcDbLine
 10
698.5897806553292
 20
986.4392223525207
 30
0.0
 11
1110.377250874034
 21
574.651752133815
 31
0.0
  0
LINE
  5
227
330
1F
100
AcDbEntity
  8
0-0
  6
JWW_DASHED1
 62
   120
370
     5
100
AcDbLine
 10
708.4892755905412
 20
986.4392223525241
 30
0.0
 11
1110.377250874026
 21
584.5512470690398
 31
0.0
  0
LINE
  5
228
330
1F
100
AcDbEntity
  8
0-0
  6
JWW_DASHED1
 62
   120
370
     5
100
AcDbLine
 10
718.388770525691
 20
986.439222352536
 30
0.0
 11
1110.377250874036
 21
594.4507420041917
 31
0.0
  0
LINE
  5
229
330
1F
100
AcDbEntity
  8
0-0
  6
JWW_DASHED1
 62
   120
370
     5
100
AcDbLine
 10
728.2882654609244
 20
986.439222352519
 30
0.0
 11
1110.377250874031
 21
604.350236939412
 31
0.0
  0
LINE
  5
22A
330
1F
100
AcDbEntity
  8
0-0
  6
JWW_DASHED1
 62
   120
370
     5
100
AcDbLine
 10
738.1877603961391
 20
986.4392223525216
 30
0.0
 11
1110.377250874023
 21
614.2497318746368
 31
0.0
  0
LINE
  5
22B
330
1F
100
AcDbEntity
  8
0-0
  6
JWW_DASHED1
 62
   120
370
     5
100
AcDbLine
 10
748.0872553312889
 20
986.4392223525335
 30
0.0
 11
1110.377250874033
 21
624.1492268097884
 31
0.0
  0
LINE
  5
22C
330
1F
100
AcDbEntity
  8
0-0
  6
JWW_DASHED1
 62
   120
370
     5
100
AcDbLine
 10
757.9867502665215
 20
986.4392223525165
 30
0.0
 11
1110.377250874029
 21
634.0487217450091
 31
0.0
  0
LINE
  5
22D
330
1F
100
AcDbEntity
  8
0-0
  6
JWW_DASHED1
 62
   120
370
     5
100
AcDbLine
 10
767.8862452017361
 20
986.4392223525182
 30
0.0
 11
1110.377250874022
 21
643.9482166802326
 31
0.0
  0
LINE
  5
22E
330
1F
100
AcDbEntity
  8
0-0
  6
JWW_DASHED1
 62
   120
370
     5
100
AcDbLine
 10
777.785740136886
 20
986.4392223525301
 30
0.0
 11
1110.377250874031
 21
653.8477116153855
 31
0.0
  0
LINE
  5
22F
330
1F
100
AcDbEntity
  8
0-0
  6
JWW_DASHED1
 62
   120
370
     5
100
AcDbLine
 10
787.68523507211
 20
986.4392223525224
 30
0.0
 11
1110.377250874026
 21
663.7472065506065
 31
0.0
  0
LINE
  5
230
330
1F
100
AcDbEntity
  8
0-0
  6
JWW_DASHED1
 62
   120
370
     5
100
AcDbLine
 10
797.584730007334
 20
986.4392223525148
 30
0.0
 11
1110.377250874019
 21
673.6467014858301
 31
0.0
  0
LINE
  5
231
330
1F
100
AcDbEntity
  8
0-0
  6
JWW_DASHED1
 62
   120
370
     5
100
AcDbLine
 10
807.4842249424839
 20
986.4392223525267
 30
0.0
 11
1110.377250874031
 21
683.5461964209795
 31
0.0
  0
LINE
  5
232
330
1F
100
AcDbEntity
  8
0-0
  6
JWW_DASHED1
 62
   120
370
     5
100
AcDbLine
 10
817.3837198776916
 20
986.4392223525352
 30
0.0
 11
1110.377250874037
 21
693.4456913561899
 31
0.0
  0
LINE
  5
233
330
1F
100
AcDbEntity
  8
0-0
  6
JWW_DASHED1
 62
   120
370
     5
100
AcDbLine
 10
827.2832148129235
 20
986.4392223525199
 30
0.0
 11
1110.377250874032
 21
703.345186291411
 31
0.0
  0
LINE
  5
234
330
1F
100
AcDbEntity
  8
0-0
  6
JWW_DASHED1
 62
   120
370
     5
100
AcDbLine
 10
837.1827097480809
 20
986.4392223525241
 30
0.0
 11
1110.377250874028
 21
713.244681226577
 31
0.0
  0
LINE
  5
235
330
1F
100
AcDbEntity
  8
0-0
  6
JWW_DASHED1
 62
   120
370
     5
100
AcDbLine
 10
847.0822046832895
 20
986.4392223525326
 30
0.0
 11
1110.377250874035
 21
723.1441761617865
 31
0.0
  0
LINE
  5
236
330
1F
100
AcDbEntity
  8
0-0
  6
JWW_DASHED1
 62
   120
370
     5
100
AcDbLine
 10
856.9816996184616
 20
986.4392223525224
 30
0.0
 11
1110.377250874034
 21
733.0436710969495
 31
0.0
  0
LINE
  5
237
330
1F
100
AcDbEntity
  8
0-0
  6
JWW_DASHED1
 62
   120
370
     5
100
AcDbLine
 10
866.8811945536788
 20
986.4392223525216
 30
0.0
 11
1110.377250874026
 21
742.9431660321736
 31
0.0
  0
LINE
  5
238
330
1F
100
AcDbEntity
  8
0-0
  6
JWW_DASHED1
 62
   120
370
     5
100
AcDbLine
 10
876.7806894888867
 20
986.4392223525292
 30
0.0
 11
1110.377250874033
 21
752.8426609673832
 31
0.0
  0
LINE
  5
239
330
1F
100
AcDbEntity
  8
0-0
  6
JWW_DASHED1
 62
   120
370
     5
100
AcDbLine
 10
886.6801844240579
 20
986.4392223525199
 30
0.0
 11
1110.377250874031
 21
762.7421559025466
 31
0.0
  0
LINE
  5
23A
330
1F
100
AcDbEntity
  8
0-0
  6
JWW_DASHED1
 62
   120
370
     5
100
AcDbLine
 10
896.5796793592758
 20
986.4392223525182
 30
0.0
 11
1110.377250874025
 21
772.6416508377698
 31
0.0
  0
LINE
  5
23B
330
1F
100
AcDbEntity
  8
0-0
  6
JWW_DASHED1
 62
   120
370
     5
100
AcDbLine
 10
906.4791742944838
 20
986.4392223525267
 30
0.0
 11
1110.377250874031
 21
782.54114577298
 31
0.0
  0
LINE
  5
23C
330
1F
100
AcDbEntity
  8
0-0
  6
JWW_DASHED1
 62
   120
370
     5
100
AcDbLine
 10
916.3786692296549
 20
986.4392223525173
 30
0.0
 11
1110.377250874029
 21
792.4406407081435
 31
0.0
  0
LINE
  5
23D
330
1F
100
AcDbEntity
  8
0-0
  6
JWW_DASHED1
 62
   120
370
     5
100
AcDbLine
 10
926.2781641648737
 20
986.4392223525148
 30
0.0
 11
1110.377250874021
 21
802.3401356433667
 31
0.0
  0
LINE
  5
23E
330
1F
100
AcDbEntity
  8
0-0
  6
JWW_DASHED1
 62
   120
370
     5
100
AcDbLine
 10
936.1776591000825
 20
986.4392223525224
 30
0.0
 11
1110.37725087403
 21
812.2396305785751
 31
0.0
  0
LINE
  5
23F
330
1F
100
AcDbEntity
  8
0-0
  6
JWW_DASHED1
 62
   120
370
     5
100
AcDbLine
 10
946.0771540352476
 20
986.4392223525194
 30
0.0
 11
1110.377250874026
 21
822.1391255137407
 31
0.0
  0
LINE
  5
240
330
1F
100
AcDbEntity
  8
0-0
  6
JWW_DASHED1
 62
   120
370
     5
100
AcDbLine
 10
955.9766489704716
 20
986.4392223525117
 30
0.0
 11
1110.377250874019
 21
832.0386204489639
 31
0.0
  0
LINE
  5
241
330
1F
100
AcDbEntity
  8
0-0
  6
JWW_DASHED1
 62
   120
370
     5
100
AcDbLine
 10
965.8761439056796
 20
986.4392223525202
 30
0.0
 11
1110.377250874027
 21
841.9381153841724
 31
0.0
  0
LINE
  5
242
330
1F
100
AcDbEntity
  8
0-0
  6
JWW_DASHED1
 62
   120
370
     5
100
AcDbLine
 10
975.7756388408447
 20
986.4392223525168
 30
0.0
 11
1110.377250874024
 21
851.8376103193376
 31
0.0
  0
LINE
  5
243
330
1F
100
AcDbEntity
  8
0-0
  6
JWW_DASHED1
 62
   120
370
     5
100
AcDbLine
 10
985.6751337760568
 20
986.4392223525211
 30
0.0
 11
1110.377250874032
 21
861.7371052545454
 31
0.0
  0
LINE
  5
244
330
1F
100
AcDbEntity
  8
0-0
  6
JWW_DASHED1
 62
   120
370
     5
100
AcDbLine
 10
995.5746287112783
 20
986.4392223525165
 30
0.0
 11
1110.377250874025
 21
871.6366001897696
 31
0.0
  0
LINE
  5
245
330
1F
100
AcDbEntity
  8
0-0
  6
JWW_DASHED1
 62
   120
370
     5
100
AcDbLine
 10
1005.474123646426
 20
986.4392223525292
 30
0.0
 11
1110.377250874037
 21
881.536095124919
 31
0.0
  0
LINE
  5
246
330
1F
100
AcDbEntity
  8
0-0
  6
JWW_DASHED1
 62
   120
370
     5
100
AcDbLine
 10
1015.373618581653
 20
986.439222352519
 30
0.0
 11
1110.37725087403
 21
891.4355900601427
 31
0.0
  0
LINE
  5
247
330
1F
100
AcDbEntity
  8
0-0
  6
JWW_DASHED1
 62
   120
370
     5
100
AcDbLine
 10
1025.273113516874
 20
986.4392223525139
 30
0.0
 11
1110.377250874022
 21
901.3350849953665
 31
0.0
  0
LINE
  5
248
330
1F
100
AcDbEntity
  8
0-0
  6
JWW_DASHED1
 62
   120
370
     5
100
AcDbLine
 10
1035.172608452024
 20
986.4392223525267
 30
0.0
 11
1110.377250874034
 21
911.2345799305161
 31
0.0
  0
LINE
  5
249
330
1F
100
AcDbEntity
  8
0-0
  6
JWW_DASHED1
 62
   120
370
     5
100
AcDbLine
 10
1045.072103387249
 20
986.4392223525173
 30
0.0
 11
1110.377250874027
 21
921.1340748657395
 31
0.0
  0
LINE
  5
24A
330
1F
100
AcDbEntity
  8
0-0
  6
JWW_DASHED1
 62
   120
370
     5
100
AcDbLine
 10
1054.971598322472
 20
986.4392223525109
 30
0.0
 11
1110.377250874019
 21
931.0335698009627
 31
0.0
  0
LINE
  5
24B
330
1F
100
AcDbEntity
  8
0-0
  6
JWW_DASHED1
 62
   120
370
     5
100
AcDbLine
 10
1064.871093257622
 20
986.4392223525228
 30
0.0
 11
1110.377250874031
 21
940.9330647361131
 31
0.0
  0
LINE
  5
24C
330
1F
100
AcDbEntity
  8
0-0
  6
JWW_DASHED1
 62
   120
370
     5
100
AcDbLine
 10
1074.770588192846
 20
986.4392223525151
 30
0.0
 11
1110.377250874025
 21
950.8325596713368
 31
0.0
  0
LINE
  5
24D
330
1F
100
AcDbEntity
  8
0-0
  6
JWW_DASHED1
 62
   120
370
     5
100
AcDbLine
 10
1084.670083128011
 20
986.4392223525117
 30
0.0
 11
1110.377250874021
 21
960.7320546065015
 31
0.0
  0
LINE
  5
24E
330
1F
100
AcDbEntity
  8
0-0
  6
JWW_DASHED1
 62
   120
370
     5
100
AcDbLine
 10
1094.569578063219
 20
986.4392223525202
 30
0.0
 11
1110.37725087403
 21
970.6315495417098
 31
0.0
  0
LINE
  5
24F
330
1F
100
AcDbEntity
  8
0-0
  6
JWW_DASHED1
 62
   120
370
     5
100
AcDbLine
 10
1104.469072998428
 20
986.4392223525275
 30
0.0
 11
1110.377250874038
 21
980.531044476918
 31
0.0
  0
LINE
  5
250
330
1F
100
AcDbEntity
  8
0-0
  6
Continuous
 62
    92
370
    13
100
AcDbLine
 10
2030.377250874035
 20
-1081.560777647475
 30
0.0
 11
-1176.622749125966
 21
-1081.560777647475
 31
0.0
  0
LINE
  5
251
330
1F
100
AcDbEntity
  8
0-0
  6
Continuous
 62
    92
370
    13
100
AcDbLine
 10
2000.377250874035
 20
-1066.560777647475
 30
0.0
 11
-1146.622749125966
 21
-1066.560777647475
 31
0.0
  0
LINE
  5
252
330
1F
100
AcDbEntity
  8
0-0
  6
JWW_DASHED1
 62
   120
370
     5
100
AcDbLine
 10
-1146.622749125966
 20
-1061.560777647475
 30
0.0
 11
-1149.622749125966
 21
-1061.560777647475
 31
0.0
  0
LINE
  5
253
330
1F
100
AcDbEntity
  8
0-0
  6
Continuous
 62
    92
370
    13
100
AcDbLine
 10
-1146.622749125966
 20
-1061.560777647475
 30
0.0
 11
1220.377250874035
 21
-1061.560777647475
 31
0.0
  0
LINE
  5
254
330
1F
100
AcDbEntity
  8
0-0
  6
Continuous
 62
    92
370
    13
100
AcDbLine
 10
-1176.622749125966
 20
-1081.560777647475
 30
0.0
 11
-1176.622749125966
 21
1165.439222352523
 31
0.0
  0
LINE
  5
255
330
1F
100
AcDbEntity
  8
0-0
  6
Continuous
 62
    92
370
    13
100
AcDbLine
 10
2030.377250874035
 20
1165.439222352523
 30
0.0
 11
2030.377250874035
 21
-1081.560777647475
 31
0.0
  0
LINE
  5
256
330
1F
100
AcDbEntity
  8
0-0
  6
JWW_DASHED1
 62
   120
370
     5
100
AcDbLine
 10
1190.377250874035
 20
-1066.560777647475
 30
0.0
 11
1190.377250874035
 21
1129.439222352524
 31
0.0
  0
LINE
  5
257
330
1F
100
AcDbEntity
  8
0-0
  6
JWW_DASHED1
 62
   120
370
     5
100
AcDbLine
 10
1220.377250874035
 20
-1066.560777647475
 30
0.0
 11
1220.377250874035
 21
1129.439222352524
 31
0.0
  0
LINE
  5
258
330
1F
100
AcDbEntity
  8
0-0
  6
Continuous
 62
    92
370
    13
100
AcDbLine
 10
-1146.622749125966
 20
-1081.560777647475
 30
0.0
 11
-1146.622749125966
 21
1165.439222352523
 31
0.0
  0
LINE
  5
259
330
1F
100
AcDbEntity
  8
0-0
  6
Continuous
 62
    92
370
    13
100
AcDbLine
 10
2000.377250874035
 20
-1081.560777647475
 30
0.0
 11
2000.377250874035
 21
1165.439222352523
 31
0.0
  0
LINE
  5
25A
330
1F
100
AcDbEntity
  8
0-0
  6
JWW_DASHED1
 62
   120
370
     5
100
AcDbLine
 10
-1149.622749125966
 20
-1061.560777647475
 30
0.0
 11
-1149.622749125966
 21
1121.439222352524
 31
0.0
  0
LINE
  5
25B
330
1F
100
AcDbEntity
  8
0-0
  6
JWW_DASHED1
 62
   120
370
     5
100
AcDbLine
 10
-339.6227491259655
 20
-1061.560777647475
 30
0.0
 11
-339.6227491259655
 21
1121.439222352524
 31
0.0
  0
LINE
  5
25C
330
1F
100
AcDbEntity
  8
0-0
  6
Continuous
 62
    92
370
    13
100
AcDbLine
 10
-369.6227491259655
 20
1121.439222352524
 30
0.0
 11
-369.6227491259655
 21
-1061.560777647475
 31
0.0
  0
LINE
  5
25D
330
1F
100
AcDbEntity
  8
0-0
  6
JWW_DASHED1
 62
   120
370
     5
100
AcDbLine
 10
440.3772508740345
 20
-1061.560777647475
 30
0.0
 11
440.3772508740345
 21
1121.439222352524
 31
0.0
  0
LINE
  5
25E
330
1F
100
AcDbEntity
  8
0-0
  6
Continuous
 62
    92
370
    13
100
AcDbLine
 10
410.3772508740345
 20
1121.439222352524
 30
0.0
 11
410.3772508740345
 21
-1061.560777647475
 31
0.0
  0
LINE
  5
25F
330
1F
100
AcDbEntity
  8
0-0
  6
Continuous
 62
    92
370
    13
100
AcDbLine
 10
1220.377250874035
 20
1121.439222352524
 30
0.0
 11
1220.377250874035
 21
-1061.560777647475
 31
0.0
  0
LINE
  5
260
330
1F
100
AcDbEntity
  8
0-0
  6
Continuous
 62
    92
370
    13
100
AcDbLine
 10
-1039.622749125967
 20
-911.5607776474754
 30
0.0
 11
-449.6227491259652
 21
-911.5607776474754
 31
0.0
  0
LINE
  5
261
330
1F
100
AcDbEntity
  8
0-0
  6
Continuous
 62
    92
370
    13
100
AcDbLine
 10
-259.6227491259675
 20
-911.5607776474754
 30
0.0
 11
330.3772508740348
 21
-911.5607776474754
 31
0.0
  0
LINE
  5
262
330
1F
100
AcDbEntity
  8
0-0
  6
Continuous
 62
    92
370
    13
100
AcDbLine
 10
520.3772508740326
 20
-911.5607776474754
 30
0.0
 11
1110.377250874035
 21
-911.5607776474754
 31
0.0
  0
LINE
  5
263
330
1F
100
AcDbEntity
  8
0-0
  6
Continuous
 62
    92
370
    13
100
AcDbLine
 10
1110.377250874035
 20
-1061.560777647475
 30
0.0
 11
1110.377250874035
 21
1121.439222352524
 31
0.0
  0
LINE
  5
264
330
1F
100
AcDbEntity
  8
0-0
  6
Continuous
 62
    92
370
    13
100
AcDbLine
 10
-449.6227491259652
 20
-1061.560777647475
 30
0.0
 11
-449.6227491259652
 21
1121.439222352524
 31
0.0
  0
LINE
  5
265
330
1F
100
AcDbEntity
  8
0-0
  6
Continuous
 62
    92
370
    13
100
AcDbLine
 10
-1039.622749125967
 20
-1061.560777647475
 30
0.0
 11
-1039.622749125967
 21
1121.439222352524
 31
0.0
  0
LINE
  5
266
330
1F
100
AcDbEntity
  8
0-0
  6
Continuous
 62
    92
370
    13
100
AcDbLine
 10
330.3772508740348
 20
-1061.560777647475
 30
0.0
 11
330.3772508740348
 21
1121.439222352524
 31
0.0
  0
LINE
  5
267
330
1F
100
AcDbEntity
  8
0-0
  6
Continuous
 62
    92
370
    13
100
AcDbLine
 10
-259.6227491259675
 20
-1061.560777647475
 30
0.0
 11
-259.6227491259675
 21
1121.439222352524
 31
0.0
  0
LINE
  5
268
330
1F
100
AcDbEntity
  8
0-0
  6
Continuous
 62
    92
370
    13
100
AcDbLine
 10
520.3772508740326
 20
-1061.560777647475
 30
0.0
 11
520.3772508740326
 21
1121.439222352524
 31
0.0
  0
LINE
  5
269
330
1F
100
AcDbEntity
  8
0-0
  6
JWW_DASHED1
 62
   120
370
     5
100
AcDbLine
 10
-1039.622749125957
 20
-904.3426893224831
 30
0.0
 11
-1032.404660800976
 21
-911.5607776474648
 31
0.0
  0
LINE
  5
26A
330
1F
100
AcDbEntity
  8
0-0
  6
JWW_DASHED1
 62
   120
370
     5
100
AcDbLine
 10
-1039.622749125964
 20
-894.44319438726
 30
0.0
 11
-1022.505165865751
 21
-911.5607776474733
 31
0.0
  0
LINE
  5
26B
330
1F
100
AcDbEntity
  8
0-0
  6
JWW_DASHED1
 62
   120
370
     5
100
AcDbLine
 10
-1039.622749125956
 20
-884.5436994520521
 30
0.0
 11
-1012.605670930544
 21
-911.5607776474642
 31
0.0
  0
LINE
  5
26C
330
1F
100
AcDbEntity
  8
0-0
  6
JWW_DASHED1
 62
   120
370
     5
100
AcDbLine
 10
-1039.62274912596
 20
-874.644204516886
 30
0.0
 11
-1002.706175995378
 21
-911.5607776474682
 31
0.0
  0
LINE
  5
26D
330
1F
100
AcDbEntity
  8
0-0
  6
JWW_DASHED1
 62
   120
370
     5
100
AcDbLine
 10
-1039.622749125951
 20
-864.7447095816782
 30
0.0
 11
-992.8066810601689
 21
-911.5607776474601
 31
0.0
  0
LINE
  5
26E
330
1F
100
AcDbEntity
  8
0-0
  6
JWW_DASHED1
 62
   120
370
     5
100
AcDbLine
 10
-1039.622749125958
 20
-854.845214646455
 30
0.0
 11
-982.9071861249449
 21
-911.5607776474682
 31
0.0
  0
LINE
  5
26F
330
1F
100
AcDbEntity
  8
0-0
  6
JWW_DASHED1
 62
   120
370
     5
100
AcDbLine
 10
-1039.622749125962
 20
-844.9457197112893
 30
0.0
 11
-973.0076911897805
 21
-911.560777647471
 31
0.0
  0
LINE
  5
270
330
1F
100
AcDbEntity
  8
0-0
  6
JWW_DASHED1
 62
   120
370
     5
100
AcDbLine
 10
-1039.622749125954
 20
-835.0462247760812
 30
0.0
 11
-963.1081962545718
 21
-911.560777647463
 31
0.0
  0
LINE
  5
271
330
1F
100
AcDbEntity
  8
0-0
  6
JWW_DASHED1
 62
   120
370
     5
100
AcDbLine
 10
-1039.622749125961
 20
-825.146729840858
 30
0.0
 11
-953.2087013193478
 21
-911.5607776474708
 31
0.0
  0
LINE
  5
272
330
1F
100
AcDbEntity
  8
0-0
  6
JWW_DASHED1
 62
   120
370
     5
100
AcDbLine
 10
-1039.622749125964
 20
-815.2472349056924
 30
0.0
 11
-943.3092063841843
 21
-911.560777647472
 31
0.0
  0
LINE
  5
273
330
1F
100
AcDbEntity
  8
0-0
  6
JWW_DASHED1
 62
   120
370
     5
100
AcDbLine
 10
-1039.622749125956
 20
-805.3477399704841
 30
0.0
 11
-933.4097114489739
 21
-911.5607776474665
 31
0.0
  0
LINE
  5
274
330
1F
100
AcDbEntity
  8
0-0
  6
JWW_DASHED1
 62
   120
370
     5
100
AcDbLine
 10
-1039.622749125958
 20
-795.4482450353206
 30
0.0
 11
-923.5102165138096
 21
-911.5607776474693
 31
0.0
  0
LINE
  5
275
330
1F
100
AcDbEntity
  8
0-0
  6
JWW_DASHED1
 62
   120
370
     5
100
AcDbLine
 10
-1039.622749125967
 20
-785.5487501000952
 30
0.0
 11
-913.6107215785881
 21
-911.5607776474737
 31
0.0
  0
LINE
  5
276
330
1F
100
AcDbEntity
  8
0-0
  6
JWW_DASHED1
 62
   120
370
     5
100
AcDbLine
 10
-1039.622749125959
 20
-775.6492551648871
 30
0.0
 11
-903.7112266433769
 21
-911.5607776474693
 31
0.0
  0
LINE
  5
277
330
1F
100
AcDbEntity
  8
0-0
  6
JWW_DASHED1
 62
   120
370
     5
100
AcDbLine
 10
-1039.622749125961
 20
-765.7497602297236
 30
0.0
 11
-893.8117317082117
 21
-911.5607776474727
 31
0.0
  0
LINE
  5
278
330
1F
100
AcDbEntity
  8
0-0
  6
JWW_DASHED1
 62
   120
370
     5
100
AcDbLine
 10
-1039.622749125969
 20
-755.8502652944991
 30
0.0
 11
-883.912236772992
 21
-911.5607776474767
 31
0.0
  0
LINE
  5
279
330
1F
100
AcDbEntity
  8
0-0
  6
JWW_DASHED1
 62
   120
370
     5
100
AcDbLine
 10
-1039.622749125961
 20
-745.95077035929
 30
0.0
 11
-874.012741837779
 21
-911.560777647472
 31
0.0
  0
LINE
  5
27A
330
1F
100
AcDbEntity
  8
0-0
  6
JWW_DASHED1
 62
   120
370
     5
100
AcDbLine
 10
-1039.622749125963
 20
-736.0512754241265
 30
0.0
 11
-864.1132469026138
 21
-911.5607776474759
 31
0.0
  0
LINE
  5
27B
330
1F
100
AcDbEntity
  8
0-0
  6
JWW_DASHED1
 62
   120
370
     5
100
AcDbLine
 10
-1039.622749125956
 20
-726.1517804889174
 30
0.0
 11
-854.213751967406
 21
-911.5607776474676
 31
0.0
  0
LINE
  5
27C
330
1F
100
AcDbEntity
  8
0-0
  6
JWW_DASHED1
 62
   120
370
     5
100
AcDbLine
 10
-1039.622749125964
 20
-716.2522855536938
 30
0.0
 11
-844.314257032182
 21
-911.5607776474754
 31
0.0
  0
LINE
  5
27D
330
1F
100
AcDbEntity
  8
0-0
  6
JWW_DASHED1
 62
   120
370
     5
100
AcDbLine
 10
-1039.622749125964
 20
-706.3527906185308
 30
0.0
 11
-834.4147620970176
 21
-911.5607776474784
 31
0.0
  0
LINE
  5
27E
330
1F
100
AcDbEntity
  8
0-0
  6
JWW_DASHED1
 62
   120
370
     5
100
AcDbLine
 10
-1039.622749125959
 20
-696.4532956833203
 30
0.0
 11
-824.5152671618081
 21
-911.5607776474708
 31
0.0
  0
LINE
  5
27F
330
1F
100
AcDbEntity
  8
0-0
  6
JWW_DASHED1
 62
   120
370
     5
100
AcDbLine
 10
-1039.622749125966
 20
-686.5538007480968
 30
0.0
 11
-814.61577222659
 21
-911.5607776474725
 31
0.0
  0
LINE
  5
280
330
1F
100
AcDbEntity
  8
0-0
  6
JWW_DASHED1
 62
   120
370
     5
100
AcDbLine
 10
-1039.622749125954
 20
-676.654305812947
 30
0.0
 11
-804.7162772914342
 21
-911.5607776474665
 31
0.0
  0
LINE
  5
281
330
1F
100
AcDbEntity
  8
0-0
  6
JWW_DASHED1
 62
   120
370
     5
100
AcDbLine
 10
-1039.622749125959
 20
-666.7548108777255
 30
0.0
 11
-794.8167823562102
 21
-911.5607776474742
 31
0.0
  0
LINE
  5
282
330
1F
100
AcDbEntity
  8
0-0
  6
JWW_DASHED1
 62
   120
370
     5
100
AcDbLine
 10
-1039.622749125969
 20
-656.8553159424997
 30
0.0
 11
-784.917287420993
 21
-911.560777647475
 31
0.0
  0
LINE
  5
283
330
1F
100
AcDbEntity
  8
0-0
  6
JWW_DASHED1
 62
   120
370
     5
100
AcDbLine
 10
-1039.622749125956
 20
-646.9558210073503
 30
0.0
 11
-775.0177924858372
 21
-911.5607776474693
 31
0.0
  0
LINE
  5
284
330
1F
100
AcDbEntity
  8
0-0
  6
JWW_DASHED1
 62
   120
370
     5
100
AcDbLine
 10
-1039.622749125961
 20
-637.0563260721289
 30
0.0
 11
-765.1182975506123
 21
-911.5607776474772
 31
0.0
  0
LINE
  5
285
330
1F
100
AcDbEntity
  8
0-0
  6
JWW_DASHED1
 62
   120
370
     5
100
AcDbLine
 10
-1039.622749125971
 20
-627.1568311369023
 30
0.0
 11
-755.2188026153967
 21
-911.5607776474772
 31
0.0
  0
LINE
  5
286
330
1F
100
AcDbEntity
  8
0-0
  6
JWW_DASHED1
 62
   120
370
     5
100
AcDbLine
 10
-1039.622749125959
 20
-617.2573362017532
 30
0.0
 11
-745.3193076802393
 21
-911.560777647472
 31
0.0
  0
LINE
  5
287
330
1F
100
AcDbEntity
  8
0-0
  6
JWW_DASHED1
 62
   120
370
     5
100
AcDbLine
 10
-1039.622749125964
 20
-607.3578412665318
 30
0.0
 11
-735.4198127450161
 21
-911.5607776474795
 31
0.0
  0
LINE
  5
288
330
1F
100
AcDbEntity
  8
0-0
  6
JWW_DASHED1
 62
   120
370
     5
100
AcDbLine
 10
-1039.622749125969
 20
-597.4583463313645
 30
0.0
 11
-725.5203178098586
 21
-911.560777647475
 31
0.0
  0
LINE
  5
289
330
1F
100
AcDbEntity
  8
0-0
  6
JWW_DASHED1
 62
   120
370
     5
100
AcDbLine
 10
-1039.622749125961
 20
-587.558851396157
 30
0.0
 11
-715.6208228746423
 21
-911.5607776474754
 31
0.0
  0
LINE
  5
28A
330
1F
100
AcDbEntity
  8
0-0
  6
JWW_DASHED1
 62
   120
370
     5
100
AcDbLine
 10
-1039.622749125953
 20
-577.659356460948
 30
0.0
 11
-705.7213279394343
 21
-911.5607776474665
 31
0.0
  0
LINE
  5
28B
330
1F
100
AcDbEntity
  8
0-0
  6
JWW_DASHED1
 62
   120
370
     5
100
AcDbLine
 10
-1039.622749125972
 20
-567.7598615257674
 30
0.0
 11
-695.8218330042615
 21
-911.5607776474776
 31
0.0
  0
LINE
  5
28C
330
1F
100
AcDbEntity
  8
0-0
  6
JWW_DASHED1
 62
   120
370
     5
100
AcDbLine
 10
-1039.622749125963
 20
-557.86036659056
 30
0.0
 11
-685.9223380690444
 21
-911.5607776474784
 31
0.0
  0
LINE
  5
28D
330
1F
100
AcDbEntity
  8
0-0
  6
JWW_DASHED1
 62
   120
370
     5
100
AcDbLine
 10
-1039.622749125956
 20
-547.960871655351
 30
0.0
 11
-676.0228431338356
 21
-911.5607776474703
 31
0.0
  0
LINE
  5
28E
330
1F
100
AcDbEntity
  8
0-0
  6
JWW_DASHED1
 62
   120
370
     5
100
AcDbLine
 10
-1039.622749125959
 20
-538.0613767201861
 30
0.0
 11
-666.1233481986712
 21
-911.5607776474733
 31
0.0
  0
LINE
  5
28F
330
1F
100
AcDbEntity
  8
0-0
  6
JWW_DASHED1
 62
   120
370
     5
100
AcDbLine
 10
-1039.622749125966
 20
-528.1618817849629
 30
0.0
 11
-656.2238532634558
 21
-911.560777647472
 31
0.0
  0
LINE
  5
290
330
1F
100
AcDbEntity
  8
0-0
  6
JWW_DASHED1
 62
   120
370
     5
100
AcDbLine
 10
-1039.622749125957
 20
-518.2623868497543
 30
0.0
 11
-646.3243583282377
 21
-911.5607776474737
 31
0.0
  0
LINE
  5
291
330
1F
100
AcDbEntity
  8
0-0
  6
JWW_DASHED1
 62
   120
370
     5
100
AcDbLine
 10
-1039.622749125957
 20
-508.3628919145929
 30
0.0
 11
-636.4248633930725
 21
-911.5607776474772
 31
0.0
  0
LINE
  5
292
330
1F
100
AcDbEntity
  8
0-0
  6
JWW_DASHED1
 62
   120
370
     5
100
AcDbLine
 10
-1039.622749125969
 20
-498.4633969793651
 30
0.0
 11
-626.5253684578604
 21
-911.5607776474733
 31
0.0
  0
LINE
  5
293
330
1F
100
AcDbEntity
  8
0-0
  6
JWW_DASHED1
 62
   120
370
     5
100
AcDbLine
 10
-1039.622749125961
 20
-488.5639020441573
 30
0.0
 11
-616.6258735226406
 21
-911.5607776474767
 31
0.0
  0
LINE
  5
294
330
1F
100
AcDbEntity
  8
0-0
  6
JWW_DASHED1
 62
   120
370
     5
100
AcDbLine
 10
-1039.622749125961
 20
-478.6644071089959
 30
0.0
 11
-606.7263785874763
 21
-911.5607776474795
 31
0.0
  0
LINE
  5
295
330
1F
100
AcDbEntity
  8
0-0
  6
JWW_DASHED1
 62
   120
370
     5
100
AcDbLine
 10
-1039.622749125971
 20
-468.7649121737689
 30
0.0
 11
-596.8268836522634
 21
-911.5607776474759
 31
0.0
  0
LINE
  5
296
330
1F
100
AcDbEntity
  8
0-0
  6
JWW_DASHED1
 62
   120
370
     5
100
AcDbLine
 10
-1039.622749125962
 20
-458.8654172385602
 30
0.0
 11
-586.9273887170436
 21
-911.5607776474793
 31
0.0
  0
LINE
  5
297
330
1F
100
AcDbEntity
  8
0-0
  6
JWW_DASHED1
 62
   120
370
     5
100
AcDbLine
 10
-1039.622749125962
 20
-448.9659223033993
 30
0.0
 11
-577.0278937818784
 21
-911.5607776474827
 31
0.0
  0
LINE
  5
298
330
1F
100
AcDbEntity
  8
0-0
  6
JWW_DASHED1
 62
   120
370
     5
100
AcDbLine
 10
-1039.622749125957
 20
-439.0664273681872
 30
0.0
 11
-567.1283988466698
 21
-911.560777647475
 31
0.0
  0
LINE
  5
299
330
1F
100
AcDbEntity
  8
0-0
  6
JWW_DASHED1
 62
   120
370
     5
100
AcDbLine
 10
-1039.622749125964
 20
-429.166932432964
 30
0.0
 11
-557.2289039114457
 21
-911.5607776474827
 31
0.0
  0
LINE
  5
29A
330
1F
100
AcDbEntity
  8
0-0
  6
JWW_DASHED1
 62
   120
370
     5
100
AcDbLine
 10
-1039.622749125952
 20
-419.267437497815
 30
0.0
 11
-547.3294089762959
 21
-911.5607776474703
 31
0.0
  0
LINE
  5
29B
330
1F
100
AcDbEntity
  8
0-0
  6
JWW_DASHED1
 62
   120
370
     5
100
AcDbLine
 10
-1039.622749125956
 20
-409.3679425625944
 30
0.0
 11
-537.4299140410727
 21
-911.5607776474778
 31
0.0
  0
LINE
  5
29C
330
1F
100
AcDbEntity
  8
0-0
  6
JWW_DASHED1
 62
   120
370
     5
100
AcDbLine
 10
-1039.622749125963
 20
-399.4684476274253
 30
0.0
 11
-527.5304191059075
 21
-911.5607776474812
 31
0.0
  0
LINE
  5
29D
330
1F
100
AcDbEntity
  8
0-0
  6
JWW_DASHED1
 62
   120
370
     5
100
AcDbLine
 10
-1039.622749125956
 20
-389.5689526922171
 30
0.0
 11
-517.6309241706997
 21
-911.5607776474727
 31
0.0
  0
LINE
  5
29E
330
1F
100
AcDbEntity
  8
0-0
  6
JWW_DASHED1
 62
   120
370
     5
100
AcDbLine
 10
-1039.622749125959
 20
-379.6694577569974
 30
0.0
 11
-507.7314292354748
 21
-911.5607776474812
 31
0.0
  0
LINE
  5
29F
330
1F
100
AcDbEntity
  8
0-0
  6
JWW_DASHED1
 62
   120
370
     5
100
AcDbLine
 10
-1039.622749125966
 20
-369.7699628218283
 30
0.0
 11
-497.8319343003096
 21
-911.560777647484
 31
0.0
  0
LINE
  5
2A0
330
1F
100
AcDbEntity
  8
0-0
  6
JWW_DASHED1
 62
   120
370
     5
100
AcDbLine
 10
-1039.622749125957
 20
-359.8704678866209
 30
0.0
 11
-487.9324393651009
 21
-911.5607776474767
 31
0.0
  0
LINE
  5
2A1
330
1F
100
AcDbEntity
  8
0-0
  6
JWW_DASHED1
 62
   120
370
     5
100
AcDbLine
 10
-1039.622749125961
 20
-349.9709729514007
 30
0.0
 11
-478.032944429877
 21
-911.5607776474844
 31
0.0
  0
LINE
  5
2A2
330
1F
100
AcDbEntity
  8
0-0
  6
JWW_DASHED1
 62
   120
370
     5
100
AcDbLine
 10
-1039.622749125968
 20
-340.0714780162313
 30
0.0
 11
-468.1334494947271
 21
-911.5607776474725
 31
0.0
  0
LINE
  5
2A3
330
1F
100
AcDbEntity
  8
0-0
  6
JWW_DASHED1
 62
   120
370
     5
100
AcDbLine
 10
-1039.62274912596
 20
-330.1719830810234
 30
0.0
 11
-458.233954559504
 21
-911.5607776474793
 31
0.0
  0
LINE
  5
2A4
330
1F
100
AcDbEntity
  8
0-0
  6
JWW_DASHED1
 62
   120
370
     5
100
AcDbLine
 10
-1039.622749125962
 20
-320.2724881458045
 30
0.0
 11
-449.6227491259771
 21
-910.27248814579
 31
0.0
  0
LINE
  5
2A5
330
1F
100
AcDbEntity
  8
0-0
  6
JWW_DASHED1
 62
   120
370
     5
100
AcDbLine
 10
-1039.622749125971
 20
-310.3729932106342
 30
0.0
 11
-449.6227491259635
 21
-900.3729932106412
 31
0.0
  0
LINE
  5
2A6
330
1F
100
AcDbEntity
  8
0-0
  6
JWW_DASHED1
 62
   120
370
     5
100
AcDbLine
 10
-1039.622749125962
 20
-300.4734982754264
 30
0.0
 11
-449.622749125972
 21
-890.473498275417
 31
0.0
  0
LINE
  5
2A7
330
1F
100
AcDbEntity
  8
0-0
  6
JWW_DASHED1
 62
   120
370
     5
100
AcDbLine
 10
-1039.622749125954
 20
-290.5740033402182
 30
0.0
 11
-449.6227491259635
 21
-880.574003340209
 31
0.0
  0
LINE
  5
2A8
330
1F
100
AcDbEntity
  8
0-0
  6
JWW_DASHED1
 62
   120
370
     5
100
AcDbLine
 10
-1039.622749125973
 20
-280.6745084050372
 30
0.0
 11
-449.6227491259669
 21
-870.674508405044
 31
0.0
  0
LINE
  5
2A9
330
1F
100
AcDbEntity
  8
0-0
  6
JWW_DASHED1
 62
   120
370
     5
100
AcDbLine
 10
-1039.622749125965
 20
-270.7750134698293
 30
0.0
 11
-449.6227491259737
 21
-860.7750134698201
 31
0.0
  0
LINE
  5
2AA
330
1F
100
AcDbEntity
  8
0-0
  6
JWW_DASHED1
 62
   120
370
     5
100
AcDbLine
 10
-1039.622749125957
 20
-260.8755185346211
 30
0.0
 11
-449.6227491259669
 21
-850.8755185346118
 31
0.0
  0
LINE
  5
2AB
330
1F
100
AcDbEntity
  8
0-0
  6
JWW_DASHED1
 62
   120
370
     5
100
AcDbLine
 10
-1039.622749125961
 20
-250.9760235994559
 30
0.0
 11
-449.6227491259686
 21
-840.9760235994471
 31
0.0
  0
LINE
  5
2AC
330
1F
100
AcDbEntity
  8
0-0
  6
JWW_DASHED1
 62
   120
370
     5
100
AcDbLine
 10
-1039.622749125967
 20
-241.0765286642323
 30
0.0
 11
-449.6227491259601
 21
-831.0765286642393
 31
0.0
  0
LINE
  5
2AD
330
1F
100
AcDbEntity
  8
0-0
  6
JWW_DASHED1
 62
   120
370
     5
100
AcDbLine
 10
-1039.622749125959
 20
-231.1770337290249
 30
0.0
 11
-449.6227491259686
 21
-821.1770337290144
 31
0.0
  0
LINE
  5
2AE
330
1F
100
AcDbEntity
  8
0-0
  6
JWW_DASHED1
 62
   120
370
     5
100
AcDbLine
 10
-1039.622749125957
 20
-221.2775387938648
 30
0.0
 11
-449.6227491259703
 21
-811.2775387938509
 31
0.0
  0
LINE
  5
2AF
330
1F
100
AcDbEntity
  8
0-0
  6
JWW_DASHED1
 62
   120
370
     5
100
AcDbLine
 10
-1039.62274912597
 20
-211.3780438586352
 30
0.0
 11
-449.6227491259635
 21
-801.3780438586421
 31
0.0
  0
LINE
  5
2B0
330
1F
100
AcDbEntity
  8
0-0
  6
JWW_DASHED1
 62
   120
370
     5
100
AcDbLine
 10
-1039.622749125961
 20
-201.4785489234279
 30
0.0
 11
-449.6227491259703
 21
-791.4785489234182
 31
0.0
  0
LINE
  5
2B1
330
1F
100
AcDbEntity
  8
0-0
  6
JWW_DASHED1
 62
   120
370
     5
100
AcDbLine
 10
-1039.622749125959
 20
-191.5790539882682
 30
0.0
 11
-449.6227491259737
 21
-781.5790539882537
 31
0.0
  0
LINE
  5
2B2
330
1F
100
AcDbEntity
  8
0-0
  6
JWW_DASHED1
 62
   120
370
     5
100
AcDbLine
 10
-1039.622749125972
 20
-181.6795590530382
 30
0.0
 11
-449.6227491259652
 21
-771.6795590530452
 31
0.0
  0
LINE
  5
2B3
330
1F
100
AcDbEntity
  8
0-0
  6
JWW_DASHED1
 62
   120
370
     5
100
AcDbLine
 10
-1039.622749125964
 20
-171.7800641178308
 30
0.0
 11
-449.6227491259737
 21
-761.7800641178211
 31
0.0
  0
LINE
  5
2B4
330
1F
100
AcDbEntity
  8
0-0
  6
JWW_DASHED1
 62
   120
370
     5
100
AcDbLine
 10
-1039.622749125961
 20
-161.8805691826711
 30
0.0
 11
-449.6227491259754
 21
-751.8805691826568
 31
0.0
  0
LINE
  5
2B5
330
1F
100
AcDbEntity
  8
0-0
  6
JWW_DASHED1
 62
   120
370
     5
100
AcDbLine
 10
-1039.622749125959
 20
-151.9810742474569
 30
0.0
 11
-449.6227491259686
 21
-741.9810742474481
 31
0.0
  0
LINE
  5
2B6
330
1F
100
AcDbEntity
  8
0-0
  6
JWW_DASHED1
 62
   120
370
     5
100
AcDbLine
 10
-1039.622749125962
 20
-142.0815793122921
 30
0.0
 11
-449.622749125972
 21
-732.0815793122825
 31
0.0
  0
LINE
  5
2B7
330
1F
100
AcDbEntity
  8
0-0
  6
JWW_DASHED1
 62
   120
370
     5
100
AcDbLine
 10
-1039.622749125954
 20
-132.1820843770843
 30
0.0
 11
-449.6227491259635
 21
-722.1820843770751
 31
0.0
  0
LINE
  5
2B8
330
1F
100
AcDbEntity
  8
0-0
  6
JWW_DASHED1
 62
   120
370
     5
100
AcDbLine
 10
-1039.622749125955
 20
-122.2825894418671
 30
0.0
 11
-449.6227491259686
 21
-712.2825894418528
 31
0.0
  0
LINE
  5
2B9
330
1F
100
AcDbEntity
  8
0-0
  6
JWW_DASHED1
 62
   120
370
     5
100
AcDbLine
 10
-1039.622749125965
 20
-112.3830945066951
 30
0.0
 11
-449.6227491259737
 21
-702.3830945066863
 31
0.0
  0
LINE
  5
2BA
330
1F
100
AcDbEntity
  8
0-0
  6
JWW_DASHED1
 62
   120
370
     5
100
AcDbLine
 10
-1039.622749125956
 20
-102.4835995714873
 30
0.0
 11
-449.6227491259652
 21
-692.4835995714781
 31
0.0
  0
LINE
  5
2BB
330
1F
100
AcDbEntity
  8
0-0
  6
JWW_DASHED1
 62
   120
370
     5
100
AcDbLine
 10
-1039.622749125957
 20
-92.58410463627008
 30
0.0
 11
-449.622749125972
 21
-682.5841046362557
 31
0.0
  0
LINE
  5
2BC
330
1F
100
AcDbEntity
  8
0-0
  6
JWW_DASHED1
 62
   120
370
     5
100
AcDbLine
 10
-1039.622749125967
 20
-82.68460970109807
 30
0.0
 11
-449.6227491259609
 21
-672.6846097011046
 31
0.0
  0
LINE
  5
2BD
330
1F
100
AcDbEntity
  8
0-0
  6
JWW_DASHED1
 62
   120
370
     5
100
AcDbLine
 10
-1039.622749125959
 20
-72.78511476589024
 30
0.0
 11
-449.6227491259677
 21
-662.7851147658814
 31
0.0
  0
LINE
  5
2BE
330
1F
100
AcDbEntity
  8
0-0
  6
JWW_DASHED1
 62
   120
370
     5
100
AcDbLine
 10
-1039.622749125959
 20
-62.88561983067346
 30
0.0
 11
-449.6227491259737
 21
-652.8856198306592
 31
0.0
  0
LINE
  5
2BF
330
1F
100
AcDbEntity
  8
0-0
  6
JWW_DASHED1
 62
   120
370
     5
100
AcDbLine
 10
-1039.622749125969
 20
-52.98612489550145
 30
0.0
 11
-449.6227491259635
 21
-642.9861248955076
 31
0.0
  0
LINE
  5
2C0
330
1F
100
AcDbEntity
  8
0-0
  6
JWW_DASHED1
 62
   120
370
     5
100
AcDbLine
 10
-1039.622749125961
 20
-43.08662996029319
 30
0.0
 11
-449.6227491259712
 21
-633.086629960284
 31
0.0
  0
LINE
  5
2C1
330
1F
100
AcDbEntity
  8
0-0
  6
JWW_DASHED1
 62
   120
370
     5
100
AcDbLine
 10
-1039.622749125961
 20
-33.18713502507727
 30
0.0
 11
-449.6227491259763
 21
-623.187135025062
 31
0.0
  0
LINE
  5
2C2
330
1F
100
AcDbEntity
  8
0-0
  6
JWW_DASHED1
 62
   120
370
     5
100
AcDbLine
 10
-1039.622749125972
 20
-23.28764008990397
 30
0.0
 11
-449.622749125966
 21
-613.2876400899105
 31
0.0
  0
LINE
  5
2C3
330
1F
100
AcDbEntity
  8
0-0
  6
JWW_DASHED1
 62
   120
370
     5
100
AcDbLine
 10
-259.6227491259572
 20
-904.3426893224822
 30
0.0
 11
-252.4046608009755
 21
-911.560777647464
 31
0.0
  0
LINE
  5
2C4
330
1F
100
AcDbEntity
  8
0-0
  6
JWW_DASHED1
 62
   120
370
     5
100
AcDbLine
 10
-259.622749125964
 20
-894.443194387259
 30
0.0
 11
-242.5051658657515
 21
-911.5607776474725
 31
0.0
  0
LINE
  5
2C5
330
1F
100
AcDbEntity
  8
0-0
  6
JWW_DASHED1
 62
   120
370
     5
100
AcDbLine
 10
-259.6227491259555
 20
-884.5436994520512
 30
0.0
 11
-232.6056709305437
 21
-911.5607776474635
 31
0.0
  0
LINE
  5
2C6
330
1F
100
AcDbEntity
  8
0-0
  6
JWW_DASHED1
 62
   120
370
     5
100
AcDbLine
 10
-259.6227491259598
 20
-874.6442045168852
 30
0.0
 11
-222.7061759953785
 21
-911.5607776474674
 31
0.0
  0
LINE
  5
2C7
330
1F
100
AcDbEntity
  8
0-0
  6
JWW_DASHED1
 62
   120
370
     5
100
AcDbLine
 10
-259.6227491259513
 20
-864.7447095816774
 30
0.0
 11
-212.806681060169
 21
-911.5607776474591
 31
0.0
  0
LINE
  5
2C8
330
1F
100
AcDbEntity
  8
0-0
  6
JWW_DASHED1
 62
   120
370
     5
100
AcDbLine
 10
-259.6227491259581
 20
-854.8452146464542
 30
0.0
 11
-202.9071861249449
 21
-911.5607776474674
 31
0.0
  0
LINE
  5
2C9
330
1F
100
AcDbEntity
  8
0-0
  6
JWW_DASHED1
 62
   120
370
     5
100
AcDbLine
 10
-259.6227491259623
 20
-844.9457197112886
 30
0.0
 11
-193.0076911897806
 21
-911.5607776474703
 31
0.0
  0
LINE
  5
2CA
330
1F
100
AcDbEntity
  8
0-0
  6
JWW_DASHED1
 62
   120
370
     5
100
AcDbLine
 10
-259.6227491259538
 20
-835.0462247760803
 30
0.0
 11
-183.1081962545719
 21
-911.5607776474623
 31
0.0
  0
LINE
  5
2CB
330
1F
100
AcDbEntity
  8
0-0
  6
JWW_DASHED1
 62
   120
370
     5
100
AcDbLine
 10
-259.6227491259606
 20
-825.1467298408571
 30
0.0
 11
-173.2087013193479
 21
-911.5607776474699
 31
0.0
  0
LINE
  5
2CC
330
1F
100
AcDbEntity
  8
0-0
  6
JWW_DASHED1
 62
   120
370
     5
100
AcDbLine
 10
-259.622749125964
 20
-815.2472349056914
 30
0.0
 11
-163.3092063841844
 21
-911.560777647471
 31
0.0
  0
LINE
  5
2CD
330
1F
100
AcDbEntity
  8
0-0
  6
JWW_DASHED1
 62
   120
370
     5
100
AcDbLine
 10
-259.6227491259564
 20
-805.3477399704833
 30
0.0
 11
-153.409711448974
 21
-911.5607776474657
 31
0.0
  0
LINE
  5
2CE
330
1F
100
AcDbEntity
  8
0-0
  6
JWW_DASHED1
 62
   120
370
     5
100
AcDbLine
 10
-259.6227491259581
 20
-795.4482450353198
 30
0.0
 11
-143.5102165138097
 21
-911.5607776474686
 31
0.0
  0
LINE
  5
2CF
330
1F
100
AcDbEntity
  8
0-0
  6
JWW_DASHED1
 62
   120
370
     5
100
AcDbLine
 10
-259.6227491259675
 20
-785.5487501000945
 30
0.0
 11
-133.6107215785882
 21
-911.5607776474727
 31
0.0
  0
LINE
  5
2D0
330
1F
100
AcDbEntity
  8
0-0
  6
JWW_DASHED1
 62
   120
370
     5
100
AcDbLine
 10
-259.6227491259589
 20
-775.6492551648862
 30
0.0
 11
-123.711226643377
 21
-911.5607776474686
 31
0.0
  0
LINE
  5
2D1
330
1F
100
AcDbEntity
  8
0-0
  6
JWW_DASHED1
 62
   120
370
     5
100
AcDbLine
 10
-259.6227491259606
 20
-765.7497602297227
 30
0.0
 11
-113.8117317082118
 21
-911.560777647472
 31
0.0
  0
LINE
  5
2D2
330
1F
100
AcDbEntity
  8
0-0
  6
JWW_DASHED1
 62
   120
370
     5
100
AcDbLine
 10
-259.6227491259692
 20
-755.8502652944983
 30
0.0
 11
-103.912236772992
 21
-911.5607776474759
 31
0.0
  0
LINE
  5
2D3
330
1F
100
AcDbEntity
  8
0-0
  6
JWW_DASHED1
 62
   120
370
     5
100
AcDbLine
 10
-259.6227491259615
 20
-745.9507703592892
 30
0.0
 11
-94.01274183777906
 21
-911.560777647471
 31
0.0
  0
LINE
  5
2D4
330
1F
100
AcDbEntity
  8
0-0
  6
JWW_DASHED1
 62
   120
370
     5
100
AcDbLine
 10
-259.6227491259632
 20
-736.0512754241257
 30
0.0
 11
-84.11324690261387
 21
-911.560777647475
 31
0.0
  0
LINE
  5
2D5
330
1F
100
AcDbEntity
  8
0-0
  6
JWW_DASHED1
 62
   120
370
     5
100
AcDbLine
 10
-259.6227491259555
 20
-726.1517804889165
 30
0.0
 11
-74.21375196740604
 21
-911.5607776474669
 31
0.0
  0
LINE
  5
2D6
330
1F
100
AcDbEntity
  8
0-0
  6
JWW_DASHED1
 62
   120
370
     5
100
AcDbLine
 10
-259.622749125964
 20
-716.252285553693
 30
0.0
 11
-64.31425703218201
 21
-911.5607776474744
 31
0.0
  0
LINE
  5
2D7
330
1F
100
AcDbEntity
  8
0-0
  6
JWW_DASHED1
 62
   120
370
     5
100
AcDbLine
 10
-259.622749125964
 20
-706.3527906185299
 30
0.0
 11
-54.41476209701767
 21
-911.5607776474776
 31
0.0
  0
LINE
  5
2D8
330
1F
100
AcDbEntity
  8
0-0
  6
JWW_DASHED1
 62
   120
370
     5
100
AcDbLine
 10
-259.6227491259589
 20
-696.4532956833195
 30
0.0
 11
-44.51526716180814
 21
-911.5607776474699
 31
0.0
  0
LINE
  5
2D9
330
1F
100
AcDbEntity
  8
0-0
  6
JWW_DASHED1
 62
   120
370
     5
100
AcDbLine
 10
-259.6227491259658
 20
-686.5538007480959
 30
0.0
 11
-34.61577222659008
 21
-911.5607776474716
 31
0.0
  0
LINE
  5
2DA
330
1F
100
AcDbEntity
  8
0-0
  6
JWW_DASHED1
 62
   120
370
     5
100
AcDbLine
 10
-259.6227491259538
 20
-676.6543058129461
 30
0.0
 11
-24.71627729143426
 21
-911.5607776474657
 31
0.0
  0
LINE
  5
2DB
330
1F
100
AcDbEntity
  8
0-0
  6
JWW_DASHED1
 62
   120
370
     5
100
AcDbLine
 10
-259.6227491259589
 20
-666.7548108777246
 30
0.0
 11
-14.81678235621024
 21
-911.5607776474733
 31
0.0
  0
LINE
  5
2DC
330
1F
100
AcDbEntity
  8
0-0
  6
JWW_DASHED1
 62
   120
370
     5
100
AcDbLine
 10
-259.6227491259692
 20
-656.8553159424989
 30
0.0
 11
-4.917287420993031
 21
-911.5607776474742
 31
0.0
  0
LINE
  5
2DD
330
1F
100
AcDbEntity
  8
0-0
  6
JWW_DASHED1
 62
   120
370
     5
100
AcDbLine
 10
-259.6227491259555
 20
-646.9558210073494
 30
0.0
 11
4.982207514162784
 21
-911.5607776474686
 31
0.0
  0
LINE
  5
2DE
330
1F
100
AcDbEntity
  8
0-0
  6
JWW_DASHED1
 62
   120
370
     5
100
AcDbLine
 10
-259.6227491259606
 20
-637.056326072128
 30
0.0
 11
14.88170244938766
 21
-911.5607776474761
 31
0.0
  0
LINE
  5
2DF
330
1F
100
AcDbEntity
  8
0-0
  6
JWW_DASHED1
 62
   120
370
     5
100
AcDbLine
 10
-259.6227491259709
 20
-627.1568311369014
 30
0.0
 11
24.78119738460316
 21
-911.5607776474761
 31
0.0
  0
LINE
  5
2E0
330
1F
100
AcDbEntity
  8
0-0
  6
JWW_DASHED1
 62
   120
370
     5
100
AcDbLine
 10
-259.6227491259589
 20
-617.2573362017524
 30
0.0
 11
34.68069231976068
 21
-911.560777647471
 31
0.0
  0
LINE
  5
2E1
330
1F
100
AcDbEntity
  8
0-0
  6
JWW_DASHED1
 62
   120
370
     5
100
AcDbLine
 10
-259.622749125964
 20
-607.357841266531
 30
0.0
 11
44.58018725498385
 21
-911.5607776474789
 31
0.0
  0
LINE
  5
2E2
330
1F
100
AcDbEntity
  8
0-0
  6
JWW_DASHED1
 62
   120
370
     5
100
AcDbLine
 10
-259.6227491259692
 20
-597.4583463313636
 30
0.0
 11
54.47968219014138
 21
-911.5607776474742
 31
0.0
  0
LINE
  5
2E3
330
1F
100
AcDbEntity
  8
0-0
  6
JWW_DASHED1
 62
   120
370
     5
100
AcDbLine
 10
-259.6227491259606
 20
-587.5588513961562
 30
0.0
 11
64.37917712535773
 21
-911.5607776474744
 31
0.0
  0
LINE
  5
2E4
330
1F
100
AcDbEntity
  8
0-0
  6
JWW_DASHED1
 62
   120
370
     5
100
AcDbLine
 10
-259.622749125953
 20
-577.6593564609472
 30
0.0
 11
74.27867206056555
 21
-911.5607776474657
 31
0.0
  0
LINE
  5
2E5
330
1F
100
AcDbEntity
  8
0-0
  6
JWW_DASHED1
 62
   120
370
     5
100
AcDbLine
 10
-259.6227491259717
 20
-567.7598615257666
 30
0.0
 11
84.17816699573842
 21
-911.5607776474767
 31
0.0
  0
LINE
  5
2E6
330
1F
100
AcDbEntity
  8
0-0
  6
JWW_DASHED1
 62
   120
370
     5
100
AcDbLine
 10
-259.6227491259632
 20
-557.8603665905591
 30
0.0
 11
94.07766193095563
 21
-911.5607776474776
 31
0.0
  0
LINE
  5
2E7
330
1F
100
AcDbEntity
  8
0-0
  6
JWW_DASHED1
 62
   120
370
     5
100
AcDbLine
 10
-259.6227491259555
 20
-547.96087165535
 30
0.0
 11
103.9771568661643
 21
-911.5607776474693
 31
0.0
  0
LINE
  5
2E8
330
1F
100
AcDbEntity
  8
0-0
  6
JWW_DASHED1
 62
   120
370
     5
100
AcDbLine
 10
-259.6227491259589
 20
-538.0613767201853
 30
0.0
 11
113.8766518013286
 21
-911.5607776474725
 31
0.0
  0
LINE
  5
2E9
330
1F
100
AcDbEntity
  8
0-0
  6
JWW_DASHED1
 62
   120
370
     5
100
AcDbLine
 10
-259.6227491259658
 20
-528.1618817849621
 30
0.0
 11
123.7761467365441
 21
-911.560777647471
 31
0.0
  0
LINE
  5
2EA
330
1F
100
AcDbEntity
  8
0-0
  6
JWW_DASHED1
 62
   120
370
     5
100
AcDbLine
 10
-259.6227491259572
 20
-518.2623868497534
 30
0.0
 11
133.6756416717622
 21
-911.5607776474727
 31
0.0
  0
LINE
  5
2EB
330
1F
100
AcDbEntity
  8
0-0
  6
JWW_DASHED1
 62
   120
370
     5
100
AcDbLine
 10
-259.6227491259572
 20
-508.3628919145921
 30
0.0
 11
143.5751366069274
 21
-911.5607776474761
 31
0.0
  0
LINE
  5
2EC
330
1F
100
AcDbEntity
  8
0-0
  6
JWW_DASHED1
 62
   120
370
     5
100
AcDbLine
 10
-259.6227491259692
 20
-498.4633969793642
 30
0.0
 11
153.4746315421395
 21
-911.5607776474725
 31
0.0
  0
LINE
  5
2ED
330
1F
100
AcDbEntity
  8
0-0
  6
JWW_DASHED1
 62
   120
370
     5
100
AcDbLine
 10
-259.6227491259606
 20
-488.5639020441564
 30
0.0
 11
163.3741264773593
 21
-911.5607776474759
 31
0.0
  0
LINE
  5
2EE
330
1F
100
AcDbEntity
  8
0-0
  6
JWW_DASHED1
 62
   120
370
     5
100
AcDbLine
 10
-259.6227491259606
 20
-478.664407108995
 30
0.0
 11
173.2736214125236
 21
-911.5607776474789
 31
0.0
  0
LINE
  5
2EF
330
1F
100
AcDbEntity
  8
0-0
  6
JWW_DASHED1
 62
   120
370
     5
100
AcDbLine
 10
-259.6227491259709
 20
-468.764912173768
 30
0.0
 11
183.1731163477365
 21
-911.560777647475
 31
0.0
  0
LINE
  5
2F0
330
1F
100
AcDbEntity
  8
0-0
  6
JWW_DASHED1
 62
   120
370
     5
100
AcDbLine
 10
-259.6227491259623
 20
-458.8654172385594
 30
0.0
 11
193.0726112829563
 21
-911.5607776474784
 31
0.0
  0
LINE
  5
2F1
330
1F
100
AcDbEntity
  8
0-0
  6
JWW_DASHED1
 62
   120
370
     5
100
AcDbLine
 10
-259.6227491259623
 20
-448.9659223033984
 30
0.0
 11
202.9721062181215
 21
-911.5607776474818
 31
0.0
  0
LINE
  5
2F2
330
1F
100
AcDbEntity
  8
0-0
  6
JWW_DASHED1
 62
   120
370
     5
100
AcDbLine
 10
-259.6227491259572
 20
-439.0664273681863
 30
0.0
 11
212.8716011533302
 21
-911.5607776474742
 31
0.0
  0
LINE
  5
2F3
330
1F
100
AcDbEntity
  8
0-0
  6
JWW_DASHED1
 62
   120
370
     5
100
AcDbLine
 10
-259.622749125964
 20
-429.1669324329632
 30
0.0
 11
222.7710960885542
 21
-911.5607776474818
 31
0.0
  0
LINE
  5
2F4
330
1F
100
AcDbEntity
  8
0-0
  6
JWW_DASHED1
 62
   120
370
     5
100
AcDbLine
 10
-259.6227491259521
 20
-419.2674374978142
 30
0.0
 11
232.670591023704
 21
-911.5607776474693
 31
0.0
  0
LINE
  5
2F5
330
1F
100
AcDbEntity
  8
0-0
  6
JWW_DASHED1
 62
   120
370
     5
100
AcDbLine
 10
-259.6227491259555
 20
-409.3679425625936
 30
0.0
 11
242.5700859589272
 21
-911.5607776474772
 31
0.0
  0
LINE
  5
2F6
330
1F
100
AcDbEntity
  8
0-0
  6
JWW_DASHED1
 62
   120
370
     5
100
AcDbLine
 10
-259.6227491259632
 20
-399.4684476274245
 30
0.0
 11
252.4695808940924
 21
-911.5607776474806
 31
0.0
  0
LINE
  5
2F7
330
1F
100
AcDbEntity
  8
0-0
  6
JWW_DASHED1
 62
   120
370
     5
100
AcDbLine
 10
-259.6227491259555
 20
-389.5689526922163
 30
0.0
 11
262.3690758293002
 21
-911.560777647472
 31
0.0
  0
LINE
  5
2F8
330
1F
100
AcDbEntity
  8
0-0
  6
JWW_DASHED1
 62
   120
370
     5
100
AcDbLine
 10
-259.6227491259589
 20
-379.6694577569965
 30
0.0
 11
272.2685707645251
 21
-911.5607776474806
 31
0.0
  0
LINE
  5
2F9
330
1F
100
AcDbEntity
  8
0-0
  6
JWW_DASHED1
 62
   120
370
     5
100
AcDbLine
 10
-259.6227491259658
 20
-369.7699628218274
 30
0.0
 11
282.1680656996903
 21
-911.560777647483
 31
0.0
  0
LINE
  5
2FA
330
1F
100
AcDbEntity
  8
0-0
  6
JWW_DASHED1
 62
   120
370
     5
100
AcDbLine
 10
-259.6227491259572
 20
-359.8704678866201
 30
0.0
 11
292.067560634899
 21
-911.5607776474759
 31
0.0
  0
LINE
  5
2FB
330
1F
100
AcDbEntity
  8
0-0
  6
JWW_DASHED1
 62
   120
370
     5
100
AcDbLine
 10
-259.6227491259606
 20
-349.9709729513999
 30
0.0
 11
301.967055570123
 21
-911.5607776474835
 31
0.0
  0
LINE
  5
2FC
330
1F
100
AcDbEntity
  8
0-0
  6
JWW_DASHED1
 62
   120
370
     5
100
AcDbLine
 10
-259.6227491259683
 20
-340.0714780162304
 30
0.0
 11
311.8665505052729
 21
-911.5607776474716
 31
0.0
  0
LINE
  5
2FD
330
1F
100
AcDbEntity
  8
0-0
  6
JWW_DASHED1
 62
   120
370
     5
100
AcDbLine
 10
-259.6227491259598
 20
-330.1719830810226
 30
0.0
 11
321.766045440496
 21
-911.5607776474784
 31
0.0
  0
LINE
  5
2FE
330
1F
100
AcDbEntity
  8
0-0
  6
JWW_DASHED1
 62
   120
370
     5
100
AcDbLine
 10
-259.6227491259623
 20
-320.2724881458037
 30
0.0
 11
330.3772508740229
 21
-910.2724881457893
 31
0.0
  0
LINE
  5
2FF
330
1F
100
AcDbEntity
  8
0-0
  6
JWW_DASHED1
 62
   120
370
     5
100
AcDbLine
 10
-259.6227491259709
 20
-310.3729932106334
 30
0.0
 11
330.3772508740365
 21
-900.3729932106402
 31
0.0
  0
LINE
  5
300
330
1F
100
AcDbEntity
  8
0-0
  6
JWW_DASHED1
 62
   120
370
     5
100
AcDbLine
 10
-259.6227491259623
 20
-300.4734982754255
 30
0.0
 11
330.377250874028
 21
-890.4734982754163
 31
0.0
  0
LINE
  5
301
330
1F
100
AcDbEntity
  8
0-0
  6
JWW_DASHED1
 62
   120
370
     5
100
AcDbLine
 10
-259.6227491259538
 20
-290.5740033402173
 30
0.0
 11
330.3772508740365
 21
-880.574003340208
 31
0.0
  0
LINE
  5
302
330
1F
100
AcDbEntity
  8
0-0
  6
JWW_DASHED1
 62
   120
370
     5
100
AcDbLine
 10
-259.6227491259734
 20
-280.6745084050363
 30
0.0
 11
330.3772508740331
 21
-870.6745084050433
 31
0.0
  0
LINE
  5
303
330
1F
100
AcDbEntity
  8
0-0
  6
JWW_DASHED1
 62
   120
370
     5
100
AcDbLine
 10
-259.6227491259649
 20
-270.7750134698285
 30
0.0
 11
330.3772508740263
 21
-860.7750134698191
 31
0.0
  0
LINE
  5
304
330
1F
100
AcDbEntity
  8
0-0
  6
JWW_DASHED1
 62
   120
370
     5
100
AcDbLine
 10
-259.6227491259572
 20
-260.8755185346203
 30
0.0
 11
330.3772508740331
 21
-850.875518534611
 31
0.0
  0
LINE
  5
305
330
1F
100
AcDbEntity
  8
0-0
  6
JWW_DASHED1
 62
   120
370
     5
100
AcDbLine
 10
-259.6227491259606
 20
-250.9760235994551
 30
0.0
 11
330.3772508740314
 21
-840.9760235994461
 31
0.0
  0
LINE
  5
306
330
1F
100
AcDbEntity
  8
0-0
  6
JWW_DASHED1
 62
   120
370
     5
100
AcDbLine
 10
-259.6227491259675
 20
-241.0765286642314
 30
0.0
 11
330.3772508740399
 21
-831.0765286642383
 31
0.0
  0
LINE
  5
307
330
1F
100
AcDbEntity
  8
0-0
  6
JWW_DASHED1
 62
   120
370
     5
100
AcDbLine
 10
-259.6227491259589
 20
-231.1770337290241
 30
0.0
 11
330.3772508740314
 21
-821.1770337290134
 31
0.0
  0
LINE
  5
308
330
1F
100
AcDbEntity
  8
0-0
  6
JWW_DASHED1
 62
   120
370
     5
100
AcDbLine
 10
-259.6227491259572
 20
-221.277538793864
 30
0.0
 11
330.3772508740297
 21
-811.2775387938499
 31
0.0
  0
LINE
  5
309
330
1F
100
AcDbEntity
  8
0-0
  6
JWW_DASHED1
 62
   120
370
     5
100
AcDbLine
 10
-259.62274912597
 20
-211.3780438586344
 30
0.0
 11
330.3772508740365
 21
-801.3780438586414
 31
0.0
  0
LINE
  5
30A
330
1F
100
AcDbEntity
  8
0-0
  6
JWW_DASHED1
 62
   120
370
     5
100
AcDbLine
 10
-259.6227491259615
 20
-201.478548923427
 30
0.0
 11
330.3772508740297
 21
-791.4785489234172
 31
0.0
  0
LINE
  5
30B
330
1F
100
AcDbEntity
  8
0-0
  6
JWW_DASHED1
 62
   120
370
     5
100
AcDbLine
 10
-259.6227491259589
 20
-191.5790539882673
 30
0.0
 11
330.3772508740263
 21
-781.579053988253
 31
0.0
  0
LINE
  5
30C
330
1F
100
AcDbEntity
  8
0-0
  6
JWW_DASHED1
 62
   120
370
     5
100
AcDbLine
 10
-259.6227491259726
 20
-181.6795590530373
 30
0.0
 11
330.3772508740348
 21
-771.6795590530442
 31
0.0
  0
LINE
  5
30D
330
1F
100
AcDbEntity
  8
0-0
  6
JWW_DASHED1
 62
   120
370
     5
100
AcDbLine
 10
-259.622749125964
 20
-171.78006411783
 30
0.0
 11
330.3772508740263
 21
-761.7800641178203
 31
0.0
  0
LINE
  5
30E
330
1F
100
AcDbEntity
  8
0-0
  6
JWW_DASHED1
 62
   120
370
     5
100
AcDbLine
 10
-259.6227491259615
 20
-161.8805691826703
 30
0.0
 11
330.3772508740246
 21
-751.8805691826559
 31
0.0
  0
LINE
  5
30F
330
1F
100
AcDbEntity
  8
0-0
  6
JWW_DASHED1
 62
   120
370
     5
100
AcDbLine
 10
-259.6227491259589
 20
-151.9810742474561
 30
0.0
 11
330.3772508740314
 21
-741.9810742474473
 31
0.0
  0
LINE
  5
310
330
1F
100
AcDbEntity
  8
0-0
  6
JWW_DASHED1
 62
   120
370
     5
100
AcDbLine
 10
-259.6227491259623
 20
-142.0815793122913
 30
0.0
 11
330.377250874028
 21
-732.0815793122816
 31
0.0
  0
LINE
  5
311
330
1F
100
AcDbEntity
  8
0-0
  6
JWW_DASHED1
 62
   120
370
     5
100
AcDbLine
 10
-259.6227491259538
 20
-132.1820843770835
 30
0.0
 11
330.3772508740365
 21
-722.1820843770743
 31
0.0
  0
LINE
  5
312
330
1F
100
AcDbEntity
  8
0-0
  6
JWW_DASHED1
 62
   120
370
     5
100
AcDbLine
 10
-259.6227491259547
 20
-122.2825894418663
 30
0.0
 11
330.3772508740314
 21
-712.2825894418519
 31
0.0
  0
LINE
  5
313
330
1F
100
AcDbEntity
  8
0-0
  6
JWW_DASHED1
 62
   120
370
     5
100
AcDbLine
 10
-259.6227491259649
 20
-112.3830945066943
 30
0.0
 11
330.3772508740263
 21
-702.3830945066854
 31
0.0
  0
LINE
  5
314
330
1F
100
AcDbEntity
  8
0-0
  6
JWW_DASHED1
 62
   120
370
     5
100
AcDbLine
 10
-259.6227491259564
 20
-102.4835995714864
 30
0.0
 11
330.3772508740348
 21
-692.4835995714772
 31
0.0
  0
LINE
  5
315
330
1F
100
AcDbEntity
  8
0-0
  6
JWW_DASHED1
 62
   120
370
     5
100
AcDbLine
 10
-259.6227491259572
 20
-92.58410463626923
 30
0.0
 11
330.377250874028
 21
-682.5841046362549
 31
0.0
  0
LINE
  5
316
330
1F
100
AcDbEntity
  8
0-0
  6
JWW_DASHED1
 62
   120
370
     5
100
AcDbLine
 10
-259.6227491259675
 20
-82.68460970109722
 30
0.0
 11
330.3772508740391
 21
-672.6846097011038
 31
0.0
  0
LINE
  5
317
330
1F
100
AcDbEntity
  8
0-0
  6
JWW_DASHED1
 62
   120
370
     5
100
AcDbLine
 10
-259.6227491259589
 20
-72.78511476588939
 30
0.0
 11
330.3772508740323
 21
-662.7851147658806
 31
0.0
  0
LINE
  5
318
330
1F
100
AcDbEntity
  8
0-0
  6
JWW_DASHED1
 62
   120
370
     5
100
AcDbLine
 10
-259.6227491259589
 20
-62.88561983067261
 30
0.0
 11
330.3772508740263
 21
-652.8856198306582
 31
0.0
  0
LINE
  5
319
330
1F
100
AcDbEntity
  8
0-0
  6
JWW_DASHED1
 62
   120
370
     5
100
AcDbLine
 10
-259.6227491259692
 20
-52.98612489550059
 30
0.0
 11
330.3772508740365
 21
-642.9861248955067
 31
0.0
  0
LINE
  5
31A
330
1F
100
AcDbEntity
  8
0-0
  6
JWW_DASHED1
 62
   120
370
     5
100
AcDbLine
 10
-259.6227491259615
 20
-43.08662996029234
 30
0.0
 11
330.3772508740288
 21
-633.0866299602831
 31
0.0
  0
LINE
  5
31B
330
1F
100
AcDbEntity
  8
0-0
  6
JWW_DASHED1
 62
   120
370
     5
100
AcDbLine
 10
-259.6227491259615
 20
-33.18713502507642
 30
0.0
 11
330.3772508740237
 21
-623.1871350250613
 31
0.0
  0
LINE
  5
31C
330
1F
100
AcDbEntity
  8
0-0
  6
JWW_DASHED1
 62
   120
370
     5
100
AcDbLine
 10
-259.6227491259726
 20
-23.28764008990312
 30
0.0
 11
330.377250874034
 21
-613.2876400899097
 31
0.0
  0
LINE
  5
31D
330
1F
100
AcDbEntity
  8
0-0
  6
JWW_DASHED1
 62
   120
370
     5
100
AcDbLine
 10
520.3772508740428
 20
-904.3426893224822
 30
0.0
 11
527.5953391990245
 21
-911.560777647464
 31
0.0
  0
LINE
  5
31E
330
1F
100
AcDbEntity
  8
0-0
  6
JWW_DASHED1
 62
   120
370
     5
100
AcDbLine
 10
520.377250874036
 20
-894.443194387259
 30
0.0
 11
537.4948341342485
 21
-911.5607776474725
 31
0.0
  0
LINE
  5
31F
330
1F
100
AcDbEntity
  8
0-0
  6
JWW_DASHED1
 62
   120
370
     5
100
AcDbLine
 10
520.3772508740445
 20
-884.5436994520512
 30
0.0
 11
547.3943290694564
 21
-911.5607776474635
 31
0.0
  0
LINE
  5
320
330
1F
100
AcDbEntity
  8
0-0
  6
JWW_DASHED1
 62
   120
370
     5
100
AcDbLine
 10
520.3772508740403
 20
-874.6442045168852
 30
0.0
 11
557.2938240046216
 21
-911.5607776474674
 31
0.0
  0
LINE
  5
321
330
1F
100
AcDbEntity
  8
0-0
  6
JWW_DASHED1
 62
   120
370
     5
100
AcDbLine
 10
520.3772508740487
 20
-864.7447095816774
 30
0.0
 11
567.1933189398311
 21
-911.5607776474591
 31
0.0
  0
LINE
  5
322
330
1F
100
AcDbEntity
  8
0-0
  6
JWW_DASHED1
 62
   120
370
     5
100
AcDbLine
 10
520.3772508740419
 20
-854.8452146464542
 30
0.0
 11
577.0928138750551
 21
-911.5607776474674
 31
0.0
  0
LINE
  5
323
330
1F
100
AcDbEntity
  8
0-0
  6
JWW_DASHED1
 62
   120
370
     5
100
AcDbLine
 10
520.3772508740377
 20
-844.9457197112886
 30
0.0
 11
586.9923088102195
 21
-911.5607776474703
 31
0.0
  0
LINE
  5
324
330
1F
100
AcDbEntity
  8
0-0
  6
JWW_DASHED1
 62
   120
370
     5
100
AcDbLine
 10
520.3772508740462
 20
-835.0462247760803
 30
0.0
 11
596.8918037454282
 21
-911.5607776474623
 31
0.0
  0
LINE
  5
325
330
1F
100
AcDbEntity
  8
0-0
  6
JWW_DASHED1
 62
   120
370
     5
100
AcDbLine
 10
520.3772508740394
 20
-825.1467298408571
 30
0.0
 11
606.7912986806522
 21
-911.5607776474699
 31
0.0
  0
LINE
  5
326
330
1F
100
AcDbEntity
  8
0-0
  6
JWW_DASHED1
 62
   120
370
     5
100
AcDbLine
 10
520.377250874036
 20
-815.2472349056914
 30
0.0
 11
616.6907936158157
 21
-911.560777647471
 31
0.0
  0
LINE
  5
327
330
1F
100
AcDbEntity
  8
0-0
  6
JWW_DASHED1
 62
   120
370
     5
100
AcDbLine
 10
520.3772508740437
 20
-805.3477399704833
 30
0.0
 11
626.5902885510261
 21
-911.5607776474657
 31
0.0
  0
LINE
  5
328
330
1F
100
AcDbEntity
  8
0-0
  6
JWW_DASHED1
 62
   120
370
     5
100
AcDbLine
 10
520.3772508740419
 20
-795.4482450353198
 30
0.0
 11
636.4897834861904
 21
-911.5607776474686
 31
0.0
  0
LINE
  5
329
330
1F
100
AcDbEntity
  8
0-0
  6
JWW_DASHED1
 62
   120
370
     5
100
AcDbLine
 10
520.3772508740326
 20
-785.5487501000945
 30
0.0
 11
646.3892784214119
 21
-911.5607776474727
 31
0.0
  0
LINE
  5
32A
330
1F
100
AcDbEntity
  8
0-0
  6
JWW_DASHED1
 62
   120
370
     5
100
AcDbLine
 10
520.3772508740411
 20
-775.6492551648862
 30
0.0
 11
656.2887733566231
 21
-911.5607776474686
 31
0.0
  0
LINE
  5
32B
330
1F
100
AcDbEntity
  8
0-0
  6
JWW_DASHED1
 62
   120
370
     5
100
AcDbLine
 10
520.3772508740394
 20
-765.7497602297227
 30
0.0
 11
666.1882682917883
 21
-911.560777647472
 31
0.0
  0
LINE
  5
32C
330
1F
100
AcDbEntity
  8
0-0
  6
JWW_DASHED1
 62
   120
370
     5
100
AcDbLine
 10
520.3772508740309
 20
-755.8502652944983
 30
0.0
 11
676.087763227008
 21
-911.5607776474759
 31
0.0
  0
LINE
  5
32D
330
1F
100
AcDbEntity
  8
0-0
  6
JWW_DASHED1
 62
   120
370
     5
100
AcDbLine
 10
520.3772508740385
 20
-745.9507703592892
 30
0.0
 11
685.987258162221
 21
-911.560777647471
 31
0.0
  0
LINE
  5
32E
330
1F
100
AcDbEntity
  8
0-0
  6
JWW_DASHED1
 62
   120
370
     5
100
AcDbLine
 10
520.3772508740369
 20
-736.0512754241257
 30
0.0
 11
695.8867530973862
 21
-911.560777647475
 31
0.0
  0
LINE
  5
32F
330
1F
100
AcDbEntity
  8
0-0
  6
JWW_DASHED1
 62
   120
370
     5
100
AcDbLine
 10
520.3772508740445
 20
-726.1517804889165
 30
0.0
 11
705.786248032594
 21
-911.5607776474669
 31
0.0
  0
LINE
  5
330
330
1F
100
AcDbEntity
  8
0-0
  6
JWW_DASHED1
 62
   120
370
     5
100
AcDbLine
 10
520.377250874036
 20
-716.252285553693
 30
0.0
 11
715.685742967818
 21
-911.5607776474744
 31
0.0
  0
LINE
  5
331
330
1F
100
AcDbEntity
  8
0-0
  6
JWW_DASHED1
 62
   120
370
     5
100
AcDbLine
 10
520.377250874036
 20
-706.3527906185299
 30
0.0
 11
725.5852379029824
 21
-911.5607776474776
 31
0.0
  0
LINE
  5
332
330
1F
100
AcDbEntity
  8
0-0
  6
JWW_DASHED1
 62
   120
370
     5
100
AcDbLine
 10
520.3772508740411
 20
-696.4532956833195
 30
0.0
 11
735.4847328381919
 21
-911.5607776474699
 31
0.0
  0
LINE
  5
333
330
1F
100
AcDbEntity
  8
0-0
  6
JWW_DASHED1
 62
   120
370
     5
100
AcDbLine
 10
520.3772508740343
 20
-686.5538007480959
 30
0.0
 11
745.38422777341
 21
-911.5607776474716
 31
0.0
  0
LINE
  5
334
330
1F
100
AcDbEntity
  8
0-0
  6
JWW_DASHED1
 62
   120
370
     5
100
AcDbLine
 10
520.3772508740462
 20
-676.6543058129461
 30
0.0
 11
755.2837227085658
 21
-911.5607776474657
 31
0.0
  0
LINE
  5
335
330
1F
100
AcDbEntity
  8
0-0
  6
JWW_DASHED1
 62
   120
370
     5
100
AcDbLine
 10
520.3772508740411
 20
-666.7548108777246
 30
0.0
 11
765.1832176437898
 21
-911.5607776474733
 31
0.0
  0
LINE
  5
336
330
1F
100
AcDbEntity
  8
0-0
  6
JWW_DASHED1
 62
   120
370
     5
100
AcDbLine
 10
520.3772508740309
 20
-656.8553159424989
 30
0.0
 11
775.082712579007
 21
-911.5607776474742
 31
0.0
  0
LINE
  5
337
330
1F
100
AcDbEntity
  8
0-0
  6
JWW_DASHED1
 62
   120
370
     5
100
AcDbLine
 10
520.3772508740445
 20
-646.9558210073494
 30
0.0
 11
784.9822075141628
 21
-911.5607776474686
 31
0.0
  0
LINE
  5
338
330
1F
100
AcDbEntity
  8
0-0
  6
JWW_DASHED1
 62
   120
370
     5
100
AcDbLine
 10
520.3772508740394
 20
-637.056326072128
 30
0.0
 11
794.8817024493877
 21
-911.5607776474761
 31
0.0
  0
LINE
  5
339
330
1F
100
AcDbEntity
  8
0-0
  6
JWW_DASHED1
 62
   120
370
     5
100
AcDbLine
 10
520.3772508740292
 20
-627.1568311369014
 30
0.0
 11
804.7811973846033
 21
-911.5607776474761
 31
0.0
  0
LINE
  5
33A
330
1F
100
AcDbEntity
  8
0-0
  6
JWW_DASHED1
 62
   120
370
     5
100
AcDbLine
 10
520.3772508740411
 20
-617.2573362017524
 30
0.0
 11
814.6806923197607
 21
-911.560777647471
 31
0.0
  0
LINE
  5
33B
330
1F
100
AcDbEntity
  8
0-0
  6
JWW_DASHED1
 62
   120
370
     5
100
AcDbLine
 10
520.377250874036
 20
-607.357841266531
 30
0.0
 11
824.5801872549839
 21
-911.5607776474789
 31
0.0
  0
LINE
  5
33C
330
1F
100
AcDbEntity
  8
0-0
  6
JWW_DASHED1
 62
   120
370
     5
100
AcDbLine
 10
520.3772508740309
 20
-597.4583463313636
 30
0.0
 11
834.4796821901414
 21
-911.5607776474742
 31
0.0
  0
LINE
  5
33D
330
1F
100
AcDbEntity
  8
0-0
  6
JWW_DASHED1
 62
   120
370
     5
100
AcDbLine
 10
520.3772508740394
 20
-587.5588513961562
 30
0.0
 11
844.3791771253577
 21
-911.5607776474744
 31
0.0
  0
LINE
  5
33E
330
1F
100
AcDbEntity
  8
0-0
  6
JWW_DASHED1
 62
   120
370
     5
100
AcDbLine
 10
520.3772508740471
 20
-577.6593564609472
 30
0.0
 11
854.2786720605657
 21
-911.5607776474657
 31
0.0
  0
LINE
  5
33F
330
1F
100
AcDbEntity
  8
0-0
  6
JWW_DASHED1
 62
   120
370
     5
100
AcDbLine
 10
520.3772508740283
 20
-567.7598615257666
 30
0.0
 11
864.1781669957385
 21
-911.5607776474767
 31
0.0
  0
LINE
  5
340
330
1F
100
AcDbEntity
  8
0-0
  6
JWW_DASHED1
 62
   120
370
     5
100
AcDbLine
 10
520.3772508740369
 20
-557.8603665905591
 30
0.0
 11
874.0776619309556
 21
-911.5607776474776
 31
0.0
  0
LINE
  5
341
330
1F
100
AcDbEntity
  8
0-0
  6
JWW_DASHED1
 62
   120
370
     5
100
AcDbLine
 10
520.3772508740445
 20
-547.96087165535
 30
0.0
 11
883.9771568661644
 21
-911.5607776474693
 31
0.0
  0
LINE
  5
342
330
1F
100
AcDbEntity
  8
0-0
  6
JWW_DASHED1
 62
   120
370
     5
100
AcDbLine
 10
520.3772508740411
 20
-538.0613767201853
 30
0.0
 11
893.8766518013288
 21
-911.5607776474725
 31
0.0
  0
LINE
  5
343
330
1F
100
AcDbEntity
  8
0-0
  6
JWW_DASHED1
 62
   120
370
     5
100
AcDbLine
 10
520.3772508740343
 20
-528.1618817849621
 30
0.0
 11
903.7761467365442
 21
-911.560777647471
 31
0.0
  0
LINE
  5
344
330
1F
100
AcDbEntity
  8
0-0
  6
JWW_DASHED1
 62
   120
370
     5
100
AcDbLine
 10
520.3772508740428
 20
-518.2623868497534
 30
0.0
 11
913.6756416717623
 21
-911.5607776474727
 31
0.0
  0
LINE
  5
345
330
1F
100
AcDbEntity
  8
0-0
  6
JWW_DASHED1
 62
   120
370
     5
100
AcDbLine
 10
520.3772508740428
 20
-508.3628919145921
 30
0.0
 11
923.5751366069275
 21
-911.5607776474761
 31
0.0
  0
LINE
  5
346
330
1F
100
AcDbEntity
  8
0-0
  6
JWW_DASHED1
 62
   120
370
     5
100
AcDbLine
 10
520.3772508740309
 20
-498.4633969793642
 30
0.0
 11
933.4746315421396
 21
-911.5607776474725
 31
0.0
  0
LINE
  5
347
330
1F
100
AcDbEntity
  8
0-0
  6
JWW_DASHED1
 62
   120
370
     5
100
AcDbLine
 10
520.3772508740394
 20
-488.5639020441564
 30
0.0
 11
943.3741264773594
 21
-911.5607776474759
 31
0.0
  0
LINE
  5
348
330
1F
100
AcDbEntity
  8
0-0
  6
JWW_DASHED1
 62
   120
370
     5
100
AcDbLine
 10
520.3772508740394
 20
-478.664407108995
 30
0.0
 11
953.2736214125237
 21
-911.5607776474789
 31
0.0
  0
LINE
  5
349
330
1F
100
AcDbEntity
  8
0-0
  6
JWW_DASHED1
 62
   120
370
     5
100
AcDbLine
 10
520.3772508740292
 20
-468.764912173768
 30
0.0
 11
963.1731163477366
 21
-911.560777647475
 31
0.0
  0
LINE
  5
34A
330
1F
100
AcDbEntity
  8
0-0
  6
JWW_DASHED1
 62
   120
370
     5
100
AcDbLine
 10
520.3772508740377
 20
-458.8654172385594
 30
0.0
 11
973.0726112829564
 21
-911.5607776474784
 31
0.0
  0
LINE
  5
34B
330
1F
100
AcDbEntity
  8
0-0
  6
JWW_DASHED1
 62
   120
370
     5
100
AcDbLine
 10
520.3772508740377
 20
-448.9659223033984
 30
0.0
 11
982.9721062181216
 21
-911.5607776474818
 31
0.0
  0
LINE
  5
34C
330
1F
100
AcDbEntity
  8
0-0
  6
JWW_DASHED1
 62
   120
370
     5
100
AcDbLine
 10
520.3772508740428
 20
-439.0664273681863
 30
0.0
 11
992.8716011533302
 21
-911.5607776474742
 31
0.0
  0
LINE
  5
34D
330
1F
100
AcDbEntity
  8
0-0
  6
JWW_DASHED1
 62
   120
370
     5
100
AcDbLine
 10
520.377250874036
 20
-429.1669324329632
 30
0.0
 11
1002.771096088554
 21
-911.5607776474818
 31
0.0
  0
LINE
  5
34E
330
1F
100
AcDbEntity
  8
0-0
  6
JWW_DASHED1
 62
   120
370
     5
100
AcDbLine
 10
520.377250874048
 20
-419.2674374978142
 30
0.0
 11
1012.670591023704
 21
-911.5607776474693
 31
0.0
  0
LINE
  5
34F
330
1F
100
AcDbEntity
  8
0-0
  6
JWW_DASHED1
 62
   120
370
     5
100
AcDbLine
 10
520.3772508740445
 20
-409.3679425625936
 30
0.0
 11
1022.570085958927
 21
-911.5607776474772
 31
0.0
  0
LINE
  5
350
330
1F
100
AcDbEntity
  8
0-0
  6
JWW_DASHED1
 62
   120
370
     5
100
AcDbLine
 10
520.3772508740369
 20
-399.4684476274245
 30
0.0
 11
1032.469580894092
 21
-911.5607776474806
 31
0.0
  0
LINE
  5
351
330
1F
100
AcDbEntity
  8
0-0
  6
JWW_DASHED1
 62
   120
370
     5
100
AcDbLine
 10
520.3772508740445
 20
-389.5689526922163
 30
0.0
 11
1042.3690758293
 21
-911.560777647472
 31
0.0
  0
LINE
  5
352
330
1F
100
AcDbEntity
  8
0-0
  6
JWW_DASHED1
 62
   120
370
     5
100
AcDbLine
 10
520.3772508740411
 20
-379.6694577569965
 30
0.0
 11
1052.268570764525
 21
-911.5607776474806
 31
0.0
  0
LINE
  5
353
330
1F
100
AcDbEntity
  8
0-0
  6
JWW_DASHED1
 62
   120
370
     5
100
AcDbLine
 10
520.3772508740343
 20
-369.7699628218274
 30
0.0
 11
1062.16806569969
 21
-911.560777647483
 31
0.0
  0
LINE
  5
354
330
1F
100
AcDbEntity
  8
0-0
  6
JWW_DASHED1
 62
   120
370
     5
100
AcDbLine
 10
520.3772508740428
 20
-359.8704678866201
 30
0.0
 11
1072.067560634899
 21
-911.5607776474759
 31
0.0
  0
LINE
  5
355
330
1F
100
AcDbEntity
  8
0-0
  6
JWW_DASHED1
 62
   120
370
     5
100
AcDbLine
 10
520.3772508740394
 20
-349.9709729513999
 30
0.0
 11
1081.967055570123
 21
-911.5607776474835
 31
0.0
  0
LINE
  5
356
330
1F
100
AcDbEntity
  8
0-0
  6
JWW_DASHED1
 62
   120
370
     5
100
AcDbLine
 10
520.3772508740317
 20
-340.0714780162304
 30
0.0
 11
1091.866550505273
 21
-911.5607776474716
 31
0.0
  0
LINE
  5
357
330
1F
100
AcDbEntity
  8
0-0
  6
JWW_DASHED1
 62
   120
370
     5
100
AcDbLine
 10
520.3772508740403
 20
-330.1719830810226
 30
0.0
 11
1101.766045440496
 21
-911.5607776474784
 31
0.0
  0
LINE
  5
358
330
1F
100
AcDbEntity
  8
0-0
  6
JWW_DASHED1
 62
   120
370
     5
100
AcDbLine
 10
520.3772508740377
 20
-320.2724881458037
 30
0.0
 11
1110.377250874023
 21
-910.2724881457893
 31
0.0
  0
LINE
  5
359
330
1F
100
AcDbEntity
  8
0-0
  6
JWW_DASHED1
 62
   120
370
     5
100
AcDbLine
 10
520.3772508740292
 20
-310.3729932106334
 30
0.0
 11
1110.377250874037
 21
-900.3729932106402
 31
0.0
  0
LINE
  5
35A
330
1F
100
AcDbEntity
  8
0-0
  6
JWW_DASHED1
 62
   120
370
     5
100
AcDbLine
 10
520.3772508740377
 20
-300.4734982754255
 30
0.0
 11
1110.377250874028
 21
-890.4734982754163
 31
0.0
  0
LINE
  5
35B
330
1F
100
AcDbEntity
  8
0-0
  6
JWW_DASHED1
 62
   120
370
     5
100
AcDbLine
 10
520.3772508740462
 20
-290.5740033402173
 30
0.0
 11
1110.377250874037
 21
-880.574003340208
 31
0.0
  0
LINE
  5
35C
330
1F
100
AcDbEntity
  8
0-0
  6
JWW_DASHED1
 62
   120
370
     5
100
AcDbLine
 10
520.3772508740267
 20
-280.6745084050363
 30
0.0
 11
1110.377250874033
 21
-870.6745084050433
 31
0.0
  0
LINE
  5
35D
330
1F
100
AcDbEntity
  8
0-0
  6
JWW_DASHED1
 62
   120
370
     5
100
AcDbLine
 10
520.3772508740351
 20
-270.7750134698285
 30
0.0
 11
1110.377250874026
 21
-860.7750134698191
 31
0.0
  0
LINE
  5
35E
330
1F
100
AcDbEntity
  8
0-0
  6
JWW_DASHED1
 62
   120
370
     5
100
AcDbLine
 10
520.3772508740428
 20
-260.8755185346203
 30
0.0
 11
1110.377250874033
 21
-850.875518534611
 31
0.0
  0
LINE
  5
35F
330
1F
100
AcDbEntity
  8
0-0
  6
JWW_DASHED1
 62
   120
370
     5
100
AcDbLine
 10
520.3772508740394
 20
-250.9760235994551
 30
0.0
 11
1110.377250874031
 21
-840.9760235994461
 31
0.0
  0
LINE
  5
360
330
1F
100
AcDbEntity
  8
0-0
  6
JWW_DASHED1
 62
   120
370
     5
100
AcDbLine
 10
520.3772508740326
 20
-241.0765286642314
 30
0.0
 11
1110.37725087404
 21
-831.0765286642383
 31
0.0
  0
LINE
  5
361
330
1F
100
AcDbEntity
  8
0-0
  6
JWW_DASHED1
 62
   120
370
     5
100
AcDbLine
 10
520.3772508740411
 20
-231.1770337290241
 30
0.0
 11
1110.377250874031
 21
-821.1770337290134
 31
0.0
  0
LINE
  5
362
330
1F
100
AcDbEntity
  8
0-0
  6
JWW_DASHED1
 62
   120
370
     5
100
AcDbLine
 10
520.3772508740428
 20
-221.277538793864
 30
0.0
 11
1110.37725087403
 21
-811.2775387938499
 31
0.0
  0
LINE
  5
363
330
1F
100
AcDbEntity
  8
0-0
  6
JWW_DASHED1
 62
   120
370
     5
100
AcDbLine
 10
520.3772508740301
 20
-211.3780438586344
 30
0.0
 11
1110.377250874037
 21
-801.3780438586414
 31
0.0
  0
LINE
  5
364
330
1F
100
AcDbEntity
  8
0-0
  6
JWW_DASHED1
 62
   120
370
     5
100
AcDbLine
 10
520.3772508740385
 20
-201.478548923427
 30
0.0
 11
1110.37725087403
 21
-791.4785489234172
 31
0.0
  0
LINE
  5
365
330
1F
100
AcDbEntity
  8
0-0
  6
JWW_DASHED1
 62
   120
370
     5
100
AcDbLine
 10
520.3772508740411
 20
-191.5790539882673
 30
0.0
 11
1110.377250874026
 21
-781.579053988253
 31
0.0
  0
LINE
  5
366
330
1F
100
AcDbEntity
  8
0-0
  6
JWW_DASHED1
 62
   120
370
     5
100
AcDbLine
 10
520.3772508740275
 20
-181.6795590530373
 30
0.0
 11
1110.377250874035
 21
-771.6795590530442
 31
0.0
  0
LINE
  5
367
330
1F
100
AcDbEntity
  8
0-0
  6
JWW_DASHED1
 62
   120
370
     5
100
AcDbLine
 10
520.377250874036
 20
-171.78006411783
 30
0.0
 11
1110.377250874026
 21
-761.7800641178203
 31
0.0
  0
LINE
  5
368
330
1F
100
AcDbEntity
  8
0-0
  6
JWW_DASHED1
 62
   120
370
     5
100
AcDbLine
 10
520.3772508740385
 20
-161.8805691826703
 30
0.0
 11
1110.377250874025
 21
-751.8805691826559
 31
0.0
  0
LINE
  5
369
330
1F
100
AcDbEntity
  8
0-0
  6
JWW_DASHED1
 62
   120
370
     5
100
AcDbLine
 10
520.3772508740411
 20
-151.9810742474561
 30
0.0
 11
1110.377250874031
 21
-741.9810742474473
 31
0.0
  0
LINE
  5
36A
330
1F
100
AcDbEntity
  8
0-0
  6
JWW_DASHED1
 62
   120
370
     5
100
AcDbLine
 10
520.3772508740377
 20
-142.0815793122913
 30
0.0
 11
1110.377250874028
 21
-732.0815793122816
 31
0.0
  0
LINE
  5
36B
330
1F
100
AcDbEntity
  8
0-0
  6
JWW_DASHED1
 62
   120
370
     5
100
AcDbLine
 10
520.3772508740462
 20
-132.1820843770835
 30
0.0
 11
1110.377250874037
 21
-722.1820843770743
 31
0.0
  0
LINE
  5
36C
330
1F
100
AcDbEntity
  8
0-0
  6
JWW_DASHED1
 62
   120
370
     5
100
AcDbLine
 10
520.3772508740453
 20
-122.2825894418663
 30
0.0
 11
1110.377250874031
 21
-712.2825894418519
 31
0.0
  0
LINE
  5
36D
330
1F
100
AcDbEntity
  8
0-0
  6
JWW_DASHED1
 62
   120
370
     5
100
AcDbLine
 10
520.3772508740351
 20
-112.3830945066943
 30
0.0
 11
1110.377250874026
 21
-702.3830945066854
 31
0.0
  0
LINE
  5
36E
330
1F
100
AcDbEntity
  8
0-0
  6
JWW_DASHED1
 62
   120
370
     5
100
AcDbLine
 10
520.3772508740437
 20
-102.4835995714864
 30
0.0
 11
1110.377250874035
 21
-692.4835995714772
 31
0.0
  0
LINE
  5
36F
330
1F
100
AcDbEntity
  8
0-0
  6
JWW_DASHED1
 62
   120
370
     5
100
AcDbLine
 10
520.3772508740428
 20
-92.58410463626923
 30
0.0
 11
1110.377250874028
 21
-682.5841046362549
 31
0.0
  0
LINE
  5
370
330
1F
100
AcDbEntity
  8
0-0
  6
JWW_DASHED1
 62
   120
370
     5
100
AcDbLine
 10
520.3772508740326
 20
-82.68460970109722
 30
0.0
 11
1110.377250874039
 21
-672.6846097011038
 31
0.0
  0
LINE
  5
371
330
1F
100
AcDbEntity
  8
0-0
  6
JWW_DASHED1
 62
   120
370
     5
100
AcDbLine
 10
520.3772508740411
 20
-72.78511476588939
 30
0.0
 11
1110.377250874032
 21
-662.7851147658806
 31
0.0
  0
LINE
  5
372
330
1F
100
AcDbEntity
  8
0-0
  6
JWW_DASHED1
 62
   120
370
     5
100
AcDbLine
 10
520.3772508740411
 20
-62.88561983067261
 30
0.0
 11
1110.377250874026
 21
-652.8856198306582
 31
0.0
  0
LINE
  5
373
330
1F
100
AcDbEntity
  8
0-0
  6
JWW_DASHED1
 62
   120
370
     5
100
AcDbLine
 10
520.3772508740309
 20
-52.98612489550059
 30
0.0
 11
1110.377250874037
 21
-642.9861248955067
 31
0.0
  0
LINE
  5
374
330
1F
100
AcDbEntity
  8
0-0
  6
JWW_DASHED1
 62
   120
370
     5
100
AcDbLine
 10
520.3772508740385
 20
-43.08662996029234
 30
0.0
 11
1110.377250874029
 21
-633.0866299602831
 31
0.0
  0
LINE
  5
375
330
1F
100
AcDbEntity
  8
0-0
  6
JWW_DASHED1
 62
   120
370
     5
100
AcDbLine
 10
520.3772508740385
 20
-33.18713502507642
 30
0.0
 11
1110.377250874024
 21
-623.1871350250613
 31
0.0
  0
LINE
  5
376
330
1F
100
AcDbEntity
  8
0-0
  6
JWW_DASHED1
 62
   120
370
     5
100
AcDbLine
 10
520.3772508740275
 20
-23.28764008990312
 30
0.0
 11
1110.377250874034
 21
-613.2876400899097
 31
0.0
  0
LINE
  5
377
330
1F
100
AcDbEntity
  8
寸法
  6
Continuous
 62
   120
370
     5
100
AcDbLine
 10
-1626.622749125966
 20
1165.439222352523
 30
0.0
 11
-1226.622749125964
 21
1165.439222352523
 31
0.0
  0
LWPOLYLINE
  5
378
330
1F
100
AcDbEntity
  8
寸法
  6
Continuous
 62
     7
370
     9
100
AcDbPolyline
 90
        4
 70
     1
 43
3.0
 10
-1625.122749125966
 20
1165.439222352523
 42
0.4142135623731
 10
-1626.622749125966
 20
1166.939222352523
 42
0.4142135623731
 10
-1628.122749125966
 20
1165.439222352523
 42
0.4142135623731
 10
-1626.622749125966
 20
1163.939222352523
 42
0.4142135623731
  0
LINE
  5
379
330
1F
100
AcDbEntity
  8
寸法
  6
Continuous
 62
   120
370
     5
100
AcDbLine
 10
-1426.622749125967
 20
1121.439222352524
 30
0.0
 11
-1226.622749125964
 21
1121.439222352524
 31
0.0
  0
LWPOLYLINE
  5
37A
330
1F
100
AcDbEntity
  8
寸法
  6
Continuous
 62
     7
370
     9
100
AcDbPolyline
 90
        4
 70
     1
 43
3.0
 10
-1425.122749125967
 20
1121.439222352524
 42
0.4142135623731
 10
-1426.622749125967
 20
1122.939222352524
 42
0.4142135623731
 10
-1428.122749125967
 20
1121.439222352524
 42
0.4142135623731
 10
-1426.622749125967
 20
1119.939222352524
 42
0.4142135623731
  0
LINE
  5
37B
330
1F
100
AcDbEntity
  8
寸法
  6
Continuous
 62
   120
370
     5
100
AcDbLine
 10
-1626.622749125966
 20
-1081.560777647476
 30
0.0
 11
-1226.622749125964
 21
-1081.560777647476
 31
0.0
  0
LINE
  5
37C
330
1F
100
AcDbEntity
  8
寸法
  6
Continuous
 62
   120
370
     5
100
AcDbLine
 10
-1426.622749125967
 20
-1061.560777647475
 30
0.0
 11
-1226.622749125964
 21
-1061.560777647475
 31
0.0
  0
LWPOLYLINE
  5
37D
330
1F
100
AcDbEntity
  8
寸法
  6
Continuous
 62
     7
370
     9
100
AcDbPolyline
 90
        4
 70
     1
 43
3.0
 10
-1625.122749125966
 20
-1081.560777647476
 42
0.4142135623731
 10
-1626.622749125966
 20
-1080.060777647476
 42
0.4142135623731
 10
-1628.122749125966
 20
-1081.560777647476
 42
0.4142135623731
 10
-1626.622749125966
 20
-1083.060777647476
 42
0.4142135623731
  0
LWPOLYLINE
  5
37E
330
1F
100
AcDbEntity
  8
寸法
  6
Continuous
 62
     7
370
     9
100
AcDbPolyline
 90
        4
 70
     1
 43
3.0
 10
-1425.122749125967
 20
-1061.560777647475
 42
0.4142135623731
 10
-1426.622749125967
 20
-1060.060777647475
 42
0.4142135623731
 10
-1428.122749125967
 20
-1061.560777647475
 42
0.4142135623731
 10
-1426.622749125967
 20
-1063.060777647475
 42
0.4142135623731
  0
LINE
  5
37F
330
1F
100
AcDbEntity
  8
寸法
  6
Continuous
 62
   120
370
     5
100
AcDbLine
 10
-1146.622749125966
 20
-1531.560777647476
 30
0.0
 11
-1146.622749125966
 21
-1131.560777647476
 31
0.0
  0
LINE
  5
380
330
1F
100
AcDbEntity
  8
寸法
  6
Continuous
 62
   120
370
     5
100
AcDbLine
 10
-1176.622749125966
 20
-1731.560777647476
 30
0.0
 11
-1176.622749125966
 21
-1131.560777647476
 31
0.0
  0
LINE
  5
381
330
1F
100
AcDbEntity
  8
寸法
  6
Continuous
 62
   120
370
     5
100
AcDbLine
 10
-1176.622749125966
 20
-1731.560777647476
 30
0.0
 11
2030.377250874035
 21
-1731.560777647475
 31
0.0
  0
LINE
  5
382
330
1F
100
AcDbEntity
  8
寸法
  6
Continuous
 62
   120
370
     5
100
AcDbLine
 10
2030.377250874035
 20
-1731.560777647475
 30
0.0
 11
2030.377250874035
 21
-1131.560777647476
 31
0.0
  0
LINE
  5
383
330
1F
100
AcDbEntity
  8
寸法
  6
Continuous
 62
   120
370
     5
100
AcDbLine
 10
-1149.622749125966
 20
-1331.560777647476
 30
0.0
 11
-1149.622749125966
 21
-1131.560777647476
 31
0.0
  0
LINE
  5
384
330
1F
100
AcDbEntity
  8
寸法
  6
Continuous
 62
   120
370
     5
100
AcDbLine
 10
-1149.622749125966
 20
-1331.560777647476
 30
0.0
 11
-339.6227491259655
 21
-1331.560777647476
 31
0.0
  0
LINE
  5
385
330
1F
100
AcDbEntity
  8
寸法
  6
Continuous
 62
   120
370
     5
100
AcDbLine
 10
-339.6227491259655
 20
-1331.560777647476
 30
0.0
 11
-339.6227491259655
 21
-1131.560777647476
 31
0.0
  0
LINE
  5
386
330
1F
100
AcDbEntity
  8
寸法
  6
Continuous
 62
   120
370
     5
100
AcDbLine
 10
-1146.622749125966
 20
-1531.560777647476
 30
0.0
 11
1190.377250874035
 21
-1531.560777647476
 31
0.0
  0
LINE
  5
387
330
1F
100
AcDbEntity
  8
寸法
  6
Continuous
 62
   120
370
     5
100
AcDbLine
 10
1190.377250874035
 20
-1531.560777647476
 30
0.0
 11
1190.377250874035
 21
-1131.560777647476
 31
0.0
  0
LWPOLYLINE
  5
388
330
1F
100
AcDbEntity
  8
寸法
  6
Continuous
 62
     7
370
     9
100
AcDbPolyline
 90
        4
 70
     1
 43
3.0
 10
-1145.122749125966
 20
-1531.560777647476
 42
0.4142135623731
 10
-1146.622749125966
 20
-1530.060777647476
 42
0.4142135623731
 10
-1148.122749125966
 20
-1531.560777647476
 42
0.4142135623731
 10
-1146.622749125966
 20
-1533.060777647476
 42
0.4142135623731
  0
LWPOLYLINE
  5
389
330
1F
100
AcDbEntity
  8
寸法
  6
Continuous
 62
     7
370
     9
100
AcDbPolyline
 90
        4
 70
     1
 43
3.0
 10
-1175.122749125966
 20
-1731.560777647476
 42
0.4142135623731
 10
-1176.622749125966
 20
-1730.060777647476
 42
0.4142135623731
 10
-1178.122749125966
 20
-1731.560777647476
 42
0.4142135623731
 10
-1176.622749125966
 20
-1733.060777647476
 42
0.4142135623731
  0
LWPOLYLINE
  5
38A
330
1F
100
AcDbEntity
  8
寸法
  6
Continuous
 62
     7
370
     9
100
AcDbPolyline
 90
        4
 70
     1
 43
3.0
 10
2031.877250874034
 20
-1731.560777647475
 42
0.4142135623731
 10
2030.377250874035
 20
-1730.060777647475
 42
0.4142135623731
 10
2028.877250874035
 20
-1731.560777647475
 42
0.4142135623731
 10
2030.377250874035
 20
-1733.060777647475
 42
0.4142135623731
  0
LWPOLYLINE
  5
38B
330
1F
100
AcDbEntity
  8
寸法
  6
Continuous
 62
     7
370
     9
100
AcDbPolyline
 90
        4
 70
     1
 43
3.0
 10
-1148.122749125966
 20
-1331.560777647476
 42
0.4142135623731
 10
-1149.622749125966
 20
-1330.060777647476
 42
0.4142135623731
 10
-1151.122749125966
 20
-1331.560777647476
 42
0.4142135623731
 10
-1149.622749125966
 20
-1333.060777647476
 42
0.4142135623731
  0
LWPOLYLINE
  5
38C
330
1F
100
AcDbEntity
  8
寸法
  6
Continuous
 62
     7
370
     9
100
AcDbPolyline
 90
        4
 70
     1
 43
3.0
 10
-338.1227491259655
 20
-1331.560777647476
 42
0.4142135623731
 10
-339.6227491259655
 20
-1330.060777647476
 42
0.4142135623731
 10
-341.1227491259655
 20
-1331.560777647476
 42
0.4142135623731
 10
-339.6227491259655
 20
-1333.060777647476
 42
0.4142135623731
  0
LWPOLYLINE
  5
38D
330
1F
100
AcDbEntity
  8
寸法
  6
Continuous
 62
     7
370
     9
100
AcDbPolyline
 90
        4
 70
     1
 43
3.0
 10
1191.877250874034
 20
-1531.560777647476
 42
0.4142135623731
 10
1190.377250874035
 20
-1530.060777647476
 42
0.4142135623731
 10
1188.877250874035
 20
-1531.560777647476
 42
0.4142135623731
 10
1190.377250874035
 20
-1533.060777647476
 42
0.4142135623731
  0
LINE
  5
38E
330
1F
100
AcDbEntity
  8
寸法
  6
Continuous
 62
   120
370
     5
100
AcDbLine
 10
-1626.622749125966
 20
1165.439222352523
 30
0.0
 11
-1626.622749125966
 21
-1081.560777647476
 31
0.0
  0
LINE
  5
38F
330
1F
100
AcDbEntity
  8
寸法
  6
Continuous
 62
   120
370
     5
100
AcDbLine
 10
-1426.622749125967
 20
1121.439222352524
 30
0.0
 11
-1426.622749125967
 21
-1061.560777647475
 31
0.0
  0
MTEXT
  5
390
330
1F
100
AcDbEntity
  8
寸法
  6
Continuous
 62
     7
370
    70
100
AcDbMText
 10
-1641.622749125966
 20
-182.235777647475
 30
0.0
 40
57.14999999999999
 41
412.5
 46
0.0
 71
     7
 72
     1
  1
{\fＭＳ ゴシック|b0|i0|c128|p49;枠外＝2,247}
 11
6.123031769111886E-17
 21
1.0
 31
0.0
 73
     1
 44
1.0
  0
MTEXT
  5
391
330
1F
100
AcDbEntity
  8
寸法
  6
Continuous
 62
     7
370
    70
100
AcDbMText
 10
-1441.622749125967
 20
-188.2357776474755
 30
0.0
 40
57.14999999999999
 41
412.5
 46
0.0
 71
     7
 72
     1
  1
{\fＭＳ ゴシック|b0|i0|c128|p49;ＤＨ＝2,183}
 11
6.123031769111886E-17
 21
1.0
 31
0.0
 73
     1
 44
1.0
  0
MTEXT
  5
392
330
1F
100
AcDbEntity
  8
寸法
  6
Continuous
 62
     7
370
   211
100
AcDbMText
 10
-913.3727491259654
 20
-1325.485777647476
 30
0.0
 40
57.15
 41
337.5
 46
0.0
 71
     7
 72
     1
  1
{\fＭＳ ゴシック|b0|i0|c128|p49;ＤＷ＝810}
 73
     1
 44
1.0
  0
MTEXT
  5
393
330
1F
100
AcDbEntity
  8
寸法
  6
Continuous
 62
     7
370
   211
100
AcDbMText
 10
-259.3727491259677
 20
-1525.485777647476
 30
0.0
 40
57.15000000000001
 41
562.5
 46
0.0
 71
     7
 72
     1
  1
{\fＭＳ ゴシック|b0|i0|c128|p49;有効開口＝2,337}
 73
     1
 44
1.0
  0
MTEXT
  5
394
330
1F
100
AcDbEntity
  8
寸法
  6
Continuous
 62
     7
370
   211
100
AcDbMText
 10
220.6272508740324
 20
-1725.485777647476
 30
0.0
 40
57.14999999999999
 41
412.5
 46
0.0
 71
     7
 72
     1
  1
{\fＭＳ ゴシック|b0|i0|c128|p49;枠外＝3,207}
 73
     1
 44
1.0
  0
ENDSEC
  0
SECTION
  2
OBJECTS
  0
DICTIONARY
  5
C
330
0
100
AcDbDictionary
281
     1
  3
ACAD_GROUP
350
D
  3
ACAD_LAYOUT
350
1A
  3
ACAD_MATERIAL
350
3B
  3
ACAD_MLEADERSTYLE
350
396
  3
ACAD_MLINESTYLE
350
17
  3
ACAD_PLOTSETTINGS
350
19
  3
ACAD_PLOTSTYLENAME
350
E
  3
ACAD_TABLESTYLE
350
395
  3
ACAD_VISUALSTYLE
350
2A
  0
DICTIONARY
  5
D
102
{ACAD_REACTORS
330
C
102
}
330
C
100
AcDbDictionary
281
     1
  0
DICTIONARY
  5
1A
102
{ACAD_REACTORS
330
C
102
}
330
C
100
AcDbDictionary
281
     1
  3
Layout1
350
1E
  3
Layout2
350
26
  3
Model
350
22
  0
DICTIONARY
  5
3B
102
{ACAD_REACTORS
330
C
102
}
330
C
100
AcDbDictionary
281
     1
  3
ByBlock
350
3D
  3
ByLayer
350
3C
  3
Global
350
3E
  0
DICTIONARY
  5
396
102
{ACAD_REACTORS
330
C
102
}
330
C
100
AcDbDictionary
281
     1
  0
DICTIONARY
  5
17
102
{ACAD_REACTORS
330
C
102
}
330
C
100
AcDbDictionary
281
     1
  3
Standard
350
18
  0
DICTIONARY
  5
19
102
{ACAD_REACTORS
330
C
102
}
330
C
100
AcDbDictionary
281
     1
  0
ACDBDICTIONARYWDFLT
  5
E
102
{ACAD_REACTORS
330
C
102
}
330
C
100
AcDbDictionary
281
     1
  3
Normal
350
F
100
AcDbDictionaryWithDefault
340
F
  0
DICTIONARY
  5
395
102
{ACAD_REACTORS
330
C
102
}
330
C
100
AcDbDictionary
281
     1
  0
DICTIONARY
  5
2A
102
{ACAD_REACTORS
330
C
102
}
330
C
100
AcDbDictionary
281
     1
  3
2dWireframe
350
2F
  3
3D Hidden
350
31
  3
3dWireframe
350
30
  3
Basic
350
32
  3
Brighten
350
36
  3
ColorChange
350
3A
  3
Conceptual
350
34
  3
Dim
350
35
  3
Facepattern
350
39
  3
Flat
350
2B
  3
FlatWithEdges
350
2C
  3
Gouraud
350
2D
  3
GouraudWithEdges
350
2E
  3
Linepattern
350
38
  3
Realistic
350
33
  3
Thicken
350
37
  0
LAYOUT
  5
1E
102
{ACAD_REACTORS
330
1A
102
}
330
1A
100
AcDbPlotSettings
  1

  2
none_device
  4

  6

 40
0.0
 41
0.0
 42
0.0
 43
0.0
 44
0.0
 45
0.0
 46
0.0
 47
0.0
 48
0.0
 49
0.0
140
0.0
141
0.0
142
1.0
143
1.0
 70
   688
 72
     0
 73
     0
 74
     5
  7

 75
    16
 76
     0
 77
     5
 78
   300
147
1.0
148
0.0
149
0.0
100
AcDbLayout
  1
Layout1
 70
     1
 71
     1
 10
0.0
 20
0.0
 11
420.0
 21
297.0
 12
0.0
 22
0.0
 32
0.0
 14
1.000000000000000E+20
 24
1.000000000000000E+20
 34
1.000000000000000E+20
 15
-1.000000000000000E+20
 25
-1.000000000000000E+20
 35
-1.000000000000000E+20
146
0.0
 13
0.0
 23
0.0
 33
0.0
 16
1.0
 26
0.0
 36
0.0
 17
0.0
 27
1.0
 37
0.0
 76
     0
330
1B
  0
LAYOUT
  5
26
102
{ACAD_REACTORS
330
1A
102
}
330
1A
100
AcDbPlotSettings
  1

  2
none_device
  4

  6

 40
0.0
 41
0.0
 42
0.0
 43
0.0
 44
0.0
 45
0.0
 46
0.0
 47
0.0
 48
0.0
 49
0.0
140
0.0
141
0.0
142
1.0
143
1.0
 70
   688
 72
     0
 73
     0
 74
     5
  7

 75
    16
 76
     0
 77
     5
 78
   300
147
1.0
148
0.0
149
0.0
100
AcDbLayout
  1
Layout2
 70
     1
 71
     2
 10
0.0
 20
0.0
 11
0.0
 21
0.0
 12
0.0
 22
0.0
 32
0.0
 14
0.0
 24
0.0
 34
0.0
 15
0.0
 25
0.0
 35
0.0
146
0.0
 13
0.0
 23
0.0
 33
0.0
 16
1.0
 26
0.0
 36
0.0
 17
0.0
 27
1.0
 37
0.0
 76
     0
330
23
  0
LAYOUT
  5
22
102
{ACAD_REACTORS
330
1A
102
}
330
1A
100
AcDbPlotSettings
  1

  2
none_device
  4

  6

 40
0.0
 41
0.0
 42
0.0
 43
0.0
 44
0.0
 45
0.0
 46
0.0
 47
0.0
 48
0.0
 49
0.0
140
0.0
141
0.0
142
1.0
143
1.0
 70
  1712
 72
     0
 73
     0
 74
     0
  7

 75
     0
 76
     0
 77
     5
 78
   300
147
1.0
148
0.0
149
0.0
100
AcDbLayout
  1
Model
 70
     1
 71
     0
 10
-4455.0
 20
-3150.0
 11
4455.0
 21
3150.0
 12
0.0
 22
0.0
 32
0.0
 14
-4455.0
 24
-3150.0
 34
0.0
 15
4455.0
 25
3150.0
 35
0.0
146
0.0
 13
0.0
 23
0.0
 33
0.0
 16
1.0
 26
0.0
 36
0.0
 17
0.0
 27
1.0
 37
0.0
 76
     0
330
1F
331
29
  0
MATERIAL
  5
3D
102
{ACAD_REACTORS
330
3B
102
}
330
3B
100
AcDbMaterial
  1
ByBlock
 72
     1
 94
      127
  0
MATERIAL
  5
3C
102
{ACAD_REACTORS
330
3B
102
}
330
3B
100
AcDbMaterial
  1
ByLayer
 72
     1
 94
      127
  0
MATERIAL
  5
3E
102
{ACAD_REACTORS
330
3B
102
}
330
3B
100
AcDbMaterial
  1
Global
 72
     1
 94
      127
  0
MLINESTYLE
  5
18
102
{ACAD_REACTORS
330
17
102
}
330
17
100
AcDbMlineStyle
  2
Standard
 70
     0
  3

 62
   256
 51
90.0
 52
90.0
 71
     2
 49
0.5
 62
   256
  6
BYLAYER
 49
-0.5
 62
   256
  6
BYLAYER
  0
ACDBPLACEHOLDER
  5
F
102
{ACAD_REACTORS
330
E
102
}
330
E
  0
VISUALSTYLE
  5
2F
102
{ACAD_REACTORS
330
2A
102
}
330
2A
100
AcDbVisualStyle
  2
2dWireframe
 70
     4
177
     2
291
     0
 71
     0
176
     1
 72
     2
176
     1
 73
     0
176
     1
 90
        0
176
     1
 40
-0.6
176
     1
 41
-30.0
176
     1
 62
     5
 63
     7
421
 16777215
176
     1
 74
     1
176
     1
 91
        4
176
     1
 64
     7
176
     1
 65
   257
176
     1
 75
     1
176
     1
175
     1
176
     1
 42
1.0
176
     1
 92
        0
176
     1
 66
   257
176
     1
 43
1.0
176
     1
 76
     1
176
     1
 77
     6
176
     1
 78
     2
176
     1
 67
     7
176
     1
 79
     5
176
     1
170
     0
176
     1
171
     0
176
     1
290
     0
176
     1
 93
        1
176
     1
 44
0.0
176
     1
173
     0
176
     1
  0
VISUALSTYLE
  5
31
102
{ACAD_REACTORS
330
2A
102
}
330
2A
100
AcDbVisualStyle
  2
3D Hidden
 70
     6
177
     2
291
     0
 71
     1
176
     1
 72
     2
176
     1
 73
     2
176
     1
 90
        0
176
     1
 40
-0.6
176
     1
 41
-30.0
176
     1
 62
     5
 63
     7
421
 16777215
176
     1
 74
     2
176
     1
 91
        2
176
     1
 64
     7
176
     1
 65
   257
176
     1
 75
     2
176
     1
175
     1
176
     1
 42
40.0
176
     1
 92
        0
176
     1
 66
   257
176
     1
 43
1.0
176
     1
 76
     1
176
     1
 77
     6
176
     1
 78
     2
176
     1
 67
     7
176
     1
 79
     3
176
     1
170
     0
176
     1
171
     0
176
     1
290
     0
176
     1
 93
        1
176
     1
 44
0.0
176
     1
173
     0
176
     1
  0
VISUALSTYLE
  5
30
102
{ACAD_REACTORS
330
2A
102
}
330
2A
100
AcDbVisualStyle
  2
3dWireframe
 70
     5
177
     2
291
     0
 71
     0
176
     1
 72
     2
176
     1
 73
     0
176
     1
 90
        0
176
     1
 40
-0.6
176
     1
 41
-30.0
176
     1
 62
     5
 63
     7
421
 16777215
176
     1
 74
     1
176
     1
 91
        4
176
     1
 64
     7
176
     1
 65
   257
176
     1
 75
     1
176
     1
175
     1
176
     1
 42
1.0
176
     1
 92
        0
176
     1
 66
   257
176
     1
 43
1.0
176
     1
 76
     1
176
     1
 77
     6
176
     1
 78
     2
176
     1
 67
     7
176
     1
 79
     5
176
     1
170
     0
176
     1
171
     0
176
     1
290
     0
176
     1
 93
        1
176
     1
 44
0.0
176
     1
173
     0
176
     1
  0
VISUALSTYLE
  5
32
102
{ACAD_REACTORS
330
2A
102
}
330
2A
100
AcDbVisualStyle
  2
Basic
 70
     7
177
     2
291
     1
 71
     1
176
     1
 72
     0
176
     1
 73
     1
176
     1
 90
        0
176
     1
 40
-0.6
176
     1
 41
-30.0
176
     1
 62
     5
 63
     7
421
 16777215
176
     1
 74
     0
176
     1
 91
        4
176
     1
 64
     7
176
     1
 65
   257
176
     1
 75
     1
176
     1
175
     1
176
     1
 42
1.0
176
     1
 92
        8
176
     1
 66
     7
176
     1
 43
1.0
176
     1
 76
     1
176
     1
 77
     6
176
     1
 78
     2
176
     1
 67
     7
176
     1
 79
     5
176
     1
170
     0
176
     1
171
     0
176
     1
290
     0
176
     1
 93
        1
176
     1
 44
0.0
176
     1
173
     0
176
     1
  0
VISUALSTYLE
  5
36
102
{ACAD_REACTORS
330
2A
102
}
330
2A
100
AcDbVisualStyle
  2
Brighten
 70
    12
177
     2
291
     1
 71
     2
176
     1
 72
     2
176
     1
 73
     0
176
     1
 90
        0
176
     1
 40
-0.6
176
     1
 41
-30.0
176
     1
 62
     5
 63
     7
421
 16777215
176
     1
 74
     1
176
     1
 91
        4
176
     1
 64
     7
176
     1
 65
   257
176
     1
 75
     1
176
     1
175
     1
176
     1
 42
1.0
176
     1
 92
        8
176
     1
 66
     7
176
     1
 43
1.0
176
     1
 76
     1
176
     1
 77
     6
176
     1
 78
     2
176
     1
 67
     7
176
     1
 79
     5
176
     1
170
     0
176
     1
171
     0
176
     1
290
     0
176
     1
 93
        1
176
     1
 44
50.0
176
     1
173
     0
176
     1
  0
VISUALSTYLE
  5
3A
102
{ACAD_REACTORS
330
2A
102
}
330
2A
100
AcDbVisualStyle
  2
ColorChange
 70
    16
177
     2
291
     1
 71
     2
176
     1
 72
     2
176
     1
 73
     3
176
     1
 90
        0
176
     1
 40
-0.6
176
     1
 41
-30.0
176
     1
 62
     5
 63
     8
421
  8421504
176
     1
 74
     1
176
     1
 91
        4
176
     1
 64
     7
176
     1
 65
   257
176
     1
 75
     1
176
     1
175
     1
176
     1
 42
1.0
176
     1
 92
        8
176
     1
 66
     8
424
  8421504
176
     1
 43
1.0
176
     1
 76
     1
176
     1
 77
     6
176
     1
 78
     2
176
     1
 67
     7
176
     1
 79
     5
176
     1
170
     0
176
     1
171
     0
176
     1
290
     0
176
     1
 93
        1
176
     1
 44
0.0
176
     1
173
     0
176
     1
  0
VISUALSTYLE
  5
34
102
{ACAD_REACTORS
330
2A
102
}
330
2A
100
AcDbVisualStyle
  2
Conceptual
 70
     9
177
     2
291
     0
 71
     3
176
     1
 72
     2
176
     1
 73
     0
176
     1
 90
        0
176
     1
 40
-0.6
176
     1
 41
-30.0
176
     1
 62
     5
 63
     7
421
 16777215
176
     1
 74
     2
176
     1
 91
        2
176
     1
 64
     7
176
     1
 65
   257
176
     1
 75
     1
176
     1
175
     1
176
     1
 42
40.0
176
     1
 92
        8
176
     1
 66
     7
176
     1
 43
1.0
176
     1
 76
     1
176
     1
 77
     6
176
     1
 78
     2
176
     1
 67
     7
176
     1
 79
     3
176
     1
170
     0
176
     1
171
     0
176
     1
290
     0
176
     1
 93
        1
176
     1
 44
0.0
176
     1
173
     0
176
     1
  0
VISUALSTYLE
  5
35
102
{ACAD_REACTORS
330
2A
102
}
330
2A
100
AcDbVisualStyle
  2
Dim
 70
    11
177
     2
291
     1
 71
     2
176
     1
 72
     2
176
     1
 73
     0
176
     1
 90
        0
176
     1
 40
-0.6
176
     1
 41
-30.0
176
     1
 62
     5
 63
     7
421
 16777215
176
     1
 74
     1
176
     1
 91
        4
176
     1
 64
     7
176
     1
 65
   257
176
     1
 75
     1
176
     1
175
     1
176
     1
 42
1.0
176
     1
 92
        8
176
     1
 66
     7
176
     1
 43
1.0
176
     1
 76
     1
176
     1
 77
     6
176
     1
 78
     2
176
     1
 67
     7
176
     1
 79
     5
176
     1
170
     0
176
     1
171
     0
176
     1
290
     0
176
     1
 93
        1
176
     1
 44
-50.0
176
     1
173
     0
176
     1
  0
VISUALSTYLE
  5
39
102
{ACAD_REACTORS
330
2A
102
}
330
2A
100
AcDbVisualStyle
  2
Facepattern
 70
    15
177
     2
291
     1
 71
     2
176
     1
 72
     2
176
     1
 73
     0
176
     1
 90
        0
176
     1
 40
-0.6
176
     1
 41
-30.0
176
     1
 62
     5
 63
     7
421
 16777215
176
     1
 74
     1
176
     1
 91
        4
176
     1
 64
     7
176
     1
 65
   257
176
     1
 75
     1
176
     1
175
     1
176
     1
 42
1.0
176
     1
 92
        8
176
     1
 66
     7
176
     1
 43
1.0
176
     1
 76
     1
176
     1
 77
     6
176
     1
 78
     2
176
     1
 67
     7
176
     1
 79
     5
176
     1
170
     0
176
     1
171
     0
176
     1
290
     0
176
     1
 93
        1
176
     1
 44
0.0
176
     1
173
     0
176
     1
  0
VISUALSTYLE
  5
2B
102
{ACAD_REACTORS
330
2A
102
}
330
2A
100
AcDbVisualStyle
  2
Flat
 70
     0
177
     2
291
     1
 71
     2
176
     1
 72
     1
176
     1
 73
     1
176
     1
 90
        2
176
     1
 40
-0.6
176
     1
 41
30.0
176
     1
 62
     5
 63
     7
421
 16777215
176
     1
 74
     0
176
     1
 91
        4
176
     1
 64
     7
176
     1
 65
   257
176
     1
 75
     1
176
     1
175
     1
176
     1
 42
1.0
176
     1
 92
        8
176
     1
 66
     7
176
     1
 43
1.0
176
     1
 76
     1
176
     1
 77
     6
176
     1
 78
     2
176
     1
 67
     7
176
     1
 79
     5
176
     1
170
     0
176
     1
171
     0
176
     1
290
     0
176
     1
 93
       13
176
     1
 44
0.0
176
     1
173
     0
176
     1
  0
VISUALSTYLE
  5
2C
102
{ACAD_REACTORS
330
2A
102
}
330
2A
100
AcDbVisualStyle
  2
FlatWithEdges
 70
     1
177
     2
291
     1
 71
     2
176
     1
 72
     1
176
     1
 73
     1
176
     1
 90
        2
176
     1
 40
-0.6
176
     1
 41
30.0
176
     1
 62
     5
 63
     7
421
 16777215
176
     1
 74
     1
176
     1
 91
        4
176
     1
 64
     7
176
     1
 65
   257
176
     1
 75
     1
176
     1
175
     1
176
     1
 42
1.0
176
     1
 92
        0
176
     1
 66
   257
176
     1
 43
1.0
176
     1
 76
     1
176
     1
 77
     6
176
     1
 78
     2
176
     1
 67
     7
176
     1
 79
     5
176
     1
170
     0
176
     1
171
     0
176
     1
290
     0
176
     1
 93
       13
176
     1
 44
0.0
176
     1
173
     0
176
     1
  0
VISUALSTYLE
  5
2D
102
{ACAD_REACTORS
330
2A
102
}
330
2A
100
AcDbVisualStyle
  2
Gouraud
 70
     2
177
     2
291
     1
 71
     2
176
     1
 72
     2
176
     1
 73
     1
176
     1
 90
        2
176
     1
 40
-0.6
176
     1
 41
30.0
176
     1
 62
     5
 63
     7
421
 16777215
176
     1
 74
     0
176
     1
 91
        4
176
     1
 64
     7
176
     1
 65
   257
176
     1
 75
     1
176
     1
175
     1
176
     1
 42
1.0
176
     1
 92
        0
176
     1
 66
     7
176
     1
 43
1.0
176
     1
 76
     1
176
     1
 77
     6
176
     1
 78
     2
176
     1
 67
     7
176
     1
 79
     5
176
     1
170
     0
176
     1
171
     0
176
     1
290
     0
176
     1
 93
       13
176
     1
 44
0.0
176
     1
173
     0
176
     1
  0
VISUALSTYLE
  5
2E
102
{ACAD_REACTORS
330
2A
102
}
330
2A
100
AcDbVisualStyle
  2
GouraudWithEdges
 70
     3
177
     2
291
     1
 71
     2
176
     1
 72
     2
176
     1
 73
     1
176
     1
 90
        2
176
     1
 40
-0.6
176
     1
 41
30.0
176
     1
 62
     5
 63
     7
421
 16777215
176
     1
 74
     1
176
     1
 91
        4
176
     1
 64
     7
176
     1
 65
   257
176
     1
 75
     1
176
     1
175
     1
176
     1
 42
1.0
176
     1
 92
        0
176
     1
 66
   257
176
     1
 43
1.0
176
     1
 76
     1
176
     1
 77
     6
176
     1
 78
     2
176
     1
 67
     7
176
     1
 79
     5
176
     1
170
     0
176
     1
171
     0
176
     1
290
     0
176
     1
 93
       13
176
     1
 44
0.0
176
     1
173
     0
176
     1
  0
VISUALSTYLE
  5
38
102
{ACAD_REACTORS
330
2A
102
}
330
2A
100
AcDbVisualStyle
  2
Linepattern
 70
    14
177
     2
291
     1
 71
     2
176
     1
 72
     2
176
     1
 73
     0
176
     1
 90
        0
176
     1
 40
-0.6
176
     1
 41
-30.0
176
     1
 62
     5
 63
     7
421
 16777215
176
     1
 74
     1
176
     1
 91
        4
176
     1
 64
     7
176
     1
 65
   257
176
     1
 75
     7
176
     1
175
     7
176
     1
 42
1.0
176
     1
 92
        8
176
     1
 66
     7
176
     1
 43
1.0
176
     1
 76
     1
176
     1
 77
     6
176
     1
 78
     2
176
     1
 67
     7
176
     1
 79
     5
176
     1
170
     0
176
     1
171
     0
176
     1
290
     0
176
     1
 93
        1
176
     1
 44
0.0
176
     1
173
     0
176
     1
  0
VISUALSTYLE
  5
33
102
{ACAD_REACTORS
330
2A
102
}
330
2A
100
AcDbVisualStyle
  2
Realistic
 70
     8
177
     2
291
     0
 71
     2
176
     1
 72
     2
176
     1
 73
     0
176
     1
 90
        0
176
     1
 40
-0.6
176
     1
 41
-30.0
176
     1
 62
     5
 63
     7
421
 16777215
176
     1
 74
     1
176
     1
 91
        0
176
     1
 64
     7
176
     1
 65
   257
176
     1
 75
     1
176
     1
175
     1
176
     1
 42
1.0
176
     1
 92
        8
176
     1
 66
     8
424
  7895160
176
     1
 43
1.0
176
     1
 76
     1
176
     1
 77
     6
176
     1
 78
     2
176
     1
 67
     7
176
     1
 79
     5
176
     1
170
     0
176
     1
171
     0
176
     1
290
     0
176
     1
 93
       13
176
     1
 44
0.0
176
     1
173
     0
176
     1
  0
VISUALSTYLE
  5
37
102
{ACAD_REACTORS
330
2A
102
}
330
2A
100
AcDbVisualStyle
  2
Thicken
 70
    13
177
     2
291
     1
 71
     2
176
     1
 72
     2
176
     1
 73
     0
176
     1
 90
        0
176
     1
 40
-0.6
176
     1
 41
-30.0
176
     1
 62
     5
 63
     7
421
 16777215
176
     1
 74
     1
176
     1
 91
        4
176
     1
 64
     7
176
     1
 65
   257
176
     1
 75
     1
176
     1
175
     1
176
     1
 42
1.0
176
     1
 92
       12
176
     1
 66
     7
176
     1
 43
1.0
176
     1
 76
     1
176
     1
 77
     6
176
     1
 78
     2
176
     1
 67
     7
176
     1
 79
     5
176
     1
170
     0
176
     1
171
     0
176
     1
290
     0
176
     1
 93
        1
176
     1
 44
0.0
176
     1
173
     0
176
     1
  0
ENDSEC
  0
EOF
