  0
SECTION
  2
HEADER
  9
$ACADVER
  1
AC1024
  9
$ACADMAINTVER
 70
     6
  9
$DWGCODEPAGE
  3
ANSI_932
  9
$INSBASE
 10
0.0
 20
0.0
 30
0.0
  9
$EXTMIN
 10
-4455.0
 20
-3150.0
 30
0.0
  9
$EXTMAX
 10
4455.0
 20
3150.0
 30
0.0
  9
$LIMMIN
 10
-4455.0
 20
-3150.0
  9
$LIMMAX
 10
4455.0
 20
3150.0
  9
$ORTHOMODE
 70
     0
  9
$REGENMODE
 70
     1
  9
$FILLMODE
 70
     1
  9
$QTEXTMODE
 70
     0
  9
$MIRRTEXT
 70
     1
  9
$LTSCALE
 40
30.0
  9
$ATTMODE
 70
     1
  9
$TEXTSIZE
 40
2.5
  9
$TRACEWID
 40
1.0
  9
$TEXTSTYLE
  7
Standard
  9
$CLAYER
  8
0
  9
$CELTYPE
  6
ByLayer
  9
$CECOLOR
 62
   256
  9
$CELTSCALE
 40
1.0
  9
$DISPSILH
 70
     0
  9
$DIMSCALE
 40
1.0
  9
$DIMASZ
 40
2.5
  9
$DIMEXO
 40
0.625
  9
$DIMDLI
 40
3.75
  9
$DIMRND
 40
0.0
  9
$DIMDLE
 40
0.0
  9
$DIMEXE
 40
1.25
  9
$DIMTP
 40
0.0
  9
$DIMTM
 40
0.0
  9
$DIMTXT
 40
2.5
  9
$DIMCEN
 40
2.5
  9
$DIMTSZ
 40
0.0
  9
$DIMTOL
 70
     0
  9
$DIMLIM
 70
     0
  9
$DIMTIH
 70
     0
  9
$DIMTOH
 70
     0
  9
$DIMSE1
 70
     0
  9
$DIMSE2
 70
     0
  9
$DIMTAD
 70
     1
  9
$DIMZIN
 70
     8
  9
$DIMBLK
  1

  9
$DIMASO
 70
     1
  9
$DIMSHO
 70
     1
  9
$DIMPOST
  1

  9
$DIMAPOST
  1

  9
$DIMALT
 70
     0
  9
$DIMALTD
 70
     3
  9
$DIMALTF
 40
0.03937007874016
  9
$DIMLFAC
 40
1.0
  9
$DIMTOFL
 70
     1
  9
$DIMTVP
 40
0.0
  9
$DIMTIX
 70
     0
  9
$DIMSOXD
 70
     0
  9
$DIMSAH
 70
     0
  9
$DIMBLK1
  1

  9
$DIMBLK2
  1

  9
$DIMSTYLE
  2
ISO-25
  9
$DIMCLRD
 70
     0
  9
$DIMCLRE
 70
     0
  9
$DIMCLRT
 70
     0
  9
$DIMTFAC
 40
1.0
  9
$DIMGAP
 40
0.625
  9
$DIMJUST
 70
     0
  9
$DIMSD1
 70
     0
  9
$DIMSD2
 70
     0
  9
$DIMTOLJ
 70
     0
  9
$DIMTZIN
 70
     8
  9
$DIMALTZ
 70
     0
  9
$DIMALTTZ
 70
     0
  9
$DIMUPT
 70
     0
  9
$DIMDEC
 70
     2
  9
$DIMTDEC
 70
     2
  9
$DIMALTU
 70
     2
  9
$DIMALTTD
 70
     3
  9
$DIMTXSTY
  7
Standard
  9
$DIMAUNIT
 70
     0
  9
$DIMADEC
 70
     0
  9
$DIMALTRND
 40
0.0
  9
$DIMAZIN
 70
     0
  9
$DIMDSEP
 70
    44
  9
$DIMATFIT
 70
     3
  9
$DIMFRAC
 70
     0
  9
$DIMLDRBLK
  1

  9
$DIMLUNIT
 70
     2
  9
$DIMLWD
 70
    -2
  9
$DIMLWE
 70
    -2
  9
$DIMTMOVE
 70
     0
  9
$DIMFXL
 40
1.0
  9
$DIMFXLON
 70
     0
  9
$DIMJOGANG
 40
0.7853981633974483
  9
$DIMTFILL
 70
     0
  9
$DIMTFILLCLR
 70
     0
  9
$DIMARCSYM
 70
     0
  9
$DIMLTYPE
  6

  9
$DIMLTEX1
  6

  9
$DIMLTEX2
  6

  9
$DIMTXTDIRECTION
 70
     0
  9
$LUNITS
 70
     2
  9
$LUPREC
 70
     4
  9
$SKETCHINC
 40
1.0
  9
$FILLETRAD
 40
10.0
  9
$AUNITS
 70
     0
  9
$AUPREC
 70
     0
  9
$MENU
  1
.
  9
$ELEVATION
 40
0.0
  9
$PELEVATION
 40
0.0
  9
$THICKNESS
 40
0.0
  9
$LIMCHECK
 70
     0
  9
$CHAMFERA
 40
10.0
  9
$CHAMFERB
 40
10.0
  9
$CHAMFERC
 40
20.0
  9
$CHAMFERD
 40
0.0
  9
$SKPOLY
 70
     0
  9
$TDCREATE
 40
2457953.400862697
  9
$TDUCREATE
 40
2457953.025862697
  9
$TDUPDATE
 40
2457953.400862708
  9
$TDUUPDATE
 40
2457953.025862708
  9
$TDINDWG
 40
0.0000000116
  9
$TDUSRTIMER
 40
0.0000000116
  9
$USRTIMER
 70
     1
  9
$ANGBASE
 50
0.0
  9
$ANGDIR
 70
     0
  9
$PDMODE
 70
     0
  9
$PDSIZE
 40
0.0
  9
$PLINEWID
 40
0.0
  9
$SPLFRAME
 70
     0
  9
$SPLINETYPE
 70
     6
  9
$SPLINESEGS
 70
     8
  9
$HANDSEED
  5
2BA
  9
$SURFTAB1
 70
     6
  9
$SURFTAB2
 70
     6
  9
$SURFTYPE
 70
     6
  9
$SURFU
 70
     6
  9
$SURFV
 70
     6
  9
$UCSBASE
  2

  9
$UCSNAME
  2

  9
$UCSORG
 10
0.0
 20
0.0
 30
0.0
  9
$UCSXDIR
 10
1.0
 20
0.0
 30
0.0
  9
$UCSYDIR
 10
0.0
 20
1.0
 30
0.0
  9
$UCSORTHOREF
  2

  9
$UCSORTHOVIEW
 70
     0
  9
$UCSORGTOP
 10
0.0
 20
0.0
 30
0.0
  9
$UCSORGBOTTOM
 10
0.0
 20
0.0
 30
0.0
  9
$UCSORGLEFT
 10
0.0
 20
0.0
 30
0.0
  9
$UCSORGRIGHT
 10
0.0
 20
0.0
 30
0.0
  9
$UCSORGFRONT
 10
0.0
 20
0.0
 30
0.0
  9
$UCSORGBACK
 10
0.0
 20
0.0
 30
0.0
  9
$PUCSBASE
  2

  9
$PUCSNAME
  2

  9
$PUCSORG
 10
0.0
 20
0.0
 30
0.0
  9
$PUCSXDIR
 10
1.0
 20
0.0
 30
0.0
  9
$PUCSYDIR
 10
0.0
 20
1.0
 30
0.0
  9
$PUCSORTHOREF
  2

  9
$PUCSORTHOVIEW
 70
     0
  9
$PUCSORGTOP
 10
0.0
 20
0.0
 30
0.0
  9
$PUCSORGBOTTOM
 10
0.0
 20
0.0
 30
0.0
  9
$PUCSORGLEFT
 10
0.0
 20
0.0
 30
0.0
  9
$PUCSORGRIGHT
 10
0.0
 20
0.0
 30
0.0
  9
$PUCSORGFRONT
 10
0.0
 20
0.0
 30
0.0
  9
$PUCSORGBACK
 10
0.0
 20
0.0
 30
0.0
  9
$USERI1
 70
     0
  9
$USERI2
 70
     0
  9
$USERI3
 70
     0
  9
$USERI4
 70
     0
  9
$USERI5
 70
     0
  9
$USERR1
 40
0.0
  9
$USERR2
 40
0.0
  9
$USERR3
 40
0.0
  9
$USERR4
 40
0.0
  9
$USERR5
 40
0.0
  9
$WORLDVIEW
 70
     1
  9
$SHADEDGE
 70
     3
  9
$SHADEDIF
 70
    70
  9
$TILEMODE
 70
     1
  9
$MAXACTVP
 70
    64
  9
$PINSBASE
 10
0.0
 20
0.0
 30
0.0
  9
$PLIMCHECK
 70
     0
  9
$PEXTMIN
 10
1.000000000000000E+20
 20
1.000000000000000E+20
 30
1.000000000000000E+20
  9
$PEXTMAX
 10
-1.000000000000000E+20
 20
-1.000000000000000E+20
 30
-1.000000000000000E+20
  9
$PLIMMIN
 10
0.0
 20
0.0
  9
$PLIMMAX
 10
420.0
 20
297.0
  9
$UNITMODE
 70
     0
  9
$VISRETAIN
 70
     1
  9
$PLINEGEN
 70
     0
  9
$PSLTSCALE
 70
     1
  9
$TREEDEPTH
 70
  3020
  9
$CMLSTYLE
  2
Standard
  9
$CMLJUST
 70
     0
  9
$CMLSCALE
 40
20.0
  9
$PROXYGRAPHICS
 70
     1
  9
$MEASUREMENT
 70
     1
  9
$CELWEIGHT
370
    -1
  9
$ENDCAPS
280
     0
  9
$JOINSTYLE
280
     0
  9
$LWDISPLAY
290
     0
  9
$INSUNITS
 70
     4
  9
$HYPERLINKBASE
  1

  9
$STYLESHEET
  1

  9
$XEDIT
290
     1
  9
$CEPSNTYPE
380
     0
  9
$PSTYLEMODE
290
     1
  9
$FINGERPRINTGUID
  2
{2404EA78-362D-4446-9D0C-396C49226DB3}
  9
$VERSIONGUID
  2
{FAEB1C32-E019-11D5-929B-00C0DF256EC4}
  9
$EXTNAMES
290
     1
  9
$PSVPSCALE
 40
0.0
  9
$OLESTARTUP
290
     0
  9
$SORTENTS
280
   127
  9
$INDEXCTL
280
     0
  9
$HIDETEXT
280
     1
  9
$XCLIPFRAME
280
     2
  9
$HALOGAP
280
     0
  9
$OBSCOLOR
 70
   257
  9
$OBSLTYPE
280
     0
  9
$INTERSECTIONDISPLAY
280
     0
  9
$INTERSECTIONCOLOR
 70
   257
  9
$DIMASSOC
280
     2
  9
$PROJECTNAME
  1

  9
$CAMERADISPLAY
290
     0
  9
$LENSLENGTH
 40
50.0
  9
$CAMERAHEIGHT
 40
0.0
  9
$STEPSPERSEC
 40
2.0
  9
$STEPSIZE
 40
6.0
  9
$3DDWFPREC
 40
2.0
  9
$PSOLWIDTH
 40
5.0
  9
$PSOLHEIGHT
 40
80.0
  9
$LOFTANG1
 40
1.570796326794897
  9
$LOFTANG2
 40
1.570796326794897
  9
$LOFTMAG1
 40
0.0
  9
$LOFTMAG2
 40
0.0
  9
$LOFTPARAM
 70
     7
  9
$LOFTNORMALS
280
     1
  9
$LATITUDE
 40
37.795
  9
$LONGITUDE
 40
-122.394
  9
$NORTHDIRECTION
 40
0.0
  9
$TIMEZONE
 70
 -8000
  9
$LIGHTGLYPHDISPLAY
280
     1
  9
$TILEMODELIGHTSYNCH
280
     1
  9
$SOLIDHIST
280
     1
  9
$SHOWHIST
280
     1
  9
$DWFFRAME
280
     2
  9
$DGNFRAME
280
     2
  9
$REALWORLDSCALE
290
     1
  9
$INTERFERECOLOR
 62
   256
  9
$CSHADOW
280
     0
  9
$SHADOWPLANELOCATION
 40
0.0
  0
ENDSEC
  0
SECTION
  2
CLASSES
  0
CLASS
  1
ACDBDICTIONARYWDFLT
  2
AcDbDictionaryWithDefault
  3
ObjectDBX Classes
 90
        0
 91
        4
280
     0
281
     0
  0
CLASS
  1
VISUALSTYLE
  2
AcDbVisualStyle
  3
ObjectDBX Classes
 90
     4095
 91
        4
280
     0
281
     0
  0
CLASS
  1
MATERIAL
  2
AcDbMaterial
  3
ObjectDBX Classes
 90
     1153
 91
        4
280
     0
281
     0
  0
ENDSEC
  0
SECTION
  2
TABLES
  0
TABLE
  2
VPORT
  5
8
330
0
100
AcDbSymbolTable
 70
     1
  0
VPORT
  5
29
330
8
100
AcDbSymbolTableRecord
100
AcDbViewportTableRecord
  2
*Active
 70
     0
 10
0.0
 20
0.0
 11
1.0
 21
1.0
 12
0.0
 22
0.0
 13
0.0
 23
0.0
 14
10.0
 24
10.0
 15
10.0
 25
10.0
 16
0.0
 26
0.0
 36
1.0
 17
0.0
 27
0.0
 37
0.0
 40
6930.000000000001
 41
1.414285714285714
 42
50.0
 43
0.0
 44
0.0
 50
0.0
 51
0.0
 71
     0
 72
 10000
 73
     1
 74
     3
 75
     0
 76
     0
 77
     0
 78
     0
281
     0
 65
     1
110
0.0
120
0.0
130
0.0
111
1.0
121
0.0
131
0.0
112
0.0
122
1.0
132
0.0
 79
     0
146
0.0
 60
     3
 61
     5
292
     1
282
     1
141
0.0
142
0.0
 63
   250
  0
ENDTAB
  0
TABLE
  2
LTYPE
  5
5
330
0
100
AcDbSymbolTable
 70
     2
  0
LTYPE
  5
14
330
5
100
AcDbSymbolTableRecord
100
AcDbLinetypeTableRecord
  2
ByBlock
 70
     0
  3

 72
    65
 73
     0
 40
0.0
  0
LTYPE
  5
15
330
5
100
AcDbSymbolTableRecord
100
AcDbLinetypeTableRecord
  2
ByLayer
 70
     0
  3

 72
    65
 73
     0
 40
0.0
  0
LTYPE
  5
16
330
5
100
AcDbSymbolTableRecord
100
AcDbLinetypeTableRecord
  2
Continuous
 70
     0
  3
Solid line
 72
    65
 73
     0
 40
0.0
  0
LTYPE
  5
3F
330
5
100
AcDbSymbolTableRecord
100
AcDbLinetypeTableRecord
  2
JWW_DASHED1
 70
     0
  3
-  --  --  --  --  --  --  --  -
 72
    65
 73
     2
 40
1.693333333333333
 49
0.8466666666666667
 74
     0
 49
-0.8466666666666667
 74
     0
  0
ENDTAB
  0
TABLE
  2
LAYER
  5
2
330
0
100
AcDbSymbolTable
 70
     3
  0
LAYER
  5
10
330
2
100
AcDbSymbolTableRecord
100
AcDbLayerTableRecord
  2
0
 70
     0
 62
     7
  6
Continuous
370
    -3
390
F
347
3E
  0
LAYER
  5
40
330
2
100
AcDbSymbolTableRecord
100
AcDbLayerTableRecord
  2
0-0
 70
     0
 62
     7
  6
Continuous
370
    -3
390
F
347
3E
  0
LAYER
  5
41
330
2
100
AcDbSymbolTableRecord
100
AcDbLayerTableRecord
  2
寸法
 70
     0
 62
     7
  6
Continuous
370
    -3
390
F
347
3E
  0
ENDTAB
  0
TABLE
  2
STYLE
  5
3
330
0
100
AcDbSymbolTable
 70
     1
  0
STYLE
  5
11
330
3
100
AcDbSymbolTableRecord
100
AcDbTextStyleTableRecord
  2
Standard
 70
     0
 40
0.0
 41
1.0
 50
0.0
 71
     0
 42
2.5
  3
txt
  4

  0
ENDTAB
  0
TABLE
  2
VIEW
  5
6
330
0
100
AcDbSymbolTable
 70
     0
  0
ENDTAB
  0
TABLE
  2
UCS
  5
7
330
0
100
AcDbSymbolTable
 70
     0
  0
ENDTAB
  0
TABLE
  2
APPID
  5
9
330
0
100
AcDbSymbolTable
 70
     1
  0
APPID
  5
12
330
9
100
AcDbSymbolTableRecord
100
AcDbRegAppTableRecord
  2
ACAD
 70
     0
  0
ENDTAB
  0
TABLE
  2
DIMSTYLE
  5
A
330
0
100
AcDbSymbolTable
 70
     1
100
AcDbDimStyleTable
  0
DIMSTYLE
105
27
330
A
100
AcDbSymbolTableRecord
100
AcDbDimStyleTableRecord
  2
ISO-25
 70
     0
 41
2.5
 42
0.625
 43
3.75
 44
1.25
 73
     0
 74
     0
 77
     1
 78
     8
140
2.5
141
2.5
143
0.03937007874016
147
0.625
171
     3
172
     1
178
     0
271
     2
272
     2
274
     3
278
    44
283
     0
284
     8
340
11
  0
ENDTAB
  0
TABLE
  2
BLOCK_RECORD
  5
1
330
0
100
AcDbSymbolTable
 70
     1
  0
BLOCK_RECORD
  5
1F
330
1
100
AcDbSymbolTableRecord
100
AcDbBlockTableRecord
  2
*Model_Space
340
22
 70
     0
280
     1
281
     0
  0
BLOCK_RECORD
  5
1B
330
1
100
AcDbSymbolTableRecord
100
AcDbBlockTableRecord
  2
*Paper_Space
340
1E
 70
     0
280
     1
281
     0
  0
BLOCK_RECORD
  5
23
330
1
100
AcDbSymbolTableRecord
100
AcDbBlockTableRecord
  2
*Paper_Space0
340
26
 70
     0
280
     1
281
     0
  0
ENDTAB
  0
ENDSEC
  0
SECTION
  2
BLOCKS
  0
BLOCK
  5
20
330
1F
100
AcDbEntity
  8
0
100
AcDbBlockBegin
  2
*Model_Space
 70
     0
 10
0.0
 20
0.0
 30
0.0
  3
*Model_Space
  1

  0
ENDBLK
  5
21
330
1F
100
AcDbEntity
  8
0
100
AcDbBlockEnd
  0
BLOCK
  5
1C
330
1B
100
AcDbEntity
 67
     1
  8
0
100
AcDbBlockBegin
  2
*Paper_Space
 70
     0
 10
0.0
 20
0.0
 30
0.0
  3
*Paper_Space
  1

  0
ENDBLK
  5
1D
330
1B
100
AcDbEntity
 67
     1
  8
0
100
AcDbBlockEnd
  0
BLOCK
  5
24
330
23
100
AcDbEntity
  8
0
100
AcDbBlockBegin
  2
*Paper_Space0
 70
     0
 10
0.0
 20
0.0
 30
0.0
  3
*Paper_Space0
  1

  0
ENDBLK
  5
25
330
23
100
AcDbEntity
  8
0
100
AcDbBlockEnd
  0
ENDSEC
  0
SECTION
  2
ENTITIES
  0
LINE
  5
42
330
1F
100
AcDbEntity
  8
0-0
  6
Continuous
 62
    92
370
    13
100
AcDbLine
 10
1632.119042808893
 20
-1329.898334090643
 30
0.0
 11
-791.8809571911055
 21
-1329.898334090643
 31
0.0
  0
LINE
  5
43
330
1F
100
AcDbEntity
  8
0-0
  6
Continuous
 62
    92
370
    13
100
AcDbLine
 10
1602.119042808893
 20
-1314.898334090643
 30
0.0
 11
-761.8809571911055
 21
-1314.898334090643
 31
0.0
  0
ARC
  5
44
330
1F
100
AcDbEntity
  8
0-0
  6
Continuous
 62
    92
370
    13
100
AcDbCircle
 10
-733.3809571911075
 20
-292.8983340906427
 30
0.0
 40
1.5
100
AcDbArc
 50
90.0
 51
180.0
  0
LINE
  5
45
330
1F
100
AcDbEntity
  8
0-0
  6
Continuous
 62
    92
370
    13
100
AcDbLine
 10
-694.3809571911072
 20
-291.3983340906432
 30
0.0
 11
-733.3809571911075
 21
-291.3983340906432
 31
0.0
  0
ARC
  5
46
330
1F
100
AcDbEntity
  8
0-0
  6
Continuous
 62
    92
370
    13
100
AcDbCircle
 10
-694.3809571911072
 20
-292.8983340906427
 30
0.0
 40
1.5
100
AcDbArc
 50
0.0
 51
90.00000000000001
  0
LINE
  5
47
330
1F
100
AcDbEntity
  8
0-0
  6
Continuous
 62
    92
370
    13
100
AcDbLine
 10
-692.8809571911103
 20
-411.8983340906428
 30
0.0
 11
-692.8809571911103
 21
-292.8983340906427
 31
0.0
  0
ARC
  5
48
330
1F
100
AcDbEntity
  8
0-0
  6
Continuous
 62
    92
370
    13
100
AcDbCircle
 10
-694.3809571911072
 20
-411.8983340906428
 30
0.0
 40
1.5
100
AcDbArc
 50
270.0
 51
0.0
  0
LINE
  5
49
330
1F
100
AcDbEntity
  8
0-0
  6
Continuous
 62
    92
370
    13
100
AcDbLine
 10
-733.3809571911075
 20
-413.3983340906427
 30
0.0
 11
-694.3809571911072
 21
-413.3983340906427
 31
0.0
  0
LINE
  5
4A
330
1F
100
AcDbEntity
  8
0-0
  6
Continuous
 62
    92
370
    13
100
AcDbLine
 10
-734.8809571911062
 20
-411.8983340906428
 30
0.0
 11
-734.8809571911062
 21
-292.8983340906427
 31
0.0
  0
ARC
  5
4B
330
1F
100
AcDbEntity
  8
0-0
  6
Continuous
 62
    92
370
    13
100
AcDbCircle
 10
-733.3809571911075
 20
-411.8983340906428
 30
0.0
 40
1.5
100
AcDbArc
 50
180.0
 51
270.0
  0
ARC
  5
4C
330
1F
100
AcDbEntity
  8
0-0
  6
Continuous
 62
     7
370
     9
100
AcDbCircle
 10
-713.8809571911082
 20
-381.9983340906431
 30
0.0
 40
15.0
100
AcDbArc
 50
180.0
 51
0.0
  0
ARC
  5
4D
330
1F
100
AcDbEntity
  8
0-0
  6
Continuous
 62
     7
370
     9
100
AcDbCircle
 10
-713.8809571911082
 20
-322.7983340906428
 30
0.0
 40
15.0
100
AcDbArc
 50
0.0
 51
180.0
  0
LINE
  5
4E
330
1F
100
AcDbEntity
  8
0-0
  6
Continuous
 62
     7
370
     9
100
AcDbLine
 10
-698.8809571911082
 20
-381.9983340906431
 30
0.0
 11
-698.8809571911082
 21
-322.7983340906428
 31
0.0
  0
LINE
  5
4F
330
1F
100
AcDbEntity
  8
0-0
  6
Continuous
 62
     7
370
     9
100
AcDbLine
 10
-728.8809571911082
 20
-322.7983340906428
 30
0.0
 11
-728.8809571911082
 21
-381.9983340906431
 31
0.0
  0
ARC
  5
50
330
1F
100
AcDbEntity
  8
0-0
  6
Continuous
 62
    92
370
    13
100
AcDbCircle
 10
46.61904280889246
 20
-292.8983340906427
 30
0.0
 40
1.5
100
AcDbArc
 50
90.0
 51
180.0
  0
LINE
  5
51
330
1F
100
AcDbEntity
  8
0-0
  6
Continuous
 62
    92
370
    13
100
AcDbLine
 10
85.6190428088928
 20
-291.3983340906432
 30
0.0
 11
46.61904280889246
 21
-291.3983340906432
 31
0.0
  0
ARC
  5
52
330
1F
100
AcDbEntity
  8
0-0
  6
Continuous
 62
    92
370
    13
100
AcDbCircle
 10
85.6190428088928
 20
-292.8983340906427
 30
0.0
 40
1.5
100
AcDbArc
 50
0.0
 51
90.00000000000001
  0
LINE
  5
53
330
1F
100
AcDbEntity
  8
0-0
  6
Continuous
 62
    92
370
    13
100
AcDbLine
 10
87.11904280888973
 20
-411.8983340906428
 30
0.0
 11
87.11904280888973
 21
-292.8983340906427
 31
0.0
  0
ARC
  5
54
330
1F
100
AcDbEntity
  8
0-0
  6
Continuous
 62
    92
370
    13
100
AcDbCircle
 10
85.6190428088928
 20
-411.8983340906428
 30
0.0
 40
1.5
100
AcDbArc
 50
270.0
 51
0.0
  0
LINE
  5
55
330
1F
100
AcDbEntity
  8
0-0
  6
Continuous
 62
    92
370
    13
100
AcDbLine
 10
46.61904280889246
 20
-413.3983340906427
 30
0.0
 11
85.6190428088928
 21
-413.3983340906427
 31
0.0
  0
LINE
  5
56
330
1F
100
AcDbEntity
  8
0-0
  6
Continuous
 62
    92
370
    13
100
AcDbLine
 10
45.11904280889382
 20
-411.8983340906428
 30
0.0
 11
45.11904280889382
 21
-292.8983340906427
 31
0.0
  0
ARC
  5
57
330
1F
100
AcDbEntity
  8
0-0
  6
Continuous
 62
    92
370
    13
100
AcDbCircle
 10
46.61904280889246
 20
-411.8983340906428
 30
0.0
 40
1.5
100
AcDbArc
 50
180.0
 51
270.0
  0
ARC
  5
58
330
1F
100
AcDbEntity
  8
0-0
  6
Continuous
 62
     7
370
     9
100
AcDbCircle
 10
66.11904280889178
 20
-381.9983340906431
 30
0.0
 40
15.0
100
AcDbArc
 50
180.0
 51
0.0
  0
ARC
  5
59
330
1F
100
AcDbEntity
  8
0-0
  6
Continuous
 62
     7
370
     9
100
AcDbCircle
 10
66.11904280889178
 20
-322.7983340906428
 30
0.0
 40
15.0
100
AcDbArc
 50
0.0
 51
180.0
  0
LINE
  5
5A
330
1F
100
AcDbEntity
  8
0-0
  6
Continuous
 62
     7
370
     9
100
AcDbLine
 10
81.11904280889178
 20
-381.9983340906431
 30
0.0
 11
81.11904280889178
 21
-322.7983340906428
 31
0.0
  0
LINE
  5
5B
330
1F
100
AcDbEntity
  8
0-0
  6
Continuous
 62
     7
370
     9
100
AcDbLine
 10
51.11904280889178
 20
-322.7983340906428
 30
0.0
 11
51.11904280889178
 21
-381.9983340906431
 31
0.0
  0
LINE
  5
5C
330
1F
100
AcDbEntity
  8
0-0
  6
JWW_DASHED1
 62
   120
370
     5
100
AcDbLine
 10
-761.8809571911055
 20
-1309.898334090643
 30
0.0
 11
-764.8809571911062
 21
-1309.898334090643
 31
0.0
  0
LINE
  5
5D
330
1F
100
AcDbEntity
  8
0-0
  6
Continuous
 62
    92
370
    13
100
AcDbLine
 10
-761.8809571911055
 20
-1309.898334090643
 30
0.0
 11
825.1190428088938
 21
-1309.898334090643
 31
0.0
  0
LINE
  5
5E
330
1F
100
AcDbEntity
  8
0-0
  6
Continuous
 62
     7
370
     9
100
AcDbLine
 10
-646.3809571911056
 20
-1159.898334090643
 30
0.0
 11
-661.3809571911056
 21
-1174.898334090643
 31
0.0
  0
LINE
  5
5F
330
1F
100
AcDbEntity
  8
0-0
  6
Continuous
 62
     7
370
     9
100
AcDbLine
 10
-73.38095719110669
 20
-1159.898334090643
 30
0.0
 11
-58.38095719110669
 21
-1174.898334090643
 31
0.0
  0
LINE
  5
60
330
1F
100
AcDbEntity
  8
0-0
  6
Continuous
 62
     7
370
     9
100
AcDbLine
 10
-661.3809571911056
 20
-1174.898334090643
 30
0.0
 11
-58.38095719110669
 21
-1174.898334090643
 31
0.0
  0
LINE
  5
61
330
1F
100
AcDbEntity
  8
0-0
  6
Continuous
 62
     7
370
     9
100
AcDbLine
 10
-616.3809571911056
 20
-1129.898334090643
 30
0.0
 11
-631.3809571911056
 21
-1144.898334090643
 31
0.0
  0
LINE
  5
62
330
1F
100
AcDbEntity
  8
0-0
  6
Continuous
 62
     7
370
     9
100
AcDbLine
 10
-103.3809571911067
 20
-1129.898334090643
 30
0.0
 11
-88.38095719110669
 21
-1144.898334090643
 31
0.0
  0
LINE
  5
63
330
1F
100
AcDbEntity
  8
0-0
  6
Continuous
 62
     7
370
     9
100
AcDbLine
 10
-616.3809571911056
 20
-1129.898334090643
 30
0.0
 11
-103.3809571911067
 21
-1129.898334090643
 31
0.0
  0
LINE
  5
64
330
1F
100
AcDbEntity
  8
0-0
  6
Continuous
 62
    92
370
    13
100
AcDbLine
 10
-646.3809571911056
 20
-1159.898334090643
 30
0.0
 11
-73.38095719110669
 21
-1159.898334090643
 31
0.0
  0
LINE
  5
65
330
1F
100
AcDbEntity
  8
0-0
  6
Continuous
 62
     7
370
     9
100
AcDbLine
 10
133.6190428088943
 20
-1159.898334090643
 30
0.0
 11
118.6190428088943
 21
-1174.898334090643
 31
0.0
  0
LINE
  5
66
330
1F
100
AcDbEntity
  8
0-0
  6
Continuous
 62
     7
370
     9
100
AcDbLine
 10
706.6190428088933
 20
-1159.898334090643
 30
0.0
 11
721.6190428088933
 21
-1174.898334090643
 31
0.0
  0
LINE
  5
67
330
1F
100
AcDbEntity
  8
0-0
  6
Continuous
 62
     7
370
     9
100
AcDbLine
 10
118.6190428088943
 20
-1174.898334090643
 30
0.0
 11
721.6190428088933
 21
-1174.898334090643
 31
0.0
  0
LINE
  5
68
330
1F
100
AcDbEntity
  8
0-0
  6
Continuous
 62
     7
370
     9
100
AcDbLine
 10
163.6190428088943
 20
-1129.898334090643
 30
0.0
 11
148.6190428088943
 21
-1144.898334090643
 31
0.0
  0
LINE
  5
69
330
1F
100
AcDbEntity
  8
0-0
  6
Continuous
 62
     7
370
     9
100
AcDbLine
 10
676.6190428088933
 20
-1129.898334090643
 30
0.0
 11
691.6190428088933
 21
-1144.898334090643
 31
0.0
  0
LINE
  5
6A
330
1F
100
AcDbEntity
  8
0-0
  6
Continuous
 62
     7
370
     9
100
AcDbLine
 10
163.6190428088943
 20
-1129.898334090643
 30
0.0
 11
676.6190428088933
 21
-1129.898334090643
 31
0.0
  0
LINE
  5
6B
330
1F
100
AcDbEntity
  8
0-0
  6
Continuous
 62
    92
370
    13
100
AcDbLine
 10
133.6190428088943
 20
-1159.898334090643
 30
0.0
 11
706.6190428088933
 21
-1159.898334090643
 31
0.0
  0
LINE
  5
6C
330
1F
100
AcDbEntity
  8
0-0
  6
Continuous
 62
    92
370
    13
100
AcDbLine
 10
-791.8809571911055
 20
-1329.898334090643
 30
0.0
 11
-791.8809571911055
 21
917.1016659093559
 31
0.0
  0
LINE
  5
6D
330
1F
100
AcDbEntity
  8
0-0
  6
Continuous
 62
    92
370
    13
100
AcDbLine
 10
1632.119042808893
 20
-1329.898334090643
 30
0.0
 11
1632.119042808893
 21
917.1016659093559
 31
0.0
  0
LINE
  5
6E
330
1F
100
AcDbEntity
  8
0-0
  6
JWW_DASHED1
 62
   120
370
     5
100
AcDbLine
 10
795.1190428088938
 20
-1314.898334090643
 30
0.0
 11
795.1190428088938
 21
881.1016659093561
 31
0.0
  0
LINE
  5
6F
330
1F
100
AcDbEntity
  8
0-0
  6
JWW_DASHED1
 62
   120
370
     5
100
AcDbLine
 10
825.1190428088938
 20
-1314.898334090643
 30
0.0
 11
825.1190428088938
 21
881.1016659093561
 31
0.0
  0
LINE
  5
70
330
1F
100
AcDbEntity
  8
0-0
  6
Continuous
 62
    92
370
    13
100
AcDbLine
 10
-761.8809571911055
 20
-1329.898334090643
 30
0.0
 11
-761.8809571911055
 21
917.1016659093559
 31
0.0
  0
LINE
  5
71
330
1F
100
AcDbEntity
  8
0-0
  6
Continuous
 62
    92
370
    13
100
AcDbLine
 10
1602.119042808893
 20
-1329.898334090643
 30
0.0
 11
1602.119042808893
 21
917.1016659093559
 31
0.0
  0
LINE
  5
72
330
1F
100
AcDbEntity
  8
0-0
  6
Continuous
 62
    92
370
    13
100
AcDbLine
 10
-761.8809571911055
 20
881.1016659093561
 30
0.0
 11
1602.119042808893
 21
881.1016659093561
 31
0.0
  0
LINE
  5
73
330
1F
100
AcDbEntity
  8
0-0
  6
Continuous
 62
    92
370
    13
100
AcDbLine
 10
-791.8809571911055
 20
917.1016659093559
 30
0.0
 11
1632.119042808893
 21
917.1016659093559
 31
0.0
  0
LINE
  5
74
330
1F
100
AcDbEntity
  8
0-0
  6
JWW_DASHED1
 62
   120
370
     5
100
AcDbLine
 10
-764.8809571911062
 20
-1309.898334090643
 30
0.0
 11
-764.8809571911062
 21
873.1016659093566
 31
0.0
  0
LINE
  5
75
330
1F
100
AcDbEntity
  8
0-0
  6
JWW_DASHED1
 62
   120
370
     5
100
AcDbLine
 10
-764.8809571911062
 20
873.1016659093566
 30
0.0
 11
-761.8809571911055
 21
873.1016659093566
 31
0.0
  0
LINE
  5
76
330
1F
100
AcDbEntity
  8
0-0
  6
JWW_DASHED1
 62
   120
370
     5
100
AcDbLine
 10
45.11904280889382
 20
-1309.898334090643
 30
0.0
 11
45.11904280889382
 21
873.1016659093566
 31
0.0
  0
LINE
  5
77
330
1F
100
AcDbEntity
  8
0-0
  6
Continuous
 62
    92
370
    13
100
AcDbLine
 10
-761.8809571911055
 20
873.1016659093566
 30
0.0
 11
825.1190428088938
 21
873.1016659093566
 31
0.0
  0
LINE
  5
78
330
1F
100
AcDbEntity
  8
0-0
  6
Continuous
 62
    92
370
    13
100
AcDbLine
 10
15.11904280889382
 20
873.1016659093566
 30
0.0
 11
15.11904280889382
 21
-1309.898334090643
 31
0.0
  0
LINE
  5
79
330
1F
100
AcDbEntity
  8
0-0
  6
Continuous
 62
    92
370
    13
100
AcDbLine
 10
825.1190428088938
 20
-1309.898334090643
 30
0.0
 11
825.1190428088938
 21
873.1016659093566
 31
0.0
  0
LINE
  5
7A
330
1F
100
AcDbEntity
  8
0-0
  6
Continuous
 62
     7
370
     9
100
AcDbLine
 10
-661.3809571911056
 20
753.101665909357
 30
0.0
 11
-646.3809571911056
 21
738.101665909357
 31
0.0
  0
LINE
  5
7B
330
1F
100
AcDbEntity
  8
0-0
  6
Continuous
 62
     7
370
     9
100
AcDbLine
 10
-661.3809571911056
 20
-1309.898334090643
 30
0.0
 11
-661.3809571911056
 21
873.101665909357
 31
0.0
  0
LINE
  5
7C
330
1F
100
AcDbEntity
  8
0-0
  6
Continuous
 62
     7
370
     9
100
AcDbLine
 10
-58.38095719110669
 20
753.101665909357
 30
0.0
 11
-73.38095719110669
 21
738.101665909357
 31
0.0
  0
LINE
  5
7D
330
1F
100
AcDbEntity
  8
0-0
  6
Continuous
 62
     7
370
     9
100
AcDbLine
 10
-58.38095719110669
 20
-1309.898334090643
 30
0.0
 11
-58.38095719110669
 21
873.101665909357
 31
0.0
  0
LINE
  5
7E
330
1F
100
AcDbEntity
  8
0-0
  6
Continuous
 62
     7
370
     9
100
AcDbLine
 10
-661.3809571911056
 20
753.101665909357
 30
0.0
 11
-58.38095719110669
 21
753.101665909357
 31
0.0
  0
LINE
  5
7F
330
1F
100
AcDbEntity
  8
0-0
  6
Continuous
 62
     7
370
     9
100
AcDbLine
 10
-646.3809571911056
 20
-436.8983340906431
 30
0.0
 11
-661.3809571911056
 21
-451.8983340906431
 31
0.0
  0
LINE
  5
80
330
1F
100
AcDbEntity
  8
0-0
  6
Continuous
 62
     7
370
     9
100
AcDbLine
 10
-661.3809571911056
 20
-526.8983340906431
 30
0.0
 11
-646.3809571911056
 21
-541.8983340906431
 31
0.0
  0
LINE
  5
81
330
1F
100
AcDbEntity
  8
0-0
  6
Continuous
 62
     7
370
     9
100
AcDbLine
 10
-73.38095719110669
 20
-436.8983340906431
 30
0.0
 11
-58.38095719110669
 21
-451.8983340906431
 31
0.0
  0
LINE
  5
82
330
1F
100
AcDbEntity
  8
0-0
  6
Continuous
 62
     7
370
     9
100
AcDbLine
 10
-58.38095719110669
 20
-526.8983340906431
 30
0.0
 11
-73.38095719110669
 21
-541.8983340906431
 31
0.0
  0
LINE
  5
83
330
1F
100
AcDbEntity
  8
0-0
  6
Continuous
 62
     7
370
     9
100
AcDbLine
 10
-661.3809571911056
 20
-451.8983340906431
 30
0.0
 11
-58.38095719110669
 21
-451.8983340906431
 31
0.0
  0
LINE
  5
84
330
1F
100
AcDbEntity
  8
0-0
  6
Continuous
 62
     7
370
     9
100
AcDbLine
 10
-661.3809571911056
 20
-526.8983340906431
 30
0.0
 11
-58.38095719110669
 21
-526.8983340906431
 31
0.0
  0
LINE
  5
85
330
1F
100
AcDbEntity
  8
0-0
  6
Continuous
 62
     7
370
     9
100
AcDbLine
 10
-616.3809571911056
 20
-1129.898334090643
 30
0.0
 11
-616.3809571911056
 21
-571.8983340906431
 31
0.0
  0
LINE
  5
86
330
1F
100
AcDbEntity
  8
0-0
  6
Continuous
 62
     7
370
     9
100
AcDbLine
 10
-631.3809571911056
 20
-556.8983340906431
 30
0.0
 11
-616.3809571911056
 21
-571.8983340906431
 31
0.0
  0
LINE
  5
87
330
1F
100
AcDbEntity
  8
0-0
  6
Continuous
 62
     7
370
     9
100
AcDbLine
 10
-88.38095719110669
 20
-556.8983340906431
 30
0.0
 11
-103.3809571911067
 21
-571.8983340906431
 31
0.0
  0
LINE
  5
88
330
1F
100
AcDbEntity
  8
0-0
  6
Continuous
 62
     7
370
     9
100
AcDbLine
 10
-616.3809571911056
 20
-571.8983340906431
 30
0.0
 11
-103.3809571911067
 21
-571.8983340906431
 31
0.0
  0
LINE
  5
89
330
1F
100
AcDbEntity
  8
0-0
  6
Continuous
 62
     7
370
     9
100
AcDbLine
 10
-103.3809571911067
 20
-1129.898334090643
 30
0.0
 11
-103.3809571911067
 21
-571.8983340906431
 31
0.0
  0
LINE
  5
8A
330
1F
100
AcDbEntity
  8
0-0
  6
Continuous
 62
    92
370
    13
100
AcDbLine
 10
-646.3809571911056
 20
738.101665909357
 30
0.0
 11
-73.38095719110669
 21
738.101665909357
 31
0.0
  0
LINE
  5
8B
330
1F
100
AcDbEntity
  8
0-0
  6
Continuous
 62
    92
370
    13
100
AcDbLine
 10
-646.3809571911056
 20
-436.8983340906431
 30
0.0
 11
-73.38095719110669
 21
-436.8983340906431
 31
0.0
  0
LINE
  5
8C
330
1F
100
AcDbEntity
  8
0-0
  6
Continuous
 62
    92
370
    13
100
AcDbLine
 10
-646.3809571911056
 20
-541.8983340906431
 30
0.0
 11
-73.38095719110669
 21
-541.8983340906431
 31
0.0
  0
LINE
  5
8D
330
1F
100
AcDbEntity
  8
0-0
  6
Continuous
 62
    92
370
    13
100
AcDbLine
 10
-646.3809571911056
 20
-436.8983340906431
 30
0.0
 11
-646.3809571911056
 21
738.101665909357
 31
0.0
  0
LINE
  5
8E
330
1F
100
AcDbEntity
  8
0-0
  6
Continuous
 62
    92
370
    13
100
AcDbLine
 10
-646.3809571911056
 20
-1159.898334090643
 30
0.0
 11
-646.3809571911056
 21
-541.8983340906431
 31
0.0
  0
LINE
  5
8F
330
1F
100
AcDbEntity
  8
0-0
  6
Continuous
 62
    92
370
    13
100
AcDbLine
 10
-73.38095719110669
 20
-436.8983340906431
 30
0.0
 11
-73.38095719110669
 21
738.101665909357
 31
0.0
  0
LINE
  5
90
330
1F
100
AcDbEntity
  8
0-0
  6
Continuous
 62
    92
370
    13
100
AcDbLine
 10
-73.38095719110669
 20
-1159.898334090643
 30
0.0
 11
-73.38095719110669
 21
-541.8983340906431
 31
0.0
  0
LINE
  5
91
330
1F
100
AcDbEntity
  8
0-0
  6
Continuous
 62
     7
370
     9
100
AcDbLine
 10
118.6190428088943
 20
753.101665909357
 30
0.0
 11
133.6190428088943
 21
738.101665909357
 31
0.0
  0
LINE
  5
92
330
1F
100
AcDbEntity
  8
0-0
  6
Continuous
 62
     7
370
     9
100
AcDbLine
 10
118.6190428088943
 20
-1309.898334090643
 30
0.0
 11
118.6190428088943
 21
873.101665909357
 31
0.0
  0
LINE
  5
93
330
1F
100
AcDbEntity
  8
0-0
  6
Continuous
 62
     7
370
     9
100
AcDbLine
 10
721.6190428088933
 20
753.101665909357
 30
0.0
 11
706.6190428088933
 21
738.101665909357
 31
0.0
  0
LINE
  5
94
330
1F
100
AcDbEntity
  8
0-0
  6
Continuous
 62
     7
370
     9
100
AcDbLine
 10
721.6190428088933
 20
-1309.898334090643
 30
0.0
 11
721.6190428088933
 21
873.101665909357
 31
0.0
  0
LINE
  5
95
330
1F
100
AcDbEntity
  8
0-0
  6
Continuous
 62
     7
370
     9
100
AcDbLine
 10
118.6190428088943
 20
753.101665909357
 30
0.0
 11
721.6190428088933
 21
753.101665909357
 31
0.0
  0
LINE
  5
96
330
1F
100
AcDbEntity
  8
0-0
  6
Continuous
 62
     7
370
     9
100
AcDbLine
 10
133.6190428088943
 20
-436.8983340906431
 30
0.0
 11
118.6190428088943
 21
-451.8983340906431
 31
0.0
  0
LINE
  5
97
330
1F
100
AcDbEntity
  8
0-0
  6
Continuous
 62
     7
370
     9
100
AcDbLine
 10
118.6190428088943
 20
-526.8983340906431
 30
0.0
 11
133.6190428088943
 21
-541.8983340906431
 31
0.0
  0
LINE
  5
98
330
1F
100
AcDbEntity
  8
0-0
  6
Continuous
 62
     7
370
     9
100
AcDbLine
 10
706.6190428088933
 20
-436.8983340906431
 30
0.0
 11
721.6190428088933
 21
-451.8983340906431
 31
0.0
  0
LINE
  5
99
330
1F
100
AcDbEntity
  8
0-0
  6
Continuous
 62
     7
370
     9
100
AcDbLine
 10
721.6190428088933
 20
-526.8983340906431
 30
0.0
 11
706.6190428088933
 21
-541.8983340906431
 31
0.0
  0
LINE
  5
9A
330
1F
100
AcDbEntity
  8
0-0
  6
Continuous
 62
     7
370
     9
100
AcDbLine
 10
118.6190428088943
 20
-451.8983340906431
 30
0.0
 11
721.6190428088933
 21
-451.8983340906431
 31
0.0
  0
LINE
  5
9B
330
1F
100
AcDbEntity
  8
0-0
  6
Continuous
 62
     7
370
     9
100
AcDbLine
 10
118.6190428088943
 20
-526.8983340906431
 30
0.0
 11
721.6190428088933
 21
-526.8983340906431
 31
0.0
  0
LINE
  5
9C
330
1F
100
AcDbEntity
  8
0-0
  6
Continuous
 62
     7
370
     9
100
AcDbLine
 10
163.6190428088943
 20
-1129.898334090643
 30
0.0
 11
163.6190428088943
 21
-571.8983340906431
 31
0.0
  0
LINE
  5
9D
330
1F
100
AcDbEntity
  8
0-0
  6
Continuous
 62
     7
370
     9
100
AcDbLine
 10
148.6190428088943
 20
-556.8983340906431
 30
0.0
 11
163.6190428088943
 21
-571.8983340906431
 31
0.0
  0
LINE
  5
9E
330
1F
100
AcDbEntity
  8
0-0
  6
Continuous
 62
     7
370
     9
100
AcDbLine
 10
691.6190428088933
 20
-556.8983340906431
 30
0.0
 11
676.6190428088933
 21
-571.8983340906431
 31
0.0
  0
LINE
  5
9F
330
1F
100
AcDbEntity
  8
0-0
  6
Continuous
 62
     7
370
     9
100
AcDbLine
 10
163.6190428088943
 20
-571.8983340906431
 30
0.0
 11
676.6190428088933
 21
-571.8983340906431
 31
0.0
  0
LINE
  5
A0
330
1F
100
AcDbEntity
  8
0-0
  6
Continuous
 62
     7
370
     9
100
AcDbLine
 10
676.6190428088933
 20
-1129.898334090643
 30
0.0
 11
676.6190428088933
 21
-571.8983340906431
 31
0.0
  0
LINE
  5
A1
330
1F
100
AcDbEntity
  8
0-0
  6
Continuous
 62
    92
370
    13
100
AcDbLine
 10
133.6190428088943
 20
738.101665909357
 30
0.0
 11
706.6190428088933
 21
738.101665909357
 31
0.0
  0
LINE
  5
A2
330
1F
100
AcDbEntity
  8
0-0
  6
Continuous
 62
    92
370
    13
100
AcDbLine
 10
133.6190428088943
 20
-436.8983340906431
 30
0.0
 11
706.6190428088933
 21
-436.8983340906431
 31
0.0
  0
LINE
  5
A3
330
1F
100
AcDbEntity
  8
0-0
  6
Continuous
 62
    92
370
    13
100
AcDbLine
 10
133.6190428088943
 20
-541.8983340906431
 30
0.0
 11
706.6190428088933
 21
-541.8983340906431
 31
0.0
  0
LINE
  5
A4
330
1F
100
AcDbEntity
  8
0-0
  6
Continuous
 62
    92
370
    13
100
AcDbLine
 10
133.6190428088943
 20
-436.8983340906431
 30
0.0
 11
133.6190428088943
 21
738.101665909357
 31
0.0
  0
LINE
  5
A5
330
1F
100
AcDbEntity
  8
0-0
  6
Continuous
 62
    92
370
    13
100
AcDbLine
 10
133.6190428088943
 20
-1159.898334090643
 30
0.0
 11
133.6190428088943
 21
-541.8983340906431
 31
0.0
  0
LINE
  5
A6
330
1F
100
AcDbEntity
  8
0-0
  6
Continuous
 62
    92
370
    13
100
AcDbLine
 10
706.6190428088933
 20
-436.8983340906431
 30
0.0
 11
706.6190428088933
 21
738.101665909357
 31
0.0
  0
LINE
  5
A7
330
1F
100
AcDbEntity
  8
0-0
  6
Continuous
 62
    92
370
    13
100
AcDbLine
 10
706.6190428088933
 20
-1159.898334090643
 30
0.0
 11
706.6190428088933
 21
-541.8983340906431
 31
0.0
  0
LINE
  5
A8
330
1F
100
AcDbEntity
  8
0-0
  6
JWW_DASHED1
 62
   120
370
     5
100
AcDbLine
 10
-646.3809571911065
 20
-435.8984824045866
 30
0.0
 11
-73.38095719110584
 21
-435.8984824045866
 31
0.0
  0
LINE
  5
A9
330
1F
100
AcDbEntity
  8
0-0
  6
JWW_DASHED1
 62
   120
370
     5
100
AcDbLine
 10
-646.3809571911065
 20
-422.898482403487
 30
0.0
 11
-73.38095719110584
 21
-422.898482403487
 31
0.0
  0
LINE
  5
AA
330
1F
100
AcDbEntity
  8
0-0
  6
JWW_DASHED1
 62
   120
370
     5
100
AcDbLine
 10
-646.3809571911065
 20
-421.8984824035869
 30
0.0
 11
-73.38095719110584
 21
-421.8984824035869
 31
0.0
  0
LINE
  5
AB
330
1F
100
AcDbEntity
  8
0-0
  6
JWW_DASHED1
 62
   120
370
     5
100
AcDbLine
 10
-646.3809571911065
 20
-408.8984824024873
 30
0.0
 11
-73.38095719110584
 21
-408.8984824024873
 31
0.0
  0
LINE
  5
AC
330
1F
100
AcDbEntity
  8
0-0
  6
JWW_DASHED1
 62
   120
370
     5
100
AcDbLine
 10
-646.3809571911065
 20
-407.8984824025871
 30
0.0
 11
-73.38095719110584
 21
-407.8984824025871
 31
0.0
  0
LINE
  5
AD
330
1F
100
AcDbEntity
  8
0-0
  6
JWW_DASHED1
 62
   120
370
     5
100
AcDbLine
 10
-646.3809571911065
 20
-394.8984824014875
 30
0.0
 11
-73.38095719110584
 21
-394.8984824014875
 31
0.0
  0
LINE
  5
AE
330
1F
100
AcDbEntity
  8
0-0
  6
JWW_DASHED1
 62
   120
370
     5
100
AcDbLine
 10
-646.3809571911065
 20
-393.8984824015873
 30
0.0
 11
-73.38095719110584
 21
-393.8984824015873
 31
0.0
  0
LINE
  5
AF
330
1F
100
AcDbEntity
  8
0-0
  6
JWW_DASHED1
 62
   120
370
     5
100
AcDbLine
 10
-646.3809571911065
 20
-380.8984824004876
 30
0.0
 11
-73.38095719110584
 21
-380.8984824004876
 31
0.0
  0
LINE
  5
B0
330
1F
100
AcDbEntity
  8
0-0
  6
JWW_DASHED1
 62
   120
370
     5
100
AcDbLine
 10
-646.3809571911065
 20
-379.8984824005875
 30
0.0
 11
-73.38095719110584
 21
-379.8984824005875
 31
0.0
  0
LINE
  5
B1
330
1F
100
AcDbEntity
  8
0-0
  6
JWW_DASHED1
 62
   120
370
     5
100
AcDbLine
 10
-646.3809571911065
 20
-366.8984823994879
 30
0.0
 11
-73.38095719110584
 21
-366.8984823994879
 31
0.0
  0
LINE
  5
B2
330
1F
100
AcDbEntity
  8
0-0
  6
JWW_DASHED1
 62
   120
370
     5
100
AcDbLine
 10
-646.3809571911065
 20
-365.8984823995877
 30
0.0
 11
-73.38095719110584
 21
-365.8984823995877
 31
0.0
  0
LINE
  5
B3
330
1F
100
AcDbEntity
  8
0-0
  6
JWW_DASHED1
 62
   120
370
     5
100
AcDbLine
 10
-646.3809571911065
 20
-352.8984823984881
 30
0.0
 11
-73.38095719110584
 21
-352.8984823984881
 31
0.0
  0
LINE
  5
B4
330
1F
100
AcDbEntity
  8
0-0
  6
JWW_DASHED1
 62
   120
370
     5
100
AcDbLine
 10
-646.3809571911065
 20
-351.8984823985879
 30
0.0
 11
-73.38095719110584
 21
-351.8984823985879
 31
0.0
  0
LINE
  5
B5
330
1F
100
AcDbEntity
  8
0-0
  6
JWW_DASHED1
 62
   120
370
     5
100
AcDbLine
 10
-646.3809571911065
 20
-338.8984823974883
 30
0.0
 11
-73.38095719110584
 21
-338.8984823974883
 31
0.0
  0
LINE
  5
B6
330
1F
100
AcDbEntity
  8
0-0
  6
JWW_DASHED1
 62
   120
370
     5
100
AcDbLine
 10
-646.3809571911065
 20
-337.8984823975881
 30
0.0
 11
-73.38095719110584
 21
-337.8984823975881
 31
0.0
  0
LINE
  5
B7
330
1F
100
AcDbEntity
  8
0-0
  6
JWW_DASHED1
 62
   120
370
     5
100
AcDbLine
 10
-646.3809571911065
 20
-324.8984823964885
 30
0.0
 11
-73.38095719110584
 21
-324.8984823964885
 31
0.0
  0
LINE
  5
B8
330
1F
100
AcDbEntity
  8
0-0
  6
JWW_DASHED1
 62
   120
370
     5
100
AcDbLine
 10
-646.3809571911065
 20
-323.8984823965883
 30
0.0
 11
-73.38095719110584
 21
-323.8984823965883
 31
0.0
  0
LINE
  5
B9
330
1F
100
AcDbEntity
  8
0-0
  6
JWW_DASHED1
 62
   120
370
     5
100
AcDbLine
 10
-646.3809571911065
 20
-310.8984823954887
 30
0.0
 11
-73.38095719110584
 21
-310.8984823954887
 31
0.0
  0
LINE
  5
BA
330
1F
100
AcDbEntity
  8
0-0
  6
JWW_DASHED1
 62
   120
370
     5
100
AcDbLine
 10
-646.3809571911065
 20
-309.8984823955885
 30
0.0
 11
-73.38095719110584
 21
-309.8984823955885
 31
0.0
  0
LINE
  5
BB
330
1F
100
AcDbEntity
  8
0-0
  6
JWW_DASHED1
 62
   120
370
     5
100
AcDbLine
 10
-646.3809571911065
 20
-296.898482394489
 30
0.0
 11
-73.38095719110584
 21
-296.898482394489
 31
0.0
  0
LINE
  5
BC
330
1F
100
AcDbEntity
  8
0-0
  6
JWW_DASHED1
 62
   120
370
     5
100
AcDbLine
 10
-646.3809571911065
 20
-295.8984823945888
 30
0.0
 11
-73.38095719110584
 21
-295.8984823945888
 31
0.0
  0
LINE
  5
BD
330
1F
100
AcDbEntity
  8
0-0
  6
JWW_DASHED1
 62
   120
370
     5
100
AcDbLine
 10
-646.3809571911065
 20
-282.8984823934891
 30
0.0
 11
-73.38095719110584
 21
-282.8984823934891
 31
0.0
  0
LINE
  5
BE
330
1F
100
AcDbEntity
  8
0-0
  6
JWW_DASHED1
 62
   120
370
     5
100
AcDbLine
 10
-646.3809571911065
 20
-281.8984823935889
 30
0.0
 11
-73.38095719110584
 21
-281.8984823935889
 31
0.0
  0
LINE
  5
BF
330
1F
100
AcDbEntity
  8
0-0
  6
JWW_DASHED1
 62
   120
370
     5
100
AcDbLine
 10
-646.3809571911065
 20
-268.8984823924893
 30
0.0
 11
-73.38095719110584
 21
-268.8984823924893
 31
0.0
  0
LINE
  5
C0
330
1F
100
AcDbEntity
  8
0-0
  6
JWW_DASHED1
 62
   120
370
     5
100
AcDbLine
 10
-646.3809571911065
 20
-267.8984823925891
 30
0.0
 11
-73.38095719110584
 21
-267.8984823925891
 31
0.0
  0
LINE
  5
C1
330
1F
100
AcDbEntity
  8
0-0
  6
JWW_DASHED1
 62
   120
370
     5
100
AcDbLine
 10
-646.3809571911065
 20
-254.8984823914896
 30
0.0
 11
-73.38095719110584
 21
-254.8984823914896
 31
0.0
  0
LINE
  5
C2
330
1F
100
AcDbEntity
  8
0-0
  6
JWW_DASHED1
 62
   120
370
     5
100
AcDbLine
 10
-646.3809571911065
 20
-253.8984823915894
 30
0.0
 11
-73.38095719110584
 21
-253.8984823915894
 31
0.0
  0
LINE
  5
C3
330
1F
100
AcDbEntity
  8
0-0
  6
JWW_DASHED1
 62
   120
370
     5
100
AcDbLine
 10
-646.3809571911065
 20
-240.8984823904898
 30
0.0
 11
-73.38095719110584
 21
-240.8984823904898
 31
0.0
  0
LINE
  5
C4
330
1F
100
AcDbEntity
  8
0-0
  6
JWW_DASHED1
 62
   120
370
     5
100
AcDbLine
 10
-646.3809571911065
 20
-239.8984823905896
 30
0.0
 11
-73.38095719110584
 21
-239.8984823905896
 31
0.0
  0
LINE
  5
C5
330
1F
100
AcDbEntity
  8
0-0
  6
JWW_DASHED1
 62
   120
370
     5
100
AcDbLine
 10
-646.3809571911065
 20
-226.89848238949
 30
0.0
 11
-73.38095719110584
 21
-226.89848238949
 31
0.0
  0
LINE
  5
C6
330
1F
100
AcDbEntity
  8
0-0
  6
JWW_DASHED1
 62
   120
370
     5
100
AcDbLine
 10
-646.3809571911065
 20
-225.8984823895898
 30
0.0
 11
-73.38095719110584
 21
-225.8984823895898
 31
0.0
  0
LINE
  5
C7
330
1F
100
AcDbEntity
  8
0-0
  6
JWW_DASHED1
 62
   120
370
     5
100
AcDbLine
 10
-646.3809571911065
 20
-212.8984823884902
 30
0.0
 11
-73.38095719110584
 21
-212.8984823884902
 31
0.0
  0
LINE
  5
C8
330
1F
100
AcDbEntity
  8
0-0
  6
JWW_DASHED1
 62
   120
370
     5
100
AcDbLine
 10
-646.3809571911065
 20
-211.89848238859
 30
0.0
 11
-73.38095719110584
 21
-211.89848238859
 31
0.0
  0
LINE
  5
C9
330
1F
100
AcDbEntity
  8
0-0
  6
JWW_DASHED1
 62
   120
370
     5
100
AcDbLine
 10
-646.3809571911065
 20
-198.8984823874904
 30
0.0
 11
-73.38095719110584
 21
-198.8984823874904
 31
0.0
  0
LINE
  5
CA
330
1F
100
AcDbEntity
  8
0-0
  6
JWW_DASHED1
 62
   120
370
     5
100
AcDbLine
 10
-646.3809571911065
 20
-197.8984823875902
 30
0.0
 11
-73.38095719110584
 21
-197.8984823875902
 31
0.0
  0
LINE
  5
CB
330
1F
100
AcDbEntity
  8
0-0
  6
JWW_DASHED1
 62
   120
370
     5
100
AcDbLine
 10
-646.3809571911065
 20
-184.8984823864906
 30
0.0
 11
-73.38095719110584
 21
-184.8984823864906
 31
0.0
  0
LINE
  5
CC
330
1F
100
AcDbEntity
  8
0-0
  6
JWW_DASHED1
 62
   120
370
     5
100
AcDbLine
 10
-646.3809571911065
 20
-183.8984823865904
 30
0.0
 11
-73.38095719110584
 21
-183.8984823865904
 31
0.0
  0
LINE
  5
CD
330
1F
100
AcDbEntity
  8
0-0
  6
JWW_DASHED1
 62
   120
370
     5
100
AcDbLine
 10
-646.3809571911065
 20
-170.8984823854908
 30
0.0
 11
-73.38095719110584
 21
-170.8984823854908
 31
0.0
  0
LINE
  5
CE
330
1F
100
AcDbEntity
  8
0-0
  6
JWW_DASHED1
 62
   120
370
     5
100
AcDbLine
 10
-646.3809571911065
 20
-169.8984823855906
 30
0.0
 11
-73.38095719110584
 21
-169.8984823855906
 31
0.0
  0
LINE
  5
CF
330
1F
100
AcDbEntity
  8
0-0
  6
JWW_DASHED1
 62
   120
370
     5
100
AcDbLine
 10
-646.3809571911065
 20
-156.898482384491
 30
0.0
 11
-73.38095719110584
 21
-156.898482384491
 31
0.0
  0
LINE
  5
D0
330
1F
100
AcDbEntity
  8
0-0
  6
JWW_DASHED1
 62
   120
370
     5
100
AcDbLine
 10
-646.3809571911065
 20
-155.8984823845908
 30
0.0
 11
-73.38095719110584
 21
-155.8984823845908
 31
0.0
  0
LINE
  5
D1
330
1F
100
AcDbEntity
  8
0-0
  6
JWW_DASHED1
 62
   120
370
     5
100
AcDbLine
 10
-646.3809571911065
 20
-142.8984823834912
 30
0.0
 11
-73.38095719110584
 21
-142.8984823834912
 31
0.0
  0
LINE
  5
D2
330
1F
100
AcDbEntity
  8
0-0
  6
JWW_DASHED1
 62
   120
370
     5
100
AcDbLine
 10
-646.3809571911065
 20
-141.898482383591
 30
0.0
 11
-73.38095719110584
 21
-141.898482383591
 31
0.0
  0
LINE
  5
D3
330
1F
100
AcDbEntity
  8
0-0
  6
JWW_DASHED1
 62
   120
370
     5
100
AcDbLine
 10
-646.3809571911065
 20
-128.8984823824914
 30
0.0
 11
-73.38095719110584
 21
-128.8984823824914
 31
0.0
  0
LINE
  5
D4
330
1F
100
AcDbEntity
  8
0-0
  6
JWW_DASHED1
 62
   120
370
     5
100
AcDbLine
 10
-646.3809571911065
 20
-127.8984823825913
 30
0.0
 11
-73.38095719110584
 21
-127.8984823825913
 31
0.0
  0
LINE
  5
D5
330
1F
100
AcDbEntity
  8
0-0
  6
JWW_DASHED1
 62
   120
370
     5
100
AcDbLine
 10
-646.3809571911065
 20
-114.8984823814916
 30
0.0
 11
-73.38095719110584
 21
-114.8984823814916
 31
0.0
  0
LINE
  5
D6
330
1F
100
AcDbEntity
  8
0-0
  6
JWW_DASHED1
 62
   120
370
     5
100
AcDbLine
 10
-646.3809571911065
 20
-113.8984823815915
 30
0.0
 11
-73.38095719110584
 21
-113.8984823815915
 31
0.0
  0
LINE
  5
D7
330
1F
100
AcDbEntity
  8
0-0
  6
JWW_DASHED1
 62
   120
370
     5
100
AcDbLine
 10
-646.3809571911065
 20
-100.8984823804919
 30
0.0
 11
-73.38095719110584
 21
-100.8984823804919
 31
0.0
  0
LINE
  5
D8
330
1F
100
AcDbEntity
  8
0-0
  6
JWW_DASHED1
 62
   120
370
     5
100
AcDbLine
 10
-646.3809571911065
 20
-99.89848238059167
 30
0.0
 11
-73.38095719110584
 21
-99.89848238059167
 31
0.0
  0
LINE
  5
D9
330
1F
100
AcDbEntity
  8
0-0
  6
JWW_DASHED1
 62
   120
370
     5
100
AcDbLine
 10
-646.3809571911065
 20
-86.89848237949207
 30
0.0
 11
-73.38095719110584
 21
-86.89848237949207
 31
0.0
  0
LINE
  5
DA
330
1F
100
AcDbEntity
  8
0-0
  6
JWW_DASHED1
 62
   120
370
     5
100
AcDbLine
 10
-646.3809571911065
 20
-85.89848237959188
 30
0.0
 11
-73.38095719110584
 21
-85.89848237959188
 31
0.0
  0
LINE
  5
DB
330
1F
100
AcDbEntity
  8
0-0
  6
JWW_DASHED1
 62
   120
370
     5
100
AcDbLine
 10
-646.3809571911065
 20
-72.89848237849228
 30
0.0
 11
-73.38095719110584
 21
-72.89848237849228
 31
0.0
  0
LINE
  5
DC
330
1F
100
AcDbEntity
  8
0-0
  6
JWW_DASHED1
 62
   120
370
     5
100
AcDbLine
 10
-646.3809571911065
 20
-71.89848237859209
 30
0.0
 11
-73.38095719110584
 21
-71.89848237859209
 31
0.0
  0
LINE
  5
DD
330
1F
100
AcDbEntity
  8
0-0
  6
JWW_DASHED1
 62
   120
370
     5
100
AcDbLine
 10
-646.3809571911065
 20
-58.89848237749248
 30
0.0
 11
-73.38095719110584
 21
-58.89848237749248
 31
0.0
  0
LINE
  5
DE
330
1F
100
AcDbEntity
  8
0-0
  6
JWW_DASHED1
 62
   120
370
     5
100
AcDbLine
 10
-646.3809571911065
 20
-57.8984823775923
 30
0.0
 11
-73.38095719110584
 21
-57.8984823775923
 31
0.0
  0
LINE
  5
DF
330
1F
100
AcDbEntity
  8
0-0
  6
JWW_DASHED1
 62
   120
370
     5
100
AcDbLine
 10
-646.3809571911065
 20
-44.89848237649269
 30
0.0
 11
-73.38095719110584
 21
-44.89848237649269
 31
0.0
  0
LINE
  5
E0
330
1F
100
AcDbEntity
  8
0-0
  6
JWW_DASHED1
 62
   120
370
     5
100
AcDbLine
 10
-646.3809571911065
 20
-43.89848237659251
 30
0.0
 11
-73.38095719110584
 21
-43.89848237659251
 31
0.0
  0
LINE
  5
E1
330
1F
100
AcDbEntity
  8
0-0
  6
JWW_DASHED1
 62
   120
370
     5
100
AcDbLine
 10
-646.3809571911065
 20
-30.8984823754929
 30
0.0
 11
-73.38095719110584
 21
-30.8984823754929
 31
0.0
  0
LINE
  5
E2
330
1F
100
AcDbEntity
  8
0-0
  6
JWW_DASHED1
 62
   120
370
     5
100
AcDbLine
 10
-646.3809571911065
 20
-29.89848237559272
 30
0.0
 11
-73.38095719110584
 21
-29.89848237559272
 31
0.0
  0
LINE
  5
E3
330
1F
100
AcDbEntity
  8
0-0
  6
JWW_DASHED1
 62
   120
370
     5
100
AcDbLine
 10
-646.3809571911065
 20
-16.89848237449311
 30
0.0
 11
-73.38095719110584
 21
-16.89848237449311
 31
0.0
  0
LINE
  5
E4
330
1F
100
AcDbEntity
  8
0-0
  6
JWW_DASHED1
 62
   120
370
     5
100
AcDbLine
 10
-646.3809571911065
 20
-15.89848237459293
 30
0.0
 11
-73.38095719110584
 21
-15.89848237459293
 31
0.0
  0
LINE
  5
E5
330
1F
100
AcDbEntity
  8
0-0
  6
JWW_DASHED1
 62
   120
370
     5
100
AcDbLine
 10
-646.3809571911065
 20
-2.898482373493323
 30
0.0
 11
-73.38095719110584
 21
-2.898482373493323
 31
0.0
  0
LINE
  5
E6
330
1F
100
AcDbEntity
  8
0-0
  6
JWW_DASHED1
 62
   120
370
     5
100
AcDbLine
 10
-646.3809571911065
 20
-1.89848237359314
 30
0.0
 11
-73.38095719110584
 21
-1.89848237359314
 31
0.0
  0
LINE
  5
E7
330
1F
100
AcDbEntity
  8
0-0
  6
JWW_DASHED1
 62
   120
370
     5
100
AcDbLine
 10
-646.3809571911065
 20
11.10151762750647
 30
0.0
 11
-73.38095719110584
 21
11.10151762750647
 31
0.0
  0
LINE
  5
E8
330
1F
100
AcDbEntity
  8
0-0
  6
JWW_DASHED1
 62
   120
370
     5
100
AcDbLine
 10
-646.3809571911065
 20
12.10151762740665
 30
0.0
 11
-73.38095719110584
 21
12.10151762740665
 31
0.0
  0
LINE
  5
E9
330
1F
100
AcDbEntity
  8
0-0
  6
JWW_DASHED1
 62
   120
370
     5
100
AcDbLine
 10
-646.3809571911065
 20
25.10151762850626
 30
0.0
 11
-73.38095719110584
 21
25.10151762850626
 31
0.0
  0
LINE
  5
EA
330
1F
100
AcDbEntity
  8
0-0
  6
JWW_DASHED1
 62
   120
370
     5
100
AcDbLine
 10
-646.3809571911065
 20
26.10151762840644
 30
0.0
 11
-73.38095719110584
 21
26.10151762840644
 31
0.0
  0
LINE
  5
EB
330
1F
100
AcDbEntity
  8
0-0
  6
JWW_DASHED1
 62
   120
370
     5
100
AcDbLine
 10
-646.3809571911065
 20
39.10151762950605
 30
0.0
 11
-73.38095719110584
 21
39.10151762950605
 31
0.0
  0
LINE
  5
EC
330
1F
100
AcDbEntity
  8
0-0
  6
JWW_DASHED1
 62
   120
370
     5
100
AcDbLine
 10
-646.3809571911065
 20
40.10151762940623
 30
0.0
 11
-73.38095719110584
 21
40.10151762940623
 31
0.0
  0
LINE
  5
ED
330
1F
100
AcDbEntity
  8
0-0
  6
JWW_DASHED1
 62
   120
370
     5
100
AcDbLine
 10
-646.3809571911065
 20
53.10151763050584
 30
0.0
 11
-73.38095719110584
 21
53.10151763050584
 31
0.0
  0
LINE
  5
EE
330
1F
100
AcDbEntity
  8
0-0
  6
JWW_DASHED1
 62
   120
370
     5
100
AcDbLine
 10
-646.3809571911065
 20
54.10151763040602
 30
0.0
 11
-73.38095719110584
 21
54.10151763040602
 31
0.0
  0
LINE
  5
EF
330
1F
100
AcDbEntity
  8
0-0
  6
JWW_DASHED1
 62
   120
370
     5
100
AcDbLine
 10
-646.3809571911065
 20
67.10151763150563
 30
0.0
 11
-73.38095719110584
 21
67.10151763150563
 31
0.0
  0
LINE
  5
F0
330
1F
100
AcDbEntity
  8
0-0
  6
JWW_DASHED1
 62
   120
370
     5
100
AcDbLine
 10
-646.3809571911065
 20
68.10151763140581
 30
0.0
 11
-73.38095719110584
 21
68.10151763140581
 31
0.0
  0
LINE
  5
F1
330
1F
100
AcDbEntity
  8
0-0
  6
JWW_DASHED1
 62
   120
370
     5
100
AcDbLine
 10
-646.3809571911065
 20
81.10151763250542
 30
0.0
 11
-73.38095719110584
 21
81.10151763250542
 31
0.0
  0
LINE
  5
F2
330
1F
100
AcDbEntity
  8
0-0
  6
JWW_DASHED1
 62
   120
370
     5
100
AcDbLine
 10
-646.3809571911065
 20
82.1015176324056
 30
0.0
 11
-73.38095719110584
 21
82.1015176324056
 31
0.0
  0
LINE
  5
F3
330
1F
100
AcDbEntity
  8
0-0
  6
JWW_DASHED1
 62
   120
370
     5
100
AcDbLine
 10
-646.3809571911065
 20
95.10151763350521
 30
0.0
 11
-73.38095719110584
 21
95.10151763350521
 31
0.0
  0
LINE
  5
F4
330
1F
100
AcDbEntity
  8
0-0
  6
JWW_DASHED1
 62
   120
370
     5
100
AcDbLine
 10
-646.3809571911065
 20
96.1015176334054
 30
0.0
 11
-73.38095719110584
 21
96.1015176334054
 31
0.0
  0
LINE
  5
F5
330
1F
100
AcDbEntity
  8
0-0
  6
JWW_DASHED1
 62
   120
370
     5
100
AcDbLine
 10
-646.3809571911065
 20
109.101517634505
 30
0.0
 11
-73.38095719110584
 21
109.101517634505
 31
0.0
  0
LINE
  5
F6
330
1F
100
AcDbEntity
  8
0-0
  6
JWW_DASHED1
 62
   120
370
     5
100
AcDbLine
 10
-646.3809571911065
 20
110.1015176344052
 30
0.0
 11
-73.38095719110584
 21
110.1015176344052
 31
0.0
  0
LINE
  5
F7
330
1F
100
AcDbEntity
  8
0-0
  6
JWW_DASHED1
 62
   120
370
     5
100
AcDbLine
 10
-646.3809571911065
 20
123.1015176355048
 30
0.0
 11
-73.38095719110584
 21
123.1015176355048
 31
0.0
  0
LINE
  5
F8
330
1F
100
AcDbEntity
  8
0-0
  6
JWW_DASHED1
 62
   120
370
     5
100
AcDbLine
 10
-646.3809571911065
 20
124.101517635405
 30
0.0
 11
-73.38095719110584
 21
124.101517635405
 31
0.0
  0
LINE
  5
F9
330
1F
100
AcDbEntity
  8
0-0
  6
JWW_DASHED1
 62
   120
370
     5
100
AcDbLine
 10
-646.3809571911065
 20
137.1015176365046
 30
0.0
 11
-73.38095719110584
 21
137.1015176365046
 31
0.0
  0
LINE
  5
FA
330
1F
100
AcDbEntity
  8
0-0
  6
JWW_DASHED1
 62
   120
370
     5
100
AcDbLine
 10
-646.3809571911065
 20
138.1015176364048
 30
0.0
 11
-73.38095719110584
 21
138.1015176364048
 31
0.0
  0
LINE
  5
FB
330
1F
100
AcDbEntity
  8
0-0
  6
JWW_DASHED1
 62
   120
370
     5
100
AcDbLine
 10
-646.3809571911065
 20
151.1015176375044
 30
0.0
 11
-73.38095719110584
 21
151.1015176375044
 31
0.0
  0
LINE
  5
FC
330
1F
100
AcDbEntity
  8
0-0
  6
JWW_DASHED1
 62
   120
370
     5
100
AcDbLine
 10
-646.3809571911065
 20
152.1015176374046
 30
0.0
 11
-73.38095719110584
 21
152.1015176374046
 31
0.0
  0
LINE
  5
FD
330
1F
100
AcDbEntity
  8
0-0
  6
JWW_DASHED1
 62
   120
370
     5
100
AcDbLine
 10
-646.3809571911065
 20
165.1015176385042
 30
0.0
 11
-73.38095719110584
 21
165.1015176385042
 31
0.0
  0
LINE
  5
FE
330
1F
100
AcDbEntity
  8
0-0
  6
JWW_DASHED1
 62
   120
370
     5
100
AcDbLine
 10
-646.3809571911065
 20
166.1015176384043
 30
0.0
 11
-73.38095719110584
 21
166.1015176384043
 31
0.0
  0
LINE
  5
FF
330
1F
100
AcDbEntity
  8
0-0
  6
JWW_DASHED1
 62
   120
370
     5
100
AcDbLine
 10
-646.3809571911065
 20
179.101517639504
 30
0.0
 11
-73.38095719110584
 21
179.101517639504
 31
0.0
  0
LINE
  5
100
330
1F
100
AcDbEntity
  8
0-0
  6
JWW_DASHED1
 62
   120
370
     5
100
AcDbLine
 10
-646.3809571911065
 20
180.1015176394041
 30
0.0
 11
-73.38095719110584
 21
180.1015176394041
 31
0.0
  0
LINE
  5
101
330
1F
100
AcDbEntity
  8
0-0
  6
JWW_DASHED1
 62
   120
370
     5
100
AcDbLine
 10
-646.3809571911065
 20
193.1015176405037
 30
0.0
 11
-73.38095719110584
 21
193.1015176405037
 31
0.0
  0
LINE
  5
102
330
1F
100
AcDbEntity
  8
0-0
  6
JWW_DASHED1
 62
   120
370
     5
100
AcDbLine
 10
-646.3809571911065
 20
194.1015176404039
 30
0.0
 11
-73.38095719110584
 21
194.1015176404039
 31
0.0
  0
LINE
  5
103
330
1F
100
AcDbEntity
  8
0-0
  6
JWW_DASHED1
 62
   120
370
     5
100
AcDbLine
 10
-646.3809571911065
 20
207.1015176415035
 30
0.0
 11
-73.38095719110584
 21
207.1015176415035
 31
0.0
  0
LINE
  5
104
330
1F
100
AcDbEntity
  8
0-0
  6
JWW_DASHED1
 62
   120
370
     5
100
AcDbLine
 10
-646.3809571911065
 20
208.1015176414037
 30
0.0
 11
-73.38095719110584
 21
208.1015176414037
 31
0.0
  0
LINE
  5
105
330
1F
100
AcDbEntity
  8
0-0
  6
JWW_DASHED1
 62
   120
370
     5
100
AcDbLine
 10
-646.3809571911065
 20
221.1015176425033
 30
0.0
 11
-73.38095719110584
 21
221.1015176425033
 31
0.0
  0
LINE
  5
106
330
1F
100
AcDbEntity
  8
0-0
  6
JWW_DASHED1
 62
   120
370
     5
100
AcDbLine
 10
-646.3809571911065
 20
222.1015176424035
 30
0.0
 11
-73.38095719110584
 21
222.1015176424035
 31
0.0
  0
LINE
  5
107
330
1F
100
AcDbEntity
  8
0-0
  6
JWW_DASHED1
 62
   120
370
     5
100
AcDbLine
 10
-646.3809571911065
 20
235.1015176435031
 30
0.0
 11
-73.38095719110584
 21
235.1015176435031
 31
0.0
  0
LINE
  5
108
330
1F
100
AcDbEntity
  8
0-0
  6
JWW_DASHED1
 62
   120
370
     5
100
AcDbLine
 10
-646.3809571911065
 20
236.1015176434033
 30
0.0
 11
-73.38095719110584
 21
236.1015176434033
 31
0.0
  0
LINE
  5
109
330
1F
100
AcDbEntity
  8
0-0
  6
JWW_DASHED1
 62
   120
370
     5
100
AcDbLine
 10
-646.3809571911065
 20
249.1015176445029
 30
0.0
 11
-73.38095719110584
 21
249.1015176445029
 31
0.0
  0
LINE
  5
10A
330
1F
100
AcDbEntity
  8
0-0
  6
JWW_DASHED1
 62
   120
370
     5
100
AcDbLine
 10
-646.3809571911065
 20
250.1015176444031
 30
0.0
 11
-73.38095719110584
 21
250.1015176444031
 31
0.0
  0
LINE
  5
10B
330
1F
100
AcDbEntity
  8
0-0
  6
JWW_DASHED1
 62
   120
370
     5
100
AcDbLine
 10
-646.3809571911065
 20
263.1015176455027
 30
0.0
 11
-73.38095719110584
 21
263.1015176455027
 31
0.0
  0
LINE
  5
10C
330
1F
100
AcDbEntity
  8
0-0
  6
JWW_DASHED1
 62
   120
370
     5
100
AcDbLine
 10
-646.3809571911065
 20
264.1015176454029
 30
0.0
 11
-73.38095719110584
 21
264.1015176454029
 31
0.0
  0
LINE
  5
10D
330
1F
100
AcDbEntity
  8
0-0
  6
JWW_DASHED1
 62
   120
370
     5
100
AcDbLine
 10
-646.3809571911065
 20
277.1015176465025
 30
0.0
 11
-73.38095719110584
 21
277.1015176465025
 31
0.0
  0
LINE
  5
10E
330
1F
100
AcDbEntity
  8
0-0
  6
JWW_DASHED1
 62
   120
370
     5
100
AcDbLine
 10
-646.3809571911065
 20
278.1015176464027
 30
0.0
 11
-73.38095719110584
 21
278.1015176464027
 31
0.0
  0
LINE
  5
10F
330
1F
100
AcDbEntity
  8
0-0
  6
JWW_DASHED1
 62
   120
370
     5
100
AcDbLine
 10
-646.3809571911065
 20
291.1015176475023
 30
0.0
 11
-73.38095719110584
 21
291.1015176475023
 31
0.0
  0
LINE
  5
110
330
1F
100
AcDbEntity
  8
0-0
  6
JWW_DASHED1
 62
   120
370
     5
100
AcDbLine
 10
-646.3809571911065
 20
292.1015176474025
 30
0.0
 11
-73.38095719110584
 21
292.1015176474025
 31
0.0
  0
LINE
  5
111
330
1F
100
AcDbEntity
  8
0-0
  6
JWW_DASHED1
 62
   120
370
     5
100
AcDbLine
 10
-646.3809571911065
 20
305.1015176485021
 30
0.0
 11
-73.38095719110584
 21
305.1015176485021
 31
0.0
  0
LINE
  5
112
330
1F
100
AcDbEntity
  8
0-0
  6
JWW_DASHED1
 62
   120
370
     5
100
AcDbLine
 10
-646.3809571911065
 20
306.1015176484023
 30
0.0
 11
-73.38095719110584
 21
306.1015176484023
 31
0.0
  0
LINE
  5
113
330
1F
100
AcDbEntity
  8
0-0
  6
JWW_DASHED1
 62
   120
370
     5
100
AcDbLine
 10
-646.3809571911065
 20
319.1015176495018
 30
0.0
 11
-73.38095719110584
 21
319.1015176495018
 31
0.0
  0
LINE
  5
114
330
1F
100
AcDbEntity
  8
0-0
  6
JWW_DASHED1
 62
   120
370
     5
100
AcDbLine
 10
-646.3809571911065
 20
320.101517649402
 30
0.0
 11
-73.38095719110584
 21
320.101517649402
 31
0.0
  0
LINE
  5
115
330
1F
100
AcDbEntity
  8
0-0
  6
JWW_DASHED1
 62
   120
370
     5
100
AcDbLine
 10
-646.3809571911065
 20
333.1015176505016
 30
0.0
 11
-73.38095719110584
 21
333.1015176505016
 31
0.0
  0
LINE
  5
116
330
1F
100
AcDbEntity
  8
0-0
  6
JWW_DASHED1
 62
   120
370
     5
100
AcDbLine
 10
-646.3809571911065
 20
334.1015176504018
 30
0.0
 11
-73.38095719110584
 21
334.1015176504018
 31
0.0
  0
LINE
  5
117
330
1F
100
AcDbEntity
  8
0-0
  6
JWW_DASHED1
 62
   120
370
     5
100
AcDbLine
 10
-646.3809571911065
 20
347.1015176515015
 30
0.0
 11
-73.38095719110584
 21
347.1015176515015
 31
0.0
  0
LINE
  5
118
330
1F
100
AcDbEntity
  8
0-0
  6
JWW_DASHED1
 62
   120
370
     5
100
AcDbLine
 10
-646.3809571911065
 20
348.1015176514017
 30
0.0
 11
-73.38095719110584
 21
348.1015176514017
 31
0.0
  0
LINE
  5
119
330
1F
100
AcDbEntity
  8
0-0
  6
JWW_DASHED1
 62
   120
370
     5
100
AcDbLine
 10
-646.3809571911065
 20
361.1015176525012
 30
0.0
 11
-73.38095719110584
 21
361.1015176525012
 31
0.0
  0
LINE
  5
11A
330
1F
100
AcDbEntity
  8
0-0
  6
JWW_DASHED1
 62
   120
370
     5
100
AcDbLine
 10
-646.3809571911065
 20
362.1015176524014
 30
0.0
 11
-73.38095719110584
 21
362.1015176524014
 31
0.0
  0
LINE
  5
11B
330
1F
100
AcDbEntity
  8
0-0
  6
JWW_DASHED1
 62
   120
370
     5
100
AcDbLine
 10
-646.3809571911065
 20
375.101517653501
 30
0.0
 11
-73.38095719110584
 21
375.101517653501
 31
0.0
  0
LINE
  5
11C
330
1F
100
AcDbEntity
  8
0-0
  6
JWW_DASHED1
 62
   120
370
     5
100
AcDbLine
 10
-646.3809571911065
 20
376.1015176534012
 30
0.0
 11
-73.38095719110584
 21
376.1015176534012
 31
0.0
  0
LINE
  5
11D
330
1F
100
AcDbEntity
  8
0-0
  6
JWW_DASHED1
 62
   120
370
     5
100
AcDbLine
 10
-646.3809571911065
 20
389.1015176545008
 30
0.0
 11
-73.38095719110584
 21
389.1015176545008
 31
0.0
  0
LINE
  5
11E
330
1F
100
AcDbEntity
  8
0-0
  6
JWW_DASHED1
 62
   120
370
     5
100
AcDbLine
 10
-646.3809571911065
 20
390.101517654401
 30
0.0
 11
-73.38095719110584
 21
390.101517654401
 31
0.0
  0
LINE
  5
11F
330
1F
100
AcDbEntity
  8
0-0
  6
JWW_DASHED1
 62
   120
370
     5
100
AcDbLine
 10
-646.3809571911065
 20
403.1015176555006
 30
0.0
 11
-73.38095719110584
 21
403.1015176555006
 31
0.0
  0
LINE
  5
120
330
1F
100
AcDbEntity
  8
0-0
  6
JWW_DASHED1
 62
   120
370
     5
100
AcDbLine
 10
-646.3809571911065
 20
404.1015176554008
 30
0.0
 11
-73.38095719110584
 21
404.1015176554008
 31
0.0
  0
LINE
  5
121
330
1F
100
AcDbEntity
  8
0-0
  6
JWW_DASHED1
 62
   120
370
     5
100
AcDbLine
 10
-646.3809571911065
 20
417.1015176565004
 30
0.0
 11
-73.38095719110584
 21
417.1015176565004
 31
0.0
  0
LINE
  5
122
330
1F
100
AcDbEntity
  8
0-0
  6
JWW_DASHED1
 62
   120
370
     5
100
AcDbLine
 10
-646.3809571911065
 20
418.1015176564006
 30
0.0
 11
-73.38095719110584
 21
418.1015176564006
 31
0.0
  0
LINE
  5
123
330
1F
100
AcDbEntity
  8
0-0
  6
JWW_DASHED1
 62
   120
370
     5
100
AcDbLine
 10
-646.3809571911065
 20
431.1015176575002
 30
0.0
 11
-73.38095719110584
 21
431.1015176575002
 31
0.0
  0
LINE
  5
124
330
1F
100
AcDbEntity
  8
0-0
  6
JWW_DASHED1
 62
   120
370
     5
100
AcDbLine
 10
-646.3809571911065
 20
432.1015176574003
 30
0.0
 11
-73.38095719110584
 21
432.1015176574003
 31
0.0
  0
LINE
  5
125
330
1F
100
AcDbEntity
  8
0-0
  6
JWW_DASHED1
 62
   120
370
     5
100
AcDbLine
 10
-646.3809571911065
 20
445.1015176585
 30
0.0
 11
-73.38095719110584
 21
445.1015176585
 31
0.0
  0
LINE
  5
126
330
1F
100
AcDbEntity
  8
0-0
  6
JWW_DASHED1
 62
   120
370
     5
100
AcDbLine
 10
-646.3809571911065
 20
446.1015176584002
 30
0.0
 11
-73.38095719110584
 21
446.1015176584002
 31
0.0
  0
LINE
  5
127
330
1F
100
AcDbEntity
  8
0-0
  6
JWW_DASHED1
 62
   120
370
     5
100
AcDbLine
 10
-646.3809571911065
 20
459.1015176594998
 30
0.0
 11
-73.38095719110584
 21
459.1015176594998
 31
0.0
  0
LINE
  5
128
330
1F
100
AcDbEntity
  8
0-0
  6
JWW_DASHED1
 62
   120
370
     5
100
AcDbLine
 10
-646.3809571911065
 20
460.1015176594
 30
0.0
 11
-73.38095719110584
 21
460.1015176594
 31
0.0
  0
LINE
  5
129
330
1F
100
AcDbEntity
  8
0-0
  6
JWW_DASHED1
 62
   120
370
     5
100
AcDbLine
 10
-646.3809571911065
 20
473.1015176604996
 30
0.0
 11
-73.38095719110584
 21
473.1015176604996
 31
0.0
  0
LINE
  5
12A
330
1F
100
AcDbEntity
  8
0-0
  6
JWW_DASHED1
 62
   120
370
     5
100
AcDbLine
 10
-646.3809571911065
 20
474.1015176603997
 30
0.0
 11
-73.38095719110584
 21
474.1015176603997
 31
0.0
  0
LINE
  5
12B
330
1F
100
AcDbEntity
  8
0-0
  6
JWW_DASHED1
 62
   120
370
     5
100
AcDbLine
 10
-646.3809571911065
 20
487.1015176614993
 30
0.0
 11
-73.38095719110584
 21
487.1015176614993
 31
0.0
  0
LINE
  5
12C
330
1F
100
AcDbEntity
  8
0-0
  6
JWW_DASHED1
 62
   120
370
     5
100
AcDbLine
 10
-646.3809571911065
 20
488.1015176613995
 30
0.0
 11
-73.38095719110584
 21
488.1015176613995
 31
0.0
  0
LINE
  5
12D
330
1F
100
AcDbEntity
  8
0-0
  6
JWW_DASHED1
 62
   120
370
     5
100
AcDbLine
 10
-646.3809571911065
 20
501.1015176624991
 30
0.0
 11
-73.38095719110584
 21
501.1015176624991
 31
0.0
  0
LINE
  5
12E
330
1F
100
AcDbEntity
  8
0-0
  6
JWW_DASHED1
 62
   120
370
     5
100
AcDbLine
 10
-646.3809571911065
 20
502.1015176623993
 30
0.0
 11
-73.38095719110584
 21
502.1015176623993
 31
0.0
  0
LINE
  5
12F
330
1F
100
AcDbEntity
  8
0-0
  6
JWW_DASHED1
 62
   120
370
     5
100
AcDbLine
 10
-646.3809571911065
 20
515.101517663499
 30
0.0
 11
-73.38095719110584
 21
515.101517663499
 31
0.0
  0
LINE
  5
130
330
1F
100
AcDbEntity
  8
0-0
  6
JWW_DASHED1
 62
   120
370
     5
100
AcDbLine
 10
-646.3809571911065
 20
516.1015176633991
 30
0.0
 11
-73.38095719110584
 21
516.1015176633991
 31
0.0
  0
LINE
  5
131
330
1F
100
AcDbEntity
  8
0-0
  6
JWW_DASHED1
 62
   120
370
     5
100
AcDbLine
 10
-646.3809571911065
 20
529.1015176644987
 30
0.0
 11
-73.38095719110584
 21
529.1015176644987
 31
0.0
  0
LINE
  5
132
330
1F
100
AcDbEntity
  8
0-0
  6
JWW_DASHED1
 62
   120
370
     5
100
AcDbLine
 10
-646.3809571911065
 20
530.1015176643989
 30
0.0
 11
-73.38095719110584
 21
530.1015176643989
 31
0.0
  0
LINE
  5
133
330
1F
100
AcDbEntity
  8
0-0
  6
JWW_DASHED1
 62
   120
370
     5
100
AcDbLine
 10
-646.3809571911065
 20
543.1015176654985
 30
0.0
 11
-73.38095719110584
 21
543.1015176654985
 31
0.0
  0
LINE
  5
134
330
1F
100
AcDbEntity
  8
0-0
  6
JWW_DASHED1
 62
   120
370
     5
100
AcDbLine
 10
-646.3809571911065
 20
544.1015176653987
 30
0.0
 11
-73.38095719110584
 21
544.1015176653987
 31
0.0
  0
LINE
  5
135
330
1F
100
AcDbEntity
  8
0-0
  6
JWW_DASHED1
 62
   120
370
     5
100
AcDbLine
 10
-646.3809571911065
 20
557.1015176664982
 30
0.0
 11
-73.38095719110584
 21
557.1015176664982
 31
0.0
  0
LINE
  5
136
330
1F
100
AcDbEntity
  8
0-0
  6
JWW_DASHED1
 62
   120
370
     5
100
AcDbLine
 10
-646.3809571911065
 20
558.1015176663984
 30
0.0
 11
-73.38095719110584
 21
558.1015176663984
 31
0.0
  0
LINE
  5
137
330
1F
100
AcDbEntity
  8
0-0
  6
JWW_DASHED1
 62
   120
370
     5
100
AcDbLine
 10
-646.3809571911065
 20
571.1015176674981
 30
0.0
 11
-73.38095719110584
 21
571.1015176674981
 31
0.0
  0
LINE
  5
138
330
1F
100
AcDbEntity
  8
0-0
  6
JWW_DASHED1
 62
   120
370
     5
100
AcDbLine
 10
-646.3809571911065
 20
572.1015176673983
 30
0.0
 11
-73.38095719110584
 21
572.1015176673983
 31
0.0
  0
LINE
  5
139
330
1F
100
AcDbEntity
  8
0-0
  6
JWW_DASHED1
 62
   120
370
     5
100
AcDbLine
 10
-646.3809571911065
 20
585.1015176684979
 30
0.0
 11
-73.38095719110584
 21
585.1015176684979
 31
0.0
  0
LINE
  5
13A
330
1F
100
AcDbEntity
  8
0-0
  6
JWW_DASHED1
 62
   120
370
     5
100
AcDbLine
 10
-646.3809571911065
 20
586.1015176683981
 30
0.0
 11
-73.38095719110584
 21
586.1015176683981
 31
0.0
  0
LINE
  5
13B
330
1F
100
AcDbEntity
  8
0-0
  6
JWW_DASHED1
 62
   120
370
     5
100
AcDbLine
 10
-646.3809571911065
 20
599.1015176694976
 30
0.0
 11
-73.38095719110584
 21
599.1015176694976
 31
0.0
  0
LINE
  5
13C
330
1F
100
AcDbEntity
  8
0-0
  6
JWW_DASHED1
 62
   120
370
     5
100
AcDbLine
 10
-646.3809571911065
 20
600.1015176693978
 30
0.0
 11
-73.38095719110584
 21
600.1015176693978
 31
0.0
  0
LINE
  5
13D
330
1F
100
AcDbEntity
  8
0-0
  6
JWW_DASHED1
 62
   120
370
     5
100
AcDbLine
 10
-646.3809571911065
 20
613.1015176704975
 30
0.0
 11
-73.38095719110584
 21
613.1015176704975
 31
0.0
  0
LINE
  5
13E
330
1F
100
AcDbEntity
  8
0-0
  6
JWW_DASHED1
 62
   120
370
     5
100
AcDbLine
 10
-646.3809571911065
 20
614.1015176703977
 30
0.0
 11
-73.38095719110584
 21
614.1015176703977
 31
0.0
  0
LINE
  5
13F
330
1F
100
AcDbEntity
  8
0-0
  6
JWW_DASHED1
 62
   120
370
     5
100
AcDbLine
 10
-646.3809571911065
 20
627.1015176714973
 30
0.0
 11
-73.38095719110584
 21
627.1015176714973
 31
0.0
  0
LINE
  5
140
330
1F
100
AcDbEntity
  8
0-0
  6
JWW_DASHED1
 62
   120
370
     5
100
AcDbLine
 10
-646.3809571911065
 20
628.1015176713975
 30
0.0
 11
-73.38095719110584
 21
628.1015176713975
 31
0.0
  0
LINE
  5
141
330
1F
100
AcDbEntity
  8
0-0
  6
JWW_DASHED1
 62
   120
370
     5
100
AcDbLine
 10
-646.3809571911065
 20
641.101517672497
 30
0.0
 11
-73.38095719110584
 21
641.101517672497
 31
0.0
  0
LINE
  5
142
330
1F
100
AcDbEntity
  8
0-0
  6
JWW_DASHED1
 62
   120
370
     5
100
AcDbLine
 10
-646.3809571911065
 20
642.101517672397
 30
0.0
 11
-73.38095719110584
 21
642.101517672397
 31
0.0
  0
LINE
  5
143
330
1F
100
AcDbEntity
  8
0-0
  6
JWW_DASHED1
 62
   120
370
     5
100
AcDbLine
 10
-646.3809571911065
 20
655.1015176734968
 30
0.0
 11
-73.38095719110584
 21
655.1015176734968
 31
0.0
  0
LINE
  5
144
330
1F
100
AcDbEntity
  8
0-0
  6
JWW_DASHED1
 62
   120
370
     5
100
AcDbLine
 10
-646.3809571911065
 20
656.101517673397
 30
0.0
 11
-73.38095719110584
 21
656.101517673397
 31
0.0
  0
LINE
  5
145
330
1F
100
AcDbEntity
  8
0-0
  6
JWW_DASHED1
 62
   120
370
     5
100
AcDbLine
 10
-646.3809571911065
 20
669.1015176744966
 30
0.0
 11
-73.38095719110584
 21
669.1015176744966
 31
0.0
  0
LINE
  5
146
330
1F
100
AcDbEntity
  8
0-0
  6
JWW_DASHED1
 62
   120
370
     5
100
AcDbLine
 10
-646.3809571911065
 20
670.1015176743967
 30
0.0
 11
-73.38095719110584
 21
670.1015176743967
 31
0.0
  0
LINE
  5
147
330
1F
100
AcDbEntity
  8
0-0
  6
JWW_DASHED1
 62
   120
370
     5
100
AcDbLine
 10
-640.3809387330748
 20
-436.8983340906431
 30
0.0
 11
-640.3809387330748
 21
738.101665909357
 31
0.0
  0
LINE
  5
148
330
1F
100
AcDbEntity
  8
0-0
  6
JWW_DASHED1
 62
   120
370
     5
100
AcDbLine
 10
-107.380938695174
 20
-436.8983340906431
 30
0.0
 11
-107.380938695174
 21
738.101665909357
 31
0.0
  0
LINE
  5
149
330
1F
100
AcDbEntity
  8
0-0
  6
JWW_DASHED1
 62
   120
370
     5
100
AcDbLine
 10
-108.3809386950742
 20
-436.8983340906431
 30
0.0
 11
-108.3809386950742
 21
738.101665909357
 31
0.0
  0
LINE
  5
14A
330
1F
100
AcDbEntity
  8
0-0
  6
JWW_DASHED1
 62
   120
370
     5
100
AcDbLine
 10
-121.3809386961742
 20
-436.8983340906431
 30
0.0
 11
-121.3809386961742
 21
738.101665909357
 31
0.0
  0
LINE
  5
14B
330
1F
100
AcDbEntity
  8
0-0
  6
JWW_DASHED1
 62
   120
370
     5
100
AcDbLine
 10
-122.3809386960744
 20
-436.8983340906431
 30
0.0
 11
-122.3809386960744
 21
738.101665909357
 31
0.0
  0
LINE
  5
14C
330
1F
100
AcDbEntity
  8
0-0
  6
JWW_DASHED1
 62
   120
370
     5
100
AcDbLine
 10
-135.3809386971744
 20
-436.8983340906431
 30
0.0
 11
-135.3809386971744
 21
738.101665909357
 31
0.0
  0
LINE
  5
14D
330
1F
100
AcDbEntity
  8
0-0
  6
JWW_DASHED1
 62
   120
370
     5
100
AcDbLine
 10
-136.3809386970746
 20
-436.8983340906431
 30
0.0
 11
-136.3809386970746
 21
738.101665909357
 31
0.0
  0
LINE
  5
14E
330
1F
100
AcDbEntity
  8
0-0
  6
JWW_DASHED1
 62
   120
370
     5
100
AcDbLine
 10
-149.3809386981746
 20
-436.8983340906431
 30
0.0
 11
-149.3809386981746
 21
738.101665909357
 31
0.0
  0
LINE
  5
14F
330
1F
100
AcDbEntity
  8
0-0
  6
JWW_DASHED1
 62
   120
370
     5
100
AcDbLine
 10
-150.3809386980748
 20
-436.8983340906431
 30
0.0
 11
-150.3809386980748
 21
738.101665909357
 31
0.0
  0
LINE
  5
150
330
1F
100
AcDbEntity
  8
0-0
  6
JWW_DASHED1
 62
   120
370
     5
100
AcDbLine
 10
-163.3809386991749
 20
-436.8983340906431
 30
0.0
 11
-163.3809386991749
 21
738.101665909357
 31
0.0
  0
LINE
  5
151
330
1F
100
AcDbEntity
  8
0-0
  6
JWW_DASHED1
 62
   120
370
     5
100
AcDbLine
 10
-164.380938699075
 20
-436.8983340906431
 30
0.0
 11
-164.3809386990742
 21
738.101665909357
 31
0.0
  0
LINE
  5
152
330
1F
100
AcDbEntity
  8
0-0
  6
JWW_DASHED1
 62
   120
370
     5
100
AcDbLine
 10
-177.3809387001751
 20
-436.8983340906431
 30
0.0
 11
-177.3809387001742
 21
738.101665909357
 31
0.0
  0
LINE
  5
153
330
1F
100
AcDbEntity
  8
0-0
  6
JWW_DASHED1
 62
   120
370
     5
100
AcDbLine
 10
-178.3809387000744
 20
-436.8983340906431
 30
0.0
 11
-178.3809387000744
 21
738.101665909357
 31
0.0
  0
LINE
  5
154
330
1F
100
AcDbEntity
  8
0-0
  6
JWW_DASHED1
 62
   120
370
     5
100
AcDbLine
 10
-191.3809387011744
 20
-436.8983340906431
 30
0.0
 11
-191.3809387011744
 21
738.101665909357
 31
0.0
  0
LINE
  5
155
330
1F
100
AcDbEntity
  8
0-0
  6
JWW_DASHED1
 62
   120
370
     5
100
AcDbLine
 10
-192.3809387010746
 20
-436.8983340906431
 30
0.0
 11
-192.3809387010746
 21
738.101665909357
 31
0.0
  0
LINE
  5
156
330
1F
100
AcDbEntity
  8
0-0
  6
JWW_DASHED1
 62
   120
370
     5
100
AcDbLine
 10
-205.3809387021738
 20
-436.8983340906431
 30
0.0
 11
-205.3809387021738
 21
738.101665909357
 31
0.0
  0
LINE
  5
157
330
1F
100
AcDbEntity
  8
0-0
  6
JWW_DASHED1
 62
   120
370
     5
100
AcDbLine
 10
-206.380938702074
 20
-436.8983340906431
 30
0.0
 11
-206.380938702074
 21
738.101665909357
 31
0.0
  0
LINE
  5
158
330
1F
100
AcDbEntity
  8
0-0
  6
JWW_DASHED1
 62
   120
370
     5
100
AcDbLine
 10
-219.380938703174
 20
-436.8983340906431
 30
0.0
 11
-219.380938703174
 21
738.101665909357
 31
0.0
  0
LINE
  5
159
330
1F
100
AcDbEntity
  8
0-0
  6
JWW_DASHED1
 62
   120
370
     5
100
AcDbLine
 10
-220.3809387030742
 20
-436.8983340906431
 30
0.0
 11
-220.3809387030742
 21
738.101665909357
 31
0.0
  0
LINE
  5
15A
330
1F
100
AcDbEntity
  8
0-0
  6
JWW_DASHED1
 62
   120
370
     5
100
AcDbLine
 10
-233.3809387041742
 20
-436.8983340906431
 30
0.0
 11
-233.3809387041742
 21
738.101665909357
 31
0.0
  0
LINE
  5
15B
330
1F
100
AcDbEntity
  8
0-0
  6
JWW_DASHED1
 62
   120
370
     5
100
AcDbLine
 10
-234.3809387040744
 20
-436.8983340906431
 30
0.0
 11
-234.3809387040744
 21
738.101665909357
 31
0.0
  0
LINE
  5
15C
330
1F
100
AcDbEntity
  8
0-0
  6
JWW_DASHED1
 62
   120
370
     5
100
AcDbLine
 10
-247.3809387051745
 20
-436.8983340906431
 30
0.0
 11
-247.3809387051745
 21
738.101665909357
 31
0.0
  0
LINE
  5
15D
330
1F
100
AcDbEntity
  8
0-0
  6
JWW_DASHED1
 62
   120
370
     5
100
AcDbLine
 10
-248.3809387050746
 20
-436.8983340906431
 30
0.0
 11
-248.3809387050746
 21
738.101665909357
 31
0.0
  0
LINE
  5
15E
330
1F
100
AcDbEntity
  8
0-0
  6
JWW_DASHED1
 62
   120
370
     5
100
AcDbLine
 10
-261.3809387061747
 20
-436.8983340906431
 30
0.0
 11
-261.3809387061747
 21
738.101665909357
 31
0.0
  0
LINE
  5
15F
330
1F
100
AcDbEntity
  8
0-0
  6
JWW_DASHED1
 62
   120
370
     5
100
AcDbLine
 10
-262.3809387060749
 20
-436.8983340906431
 30
0.0
 11
-262.3809387060749
 21
738.101665909357
 31
0.0
  0
LINE
  5
160
330
1F
100
AcDbEntity
  8
0-0
  6
JWW_DASHED1
 62
   120
370
     5
100
AcDbLine
 10
-275.380938707174
 20
-436.8983340906431
 30
0.0
 11
-275.380938707174
 21
738.101665909357
 31
0.0
  0
LINE
  5
161
330
1F
100
AcDbEntity
  8
0-0
  6
JWW_DASHED1
 62
   120
370
     5
100
AcDbLine
 10
-276.3809387070742
 20
-436.8983340906431
 30
0.0
 11
-276.3809387070742
 21
738.101665909357
 31
0.0
  0
LINE
  5
162
330
1F
100
AcDbEntity
  8
0-0
  6
JWW_DASHED1
 62
   120
370
     5
100
AcDbLine
 10
-289.3809387081743
 20
-436.8983340906431
 30
0.0
 11
-289.3809387081743
 21
738.101665909357
 31
0.0
  0
LINE
  5
163
330
1F
100
AcDbEntity
  8
0-0
  6
JWW_DASHED1
 62
   120
370
     5
100
AcDbLine
 10
-290.3809387080744
 20
-436.8983340906431
 30
0.0
 11
-290.3809387080744
 21
738.101665909357
 31
0.0
  0
LINE
  5
164
330
1F
100
AcDbEntity
  8
0-0
  6
JWW_DASHED1
 62
   120
370
     5
100
AcDbLine
 10
-303.3809387091745
 20
-436.8983340906431
 30
0.0
 11
-303.3809387091745
 21
738.101665909357
 31
0.0
  0
LINE
  5
165
330
1F
100
AcDbEntity
  8
0-0
  6
JWW_DASHED1
 62
   120
370
     5
100
AcDbLine
 10
-304.3809387090747
 20
-436.8983340906431
 30
0.0
 11
-304.3809387090747
 21
738.101665909357
 31
0.0
  0
LINE
  5
166
330
1F
100
AcDbEntity
  8
0-0
  6
JWW_DASHED1
 62
   120
370
     5
100
AcDbLine
 10
-317.3809387101738
 20
-436.8983340906431
 30
0.0
 11
-317.3809387101738
 21
738.101665909357
 31
0.0
  0
LINE
  5
167
330
1F
100
AcDbEntity
  8
0-0
  6
JWW_DASHED1
 62
   120
370
     5
100
AcDbLine
 10
-318.380938710074
 20
-436.8983340906431
 30
0.0
 11
-318.380938710074
 21
738.101665909357
 31
0.0
  0
LINE
  5
168
330
1F
100
AcDbEntity
  8
0-0
  6
JWW_DASHED1
 62
   120
370
     5
100
AcDbLine
 10
-331.3809387111741
 20
-436.8983340906431
 30
0.0
 11
-331.3809387111741
 21
738.101665909357
 31
0.0
  0
LINE
  5
169
330
1F
100
AcDbEntity
  8
0-0
  6
JWW_DASHED1
 62
   120
370
     5
100
AcDbLine
 10
-332.3809387110742
 20
-436.8983340906431
 30
0.0
 11
-332.3809387110742
 21
738.101665909357
 31
0.0
  0
LINE
  5
16A
330
1F
100
AcDbEntity
  8
0-0
  6
JWW_DASHED1
 62
   120
370
     5
100
AcDbLine
 10
-345.3809387121743
 20
-436.8983340906431
 30
0.0
 11
-345.3809387121743
 21
738.101665909357
 31
0.0
  0
LINE
  5
16B
330
1F
100
AcDbEntity
  8
0-0
  6
JWW_DASHED1
 62
   120
370
     5
100
AcDbLine
 10
-346.3809387120745
 20
-436.8983340906431
 30
0.0
 11
-346.3809387120745
 21
738.101665909357
 31
0.0
  0
LINE
  5
16C
330
1F
100
AcDbEntity
  8
0-0
  6
JWW_DASHED1
 62
   120
370
     5
100
AcDbLine
 10
-359.3809387131745
 20
-436.8983340906431
 30
0.0
 11
-359.3809387131745
 21
738.101665909357
 31
0.0
  0
LINE
  5
16D
330
1F
100
AcDbEntity
  8
0-0
  6
JWW_DASHED1
 62
   120
370
     5
100
AcDbLine
 10
-360.3809387130747
 20
-436.8983340906431
 30
0.0
 11
-360.3809387130747
 21
738.101665909357
 31
0.0
  0
LINE
  5
16E
330
1F
100
AcDbEntity
  8
0-0
  6
JWW_DASHED1
 62
   120
370
     5
100
AcDbLine
 10
-373.3809387141747
 20
-436.8983340906431
 30
0.0
 11
-373.3809387141747
 21
738.101665909357
 31
0.0
  0
LINE
  5
16F
330
1F
100
AcDbEntity
  8
0-0
  6
JWW_DASHED1
 62
   120
370
     5
100
AcDbLine
 10
-374.3809387140749
 20
-436.8983340906431
 30
0.0
 11
-374.3809387140749
 21
738.101665909357
 31
0.0
  0
LINE
  5
170
330
1F
100
AcDbEntity
  8
0-0
  6
JWW_DASHED1
 62
   120
370
     5
100
AcDbLine
 10
-387.3809387151741
 20
-436.8983340906431
 30
0.0
 11
-387.3809387151741
 21
738.101665909357
 31
0.0
  0
LINE
  5
171
330
1F
100
AcDbEntity
  8
0-0
  6
JWW_DASHED1
 62
   120
370
     5
100
AcDbLine
 10
-388.3809387150743
 20
-436.8983340906431
 30
0.0
 11
-388.3809387150743
 21
738.101665909357
 31
0.0
  0
LINE
  5
172
330
1F
100
AcDbEntity
  8
0-0
  6
JWW_DASHED1
 62
   120
370
     5
100
AcDbLine
 10
-401.3809387161743
 20
-436.8983340906431
 30
0.0
 11
-401.3809387161743
 21
738.101665909357
 31
0.0
  0
LINE
  5
173
330
1F
100
AcDbEntity
  8
0-0
  6
JWW_DASHED1
 62
   120
370
     5
100
AcDbLine
 10
-402.3809387160745
 20
-436.8983340906431
 30
0.0
 11
-402.3809387160745
 21
738.101665909357
 31
0.0
  0
LINE
  5
174
330
1F
100
AcDbEntity
  8
0-0
  6
JWW_DASHED1
 62
   120
370
     5
100
AcDbLine
 10
-415.3809387171745
 20
-436.8983340906431
 30
0.0
 11
-415.3809387171745
 21
738.101665909357
 31
0.0
  0
LINE
  5
175
330
1F
100
AcDbEntity
  8
0-0
  6
JWW_DASHED1
 62
   120
370
     5
100
AcDbLine
 10
-416.3809387170747
 20
-436.8983340906431
 30
0.0
 11
-416.3809387170747
 21
738.101665909357
 31
0.0
  0
LINE
  5
176
330
1F
100
AcDbEntity
  8
0-0
  6
JWW_DASHED1
 62
   120
370
     5
100
AcDbLine
 10
-429.3809387181739
 20
-436.8983340906431
 30
0.0
 11
-429.3809387181739
 21
738.101665909357
 31
0.0
  0
LINE
  5
177
330
1F
100
AcDbEntity
  8
0-0
  6
JWW_DASHED1
 62
   120
370
     5
100
AcDbLine
 10
-430.380938718074
 20
-436.8983340906431
 30
0.0
 11
-430.380938718074
 21
738.101665909357
 31
0.0
  0
LINE
  5
178
330
1F
100
AcDbEntity
  8
0-0
  6
JWW_DASHED1
 62
   120
370
     5
100
AcDbLine
 10
-443.3809387191741
 20
-436.8983340906431
 30
0.0
 11
-443.3809387191741
 21
738.101665909357
 31
0.0
  0
LINE
  5
179
330
1F
100
AcDbEntity
  8
0-0
  6
JWW_DASHED1
 62
   120
370
     5
100
AcDbLine
 10
-444.3809387190743
 20
-436.8983340906431
 30
0.0
 11
-444.3809387190743
 21
738.101665909357
 31
0.0
  0
LINE
  5
17A
330
1F
100
AcDbEntity
  8
0-0
  6
JWW_DASHED1
 62
   120
370
     5
100
AcDbLine
 10
-457.3809387201743
 20
-436.8983340906431
 30
0.0
 11
-457.3809387201743
 21
738.101665909357
 31
0.0
  0
LINE
  5
17B
330
1F
100
AcDbEntity
  8
0-0
  6
JWW_DASHED1
 62
   120
370
     5
100
AcDbLine
 10
-458.3809387200745
 20
-436.8983340906431
 30
0.0
 11
-458.3809387200745
 21
738.101665909357
 31
0.0
  0
LINE
  5
17C
330
1F
100
AcDbEntity
  8
0-0
  6
JWW_DASHED1
 62
   120
370
     5
100
AcDbLine
 10
-471.3809387211745
 20
-436.8983340906431
 30
0.0
 11
-471.3809387211745
 21
738.101665909357
 31
0.0
  0
LINE
  5
17D
330
1F
100
AcDbEntity
  8
0-0
  6
JWW_DASHED1
 62
   120
370
     5
100
AcDbLine
 10
-472.3809387210747
 20
-436.8983340906431
 30
0.0
 11
-472.3809387210747
 21
738.101665909357
 31
0.0
  0
LINE
  5
17E
330
1F
100
AcDbEntity
  8
0-0
  6
JWW_DASHED1
 62
   120
370
     5
100
AcDbLine
 10
-485.3809387221747
 20
-436.8983340906431
 30
0.0
 11
-485.3809387221747
 21
738.101665909357
 31
0.0
  0
LINE
  5
17F
330
1F
100
AcDbEntity
  8
0-0
  6
JWW_DASHED1
 62
   120
370
     5
100
AcDbLine
 10
-486.3809387220749
 20
-436.8983340906431
 30
0.0
 11
-486.3809387220749
 21
738.101665909357
 31
0.0
  0
LINE
  5
180
330
1F
100
AcDbEntity
  8
0-0
  6
JWW_DASHED1
 62
   120
370
     5
100
AcDbLine
 10
-499.3809387231741
 20
-436.8983340906431
 30
0.0
 11
-499.3809387231741
 21
738.101665909357
 31
0.0
  0
LINE
  5
181
330
1F
100
AcDbEntity
  8
0-0
  6
JWW_DASHED1
 62
   120
370
     5
100
AcDbLine
 10
-500.3809387230743
 20
-436.8983340906431
 30
0.0
 11
-500.3809387230743
 21
738.101665909357
 31
0.0
  0
LINE
  5
182
330
1F
100
AcDbEntity
  8
0-0
  6
JWW_DASHED1
 62
   120
370
     5
100
AcDbLine
 10
-513.3809387241743
 20
-436.8983340906431
 30
0.0
 11
-513.3809387241743
 21
738.101665909357
 31
0.0
  0
LINE
  5
183
330
1F
100
AcDbEntity
  8
0-0
  6
JWW_DASHED1
 62
   120
370
     5
100
AcDbLine
 10
-514.3809387240744
 20
-436.8983340906431
 30
0.0
 11
-514.3809387240744
 21
738.101665909357
 31
0.0
  0
LINE
  5
184
330
1F
100
AcDbEntity
  8
0-0
  6
JWW_DASHED1
 62
   120
370
     5
100
AcDbLine
 10
-527.3809387251745
 20
-436.8983340906431
 30
0.0
 11
-527.3809387251745
 21
738.101665909357
 31
0.0
  0
LINE
  5
185
330
1F
100
AcDbEntity
  8
0-0
  6
JWW_DASHED1
 62
   120
370
     5
100
AcDbLine
 10
-528.3809387250747
 20
-436.8983340906431
 30
0.0
 11
-528.3809387250747
 21
738.101665909357
 31
0.0
  0
LINE
  5
186
330
1F
100
AcDbEntity
  8
0-0
  6
JWW_DASHED1
 62
   120
370
     5
100
AcDbLine
 10
-541.3809387261739
 20
-436.8983340906431
 30
0.0
 11
-541.3809387261739
 21
738.101665909357
 31
0.0
  0
LINE
  5
187
330
1F
100
AcDbEntity
  8
0-0
  6
JWW_DASHED1
 62
   120
370
     5
100
AcDbLine
 10
-542.3809387260741
 20
-436.8983340906431
 30
0.0
 11
-542.3809387260741
 21
738.101665909357
 31
0.0
  0
LINE
  5
188
330
1F
100
AcDbEntity
  8
0-0
  6
JWW_DASHED1
 62
   120
370
     5
100
AcDbLine
 10
-555.3809387271741
 20
-436.8983340906431
 30
0.0
 11
-555.3809387271741
 21
738.101665909357
 31
0.0
  0
LINE
  5
189
330
1F
100
AcDbEntity
  8
0-0
  6
JWW_DASHED1
 62
   120
370
     5
100
AcDbLine
 10
-556.3809387270743
 20
-436.8983340906431
 30
0.0
 11
-556.3809387270743
 21
738.101665909357
 31
0.0
  0
LINE
  5
18A
330
1F
100
AcDbEntity
  8
0-0
  6
JWW_DASHED1
 62
   120
370
     5
100
AcDbLine
 10
-569.3809387281743
 20
-436.8983340906431
 30
0.0
 11
-569.3809387281743
 21
738.101665909357
 31
0.0
  0
LINE
  5
18B
330
1F
100
AcDbEntity
  8
0-0
  6
JWW_DASHED1
 62
   120
370
     5
100
AcDbLine
 10
-570.3809387280745
 20
-436.8983340906431
 30
0.0
 11
-570.3809387280745
 21
738.101665909357
 31
0.0
  0
LINE
  5
18C
330
1F
100
AcDbEntity
  8
0-0
  6
JWW_DASHED1
 62
   120
370
     5
100
AcDbLine
 10
-583.3809387291745
 20
-436.8983340906431
 30
0.0
 11
-583.3809387291745
 21
738.101665909357
 31
0.0
  0
LINE
  5
18D
330
1F
100
AcDbEntity
  8
0-0
  6
JWW_DASHED1
 62
   120
370
     5
100
AcDbLine
 10
-584.3809387290747
 20
-436.8983340906431
 30
0.0
 11
-584.3809387290747
 21
738.101665909357
 31
0.0
  0
LINE
  5
18E
330
1F
100
AcDbEntity
  8
0-0
  6
JWW_DASHED1
 62
   120
370
     5
100
AcDbLine
 10
-597.3809387301748
 20
-436.8983340906431
 30
0.0
 11
-597.3809387301748
 21
738.101665909357
 31
0.0
  0
LINE
  5
18F
330
1F
100
AcDbEntity
  8
0-0
  6
JWW_DASHED1
 62
   120
370
     5
100
AcDbLine
 10
-598.380938730075
 20
-436.8983340906431
 30
0.0
 11
-598.380938730075
 21
738.101665909357
 31
0.0
  0
LINE
  5
190
330
1F
100
AcDbEntity
  8
0-0
  6
JWW_DASHED1
 62
   120
370
     5
100
AcDbLine
 10
-611.3809387311742
 20
-436.8983340906431
 30
0.0
 11
-611.3809387311742
 21
738.101665909357
 31
0.0
  0
LINE
  5
191
330
1F
100
AcDbEntity
  8
0-0
  6
JWW_DASHED1
 62
   120
370
     5
100
AcDbLine
 10
-612.3809387310744
 20
-436.8983340906431
 30
0.0
 11
-612.3809387310744
 21
738.101665909357
 31
0.0
  0
LINE
  5
192
330
1F
100
AcDbEntity
  8
0-0
  6
JWW_DASHED1
 62
   120
370
     5
100
AcDbLine
 10
-625.3809387321744
 20
-436.8983340906431
 30
0.0
 11
-625.3809387321744
 21
738.101665909357
 31
0.0
  0
LINE
  5
193
330
1F
100
AcDbEntity
  8
0-0
  6
JWW_DASHED1
 62
   120
370
     5
100
AcDbLine
 10
-626.3809387320746
 20
-436.8983340906431
 30
0.0
 11
-626.3809387320746
 21
738.101665909357
 31
0.0
  0
LINE
  5
194
330
1F
100
AcDbEntity
  8
0-0
  6
JWW_DASHED1
 62
   120
370
     5
100
AcDbLine
 10
-639.3809387331746
 20
-436.8983340906431
 30
0.0
 11
-639.3809387331746
 21
738.101665909357
 31
0.0
  0
LINE
  5
195
330
1F
100
AcDbEntity
  8
0-0
  6
JWW_DASHED1
 62
   120
370
     5
100
AcDbLine
 10
-79.38093869317441
 20
-436.8983340906431
 30
0.0
 11
-79.38093869317441
 21
738.101665909357
 31
0.0
  0
LINE
  5
196
330
1F
100
AcDbEntity
  8
0-0
  6
JWW_DASHED1
 62
   120
370
     5
100
AcDbLine
 10
-94.38093869407481
 20
-436.8983340906431
 30
0.0
 11
-94.38093869407481
 21
738.101665909357
 31
0.0
  0
LINE
  5
197
330
1F
100
AcDbEntity
  8
0-0
  6
JWW_DASHED1
 62
   120
370
     5
100
AcDbLine
 10
-80.3809386930746
 20
-436.8983340906431
 30
0.0
 11
-80.3809386930746
 21
738.101665909357
 31
0.0
  0
LINE
  5
198
330
1F
100
AcDbEntity
  8
0-0
  6
JWW_DASHED1
 62
   120
370
     5
100
AcDbLine
 10
-93.38093869417463
 20
-436.8983340906431
 30
0.0
 11
-93.38093869417463
 21
738.101665909357
 31
0.0
  0
LINE
  5
199
330
1F
100
AcDbEntity
  8
0-0
  6
JWW_DASHED1
 62
   120
370
     5
100
AcDbLine
 10
-646.3809571911056
 20
726.101517678396
 30
0.0
 11
-73.38095719110669
 21
726.101517678396
 31
0.0
  0
LINE
  5
19A
330
1F
100
AcDbEntity
  8
0-0
  6
JWW_DASHED1
 62
   120
370
     5
100
AcDbLine
 10
-646.3809571911056
 20
683.1015176754964
 30
0.0
 11
-73.38095719110669
 21
683.1015176754964
 31
0.0
  0
LINE
  5
19B
330
1F
100
AcDbEntity
  8
0-0
  6
JWW_DASHED1
 62
   120
370
     5
100
AcDbLine
 10
-646.3809571911056
 20
684.1015176753966
 30
0.0
 11
-73.38095719110669
 21
684.1015176753966
 31
0.0
  0
LINE
  5
19C
330
1F
100
AcDbEntity
  8
0-0
  6
JWW_DASHED1
 62
   120
370
     5
100
AcDbLine
 10
-646.3809571911056
 20
697.1015176764962
 30
0.0
 11
-73.38095719110669
 21
697.1015176764962
 31
0.0
  0
LINE
  5
19D
330
1F
100
AcDbEntity
  8
0-0
  6
JWW_DASHED1
 62
   120
370
     5
100
AcDbLine
 10
-646.3809571911056
 20
698.1015176763964
 30
0.0
 11
-73.38095719110669
 21
698.1015176763964
 31
0.0
  0
LINE
  5
19E
330
1F
100
AcDbEntity
  8
0-0
  6
JWW_DASHED1
 62
   120
370
     5
100
AcDbLine
 10
-646.3809571911056
 20
711.101517677496
 30
0.0
 11
-73.38095719110669
 21
711.101517677496
 31
0.0
  0
LINE
  5
19F
330
1F
100
AcDbEntity
  8
0-0
  6
JWW_DASHED1
 62
   120
370
     5
100
AcDbLine
 10
-646.3809571911056
 20
712.1015176773961
 30
0.0
 11
-73.38095719110669
 21
712.1015176773961
 31
0.0
  0
LINE
  5
1A0
330
1F
100
AcDbEntity
  8
0-0
  6
JWW_DASHED1
 62
   120
370
     5
100
AcDbLine
 10
-646.3809571911056
 20
725.1015176784958
 30
0.0
 11
-73.38095719110669
 21
725.1015176784958
 31
0.0
  0
LINE
  5
1A1
330
1F
100
AcDbEntity
  8
0-0
  6
JWW_DASHED1
 62
   120
370
     5
100
AcDbLine
 10
133.6190428088935
 20
-435.8984824045866
 30
0.0
 11
706.6190428088942
 21
-435.8984824045866
 31
0.0
  0
LINE
  5
1A2
330
1F
100
AcDbEntity
  8
0-0
  6
JWW_DASHED1
 62
   120
370
     5
100
AcDbLine
 10
133.6190428088935
 20
-422.898482403487
 30
0.0
 11
706.6190428088942
 21
-422.898482403487
 31
0.0
  0
LINE
  5
1A3
330
1F
100
AcDbEntity
  8
0-0
  6
JWW_DASHED1
 62
   120
370
     5
100
AcDbLine
 10
133.6190428088935
 20
-421.8984824035869
 30
0.0
 11
706.6190428088942
 21
-421.8984824035869
 31
0.0
  0
LINE
  5
1A4
330
1F
100
AcDbEntity
  8
0-0
  6
JWW_DASHED1
 62
   120
370
     5
100
AcDbLine
 10
133.6190428088935
 20
-408.8984824024873
 30
0.0
 11
706.6190428088942
 21
-408.8984824024873
 31
0.0
  0
LINE
  5
1A5
330
1F
100
AcDbEntity
  8
0-0
  6
JWW_DASHED1
 62
   120
370
     5
100
AcDbLine
 10
133.6190428088935
 20
-407.8984824025871
 30
0.0
 11
706.6190428088942
 21
-407.8984824025871
 31
0.0
  0
LINE
  5
1A6
330
1F
100
AcDbEntity
  8
0-0
  6
JWW_DASHED1
 62
   120
370
     5
100
AcDbLine
 10
133.6190428088935
 20
-394.8984824014875
 30
0.0
 11
706.6190428088942
 21
-394.8984824014875
 31
0.0
  0
LINE
  5
1A7
330
1F
100
AcDbEntity
  8
0-0
  6
JWW_DASHED1
 62
   120
370
     5
100
AcDbLine
 10
133.6190428088935
 20
-393.8984824015873
 30
0.0
 11
706.6190428088942
 21
-393.8984824015873
 31
0.0
  0
LINE
  5
1A8
330
1F
100
AcDbEntity
  8
0-0
  6
JWW_DASHED1
 62
   120
370
     5
100
AcDbLine
 10
133.6190428088935
 20
-380.8984824004876
 30
0.0
 11
706.6190428088942
 21
-380.8984824004876
 31
0.0
  0
LINE
  5
1A9
330
1F
100
AcDbEntity
  8
0-0
  6
JWW_DASHED1
 62
   120
370
     5
100
AcDbLine
 10
133.6190428088935
 20
-379.8984824005875
 30
0.0
 11
706.6190428088942
 21
-379.8984824005875
 31
0.0
  0
LINE
  5
1AA
330
1F
100
AcDbEntity
  8
0-0
  6
JWW_DASHED1
 62
   120
370
     5
100
AcDbLine
 10
133.6190428088935
 20
-366.8984823994879
 30
0.0
 11
706.6190428088942
 21
-366.8984823994879
 31
0.0
  0
LINE
  5
1AB
330
1F
100
AcDbEntity
  8
0-0
  6
JWW_DASHED1
 62
   120
370
     5
100
AcDbLine
 10
133.6190428088935
 20
-365.8984823995877
 30
0.0
 11
706.6190428088942
 21
-365.8984823995877
 31
0.0
  0
LINE
  5
1AC
330
1F
100
AcDbEntity
  8
0-0
  6
JWW_DASHED1
 62
   120
370
     5
100
AcDbLine
 10
133.6190428088935
 20
-352.8984823984881
 30
0.0
 11
706.6190428088942
 21
-352.8984823984881
 31
0.0
  0
LINE
  5
1AD
330
1F
100
AcDbEntity
  8
0-0
  6
JWW_DASHED1
 62
   120
370
     5
100
AcDbLine
 10
133.6190428088935
 20
-351.8984823985879
 30
0.0
 11
706.6190428088942
 21
-351.8984823985879
 31
0.0
  0
LINE
  5
1AE
330
1F
100
AcDbEntity
  8
0-0
  6
JWW_DASHED1
 62
   120
370
     5
100
AcDbLine
 10
133.6190428088935
 20
-338.8984823974883
 30
0.0
 11
706.6190428088942
 21
-338.8984823974883
 31
0.0
  0
LINE
  5
1AF
330
1F
100
AcDbEntity
  8
0-0
  6
JWW_DASHED1
 62
   120
370
     5
100
AcDbLine
 10
133.6190428088935
 20
-337.8984823975881
 30
0.0
 11
706.6190428088942
 21
-337.8984823975881
 31
0.0
  0
LINE
  5
1B0
330
1F
100
AcDbEntity
  8
0-0
  6
JWW_DASHED1
 62
   120
370
     5
100
AcDbLine
 10
133.6190428088935
 20
-324.8984823964885
 30
0.0
 11
706.6190428088942
 21
-324.8984823964885
 31
0.0
  0
LINE
  5
1B1
330
1F
100
AcDbEntity
  8
0-0
  6
JWW_DASHED1
 62
   120
370
     5
100
AcDbLine
 10
133.6190428088935
 20
-323.8984823965883
 30
0.0
 11
706.6190428088942
 21
-323.8984823965883
 31
0.0
  0
LINE
  5
1B2
330
1F
100
AcDbEntity
  8
0-0
  6
JWW_DASHED1
 62
   120
370
     5
100
AcDbLine
 10
133.6190428088935
 20
-310.8984823954887
 30
0.0
 11
706.6190428088942
 21
-310.8984823954887
 31
0.0
  0
LINE
  5
1B3
330
1F
100
AcDbEntity
  8
0-0
  6
JWW_DASHED1
 62
   120
370
     5
100
AcDbLine
 10
133.6190428088935
 20
-309.8984823955885
 30
0.0
 11
706.6190428088942
 21
-309.8984823955885
 31
0.0
  0
LINE
  5
1B4
330
1F
100
AcDbEntity
  8
0-0
  6
JWW_DASHED1
 62
   120
370
     5
100
AcDbLine
 10
133.6190428088935
 20
-296.898482394489
 30
0.0
 11
706.6190428088942
 21
-296.898482394489
 31
0.0
  0
LINE
  5
1B5
330
1F
100
AcDbEntity
  8
0-0
  6
JWW_DASHED1
 62
   120
370
     5
100
AcDbLine
 10
133.6190428088935
 20
-295.8984823945888
 30
0.0
 11
706.6190428088942
 21
-295.8984823945888
 31
0.0
  0
LINE
  5
1B6
330
1F
100
AcDbEntity
  8
0-0
  6
JWW_DASHED1
 62
   120
370
     5
100
AcDbLine
 10
133.6190428088935
 20
-282.8984823934891
 30
0.0
 11
706.6190428088942
 21
-282.8984823934891
 31
0.0
  0
LINE
  5
1B7
330
1F
100
AcDbEntity
  8
0-0
  6
JWW_DASHED1
 62
   120
370
     5
100
AcDbLine
 10
133.6190428088935
 20
-281.8984823935889
 30
0.0
 11
706.6190428088942
 21
-281.8984823935889
 31
0.0
  0
LINE
  5
1B8
330
1F
100
AcDbEntity
  8
0-0
  6
JWW_DASHED1
 62
   120
370
     5
100
AcDbLine
 10
133.6190428088935
 20
-268.8984823924893
 30
0.0
 11
706.6190428088942
 21
-268.8984823924893
 31
0.0
  0
LINE
  5
1B9
330
1F
100
AcDbEntity
  8
0-0
  6
JWW_DASHED1
 62
   120
370
     5
100
AcDbLine
 10
133.6190428088935
 20
-267.8984823925891
 30
0.0
 11
706.6190428088942
 21
-267.8984823925891
 31
0.0
  0
LINE
  5
1BA
330
1F
100
AcDbEntity
  8
0-0
  6
JWW_DASHED1
 62
   120
370
     5
100
AcDbLine
 10
133.6190428088935
 20
-254.8984823914896
 30
0.0
 11
706.6190428088942
 21
-254.8984823914896
 31
0.0
  0
LINE
  5
1BB
330
1F
100
AcDbEntity
  8
0-0
  6
JWW_DASHED1
 62
   120
370
     5
100
AcDbLine
 10
133.6190428088935
 20
-253.8984823915894
 30
0.0
 11
706.6190428088942
 21
-253.8984823915894
 31
0.0
  0
LINE
  5
1BC
330
1F
100
AcDbEntity
  8
0-0
  6
JWW_DASHED1
 62
   120
370
     5
100
AcDbLine
 10
133.6190428088935
 20
-240.8984823904898
 30
0.0
 11
706.6190428088942
 21
-240.8984823904898
 31
0.0
  0
LINE
  5
1BD
330
1F
100
AcDbEntity
  8
0-0
  6
JWW_DASHED1
 62
   120
370
     5
100
AcDbLine
 10
133.6190428088935
 20
-239.8984823905896
 30
0.0
 11
706.6190428088942
 21
-239.8984823905896
 31
0.0
  0
LINE
  5
1BE
330
1F
100
AcDbEntity
  8
0-0
  6
JWW_DASHED1
 62
   120
370
     5
100
AcDbLine
 10
133.6190428088935
 20
-226.89848238949
 30
0.0
 11
706.6190428088942
 21
-226.89848238949
 31
0.0
  0
LINE
  5
1BF
330
1F
100
AcDbEntity
  8
0-0
  6
JWW_DASHED1
 62
   120
370
     5
100
AcDbLine
 10
133.6190428088935
 20
-225.8984823895898
 30
0.0
 11
706.6190428088942
 21
-225.8984823895898
 31
0.0
  0
LINE
  5
1C0
330
1F
100
AcDbEntity
  8
0-0
  6
JWW_DASHED1
 62
   120
370
     5
100
AcDbLine
 10
133.6190428088935
 20
-212.8984823884902
 30
0.0
 11
706.6190428088942
 21
-212.8984823884902
 31
0.0
  0
LINE
  5
1C1
330
1F
100
AcDbEntity
  8
0-0
  6
JWW_DASHED1
 62
   120
370
     5
100
AcDbLine
 10
133.6190428088935
 20
-211.89848238859
 30
0.0
 11
706.6190428088942
 21
-211.89848238859
 31
0.0
  0
LINE
  5
1C2
330
1F
100
AcDbEntity
  8
0-0
  6
JWW_DASHED1
 62
   120
370
     5
100
AcDbLine
 10
133.6190428088935
 20
-198.8984823874904
 30
0.0
 11
706.6190428088942
 21
-198.8984823874904
 31
0.0
  0
LINE
  5
1C3
330
1F
100
AcDbEntity
  8
0-0
  6
JWW_DASHED1
 62
   120
370
     5
100
AcDbLine
 10
133.6190428088935
 20
-197.8984823875902
 30
0.0
 11
706.6190428088942
 21
-197.8984823875902
 31
0.0
  0
LINE
  5
1C4
330
1F
100
AcDbEntity
  8
0-0
  6
JWW_DASHED1
 62
   120
370
     5
100
AcDbLine
 10
133.6190428088935
 20
-184.8984823864906
 30
0.0
 11
706.6190428088942
 21
-184.8984823864906
 31
0.0
  0
LINE
  5
1C5
330
1F
100
AcDbEntity
  8
0-0
  6
JWW_DASHED1
 62
   120
370
     5
100
AcDbLine
 10
133.6190428088935
 20
-183.8984823865904
 30
0.0
 11
706.6190428088942
 21
-183.8984823865904
 31
0.0
  0
LINE
  5
1C6
330
1F
100
AcDbEntity
  8
0-0
  6
JWW_DASHED1
 62
   120
370
     5
100
AcDbLine
 10
133.6190428088935
 20
-170.8984823854908
 30
0.0
 11
706.6190428088942
 21
-170.8984823854908
 31
0.0
  0
LINE
  5
1C7
330
1F
100
AcDbEntity
  8
0-0
  6
JWW_DASHED1
 62
   120
370
     5
100
AcDbLine
 10
133.6190428088935
 20
-169.8984823855906
 30
0.0
 11
706.6190428088942
 21
-169.8984823855906
 31
0.0
  0
LINE
  5
1C8
330
1F
100
AcDbEntity
  8
0-0
  6
JWW_DASHED1
 62
   120
370
     5
100
AcDbLine
 10
133.6190428088935
 20
-156.898482384491
 30
0.0
 11
706.6190428088942
 21
-156.898482384491
 31
0.0
  0
LINE
  5
1C9
330
1F
100
AcDbEntity
  8
0-0
  6
JWW_DASHED1
 62
   120
370
     5
100
AcDbLine
 10
133.6190428088935
 20
-155.8984823845908
 30
0.0
 11
706.6190428088942
 21
-155.8984823845908
 31
0.0
  0
LINE
  5
1CA
330
1F
100
AcDbEntity
  8
0-0
  6
JWW_DASHED1
 62
   120
370
     5
100
AcDbLine
 10
133.6190428088935
 20
-142.8984823834912
 30
0.0
 11
706.6190428088942
 21
-142.8984823834912
 31
0.0
  0
LINE
  5
1CB
330
1F
100
AcDbEntity
  8
0-0
  6
JWW_DASHED1
 62
   120
370
     5
100
AcDbLine
 10
133.6190428088935
 20
-141.898482383591
 30
0.0
 11
706.6190428088942
 21
-141.898482383591
 31
0.0
  0
LINE
  5
1CC
330
1F
100
AcDbEntity
  8
0-0
  6
JWW_DASHED1
 62
   120
370
     5
100
AcDbLine
 10
133.6190428088935
 20
-128.8984823824914
 30
0.0
 11
706.6190428088942
 21
-128.8984823824914
 31
0.0
  0
LINE
  5
1CD
330
1F
100
AcDbEntity
  8
0-0
  6
JWW_DASHED1
 62
   120
370
     5
100
AcDbLine
 10
133.6190428088935
 20
-127.8984823825913
 30
0.0
 11
706.6190428088942
 21
-127.8984823825913
 31
0.0
  0
LINE
  5
1CE
330
1F
100
AcDbEntity
  8
0-0
  6
JWW_DASHED1
 62
   120
370
     5
100
AcDbLine
 10
133.6190428088935
 20
-114.8984823814916
 30
0.0
 11
706.6190428088942
 21
-114.8984823814916
 31
0.0
  0
LINE
  5
1CF
330
1F
100
AcDbEntity
  8
0-0
  6
JWW_DASHED1
 62
   120
370
     5
100
AcDbLine
 10
133.6190428088935
 20
-113.8984823815915
 30
0.0
 11
706.6190428088942
 21
-113.8984823815915
 31
0.0
  0
LINE
  5
1D0
330
1F
100
AcDbEntity
  8
0-0
  6
JWW_DASHED1
 62
   120
370
     5
100
AcDbLine
 10
133.6190428088935
 20
-100.8984823804919
 30
0.0
 11
706.6190428088942
 21
-100.8984823804919
 31
0.0
  0
LINE
  5
1D1
330
1F
100
AcDbEntity
  8
0-0
  6
JWW_DASHED1
 62
   120
370
     5
100
AcDbLine
 10
133.6190428088935
 20
-99.89848238059167
 30
0.0
 11
706.6190428088942
 21
-99.89848238059167
 31
0.0
  0
LINE
  5
1D2
330
1F
100
AcDbEntity
  8
0-0
  6
JWW_DASHED1
 62
   120
370
     5
100
AcDbLine
 10
133.6190428088935
 20
-86.89848237949207
 30
0.0
 11
706.6190428088942
 21
-86.89848237949207
 31
0.0
  0
LINE
  5
1D3
330
1F
100
AcDbEntity
  8
0-0
  6
JWW_DASHED1
 62
   120
370
     5
100
AcDbLine
 10
133.6190428088935
 20
-85.89848237959188
 30
0.0
 11
706.6190428088942
 21
-85.89848237959188
 31
0.0
  0
LINE
  5
1D4
330
1F
100
AcDbEntity
  8
0-0
  6
JWW_DASHED1
 62
   120
370
     5
100
AcDbLine
 10
133.6190428088935
 20
-72.89848237849228
 30
0.0
 11
706.6190428088942
 21
-72.89848237849228
 31
0.0
  0
LINE
  5
1D5
330
1F
100
AcDbEntity
  8
0-0
  6
JWW_DASHED1
 62
   120
370
     5
100
AcDbLine
 10
133.6190428088935
 20
-71.89848237859209
 30
0.0
 11
706.6190428088942
 21
-71.89848237859209
 31
0.0
  0
LINE
  5
1D6
330
1F
100
AcDbEntity
  8
0-0
  6
JWW_DASHED1
 62
   120
370
     5
100
AcDbLine
 10
133.6190428088935
 20
-58.89848237749248
 30
0.0
 11
706.6190428088942
 21
-58.89848237749248
 31
0.0
  0
LINE
  5
1D7
330
1F
100
AcDbEntity
  8
0-0
  6
JWW_DASHED1
 62
   120
370
     5
100
AcDbLine
 10
133.6190428088935
 20
-57.8984823775923
 30
0.0
 11
706.6190428088942
 21
-57.8984823775923
 31
0.0
  0
LINE
  5
1D8
330
1F
100
AcDbEntity
  8
0-0
  6
JWW_DASHED1
 62
   120
370
     5
100
AcDbLine
 10
133.6190428088935
 20
-44.89848237649269
 30
0.0
 11
706.6190428088942
 21
-44.89848237649269
 31
0.0
  0
LINE
  5
1D9
330
1F
100
AcDbEntity
  8
0-0
  6
JWW_DASHED1
 62
   120
370
     5
100
AcDbLine
 10
133.6190428088935
 20
-43.89848237659251
 30
0.0
 11
706.6190428088942
 21
-43.89848237659251
 31
0.0
  0
LINE
  5
1DA
330
1F
100
AcDbEntity
  8
0-0
  6
JWW_DASHED1
 62
   120
370
     5
100
AcDbLine
 10
133.6190428088935
 20
-30.8984823754929
 30
0.0
 11
706.6190428088942
 21
-30.8984823754929
 31
0.0
  0
LINE
  5
1DB
330
1F
100
AcDbEntity
  8
0-0
  6
JWW_DASHED1
 62
   120
370
     5
100
AcDbLine
 10
133.6190428088935
 20
-29.89848237559272
 30
0.0
 11
706.6190428088942
 21
-29.89848237559272
 31
0.0
  0
LINE
  5
1DC
330
1F
100
AcDbEntity
  8
0-0
  6
JWW_DASHED1
 62
   120
370
     5
100
AcDbLine
 10
133.6190428088935
 20
-16.89848237449311
 30
0.0
 11
706.6190428088942
 21
-16.89848237449311
 31
0.0
  0
LINE
  5
1DD
330
1F
100
AcDbEntity
  8
0-0
  6
JWW_DASHED1
 62
   120
370
     5
100
AcDbLine
 10
133.6190428088935
 20
-15.89848237459293
 30
0.0
 11
706.6190428088942
 21
-15.89848237459293
 31
0.0
  0
LINE
  5
1DE
330
1F
100
AcDbEntity
  8
0-0
  6
JWW_DASHED1
 62
   120
370
     5
100
AcDbLine
 10
133.6190428088935
 20
-2.898482373493323
 30
0.0
 11
706.6190428088942
 21
-2.898482373493323
 31
0.0
  0
LINE
  5
1DF
330
1F
100
AcDbEntity
  8
0-0
  6
JWW_DASHED1
 62
   120
370
     5
100
AcDbLine
 10
133.6190428088935
 20
-1.89848237359314
 30
0.0
 11
706.6190428088942
 21
-1.89848237359314
 31
0.0
  0
LINE
  5
1E0
330
1F
100
AcDbEntity
  8
0-0
  6
JWW_DASHED1
 62
   120
370
     5
100
AcDbLine
 10
133.6190428088935
 20
11.10151762750647
 30
0.0
 11
706.6190428088942
 21
11.10151762750647
 31
0.0
  0
LINE
  5
1E1
330
1F
100
AcDbEntity
  8
0-0
  6
JWW_DASHED1
 62
   120
370
     5
100
AcDbLine
 10
133.6190428088935
 20
12.10151762740665
 30
0.0
 11
706.6190428088942
 21
12.10151762740665
 31
0.0
  0
LINE
  5
1E2
330
1F
100
AcDbEntity
  8
0-0
  6
JWW_DASHED1
 62
   120
370
     5
100
AcDbLine
 10
133.6190428088935
 20
25.10151762850626
 30
0.0
 11
706.6190428088942
 21
25.10151762850626
 31
0.0
  0
LINE
  5
1E3
330
1F
100
AcDbEntity
  8
0-0
  6
JWW_DASHED1
 62
   120
370
     5
100
AcDbLine
 10
133.6190428088935
 20
26.10151762840644
 30
0.0
 11
706.6190428088942
 21
26.10151762840644
 31
0.0
  0
LINE
  5
1E4
330
1F
100
AcDbEntity
  8
0-0
  6
JWW_DASHED1
 62
   120
370
     5
100
AcDbLine
 10
133.6190428088935
 20
39.10151762950605
 30
0.0
 11
706.6190428088942
 21
39.10151762950605
 31
0.0
  0
LINE
  5
1E5
330
1F
100
AcDbEntity
  8
0-0
  6
JWW_DASHED1
 62
   120
370
     5
100
AcDbLine
 10
133.6190428088935
 20
40.10151762940623
 30
0.0
 11
706.6190428088942
 21
40.10151762940623
 31
0.0
  0
LINE
  5
1E6
330
1F
100
AcDbEntity
  8
0-0
  6
JWW_DASHED1
 62
   120
370
     5
100
AcDbLine
 10
133.6190428088935
 20
53.10151763050584
 30
0.0
 11
706.6190428088942
 21
53.10151763050584
 31
0.0
  0
LINE
  5
1E7
330
1F
100
AcDbEntity
  8
0-0
  6
JWW_DASHED1
 62
   120
370
     5
100
AcDbLine
 10
133.6190428088935
 20
54.10151763040602
 30
0.0
 11
706.6190428088942
 21
54.10151763040602
 31
0.0
  0
LINE
  5
1E8
330
1F
100
AcDbEntity
  8
0-0
  6
JWW_DASHED1
 62
   120
370
     5
100
AcDbLine
 10
133.6190428088935
 20
67.10151763150563
 30
0.0
 11
706.6190428088942
 21
67.10151763150563
 31
0.0
  0
LINE
  5
1E9
330
1F
100
AcDbEntity
  8
0-0
  6
JWW_DASHED1
 62
   120
370
     5
100
AcDbLine
 10
133.6190428088935
 20
68.10151763140581
 30
0.0
 11
706.6190428088942
 21
68.10151763140581
 31
0.0
  0
LINE
  5
1EA
330
1F
100
AcDbEntity
  8
0-0
  6
JWW_DASHED1
 62
   120
370
     5
100
AcDbLine
 10
133.6190428088935
 20
81.10151763250542
 30
0.0
 11
706.6190428088942
 21
81.10151763250542
 31
0.0
  0
LINE
  5
1EB
330
1F
100
AcDbEntity
  8
0-0
  6
JWW_DASHED1
 62
   120
370
     5
100
AcDbLine
 10
133.6190428088935
 20
82.1015176324056
 30
0.0
 11
706.6190428088942
 21
82.1015176324056
 31
0.0
  0
LINE
  5
1EC
330
1F
100
AcDbEntity
  8
0-0
  6
JWW_DASHED1
 62
   120
370
     5
100
AcDbLine
 10
133.6190428088935
 20
95.10151763350521
 30
0.0
 11
706.6190428088942
 21
95.10151763350521
 31
0.0
  0
LINE
  5
1ED
330
1F
100
AcDbEntity
  8
0-0
  6
JWW_DASHED1
 62
   120
370
     5
100
AcDbLine
 10
133.6190428088935
 20
96.1015176334054
 30
0.0
 11
706.6190428088942
 21
96.1015176334054
 31
0.0
  0
LINE
  5
1EE
330
1F
100
AcDbEntity
  8
0-0
  6
JWW_DASHED1
 62
   120
370
     5
100
AcDbLine
 10
133.6190428088935
 20
109.101517634505
 30
0.0
 11
706.6190428088942
 21
109.101517634505
 31
0.0
  0
LINE
  5
1EF
330
1F
100
AcDbEntity
  8
0-0
  6
JWW_DASHED1
 62
   120
370
     5
100
AcDbLine
 10
133.6190428088935
 20
110.1015176344052
 30
0.0
 11
706.6190428088942
 21
110.1015176344052
 31
0.0
  0
LINE
  5
1F0
330
1F
100
AcDbEntity
  8
0-0
  6
JWW_DASHED1
 62
   120
370
     5
100
AcDbLine
 10
133.6190428088935
 20
123.1015176355048
 30
0.0
 11
706.6190428088942
 21
123.1015176355048
 31
0.0
  0
LINE
  5
1F1
330
1F
100
AcDbEntity
  8
0-0
  6
JWW_DASHED1
 62
   120
370
     5
100
AcDbLine
 10
133.6190428088935
 20
124.101517635405
 30
0.0
 11
706.6190428088942
 21
124.101517635405
 31
0.0
  0
LINE
  5
1F2
330
1F
100
AcDbEntity
  8
0-0
  6
JWW_DASHED1
 62
   120
370
     5
100
AcDbLine
 10
133.6190428088935
 20
137.1015176365046
 30
0.0
 11
706.6190428088942
 21
137.1015176365046
 31
0.0
  0
LINE
  5
1F3
330
1F
100
AcDbEntity
  8
0-0
  6
JWW_DASHED1
 62
   120
370
     5
100
AcDbLine
 10
133.6190428088935
 20
138.1015176364048
 30
0.0
 11
706.6190428088942
 21
138.1015176364048
 31
0.0
  0
LINE
  5
1F4
330
1F
100
AcDbEntity
  8
0-0
  6
JWW_DASHED1
 62
   120
370
     5
100
AcDbLine
 10
133.6190428088935
 20
151.1015176375044
 30
0.0
 11
706.6190428088942
 21
151.1015176375044
 31
0.0
  0
LINE
  5
1F5
330
1F
100
AcDbEntity
  8
0-0
  6
JWW_DASHED1
 62
   120
370
     5
100
AcDbLine
 10
133.6190428088935
 20
152.1015176374046
 30
0.0
 11
706.6190428088942
 21
152.1015176374046
 31
0.0
  0
LINE
  5
1F6
330
1F
100
AcDbEntity
  8
0-0
  6
JWW_DASHED1
 62
   120
370
     5
100
AcDbLine
 10
133.6190428088935
 20
165.1015176385042
 30
0.0
 11
706.6190428088942
 21
165.1015176385042
 31
0.0
  0
LINE
  5
1F7
330
1F
100
AcDbEntity
  8
0-0
  6
JWW_DASHED1
 62
   120
370
     5
100
AcDbLine
 10
133.6190428088935
 20
166.1015176384043
 30
0.0
 11
706.6190428088942
 21
166.1015176384043
 31
0.0
  0
LINE
  5
1F8
330
1F
100
AcDbEntity
  8
0-0
  6
JWW_DASHED1
 62
   120
370
     5
100
AcDbLine
 10
133.6190428088935
 20
179.101517639504
 30
0.0
 11
706.6190428088942
 21
179.101517639504
 31
0.0
  0
LINE
  5
1F9
330
1F
100
AcDbEntity
  8
0-0
  6
JWW_DASHED1
 62
   120
370
     5
100
AcDbLine
 10
133.6190428088935
 20
180.1015176394041
 30
0.0
 11
706.6190428088942
 21
180.1015176394041
 31
0.0
  0
LINE
  5
1FA
330
1F
100
AcDbEntity
  8
0-0
  6
JWW_DASHED1
 62
   120
370
     5
100
AcDbLine
 10
133.6190428088935
 20
193.1015176405037
 30
0.0
 11
706.6190428088942
 21
193.1015176405037
 31
0.0
  0
LINE
  5
1FB
330
1F
100
AcDbEntity
  8
0-0
  6
JWW_DASHED1
 62
   120
370
     5
100
AcDbLine
 10
133.6190428088935
 20
194.1015176404039
 30
0.0
 11
706.6190428088942
 21
194.1015176404039
 31
0.0
  0
LINE
  5
1FC
330
1F
100
AcDbEntity
  8
0-0
  6
JWW_DASHED1
 62
   120
370
     5
100
AcDbLine
 10
133.6190428088935
 20
207.1015176415035
 30
0.0
 11
706.6190428088942
 21
207.1015176415035
 31
0.0
  0
LINE
  5
1FD
330
1F
100
AcDbEntity
  8
0-0
  6
JWW_DASHED1
 62
   120
370
     5
100
AcDbLine
 10
133.6190428088935
 20
208.1015176414037
 30
0.0
 11
706.6190428088942
 21
208.1015176414037
 31
0.0
  0
LINE
  5
1FE
330
1F
100
AcDbEntity
  8
0-0
  6
JWW_DASHED1
 62
   120
370
     5
100
AcDbLine
 10
133.6190428088935
 20
221.1015176425033
 30
0.0
 11
706.6190428088942
 21
221.1015176425033
 31
0.0
  0
LINE
  5
1FF
330
1F
100
AcDbEntity
  8
0-0
  6
JWW_DASHED1
 62
   120
370
     5
100
AcDbLine
 10
133.6190428088935
 20
222.1015176424035
 30
0.0
 11
706.6190428088942
 21
222.1015176424035
 31
0.0
  0
LINE
  5
200
330
1F
100
AcDbEntity
  8
0-0
  6
JWW_DASHED1
 62
   120
370
     5
100
AcDbLine
 10
133.6190428088935
 20
235.1015176435031
 30
0.0
 11
706.6190428088942
 21
235.1015176435031
 31
0.0
  0
LINE
  5
201
330
1F
100
AcDbEntity
  8
0-0
  6
JWW_DASHED1
 62
   120
370
     5
100
AcDbLine
 10
133.6190428088935
 20
236.1015176434033
 30
0.0
 11
706.6190428088942
 21
236.1015176434033
 31
0.0
  0
LINE
  5
202
330
1F
100
AcDbEntity
  8
0-0
  6
JWW_DASHED1
 62
   120
370
     5
100
AcDbLine
 10
133.6190428088935
 20
249.1015176445029
 30
0.0
 11
706.6190428088942
 21
249.1015176445029
 31
0.0
  0
LINE
  5
203
330
1F
100
AcDbEntity
  8
0-0
  6
JWW_DASHED1
 62
   120
370
     5
100
AcDbLine
 10
133.6190428088935
 20
250.1015176444031
 30
0.0
 11
706.6190428088942
 21
250.1015176444031
 31
0.0
  0
LINE
  5
204
330
1F
100
AcDbEntity
  8
0-0
  6
JWW_DASHED1
 62
   120
370
     5
100
AcDbLine
 10
133.6190428088935
 20
263.1015176455027
 30
0.0
 11
706.6190428088942
 21
263.1015176455027
 31
0.0
  0
LINE
  5
205
330
1F
100
AcDbEntity
  8
0-0
  6
JWW_DASHED1
 62
   120
370
     5
100
AcDbLine
 10
133.6190428088935
 20
264.1015176454029
 30
0.0
 11
706.6190428088942
 21
264.1015176454029
 31
0.0
  0
LINE
  5
206
330
1F
100
AcDbEntity
  8
0-0
  6
JWW_DASHED1
 62
   120
370
     5
100
AcDbLine
 10
133.6190428088935
 20
277.1015176465025
 30
0.0
 11
706.6190428088942
 21
277.1015176465025
 31
0.0
  0
LINE
  5
207
330
1F
100
AcDbEntity
  8
0-0
  6
JWW_DASHED1
 62
   120
370
     5
100
AcDbLine
 10
133.6190428088935
 20
278.1015176464027
 30
0.0
 11
706.6190428088942
 21
278.1015176464027
 31
0.0
  0
LINE
  5
208
330
1F
100
AcDbEntity
  8
0-0
  6
JWW_DASHED1
 62
   120
370
     5
100
AcDbLine
 10
133.6190428088935
 20
291.1015176475023
 30
0.0
 11
706.6190428088942
 21
291.1015176475023
 31
0.0
  0
LINE
  5
209
330
1F
100
AcDbEntity
  8
0-0
  6
JWW_DASHED1
 62
   120
370
     5
100
AcDbLine
 10
133.6190428088935
 20
292.1015176474025
 30
0.0
 11
706.6190428088942
 21
292.1015176474025
 31
0.0
  0
LINE
  5
20A
330
1F
100
AcDbEntity
  8
0-0
  6
JWW_DASHED1
 62
   120
370
     5
100
AcDbLine
 10
133.6190428088935
 20
305.1015176485021
 30
0.0
 11
706.6190428088942
 21
305.1015176485021
 31
0.0
  0
LINE
  5
20B
330
1F
100
AcDbEntity
  8
0-0
  6
JWW_DASHED1
 62
   120
370
     5
100
AcDbLine
 10
133.6190428088935
 20
306.1015176484023
 30
0.0
 11
706.6190428088942
 21
306.1015176484023
 31
0.0
  0
LINE
  5
20C
330
1F
100
AcDbEntity
  8
0-0
  6
JWW_DASHED1
 62
   120
370
     5
100
AcDbLine
 10
133.6190428088935
 20
319.1015176495018
 30
0.0
 11
706.6190428088942
 21
319.1015176495018
 31
0.0
  0
LINE
  5
20D
330
1F
100
AcDbEntity
  8
0-0
  6
JWW_DASHED1
 62
   120
370
     5
100
AcDbLine
 10
133.6190428088935
 20
320.101517649402
 30
0.0
 11
706.6190428088942
 21
320.101517649402
 31
0.0
  0
LINE
  5
20E
330
1F
100
AcDbEntity
  8
0-0
  6
JWW_DASHED1
 62
   120
370
     5
100
AcDbLine
 10
133.6190428088935
 20
333.1015176505016
 30
0.0
 11
706.6190428088942
 21
333.1015176505016
 31
0.0
  0
LINE
  5
20F
330
1F
100
AcDbEntity
  8
0-0
  6
JWW_DASHED1
 62
   120
370
     5
100
AcDbLine
 10
133.6190428088935
 20
334.1015176504018
 30
0.0
 11
706.6190428088942
 21
334.1015176504018
 31
0.0
  0
LINE
  5
210
330
1F
100
AcDbEntity
  8
0-0
  6
JWW_DASHED1
 62
   120
370
     5
100
AcDbLine
 10
133.6190428088935
 20
347.1015176515015
 30
0.0
 11
706.6190428088942
 21
347.1015176515015
 31
0.0
  0
LINE
  5
211
330
1F
100
AcDbEntity
  8
0-0
  6
JWW_DASHED1
 62
   120
370
     5
100
AcDbLine
 10
133.6190428088935
 20
348.1015176514017
 30
0.0
 11
706.6190428088942
 21
348.1015176514017
 31
0.0
  0
LINE
  5
212
330
1F
100
AcDbEntity
  8
0-0
  6
JWW_DASHED1
 62
   120
370
     5
100
AcDbLine
 10
133.6190428088935
 20
361.1015176525012
 30
0.0
 11
706.6190428088942
 21
361.1015176525012
 31
0.0
  0
LINE
  5
213
330
1F
100
AcDbEntity
  8
0-0
  6
JWW_DASHED1
 62
   120
370
     5
100
AcDbLine
 10
133.6190428088935
 20
362.1015176524014
 30
0.0
 11
706.6190428088942
 21
362.1015176524014
 31
0.0
  0
LINE
  5
214
330
1F
100
AcDbEntity
  8
0-0
  6
JWW_DASHED1
 62
   120
370
     5
100
AcDbLine
 10
133.6190428088935
 20
375.101517653501
 30
0.0
 11
706.6190428088942
 21
375.101517653501
 31
0.0
  0
LINE
  5
215
330
1F
100
AcDbEntity
  8
0-0
  6
JWW_DASHED1
 62
   120
370
     5
100
AcDbLine
 10
133.6190428088935
 20
376.1015176534012
 30
0.0
 11
706.6190428088942
 21
376.1015176534012
 31
0.0
  0
LINE
  5
216
330
1F
100
AcDbEntity
  8
0-0
  6
JWW_DASHED1
 62
   120
370
     5
100
AcDbLine
 10
133.6190428088935
 20
389.1015176545008
 30
0.0
 11
706.6190428088942
 21
389.1015176545008
 31
0.0
  0
LINE
  5
217
330
1F
100
AcDbEntity
  8
0-0
  6
JWW_DASHED1
 62
   120
370
     5
100
AcDbLine
 10
133.6190428088935
 20
390.101517654401
 30
0.0
 11
706.6190428088942
 21
390.101517654401
 31
0.0
  0
LINE
  5
218
330
1F
100
AcDbEntity
  8
0-0
  6
JWW_DASHED1
 62
   120
370
     5
100
AcDbLine
 10
133.6190428088935
 20
403.1015176555006
 30
0.0
 11
706.6190428088942
 21
403.1015176555006
 31
0.0
  0
LINE
  5
219
330
1F
100
AcDbEntity
  8
0-0
  6
JWW_DASHED1
 62
   120
370
     5
100
AcDbLine
 10
133.6190428088935
 20
404.1015176554008
 30
0.0
 11
706.6190428088942
 21
404.1015176554008
 31
0.0
  0
LINE
  5
21A
330
1F
100
AcDbEntity
  8
0-0
  6
JWW_DASHED1
 62
   120
370
     5
100
AcDbLine
 10
133.6190428088935
 20
417.1015176565004
 30
0.0
 11
706.6190428088942
 21
417.1015176565004
 31
0.0
  0
LINE
  5
21B
330
1F
100
AcDbEntity
  8
0-0
  6
JWW_DASHED1
 62
   120
370
     5
100
AcDbLine
 10
133.6190428088935
 20
418.1015176564006
 30
0.0
 11
706.6190428088942
 21
418.1015176564006
 31
0.0
  0
LINE
  5
21C
330
1F
100
AcDbEntity
  8
0-0
  6
JWW_DASHED1
 62
   120
370
     5
100
AcDbLine
 10
133.6190428088935
 20
431.1015176575002
 30
0.0
 11
706.6190428088942
 21
431.1015176575002
 31
0.0
  0
LINE
  5
21D
330
1F
100
AcDbEntity
  8
0-0
  6
JWW_DASHED1
 62
   120
370
     5
100
AcDbLine
 10
133.6190428088935
 20
432.1015176574003
 30
0.0
 11
706.6190428088942
 21
432.1015176574003
 31
0.0
  0
LINE
  5
21E
330
1F
100
AcDbEntity
  8
0-0
  6
JWW_DASHED1
 62
   120
370
     5
100
AcDbLine
 10
133.6190428088935
 20
445.1015176585
 30
0.0
 11
706.6190428088942
 21
445.1015176585
 31
0.0
  0
LINE
  5
21F
330
1F
100
AcDbEntity
  8
0-0
  6
JWW_DASHED1
 62
   120
370
     5
100
AcDbLine
 10
133.6190428088935
 20
446.1015176584002
 30
0.0
 11
706.6190428088942
 21
446.1015176584002
 31
0.0
  0
LINE
  5
220
330
1F
100
AcDbEntity
  8
0-0
  6
JWW_DASHED1
 62
   120
370
     5
100
AcDbLine
 10
133.6190428088935
 20
459.1015176594998
 30
0.0
 11
706.6190428088942
 21
459.1015176594998
 31
0.0
  0
LINE
  5
221
330
1F
100
AcDbEntity
  8
0-0
  6
JWW_DASHED1
 62
   120
370
     5
100
AcDbLine
 10
133.6190428088935
 20
460.1015176594
 30
0.0
 11
706.6190428088942
 21
460.1015176594
 31
0.0
  0
LINE
  5
222
330
1F
100
AcDbEntity
  8
0-0
  6
JWW_DASHED1
 62
   120
370
     5
100
AcDbLine
 10
133.6190428088935
 20
473.1015176604996
 30
0.0
 11
706.6190428088942
 21
473.1015176604996
 31
0.0
  0
LINE
  5
223
330
1F
100
AcDbEntity
  8
0-0
  6
JWW_DASHED1
 62
   120
370
     5
100
AcDbLine
 10
133.6190428088935
 20
474.1015176603997
 30
0.0
 11
706.6190428088942
 21
474.1015176603997
 31
0.0
  0
LINE
  5
224
330
1F
100
AcDbEntity
  8
0-0
  6
JWW_DASHED1
 62
   120
370
     5
100
AcDbLine
 10
133.6190428088935
 20
487.1015176614993
 30
0.0
 11
706.6190428088942
 21
487.1015176614993
 31
0.0
  0
LINE
  5
225
330
1F
100
AcDbEntity
  8
0-0
  6
JWW_DASHED1
 62
   120
370
     5
100
AcDbLine
 10
133.6190428088935
 20
488.1015176613995
 30
0.0
 11
706.6190428088942
 21
488.1015176613995
 31
0.0
  0
LINE
  5
226
330
1F
100
AcDbEntity
  8
0-0
  6
JWW_DASHED1
 62
   120
370
     5
100
AcDbLine
 10
133.6190428088935
 20
501.1015176624991
 30
0.0
 11
706.6190428088942
 21
501.1015176624991
 31
0.0
  0
LINE
  5
227
330
1F
100
AcDbEntity
  8
0-0
  6
JWW_DASHED1
 62
   120
370
     5
100
AcDbLine
 10
133.6190428088935
 20
502.1015176623993
 30
0.0
 11
706.6190428088942
 21
502.1015176623993
 31
0.0
  0
LINE
  5
228
330
1F
100
AcDbEntity
  8
0-0
  6
JWW_DASHED1
 62
   120
370
     5
100
AcDbLine
 10
133.6190428088935
 20
515.101517663499
 30
0.0
 11
706.6190428088942
 21
515.101517663499
 31
0.0
  0
LINE
  5
229
330
1F
100
AcDbEntity
  8
0-0
  6
JWW_DASHED1
 62
   120
370
     5
100
AcDbLine
 10
133.6190428088935
 20
516.1015176633991
 30
0.0
 11
706.6190428088942
 21
516.1015176633991
 31
0.0
  0
LINE
  5
22A
330
1F
100
AcDbEntity
  8
0-0
  6
JWW_DASHED1
 62
   120
370
     5
100
AcDbLine
 10
133.6190428088935
 20
529.1015176644987
 30
0.0
 11
706.6190428088942
 21
529.1015176644987
 31
0.0
  0
LINE
  5
22B
330
1F
100
AcDbEntity
  8
0-0
  6
JWW_DASHED1
 62
   120
370
     5
100
AcDbLine
 10
133.6190428088935
 20
530.1015176643989
 30
0.0
 11
706.6190428088942
 21
530.1015176643989
 31
0.0
  0
LINE
  5
22C
330
1F
100
AcDbEntity
  8
0-0
  6
JWW_DASHED1
 62
   120
370
     5
100
AcDbLine
 10
133.6190428088935
 20
543.1015176654985
 30
0.0
 11
706.6190428088942
 21
543.1015176654985
 31
0.0
  0
LINE
  5
22D
330
1F
100
AcDbEntity
  8
0-0
  6
JWW_DASHED1
 62
   120
370
     5
100
AcDbLine
 10
133.6190428088935
 20
544.1015176653987
 30
0.0
 11
706.6190428088942
 21
544.1015176653987
 31
0.0
  0
LINE
  5
22E
330
1F
100
AcDbEntity
  8
0-0
  6
JWW_DASHED1
 62
   120
370
     5
100
AcDbLine
 10
133.6190428088935
 20
557.1015176664982
 30
0.0
 11
706.6190428088942
 21
557.1015176664982
 31
0.0
  0
LINE
  5
22F
330
1F
100
AcDbEntity
  8
0-0
  6
JWW_DASHED1
 62
   120
370
     5
100
AcDbLine
 10
133.6190428088935
 20
558.1015176663984
 30
0.0
 11
706.6190428088942
 21
558.1015176663984
 31
0.0
  0
LINE
  5
230
330
1F
100
AcDbEntity
  8
0-0
  6
JWW_DASHED1
 62
   120
370
     5
100
AcDbLine
 10
133.6190428088935
 20
571.1015176674981
 30
0.0
 11
706.6190428088942
 21
571.1015176674981
 31
0.0
  0
LINE
  5
231
330
1F
100
AcDbEntity
  8
0-0
  6
JWW_DASHED1
 62
   120
370
     5
100
AcDbLine
 10
133.6190428088935
 20
572.1015176673983
 30
0.0
 11
706.6190428088942
 21
572.1015176673983
 31
0.0
  0
LINE
  5
232
330
1F
100
AcDbEntity
  8
0-0
  6
JWW_DASHED1
 62
   120
370
     5
100
AcDbLine
 10
133.6190428088935
 20
585.1015176684979
 30
0.0
 11
706.6190428088942
 21
585.1015176684979
 31
0.0
  0
LINE
  5
233
330
1F
100
AcDbEntity
  8
0-0
  6
JWW_DASHED1
 62
   120
370
     5
100
AcDbLine
 10
133.6190428088935
 20
586.1015176683981
 30
0.0
 11
706.6190428088942
 21
586.1015176683981
 31
0.0
  0
LINE
  5
234
330
1F
100
AcDbEntity
  8
0-0
  6
JWW_DASHED1
 62
   120
370
     5
100
AcDbLine
 10
133.6190428088935
 20
599.1015176694976
 30
0.0
 11
706.6190428088942
 21
599.1015176694976
 31
0.0
  0
LINE
  5
235
330
1F
100
AcDbEntity
  8
0-0
  6
JWW_DASHED1
 62
   120
370
     5
100
AcDbLine
 10
133.6190428088935
 20
600.1015176693978
 30
0.0
 11
706.6190428088942
 21
600.1015176693978
 31
0.0
  0
LINE
  5
236
330
1F
100
AcDbEntity
  8
0-0
  6
JWW_DASHED1
 62
   120
370
     5
100
AcDbLine
 10
133.6190428088935
 20
613.1015176704975
 30
0.0
 11
706.6190428088942
 21
613.1015176704975
 31
0.0
  0
LINE
  5
237
330
1F
100
AcDbEntity
  8
0-0
  6
JWW_DASHED1
 62
   120
370
     5
100
AcDbLine
 10
133.6190428088935
 20
614.1015176703977
 30
0.0
 11
706.6190428088942
 21
614.1015176703977
 31
0.0
  0
LINE
  5
238
330
1F
100
AcDbEntity
  8
0-0
  6
JWW_DASHED1
 62
   120
370
     5
100
AcDbLine
 10
133.6190428088935
 20
627.1015176714973
 30
0.0
 11
706.6190428088942
 21
627.1015176714973
 31
0.0
  0
LINE
  5
239
330
1F
100
AcDbEntity
  8
0-0
  6
JWW_DASHED1
 62
   120
370
     5
100
AcDbLine
 10
133.6190428088935
 20
628.1015176713975
 30
0.0
 11
706.6190428088942
 21
628.1015176713975
 31
0.0
  0
LINE
  5
23A
330
1F
100
AcDbEntity
  8
0-0
  6
JWW_DASHED1
 62
   120
370
     5
100
AcDbLine
 10
133.6190428088935
 20
641.101517672497
 30
0.0
 11
706.6190428088942
 21
641.101517672497
 31
0.0
  0
LINE
  5
23B
330
1F
100
AcDbEntity
  8
0-0
  6
JWW_DASHED1
 62
   120
370
     5
100
AcDbLine
 10
133.6190428088935
 20
642.101517672397
 30
0.0
 11
706.6190428088942
 21
642.101517672397
 31
0.0
  0
LINE
  5
23C
330
1F
100
AcDbEntity
  8
0-0
  6
JWW_DASHED1
 62
   120
370
     5
100
AcDbLine
 10
133.6190428088935
 20
655.1015176734968
 30
0.0
 11
706.6190428088942
 21
655.1015176734968
 31
0.0
  0
LINE
  5
23D
330
1F
100
AcDbEntity
  8
0-0
  6
JWW_DASHED1
 62
   120
370
     5
100
AcDbLine
 10
133.6190428088935
 20
656.101517673397
 30
0.0
 11
706.6190428088942
 21
656.101517673397
 31
0.0
  0
LINE
  5
23E
330
1F
100
AcDbEntity
  8
0-0
  6
JWW_DASHED1
 62
   120
370
     5
100
AcDbLine
 10
133.6190428088935
 20
669.1015176744966
 30
0.0
 11
706.6190428088942
 21
669.1015176744966
 31
0.0
  0
LINE
  5
23F
330
1F
100
AcDbEntity
  8
0-0
  6
JWW_DASHED1
 62
   120
370
     5
100
AcDbLine
 10
133.6190428088935
 20
670.1015176743967
 30
0.0
 11
706.6190428088942
 21
670.1015176743967
 31
0.0
  0
LINE
  5
240
330
1F
100
AcDbEntity
  8
0-0
  6
JWW_DASHED1
 62
   120
370
     5
100
AcDbLine
 10
139.6190612669253
 20
-436.8983340906431
 30
0.0
 11
139.6190612669253
 21
738.101665909357
 31
0.0
  0
LINE
  5
241
330
1F
100
AcDbEntity
  8
0-0
  6
JWW_DASHED1
 62
   120
370
     5
100
AcDbLine
 10
672.6190613048255
 20
-436.8983340906431
 30
0.0
 11
672.6190613048255
 21
738.101665909357
 31
0.0
  0
LINE
  5
242
330
1F
100
AcDbEntity
  8
0-0
  6
JWW_DASHED1
 62
   120
370
     5
100
AcDbLine
 10
671.6190613049254
 20
-436.8983340906431
 30
0.0
 11
671.6190613049258
 21
738.101665909357
 31
0.0
  0
LINE
  5
243
330
1F
100
AcDbEntity
  8
0-0
  6
JWW_DASHED1
 62
   120
370
     5
100
AcDbLine
 10
658.6190613038253
 20
-436.8983340906431
 30
0.0
 11
658.6190613038258
 21
738.101665909357
 31
0.0
  0
LINE
  5
244
330
1F
100
AcDbEntity
  8
0-0
  6
JWW_DASHED1
 62
   120
370
     5
100
AcDbLine
 10
657.6190613039256
 20
-436.8983340906431
 30
0.0
 11
657.6190613039256
 21
738.101665909357
 31
0.0
  0
LINE
  5
245
330
1F
100
AcDbEntity
  8
0-0
  6
JWW_DASHED1
 62
   120
370
     5
100
AcDbLine
 10
644.6190613028251
 20
-436.8983340906431
 30
0.0
 11
644.6190613028251
 21
738.101665909357
 31
0.0
  0
LINE
  5
246
330
1F
100
AcDbEntity
  8
0-0
  6
JWW_DASHED1
 62
   120
370
     5
100
AcDbLine
 10
643.6190613029254
 20
-436.8983340906431
 30
0.0
 11
643.6190613029254
 21
738.101665909357
 31
0.0
  0
LINE
  5
247
330
1F
100
AcDbEntity
  8
0-0
  6
JWW_DASHED1
 62
   120
370
     5
100
AcDbLine
 10
630.6190613018254
 20
-436.8983340906431
 30
0.0
 11
630.6190613018254
 21
738.101665909357
 31
0.0
  0
LINE
  5
248
330
1F
100
AcDbEntity
  8
0-0
  6
JWW_DASHED1
 62
   120
370
     5
100
AcDbLine
 10
629.6190613019252
 20
-436.8983340906431
 30
0.0
 11
629.6190613019252
 21
738.101665909357
 31
0.0
  0
LINE
  5
249
330
1F
100
AcDbEntity
  8
0-0
  6
JWW_DASHED1
 62
   120
370
     5
100
AcDbLine
 10
616.6190613008251
 20
-436.8983340906431
 30
0.0
 11
616.6190613008251
 21
738.101665909357
 31
0.0
  0
LINE
  5
24A
330
1F
100
AcDbEntity
  8
0-0
  6
JWW_DASHED1
 62
   120
370
     5
100
AcDbLine
 10
615.6190613009254
 20
-436.8983340906431
 30
0.0
 11
615.6190613009258
 21
738.101665909357
 31
0.0
  0
LINE
  5
24B
330
1F
100
AcDbEntity
  8
0-0
  6
JWW_DASHED1
 62
   120
370
     5
100
AcDbLine
 10
602.6190612998254
 20
-436.8983340906431
 30
0.0
 11
602.6190612998257
 21
738.101665909357
 31
0.0
  0
LINE
  5
24C
330
1F
100
AcDbEntity
  8
0-0
  6
JWW_DASHED1
 62
   120
370
     5
100
AcDbLine
 10
601.6190612999255
 20
-436.8983340906431
 30
0.0
 11
601.6190612999255
 21
738.101665909357
 31
0.0
  0
LINE
  5
24D
330
1F
100
AcDbEntity
  8
0-0
  6
JWW_DASHED1
 62
   120
370
     5
100
AcDbLine
 10
588.6190612988255
 20
-436.8983340906431
 30
0.0
 11
588.6190612988255
 21
738.101665909357
 31
0.0
  0
LINE
  5
24E
330
1F
100
AcDbEntity
  8
0-0
  6
JWW_DASHED1
 62
   120
370
     5
100
AcDbLine
 10
587.6190612989253
 20
-436.8983340906431
 30
0.0
 11
587.6190612989253
 21
738.101665909357
 31
0.0
  0
LINE
  5
24F
330
1F
100
AcDbEntity
  8
0-0
  6
JWW_DASHED1
 62
   120
370
     5
100
AcDbLine
 10
574.6190612978257
 20
-436.8983340906431
 30
0.0
 11
574.6190612978257
 21
738.101665909357
 31
0.0
  0
LINE
  5
250
330
1F
100
AcDbEntity
  8
0-0
  6
JWW_DASHED1
 62
   120
370
     5
100
AcDbLine
 10
573.6190612979256
 20
-436.8983340906431
 30
0.0
 11
573.6190612979256
 21
738.101665909357
 31
0.0
  0
LINE
  5
251
330
1F
100
AcDbEntity
  8
0-0
  6
JWW_DASHED1
 62
   120
370
     5
100
AcDbLine
 10
560.619061296826
 20
-436.8983340906431
 30
0.0
 11
560.619061296826
 21
738.101665909357
 31
0.0
  0
LINE
  5
252
330
1F
100
AcDbEntity
  8
0-0
  6
JWW_DASHED1
 62
   120
370
     5
100
AcDbLine
 10
559.6190612969258
 20
-436.8983340906431
 30
0.0
 11
559.6190612969258
 21
738.101665909357
 31
0.0
  0
LINE
  5
253
330
1F
100
AcDbEntity
  8
0-0
  6
JWW_DASHED1
 62
   120
370
     5
100
AcDbLine
 10
546.6190612958258
 20
-436.8983340906431
 30
0.0
 11
546.6190612958258
 21
738.101665909357
 31
0.0
  0
LINE
  5
254
330
1F
100
AcDbEntity
  8
0-0
  6
JWW_DASHED1
 62
   120
370
     5
100
AcDbLine
 10
545.6190612959256
 20
-436.8983340906431
 30
0.0
 11
545.6190612959256
 21
738.101665909357
 31
0.0
  0
LINE
  5
255
330
1F
100
AcDbEntity
  8
0-0
  6
JWW_DASHED1
 62
   120
370
     5
100
AcDbLine
 10
532.6190612948255
 20
-436.8983340906431
 30
0.0
 11
532.6190612948255
 21
738.101665909357
 31
0.0
  0
LINE
  5
256
330
1F
100
AcDbEntity
  8
0-0
  6
JWW_DASHED1
 62
   120
370
     5
100
AcDbLine
 10
531.6190612949254
 20
-436.8983340906431
 30
0.0
 11
531.6190612949254
 21
738.101665909357
 31
0.0
  0
LINE
  5
257
330
1F
100
AcDbEntity
  8
0-0
  6
JWW_DASHED1
 62
   120
370
     5
100
AcDbLine
 10
518.6190612938258
 20
-436.8983340906431
 30
0.0
 11
518.6190612938258
 21
738.101665909357
 31
0.0
  0
LINE
  5
258
330
1F
100
AcDbEntity
  8
0-0
  6
JWW_DASHED1
 62
   120
370
     5
100
AcDbLine
 10
517.6190612939256
 20
-436.8983340906431
 30
0.0
 11
517.6190612939256
 21
738.101665909357
 31
0.0
  0
LINE
  5
259
330
1F
100
AcDbEntity
  8
0-0
  6
JWW_DASHED1
 62
   120
370
     5
100
AcDbLine
 10
504.619061292826
 20
-436.8983340906431
 30
0.0
 11
504.619061292826
 21
738.101665909357
 31
0.0
  0
LINE
  5
25A
330
1F
100
AcDbEntity
  8
0-0
  6
JWW_DASHED1
 62
   120
370
     5
100
AcDbLine
 10
503.6190612929258
 20
-436.8983340906431
 30
0.0
 11
503.6190612929258
 21
738.101665909357
 31
0.0
  0
LINE
  5
25B
330
1F
100
AcDbEntity
  8
0-0
  6
JWW_DASHED1
 62
   120
370
     5
100
AcDbLine
 10
490.6190612918257
 20
-436.8983340906431
 30
0.0
 11
490.6190612918257
 21
738.101665909357
 31
0.0
  0
LINE
  5
25C
330
1F
100
AcDbEntity
  8
0-0
  6
JWW_DASHED1
 62
   120
370
     5
100
AcDbLine
 10
489.6190612919256
 20
-436.8983340906431
 30
0.0
 11
489.6190612919256
 21
738.101665909357
 31
0.0
  0
LINE
  5
25D
330
1F
100
AcDbEntity
  8
0-0
  6
JWW_DASHED1
 62
   120
370
     5
100
AcDbLine
 10
476.6190612908255
 20
-436.8983340906431
 30
0.0
 11
476.6190612908255
 21
738.101665909357
 31
0.0
  0
LINE
  5
25E
330
1F
100
AcDbEntity
  8
0-0
  6
JWW_DASHED1
 62
   120
370
     5
100
AcDbLine
 10
475.6190612909253
 20
-436.8983340906431
 30
0.0
 11
475.6190612909253
 21
738.101665909357
 31
0.0
  0
LINE
  5
25F
330
1F
100
AcDbEntity
  8
0-0
  6
JWW_DASHED1
 62
   120
370
     5
100
AcDbLine
 10
462.6190612898257
 20
-436.8983340906431
 30
0.0
 11
462.6190612898257
 21
738.101665909357
 31
0.0
  0
LINE
  5
260
330
1F
100
AcDbEntity
  8
0-0
  6
JWW_DASHED1
 62
   120
370
     5
100
AcDbLine
 10
461.6190612899255
 20
-436.8983340906431
 30
0.0
 11
461.6190612899255
 21
738.101665909357
 31
0.0
  0
LINE
  5
261
330
1F
100
AcDbEntity
  8
0-0
  6
JWW_DASHED1
 62
   120
370
     5
100
AcDbLine
 10
448.6190612888259
 20
-436.8983340906431
 30
0.0
 11
448.6190612888259
 21
738.101665909357
 31
0.0
  0
LINE
  5
262
330
1F
100
AcDbEntity
  8
0-0
  6
JWW_DASHED1
 62
   120
370
     5
100
AcDbLine
 10
447.6190612889253
 20
-436.8983340906431
 30
0.0
 11
447.6190612889253
 21
738.101665909357
 31
0.0
  0
LINE
  5
263
330
1F
100
AcDbEntity
  8
0-0
  6
JWW_DASHED1
 62
   120
370
     5
100
AcDbLine
 10
434.6190612878257
 20
-436.8983340906431
 30
0.0
 11
434.6190612878257
 21
738.101665909357
 31
0.0
  0
LINE
  5
264
330
1F
100
AcDbEntity
  8
0-0
  6
JWW_DASHED1
 62
   120
370
     5
100
AcDbLine
 10
433.6190612879255
 20
-436.8983340906431
 30
0.0
 11
433.6190612879255
 21
738.101665909357
 31
0.0
  0
LINE
  5
265
330
1F
100
AcDbEntity
  8
0-0
  6
JWW_DASHED1
 62
   120
370
     5
100
AcDbLine
 10
420.6190612868255
 20
-436.8983340906431
 30
0.0
 11
420.6190612868255
 21
738.101665909357
 31
0.0
  0
LINE
  5
266
330
1F
100
AcDbEntity
  8
0-0
  6
JWW_DASHED1
 62
   120
370
     5
100
AcDbLine
 10
419.6190612869253
 20
-436.8983340906431
 30
0.0
 11
419.6190612869253
 21
738.101665909357
 31
0.0
  0
LINE
  5
267
330
1F
100
AcDbEntity
  8
0-0
  6
JWW_DASHED1
 62
   120
370
     5
100
AcDbLine
 10
406.6190612858253
 20
-436.8983340906431
 30
0.0
 11
406.6190612858253
 21
738.101665909357
 31
0.0
  0
LINE
  5
268
330
1F
100
AcDbEntity
  8
0-0
  6
JWW_DASHED1
 62
   120
370
     5
100
AcDbLine
 10
405.6190612859256
 20
-436.8983340906431
 30
0.0
 11
405.6190612859256
 21
738.101665909357
 31
0.0
  0
LINE
  5
269
330
1F
100
AcDbEntity
  8
0-0
  6
JWW_DASHED1
 62
   120
370
     5
100
AcDbLine
 10
392.6190612848259
 20
-436.8983340906431
 30
0.0
 11
392.6190612848259
 21
738.101665909357
 31
0.0
  0
LINE
  5
26A
330
1F
100
AcDbEntity
  8
0-0
  6
JWW_DASHED1
 62
   120
370
     5
100
AcDbLine
 10
391.6190612849257
 20
-436.8983340906431
 30
0.0
 11
391.6190612849257
 21
738.101665909357
 31
0.0
  0
LINE
  5
26B
330
1F
100
AcDbEntity
  8
0-0
  6
JWW_DASHED1
 62
   120
370
     5
100
AcDbLine
 10
378.6190612838257
 20
-436.8983340906431
 30
0.0
 11
378.6190612838257
 21
738.101665909357
 31
0.0
  0
LINE
  5
26C
330
1F
100
AcDbEntity
  8
0-0
  6
JWW_DASHED1
 62
   120
370
     5
100
AcDbLine
 10
377.6190612839255
 20
-436.8983340906431
 30
0.0
 11
377.6190612839255
 21
738.101665909357
 31
0.0
  0
LINE
  5
26D
330
1F
100
AcDbEntity
  8
0-0
  6
JWW_DASHED1
 62
   120
370
     5
100
AcDbLine
 10
364.6190612828255
 20
-436.8983340906431
 30
0.0
 11
364.6190612828255
 21
738.101665909357
 31
0.0
  0
LINE
  5
26E
330
1F
100
AcDbEntity
  8
0-0
  6
JWW_DASHED1
 62
   120
370
     5
100
AcDbLine
 10
363.6190612829253
 20
-436.8983340906431
 30
0.0
 11
363.6190612829253
 21
738.101665909357
 31
0.0
  0
LINE
  5
26F
330
1F
100
AcDbEntity
  8
0-0
  6
JWW_DASHED1
 62
   120
370
     5
100
AcDbLine
 10
350.6190612818257
 20
-436.8983340906431
 30
0.0
 11
350.6190612818257
 21
738.101665909357
 31
0.0
  0
LINE
  5
270
330
1F
100
AcDbEntity
  8
0-0
  6
JWW_DASHED1
 62
   120
370
     5
100
AcDbLine
 10
349.6190612819255
 20
-436.8983340906431
 30
0.0
 11
349.6190612819255
 21
738.101665909357
 31
0.0
  0
LINE
  5
271
330
1F
100
AcDbEntity
  8
0-0
  6
JWW_DASHED1
 62
   120
370
     5
100
AcDbLine
 10
336.6190612808259
 20
-436.8983340906431
 30
0.0
 11
336.6190612808259
 21
738.101665909357
 31
0.0
  0
LINE
  5
272
330
1F
100
AcDbEntity
  8
0-0
  6
JWW_DASHED1
 62
   120
370
     5
100
AcDbLine
 10
335.6190612809257
 20
-436.8983340906431
 30
0.0
 11
335.6190612809257
 21
738.101665909357
 31
0.0
  0
LINE
  5
273
330
1F
100
AcDbEntity
  8
0-0
  6
JWW_DASHED1
 62
   120
370
     5
100
AcDbLine
 10
322.6190612798257
 20
-436.8983340906431
 30
0.0
 11
322.6190612798257
 21
738.101665909357
 31
0.0
  0
LINE
  5
274
330
1F
100
AcDbEntity
  8
0-0
  6
JWW_DASHED1
 62
   120
370
     5
100
AcDbLine
 10
321.6190612799255
 20
-436.8983340906431
 30
0.0
 11
321.6190612799255
 21
738.101665909357
 31
0.0
  0
LINE
  5
275
330
1F
100
AcDbEntity
  8
0-0
  6
JWW_DASHED1
 62
   120
370
     5
100
AcDbLine
 10
308.6190612788255
 20
-436.8983340906431
 30
0.0
 11
308.6190612788255
 21
738.101665909357
 31
0.0
  0
LINE
  5
276
330
1F
100
AcDbEntity
  8
0-0
  6
JWW_DASHED1
 62
   120
370
     5
100
AcDbLine
 10
307.6190612789253
 20
-436.8983340906431
 30
0.0
 11
307.6190612789253
 21
738.101665909357
 31
0.0
  0
LINE
  5
277
330
1F
100
AcDbEntity
  8
0-0
  6
JWW_DASHED1
 62
   120
370
     5
100
AcDbLine
 10
294.6190612778257
 20
-436.8983340906431
 30
0.0
 11
294.6190612778257
 21
738.101665909357
 31
0.0
  0
LINE
  5
278
330
1F
100
AcDbEntity
  8
0-0
  6
JWW_DASHED1
 62
   120
370
     5
100
AcDbLine
 10
293.6190612779255
 20
-436.8983340906431
 30
0.0
 11
293.6190612779255
 21
738.101665909357
 31
0.0
  0
LINE
  5
279
330
1F
100
AcDbEntity
  8
0-0
  6
JWW_DASHED1
 62
   120
370
     5
100
AcDbLine
 10
280.6190612768259
 20
-436.8983340906431
 30
0.0
 11
280.6190612768259
 21
738.101665909357
 31
0.0
  0
LINE
  5
27A
330
1F
100
AcDbEntity
  8
0-0
  6
JWW_DASHED1
 62
   120
370
     5
100
AcDbLine
 10
279.6190612769257
 20
-436.8983340906431
 30
0.0
 11
279.6190612769257
 21
738.101665909357
 31
0.0
  0
LINE
  5
27B
330
1F
100
AcDbEntity
  8
0-0
  6
JWW_DASHED1
 62
   120
370
     5
100
AcDbLine
 10
266.6190612758257
 20
-436.8983340906431
 30
0.0
 11
266.6190612758257
 21
738.101665909357
 31
0.0
  0
LINE
  5
27C
330
1F
100
AcDbEntity
  8
0-0
  6
JWW_DASHED1
 62
   120
370
     5
100
AcDbLine
 10
265.6190612759255
 20
-436.8983340906431
 30
0.0
 11
265.6190612759255
 21
738.101665909357
 31
0.0
  0
LINE
  5
27D
330
1F
100
AcDbEntity
  8
0-0
  6
JWW_DASHED1
 62
   120
370
     5
100
AcDbLine
 10
252.6190612748255
 20
-436.8983340906431
 30
0.0
 11
252.6190612748255
 21
738.101665909357
 31
0.0
  0
LINE
  5
27E
330
1F
100
AcDbEntity
  8
0-0
  6
JWW_DASHED1
 62
   120
370
     5
100
AcDbLine
 10
251.6190612749253
 20
-436.8983340906431
 30
0.0
 11
251.6190612749253
 21
738.101665909357
 31
0.0
  0
LINE
  5
27F
330
1F
100
AcDbEntity
  8
0-0
  6
JWW_DASHED1
 62
   120
370
     5
100
AcDbLine
 10
238.6190612738261
 20
-436.8983340906431
 30
0.0
 11
238.6190612738261
 21
738.101665909357
 31
0.0
  0
LINE
  5
280
330
1F
100
AcDbEntity
  8
0-0
  6
JWW_DASHED1
 62
   120
370
     5
100
AcDbLine
 10
237.6190612739259
 20
-436.8983340906431
 30
0.0
 11
237.6190612739259
 21
738.101665909357
 31
0.0
  0
LINE
  5
281
330
1F
100
AcDbEntity
  8
0-0
  6
JWW_DASHED1
 62
   120
370
     5
100
AcDbLine
 10
224.6190612728259
 20
-436.8983340906431
 30
0.0
 11
224.6190612728259
 21
738.101665909357
 31
0.0
  0
LINE
  5
282
330
1F
100
AcDbEntity
  8
0-0
  6
JWW_DASHED1
 62
   120
370
     5
100
AcDbLine
 10
223.6190612729257
 20
-436.8983340906431
 30
0.0
 11
223.6190612729257
 21
738.101665909357
 31
0.0
  0
LINE
  5
283
330
1F
100
AcDbEntity
  8
0-0
  6
JWW_DASHED1
 62
   120
370
     5
100
AcDbLine
 10
210.6190612718257
 20
-436.8983340906431
 30
0.0
 11
210.6190612718257
 21
738.101665909357
 31
0.0
  0
LINE
  5
284
330
1F
100
AcDbEntity
  8
0-0
  6
JWW_DASHED1
 62
   120
370
     5
100
AcDbLine
 10
209.6190612719255
 20
-436.8983340906431
 30
0.0
 11
209.6190612719255
 21
738.101665909357
 31
0.0
  0
LINE
  5
285
330
1F
100
AcDbEntity
  8
0-0
  6
JWW_DASHED1
 62
   120
370
     5
100
AcDbLine
 10
196.6190612708255
 20
-436.8983340906431
 30
0.0
 11
196.6190612708255
 21
738.101665909357
 31
0.0
  0
LINE
  5
286
330
1F
100
AcDbEntity
  8
0-0
  6
JWW_DASHED1
 62
   120
370
     5
100
AcDbLine
 10
195.6190612709253
 20
-436.8983340906431
 30
0.0
 11
195.6190612709253
 21
738.101665909357
 31
0.0
  0
LINE
  5
287
330
1F
100
AcDbEntity
  8
0-0
  6
JWW_DASHED1
 62
   120
370
     5
100
AcDbLine
 10
182.6190612698252
 20
-436.8983340906431
 30
0.0
 11
182.6190612698252
 21
738.101665909357
 31
0.0
  0
LINE
  5
288
330
1F
100
AcDbEntity
  8
0-0
  6
JWW_DASHED1
 62
   120
370
     5
100
AcDbLine
 10
181.6190612699251
 20
-436.8983340906431
 30
0.0
 11
181.6190612699251
 21
738.101665909357
 31
0.0
  0
LINE
  5
289
330
1F
100
AcDbEntity
  8
0-0
  6
JWW_DASHED1
 62
   120
370
     5
100
AcDbLine
 10
168.6190612688259
 20
-436.8983340906431
 30
0.0
 11
168.6190612688259
 21
738.101665909357
 31
0.0
  0
LINE
  5
28A
330
1F
100
AcDbEntity
  8
0-0
  6
JWW_DASHED1
 62
   120
370
     5
100
AcDbLine
 10
167.6190612689257
 20
-436.8983340906431
 30
0.0
 11
167.6190612689257
 21
738.101665909357
 31
0.0
  0
LINE
  5
28B
330
1F
100
AcDbEntity
  8
0-0
  6
JWW_DASHED1
 62
   120
370
     5
100
AcDbLine
 10
154.6190612678257
 20
-436.8983340906431
 30
0.0
 11
154.6190612678257
 21
738.101665909357
 31
0.0
  0
LINE
  5
28C
330
1F
100
AcDbEntity
  8
0-0
  6
JWW_DASHED1
 62
   120
370
     5
100
AcDbLine
 10
153.6190612679255
 20
-436.8983340906431
 30
0.0
 11
153.6190612679255
 21
738.101665909357
 31
0.0
  0
LINE
  5
28D
330
1F
100
AcDbEntity
  8
0-0
  6
JWW_DASHED1
 62
   120
370
     5
100
AcDbLine
 10
140.6190612668254
 20
-436.8983340906431
 30
0.0
 11
140.6190612668254
 21
738.101665909357
 31
0.0
  0
LINE
  5
28E
330
1F
100
AcDbEntity
  8
0-0
  6
JWW_DASHED1
 62
   120
370
     5
100
AcDbLine
 10
700.6190613068256
 20
-436.8983340906431
 30
0.0
 11
700.6190613068256
 21
738.101665909357
 31
0.0
  0
LINE
  5
28F
330
1F
100
AcDbEntity
  8
0-0
  6
JWW_DASHED1
 62
   120
370
     5
100
AcDbLine
 10
685.6190613059256
 20
-436.8983340906431
 30
0.0
 11
685.6190613059256
 21
738.101665909357
 31
0.0
  0
LINE
  5
290
330
1F
100
AcDbEntity
  8
0-0
  6
JWW_DASHED1
 62
   120
370
     5
100
AcDbLine
 10
699.6190613069255
 20
-436.8983340906431
 30
0.0
 11
699.6190613069255
 21
738.101665909357
 31
0.0
  0
LINE
  5
291
330
1F
100
AcDbEntity
  8
0-0
  6
JWW_DASHED1
 62
   120
370
     5
100
AcDbLine
 10
686.6190613058254
 20
-436.8983340906431
 30
0.0
 11
686.6190613058254
 21
738.101665909357
 31
0.0
  0
LINE
  5
292
330
1F
100
AcDbEntity
  8
0-0
  6
JWW_DASHED1
 62
   120
370
     5
100
AcDbLine
 10
133.6190428088943
 20
726.101517678396
 30
0.0
 11
706.6190428088933
 21
726.101517678396
 31
0.0
  0
LINE
  5
293
330
1F
100
AcDbEntity
  8
0-0
  6
JWW_DASHED1
 62
   120
370
     5
100
AcDbLine
 10
133.6190428088943
 20
683.1015176754964
 30
0.0
 11
706.6190428088933
 21
683.1015176754964
 31
0.0
  0
LINE
  5
294
330
1F
100
AcDbEntity
  8
0-0
  6
JWW_DASHED1
 62
   120
370
     5
100
AcDbLine
 10
133.6190428088943
 20
684.1015176753966
 30
0.0
 11
706.6190428088933
 21
684.1015176753966
 31
0.0
  0
LINE
  5
295
330
1F
100
AcDbEntity
  8
0-0
  6
JWW_DASHED1
 62
   120
370
     5
100
AcDbLine
 10
133.6190428088943
 20
697.1015176764962
 30
0.0
 11
706.6190428088933
 21
697.1015176764962
 31
0.0
  0
LINE
  5
296
330
1F
100
AcDbEntity
  8
0-0
  6
JWW_DASHED1
 62
   120
370
     5
100
AcDbLine
 10
133.6190428088943
 20
698.1015176763964
 30
0.0
 11
706.6190428088933
 21
698.1015176763964
 31
0.0
  0
LINE
  5
297
330
1F
100
AcDbEntity
  8
0-0
  6
JWW_DASHED1
 62
   120
370
     5
100
AcDbLine
 10
133.6190428088943
 20
711.101517677496
 30
0.0
 11
706.6190428088933
 21
711.101517677496
 31
0.0
  0
LINE
  5
298
330
1F
100
AcDbEntity
  8
0-0
  6
JWW_DASHED1
 62
   120
370
     5
100
AcDbLine
 10
133.6190428088943
 20
712.1015176773961
 30
0.0
 11
706.6190428088933
 21
712.1015176773961
 31
0.0
  0
LINE
  5
299
330
1F
100
AcDbEntity
  8
0-0
  6
JWW_DASHED1
 62
   120
370
     5
100
AcDbLine
 10
133.6190428088943
 20
725.1015176784958
 30
0.0
 11
706.6190428088933
 21
725.1015176784958
 31
0.0
  0
LINE
  5
29A
330
1F
100
AcDbEntity
  8
寸法
  6
Continuous
 62
   120
370
     5
100
AcDbLine
 10
45.11904280889382
 20
-1579.898334090644
 30
0.0
 11
-764.8809571911062
 21
-1579.898334090644
 31
0.0
  0
LINE
  5
29B
330
1F
100
AcDbEntity
  8
寸法
  6
Continuous
 62
   120
370
     5
100
AcDbLine
 10
45.11904280889382
 20
-1579.898334090644
 30
0.0
 11
45.11904280889382
 21
-1379.898334090645
 31
0.0
  0
LINE
  5
29C
330
1F
100
AcDbEntity
  8
寸法
  6
Continuous
 62
   120
370
     5
100
AcDbLine
 10
-764.8809571911062
 20
-1579.898334090644
 30
0.0
 11
-764.8809571911062
 21
-1379.898334090645
 31
0.0
  0
LINE
  5
29D
330
1F
100
AcDbEntity
  8
寸法
  6
Continuous
 62
   120
370
     5
100
AcDbLine
 10
-791.8809571911055
 20
-1979.898334090644
 30
0.0
 11
-791.8809571911055
 21
-1379.898334090645
 31
0.0
  0
LINE
  5
29E
330
1F
100
AcDbEntity
  8
寸法
  6
Continuous
 62
   120
370
     5
100
AcDbLine
 10
-791.8809571911055
 20
-1979.898334090644
 30
0.0
 11
1632.119042808893
 21
-1979.898334090643
 31
0.0
  0
LINE
  5
29F
330
1F
100
AcDbEntity
  8
寸法
  6
Continuous
 62
   120
370
     5
100
AcDbLine
 10
1632.119042808893
 20
-1979.898334090643
 30
0.0
 11
1632.119042808893
 21
-1379.898334090644
 31
0.0
  0
LINE
  5
2A0
330
1F
100
AcDbEntity
  8
寸法
  6
Continuous
 62
   120
370
     5
100
AcDbLine
 10
-761.8809571911055
 20
-1779.898334090643
 30
0.0
 11
795.1190428088938
 21
-1779.898334090643
 31
0.0
  0
LINE
  5
2A1
330
1F
100
AcDbEntity
  8
寸法
  6
Continuous
 62
   120
370
     5
100
AcDbLine
 10
-761.8809571911055
 20
-1779.898334090643
 30
0.0
 11
-761.8809571911055
 21
-1379.898334090645
 31
0.0
  0
LINE
  5
2A2
330
1F
100
AcDbEntity
  8
寸法
  6
Continuous
 62
   120
370
     5
100
AcDbLine
 10
795.1190428088938
 20
-1779.898334090643
 30
0.0
 11
795.1190428088938
 21
-1379.898334090645
 31
0.0
  0
LWPOLYLINE
  5
2A3
330
1F
100
AcDbEntity
  8
寸法
  6
Continuous
 62
     7
370
     9
100
AcDbPolyline
 90
        4
 70
     1
 43
3.0
 10
46.61904280889382
 20
-1579.898334090644
 42
0.4142135623731
 10
45.11904280889382
 20
-1578.398334090644
 42
0.4142135623731
 10
43.61904280889382
 20
-1579.898334090644
 42
0.4142135623731
 10
45.11904280889382
 20
-1581.398334090644
 42
0.4142135623731
  0
LWPOLYLINE
  5
2A4
330
1F
100
AcDbEntity
  8
寸法
  6
Continuous
 62
     7
370
     9
100
AcDbPolyline
 90
        4
 70
     1
 43
3.0
 10
-763.3809571911062
 20
-1579.898334090644
 42
0.4142135623731
 10
-764.8809571911062
 20
-1578.398334090644
 42
0.4142135623731
 10
-766.3809571911062
 20
-1579.898334090644
 42
0.4142135623731
 10
-764.8809571911062
 20
-1581.398334090644
 42
0.4142135623731
  0
LWPOLYLINE
  5
2A5
330
1F
100
AcDbEntity
  8
寸法
  6
Continuous
 62
     7
370
     9
100
AcDbPolyline
 90
        4
 70
     1
 43
3.0
 10
-790.3809571911055
 20
-1979.898334090644
 42
0.4142135623731
 10
-791.8809571911055
 20
-1978.398334090644
 42
0.4142135623731
 10
-793.3809571911055
 20
-1979.898334090644
 42
0.4142135623731
 10
-791.8809571911055
 20
-1981.398334090643
 42
0.4142135623731
  0
LWPOLYLINE
  5
2A6
330
1F
100
AcDbEntity
  8
寸法
  6
Continuous
 62
     7
370
     9
100
AcDbPolyline
 90
        4
 70
     1
 43
3.0
 10
1633.619042808893
 20
-1979.898334090643
 42
0.4142135623731
 10
1632.119042808893
 20
-1978.398334090643
 42
0.4142135623731
 10
1630.619042808893
 20
-1979.898334090643
 42
0.4142135623731
 10
1632.119042808893
 20
-1981.398334090643
 42
0.4142135623731
  0
LWPOLYLINE
  5
2A7
330
1F
100
AcDbEntity
  8
寸法
  6
Continuous
 62
     7
370
     9
100
AcDbPolyline
 90
        4
 70
     1
 43
3.0
 10
-760.3809571911055
 20
-1779.898334090643
 42
0.4142135623731
 10
-761.8809571911055
 20
-1778.398334090644
 42
0.4142135623731
 10
-763.3809571911055
 20
-1779.898334090643
 42
0.4142135623731
 10
-761.8809571911055
 20
-1781.398334090643
 42
0.4142135623731
  0
LWPOLYLINE
  5
2A8
330
1F
100
AcDbEntity
  8
寸法
  6
Continuous
 62
     7
370
     9
100
AcDbPolyline
 90
        4
 70
     1
 43
3.0
 10
796.6190428088938
 20
-1779.898334090643
 42
0.4142135623731
 10
795.1190428088938
 20
-1778.398334090644
 42
0.4142135623731
 10
793.6190428088938
 20
-1779.898334090643
 42
0.4142135623731
 10
795.1190428088938
 20
-1781.398334090643
 42
0.4142135623731
  0
LINE
  5
2A9
330
1F
100
AcDbEntity
  8
寸法
  6
Continuous
 62
   120
370
     5
100
AcDbLine
 10
-1241.880957191107
 20
-1329.898334090644
 30
0.0
 11
-841.8809571911078
 21
-1329.898334090644
 31
0.0
  0
LINE
  5
2AA
330
1F
100
AcDbEntity
  8
寸法
  6
Continuous
 62
   120
370
     5
100
AcDbLine
 10
-1041.880957191107
 20
-1309.898334090643
 30
0.0
 11
-841.8809571911078
 21
-1309.898334090643
 31
0.0
  0
LWPOLYLINE
  5
2AB
330
1F
100
AcDbEntity
  8
寸法
  6
Continuous
 62
     7
370
     9
100
AcDbPolyline
 90
        4
 70
     1
 43
3.0
 10
-1240.380957191107
 20
-1329.898334090644
 42
0.4142135623731
 10
-1241.880957191107
 20
-1328.398334090644
 42
0.4142135623731
 10
-1243.380957191107
 20
-1329.898334090644
 42
0.4142135623731
 10
-1241.880957191107
 20
-1331.398334090644
 42
0.4142135623731
  0
LWPOLYLINE
  5
2AC
330
1F
100
AcDbEntity
  8
寸法
  6
Continuous
 62
     7
370
     9
100
AcDbPolyline
 90
        4
 70
     1
 43
3.0
 10
-1040.380957191107
 20
-1309.898334090643
 42
0.4142135623731
 10
-1041.880957191107
 20
-1308.398334090643
 42
0.4142135623731
 10
-1043.380957191106
 20
-1309.898334090643
 42
0.4142135623731
 10
-1041.880957191107
 20
-1311.398334090643
 42
0.4142135623731
  0
MTEXT
  5
2AD
330
1F
100
AcDbEntity
  8
寸法
  6
Continuous
 62
     7
370
   211
100
AcDbMText
 10
-528.6309571911062
 20
-1573.823334090644
 30
0.0
 40
57.15
 41
337.5
 46
0.0
 71
     7
 72
     1
  1
{\fＭＳ ゴシック|b0|i0|c128|p49;ＤＷ＝810}
 73
     1
 44
1.0
  0
MTEXT
  5
2AE
330
1F
100
AcDbEntity
  8
寸法
  6
Continuous
 62
     7
370
   211
100
AcDbMText
 10
-189.6309571911075
 20
-1773.823334090643
 30
0.0
 40
57.14999999999999
 41
412.5
 46
0.0
 71
     7
 72
     1
  1
{\fＭＳ ゴシック|b0|i0|c128|p49;枠内＝1,557}
 73
     1
 44
1.0
  0
MTEXT
  5
2AF
330
1F
100
AcDbEntity
  8
寸法
  6
Continuous
 62
     7
370
   211
100
AcDbMText
 10
213.8690428088938
 20
-1973.823334090644
 30
0.0
 40
57.14999999999999
 41
412.5
 46
0.0
 71
     7
 72
     1
  1
{\fＭＳ ゴシック|b0|i0|c128|p49;枠外＝2,427}
 73
     1
 44
1.0
  0
LINE
  5
2B0
330
1F
100
AcDbEntity
  8
寸法
  6
Continuous
 62
   120
370
     5
100
AcDbLine
 10
-1241.880957191107
 20
917.1016659093559
 30
0.0
 11
-1241.880957191107
 21
-1329.898334090644
 31
0.0
  0
LINE
  5
2B1
330
1F
100
AcDbEntity
  8
寸法
  6
Continuous
 62
   120
370
     5
100
AcDbLine
 10
-1241.880957191107
 20
917.1016659093559
 30
0.0
 11
-841.8809571911078
 21
917.1016659093559
 31
0.0
  0
LWPOLYLINE
  5
2B2
330
1F
100
AcDbEntity
  8
寸法
  6
Continuous
 62
     7
370
     9
100
AcDbPolyline
 90
        4
 70
     1
 43
3.0
 10
-1240.380957191107
 20
917.1016659093559
 42
0.4142135623731
 10
-1241.880957191107
 20
918.6016659093559
 42
0.4142135623731
 10
-1243.380957191107
 20
917.1016659093559
 42
0.4142135623731
 10
-1241.880957191107
 20
915.6016659093558
 42
0.4142135623731
  0
LINE
  5
2B3
330
1F
100
AcDbEntity
  8
寸法
  6
Continuous
 62
   120
370
     5
100
AcDbLine
 10
-1041.880957191107
 20
873.1016659093566
 30
0.0
 11
-841.8809571911078
 21
873.1016659093566
 31
0.0
  0
LINE
  5
2B4
330
1F
100
AcDbEntity
  8
寸法
  6
Continuous
 62
   120
370
     5
100
AcDbLine
 10
-1041.880957191107
 20
873.1016659093566
 30
0.0
 11
-1041.880957191107
 21
-1309.898334090643
 31
0.0
  0
LWPOLYLINE
  5
2B5
330
1F
100
AcDbEntity
  8
寸法
  6
Continuous
 62
     7
370
     9
100
AcDbPolyline
 90
        4
 70
     1
 43
3.0
 10
-1040.380957191107
 20
873.1016659093566
 42
0.4142135623731
 10
-1041.880957191107
 20
874.6016659093566
 42
0.4142135623731
 10
-1043.380957191106
 20
873.1016659093566
 42
0.4142135623731
 10
-1041.880957191107
 20
871.6016659093565
 42
0.4142135623731
  0
MTEXT
  5
2B6
330
1F
100
AcDbEntity
  8
寸法
  6
Continuous
 62
     7
370
    70
100
AcDbMText
 10
-1256.880957191107
 20
-433.5733340906434
 30
0.0
 40
57.14999999999999
 41
412.5
 46
0.0
 71
     7
 72
     1
  1
{\fＭＳ ゴシック|b0|i0|c128|p49;枠外＝2,247}
 11
6.123031769111886E-17
 21
1.0
 31
0.0
 73
     1
 44
1.0
  0
MTEXT
  5
2B7
330
1F
100
AcDbEntity
  8
寸法
  6
Continuous
 62
     7
370
    70
100
AcDbMText
 10
-1056.880957191107
 20
-433.5733340906434
 30
0.0
 40
57.14999999999999
 41
412.5
 46
0.0
 71
     7
 72
     1
  1
{\fＭＳ ゴシック|b0|i0|c128|p49;ＤＨ＝2,183}
 11
6.123031769111886E-17
 21
1.0
 31
0.0
 73
     1
 44
1.0
  0
ENDSEC
  0
SECTION
  2
OBJECTS
  0
DICTIONARY
  5
C
330
0
100
AcDbDictionary
281
     1
  3
ACAD_GROUP
350
D
  3
ACAD_LAYOUT
350
1A
  3
ACAD_MATERIAL
350
3B
  3
ACAD_MLEADERSTYLE
350
2B9
  3
ACAD_MLINESTYLE
350
17
  3
ACAD_PLOTSETTINGS
350
19
  3
ACAD_PLOTSTYLENAME
350
E
  3
ACAD_TABLESTYLE
350
2B8
  3
ACAD_VISUALSTYLE
350
2A
  0
DICTIONARY
  5
D
102
{ACAD_REACTORS
330
C
102
}
330
C
100
AcDbDictionary
281
     1
  0
DICTIONARY
  5
1A
102
{ACAD_REACTORS
330
C
102
}
330
C
100
AcDbDictionary
281
     1
  3
Layout1
350
1E
  3
Layout2
350
26
  3
Model
350
22
  0
DICTIONARY
  5
3B
102
{ACAD_REACTORS
330
C
102
}
330
C
100
AcDbDictionary
281
     1
  3
ByBlock
350
3D
  3
ByLayer
350
3C
  3
Global
350
3E
  0
DICTIONARY
  5
2B9
102
{ACAD_REACTORS
330
C
102
}
330
C
100
AcDbDictionary
281
     1
  0
DICTIONARY
  5
17
102
{ACAD_REACTORS
330
C
102
}
330
C
100
AcDbDictionary
281
     1
  3
Standard
350
18
  0
DICTIONARY
  5
19
102
{ACAD_REACTORS
330
C
102
}
330
C
100
AcDbDictionary
281
     1
  0
ACDBDICTIONARYWDFLT
  5
E
102
{ACAD_REACTORS
330
C
102
}
330
C
100
AcDbDictionary
281
     1
  3
Normal
350
F
100
AcDbDictionaryWithDefault
340
F
  0
DICTIONARY
  5
2B8
102
{ACAD_REACTORS
330
C
102
}
330
C
100
AcDbDictionary
281
     1
  0
DICTIONARY
  5
2A
102
{ACAD_REACTORS
330
C
102
}
330
C
100
AcDbDictionary
281
     1
  3
2dWireframe
350
2F
  3
3D Hidden
350
31
  3
3dWireframe
350
30
  3
Basic
350
32
  3
Brighten
350
36
  3
ColorChange
350
3A
  3
Conceptual
350
34
  3
Dim
350
35
  3
Facepattern
350
39
  3
Flat
350
2B
  3
FlatWithEdges
350
2C
  3
Gouraud
350
2D
  3
GouraudWithEdges
350
2E
  3
Linepattern
350
38
  3
Realistic
350
33
  3
Thicken
350
37
  0
LAYOUT
  5
1E
102
{ACAD_REACTORS
330
1A
102
}
330
1A
100
AcDbPlotSettings
  1

  2
none_device
  4

  6

 40
0.0
 41
0.0
 42
0.0
 43
0.0
 44
0.0
 45
0.0
 46
0.0
 47
0.0
 48
0.0
 49
0.0
140
0.0
141
0.0
142
1.0
143
1.0
 70
   688
 72
     0
 73
     0
 74
     5
  7

 75
    16
 76
     0
 77
     5
 78
   300
147
1.0
148
0.0
149
0.0
100
AcDbLayout
  1
Layout1
 70
     1
 71
     1
 10
0.0
 20
0.0
 11
420.0
 21
297.0
 12
0.0
 22
0.0
 32
0.0
 14
1.000000000000000E+20
 24
1.000000000000000E+20
 34
1.000000000000000E+20
 15
-1.000000000000000E+20
 25
-1.000000000000000E+20
 35
-1.000000000000000E+20
146
0.0
 13
0.0
 23
0.0
 33
0.0
 16
1.0
 26
0.0
 36
0.0
 17
0.0
 27
1.0
 37
0.0
 76
     0
330
1B
  0
LAYOUT
  5
26
102
{ACAD_REACTORS
330
1A
102
}
330
1A
100
AcDbPlotSettings
  1

  2
none_device
  4

  6

 40
0.0
 41
0.0
 42
0.0
 43
0.0
 44
0.0
 45
0.0
 46
0.0
 47
0.0
 48
0.0
 49
0.0
140
0.0
141
0.0
142
1.0
143
1.0
 70
   688
 72
     0
 73
     0
 74
     5
  7

 75
    16
 76
     0
 77
     5
 78
   300
147
1.0
148
0.0
149
0.0
100
AcDbLayout
  1
Layout2
 70
     1
 71
     2
 10
0.0
 20
0.0
 11
0.0
 21
0.0
 12
0.0
 22
0.0
 32
0.0
 14
0.0
 24
0.0
 34
0.0
 15
0.0
 25
0.0
 35
0.0
146
0.0
 13
0.0
 23
0.0
 33
0.0
 16
1.0
 26
0.0
 36
0.0
 17
0.0
 27
1.0
 37
0.0
 76
     0
330
23
  0
LAYOUT
  5
22
102
{ACAD_REACTORS
330
1A
102
}
330
1A
100
AcDbPlotSettings
  1

  2
none_device
  4

  6

 40
0.0
 41
0.0
 42
0.0
 43
0.0
 44
0.0
 45
0.0
 46
0.0
 47
0.0
 48
0.0
 49
0.0
140
0.0
141
0.0
142
1.0
143
1.0
 70
  1712
 72
     0
 73
     0
 74
     0
  7

 75
     0
 76
     0
 77
     5
 78
   300
147
1.0
148
0.0
149
0.0
100
AcDbLayout
  1
Model
 70
     1
 71
     0
 10
-4455.0
 20
-3150.0
 11
4455.0
 21
3150.0
 12
0.0
 22
0.0
 32
0.0
 14
-4455.0
 24
-3150.0
 34
0.0
 15
4455.0
 25
3150.0
 35
0.0
146
0.0
 13
0.0
 23
0.0
 33
0.0
 16
1.0
 26
0.0
 36
0.0
 17
0.0
 27
1.0
 37
0.0
 76
     0
330
1F
331
29
  0
MATERIAL
  5
3D
102
{ACAD_REACTORS
330
3B
102
}
330
3B
100
AcDbMaterial
  1
ByBlock
 72
     1
 94
      127
  0
MATERIAL
  5
3C
102
{ACAD_REACTORS
330
3B
102
}
330
3B
100
AcDbMaterial
  1
ByLayer
 72
     1
 94
      127
  0
MATERIAL
  5
3E
102
{ACAD_REACTORS
330
3B
102
}
330
3B
100
AcDbMaterial
  1
Global
 72
     1
 94
      127
  0
MLINESTYLE
  5
18
102
{ACAD_REACTORS
330
17
102
}
330
17
100
AcDbMlineStyle
  2
Standard
 70
     0
  3

 62
   256
 51
90.0
 52
90.0
 71
     2
 49
0.5
 62
   256
  6
BYLAYER
 49
-0.5
 62
   256
  6
BYLAYER
  0
ACDBPLACEHOLDER
  5
F
102
{ACAD_REACTORS
330
E
102
}
330
E
  0
VISUALSTYLE
  5
2F
102
{ACAD_REACTORS
330
2A
102
}
330
2A
100
AcDbVisualStyle
  2
2dWireframe
 70
     4
177
     2
291
     0
 71
     0
176
     1
 72
     2
176
     1
 73
     0
176
     1
 90
        0
176
     1
 40
-0.6
176
     1
 41
-30.0
176
     1
 62
     5
 63
     7
421
 16777215
176
     1
 74
     1
176
     1
 91
        4
176
     1
 64
     7
176
     1
 65
   257
176
     1
 75
     1
176
     1
175
     1
176
     1
 42
1.0
176
     1
 92
        0
176
     1
 66
   257
176
     1
 43
1.0
176
     1
 76
     1
176
     1
 77
     6
176
     1
 78
     2
176
     1
 67
     7
176
     1
 79
     5
176
     1
170
     0
176
     1
171
     0
176
     1
290
     0
176
     1
 93
        1
176
     1
 44
0.0
176
     1
173
     0
176
     1
  0
VISUALSTYLE
  5
31
102
{ACAD_REACTORS
330
2A
102
}
330
2A
100
AcDbVisualStyle
  2
3D Hidden
 70
     6
177
     2
291
     0
 71
     1
176
     1
 72
     2
176
     1
 73
     2
176
     1
 90
        0
176
     1
 40
-0.6
176
     1
 41
-30.0
176
     1
 62
     5
 63
     7
421
 16777215
176
     1
 74
     2
176
     1
 91
        2
176
     1
 64
     7
176
     1
 65
   257
176
     1
 75
     2
176
     1
175
     1
176
     1
 42
40.0
176
     1
 92
        0
176
     1
 66
   257
176
     1
 43
1.0
176
     1
 76
     1
176
     1
 77
     6
176
     1
 78
     2
176
     1
 67
     7
176
     1
 79
     3
176
     1
170
     0
176
     1
171
     0
176
     1
290
     0
176
     1
 93
        1
176
     1
 44
0.0
176
     1
173
     0
176
     1
  0
VISUALSTYLE
  5
30
102
{ACAD_REACTORS
330
2A
102
}
330
2A
100
AcDbVisualStyle
  2
3dWireframe
 70
     5
177
     2
291
     0
 71
     0
176
     1
 72
     2
176
     1
 73
     0
176
     1
 90
        0
176
     1
 40
-0.6
176
     1
 41
-30.0
176
     1
 62
     5
 63
     7
421
 16777215
176
     1
 74
     1
176
     1
 91
        4
176
     1
 64
     7
176
     1
 65
   257
176
     1
 75
     1
176
     1
175
     1
176
     1
 42
1.0
176
     1
 92
        0
176
     1
 66
   257
176
     1
 43
1.0
176
     1
 76
     1
176
     1
 77
     6
176
     1
 78
     2
176
     1
 67
     7
176
     1
 79
     5
176
     1
170
     0
176
     1
171
     0
176
     1
290
     0
176
     1
 93
        1
176
     1
 44
0.0
176
     1
173
     0
176
     1
  0
VISUALSTYLE
  5
32
102
{ACAD_REACTORS
330
2A
102
}
330
2A
100
AcDbVisualStyle
  2
Basic
 70
     7
177
     2
291
     1
 71
     1
176
     1
 72
     0
176
     1
 73
     1
176
     1
 90
        0
176
     1
 40
-0.6
176
     1
 41
-30.0
176
     1
 62
     5
 63
     7
421
 16777215
176
     1
 74
     0
176
     1
 91
        4
176
     1
 64
     7
176
     1
 65
   257
176
     1
 75
     1
176
     1
175
     1
176
     1
 42
1.0
176
     1
 92
        8
176
     1
 66
     7
176
     1
 43
1.0
176
     1
 76
     1
176
     1
 77
     6
176
     1
 78
     2
176
     1
 67
     7
176
     1
 79
     5
176
     1
170
     0
176
     1
171
     0
176
     1
290
     0
176
     1
 93
        1
176
     1
 44
0.0
176
     1
173
     0
176
     1
  0
VISUALSTYLE
  5
36
102
{ACAD_REACTORS
330
2A
102
}
330
2A
100
AcDbVisualStyle
  2
Brighten
 70
    12
177
     2
291
     1
 71
     2
176
     1
 72
     2
176
     1
 73
     0
176
     1
 90
        0
176
     1
 40
-0.6
176
     1
 41
-30.0
176
     1
 62
     5
 63
     7
421
 16777215
176
     1
 74
     1
176
     1
 91
        4
176
     1
 64
     7
176
     1
 65
   257
176
     1
 75
     1
176
     1
175
     1
176
     1
 42
1.0
176
     1
 92
        8
176
     1
 66
     7
176
     1
 43
1.0
176
     1
 76
     1
176
     1
 77
     6
176
     1
 78
     2
176
     1
 67
     7
176
     1
 79
     5
176
     1
170
     0
176
     1
171
     0
176
     1
290
     0
176
     1
 93
        1
176
     1
 44
50.0
176
     1
173
     0
176
     1
  0
VISUALSTYLE
  5
3A
102
{ACAD_REACTORS
330
2A
102
}
330
2A
100
AcDbVisualStyle
  2
ColorChange
 70
    16
177
     2
291
     1
 71
     2
176
     1
 72
     2
176
     1
 73
     3
176
     1
 90
        0
176
     1
 40
-0.6
176
     1
 41
-30.0
176
     1
 62
     5
 63
     8
421
  8421504
176
     1
 74
     1
176
     1
 91
        4
176
     1
 64
     7
176
     1
 65
   257
176
     1
 75
     1
176
     1
175
     1
176
     1
 42
1.0
176
     1
 92
        8
176
     1
 66
     8
424
  8421504
176
     1
 43
1.0
176
     1
 76
     1
176
     1
 77
     6
176
     1
 78
     2
176
     1
 67
     7
176
     1
 79
     5
176
     1
170
     0
176
     1
171
     0
176
     1
290
     0
176
     1
 93
        1
176
     1
 44
0.0
176
     1
173
     0
176
     1
  0
VISUALSTYLE
  5
34
102
{ACAD_REACTORS
330
2A
102
}
330
2A
100
AcDbVisualStyle
  2
Conceptual
 70
     9
177
     2
291
     0
 71
     3
176
     1
 72
     2
176
     1
 73
     0
176
     1
 90
        0
176
     1
 40
-0.6
176
     1
 41
-30.0
176
     1
 62
     5
 63
     7
421
 16777215
176
     1
 74
     2
176
     1
 91
        2
176
     1
 64
     7
176
     1
 65
   257
176
     1
 75
     1
176
     1
175
     1
176
     1
 42
40.0
176
     1
 92
        8
176
     1
 66
     7
176
     1
 43
1.0
176
     1
 76
     1
176
     1
 77
     6
176
     1
 78
     2
176
     1
 67
     7
176
     1
 79
     3
176
     1
170
     0
176
     1
171
     0
176
     1
290
     0
176
     1
 93
        1
176
     1
 44
0.0
176
     1
173
     0
176
     1
  0
VISUALSTYLE
  5
35
102
{ACAD_REACTORS
330
2A
102
}
330
2A
100
AcDbVisualStyle
  2
Dim
 70
    11
177
     2
291
     1
 71
     2
176
     1
 72
     2
176
     1
 73
     0
176
     1
 90
        0
176
     1
 40
-0.6
176
     1
 41
-30.0
176
     1
 62
     5
 63
     7
421
 16777215
176
     1
 74
     1
176
     1
 91
        4
176
     1
 64
     7
176
     1
 65
   257
176
     1
 75
     1
176
     1
175
     1
176
     1
 42
1.0
176
     1
 92
        8
176
     1
 66
     7
176
     1
 43
1.0
176
     1
 76
     1
176
     1
 77
     6
176
     1
 78
     2
176
     1
 67
     7
176
     1
 79
     5
176
     1
170
     0
176
     1
171
     0
176
     1
290
     0
176
     1
 93
        1
176
     1
 44
-50.0
176
     1
173
     0
176
     1
  0
VISUALSTYLE
  5
39
102
{ACAD_REACTORS
330
2A
102
}
330
2A
100
AcDbVisualStyle
  2
Facepattern
 70
    15
177
     2
291
     1
 71
     2
176
     1
 72
     2
176
     1
 73
     0
176
     1
 90
        0
176
     1
 40
-0.6
176
     1
 41
-30.0
176
     1
 62
     5
 63
     7
421
 16777215
176
     1
 74
     1
176
     1
 91
        4
176
     1
 64
     7
176
     1
 65
   257
176
     1
 75
     1
176
     1
175
     1
176
     1
 42
1.0
176
     1
 92
        8
176
     1
 66
     7
176
     1
 43
1.0
176
     1
 76
     1
176
     1
 77
     6
176
     1
 78
     2
176
     1
 67
     7
176
     1
 79
     5
176
     1
170
     0
176
     1
171
     0
176
     1
290
     0
176
     1
 93
        1
176
     1
 44
0.0
176
     1
173
     0
176
     1
  0
VISUALSTYLE
  5
2B
102
{ACAD_REACTORS
330
2A
102
}
330
2A
100
AcDbVisualStyle
  2
Flat
 70
     0
177
     2
291
     1
 71
     2
176
     1
 72
     1
176
     1
 73
     1
176
     1
 90
        2
176
     1
 40
-0.6
176
     1
 41
30.0
176
     1
 62
     5
 63
     7
421
 16777215
176
     1
 74
     0
176
     1
 91
        4
176
     1
 64
     7
176
     1
 65
   257
176
     1
 75
     1
176
     1
175
     1
176
     1
 42
1.0
176
     1
 92
        8
176
     1
 66
     7
176
     1
 43
1.0
176
     1
 76
     1
176
     1
 77
     6
176
     1
 78
     2
176
     1
 67
     7
176
     1
 79
     5
176
     1
170
     0
176
     1
171
     0
176
     1
290
     0
176
     1
 93
       13
176
     1
 44
0.0
176
     1
173
     0
176
     1
  0
VISUALSTYLE
  5
2C
102
{ACAD_REACTORS
330
2A
102
}
330
2A
100
AcDbVisualStyle
  2
FlatWithEdges
 70
     1
177
     2
291
     1
 71
     2
176
     1
 72
     1
176
     1
 73
     1
176
     1
 90
        2
176
     1
 40
-0.6
176
     1
 41
30.0
176
     1
 62
     5
 63
     7
421
 16777215
176
     1
 74
     1
176
     1
 91
        4
176
     1
 64
     7
176
     1
 65
   257
176
     1
 75
     1
176
     1
175
     1
176
     1
 42
1.0
176
     1
 92
        0
176
     1
 66
   257
176
     1
 43
1.0
176
     1
 76
     1
176
     1
 77
     6
176
     1
 78
     2
176
     1
 67
     7
176
     1
 79
     5
176
     1
170
     0
176
     1
171
     0
176
     1
290
     0
176
     1
 93
       13
176
     1
 44
0.0
176
     1
173
     0
176
     1
  0
VISUALSTYLE
  5
2D
102
{ACAD_REACTORS
330
2A
102
}
330
2A
100
AcDbVisualStyle
  2
Gouraud
 70
     2
177
     2
291
     1
 71
     2
176
     1
 72
     2
176
     1
 73
     1
176
     1
 90
        2
176
     1
 40
-0.6
176
     1
 41
30.0
176
     1
 62
     5
 63
     7
421
 16777215
176
     1
 74
     0
176
     1
 91
        4
176
     1
 64
     7
176
     1
 65
   257
176
     1
 75
     1
176
     1
175
     1
176
     1
 42
1.0
176
     1
 92
        0
176
     1
 66
     7
176
     1
 43
1.0
176
     1
 76
     1
176
     1
 77
     6
176
     1
 78
     2
176
     1
 67
     7
176
     1
 79
     5
176
     1
170
     0
176
     1
171
     0
176
     1
290
     0
176
     1
 93
       13
176
     1
 44
0.0
176
     1
173
     0
176
     1
  0
VISUALSTYLE
  5
2E
102
{ACAD_REACTORS
330
2A
102
}
330
2A
100
AcDbVisualStyle
  2
GouraudWithEdges
 70
     3
177
     2
291
     1
 71
     2
176
     1
 72
     2
176
     1
 73
     1
176
     1
 90
        2
176
     1
 40
-0.6
176
     1
 41
30.0
176
     1
 62
     5
 63
     7
421
 16777215
176
     1
 74
     1
176
     1
 91
        4
176
     1
 64
     7
176
     1
 65
   257
176
     1
 75
     1
176
     1
175
     1
176
     1
 42
1.0
176
     1
 92
        0
176
     1
 66
   257
176
     1
 43
1.0
176
     1
 76
     1
176
     1
 77
     6
176
     1
 78
     2
176
     1
 67
     7
176
     1
 79
     5
176
     1
170
     0
176
     1
171
     0
176
     1
290
     0
176
     1
 93
       13
176
     1
 44
0.0
176
     1
173
     0
176
     1
  0
VISUALSTYLE
  5
38
102
{ACAD_REACTORS
330
2A
102
}
330
2A
100
AcDbVisualStyle
  2
Linepattern
 70
    14
177
     2
291
     1
 71
     2
176
     1
 72
     2
176
     1
 73
     0
176
     1
 90
        0
176
     1
 40
-0.6
176
     1
 41
-30.0
176
     1
 62
     5
 63
     7
421
 16777215
176
     1
 74
     1
176
     1
 91
        4
176
     1
 64
     7
176
     1
 65
   257
176
     1
 75
     7
176
     1
175
     7
176
     1
 42
1.0
176
     1
 92
        8
176
     1
 66
     7
176
     1
 43
1.0
176
     1
 76
     1
176
     1
 77
     6
176
     1
 78
     2
176
     1
 67
     7
176
     1
 79
     5
176
     1
170
     0
176
     1
171
     0
176
     1
290
     0
176
     1
 93
        1
176
     1
 44
0.0
176
     1
173
     0
176
     1
  0
VISUALSTYLE
  5
33
102
{ACAD_REACTORS
330
2A
102
}
330
2A
100
AcDbVisualStyle
  2
Realistic
 70
     8
177
     2
291
     0
 71
     2
176
     1
 72
     2
176
     1
 73
     0
176
     1
 90
        0
176
     1
 40
-0.6
176
     1
 41
-30.0
176
     1
 62
     5
 63
     7
421
 16777215
176
     1
 74
     1
176
     1
 91
        0
176
     1
 64
     7
176
     1
 65
   257
176
     1
 75
     1
176
     1
175
     1
176
     1
 42
1.0
176
     1
 92
        8
176
     1
 66
     8
424
  7895160
176
     1
 43
1.0
176
     1
 76
     1
176
     1
 77
     6
176
     1
 78
     2
176
     1
 67
     7
176
     1
 79
     5
176
     1
170
     0
176
     1
171
     0
176
     1
290
     0
176
     1
 93
       13
176
     1
 44
0.0
176
     1
173
     0
176
     1
  0
VISUALSTYLE
  5
37
102
{ACAD_REACTORS
330
2A
102
}
330
2A
100
AcDbVisualStyle
  2
Thicken
 70
    13
177
     2
291
     1
 71
     2
176
     1
 72
     2
176
     1
 73
     0
176
     1
 90
        0
176
     1
 40
-0.6
176
     1
 41
-30.0
176
     1
 62
     5
 63
     7
421
 16777215
176
     1
 74
     1
176
     1
 91
        4
176
     1
 64
     7
176
     1
 65
   257
176
     1
 75
     1
176
     1
175
     1
176
     1
 42
1.0
176
     1
 92
       12
176
     1
 66
     7
176
     1
 43
1.0
176
     1
 76
     1
176
     1
 77
     6
176
     1
 78
     2
176
     1
 67
     7
176
     1
 79
     5
176
     1
170
     0
176
     1
171
     0
176
     1
290
     0
176
     1
 93
        1
176
     1
 44
0.0
176
     1
173
     0
176
     1
  0
ENDSEC
  0
EOF
