  0
SECTION
  2
HEADER
  9
$ACADVER
  1
AC1024
  9
$ACADMAINTVER
 70
     6
  9
$DWGCODEPAGE
  3
ANSI_932
  9
$INSBASE
 10
0.0
 20
0.0
 30
0.0
  9
$EXTMIN
 10
-4455.0
 20
-3150.0
 30
0.0
  9
$EXTMAX
 10
4455.0
 20
3150.0
 30
0.0
  9
$LIMMIN
 10
-4455.0
 20
-3150.0
  9
$LIMMAX
 10
4455.0
 20
3150.0
  9
$ORTHOMODE
 70
     0
  9
$REGENMODE
 70
     1
  9
$FILLMODE
 70
     1
  9
$QTEXTMODE
 70
     0
  9
$MIRRTEXT
 70
     1
  9
$LTSCALE
 40
30.0
  9
$ATTMODE
 70
     1
  9
$TEXTSIZE
 40
2.5
  9
$TRACEWID
 40
1.0
  9
$TEXTSTYLE
  7
Standard
  9
$CLAYER
  8
0
  9
$CELTYPE
  6
ByLayer
  9
$CECOLOR
 62
   256
  9
$CELTSCALE
 40
1.0
  9
$DISPSILH
 70
     0
  9
$DIMSCALE
 40
1.0
  9
$DIMASZ
 40
2.5
  9
$DIMEXO
 40
0.625
  9
$DIMDLI
 40
3.75
  9
$DIMRND
 40
0.0
  9
$DIMDLE
 40
0.0
  9
$DIMEXE
 40
1.25
  9
$DIMTP
 40
0.0
  9
$DIMTM
 40
0.0
  9
$DIMTXT
 40
2.5
  9
$DIMCEN
 40
2.5
  9
$DIMTSZ
 40
0.0
  9
$DIMTOL
 70
     0
  9
$DIMLIM
 70
     0
  9
$DIMTIH
 70
     0
  9
$DIMTOH
 70
     0
  9
$DIMSE1
 70
     0
  9
$DIMSE2
 70
     0
  9
$DIMTAD
 70
     1
  9
$DIMZIN
 70
     8
  9
$DIMBLK
  1

  9
$DIMASO
 70
     1
  9
$DIMSHO
 70
     1
  9
$DIMPOST
  1

  9
$DIMAPOST
  1

  9
$DIMALT
 70
     0
  9
$DIMALTD
 70
     3
  9
$DIMALTF
 40
0.03937007874016
  9
$DIMLFAC
 40
1.0
  9
$DIMTOFL
 70
     1
  9
$DIMTVP
 40
0.0
  9
$DIMTIX
 70
     0
  9
$DIMSOXD
 70
     0
  9
$DIMSAH
 70
     0
  9
$DIMBLK1
  1

  9
$DIMBLK2
  1

  9
$DIMSTYLE
  2
ISO-25
  9
$DIMCLRD
 70
     0
  9
$DIMCLRE
 70
     0
  9
$DIMCLRT
 70
     0
  9
$DIMTFAC
 40
1.0
  9
$DIMGAP
 40
0.625
  9
$DIMJUST
 70
     0
  9
$DIMSD1
 70
     0
  9
$DIMSD2
 70
     0
  9
$DIMTOLJ
 70
     0
  9
$DIMTZIN
 70
     8
  9
$DIMALTZ
 70
     0
  9
$DIMALTTZ
 70
     0
  9
$DIMUPT
 70
     0
  9
$DIMDEC
 70
     2
  9
$DIMTDEC
 70
     2
  9
$DIMALTU
 70
     2
  9
$DIMALTTD
 70
     3
  9
$DIMTXSTY
  7
Standard
  9
$DIMAUNIT
 70
     0
  9
$DIMADEC
 70
     0
  9
$DIMALTRND
 40
0.0
  9
$DIMAZIN
 70
     0
  9
$DIMDSEP
 70
    44
  9
$DIMATFIT
 70
     3
  9
$DIMFRAC
 70
     0
  9
$DIMLDRBLK
  1

  9
$DIMLUNIT
 70
     2
  9
$DIMLWD
 70
    -2
  9
$DIMLWE
 70
    -2
  9
$DIMTMOVE
 70
     0
  9
$DIMFXL
 40
1.0
  9
$DIMFXLON
 70
     0
  9
$DIMJOGANG
 40
0.7853981633974483
  9
$DIMTFILL
 70
     0
  9
$DIMTFILLCLR
 70
     0
  9
$DIMARCSYM
 70
     0
  9
$DIMLTYPE
  6

  9
$DIMLTEX1
  6

  9
$DIMLTEX2
  6

  9
$DIMTXTDIRECTION
 70
     0
  9
$LUNITS
 70
     2
  9
$LUPREC
 70
     4
  9
$SKETCHINC
 40
1.0
  9
$FILLETRAD
 40
10.0
  9
$AUNITS
 70
     0
  9
$AUPREC
 70
     0
  9
$MENU
  1
.
  9
$ELEVATION
 40
0.0
  9
$PELEVATION
 40
0.0
  9
$THICKNESS
 40
0.0
  9
$LIMCHECK
 70
     0
  9
$CHAMFERA
 40
10.0
  9
$CHAMFERB
 40
10.0
  9
$CHAMFERC
 40
20.0
  9
$CHAMFERD
 40
0.0
  9
$SKPOLY
 70
     0
  9
$TDCREATE
 40
2457953.40083412
  9
$TDUCREATE
 40
2457953.02583412
  9
$TDUPDATE
 40
2457953.400834132
  9
$TDUUPDATE
 40
2457953.025834132
  9
$TDINDWG
 40
0.0000000116
  9
$TDUSRTIMER
 40
0.0000000116
  9
$USRTIMER
 70
     1
  9
$ANGBASE
 50
0.0
  9
$ANGDIR
 70
     0
  9
$PDMODE
 70
     0
  9
$PDSIZE
 40
0.0
  9
$PLINEWID
 40
0.0
  9
$SPLFRAME
 70
     0
  9
$SPLINETYPE
 70
     6
  9
$SPLINESEGS
 70
     8
  9
$HANDSEED
  5
2CA
  9
$SURFTAB1
 70
     6
  9
$SURFTAB2
 70
     6
  9
$SURFTYPE
 70
     6
  9
$SURFU
 70
     6
  9
$SURFV
 70
     6
  9
$UCSBASE
  2

  9
$UCSNAME
  2

  9
$UCSORG
 10
0.0
 20
0.0
 30
0.0
  9
$UCSXDIR
 10
1.0
 20
0.0
 30
0.0
  9
$UCSYDIR
 10
0.0
 20
1.0
 30
0.0
  9
$UCSORTHOREF
  2

  9
$UCSORTHOVIEW
 70
     0
  9
$UCSORGTOP
 10
0.0
 20
0.0
 30
0.0
  9
$UCSORGBOTTOM
 10
0.0
 20
0.0
 30
0.0
  9
$UCSORGLEFT
 10
0.0
 20
0.0
 30
0.0
  9
$UCSORGRIGHT
 10
0.0
 20
0.0
 30
0.0
  9
$UCSORGFRONT
 10
0.0
 20
0.0
 30
0.0
  9
$UCSORGBACK
 10
0.0
 20
0.0
 30
0.0
  9
$PUCSBASE
  2

  9
$PUCSNAME
  2

  9
$PUCSORG
 10
0.0
 20
0.0
 30
0.0
  9
$PUCSXDIR
 10
1.0
 20
0.0
 30
0.0
  9
$PUCSYDIR
 10
0.0
 20
1.0
 30
0.0
  9
$PUCSORTHOREF
  2

  9
$PUCSORTHOVIEW
 70
     0
  9
$PUCSORGTOP
 10
0.0
 20
0.0
 30
0.0
  9
$PUCSORGBOTTOM
 10
0.0
 20
0.0
 30
0.0
  9
$PUCSORGLEFT
 10
0.0
 20
0.0
 30
0.0
  9
$PUCSORGRIGHT
 10
0.0
 20
0.0
 30
0.0
  9
$PUCSORGFRONT
 10
0.0
 20
0.0
 30
0.0
  9
$PUCSORGBACK
 10
0.0
 20
0.0
 30
0.0
  9
$USERI1
 70
     0
  9
$USERI2
 70
     0
  9
$USERI3
 70
     0
  9
$USERI4
 70
     0
  9
$USERI5
 70
     0
  9
$USERR1
 40
0.0
  9
$USERR2
 40
0.0
  9
$USERR3
 40
0.0
  9
$USERR4
 40
0.0
  9
$USERR5
 40
0.0
  9
$WORLDVIEW
 70
     1
  9
$SHADEDGE
 70
     3
  9
$SHADEDIF
 70
    70
  9
$TILEMODE
 70
     1
  9
$MAXACTVP
 70
    64
  9
$PINSBASE
 10
0.0
 20
0.0
 30
0.0
  9
$PLIMCHECK
 70
     0
  9
$PEXTMIN
 10
1.000000000000000E+20
 20
1.000000000000000E+20
 30
1.000000000000000E+20
  9
$PEXTMAX
 10
-1.000000000000000E+20
 20
-1.000000000000000E+20
 30
-1.000000000000000E+20
  9
$PLIMMIN
 10
0.0
 20
0.0
  9
$PLIMMAX
 10
420.0
 20
297.0
  9
$UNITMODE
 70
     0
  9
$VISRETAIN
 70
     1
  9
$PLINEGEN
 70
     0
  9
$PSLTSCALE
 70
     1
  9
$TREEDEPTH
 70
  3020
  9
$CMLSTYLE
  2
Standard
  9
$CMLJUST
 70
     0
  9
$CMLSCALE
 40
20.0
  9
$PROXYGRAPHICS
 70
     1
  9
$MEASUREMENT
 70
     1
  9
$CELWEIGHT
370
    -1
  9
$ENDCAPS
280
     0
  9
$JOINSTYLE
280
     0
  9
$LWDISPLAY
290
     0
  9
$INSUNITS
 70
     4
  9
$HYPERLINKBASE
  1

  9
$STYLESHEET
  1

  9
$XEDIT
290
     1
  9
$CEPSNTYPE
380
     0
  9
$PSTYLEMODE
290
     1
  9
$FINGERPRINTGUID
  2
{5ACA2C8F-2BED-4564-BAF6-38058D35257F}
  9
$VERSIONGUID
  2
{FAEB1C32-E019-11D5-929B-00C0DF256EC4}
  9
$EXTNAMES
290
     1
  9
$PSVPSCALE
 40
0.0
  9
$OLESTARTUP
290
     0
  9
$SORTENTS
280
   127
  9
$INDEXCTL
280
     0
  9
$HIDETEXT
280
     1
  9
$XCLIPFRAME
280
     2
  9
$HALOGAP
280
     0
  9
$OBSCOLOR
 70
   257
  9
$OBSLTYPE
280
     0
  9
$INTERSECTIONDISPLAY
280
     0
  9
$INTERSECTIONCOLOR
 70
   257
  9
$DIMASSOC
280
     2
  9
$PROJECTNAME
  1

  9
$CAMERADISPLAY
290
     0
  9
$LENSLENGTH
 40
50.0
  9
$CAMERAHEIGHT
 40
0.0
  9
$STEPSPERSEC
 40
2.0
  9
$STEPSIZE
 40
6.0
  9
$3DDWFPREC
 40
2.0
  9
$PSOLWIDTH
 40
5.0
  9
$PSOLHEIGHT
 40
80.0
  9
$LOFTANG1
 40
1.570796326794897
  9
$LOFTANG2
 40
1.570796326794897
  9
$LOFTMAG1
 40
0.0
  9
$LOFTMAG2
 40
0.0
  9
$LOFTPARAM
 70
     7
  9
$LOFTNORMALS
280
     1
  9
$LATITUDE
 40
37.795
  9
$LONGITUDE
 40
-122.394
  9
$NORTHDIRECTION
 40
0.0
  9
$TIMEZONE
 70
 -8000
  9
$LIGHTGLYPHDISPLAY
280
     1
  9
$TILEMODELIGHTSYNCH
280
     1
  9
$SOLIDHIST
280
     1
  9
$SHOWHIST
280
     1
  9
$DWFFRAME
280
     2
  9
$DGNFRAME
280
     2
  9
$REALWORLDSCALE
290
     1
  9
$INTERFERECOLOR
 62
   256
  9
$CSHADOW
280
     0
  9
$SHADOWPLANELOCATION
 40
0.0
  0
ENDSEC
  0
SECTION
  2
CLASSES
  0
CLASS
  1
ACDBDICTIONARYWDFLT
  2
AcDbDictionaryWithDefault
  3
ObjectDBX Classes
 90
        0
 91
        4
280
     0
281
     0
  0
CLASS
  1
VISUALSTYLE
  2
AcDbVisualStyle
  3
ObjectDBX Classes
 90
     4095
 91
        4
280
     0
281
     0
  0
CLASS
  1
MATERIAL
  2
AcDbMaterial
  3
ObjectDBX Classes
 90
     1153
 91
        4
280
     0
281
     0
  0
ENDSEC
  0
SECTION
  2
TABLES
  0
TABLE
  2
VPORT
  5
8
330
0
100
AcDbSymbolTable
 70
     1
  0
VPORT
  5
29
330
8
100
AcDbSymbolTableRecord
100
AcDbViewportTableRecord
  2
*Active
 70
     0
 10
0.0
 20
0.0
 11
1.0
 21
1.0
 12
0.0
 22
0.0
 13
0.0
 23
0.0
 14
10.0
 24
10.0
 15
10.0
 25
10.0
 16
0.0
 26
0.0
 36
1.0
 17
0.0
 27
0.0
 37
0.0
 40
6930.000000000001
 41
1.414285714285714
 42
50.0
 43
0.0
 44
0.0
 50
0.0
 51
0.0
 71
     0
 72
 10000
 73
     1
 74
     3
 75
     0
 76
     0
 77
     0
 78
     0
281
     0
 65
     1
110
0.0
120
0.0
130
0.0
111
1.0
121
0.0
131
0.0
112
0.0
122
1.0
132
0.0
 79
     0
146
0.0
 60
     3
 61
     5
292
     1
282
     1
141
0.0
142
0.0
 63
   250
  0
ENDTAB
  0
TABLE
  2
LTYPE
  5
5
330
0
100
AcDbSymbolTable
 70
     2
  0
LTYPE
  5
14
330
5
100
AcDbSymbolTableRecord
100
AcDbLinetypeTableRecord
  2
ByBlock
 70
     0
  3

 72
    65
 73
     0
 40
0.0
  0
LTYPE
  5
15
330
5
100
AcDbSymbolTableRecord
100
AcDbLinetypeTableRecord
  2
ByLayer
 70
     0
  3

 72
    65
 73
     0
 40
0.0
  0
LTYPE
  5
16
330
5
100
AcDbSymbolTableRecord
100
AcDbLinetypeTableRecord
  2
Continuous
 70
     0
  3
Solid line
 72
    65
 73
     0
 40
0.0
  0
LTYPE
  5
3F
330
5
100
AcDbSymbolTableRecord
100
AcDbLinetypeTableRecord
  2
JWW_DASHED1
 70
     0
  3
-  --  --  --  --  --  --  --  -
 72
    65
 73
     2
 40
1.693333333333333
 49
0.8466666666666667
 74
     0
 49
-0.8466666666666667
 74
     0
  0
ENDTAB
  0
TABLE
  2
LAYER
  5
2
330
0
100
AcDbSymbolTable
 70
     3
  0
LAYER
  5
10
330
2
100
AcDbSymbolTableRecord
100
AcDbLayerTableRecord
  2
0
 70
     0
 62
     7
  6
Continuous
370
    -3
390
F
347
3E
  0
LAYER
  5
40
330
2
100
AcDbSymbolTableRecord
100
AcDbLayerTableRecord
  2
寸法
 70
     0
 62
     7
  6
Continuous
370
    -3
390
F
347
3E
  0
LAYER
  5
41
330
2
100
AcDbSymbolTableRecord
100
AcDbLayerTableRecord
  2
0-0
 70
     0
 62
     7
  6
Continuous
370
    -3
390
F
347
3E
  0
ENDTAB
  0
TABLE
  2
STYLE
  5
3
330
0
100
AcDbSymbolTable
 70
     1
  0
STYLE
  5
11
330
3
100
AcDbSymbolTableRecord
100
AcDbTextStyleTableRecord
  2
Standard
 70
     0
 40
0.0
 41
1.0
 50
0.0
 71
     0
 42
2.5
  3
txt
  4

  0
ENDTAB
  0
TABLE
  2
VIEW
  5
6
330
0
100
AcDbSymbolTable
 70
     0
  0
ENDTAB
  0
TABLE
  2
UCS
  5
7
330
0
100
AcDbSymbolTable
 70
     0
  0
ENDTAB
  0
TABLE
  2
APPID
  5
9
330
0
100
AcDbSymbolTable
 70
     1
  0
APPID
  5
12
330
9
100
AcDbSymbolTableRecord
100
AcDbRegAppTableRecord
  2
ACAD
 70
     0
  0
ENDTAB
  0
TABLE
  2
DIMSTYLE
  5
A
330
0
100
AcDbSymbolTable
 70
     1
100
AcDbDimStyleTable
  0
DIMSTYLE
105
27
330
A
100
AcDbSymbolTableRecord
100
AcDbDimStyleTableRecord
  2
ISO-25
 70
     0
 41
2.5
 42
0.625
 43
3.75
 44
1.25
 73
     0
 74
     0
 77
     1
 78
     8
140
2.5
141
2.5
143
0.03937007874016
147
0.625
171
     3
172
     1
178
     0
271
     2
272
     2
274
     3
278
    44
283
     0
284
     8
340
11
  0
ENDTAB
  0
TABLE
  2
BLOCK_RECORD
  5
1
330
0
100
AcDbSymbolTable
 70
     1
  0
BLOCK_RECORD
  5
1F
330
1
100
AcDbSymbolTableRecord
100
AcDbBlockTableRecord
  2
*Model_Space
340
22
 70
     0
280
     1
281
     0
  0
BLOCK_RECORD
  5
1B
330
1
100
AcDbSymbolTableRecord
100
AcDbBlockTableRecord
  2
*Paper_Space
340
1E
 70
     0
280
     1
281
     0
  0
BLOCK_RECORD
  5
23
330
1
100
AcDbSymbolTableRecord
100
AcDbBlockTableRecord
  2
*Paper_Space0
340
26
 70
     0
280
     1
281
     0
  0
ENDTAB
  0
ENDSEC
  0
SECTION
  2
BLOCKS
  0
BLOCK
  5
20
330
1F
100
AcDbEntity
  8
0
100
AcDbBlockBegin
  2
*Model_Space
 70
     0
 10
0.0
 20
0.0
 30
0.0
  3
*Model_Space
  1

  0
ENDBLK
  5
21
330
1F
100
AcDbEntity
  8
0
100
AcDbBlockEnd
  0
BLOCK
  5
1C
330
1B
100
AcDbEntity
 67
     1
  8
0
100
AcDbBlockBegin
  2
*Paper_Space
 70
     0
 10
0.0
 20
0.0
 30
0.0
  3
*Paper_Space
  1

  0
ENDBLK
  5
1D
330
1B
100
AcDbEntity
 67
     1
  8
0
100
AcDbBlockEnd
  0
BLOCK
  5
24
330
23
100
AcDbEntity
  8
0
100
AcDbBlockBegin
  2
*Paper_Space0
 70
     0
 10
0.0
 20
0.0
 30
0.0
  3
*Paper_Space0
  1

  0
ENDBLK
  5
25
330
23
100
AcDbEntity
  8
0
100
AcDbBlockEnd
  0
ENDSEC
  0
SECTION
  2
ENTITIES
  0
LINE
  5
42
330
1F
100
AcDbEntity
  8
寸法
  6
Continuous
 62
   120
370
     5
100
AcDbLine
 10
44.3730609373182
 20
-1591.849270232105
 30
0.0
 11
-765.6269390626818
 21
-1591.849270232105
 31
0.0
  0
LINE
  5
43
330
1F
100
AcDbEntity
  8
寸法
  6
Continuous
 62
   120
370
     5
100
AcDbLine
 10
44.3730609373182
 20
-1591.849270232105
 30
0.0
 11
44.3730609373182
 21
-1391.849270232105
 31
0.0
  0
LINE
  5
44
330
1F
100
AcDbEntity
  8
寸法
  6
Continuous
 62
   120
370
     5
100
AcDbLine
 10
-765.6269390626818
 20
-1591.849270232105
 30
0.0
 11
-765.6269390626818
 21
-1391.849270232105
 31
0.0
  0
LINE
  5
45
330
1F
100
AcDbEntity
  8
寸法
  6
Continuous
 62
   120
370
     5
100
AcDbLine
 10
-792.6269390626811
 20
-1991.849270232104
 30
0.0
 11
-792.6269390626811
 21
-1391.849270232105
 31
0.0
  0
LINE
  5
46
330
1F
100
AcDbEntity
  8
寸法
  6
Continuous
 62
   120
370
     5
100
AcDbLine
 10
-792.6269390626811
 20
-1991.849270232104
 30
0.0
 11
1631.373060937317
 21
-1991.849270232103
 31
0.0
  0
LINE
  5
47
330
1F
100
AcDbEntity
  8
寸法
  6
Continuous
 62
   120
370
     5
100
AcDbLine
 10
1631.373060937317
 20
-1991.849270232103
 30
0.0
 11
1631.373060937317
 21
-1391.849270232105
 31
0.0
  0
LINE
  5
48
330
1F
100
AcDbEntity
  8
寸法
  6
Continuous
 62
   120
370
     5
100
AcDbLine
 10
-762.6269390626811
 20
-1791.849270232104
 30
0.0
 11
794.3730609373182
 21
-1791.849270232104
 31
0.0
  0
LINE
  5
49
330
1F
100
AcDbEntity
  8
寸法
  6
Continuous
 62
   120
370
     5
100
AcDbLine
 10
-762.6269390626811
 20
-1791.849270232104
 30
0.0
 11
-762.6269390626811
 21
-1391.849270232105
 31
0.0
  0
LINE
  5
4A
330
1F
100
AcDbEntity
  8
寸法
  6
Continuous
 62
   120
370
     5
100
AcDbLine
 10
794.3730609373182
 20
-1791.849270232104
 30
0.0
 11
794.3730609373182
 21
-1391.849270232105
 31
0.0
  0
LWPOLYLINE
  5
4B
330
1F
100
AcDbEntity
  8
寸法
  6
Continuous
 62
     7
370
     9
100
AcDbPolyline
 90
        4
 70
     1
 43
3.0
 10
45.8730609373182
 20
-1591.849270232105
 42
0.4142135623731
 10
44.3730609373182
 20
-1590.349270232105
 42
0.4142135623731
 10
42.8730609373182
 20
-1591.849270232105
 42
0.4142135623731
 10
44.3730609373182
 20
-1593.349270232105
 42
0.4142135623731
  0
LWPOLYLINE
  5
4C
330
1F
100
AcDbEntity
  8
寸法
  6
Continuous
 62
     7
370
     9
100
AcDbPolyline
 90
        4
 70
     1
 43
3.0
 10
-764.1269390626818
 20
-1591.849270232105
 42
0.4142135623731
 10
-765.6269390626818
 20
-1590.349270232105
 42
0.4142135623731
 10
-767.1269390626818
 20
-1591.849270232105
 42
0.4142135623731
 10
-765.6269390626818
 20
-1593.349270232105
 42
0.4142135623731
  0
LWPOLYLINE
  5
4D
330
1F
100
AcDbEntity
  8
寸法
  6
Continuous
 62
     7
370
     9
100
AcDbPolyline
 90
        4
 70
     1
 43
3.0
 10
-791.1269390626811
 20
-1991.849270232104
 42
0.4142135623731
 10
-792.6269390626811
 20
-1990.349270232104
 42
0.4142135623731
 10
-794.1269390626811
 20
-1991.849270232104
 42
0.4142135623731
 10
-792.6269390626811
 20
-1993.349270232104
 42
0.4142135623731
  0
LWPOLYLINE
  5
4E
330
1F
100
AcDbEntity
  8
寸法
  6
Continuous
 62
     7
370
     9
100
AcDbPolyline
 90
        4
 70
     1
 43
3.0
 10
1632.873060937317
 20
-1991.849270232103
 42
0.4142135623731
 10
1631.373060937317
 20
-1990.349270232103
 42
0.4142135623731
 10
1629.873060937317
 20
-1991.849270232103
 42
0.4142135623731
 10
1631.373060937317
 20
-1993.349270232103
 42
0.4142135623731
  0
LWPOLYLINE
  5
4F
330
1F
100
AcDbEntity
  8
寸法
  6
Continuous
 62
     7
370
     9
100
AcDbPolyline
 90
        4
 70
     1
 43
3.0
 10
-761.1269390626811
 20
-1791.849270232104
 42
0.4142135623731
 10
-762.6269390626811
 20
-1790.349270232104
 42
0.4142135623731
 10
-764.1269390626811
 20
-1791.849270232104
 42
0.4142135623731
 10
-762.6269390626811
 20
-1793.349270232104
 42
0.4142135623731
  0
LWPOLYLINE
  5
50
330
1F
100
AcDbEntity
  8
寸法
  6
Continuous
 62
     7
370
     9
100
AcDbPolyline
 90
        4
 70
     1
 43
3.0
 10
795.8730609373182
 20
-1791.849270232104
 42
0.4142135623731
 10
794.3730609373182
 20
-1790.349270232104
 42
0.4142135623731
 10
792.8730609373182
 20
-1791.849270232104
 42
0.4142135623731
 10
794.3730609373182
 20
-1793.349270232104
 42
0.4142135623731
  0
LINE
  5
51
330
1F
100
AcDbEntity
  8
寸法
  6
Continuous
 62
   120
370
     5
100
AcDbLine
 10
-1242.626939062683
 20
-1341.849270232105
 30
0.0
 11
-842.6269390626834
 21
-1341.849270232105
 31
0.0
  0
LINE
  5
52
330
1F
100
AcDbEntity
  8
寸法
  6
Continuous
 62
   120
370
     5
100
AcDbLine
 10
-1042.626939062682
 20
-1321.849270232104
 30
0.0
 11
-842.6269390626834
 21
-1321.849270232104
 31
0.0
  0
LWPOLYLINE
  5
53
330
1F
100
AcDbEntity
  8
寸法
  6
Continuous
 62
     7
370
     9
100
AcDbPolyline
 90
        4
 70
     1
 43
3.0
 10
-1241.126939062683
 20
-1341.849270232105
 42
0.4142135623731
 10
-1242.626939062683
 20
-1340.349270232105
 42
0.4142135623731
 10
-1244.126939062683
 20
-1341.849270232105
 42
0.4142135623731
 10
-1242.626939062683
 20
-1343.349270232105
 42
0.4142135623731
  0
LWPOLYLINE
  5
54
330
1F
100
AcDbEntity
  8
寸法
  6
Continuous
 62
     7
370
     9
100
AcDbPolyline
 90
        4
 70
     1
 43
3.0
 10
-1041.126939062682
 20
-1321.849270232104
 42
0.4142135623731
 10
-1042.626939062682
 20
-1320.349270232104
 42
0.4142135623731
 10
-1044.126939062682
 20
-1321.849270232104
 42
0.4142135623731
 10
-1042.626939062682
 20
-1323.349270232103
 42
0.4142135623731
  0
MTEXT
  5
55
330
1F
100
AcDbEntity
  8
寸法
  6
Continuous
 62
     7
370
   211
100
AcDbMText
 10
-529.3769390626818
 20
-1585.774270232105
 30
0.0
 40
57.15
 41
337.5
 46
0.0
 71
     7
 72
     1
  1
{\fＭＳ ゴシック|b0|i0|c128|p49;ＤＷ＝810}
 73
     1
 44
1.0
  0
MTEXT
  5
56
330
1F
100
AcDbEntity
  8
寸法
  6
Continuous
 62
     7
370
   211
100
AcDbMText
 10
-190.3769390626832
 20
-1785.774270232104
 30
0.0
 40
57.14999999999999
 41
412.5
 46
0.0
 71
     7
 72
     1
  1
{\fＭＳ ゴシック|b0|i0|c128|p49;枠内＝1,557}
 73
     1
 44
1.0
  0
MTEXT
  5
57
330
1F
100
AcDbEntity
  8
寸法
  6
Continuous
 62
     7
370
   211
100
AcDbMText
 10
213.1230609373182
 20
-1985.774270232104
 30
0.0
 40
57.14999999999999
 41
412.5
 46
0.0
 71
     7
 72
     1
  1
{\fＭＳ ゴシック|b0|i0|c128|p49;枠外＝2,427}
 73
     1
 44
1.0
  0
LINE
  5
58
330
1F
100
AcDbEntity
  8
寸法
  6
Continuous
 62
   120
370
     5
100
AcDbLine
 10
-1242.626939062683
 20
905.1507297678954
 30
0.0
 11
-1242.626939062683
 21
-1341.849270232105
 31
0.0
  0
LINE
  5
59
330
1F
100
AcDbEntity
  8
寸法
  6
Continuous
 62
   120
370
     5
100
AcDbLine
 10
-1242.626939062683
 20
905.1507297678954
 30
0.0
 11
-842.6269390626834
 21
905.1507297678954
 31
0.0
  0
LWPOLYLINE
  5
5A
330
1F
100
AcDbEntity
  8
寸法
  6
Continuous
 62
     7
370
     9
100
AcDbPolyline
 90
        4
 70
     1
 43
3.0
 10
-1241.126939062683
 20
905.1507297678954
 42
0.4142135623731
 10
-1242.626939062683
 20
906.6507297678954
 42
0.4142135623731
 10
-1244.126939062683
 20
905.1507297678954
 42
0.4142135623731
 10
-1242.626939062683
 20
903.6507297678954
 42
0.4142135623731
  0
LINE
  5
5B
330
1F
100
AcDbEntity
  8
寸法
  6
Continuous
 62
   120
370
     5
100
AcDbLine
 10
-1042.626939062682
 20
861.1507297678962
 30
0.0
 11
-842.6269390626834
 21
861.1507297678962
 31
0.0
  0
LINE
  5
5C
330
1F
100
AcDbEntity
  8
寸法
  6
Continuous
 62
   120
370
     5
100
AcDbLine
 10
-1042.626939062682
 20
861.1507297678962
 30
0.0
 11
-1042.626939062682
 21
-1321.849270232104
 31
0.0
  0
LWPOLYLINE
  5
5D
330
1F
100
AcDbEntity
  8
寸法
  6
Continuous
 62
     7
370
     9
100
AcDbPolyline
 90
        4
 70
     1
 43
3.0
 10
-1041.126939062682
 20
861.1507297678962
 42
0.4142135623731
 10
-1042.626939062682
 20
862.6507297678962
 42
0.4142135623731
 10
-1044.126939062682
 20
861.1507297678962
 42
0.4142135623731
 10
-1042.626939062682
 20
859.6507297678962
 42
0.4142135623731
  0
MTEXT
  5
5E
330
1F
100
AcDbEntity
  8
寸法
  6
Continuous
 62
     7
370
    70
100
AcDbMText
 10
-1257.626939062683
 20
-445.5242702321038
 30
0.0
 40
57.14999999999999
 41
412.5
 46
0.0
 71
     7
 72
     1
  1
{\fＭＳ ゴシック|b0|i0|c128|p49;枠外＝2,247}
 11
6.123031769111886E-17
 21
1.0
 31
0.0
 73
     1
 44
1.0
  0
MTEXT
  5
5F
330
1F
100
AcDbEntity
  8
寸法
  6
Continuous
 62
     7
370
    70
100
AcDbMText
 10
-1057.626939062682
 20
-445.5242702321038
 30
0.0
 40
57.14999999999999
 41
412.5
 46
0.0
 71
     7
 72
     1
  1
{\fＭＳ ゴシック|b0|i0|c128|p49;ＤＨ＝2,183}
 11
6.123031769111886E-17
 21
1.0
 31
0.0
 73
     1
 44
1.0
  0
LINE
  5
60
330
1F
100
AcDbEntity
  8
0-0
  6
Continuous
 62
    92
370
    13
100
AcDbLine
 10
1631.373060937317
 20
-1341.849270232104
 30
0.0
 11
-792.6269390626811
 21
-1341.849270232104
 31
0.0
  0
LINE
  5
61
330
1F
100
AcDbEntity
  8
0-0
  6
Continuous
 62
    92
370
    13
100
AcDbLine
 10
1601.373060937317
 20
-1326.849270232104
 30
0.0
 11
-762.6269390626811
 21
-1326.849270232104
 31
0.0
  0
ARC
  5
62
330
1F
100
AcDbEntity
  8
0-0
  6
Continuous
 62
    92
370
    13
100
AcDbCircle
 10
-734.1269390626832
 20
-304.8492702321032
 30
0.0
 40
1.5
100
AcDbArc
 50
90.0
 51
180.0
  0
LINE
  5
63
330
1F
100
AcDbEntity
  8
0-0
  6
Continuous
 62
    92
370
    13
100
AcDbLine
 10
-695.1269390626828
 20
-303.3492702321037
 30
0.0
 11
-734.1269390626832
 21
-303.3492702321037
 31
0.0
  0
ARC
  5
64
330
1F
100
AcDbEntity
  8
0-0
  6
Continuous
 62
    92
370
    13
100
AcDbCircle
 10
-695.1269390626828
 20
-304.8492702321032
 30
0.0
 40
1.5
100
AcDbArc
 50
0.0
 51
90.00000000000001
  0
LINE
  5
65
330
1F
100
AcDbEntity
  8
0-0
  6
Continuous
 62
    92
370
    13
100
AcDbLine
 10
-693.6269390626859
 20
-423.8492702321032
 30
0.0
 11
-693.6269390626859
 21
-304.8492702321032
 31
0.0
  0
ARC
  5
66
330
1F
100
AcDbEntity
  8
0-0
  6
Continuous
 62
    92
370
    13
100
AcDbCircle
 10
-695.1269390626828
 20
-423.8492702321032
 30
0.0
 40
1.5
100
AcDbArc
 50
270.0
 51
0.0
  0
LINE
  5
67
330
1F
100
AcDbEntity
  8
0-0
  6
Continuous
 62
    92
370
    13
100
AcDbLine
 10
-734.1269390626832
 20
-425.3492702321032
 30
0.0
 11
-695.1269390626828
 21
-425.3492702321032
 31
0.0
  0
LINE
  5
68
330
1F
100
AcDbEntity
  8
0-0
  6
Continuous
 62
    92
370
    13
100
AcDbLine
 10
-735.6269390626818
 20
-423.8492702321032
 30
0.0
 11
-735.6269390626818
 21
-304.8492702321032
 31
0.0
  0
ARC
  5
69
330
1F
100
AcDbEntity
  8
0-0
  6
Continuous
 62
    92
370
    13
100
AcDbCircle
 10
-734.1269390626832
 20
-423.8492702321032
 30
0.0
 40
1.5
100
AcDbArc
 50
180.0
 51
270.0
  0
ARC
  5
6A
330
1F
100
AcDbEntity
  8
0-0
  6
Continuous
 62
     7
370
     9
100
AcDbCircle
 10
-714.6269390626838
 20
-393.9492702321036
 30
0.0
 40
15.0
100
AcDbArc
 50
180.0
 51
0.0
  0
ARC
  5
6B
330
1F
100
AcDbEntity
  8
0-0
  6
Continuous
 62
     7
370
     9
100
AcDbCircle
 10
-714.6269390626838
 20
-334.7492702321033
 30
0.0
 40
15.0
100
AcDbArc
 50
0.0
 51
180.0
  0
LINE
  5
6C
330
1F
100
AcDbEntity
  8
0-0
  6
Continuous
 62
     7
370
     9
100
AcDbLine
 10
-699.6269390626838
 20
-393.9492702321036
 30
0.0
 11
-699.6269390626838
 21
-334.7492702321033
 31
0.0
  0
LINE
  5
6D
330
1F
100
AcDbEntity
  8
0-0
  6
Continuous
 62
     7
370
     9
100
AcDbLine
 10
-729.6269390626838
 20
-334.7492702321033
 30
0.0
 11
-729.6269390626838
 21
-393.9492702321036
 31
0.0
  0
ARC
  5
6E
330
1F
100
AcDbEntity
  8
0-0
  6
Continuous
 62
    92
370
    13
100
AcDbCircle
 10
45.87306093731684
 20
-304.8492702321032
 30
0.0
 40
1.5
100
AcDbArc
 50
90.0
 51
180.0
  0
LINE
  5
6F
330
1F
100
AcDbEntity
  8
0-0
  6
Continuous
 62
    92
370
    13
100
AcDbLine
 10
84.87306093731718
 20
-303.3492702321037
 30
0.0
 11
45.87306093731684
 21
-303.3492702321037
 31
0.0
  0
ARC
  5
70
330
1F
100
AcDbEntity
  8
0-0
  6
Continuous
 62
    92
370
    13
100
AcDbCircle
 10
84.87306093731718
 20
-304.8492702321032
 30
0.0
 40
1.5
100
AcDbArc
 50
0.0
 51
90.00000000000001
  0
LINE
  5
71
330
1F
100
AcDbEntity
  8
0-0
  6
Continuous
 62
    92
370
    13
100
AcDbLine
 10
86.37306093731411
 20
-423.8492702321032
 30
0.0
 11
86.37306093731411
 21
-304.8492702321032
 31
0.0
  0
ARC
  5
72
330
1F
100
AcDbEntity
  8
0-0
  6
Continuous
 62
    92
370
    13
100
AcDbCircle
 10
84.87306093731718
 20
-423.8492702321032
 30
0.0
 40
1.5
100
AcDbArc
 50
270.0
 51
0.0
  0
LINE
  5
73
330
1F
100
AcDbEntity
  8
0-0
  6
Continuous
 62
    92
370
    13
100
AcDbLine
 10
45.87306093731684
 20
-425.3492702321032
 30
0.0
 11
84.87306093731718
 21
-425.3492702321032
 31
0.0
  0
LINE
  5
74
330
1F
100
AcDbEntity
  8
0-0
  6
Continuous
 62
    92
370
    13
100
AcDbLine
 10
44.3730609373182
 20
-423.8492702321032
 30
0.0
 11
44.3730609373182
 21
-304.8492702321032
 31
0.0
  0
ARC
  5
75
330
1F
100
AcDbEntity
  8
0-0
  6
Continuous
 62
    92
370
    13
100
AcDbCircle
 10
45.87306093731684
 20
-423.8492702321032
 30
0.0
 40
1.5
100
AcDbArc
 50
180.0
 51
270.0
  0
ARC
  5
76
330
1F
100
AcDbEntity
  8
0-0
  6
Continuous
 62
     7
370
     9
100
AcDbCircle
 10
65.37306093731615
 20
-393.9492702321036
 30
0.0
 40
15.0
100
AcDbArc
 50
180.0
 51
0.0
  0
ARC
  5
77
330
1F
100
AcDbEntity
  8
0-0
  6
Continuous
 62
     7
370
     9
100
AcDbCircle
 10
65.37306093731615
 20
-334.7492702321033
 30
0.0
 40
15.0
100
AcDbArc
 50
0.0
 51
180.0
  0
LINE
  5
78
330
1F
100
AcDbEntity
  8
0-0
  6
Continuous
 62
     7
370
     9
100
AcDbLine
 10
80.37306093731615
 20
-393.9492702321036
 30
0.0
 11
80.37306093731615
 21
-334.7492702321033
 31
0.0
  0
LINE
  5
79
330
1F
100
AcDbEntity
  8
0-0
  6
Continuous
 62
     7
370
     9
100
AcDbLine
 10
50.37306093731615
 20
-334.7492702321033
 30
0.0
 11
50.37306093731615
 21
-393.9492702321036
 31
0.0
  0
LINE
  5
7A
330
1F
100
AcDbEntity
  8
0-0
  6
JWW_DASHED1
 62
   120
370
     5
100
AcDbLine
 10
-762.6269390626811
 20
-1321.849270232103
 30
0.0
 11
-765.6269390626818
 21
-1321.849270232103
 31
0.0
  0
LINE
  5
7B
330
1F
100
AcDbEntity
  8
0-0
  6
Continuous
 62
    92
370
    13
100
AcDbLine
 10
-762.6269390626811
 20
-1321.849270232103
 30
0.0
 11
824.3730609373182
 21
-1321.849270232103
 31
0.0
  0
LINE
  5
7C
330
1F
100
AcDbEntity
  8
0-0
  6
Continuous
 62
     7
370
     9
100
AcDbLine
 10
-647.1269390626821
 20
-1171.849270232103
 30
0.0
 11
-662.1269390626821
 21
-1186.849270232104
 31
0.0
  0
LINE
  5
7D
330
1F
100
AcDbEntity
  8
0-0
  6
Continuous
 62
     7
370
     9
100
AcDbLine
 10
-74.12693906268146
 20
-1171.849270232103
 30
0.0
 11
-59.12693906268146
 21
-1186.849270232104
 31
0.0
  0
LINE
  5
7E
330
1F
100
AcDbEntity
  8
0-0
  6
Continuous
 62
     7
370
     9
100
AcDbLine
 10
-662.1269390626821
 20
-1186.849270232104
 30
0.0
 11
-59.12693906268146
 21
-1186.849270232104
 31
0.0
  0
LINE
  5
7F
330
1F
100
AcDbEntity
  8
0-0
  6
Continuous
 62
     7
370
     9
100
AcDbLine
 10
-617.1269390626821
 20
-1141.849270232103
 30
0.0
 11
-632.1269390626821
 21
-1156.849270232103
 31
0.0
  0
LINE
  5
80
330
1F
100
AcDbEntity
  8
0-0
  6
Continuous
 62
     7
370
     9
100
AcDbLine
 10
-104.1269390626815
 20
-1141.849270232103
 30
0.0
 11
-89.12693906268146
 21
-1156.849270232103
 31
0.0
  0
LINE
  5
81
330
1F
100
AcDbEntity
  8
0-0
  6
Continuous
 62
     7
370
     9
100
AcDbLine
 10
-617.1269390626821
 20
-1141.849270232103
 30
0.0
 11
-104.1269390626815
 21
-1141.849270232103
 31
0.0
  0
LINE
  5
82
330
1F
100
AcDbEntity
  8
0-0
  6
Continuous
 62
    92
370
    13
100
AcDbLine
 10
-647.1269390626821
 20
-1171.849270232103
 30
0.0
 11
-74.12693906268146
 21
-1171.849270232103
 31
0.0
  0
LINE
  5
83
330
1F
100
AcDbEntity
  8
0-0
  6
Continuous
 62
     7
370
     9
100
AcDbLine
 10
132.8730609373179
 20
-1171.849270232103
 30
0.0
 11
117.8730609373179
 21
-1186.849270232104
 31
0.0
  0
LINE
  5
84
330
1F
100
AcDbEntity
  8
0-0
  6
Continuous
 62
     7
370
     9
100
AcDbLine
 10
705.8730609373185
 20
-1171.849270232103
 30
0.0
 11
720.8730609373185
 21
-1186.849270232104
 31
0.0
  0
LINE
  5
85
330
1F
100
AcDbEntity
  8
0-0
  6
Continuous
 62
     7
370
     9
100
AcDbLine
 10
117.8730609373179
 20
-1186.849270232104
 30
0.0
 11
720.8730609373185
 21
-1186.849270232104
 31
0.0
  0
LINE
  5
86
330
1F
100
AcDbEntity
  8
0-0
  6
Continuous
 62
     7
370
     9
100
AcDbLine
 10
162.8730609373179
 20
-1141.849270232103
 30
0.0
 11
147.8730609373179
 21
-1156.849270232103
 31
0.0
  0
LINE
  5
87
330
1F
100
AcDbEntity
  8
0-0
  6
Continuous
 62
     7
370
     9
100
AcDbLine
 10
675.8730609373185
 20
-1141.849270232103
 30
0.0
 11
690.8730609373185
 21
-1156.849270232103
 31
0.0
  0
LINE
  5
88
330
1F
100
AcDbEntity
  8
0-0
  6
Continuous
 62
     7
370
     9
100
AcDbLine
 10
162.8730609373179
 20
-1141.849270232103
 30
0.0
 11
675.8730609373185
 21
-1141.849270232103
 31
0.0
  0
LINE
  5
89
330
1F
100
AcDbEntity
  8
0-0
  6
Continuous
 62
    92
370
    13
100
AcDbLine
 10
132.8730609373179
 20
-1171.849270232103
 30
0.0
 11
705.8730609373185
 21
-1171.849270232103
 31
0.0
  0
LINE
  5
8A
330
1F
100
AcDbEntity
  8
0-0
  6
Continuous
 62
    92
370
    13
100
AcDbLine
 10
-792.6269390626811
 20
-1341.849270232104
 30
0.0
 11
-792.6269390626811
 21
905.1507297678954
 31
0.0
  0
LINE
  5
8B
330
1F
100
AcDbEntity
  8
0-0
  6
Continuous
 62
    92
370
    13
100
AcDbLine
 10
1631.373060937317
 20
-1341.849270232104
 30
0.0
 11
1631.373060937317
 21
905.1507297678954
 31
0.0
  0
LINE
  5
8C
330
1F
100
AcDbEntity
  8
0-0
  6
JWW_DASHED1
 62
   120
370
     5
100
AcDbLine
 10
794.3730609373182
 20
-1326.849270232104
 30
0.0
 11
794.3730609373182
 21
869.1507297678958
 31
0.0
  0
LINE
  5
8D
330
1F
100
AcDbEntity
  8
0-0
  6
JWW_DASHED1
 62
   120
370
     5
100
AcDbLine
 10
824.3730609373182
 20
-1326.849270232104
 30
0.0
 11
824.3730609373182
 21
869.1507297678958
 31
0.0
  0
LINE
  5
8E
330
1F
100
AcDbEntity
  8
0-0
  6
Continuous
 62
    92
370
    13
100
AcDbLine
 10
-762.6269390626811
 20
-1341.849270232104
 30
0.0
 11
-762.6269390626811
 21
905.1507297678954
 31
0.0
  0
LINE
  5
8F
330
1F
100
AcDbEntity
  8
0-0
  6
Continuous
 62
    92
370
    13
100
AcDbLine
 10
1601.373060937317
 20
-1341.849270232104
 30
0.0
 11
1601.373060937317
 21
905.1507297678954
 31
0.0
  0
LINE
  5
90
330
1F
100
AcDbEntity
  8
0-0
  6
Continuous
 62
    92
370
    13
100
AcDbLine
 10
-762.6269390626811
 20
869.1507297678958
 30
0.0
 11
1601.373060937317
 21
869.1507297678958
 31
0.0
  0
LINE
  5
91
330
1F
100
AcDbEntity
  8
0-0
  6
Continuous
 62
    92
370
    13
100
AcDbLine
 10
-792.6269390626811
 20
905.1507297678954
 30
0.0
 11
1631.373060937317
 21
905.1507297678954
 31
0.0
  0
LINE
  5
92
330
1F
100
AcDbEntity
  8
0-0
  6
JWW_DASHED1
 62
   120
370
     5
100
AcDbLine
 10
-765.6269390626818
 20
-1321.849270232103
 30
0.0
 11
-765.6269390626818
 21
861.1507297678962
 31
0.0
  0
LINE
  5
93
330
1F
100
AcDbEntity
  8
0-0
  6
JWW_DASHED1
 62
   120
370
     5
100
AcDbLine
 10
-765.6269390626818
 20
861.1507297678962
 30
0.0
 11
-762.6269390626811
 21
861.1507297678962
 31
0.0
  0
LINE
  5
94
330
1F
100
AcDbEntity
  8
0-0
  6
JWW_DASHED1
 62
   120
370
     5
100
AcDbLine
 10
44.3730609373182
 20
-1321.849270232103
 30
0.0
 11
44.3730609373182
 21
861.1507297678962
 31
0.0
  0
LINE
  5
95
330
1F
100
AcDbEntity
  8
0-0
  6
Continuous
 62
    92
370
    13
100
AcDbLine
 10
-762.6269390626811
 20
861.1507297678962
 30
0.0
 11
824.3730609373182
 21
861.1507297678962
 31
0.0
  0
LINE
  5
96
330
1F
100
AcDbEntity
  8
0-0
  6
Continuous
 62
    92
370
    13
100
AcDbLine
 10
14.3730609373182
 20
861.1507297678962
 30
0.0
 11
14.3730609373182
 21
-1321.849270232103
 31
0.0
  0
LINE
  5
97
330
1F
100
AcDbEntity
  8
0-0
  6
Continuous
 62
    92
370
    13
100
AcDbLine
 10
824.3730609373182
 20
-1321.849270232103
 30
0.0
 11
824.3730609373182
 21
861.1507297678962
 31
0.0
  0
LINE
  5
98
330
1F
100
AcDbEntity
  8
0-0
  6
Continuous
 62
     7
370
     9
100
AcDbLine
 10
-662.1269390626821
 20
-1321.849270232103
 30
0.0
 11
-662.1269390626821
 21
861.1507297678962
 31
0.0
  0
LINE
  5
99
330
1F
100
AcDbEntity
  8
0-0
  6
Continuous
 62
     7
370
     9
100
AcDbLine
 10
-59.12693906268146
 20
-1321.849270232103
 30
0.0
 11
-59.12693906268146
 21
861.1507297678962
 31
0.0
  0
LINE
  5
9A
330
1F
100
AcDbEntity
  8
0-0
  6
Continuous
 62
     7
370
     9
100
AcDbLine
 10
-647.1269390626821
 20
-448.8492702321035
 30
0.0
 11
-662.1269390626821
 21
-463.8492702321035
 31
0.0
  0
LINE
  5
9B
330
1F
100
AcDbEntity
  8
0-0
  6
Continuous
 62
     7
370
     9
100
AcDbLine
 10
-662.1269390626821
 20
-538.8492702321035
 30
0.0
 11
-647.1269390626821
 21
-553.8492702321035
 31
0.0
  0
LINE
  5
9C
330
1F
100
AcDbEntity
  8
0-0
  6
Continuous
 62
     7
370
     9
100
AcDbLine
 10
-74.12693906268146
 20
-448.8492702321035
 30
0.0
 11
-59.12693906268146
 21
-463.8492702321035
 31
0.0
  0
LINE
  5
9D
330
1F
100
AcDbEntity
  8
0-0
  6
Continuous
 62
     7
370
     9
100
AcDbLine
 10
-59.12693906268146
 20
-538.8492702321035
 30
0.0
 11
-74.12693906268146
 21
-553.8492702321035
 31
0.0
  0
LINE
  5
9E
330
1F
100
AcDbEntity
  8
0-0
  6
Continuous
 62
     7
370
     9
100
AcDbLine
 10
-662.1269390626821
 20
-463.8492702321035
 30
0.0
 11
-59.12693906268146
 21
-463.8492702321035
 31
0.0
  0
LINE
  5
9F
330
1F
100
AcDbEntity
  8
0-0
  6
Continuous
 62
     7
370
     9
100
AcDbLine
 10
-662.1269390626821
 20
-538.8492702321035
 30
0.0
 11
-59.12693906268146
 21
-538.8492702321035
 31
0.0
  0
LINE
  5
A0
330
1F
100
AcDbEntity
  8
0-0
  6
Continuous
 62
     7
370
     9
100
AcDbLine
 10
-617.1269390626821
 20
-1141.849270232103
 30
0.0
 11
-617.1269390626821
 21
-583.8492702321035
 31
0.0
  0
LINE
  5
A1
330
1F
100
AcDbEntity
  8
0-0
  6
Continuous
 62
     7
370
     9
100
AcDbLine
 10
-632.1269390626821
 20
-568.8492702321035
 30
0.0
 11
-617.1269390626821
 21
-583.8492702321035
 31
0.0
  0
LINE
  5
A2
330
1F
100
AcDbEntity
  8
0-0
  6
Continuous
 62
     7
370
     9
100
AcDbLine
 10
-89.12693906268146
 20
-568.8492702321035
 30
0.0
 11
-104.1269390626815
 21
-583.8492702321035
 31
0.0
  0
LINE
  5
A3
330
1F
100
AcDbEntity
  8
0-0
  6
Continuous
 62
     7
370
     9
100
AcDbLine
 10
-617.1269390626821
 20
-583.8492702321035
 30
0.0
 11
-104.1269390626815
 21
-583.8492702321035
 31
0.0
  0
LINE
  5
A4
330
1F
100
AcDbEntity
  8
0-0
  6
Continuous
 62
     7
370
     9
100
AcDbLine
 10
-104.1269390626815
 20
-1141.849270232103
 30
0.0
 11
-104.1269390626815
 21
-583.8492702321035
 31
0.0
  0
LINE
  5
A5
330
1F
100
AcDbEntity
  8
0-0
  6
Continuous
 62
     7
370
     9
100
AcDbLine
 10
-647.1269390626838
 20
666.150462223588
 30
0.0
 11
-662.1273349716279
 21
681.150858132529
 31
0.0
  0
LINE
  5
A6
330
1F
100
AcDbEntity
  8
0-0
  6
Continuous
 62
     7
370
     9
100
AcDbLine
 10
-74.12693906268146
 20
666.150462223588
 30
0.0
 11
-59.12693906268146
 21
681.150462223588
 31
0.0
  0
ARC
  5
A7
330
1F
100
AcDbEntity
  8
0-0
  6
Continuous
 62
     7
370
     9
100
AcDbCircle
 10
-598.1142764912698
 20
816.150462223588
 30
0.0
 40
135.0
100
AcDbArc
 50
270.0
 51
298.3577011236671
  0
ARC
  5
A8
330
1F
100
AcDbEntity
  8
0-0
  6
Continuous
 62
     7
370
     9
100
AcDbCircle
 10
-123.1396016340938
 20
816.150462223588
 30
0.0
 40
135.0
100
AcDbArc
 50
241.6422988763328
 51
270.0
  0
ARC
  5
A9
330
1F
100
AcDbEntity
  8
0-0
  6
Continuous
 62
     7
370
     9
100
AcDbCircle
 10
-360.6269390626818
 20
376.1507297678963
 30
0.0
 40
365.0
100
AcDbArc
 50
61.64229887633292
 51
118.3577011236671
  0
LINE
  5
AA
330
1F
100
AcDbEntity
  8
0-0
  6
Continuous
 62
     7
370
     9
100
AcDbLine
 10
-662.1269885506513
 20
681.1505117115522
 30
0.0
 11
-598.1142764912698
 21
681.1505117115522
 31
0.0
  0
LINE
  5
AB
330
1F
100
AcDbEntity
  8
0-0
  6
Continuous
 62
     7
370
     9
100
AcDbLine
 10
-59.12688957471573
 20
681.1505117115522
 30
0.0
 11
-123.1396016340938
 21
681.1505117115522
 31
0.0
  0
LINE
  5
AC
330
1F
100
AcDbEntity
  8
0-0
  6
Continuous
 62
    92
370
    13
100
AcDbLine
 10
-647.1269390626821
 20
-553.8492702321035
 30
0.0
 11
-74.12693906268146
 21
-553.8492702321035
 31
0.0
  0
LINE
  5
AD
330
1F
100
AcDbEntity
  8
0-0
  6
Continuous
 62
    92
370
    13
100
AcDbLine
 10
-647.1269390626821
 20
-1171.849270232103
 30
0.0
 11
-647.1269390626821
 21
-553.8492702321035
 31
0.0
  0
LINE
  5
AE
330
1F
100
AcDbEntity
  8
0-0
  6
Continuous
 62
    92
370
    13
100
AcDbLine
 10
-74.12693906268146
 20
-1171.849270232103
 30
0.0
 11
-74.12693906268146
 21
-553.8492702321035
 31
0.0
  0
LINE
  5
AF
330
1F
100
AcDbEntity
  8
0-0
  6
Continuous
 62
    92
370
    13
100
AcDbLine
 10
-74.12693906268146
 20
666.150462223588
 30
0.0
 11
-123.1396016340938
 21
666.150462223588
 31
0.0
  0
ARC
  5
B0
330
1F
100
AcDbEntity
  8
0-0
  6
Continuous
 62
    92
370
    13
100
AcDbCircle
 10
-123.1396016340938
 20
816.150462223588
 30
0.0
 40
150.0
100
AcDbArc
 50
241.6422988763328
 51
270.0
  0
ARC
  5
B1
330
1F
100
AcDbEntity
  8
0-0
  6
Continuous
 62
    92
370
    13
100
AcDbCircle
 10
-360.6269390626818
 20
376.1507297678963
 30
0.0
 40
350.0
100
AcDbArc
 50
61.64229887633292
 51
118.3577011236671
  0
ARC
  5
B2
330
1F
100
AcDbEntity
  8
0-0
  6
Continuous
 62
    92
370
    13
100
AcDbCircle
 10
-598.1142764912698
 20
816.150462223588
 30
0.0
 40
150.0
100
AcDbArc
 50
270.0
 51
298.3577011236671
  0
LINE
  5
B3
330
1F
100
AcDbEntity
  8
0-0
  6
Continuous
 62
    92
370
    13
100
AcDbLine
 10
-647.1269390626838
 20
666.150462223588
 30
0.0
 11
-598.1142764912698
 21
666.150462223588
 31
0.0
  0
LINE
  5
B4
330
1F
100
AcDbEntity
  8
0-0
  6
Continuous
 62
    92
370
    13
100
AcDbLine
 10
-647.1269390626821
 20
-448.8492702321035
 30
0.0
 11
-647.1269390626821
 21
666.150462223588
 31
0.0
  0
LINE
  5
B5
330
1F
100
AcDbEntity
  8
0-0
  6
Continuous
 62
    92
370
    13
100
AcDbLine
 10
-647.1269390626821
 20
-448.8492702321035
 30
0.0
 11
-74.12693906268146
 21
-448.8492702321035
 31
0.0
  0
LINE
  5
B6
330
1F
100
AcDbEntity
  8
0-0
  6
Continuous
 62
    92
370
    13
100
AcDbLine
 10
-74.12693906268146
 20
-448.8492702321035
 30
0.0
 11
-74.12693906268146
 21
666.150462223588
 31
0.0
  0
LINE
  5
B7
330
1F
100
AcDbEntity
  8
0-0
  6
Continuous
 62
     7
370
     9
100
AcDbLine
 10
117.8730609373179
 20
-1321.849270232103
 30
0.0
 11
117.8730609373179
 21
861.1507297678962
 31
0.0
  0
LINE
  5
B8
330
1F
100
AcDbEntity
  8
0-0
  6
Continuous
 62
     7
370
     9
100
AcDbLine
 10
720.8730609373185
 20
-1321.849270232103
 30
0.0
 11
720.8730609373185
 21
861.1507297678962
 31
0.0
  0
LINE
  5
B9
330
1F
100
AcDbEntity
  8
0-0
  6
Continuous
 62
     7
370
     9
100
AcDbLine
 10
132.8730609373179
 20
-448.8492702321035
 30
0.0
 11
117.8730609373179
 21
-463.8492702321035
 31
0.0
  0
LINE
  5
BA
330
1F
100
AcDbEntity
  8
0-0
  6
Continuous
 62
     7
370
     9
100
AcDbLine
 10
117.8730609373179
 20
-538.8492702321035
 30
0.0
 11
132.8730609373179
 21
-553.8492702321035
 31
0.0
  0
LINE
  5
BB
330
1F
100
AcDbEntity
  8
0-0
  6
Continuous
 62
     7
370
     9
100
AcDbLine
 10
705.8730609373185
 20
-448.8492702321035
 30
0.0
 11
720.8730609373185
 21
-463.8492702321035
 31
0.0
  0
LINE
  5
BC
330
1F
100
AcDbEntity
  8
0-0
  6
Continuous
 62
     7
370
     9
100
AcDbLine
 10
720.8730609373185
 20
-538.8492702321035
 30
0.0
 11
705.8730609373185
 21
-553.8492702321035
 31
0.0
  0
LINE
  5
BD
330
1F
100
AcDbEntity
  8
0-0
  6
Continuous
 62
     7
370
     9
100
AcDbLine
 10
117.8730609373179
 20
-463.8492702321035
 30
0.0
 11
720.8730609373185
 21
-463.8492702321035
 31
0.0
  0
LINE
  5
BE
330
1F
100
AcDbEntity
  8
0-0
  6
Continuous
 62
     7
370
     9
100
AcDbLine
 10
117.8730609373179
 20
-538.8492702321035
 30
0.0
 11
720.8730609373185
 21
-538.8492702321035
 31
0.0
  0
LINE
  5
BF
330
1F
100
AcDbEntity
  8
0-0
  6
Continuous
 62
     7
370
     9
100
AcDbLine
 10
162.8730609373179
 20
-1141.849270232103
 30
0.0
 11
162.8730609373179
 21
-583.8492702321035
 31
0.0
  0
LINE
  5
C0
330
1F
100
AcDbEntity
  8
0-0
  6
Continuous
 62
     7
370
     9
100
AcDbLine
 10
147.8730609373179
 20
-568.8492702321035
 30
0.0
 11
162.8730609373179
 21
-583.8492702321035
 31
0.0
  0
LINE
  5
C1
330
1F
100
AcDbEntity
  8
0-0
  6
Continuous
 62
     7
370
     9
100
AcDbLine
 10
690.8730609373185
 20
-568.8492702321035
 30
0.0
 11
675.8730609373185
 21
-583.8492702321035
 31
0.0
  0
LINE
  5
C2
330
1F
100
AcDbEntity
  8
0-0
  6
Continuous
 62
     7
370
     9
100
AcDbLine
 10
162.8730609373179
 20
-583.8492702321035
 30
0.0
 11
675.8730609373185
 21
-583.8492702321035
 31
0.0
  0
LINE
  5
C3
330
1F
100
AcDbEntity
  8
0-0
  6
Continuous
 62
     7
370
     9
100
AcDbLine
 10
675.8730609373185
 20
-1141.849270232103
 30
0.0
 11
675.8730609373185
 21
-583.8492702321035
 31
0.0
  0
LINE
  5
C4
330
1F
100
AcDbEntity
  8
0-0
  6
Continuous
 62
     7
370
     9
100
AcDbLine
 10
132.8730609373162
 20
666.150462223588
 30
0.0
 11
117.8726650283721
 21
681.150858132529
 31
0.0
  0
LINE
  5
C5
330
1F
100
AcDbEntity
  8
0-0
  6
Continuous
 62
     7
370
     9
100
AcDbLine
 10
705.8730609373185
 20
666.150462223588
 30
0.0
 11
720.8730609373185
 21
681.150462223588
 31
0.0
  0
ARC
  5
C6
330
1F
100
AcDbEntity
  8
0-0
  6
Continuous
 62
     7
370
     9
100
AcDbCircle
 10
181.8857235087302
 20
816.150462223588
 30
0.0
 40
135.0
100
AcDbArc
 50
270.0
 51
298.3577011236671
  0
ARC
  5
C7
330
1F
100
AcDbEntity
  8
0-0
  6
Continuous
 62
     7
370
     9
100
AcDbCircle
 10
656.8603983659062
 20
816.150462223588
 30
0.0
 40
135.0
100
AcDbArc
 50
241.6422988763328
 51
270.0
  0
ARC
  5
C8
330
1F
100
AcDbEntity
  8
0-0
  6
Continuous
 62
     7
370
     9
100
AcDbCircle
 10
419.3730609373182
 20
376.1507297678963
 30
0.0
 40
365.0
100
AcDbArc
 50
61.64229887633292
 51
118.3577011236671
  0
LINE
  5
C9
330
1F
100
AcDbEntity
  8
0-0
  6
Continuous
 62
     7
370
     9
100
AcDbLine
 10
117.8730114493487
 20
681.1505117115522
 30
0.0
 11
181.8857235087302
 21
681.1505117115522
 31
0.0
  0
LINE
  5
CA
330
1F
100
AcDbEntity
  8
0-0
  6
Continuous
 62
     7
370
     9
100
AcDbLine
 10
720.8731104252843
 20
681.1505117115522
 30
0.0
 11
656.8603983659062
 21
681.1505117115522
 31
0.0
  0
LINE
  5
CB
330
1F
100
AcDbEntity
  8
0-0
  6
Continuous
 62
    92
370
    13
100
AcDbLine
 10
132.8730609373179
 20
-553.8492702321035
 30
0.0
 11
705.8730609373185
 21
-553.8492702321035
 31
0.0
  0
LINE
  5
CC
330
1F
100
AcDbEntity
  8
0-0
  6
Continuous
 62
    92
370
    13
100
AcDbLine
 10
132.8730609373179
 20
-1171.849270232103
 30
0.0
 11
132.8730609373179
 21
-553.8492702321035
 31
0.0
  0
LINE
  5
CD
330
1F
100
AcDbEntity
  8
0-0
  6
Continuous
 62
    92
370
    13
100
AcDbLine
 10
705.8730609373185
 20
-1171.849270232103
 30
0.0
 11
705.8730609373185
 21
-553.8492702321035
 31
0.0
  0
LINE
  5
CE
330
1F
100
AcDbEntity
  8
0-0
  6
Continuous
 62
    92
370
    13
100
AcDbLine
 10
705.8730609373185
 20
666.150462223588
 30
0.0
 11
656.8603983659062
 21
666.150462223588
 31
0.0
  0
ARC
  5
CF
330
1F
100
AcDbEntity
  8
0-0
  6
Continuous
 62
    92
370
    13
100
AcDbCircle
 10
656.8603983659062
 20
816.150462223588
 30
0.0
 40
150.0
100
AcDbArc
 50
241.6422988763328
 51
270.0
  0
ARC
  5
D0
330
1F
100
AcDbEntity
  8
0-0
  6
Continuous
 62
    92
370
    13
100
AcDbCircle
 10
419.3730609373182
 20
376.1507297678963
 30
0.0
 40
350.0
100
AcDbArc
 50
61.64229887633292
 51
118.3577011236671
  0
ARC
  5
D1
330
1F
100
AcDbEntity
  8
0-0
  6
Continuous
 62
    92
370
    13
100
AcDbCircle
 10
181.8857235087302
 20
816.150462223588
 30
0.0
 40
150.0
100
AcDbArc
 50
270.0
 51
298.3577011236671
  0
LINE
  5
D2
330
1F
100
AcDbEntity
  8
0-0
  6
Continuous
 62
    92
370
    13
100
AcDbLine
 10
132.8730609373162
 20
666.150462223588
 30
0.0
 11
181.8857235087302
 21
666.150462223588
 31
0.0
  0
LINE
  5
D3
330
1F
100
AcDbEntity
  8
0-0
  6
Continuous
 62
    92
370
    13
100
AcDbLine
 10
132.8730609373179
 20
-448.8492702321035
 30
0.0
 11
132.8730609373179
 21
666.150462223588
 31
0.0
  0
LINE
  5
D4
330
1F
100
AcDbEntity
  8
0-0
  6
Continuous
 62
    92
370
    13
100
AcDbLine
 10
132.8730609373179
 20
-448.8492702321035
 30
0.0
 11
705.8730609373185
 21
-448.8492702321035
 31
0.0
  0
LINE
  5
D5
330
1F
100
AcDbEntity
  8
0-0
  6
Continuous
 62
    92
370
    13
100
AcDbLine
 10
705.8730609373185
 20
-448.8492702321035
 30
0.0
 11
705.8730609373185
 21
666.150462223588
 31
0.0
  0
LINE
  5
D6
330
1F
100
AcDbEntity
  8
0-0
  6
JWW_DASHED1
 62
   120
370
     5
100
AcDbLine
 10
-647.1269390626821
 20
-447.8494185460471
 30
0.0
 11
-74.12693906268146
 21
-447.8494185460471
 31
0.0
  0
LINE
  5
D7
330
1F
100
AcDbEntity
  8
0-0
  6
JWW_DASHED1
 62
   120
370
     5
100
AcDbLine
 10
-647.1269390626821
 20
-434.8494185449475
 30
0.0
 11
-74.12693906268146
 21
-434.8494185449475
 31
0.0
  0
LINE
  5
D8
330
1F
100
AcDbEntity
  8
0-0
  6
JWW_DASHED1
 62
   120
370
     5
100
AcDbLine
 10
-647.1269390626821
 20
-433.8494185450473
 30
0.0
 11
-74.12693906268146
 21
-433.8494185450473
 31
0.0
  0
LINE
  5
D9
330
1F
100
AcDbEntity
  8
0-0
  6
JWW_DASHED1
 62
   120
370
     5
100
AcDbLine
 10
-647.1269390626821
 20
-420.8494185439477
 30
0.0
 11
-74.12693906268146
 21
-420.8494185439477
 31
0.0
  0
LINE
  5
DA
330
1F
100
AcDbEntity
  8
0-0
  6
JWW_DASHED1
 62
   120
370
     5
100
AcDbLine
 10
-647.1269390626821
 20
-419.8494185440475
 30
0.0
 11
-74.12693906268146
 21
-419.8494185440475
 31
0.0
  0
LINE
  5
DB
330
1F
100
AcDbEntity
  8
0-0
  6
JWW_DASHED1
 62
   120
370
     5
100
AcDbLine
 10
-647.1269390626821
 20
-406.8494185429479
 30
0.0
 11
-74.12693906268146
 21
-406.8494185429479
 31
0.0
  0
LINE
  5
DC
330
1F
100
AcDbEntity
  8
0-0
  6
JWW_DASHED1
 62
   120
370
     5
100
AcDbLine
 10
-647.1269390626821
 20
-405.8494185430477
 30
0.0
 11
-74.12693906268146
 21
-405.8494185430477
 31
0.0
  0
LINE
  5
DD
330
1F
100
AcDbEntity
  8
0-0
  6
JWW_DASHED1
 62
   120
370
     5
100
AcDbLine
 10
-647.1269390626821
 20
-392.8494185419481
 30
0.0
 11
-74.12693906268146
 21
-392.8494185419481
 31
0.0
  0
LINE
  5
DE
330
1F
100
AcDbEntity
  8
0-0
  6
JWW_DASHED1
 62
   120
370
     5
100
AcDbLine
 10
-647.1269390626821
 20
-391.8494185420479
 30
0.0
 11
-74.12693906268146
 21
-391.8494185420479
 31
0.0
  0
LINE
  5
DF
330
1F
100
AcDbEntity
  8
0-0
  6
JWW_DASHED1
 62
   120
370
     5
100
AcDbLine
 10
-647.1269390626821
 20
-378.8494185409484
 30
0.0
 11
-74.12693906268146
 21
-378.8494185409484
 31
0.0
  0
LINE
  5
E0
330
1F
100
AcDbEntity
  8
0-0
  6
JWW_DASHED1
 62
   120
370
     5
100
AcDbLine
 10
-647.1269390626821
 20
-377.8494185410482
 30
0.0
 11
-74.12693906268146
 21
-377.8494185410482
 31
0.0
  0
LINE
  5
E1
330
1F
100
AcDbEntity
  8
0-0
  6
JWW_DASHED1
 62
   120
370
     5
100
AcDbLine
 10
-647.1269390626821
 20
-364.8494185399485
 30
0.0
 11
-74.12693906268146
 21
-364.8494185399485
 31
0.0
  0
LINE
  5
E2
330
1F
100
AcDbEntity
  8
0-0
  6
JWW_DASHED1
 62
   120
370
     5
100
AcDbLine
 10
-647.1269390626821
 20
-363.8494185400484
 30
0.0
 11
-74.12693906268146
 21
-363.8494185400484
 31
0.0
  0
LINE
  5
E3
330
1F
100
AcDbEntity
  8
0-0
  6
JWW_DASHED1
 62
   120
370
     5
100
AcDbLine
 10
-647.1269390626821
 20
-350.8494185389487
 30
0.0
 11
-74.12693906268146
 21
-350.8494185389487
 31
0.0
  0
LINE
  5
E4
330
1F
100
AcDbEntity
  8
0-0
  6
JWW_DASHED1
 62
   120
370
     5
100
AcDbLine
 10
-647.1269390626821
 20
-349.8494185390485
 30
0.0
 11
-74.12693906268146
 21
-349.8494185390485
 31
0.0
  0
LINE
  5
E5
330
1F
100
AcDbEntity
  8
0-0
  6
JWW_DASHED1
 62
   120
370
     5
100
AcDbLine
 10
-647.1269390626821
 20
-336.849418537949
 30
0.0
 11
-74.12693906268146
 21
-336.849418537949
 31
0.0
  0
LINE
  5
E6
330
1F
100
AcDbEntity
  8
0-0
  6
JWW_DASHED1
 62
   120
370
     5
100
AcDbLine
 10
-647.1269390626821
 20
-335.8494185380488
 30
0.0
 11
-74.12693906268146
 21
-335.8494185380488
 31
0.0
  0
LINE
  5
E7
330
1F
100
AcDbEntity
  8
0-0
  6
JWW_DASHED1
 62
   120
370
     5
100
AcDbLine
 10
-647.1269390626821
 20
-322.8494185369492
 30
0.0
 11
-74.12693906268146
 21
-322.8494185369492
 31
0.0
  0
LINE
  5
E8
330
1F
100
AcDbEntity
  8
0-0
  6
JWW_DASHED1
 62
   120
370
     5
100
AcDbLine
 10
-647.1269390626821
 20
-321.849418537049
 30
0.0
 11
-74.12693906268146
 21
-321.849418537049
 31
0.0
  0
LINE
  5
E9
330
1F
100
AcDbEntity
  8
0-0
  6
JWW_DASHED1
 62
   120
370
     5
100
AcDbLine
 10
-647.1269390626821
 20
-308.8494185359494
 30
0.0
 11
-74.12693906268146
 21
-308.8494185359494
 31
0.0
  0
LINE
  5
EA
330
1F
100
AcDbEntity
  8
0-0
  6
JWW_DASHED1
 62
   120
370
     5
100
AcDbLine
 10
-647.1269390626821
 20
-307.8494185360492
 30
0.0
 11
-74.12693906268146
 21
-307.8494185360492
 31
0.0
  0
LINE
  5
EB
330
1F
100
AcDbEntity
  8
0-0
  6
JWW_DASHED1
 62
   120
370
     5
100
AcDbLine
 10
-647.1269390626821
 20
-294.8494185349496
 30
0.0
 11
-74.12693906268146
 21
-294.8494185349496
 31
0.0
  0
LINE
  5
EC
330
1F
100
AcDbEntity
  8
0-0
  6
JWW_DASHED1
 62
   120
370
     5
100
AcDbLine
 10
-647.1269390626821
 20
-293.8494185350494
 30
0.0
 11
-74.12693906268146
 21
-293.8494185350494
 31
0.0
  0
LINE
  5
ED
330
1F
100
AcDbEntity
  8
0-0
  6
JWW_DASHED1
 62
   120
370
     5
100
AcDbLine
 10
-647.1269390626821
 20
-280.8494185339498
 30
0.0
 11
-74.12693906268146
 21
-280.8494185339498
 31
0.0
  0
LINE
  5
EE
330
1F
100
AcDbEntity
  8
0-0
  6
JWW_DASHED1
 62
   120
370
     5
100
AcDbLine
 10
-647.1269390626821
 20
-279.8494185340496
 30
0.0
 11
-74.12693906268146
 21
-279.8494185340496
 31
0.0
  0
LINE
  5
EF
330
1F
100
AcDbEntity
  8
0-0
  6
JWW_DASHED1
 62
   120
370
     5
100
AcDbLine
 10
-647.1269390626821
 20
-266.84941853295
 30
0.0
 11
-74.12693906268146
 21
-266.84941853295
 31
0.0
  0
LINE
  5
F0
330
1F
100
AcDbEntity
  8
0-0
  6
JWW_DASHED1
 62
   120
370
     5
100
AcDbLine
 10
-647.1269390626821
 20
-265.8494185330499
 30
0.0
 11
-74.12693906268146
 21
-265.8494185330499
 31
0.0
  0
LINE
  5
F1
330
1F
100
AcDbEntity
  8
0-0
  6
JWW_DASHED1
 62
   120
370
     5
100
AcDbLine
 10
-647.1269390626821
 20
-252.8494185319502
 30
0.0
 11
-74.12693906268146
 21
-252.8494185319502
 31
0.0
  0
LINE
  5
F2
330
1F
100
AcDbEntity
  8
0-0
  6
JWW_DASHED1
 62
   120
370
     5
100
AcDbLine
 10
-647.1269390626821
 20
-251.84941853205
 30
0.0
 11
-74.12693906268146
 21
-251.84941853205
 31
0.0
  0
LINE
  5
F3
330
1F
100
AcDbEntity
  8
0-0
  6
JWW_DASHED1
 62
   120
370
     5
100
AcDbLine
 10
-647.1269390626821
 20
-238.8494185309504
 30
0.0
 11
-74.12693906268146
 21
-238.8494185309504
 31
0.0
  0
LINE
  5
F4
330
1F
100
AcDbEntity
  8
0-0
  6
JWW_DASHED1
 62
   120
370
     5
100
AcDbLine
 10
-647.1269390626821
 20
-237.8494185310502
 30
0.0
 11
-74.12693906268146
 21
-237.8494185310502
 31
0.0
  0
LINE
  5
F5
330
1F
100
AcDbEntity
  8
0-0
  6
JWW_DASHED1
 62
   120
370
     5
100
AcDbLine
 10
-647.1269390626821
 20
-224.8494185299506
 30
0.0
 11
-74.12693906268146
 21
-224.8494185299506
 31
0.0
  0
LINE
  5
F6
330
1F
100
AcDbEntity
  8
0-0
  6
JWW_DASHED1
 62
   120
370
     5
100
AcDbLine
 10
-647.1269390626821
 20
-223.8494185300505
 30
0.0
 11
-74.12693906268146
 21
-223.8494185300505
 31
0.0
  0
LINE
  5
F7
330
1F
100
AcDbEntity
  8
0-0
  6
JWW_DASHED1
 62
   120
370
     5
100
AcDbLine
 10
-647.1269390626821
 20
-210.8494185289508
 30
0.0
 11
-74.12693906268146
 21
-210.8494185289508
 31
0.0
  0
LINE
  5
F8
330
1F
100
AcDbEntity
  8
0-0
  6
JWW_DASHED1
 62
   120
370
     5
100
AcDbLine
 10
-647.1269390626821
 20
-209.8494185290507
 30
0.0
 11
-74.12693906268146
 21
-209.8494185290507
 31
0.0
  0
LINE
  5
F9
330
1F
100
AcDbEntity
  8
0-0
  6
JWW_DASHED1
 62
   120
370
     5
100
AcDbLine
 10
-647.1269390626821
 20
-196.8494185279511
 30
0.0
 11
-74.12693906268146
 21
-196.8494185279511
 31
0.0
  0
LINE
  5
FA
330
1F
100
AcDbEntity
  8
0-0
  6
JWW_DASHED1
 62
   120
370
     5
100
AcDbLine
 10
-647.1269390626821
 20
-195.8494185280509
 30
0.0
 11
-74.12693906268146
 21
-195.8494185280509
 31
0.0
  0
LINE
  5
FB
330
1F
100
AcDbEntity
  8
0-0
  6
JWW_DASHED1
 62
   120
370
     5
100
AcDbLine
 10
-647.1269390626821
 20
-182.8494185269513
 30
0.0
 11
-74.12693906268146
 21
-182.8494185269513
 31
0.0
  0
LINE
  5
FC
330
1F
100
AcDbEntity
  8
0-0
  6
JWW_DASHED1
 62
   120
370
     5
100
AcDbLine
 10
-647.1269390626821
 20
-181.8494185270511
 30
0.0
 11
-74.12693906268146
 21
-181.8494185270511
 31
0.0
  0
LINE
  5
FD
330
1F
100
AcDbEntity
  8
0-0
  6
JWW_DASHED1
 62
   120
370
     5
100
AcDbLine
 10
-647.1269390626821
 20
-168.8494185259515
 30
0.0
 11
-74.12693906268146
 21
-168.8494185259515
 31
0.0
  0
LINE
  5
FE
330
1F
100
AcDbEntity
  8
0-0
  6
JWW_DASHED1
 62
   120
370
     5
100
AcDbLine
 10
-647.1269390626821
 20
-167.8494185260513
 30
0.0
 11
-74.12693906268146
 21
-167.8494185260513
 31
0.0
  0
LINE
  5
FF
330
1F
100
AcDbEntity
  8
0-0
  6
JWW_DASHED1
 62
   120
370
     5
100
AcDbLine
 10
-647.1269390626821
 20
-154.8494185249517
 30
0.0
 11
-74.12693906268146
 21
-154.8494185249517
 31
0.0
  0
LINE
  5
100
330
1F
100
AcDbEntity
  8
0-0
  6
JWW_DASHED1
 62
   120
370
     5
100
AcDbLine
 10
-647.1269390626821
 20
-153.8494185250515
 30
0.0
 11
-74.12693906268146
 21
-153.8494185250515
 31
0.0
  0
LINE
  5
101
330
1F
100
AcDbEntity
  8
0-0
  6
JWW_DASHED1
 62
   120
370
     5
100
AcDbLine
 10
-647.1269390626821
 20
-140.8494185239519
 30
0.0
 11
-74.12693906268146
 21
-140.8494185239519
 31
0.0
  0
LINE
  5
102
330
1F
100
AcDbEntity
  8
0-0
  6
JWW_DASHED1
 62
   120
370
     5
100
AcDbLine
 10
-647.1269390626821
 20
-139.8494185240517
 30
0.0
 11
-74.12693906268146
 21
-139.8494185240517
 31
0.0
  0
LINE
  5
103
330
1F
100
AcDbEntity
  8
0-0
  6
JWW_DASHED1
 62
   120
370
     5
100
AcDbLine
 10
-647.1269390626821
 20
-126.8494185229521
 30
0.0
 11
-74.12693906268146
 21
-126.8494185229521
 31
0.0
  0
LINE
  5
104
330
1F
100
AcDbEntity
  8
0-0
  6
JWW_DASHED1
 62
   120
370
     5
100
AcDbLine
 10
-647.1269390626821
 20
-125.8494185230519
 30
0.0
 11
-74.12693906268146
 21
-125.8494185230519
 31
0.0
  0
LINE
  5
105
330
1F
100
AcDbEntity
  8
0-0
  6
JWW_DASHED1
 62
   120
370
     5
100
AcDbLine
 10
-647.1269390626821
 20
-112.8494185219523
 30
0.0
 11
-74.12693906268146
 21
-112.8494185219523
 31
0.0
  0
LINE
  5
106
330
1F
100
AcDbEntity
  8
0-0
  6
JWW_DASHED1
 62
   120
370
     5
100
AcDbLine
 10
-647.1269390626821
 20
-111.8494185220521
 30
0.0
 11
-74.12693906268146
 21
-111.8494185220521
 31
0.0
  0
LINE
  5
107
330
1F
100
AcDbEntity
  8
0-0
  6
JWW_DASHED1
 62
   120
370
     5
100
AcDbLine
 10
-647.1269390626821
 20
-98.84941852095253
 30
0.0
 11
-74.12693906268146
 21
-98.84941852095253
 31
0.0
  0
LINE
  5
108
330
1F
100
AcDbEntity
  8
0-0
  6
JWW_DASHED1
 62
   120
370
     5
100
AcDbLine
 10
-647.1269390626821
 20
-97.84941852105234
 30
0.0
 11
-74.12693906268146
 21
-97.84941852105234
 31
0.0
  0
LINE
  5
109
330
1F
100
AcDbEntity
  8
0-0
  6
JWW_DASHED1
 62
   120
370
     5
100
AcDbLine
 10
-647.1269390626821
 20
-84.84941851995274
 30
0.0
 11
-74.12693906268146
 21
-84.84941851995274
 31
0.0
  0
LINE
  5
10A
330
1F
100
AcDbEntity
  8
0-0
  6
JWW_DASHED1
 62
   120
370
     5
100
AcDbLine
 10
-647.1269390626821
 20
-83.84941852005255
 30
0.0
 11
-74.12693906268146
 21
-83.84941852005255
 31
0.0
  0
LINE
  5
10B
330
1F
100
AcDbEntity
  8
0-0
  6
JWW_DASHED1
 62
   120
370
     5
100
AcDbLine
 10
-647.1269390626821
 20
-70.84941851895294
 30
0.0
 11
-74.12693906268146
 21
-70.84941851895294
 31
0.0
  0
LINE
  5
10C
330
1F
100
AcDbEntity
  8
0-0
  6
JWW_DASHED1
 62
   120
370
     5
100
AcDbLine
 10
-647.1269390626821
 20
-69.84941851905276
 30
0.0
 11
-74.12693906268146
 21
-69.84941851905276
 31
0.0
  0
LINE
  5
10D
330
1F
100
AcDbEntity
  8
0-0
  6
JWW_DASHED1
 62
   120
370
     5
100
AcDbLine
 10
-647.1269390626821
 20
-56.84941851795315
 30
0.0
 11
-74.12693906268146
 21
-56.84941851795315
 31
0.0
  0
LINE
  5
10E
330
1F
100
AcDbEntity
  8
0-0
  6
JWW_DASHED1
 62
   120
370
     5
100
AcDbLine
 10
-647.1269390626821
 20
-55.84941851805297
 30
0.0
 11
-74.12693906268146
 21
-55.84941851805297
 31
0.0
  0
LINE
  5
10F
330
1F
100
AcDbEntity
  8
0-0
  6
JWW_DASHED1
 62
   120
370
     5
100
AcDbLine
 10
-647.1269390626821
 20
-42.84941851695336
 30
0.0
 11
-74.12693906268146
 21
-42.84941851695336
 31
0.0
  0
LINE
  5
110
330
1F
100
AcDbEntity
  8
0-0
  6
JWW_DASHED1
 62
   120
370
     5
100
AcDbLine
 10
-647.1269390626821
 20
-41.84941851705318
 30
0.0
 11
-74.12693906268146
 21
-41.84941851705318
 31
0.0
  0
LINE
  5
111
330
1F
100
AcDbEntity
  8
0-0
  6
JWW_DASHED1
 62
   120
370
     5
100
AcDbLine
 10
-647.1269390626821
 20
-28.84941851595357
 30
0.0
 11
-74.12693906268146
 21
-28.84941851595357
 31
0.0
  0
LINE
  5
112
330
1F
100
AcDbEntity
  8
0-0
  6
JWW_DASHED1
 62
   120
370
     5
100
AcDbLine
 10
-647.1269390626821
 20
-27.84941851605339
 30
0.0
 11
-74.12693906268146
 21
-27.84941851605339
 31
0.0
  0
LINE
  5
113
330
1F
100
AcDbEntity
  8
0-0
  6
JWW_DASHED1
 62
   120
370
     5
100
AcDbLine
 10
-647.1269390626821
 20
-14.84941851495378
 30
0.0
 11
-74.12693906268146
 21
-14.84941851495378
 31
0.0
  0
LINE
  5
114
330
1F
100
AcDbEntity
  8
0-0
  6
JWW_DASHED1
 62
   120
370
     5
100
AcDbLine
 10
-647.1269390626821
 20
-13.8494185150536
 30
0.0
 11
-74.12693906268146
 21
-13.8494185150536
 31
0.0
  0
LINE
  5
115
330
1F
100
AcDbEntity
  8
0-0
  6
JWW_DASHED1
 62
   120
370
     5
100
AcDbLine
 10
-647.1269390626821
 20
-0.8494185139539923
 30
0.0
 11
-74.12693906268146
 21
-0.8494185139539923
 31
0.0
  0
LINE
  5
116
330
1F
100
AcDbEntity
  8
0-0
  6
JWW_DASHED1
 62
   120
370
     5
100
AcDbLine
 10
-647.1269390626821
 20
0.1505814859461907
 30
0.0
 11
-74.12693906268146
 21
0.1505814859461907
 31
0.0
  0
LINE
  5
117
330
1F
100
AcDbEntity
  8
0-0
  6
JWW_DASHED1
 62
   120
370
     5
100
AcDbLine
 10
-647.1269390626821
 20
13.1505814870458
 30
0.0
 11
-74.12693906268146
 21
13.1505814870458
 31
0.0
  0
LINE
  5
118
330
1F
100
AcDbEntity
  8
0-0
  6
JWW_DASHED1
 62
   120
370
     5
100
AcDbLine
 10
-647.1269390626821
 20
14.15058148694598
 30
0.0
 11
-74.12693906268146
 21
14.15058148694598
 31
0.0
  0
LINE
  5
119
330
1F
100
AcDbEntity
  8
0-0
  6
JWW_DASHED1
 62
   120
370
     5
100
AcDbLine
 10
-647.1269390626821
 20
27.15058148804559
 30
0.0
 11
-74.12693906268146
 21
27.15058148804559
 31
0.0
  0
LINE
  5
11A
330
1F
100
AcDbEntity
  8
0-0
  6
JWW_DASHED1
 62
   120
370
     5
100
AcDbLine
 10
-647.1269390626821
 20
28.15058148794577
 30
0.0
 11
-74.12693906268146
 21
28.15058148794577
 31
0.0
  0
LINE
  5
11B
330
1F
100
AcDbEntity
  8
0-0
  6
JWW_DASHED1
 62
   120
370
     5
100
AcDbLine
 10
-647.1269390626821
 20
41.15058148904538
 30
0.0
 11
-74.12693906268146
 21
41.15058148904538
 31
0.0
  0
LINE
  5
11C
330
1F
100
AcDbEntity
  8
0-0
  6
JWW_DASHED1
 62
   120
370
     5
100
AcDbLine
 10
-647.1269390626821
 20
42.15058148894556
 30
0.0
 11
-74.12693906268146
 21
42.15058148894556
 31
0.0
  0
LINE
  5
11D
330
1F
100
AcDbEntity
  8
0-0
  6
JWW_DASHED1
 62
   120
370
     5
100
AcDbLine
 10
-647.1269390626821
 20
55.15058149004517
 30
0.0
 11
-74.12693906268146
 21
55.15058149004517
 31
0.0
  0
LINE
  5
11E
330
1F
100
AcDbEntity
  8
0-0
  6
JWW_DASHED1
 62
   120
370
     5
100
AcDbLine
 10
-647.1269390626821
 20
56.15058148994535
 30
0.0
 11
-74.12693906268146
 21
56.15058148994535
 31
0.0
  0
LINE
  5
11F
330
1F
100
AcDbEntity
  8
0-0
  6
JWW_DASHED1
 62
   120
370
     5
100
AcDbLine
 10
-647.1269390626821
 20
69.15058149104496
 30
0.0
 11
-74.12693906268146
 21
69.15058149104496
 31
0.0
  0
LINE
  5
120
330
1F
100
AcDbEntity
  8
0-0
  6
JWW_DASHED1
 62
   120
370
     5
100
AcDbLine
 10
-647.1269390626821
 20
70.15058149094514
 30
0.0
 11
-74.12693906268146
 21
70.15058149094514
 31
0.0
  0
LINE
  5
121
330
1F
100
AcDbEntity
  8
0-0
  6
JWW_DASHED1
 62
   120
370
     5
100
AcDbLine
 10
-647.1269390626821
 20
83.15058149204475
 30
0.0
 11
-74.12693906268146
 21
83.15058149204475
 31
0.0
  0
LINE
  5
122
330
1F
100
AcDbEntity
  8
0-0
  6
JWW_DASHED1
 62
   120
370
     5
100
AcDbLine
 10
-647.1269390626821
 20
84.15058149194493
 30
0.0
 11
-74.12693906268146
 21
84.15058149194493
 31
0.0
  0
LINE
  5
123
330
1F
100
AcDbEntity
  8
0-0
  6
JWW_DASHED1
 62
   120
370
     5
100
AcDbLine
 10
-647.1269390626821
 20
97.15058149304454
 30
0.0
 11
-74.12693906268146
 21
97.15058149304454
 31
0.0
  0
LINE
  5
124
330
1F
100
AcDbEntity
  8
0-0
  6
JWW_DASHED1
 62
   120
370
     5
100
AcDbLine
 10
-647.1269390626821
 20
98.15058149294472
 30
0.0
 11
-74.12693906268146
 21
98.15058149294472
 31
0.0
  0
LINE
  5
125
330
1F
100
AcDbEntity
  8
0-0
  6
JWW_DASHED1
 62
   120
370
     5
100
AcDbLine
 10
-647.1269390626821
 20
111.1505814940443
 30
0.0
 11
-74.12693906268146
 21
111.1505814940443
 31
0.0
  0
LINE
  5
126
330
1F
100
AcDbEntity
  8
0-0
  6
JWW_DASHED1
 62
   120
370
     5
100
AcDbLine
 10
-647.1269390626821
 20
112.1505814939445
 30
0.0
 11
-74.12693906268146
 21
112.1505814939445
 31
0.0
  0
LINE
  5
127
330
1F
100
AcDbEntity
  8
0-0
  6
JWW_DASHED1
 62
   120
370
     5
100
AcDbLine
 10
-647.1269390626821
 20
125.1505814950441
 30
0.0
 11
-74.12693906268146
 21
125.1505814950441
 31
0.0
  0
LINE
  5
128
330
1F
100
AcDbEntity
  8
0-0
  6
JWW_DASHED1
 62
   120
370
     5
100
AcDbLine
 10
-647.1269390626821
 20
126.1505814949443
 30
0.0
 11
-74.12693906268146
 21
126.1505814949443
 31
0.0
  0
LINE
  5
129
330
1F
100
AcDbEntity
  8
0-0
  6
JWW_DASHED1
 62
   120
370
     5
100
AcDbLine
 10
-647.1269390626821
 20
139.1505814960439
 30
0.0
 11
-74.12693906268146
 21
139.1505814960439
 31
0.0
  0
LINE
  5
12A
330
1F
100
AcDbEntity
  8
0-0
  6
JWW_DASHED1
 62
   120
370
     5
100
AcDbLine
 10
-647.1269390626821
 20
140.1505814959441
 30
0.0
 11
-74.12693906268146
 21
140.1505814959441
 31
0.0
  0
LINE
  5
12B
330
1F
100
AcDbEntity
  8
0-0
  6
JWW_DASHED1
 62
   120
370
     5
100
AcDbLine
 10
-647.1269390626821
 20
153.1505814970437
 30
0.0
 11
-74.12693906268146
 21
153.1505814970437
 31
0.0
  0
LINE
  5
12C
330
1F
100
AcDbEntity
  8
0-0
  6
JWW_DASHED1
 62
   120
370
     5
100
AcDbLine
 10
-647.1269390626821
 20
154.1505814969439
 30
0.0
 11
-74.12693906268146
 21
154.1505814969439
 31
0.0
  0
LINE
  5
12D
330
1F
100
AcDbEntity
  8
0-0
  6
JWW_DASHED1
 62
   120
370
     5
100
AcDbLine
 10
-647.1269390626821
 20
167.1505814980435
 30
0.0
 11
-74.12693906268146
 21
167.1505814980435
 31
0.0
  0
LINE
  5
12E
330
1F
100
AcDbEntity
  8
0-0
  6
JWW_DASHED1
 62
   120
370
     5
100
AcDbLine
 10
-647.1269390626821
 20
168.1505814979437
 30
0.0
 11
-74.12693906268146
 21
168.1505814979437
 31
0.0
  0
LINE
  5
12F
330
1F
100
AcDbEntity
  8
0-0
  6
JWW_DASHED1
 62
   120
370
     5
100
AcDbLine
 10
-647.1269390626821
 20
181.1505814990433
 30
0.0
 11
-74.12693906268146
 21
181.1505814990433
 31
0.0
  0
LINE
  5
130
330
1F
100
AcDbEntity
  8
0-0
  6
JWW_DASHED1
 62
   120
370
     5
100
AcDbLine
 10
-647.1269390626821
 20
182.1505814989435
 30
0.0
 11
-74.12693906268146
 21
182.1505814989435
 31
0.0
  0
LINE
  5
131
330
1F
100
AcDbEntity
  8
0-0
  6
JWW_DASHED1
 62
   120
370
     5
100
AcDbLine
 10
-647.1269390626821
 20
195.1505815000431
 30
0.0
 11
-74.12693906268146
 21
195.1505815000431
 31
0.0
  0
LINE
  5
132
330
1F
100
AcDbEntity
  8
0-0
  6
JWW_DASHED1
 62
   120
370
     5
100
AcDbLine
 10
-647.1269390626821
 20
196.1505814999433
 30
0.0
 11
-74.12693906268146
 21
196.1505814999433
 31
0.0
  0
LINE
  5
133
330
1F
100
AcDbEntity
  8
0-0
  6
JWW_DASHED1
 62
   120
370
     5
100
AcDbLine
 10
-647.1269390626821
 20
209.1505815010429
 30
0.0
 11
-74.12693906268146
 21
209.1505815010429
 31
0.0
  0
LINE
  5
134
330
1F
100
AcDbEntity
  8
0-0
  6
JWW_DASHED1
 62
   120
370
     5
100
AcDbLine
 10
-647.1269390626821
 20
210.150581500943
 30
0.0
 11
-74.12693906268146
 21
210.150581500943
 31
0.0
  0
LINE
  5
135
330
1F
100
AcDbEntity
  8
0-0
  6
JWW_DASHED1
 62
   120
370
     5
100
AcDbLine
 10
-647.1269390626821
 20
223.1505815020427
 30
0.0
 11
-74.12693906268146
 21
223.1505815020427
 31
0.0
  0
LINE
  5
136
330
1F
100
AcDbEntity
  8
0-0
  6
JWW_DASHED1
 62
   120
370
     5
100
AcDbLine
 10
-647.1269390626821
 20
224.1505815019428
 30
0.0
 11
-74.12693906268146
 21
224.1505815019428
 31
0.0
  0
LINE
  5
137
330
1F
100
AcDbEntity
  8
0-0
  6
JWW_DASHED1
 62
   120
370
     5
100
AcDbLine
 10
-647.1269390626821
 20
237.1505815030424
 30
0.0
 11
-74.12693906268146
 21
237.1505815030424
 31
0.0
  0
LINE
  5
138
330
1F
100
AcDbEntity
  8
0-0
  6
JWW_DASHED1
 62
   120
370
     5
100
AcDbLine
 10
-647.1269390626821
 20
238.1505815029426
 30
0.0
 11
-74.12693906268146
 21
238.1505815029426
 31
0.0
  0
LINE
  5
139
330
1F
100
AcDbEntity
  8
0-0
  6
JWW_DASHED1
 62
   120
370
     5
100
AcDbLine
 10
-647.1269390626821
 20
251.1505815040422
 30
0.0
 11
-74.12693906268146
 21
251.1505815040422
 31
0.0
  0
LINE
  5
13A
330
1F
100
AcDbEntity
  8
0-0
  6
JWW_DASHED1
 62
   120
370
     5
100
AcDbLine
 10
-647.1269390626821
 20
252.1505815039424
 30
0.0
 11
-74.12693906268146
 21
252.1505815039424
 31
0.0
  0
LINE
  5
13B
330
1F
100
AcDbEntity
  8
0-0
  6
JWW_DASHED1
 62
   120
370
     5
100
AcDbLine
 10
-647.1269390626821
 20
265.1505815050421
 30
0.0
 11
-74.12693906268146
 21
265.1505815050421
 31
0.0
  0
LINE
  5
13C
330
1F
100
AcDbEntity
  8
0-0
  6
JWW_DASHED1
 62
   120
370
     5
100
AcDbLine
 10
-647.1269390626821
 20
266.1505815049422
 30
0.0
 11
-74.12693906268146
 21
266.1505815049422
 31
0.0
  0
LINE
  5
13D
330
1F
100
AcDbEntity
  8
0-0
  6
JWW_DASHED1
 62
   120
370
     5
100
AcDbLine
 10
-647.1269390626821
 20
279.1505815060418
 30
0.0
 11
-74.12693906268146
 21
279.1505815060418
 31
0.0
  0
LINE
  5
13E
330
1F
100
AcDbEntity
  8
0-0
  6
JWW_DASHED1
 62
   120
370
     5
100
AcDbLine
 10
-647.1269390626821
 20
280.150581505942
 30
0.0
 11
-74.12693906268146
 21
280.150581505942
 31
0.0
  0
LINE
  5
13F
330
1F
100
AcDbEntity
  8
0-0
  6
JWW_DASHED1
 62
   120
370
     5
100
AcDbLine
 10
-647.1269390626821
 20
293.1505815070416
 30
0.0
 11
-74.12693906268146
 21
293.1505815070416
 31
0.0
  0
LINE
  5
140
330
1F
100
AcDbEntity
  8
0-0
  6
JWW_DASHED1
 62
   120
370
     5
100
AcDbLine
 10
-647.1269390626821
 20
294.1505815069418
 30
0.0
 11
-74.12693906268146
 21
294.1505815069418
 31
0.0
  0
LINE
  5
141
330
1F
100
AcDbEntity
  8
0-0
  6
JWW_DASHED1
 62
   120
370
     5
100
AcDbLine
 10
-647.1269390626821
 20
307.1505815080414
 30
0.0
 11
-74.12693906268146
 21
307.1505815080414
 31
0.0
  0
LINE
  5
142
330
1F
100
AcDbEntity
  8
0-0
  6
JWW_DASHED1
 62
   120
370
     5
100
AcDbLine
 10
-647.1269390626821
 20
308.1505815079416
 30
0.0
 11
-74.12693906268146
 21
308.1505815079416
 31
0.0
  0
LINE
  5
143
330
1F
100
AcDbEntity
  8
0-0
  6
JWW_DASHED1
 62
   120
370
     5
100
AcDbLine
 10
-647.1269390626821
 20
321.1505815090412
 30
0.0
 11
-74.12693906268146
 21
321.1505815090412
 31
0.0
  0
LINE
  5
144
330
1F
100
AcDbEntity
  8
0-0
  6
JWW_DASHED1
 62
   120
370
     5
100
AcDbLine
 10
-647.1269390626821
 20
322.1505815089414
 30
0.0
 11
-74.12693906268146
 21
322.1505815089414
 31
0.0
  0
LINE
  5
145
330
1F
100
AcDbEntity
  8
0-0
  6
JWW_DASHED1
 62
   120
370
     5
100
AcDbLine
 10
-647.1269390626821
 20
335.150581510041
 30
0.0
 11
-74.12693906268146
 21
335.150581510041
 31
0.0
  0
LINE
  5
146
330
1F
100
AcDbEntity
  8
0-0
  6
JWW_DASHED1
 62
   120
370
     5
100
AcDbLine
 10
-647.1269390626821
 20
336.1505815099412
 30
0.0
 11
-74.12693906268146
 21
336.1505815099412
 31
0.0
  0
LINE
  5
147
330
1F
100
AcDbEntity
  8
0-0
  6
JWW_DASHED1
 62
   120
370
     5
100
AcDbLine
 10
-647.1269390626821
 20
349.1505815110407
 30
0.0
 11
-74.12693906268146
 21
349.1505815110407
 31
0.0
  0
LINE
  5
148
330
1F
100
AcDbEntity
  8
0-0
  6
JWW_DASHED1
 62
   120
370
     5
100
AcDbLine
 10
-647.1269390626821
 20
350.1505815109409
 30
0.0
 11
-74.12693906268146
 21
350.1505815109409
 31
0.0
  0
LINE
  5
149
330
1F
100
AcDbEntity
  8
0-0
  6
JWW_DASHED1
 62
   120
370
     5
100
AcDbLine
 10
-647.1269390626821
 20
363.1505815120406
 30
0.0
 11
-74.12693906268146
 21
363.1505815120406
 31
0.0
  0
LINE
  5
14A
330
1F
100
AcDbEntity
  8
0-0
  6
JWW_DASHED1
 62
   120
370
     5
100
AcDbLine
 10
-647.1269390626821
 20
364.1505815119407
 30
0.0
 11
-74.12693906268146
 21
364.1505815119407
 31
0.0
  0
LINE
  5
14B
330
1F
100
AcDbEntity
  8
0-0
  6
JWW_DASHED1
 62
   120
370
     5
100
AcDbLine
 10
-647.1269390626821
 20
377.1505815130404
 30
0.0
 11
-74.12693906268146
 21
377.1505815130404
 31
0.0
  0
LINE
  5
14C
330
1F
100
AcDbEntity
  8
0-0
  6
JWW_DASHED1
 62
   120
370
     5
100
AcDbLine
 10
-647.1269390626821
 20
378.1505815129406
 30
0.0
 11
-74.12693906268146
 21
378.1505815129406
 31
0.0
  0
LINE
  5
14D
330
1F
100
AcDbEntity
  8
0-0
  6
JWW_DASHED1
 62
   120
370
     5
100
AcDbLine
 10
-647.1269390626821
 20
391.1505815140401
 30
0.0
 11
-74.12693906268146
 21
391.1505815140401
 31
0.0
  0
LINE
  5
14E
330
1F
100
AcDbEntity
  8
0-0
  6
JWW_DASHED1
 62
   120
370
     5
100
AcDbLine
 10
-647.1269390626821
 20
392.1505815139403
 30
0.0
 11
-74.12693906268146
 21
392.1505815139403
 31
0.0
  0
LINE
  5
14F
330
1F
100
AcDbEntity
  8
0-0
  6
JWW_DASHED1
 62
   120
370
     5
100
AcDbLine
 10
-647.1269390626821
 20
405.1505815150399
 30
0.0
 11
-74.12693906268146
 21
405.1505815150399
 31
0.0
  0
LINE
  5
150
330
1F
100
AcDbEntity
  8
0-0
  6
JWW_DASHED1
 62
   120
370
     5
100
AcDbLine
 10
-647.1269390626821
 20
406.1505815149401
 30
0.0
 11
-74.12693906268146
 21
406.1505815149401
 31
0.0
  0
LINE
  5
151
330
1F
100
AcDbEntity
  8
0-0
  6
JWW_DASHED1
 62
   120
370
     5
100
AcDbLine
 10
-647.1269390626821
 20
419.1505815160397
 30
0.0
 11
-74.12693906268146
 21
419.1505815160397
 31
0.0
  0
LINE
  5
152
330
1F
100
AcDbEntity
  8
0-0
  6
JWW_DASHED1
 62
   120
370
     5
100
AcDbLine
 10
-647.1269390626821
 20
420.1505815159399
 30
0.0
 11
-74.12693906268146
 21
420.1505815159399
 31
0.0
  0
LINE
  5
153
330
1F
100
AcDbEntity
  8
0-0
  6
JWW_DASHED1
 62
   120
370
     5
100
AcDbLine
 10
-647.1269390626821
 20
433.1505815170395
 30
0.0
 11
-74.12693906268146
 21
433.1505815170395
 31
0.0
  0
LINE
  5
154
330
1F
100
AcDbEntity
  8
0-0
  6
JWW_DASHED1
 62
   120
370
     5
100
AcDbLine
 10
-647.1269390626821
 20
434.1505815169397
 30
0.0
 11
-74.12693906268146
 21
434.1505815169397
 31
0.0
  0
LINE
  5
155
330
1F
100
AcDbEntity
  8
0-0
  6
JWW_DASHED1
 62
   120
370
     5
100
AcDbLine
 10
-647.1269390626821
 20
447.1505815180393
 30
0.0
 11
-74.12693906268146
 21
447.1505815180393
 31
0.0
  0
LINE
  5
156
330
1F
100
AcDbEntity
  8
0-0
  6
JWW_DASHED1
 62
   120
370
     5
100
AcDbLine
 10
-647.1269390626821
 20
448.1505815179395
 30
0.0
 11
-74.12693906268146
 21
448.1505815179395
 31
0.0
  0
LINE
  5
157
330
1F
100
AcDbEntity
  8
0-0
  6
JWW_DASHED1
 62
   120
370
     5
100
AcDbLine
 10
-647.1269390626821
 20
461.1505815190391
 30
0.0
 11
-74.12693906268146
 21
461.1505815190391
 31
0.0
  0
LINE
  5
158
330
1F
100
AcDbEntity
  8
0-0
  6
JWW_DASHED1
 62
   120
370
     5
100
AcDbLine
 10
-647.1269390626821
 20
462.1505815189392
 30
0.0
 11
-74.12693906268146
 21
462.1505815189392
 31
0.0
  0
LINE
  5
159
330
1F
100
AcDbEntity
  8
0-0
  6
JWW_DASHED1
 62
   120
370
     5
100
AcDbLine
 10
-647.1269390626821
 20
475.1505815200389
 30
0.0
 11
-74.12693906268146
 21
475.1505815200389
 31
0.0
  0
LINE
  5
15A
330
1F
100
AcDbEntity
  8
0-0
  6
JWW_DASHED1
 62
   120
370
     5
100
AcDbLine
 10
-647.1269390626821
 20
476.1505815199391
 30
0.0
 11
-74.12693906268146
 21
476.1505815199391
 31
0.0
  0
LINE
  5
15B
330
1F
100
AcDbEntity
  8
0-0
  6
JWW_DASHED1
 62
   120
370
     5
100
AcDbLine
 10
-647.1269390626821
 20
489.1505815210387
 30
0.0
 11
-74.12693906268146
 21
489.1505815210387
 31
0.0
  0
LINE
  5
15C
330
1F
100
AcDbEntity
  8
0-0
  6
JWW_DASHED1
 62
   120
370
     5
100
AcDbLine
 10
-647.1269390626821
 20
490.1505815209389
 30
0.0
 11
-74.12693906268146
 21
490.1505815209389
 31
0.0
  0
LINE
  5
15D
330
1F
100
AcDbEntity
  8
0-0
  6
JWW_DASHED1
 62
   120
370
     5
100
AcDbLine
 10
-647.1269390626821
 20
503.1505815220385
 30
0.0
 11
-74.12693906268146
 21
503.1505815220385
 31
0.0
  0
LINE
  5
15E
330
1F
100
AcDbEntity
  8
0-0
  6
JWW_DASHED1
 62
   120
370
     5
100
AcDbLine
 10
-647.1269390626821
 20
504.1505815219386
 30
0.0
 11
-74.12693906268146
 21
504.1505815219386
 31
0.0
  0
LINE
  5
15F
330
1F
100
AcDbEntity
  8
0-0
  6
JWW_DASHED1
 62
   120
370
     5
100
AcDbLine
 10
-647.1269390626821
 20
517.1505815230382
 30
0.0
 11
-74.12693906268146
 21
517.1505815230382
 31
0.0
  0
LINE
  5
160
330
1F
100
AcDbEntity
  8
0-0
  6
JWW_DASHED1
 62
   120
370
     5
100
AcDbLine
 10
-647.1269390626821
 20
518.1505815229384
 30
0.0
 11
-74.12693906268146
 21
518.1505815229384
 31
0.0
  0
LINE
  5
161
330
1F
100
AcDbEntity
  8
0-0
  6
JWW_DASHED1
 62
   120
370
     5
100
AcDbLine
 10
-647.1269390626821
 20
531.150581524038
 30
0.0
 11
-74.12693906268146
 21
531.150581524038
 31
0.0
  0
LINE
  5
162
330
1F
100
AcDbEntity
  8
0-0
  6
JWW_DASHED1
 62
   120
370
     5
100
AcDbLine
 10
-647.1269390626821
 20
532.1505815239382
 30
0.0
 11
-74.12693906268146
 21
532.1505815239382
 31
0.0
  0
LINE
  5
163
330
1F
100
AcDbEntity
  8
0-0
  6
JWW_DASHED1
 62
   120
370
     5
100
AcDbLine
 10
-647.1269390626821
 20
545.1505815250379
 30
0.0
 11
-74.12693906268146
 21
545.1505815250379
 31
0.0
  0
LINE
  5
164
330
1F
100
AcDbEntity
  8
0-0
  6
JWW_DASHED1
 62
   120
370
     5
100
AcDbLine
 10
-647.1269390626821
 20
546.150581524938
 30
0.0
 11
-74.12693906268146
 21
546.150581524938
 31
0.0
  0
LINE
  5
165
330
1F
100
AcDbEntity
  8
0-0
  6
JWW_DASHED1
 62
   120
370
     5
100
AcDbLine
 10
-647.1269390626821
 20
559.1505815260376
 30
0.0
 11
-74.12693906268146
 21
559.1505815260376
 31
0.0
  0
LINE
  5
166
330
1F
100
AcDbEntity
  8
0-0
  6
JWW_DASHED1
 62
   120
370
     5
100
AcDbLine
 10
-647.1269390626821
 20
560.1505815259378
 30
0.0
 11
-74.12693906268146
 21
560.1505815259378
 31
0.0
  0
LINE
  5
167
330
1F
100
AcDbEntity
  8
0-0
  6
JWW_DASHED1
 62
   120
370
     5
100
AcDbLine
 10
-647.1269390626821
 20
573.1505815270374
 30
0.0
 11
-74.12693906268146
 21
573.1505815270374
 31
0.0
  0
LINE
  5
168
330
1F
100
AcDbEntity
  8
0-0
  6
JWW_DASHED1
 62
   120
370
     5
100
AcDbLine
 10
-647.1269390626821
 20
574.1505815269376
 30
0.0
 11
-74.12693906268146
 21
574.1505815269376
 31
0.0
  0
LINE
  5
169
330
1F
100
AcDbEntity
  8
0-0
  6
JWW_DASHED1
 62
   120
370
     5
100
AcDbLine
 10
-647.1269390626821
 20
587.1505815280373
 30
0.0
 11
-74.12693906268146
 21
587.1505815280373
 31
0.0
  0
LINE
  5
16A
330
1F
100
AcDbEntity
  8
0-0
  6
JWW_DASHED1
 62
   120
370
     5
100
AcDbLine
 10
-647.1269390626821
 20
588.1505815279374
 30
0.0
 11
-74.12693906268146
 21
588.1505815279374
 31
0.0
  0
LINE
  5
16B
330
1F
100
AcDbEntity
  8
0-0
  6
JWW_DASHED1
 62
   120
370
     5
100
AcDbLine
 10
-647.1269390626821
 20
601.150581529037
 30
0.0
 11
-74.12693906268146
 21
601.150581529037
 31
0.0
  0
LINE
  5
16C
330
1F
100
AcDbEntity
  8
0-0
  6
JWW_DASHED1
 62
   120
370
     5
100
AcDbLine
 10
-647.1269390626821
 20
602.1505815289372
 30
0.0
 11
-74.12693906268146
 21
602.1505815289372
 31
0.0
  0
LINE
  5
16D
330
1F
100
AcDbEntity
  8
0-0
  6
JWW_DASHED1
 62
   120
370
     5
100
AcDbLine
 10
-647.1269390626821
 20
615.1505815300368
 30
0.0
 11
-74.12693906268146
 21
615.1505815300368
 31
0.0
  0
LINE
  5
16E
330
1F
100
AcDbEntity
  8
0-0
  6
JWW_DASHED1
 62
   120
370
     5
100
AcDbLine
 10
-647.1269390626821
 20
616.150581529937
 30
0.0
 11
-74.12693906268146
 21
616.150581529937
 31
0.0
  0
LINE
  5
16F
330
1F
100
AcDbEntity
  8
0-0
  6
JWW_DASHED1
 62
   120
370
     5
100
AcDbLine
 10
-647.1269390626821
 20
629.1505815310366
 30
0.0
 11
-74.12693906268146
 21
629.1505815310366
 31
0.0
  0
LINE
  5
170
330
1F
100
AcDbEntity
  8
0-0
  6
JWW_DASHED1
 62
   120
370
     5
100
AcDbLine
 10
-647.1269390626821
 20
630.1505815309365
 30
0.0
 11
-74.12693906268146
 21
630.1505815309365
 31
0.0
  0
LINE
  5
171
330
1F
100
AcDbEntity
  8
0-0
  6
JWW_DASHED1
 62
   120
370
     5
100
AcDbLine
 10
-647.1269390626821
 20
643.1505815320363
 30
0.0
 11
-74.12693906268146
 21
643.1505815320363
 31
0.0
  0
LINE
  5
172
330
1F
100
AcDbEntity
  8
0-0
  6
JWW_DASHED1
 62
   120
370
     5
100
AcDbLine
 10
-647.1269390626821
 20
644.1505815319365
 30
0.0
 11
-74.12693906268146
 21
644.1505815319365
 31
0.0
  0
LINE
  5
173
330
1F
100
AcDbEntity
  8
0-0
  6
JWW_DASHED1
 62
   120
370
     5
100
AcDbLine
 10
-647.1269390626821
 20
657.1505815330362
 30
0.0
 11
-74.12693906268146
 21
657.1505815330362
 31
0.0
  0
LINE
  5
174
330
1F
100
AcDbEntity
  8
0-0
  6
JWW_DASHED1
 62
   120
370
     5
100
AcDbLine
 10
-647.1269390626821
 20
658.1505815329364
 30
0.0
 11
-74.12693906268146
 21
658.1505815329364
 31
0.0
  0
LINE
  5
175
330
1F
100
AcDbEntity
  8
0-0
  6
JWW_DASHED1
 62
   120
370
     5
100
AcDbLine
 10
-559.7080973007184
 20
671.150581534036
 30
0.0
 11
-161.5457808246452
 21
671.150581534036
 31
0.0
  0
LINE
  5
176
330
1F
100
AcDbEntity
  8
0-0
  6
JWW_DASHED1
 62
   120
370
     5
100
AcDbLine
 10
-556.1138674293585
 20
672.1505815339361
 30
0.0
 11
-165.1400106960051
 21
672.1505815339361
 31
0.0
  0
LINE
  5
177
330
1F
100
AcDbEntity
  8
0-0
  6
JWW_DASHED1
 62
   120
370
     5
100
AcDbLine
 10
-525.0017899611026
 20
685.1505815350357
 30
0.0
 11
-196.2520881642618
 21
685.1505815350357
 31
0.0
  0
LINE
  5
178
330
1F
100
AcDbEntity
  8
0-0
  6
JWW_DASHED1
 62
   120
370
     5
100
AcDbLine
 10
-523.1079899714365
 20
686.1505815349359
 30
0.0
 11
-198.145888153928
 21
686.1505815349359
 31
0.0
  0
LINE
  5
179
330
1F
100
AcDbEntity
  8
0-0
  6
JWW_DASHED1
 62
   120
370
     5
100
AcDbLine
 10
-495.4271458791169
 20
699.1505815360356
 30
0.0
 11
-225.8267322462476
 21
699.1505815360356
 31
0.0
  0
LINE
  5
17A
330
1F
100
AcDbEntity
  8
0-0
  6
JWW_DASHED1
 62
   120
370
     5
100
AcDbLine
 10
-493.0055478115406
 20
700.1505815359358
 30
0.0
 11
-228.2483303138238
 21
700.1505815359358
 31
0.0
  0
LINE
  5
17B
330
1F
100
AcDbEntity
  8
0-0
  6
JWW_DASHED1
 62
   120
370
     5
100
AcDbLine
 10
-455.1314358211727
 20
713.1505815370354
 30
0.0
 11
-266.1224423041918
 21
713.1505815370354
 31
0.0
  0
LINE
  5
17C
330
1F
100
AcDbEntity
  8
0-0
  6
JWW_DASHED1
 62
   120
370
     5
100
AcDbLine
 10
-451.4900239987998
 20
714.1505815369355
 30
0.0
 11
-269.7638541265647
 21
714.1505815369355
 31
0.0
  0
LINE
  5
17D
330
1F
100
AcDbEntity
  8
0-0
  6
JWW_DASHED1
 62
   120
370
     5
100
AcDbLine
 10
-80.12692056475004
 20
-448.8492702321035
 30
0.0
 11
-80.12692056475004
 21
666.150462223588
 31
0.0
  0
LINE
  5
17E
330
1F
100
AcDbEntity
  8
0-0
  6
JWW_DASHED1
 62
   120
370
     5
100
AcDbLine
 10
-81.12692056465022
 20
-448.8492702321035
 30
0.0
 11
-81.12692056465022
 21
666.150462223588
 31
0.0
  0
LINE
  5
17F
330
1F
100
AcDbEntity
  8
0-0
  6
JWW_DASHED1
 62
   120
370
     5
100
AcDbLine
 10
-94.12692056575025
 20
-448.8492702321035
 30
0.0
 11
-94.12692056575025
 21
666.150462223588
 31
0.0
  0
LINE
  5
180
330
1F
100
AcDbEntity
  8
0-0
  6
JWW_DASHED1
 62
   120
370
     5
100
AcDbLine
 10
-95.12692056565044
 20
-448.8492702321035
 30
0.0
 11
-95.12692056564958
 21
666.150462223588
 31
0.0
  0
LINE
  5
181
330
1F
100
AcDbEntity
  8
0-0
  6
JWW_DASHED1
 62
   120
370
     5
100
AcDbLine
 10
-108.1269205667505
 20
-448.8492702321035
 30
0.0
 11
-108.1269205667496
 21
666.150462223588
 31
0.0
  0
LINE
  5
182
330
1F
100
AcDbEntity
  8
0-0
  6
JWW_DASHED1
 62
   120
370
     5
100
AcDbLine
 10
-109.1269205666498
 20
-448.8492702321035
 30
0.0
 11
-109.1269205666498
 21
666.150462223588
 31
0.0
  0
LINE
  5
183
330
1F
100
AcDbEntity
  8
0-0
  6
JWW_DASHED1
 62
   120
370
     5
100
AcDbLine
 10
-122.1269205677498
 20
-448.8492702321035
 30
0.0
 11
-122.1269205677498
 21
666.150462223588
 31
0.0
  0
LINE
  5
184
330
1F
100
AcDbEntity
  8
0-0
  6
JWW_DASHED1
 62
   120
370
     5
100
AcDbLine
 10
-123.12692056765
 20
-448.8492702321035
 30
0.0
 11
-123.12692056765
 21
666.150462223588
 31
0.0
  0
LINE
  5
185
330
1F
100
AcDbEntity
  8
0-0
  6
JWW_DASHED1
 62
   120
370
     5
100
AcDbLine
 10
-136.1269205687501
 20
-448.8492702321035
 30
0.0
 11
-136.1269205687501
 21
666.7137547288003
 31
0.0
  0
LINE
  5
186
330
1F
100
AcDbEntity
  8
0-0
  6
JWW_DASHED1
 62
   120
370
     5
100
AcDbLine
 10
-137.1269205686502
 20
-448.8492702321035
 30
0.0
 11
-137.1269205686502
 21
666.8040363908331
 31
0.0
  0
LINE
  5
187
330
1F
100
AcDbEntity
  8
0-0
  6
JWW_DASHED1
 62
   120
370
     5
100
AcDbLine
 10
-150.1269205697503
 20
-448.8492702321035
 30
0.0
 11
-150.1269205697503
 21
668.5981507653669
 31
0.0
  0
LINE
  5
188
330
1F
100
AcDbEntity
  8
0-0
  6
JWW_DASHED1
 62
   120
370
     5
100
AcDbLine
 10
-151.1269205696505
 20
-448.8492702321035
 30
0.0
 11
-151.1269205696505
 21
668.7845571478028
 31
0.0
  0
LINE
  5
189
330
1F
100
AcDbEntity
  8
0-0
  6
JWW_DASHED1
 62
   120
370
     5
100
AcDbLine
 10
-164.1269205707505
 20
-448.8492702321035
 30
0.0
 11
-164.1269205707505
 21
671.8589528185585
 31
0.0
  0
LINE
  5
18A
330
1F
100
AcDbEntity
  8
0-0
  6
JWW_DASHED1
 62
   120
370
     5
100
AcDbLine
 10
-165.1269205706498
 20
-448.8492702321035
 30
0.0
 11
-165.1269205706498
 21
672.1467641859381
 31
0.0
  0
LINE
  5
18B
330
1F
100
AcDbEntity
  8
0-0
  6
JWW_DASHED1
 62
   120
370
     5
100
AcDbLine
 10
-178.1269205717507
 20
-448.8492702321035
 30
0.0
 11
-178.1269205717498
 21
676.5926077114018
 31
0.0
  0
LINE
  5
18C
330
1F
100
AcDbEntity
  8
0-0
  6
JWW_DASHED1
 62
   120
370
     5
100
AcDbLine
 10
-179.12692057165
 20
-448.8492702321035
 30
0.0
 11
-179.12692057165
 21
676.9907693589194
 31
0.0
  0
LINE
  5
18D
330
1F
100
AcDbEntity
  8
0-0
  6
JWW_DASHED1
 62
   120
370
     5
100
AcDbLine
 10
-192.1269205727501
 20
-448.8492702321035
 30
0.0
 11
-192.1269205727501
 21
682.956056088562
 31
0.0
  0
LINE
  5
18E
330
1F
100
AcDbEntity
  8
0-0
  6
JWW_DASHED1
 62
   120
370
     5
100
AcDbLine
 10
-193.1269205726502
 20
-448.8492702321035
 30
0.0
 11
-193.1269205726502
 21
683.4787802873616
 31
0.0
  0
LINE
  5
18F
330
1F
100
AcDbEntity
  8
0-0
  6
JWW_DASHED1
 62
   120
370
     5
100
AcDbLine
 10
-206.1269205737503
 20
-448.8492702321035
 30
0.0
 11
-206.1269205737503
 21
690.204458112121
 31
0.0
  0
LINE
  5
190
330
1F
100
AcDbEntity
  8
0-0
  6
JWW_DASHED1
 62
   120
370
     5
100
AcDbLine
 10
-207.1269205736505
 20
-448.8492702321035
 30
0.0
 11
-207.1269205736505
 21
690.6944378974277
 31
0.0
  0
LINE
  5
191
330
1F
100
AcDbEntity
  8
0-0
  6
JWW_DASHED1
 62
   120
370
     5
100
AcDbLine
 10
-220.1269205747496
 20
-448.8492702321035
 30
0.0
 11
-220.1269205747496
 21
696.7123382067531
 31
0.0
  0
LINE
  5
192
330
1F
100
AcDbEntity
  8
0-0
  6
JWW_DASHED1
 62
   120
370
     5
100
AcDbLine
 10
-221.1269205746498
 20
-448.8492702321035
 30
0.0
 11
-221.1269205746498
 21
697.1487746869299
 31
0.0
  0
LINE
  5
193
330
1F
100
AcDbEntity
  8
0-0
  6
JWW_DASHED1
 62
   120
370
     5
100
AcDbLine
 10
-234.1269205757499
 20
-448.8492702321035
 30
0.0
 11
-234.1269205757499
 21
702.4906527359873
 31
0.0
  0
LINE
  5
194
330
1F
100
AcDbEntity
  8
0-0
  6
JWW_DASHED1
 62
   120
370
     5
100
AcDbLine
 10
-235.12692057565
 20
-448.8492702321035
 30
0.0
 11
-235.12692057565
 21
702.8765251372625
 31
0.0
  0
LINE
  5
195
330
1F
100
AcDbEntity
  8
0-0
  6
JWW_DASHED1
 62
   120
370
     5
100
AcDbLine
 10
-248.1269205767501
 20
-448.8492702321035
 30
0.0
 11
-248.1269205767501
 21
707.5775630820591
 31
0.0
  0
LINE
  5
196
330
1F
100
AcDbEntity
  8
0-0
  6
JWW_DASHED1
 62
   120
370
     5
100
AcDbLine
 10
-249.1269205766503
 20
-448.8492702321035
 30
0.0
 11
-249.1269205766503
 21
707.915323836669
 31
0.0
  0
LINE
  5
197
330
1F
100
AcDbEntity
  8
0-0
  6
JWW_DASHED1
 62
   120
370
     5
100
AcDbLine
 10
-262.1269205777503
 20
-448.8492702321035
 30
0.0
 11
-262.1269205777503
 21
712.0044871660776
 31
0.0
  0
LINE
  5
198
330
1F
100
AcDbEntity
  8
0-0
  6
JWW_DASHED1
 62
   120
370
     5
100
AcDbLine
 10
-263.1269205776505
 20
-448.8492702321035
 30
0.0
 11
-263.1269205776505
 21
712.2961542428039
 31
0.0
  0
LINE
  5
199
330
1F
100
AcDbEntity
  8
0-0
  6
JWW_DASHED1
 62
   120
370
     5
100
AcDbLine
 10
-276.1269205787497
 20
-448.8492702321035
 30
0.0
 11
-276.1269205787497
 21
715.7972325854554
 31
0.0
  0
LINE
  5
19A
330
1F
100
AcDbEntity
  8
0-0
  6
JWW_DASHED1
 62
   120
370
     5
100
AcDbLine
 10
-277.1269205786498
 20
-448.8492702321035
 30
0.0
 11
-277.1269205786498
 21
716.0444586202449
 31
0.0
  0
LINE
  5
19B
330
1F
100
AcDbEntity
  8
0-0
  6
JWW_DASHED1
 62
   120
370
     5
100
AcDbLine
 10
-290.1269205797499
 20
-448.8492702321035
 30
0.0
 11
-290.1269205797499
 21
718.9768480755721
 31
0.0
  0
LINE
  5
19C
330
1F
100
AcDbEntity
  8
0-0
  6
JWW_DASHED1
 62
   120
370
     5
100
AcDbLine
 10
-291.1269205796501
 20
-448.8492702321035
 30
0.0
 11
-291.1269205796501
 21
719.1809725029362
 31
0.0
  0
LINE
  5
19D
330
1F
100
AcDbEntity
  8
0-0
  6
JWW_DASHED1
 62
   120
370
     5
100
AcDbLine
 10
-304.1269205807501
 20
-448.8492702321035
 30
0.0
 11
-304.1269205807501
 21
721.5602662771654
 31
0.0
  0
LINE
  5
19E
330
1F
100
AcDbEntity
  8
0-0
  6
JWW_DASHED1
 62
   120
370
     5
100
AcDbLine
 10
-305.1269205806503
 20
-448.8492702321035
 30
0.0
 11
-305.1269205806503
 21
721.7223546859442
 31
0.0
  0
LINE
  5
19F
330
1F
100
AcDbEntity
  8
0-0
  6
JWW_DASHED1
 62
   120
370
     5
100
AcDbLine
 10
-318.1269205817503
 20
-448.8492702321035
 30
0.0
 11
-318.1269205817503
 21
723.5607878104476
 31
0.0
  0
LINE
  5
1A0
330
1F
100
AcDbEntity
  8
0-0
  6
JWW_DASHED1
 62
   120
370
     5
100
AcDbLine
 10
-319.1269205816505
 20
-448.8492702321035
 30
0.0
 11
-319.1269205816505
 21
723.6816614359396
 31
0.0
  0
LINE
  5
1A1
330
1F
100
AcDbEntity
  8
0-0
  6
JWW_DASHED1
 62
   120
370
     5
100
AcDbLine
 10
-332.1269205827497
 20
-448.8492702321035
 30
0.0
 11
-332.1269205827497
 21
724.9884412422126
 31
0.0
  0
LINE
  5
1A2
330
1F
100
AcDbEntity
  8
0-0
  6
JWW_DASHED1
 62
   120
370
     5
100
AcDbLine
 10
-333.1269205826499
 20
-448.8492702321035
 30
0.0
 11
-333.1269205826499
 21
725.068698613859
 31
0.0
  0
LINE
  5
1A3
330
1F
100
AcDbEntity
  8
0-0
  6
JWW_DASHED1
 62
   120
370
     5
100
AcDbLine
 10
-346.1269205837499
 20
-448.8492702321035
 30
0.0
 11
-346.1269205837499
 21
725.8502428703742
 31
0.0
  0
LINE
  5
1A4
330
1F
100
AcDbEntity
  8
0-0
  6
JWW_DASHED1
 62
   120
370
     5
100
AcDbLine
 10
-347.1269205836501
 20
-448.8492702321035
 30
0.0
 11
-347.1269205836501
 21
725.8902750027029
 31
0.0
  0
LINE
  5
1A5
330
1F
100
AcDbEntity
  8
0-0
  6
JWW_DASHED1
 62
   120
370
     5
100
AcDbLine
 10
-360.1269205847501
 20
-448.8492702321035
 30
0.0
 11
-360.1269205847501
 21
726.1503725984495
 31
0.0
  0
LINE
  5
1A6
330
1F
100
AcDbEntity
  8
0-0
  6
JWW_DASHED1
 62
   120
370
     5
100
AcDbLine
 10
-361.1269205846503
 20
-448.8492702321035
 30
0.0
 11
-361.1269205846503
 21
726.150372651273
 31
0.0
  0
LINE
  5
1A7
330
1F
100
AcDbEntity
  8
0-0
  6
JWW_DASHED1
 62
   120
370
     5
100
AcDbLine
 10
-374.1269205857503
 20
-448.8492702321035
 30
0.0
 11
-374.1269205857503
 21
725.8902764292089
 31
0.0
  0
LINE
  5
1A8
330
1F
100
AcDbEntity
  8
0-0
  6
JWW_DASHED1
 62
   120
370
     5
100
AcDbLine
 10
-375.1269205856505
 20
-448.8492702321035
 30
0.0
 11
-375.1269205856505
 21
725.8502444027455
 31
0.0
  0
LINE
  5
1A9
330
1F
100
AcDbEntity
  8
0-0
  6
JWW_DASHED1
 62
   120
370
     5
100
AcDbLine
 10
-388.1269205867497
 20
-448.8492702321035
 30
0.0
 11
-388.1269205867497
 21
725.0687015265704
 31
0.0
  0
LINE
  5
1AA
330
1F
100
AcDbEntity
  8
0-0
  6
JWW_DASHED1
 62
   120
370
     5
100
AcDbLine
 10
-389.1269205866499
 20
-448.8492702321035
 30
0.0
 11
-389.1269205866499
 21
724.9884442614986
 31
0.0
  0
LINE
  5
1AB
330
1F
100
AcDbEntity
  8
0-0
  6
JWW_DASHED1
 62
   120
370
     5
100
AcDbLine
 10
-402.1269205877499
 20
-448.8492702321035
 30
0.0
 11
-402.1269205877499
 21
723.6816658489898
 31
0.0
  0
LINE
  5
1AC
330
1F
100
AcDbEntity
  8
0-0
  6
JWW_DASHED1
 62
   120
370
     5
100
AcDbLine
 10
-403.1269205876501
 20
-448.8492702321035
 30
0.0
 11
-403.1269205876501
 21
723.560792331382
 31
0.0
  0
LINE
  5
1AD
330
1F
100
AcDbEntity
  8
0-0
  6
JWW_DASHED1
 62
   120
370
     5
100
AcDbLine
 10
-416.1269205887501
 20
-448.8492702321035
 30
0.0
 11
-416.1269205887501
 21
721.7223606212157
 31
0.0
  0
LINE
  5
1AE
330
1F
100
AcDbEntity
  8
0-0
  6
JWW_DASHED1
 62
   120
370
     5
100
AcDbLine
 10
-417.1269205886503
 20
-448.8492702321035
 30
0.0
 11
-417.1269205886503
 21
721.5602723221765
 31
0.0
  0
LINE
  5
1AF
330
1F
100
AcDbEntity
  8
0-0
  6
JWW_DASHED1
 62
   120
370
     5
100
AcDbLine
 10
-430.1269205897495
 20
-448.8492702321035
 30
0.0
 11
-430.1269205897495
 21
719.1809799904423
 31
0.0
  0
LINE
  5
1B0
330
1F
100
AcDbEntity
  8
0-0
  6
JWW_DASHED1
 62
   120
370
     5
100
AcDbLine
 10
-431.1269205896497
 20
-448.8492702321035
 30
0.0
 11
-431.1269205896497
 21
718.976855675328
 31
0.0
  0
LINE
  5
1B1
330
1F
100
AcDbEntity
  8
0-0
  6
JWW_DASHED1
 62
   120
370
     5
100
AcDbLine
 10
-444.1269205907497
 20
-448.8492702321035
 30
0.0
 11
-444.1269205907497
 21
716.0444676990575
 31
0.0
  0
LINE
  5
1B2
330
1F
100
AcDbEntity
  8
0-0
  6
JWW_DASHED1
 62
   120
370
     5
100
AcDbLine
 10
-445.1269205906499
 20
-448.8492702321035
 30
0.0
 11
-445.1269205906499
 21
715.7972417796828
 31
0.0
  0
LINE
  5
1B3
330
1F
100
AcDbEntity
  8
0-0
  6
JWW_DASHED1
 62
   120
370
     5
100
AcDbLine
 10
-458.1269205917499
 20
-448.8492702321035
 30
0.0
 11
-458.1269205917499
 21
712.2961649619812
 31
0.0
  0
LINE
  5
1B4
330
1F
100
AcDbEntity
  8
0-0
  6
JWW_DASHED1
 62
   120
370
     5
100
AcDbLine
 10
-459.1269205916501
 20
-448.8492702321035
 30
0.0
 11
-459.1269205916501
 21
712.0044980045988
 31
0.0
  0
LINE
  5
1B5
330
1F
100
AcDbEntity
  8
0-0
  6
JWW_DASHED1
 62
   120
370
     5
100
AcDbLine
 10
-472.1269205927501
 20
-448.8492702321035
 30
0.0
 11
-472.1269205927501
 21
707.9153362568924
 31
0.0
  0
LINE
  5
1B6
330
1F
100
AcDbEntity
  8
0-0
  6
JWW_DASHED1
 62
   120
370
     5
100
AcDbLine
 10
-473.1269205926503
 20
-448.8492702321035
 30
0.0
 11
-473.1269205926503
 21
707.577575626483
 31
0.0
  0
LINE
  5
1B7
330
1F
100
AcDbEntity
  8
0-0
  6
JWW_DASHED1
 62
   120
370
     5
100
AcDbLine
 10
-486.1269205937504
 20
-448.8492702321035
 30
0.0
 11
-486.1269205937504
 21
702.8765393325831
 31
0.0
  0
LINE
  5
1B8
330
1F
100
AcDbEntity
  8
0-0
  6
JWW_DASHED1
 62
   120
370
     5
100
AcDbLine
 10
-487.1269205936505
 20
-448.8492702321035
 30
0.0
 11
-487.1269205936505
 21
702.4906670612928
 31
0.0
  0
LINE
  5
1B9
330
1F
100
AcDbEntity
  8
0-0
  6
JWW_DASHED1
 62
   120
370
     5
100
AcDbLine
 10
-500.1269205947497
 20
-448.8492702321035
 30
0.0
 11
-500.1269205947497
 21
697.148790747333
 31
0.0
  0
LINE
  5
1BA
330
1F
100
AcDbEntity
  8
0-0
  6
JWW_DASHED1
 62
   120
370
     5
100
AcDbLine
 10
-501.1269205946499
 20
-448.8492702321035
 30
0.0
 11
-501.1269205946499
 21
696.7123544042898
 31
0.0
  0
LINE
  5
1BB
330
1F
100
AcDbEntity
  8
0-0
  6
JWW_DASHED1
 62
   120
370
     5
100
AcDbLine
 10
-514.1269205957499
 20
-448.8492702321035
 30
0.0
 11
-514.1269205957499
 21
690.6944559322166
 31
0.0
  0
LINE
  5
1BC
330
1F
100
AcDbEntity
  8
0-0
  6
JWW_DASHED1
 62
   120
370
     5
100
AcDbLine
 10
-515.1269205956501
 20
-448.8492702321035
 30
0.0
 11
-515.1269205956501
 21
690.2044762927745
 31
0.0
  0
LINE
  5
1BD
330
1F
100
AcDbEntity
  8
0-0
  6
JWW_DASHED1
 62
   120
370
     5
100
AcDbLine
 10
-528.1269205967501
 20
-448.8492702321035
 30
0.0
 11
-528.1269205967501
 21
683.4787997824351
 31
0.0
  0
LINE
  5
1BE
330
1F
100
AcDbEntity
  8
0-0
  6
JWW_DASHED1
 62
   120
370
     5
100
AcDbLine
 10
-529.1269205966503
 20
-448.8492702321035
 30
0.0
 11
-529.1269205966503
 21
682.9560752297511
 31
0.0
  0
LINE
  5
1BF
330
1F
100
AcDbEntity
  8
0-0
  6
JWW_DASHED1
 62
   120
370
     5
100
AcDbLine
 10
-542.1269205977495
 20
-448.8492702321035
 30
0.0
 11
-542.1269205977495
 21
676.9907842272478
 31
0.0
  0
LINE
  5
1C0
330
1F
100
AcDbEntity
  8
0-0
  6
JWW_DASHED1
 62
   120
370
     5
100
AcDbLine
 10
-543.1269205976497
 20
-448.8492702321035
 30
0.0
 11
-543.1269205976497
 21
676.5926222724484
 31
0.0
  0
LINE
  5
1C1
330
1F
100
AcDbEntity
  8
0-0
  6
JWW_DASHED1
 62
   120
370
     5
100
AcDbLine
 10
-556.1269205987497
 20
-448.8492702321035
 30
0.0
 11
-556.1269205987497
 21
672.1467749612129
 31
0.0
  0
LINE
  5
1C2
330
1F
100
AcDbEntity
  8
0-0
  6
JWW_DASHED1
 62
   120
370
     5
100
AcDbLine
 10
-557.1269205986499
 20
-448.8492702321035
 30
0.0
 11
-557.1269205986499
 21
671.8589633162374
 31
0.0
  0
LINE
  5
1C3
330
1F
100
AcDbEntity
  8
0-0
  6
JWW_DASHED1
 62
   120
370
     5
100
AcDbLine
 10
-570.12692059975
 20
-448.8492702321035
 30
0.0
 11
-570.12692059975
 21
668.7845641663916
 31
0.0
  0
LINE
  5
1C4
330
1F
100
AcDbEntity
  8
0-0
  6
JWW_DASHED1
 62
   120
370
     5
100
AcDbLine
 10
-571.1269205996501
 20
-448.8492702321035
 30
0.0
 11
-571.1269205996501
 21
668.5981575246406
 31
0.0
  0
LINE
  5
1C5
330
1F
100
AcDbEntity
  8
0-0
  6
JWW_DASHED1
 62
   120
370
     5
100
AcDbLine
 10
-584.1269206007502
 20
-448.8492702321035
 30
0.0
 11
-584.1269206007502
 21
666.8040398520243
 31
0.0
  0
LINE
  5
1C6
330
1F
100
AcDbEntity
  8
0-0
  6
JWW_DASHED1
 62
   120
370
     5
100
AcDbLine
 10
-585.1269206006504
 20
-448.8492702321035
 30
0.0
 11
-585.1269206006504
 21
666.7137579405535
 31
0.0
  0
LINE
  5
1C7
330
1F
100
AcDbEntity
  8
0-0
  6
JWW_DASHED1
 62
   120
370
     5
100
AcDbLine
 10
-598.1269206017504
 20
-448.8492702321035
 30
0.0
 11
-598.1269206017504
 21
666.150462223588
 31
0.0
  0
LINE
  5
1C8
330
1F
100
AcDbEntity
  8
0-0
  6
JWW_DASHED1
 62
   120
370
     5
100
AcDbLine
 10
-599.1269206016506
 20
-448.8492702321035
 30
0.0
 11
-599.1269206016506
 21
666.150462223588
 31
0.0
  0
LINE
  5
1C9
330
1F
100
AcDbEntity
  8
0-0
  6
JWW_DASHED1
 62
   120
370
     5
100
AcDbLine
 10
-612.1269206027498
 20
-448.8492702321035
 30
0.0
 11
-612.1269206027498
 21
666.150462223588
 31
0.0
  0
LINE
  5
1CA
330
1F
100
AcDbEntity
  8
0-0
  6
JWW_DASHED1
 62
   120
370
     5
100
AcDbLine
 10
-613.12692060265
 20
-448.8492702321035
 30
0.0
 11
-613.12692060265
 21
666.150462223588
 31
0.0
  0
LINE
  5
1CB
330
1F
100
AcDbEntity
  8
0-0
  6
JWW_DASHED1
 62
   120
370
     5
100
AcDbLine
 10
-626.12692060375
 20
-448.8492702321035
 30
0.0
 11
-626.12692060375
 21
666.150462223588
 31
0.0
  0
LINE
  5
1CC
330
1F
100
AcDbEntity
  8
0-0
  6
JWW_DASHED1
 62
   120
370
     5
100
AcDbLine
 10
-627.1269206036502
 20
-448.8492702321035
 30
0.0
 11
-627.1269206036502
 21
666.150462223588
 31
0.0
  0
LINE
  5
1CD
330
1F
100
AcDbEntity
  8
0-0
  6
JWW_DASHED1
 62
   120
370
     5
100
AcDbLine
 10
-640.1269206047502
 20
-448.8492702321035
 30
0.0
 11
-640.1269206047502
 21
666.150462223588
 31
0.0
  0
LINE
  5
1CE
330
1F
100
AcDbEntity
  8
0-0
  6
JWW_DASHED1
 62
   120
370
     5
100
AcDbLine
 10
-641.1269206046504
 20
-448.8492702321035
 30
0.0
 11
-641.1269206046504
 21
666.150462223588
 31
0.0
  0
LINE
  5
1CF
330
1F
100
AcDbEntity
  8
0-0
  6
JWW_DASHED1
 62
   120
370
     5
100
AcDbLine
 10
132.8730609373179
 20
-447.8494185460471
 30
0.0
 11
705.8730609373185
 21
-447.8494185460471
 31
0.0
  0
LINE
  5
1D0
330
1F
100
AcDbEntity
  8
0-0
  6
JWW_DASHED1
 62
   120
370
     5
100
AcDbLine
 10
132.8730609373179
 20
-434.8494185449475
 30
0.0
 11
705.8730609373185
 21
-434.8494185449475
 31
0.0
  0
LINE
  5
1D1
330
1F
100
AcDbEntity
  8
0-0
  6
JWW_DASHED1
 62
   120
370
     5
100
AcDbLine
 10
132.8730609373179
 20
-433.8494185450473
 30
0.0
 11
705.8730609373185
 21
-433.8494185450473
 31
0.0
  0
LINE
  5
1D2
330
1F
100
AcDbEntity
  8
0-0
  6
JWW_DASHED1
 62
   120
370
     5
100
AcDbLine
 10
132.8730609373179
 20
-420.8494185439477
 30
0.0
 11
705.8730609373185
 21
-420.8494185439477
 31
0.0
  0
LINE
  5
1D3
330
1F
100
AcDbEntity
  8
0-0
  6
JWW_DASHED1
 62
   120
370
     5
100
AcDbLine
 10
132.8730609373179
 20
-419.8494185440475
 30
0.0
 11
705.8730609373185
 21
-419.8494185440475
 31
0.0
  0
LINE
  5
1D4
330
1F
100
AcDbEntity
  8
0-0
  6
JWW_DASHED1
 62
   120
370
     5
100
AcDbLine
 10
132.8730609373179
 20
-406.8494185429479
 30
0.0
 11
705.8730609373185
 21
-406.8494185429479
 31
0.0
  0
LINE
  5
1D5
330
1F
100
AcDbEntity
  8
0-0
  6
JWW_DASHED1
 62
   120
370
     5
100
AcDbLine
 10
132.8730609373179
 20
-405.8494185430477
 30
0.0
 11
705.8730609373185
 21
-405.8494185430477
 31
0.0
  0
LINE
  5
1D6
330
1F
100
AcDbEntity
  8
0-0
  6
JWW_DASHED1
 62
   120
370
     5
100
AcDbLine
 10
132.8730609373179
 20
-392.8494185419481
 30
0.0
 11
705.8730609373185
 21
-392.8494185419481
 31
0.0
  0
LINE
  5
1D7
330
1F
100
AcDbEntity
  8
0-0
  6
JWW_DASHED1
 62
   120
370
     5
100
AcDbLine
 10
132.8730609373179
 20
-391.8494185420479
 30
0.0
 11
705.8730609373185
 21
-391.8494185420479
 31
0.0
  0
LINE
  5
1D8
330
1F
100
AcDbEntity
  8
0-0
  6
JWW_DASHED1
 62
   120
370
     5
100
AcDbLine
 10
132.8730609373179
 20
-378.8494185409484
 30
0.0
 11
705.8730609373185
 21
-378.8494185409484
 31
0.0
  0
LINE
  5
1D9
330
1F
100
AcDbEntity
  8
0-0
  6
JWW_DASHED1
 62
   120
370
     5
100
AcDbLine
 10
132.8730609373179
 20
-377.8494185410482
 30
0.0
 11
705.8730609373185
 21
-377.8494185410482
 31
0.0
  0
LINE
  5
1DA
330
1F
100
AcDbEntity
  8
0-0
  6
JWW_DASHED1
 62
   120
370
     5
100
AcDbLine
 10
132.8730609373179
 20
-364.8494185399485
 30
0.0
 11
705.8730609373185
 21
-364.8494185399485
 31
0.0
  0
LINE
  5
1DB
330
1F
100
AcDbEntity
  8
0-0
  6
JWW_DASHED1
 62
   120
370
     5
100
AcDbLine
 10
132.8730609373179
 20
-363.8494185400484
 30
0.0
 11
705.8730609373185
 21
-363.8494185400484
 31
0.0
  0
LINE
  5
1DC
330
1F
100
AcDbEntity
  8
0-0
  6
JWW_DASHED1
 62
   120
370
     5
100
AcDbLine
 10
132.8730609373179
 20
-350.8494185389487
 30
0.0
 11
705.8730609373185
 21
-350.8494185389487
 31
0.0
  0
LINE
  5
1DD
330
1F
100
AcDbEntity
  8
0-0
  6
JWW_DASHED1
 62
   120
370
     5
100
AcDbLine
 10
132.8730609373179
 20
-349.8494185390485
 30
0.0
 11
705.8730609373185
 21
-349.8494185390485
 31
0.0
  0
LINE
  5
1DE
330
1F
100
AcDbEntity
  8
0-0
  6
JWW_DASHED1
 62
   120
370
     5
100
AcDbLine
 10
132.8730609373179
 20
-336.849418537949
 30
0.0
 11
705.8730609373185
 21
-336.849418537949
 31
0.0
  0
LINE
  5
1DF
330
1F
100
AcDbEntity
  8
0-0
  6
JWW_DASHED1
 62
   120
370
     5
100
AcDbLine
 10
132.8730609373179
 20
-335.8494185380488
 30
0.0
 11
705.8730609373185
 21
-335.8494185380488
 31
0.0
  0
LINE
  5
1E0
330
1F
100
AcDbEntity
  8
0-0
  6
JWW_DASHED1
 62
   120
370
     5
100
AcDbLine
 10
132.8730609373179
 20
-322.8494185369492
 30
0.0
 11
705.8730609373185
 21
-322.8494185369492
 31
0.0
  0
LINE
  5
1E1
330
1F
100
AcDbEntity
  8
0-0
  6
JWW_DASHED1
 62
   120
370
     5
100
AcDbLine
 10
132.8730609373179
 20
-321.849418537049
 30
0.0
 11
705.8730609373185
 21
-321.849418537049
 31
0.0
  0
LINE
  5
1E2
330
1F
100
AcDbEntity
  8
0-0
  6
JWW_DASHED1
 62
   120
370
     5
100
AcDbLine
 10
132.8730609373179
 20
-308.8494185359494
 30
0.0
 11
705.8730609373185
 21
-308.8494185359494
 31
0.0
  0
LINE
  5
1E3
330
1F
100
AcDbEntity
  8
0-0
  6
JWW_DASHED1
 62
   120
370
     5
100
AcDbLine
 10
132.8730609373179
 20
-307.8494185360492
 30
0.0
 11
705.8730609373185
 21
-307.8494185360492
 31
0.0
  0
LINE
  5
1E4
330
1F
100
AcDbEntity
  8
0-0
  6
JWW_DASHED1
 62
   120
370
     5
100
AcDbLine
 10
132.8730609373179
 20
-294.8494185349496
 30
0.0
 11
705.8730609373185
 21
-294.8494185349496
 31
0.0
  0
LINE
  5
1E5
330
1F
100
AcDbEntity
  8
0-0
  6
JWW_DASHED1
 62
   120
370
     5
100
AcDbLine
 10
132.8730609373179
 20
-293.8494185350494
 30
0.0
 11
705.8730609373185
 21
-293.8494185350494
 31
0.0
  0
LINE
  5
1E6
330
1F
100
AcDbEntity
  8
0-0
  6
JWW_DASHED1
 62
   120
370
     5
100
AcDbLine
 10
132.8730609373179
 20
-280.8494185339498
 30
0.0
 11
705.8730609373185
 21
-280.8494185339498
 31
0.0
  0
LINE
  5
1E7
330
1F
100
AcDbEntity
  8
0-0
  6
JWW_DASHED1
 62
   120
370
     5
100
AcDbLine
 10
132.8730609373179
 20
-279.8494185340496
 30
0.0
 11
705.8730609373185
 21
-279.8494185340496
 31
0.0
  0
LINE
  5
1E8
330
1F
100
AcDbEntity
  8
0-0
  6
JWW_DASHED1
 62
   120
370
     5
100
AcDbLine
 10
132.8730609373179
 20
-266.84941853295
 30
0.0
 11
705.8730609373185
 21
-266.84941853295
 31
0.0
  0
LINE
  5
1E9
330
1F
100
AcDbEntity
  8
0-0
  6
JWW_DASHED1
 62
   120
370
     5
100
AcDbLine
 10
132.8730609373179
 20
-265.8494185330499
 30
0.0
 11
705.8730609373185
 21
-265.8494185330499
 31
0.0
  0
LINE
  5
1EA
330
1F
100
AcDbEntity
  8
0-0
  6
JWW_DASHED1
 62
   120
370
     5
100
AcDbLine
 10
132.8730609373179
 20
-252.8494185319502
 30
0.0
 11
705.8730609373185
 21
-252.8494185319502
 31
0.0
  0
LINE
  5
1EB
330
1F
100
AcDbEntity
  8
0-0
  6
JWW_DASHED1
 62
   120
370
     5
100
AcDbLine
 10
132.8730609373179
 20
-251.84941853205
 30
0.0
 11
705.8730609373185
 21
-251.84941853205
 31
0.0
  0
LINE
  5
1EC
330
1F
100
AcDbEntity
  8
0-0
  6
JWW_DASHED1
 62
   120
370
     5
100
AcDbLine
 10
132.8730609373179
 20
-238.8494185309504
 30
0.0
 11
705.8730609373185
 21
-238.8494185309504
 31
0.0
  0
LINE
  5
1ED
330
1F
100
AcDbEntity
  8
0-0
  6
JWW_DASHED1
 62
   120
370
     5
100
AcDbLine
 10
132.8730609373179
 20
-237.8494185310502
 30
0.0
 11
705.8730609373185
 21
-237.8494185310502
 31
0.0
  0
LINE
  5
1EE
330
1F
100
AcDbEntity
  8
0-0
  6
JWW_DASHED1
 62
   120
370
     5
100
AcDbLine
 10
132.8730609373179
 20
-224.8494185299506
 30
0.0
 11
705.8730609373185
 21
-224.8494185299506
 31
0.0
  0
LINE
  5
1EF
330
1F
100
AcDbEntity
  8
0-0
  6
JWW_DASHED1
 62
   120
370
     5
100
AcDbLine
 10
132.8730609373179
 20
-223.8494185300505
 30
0.0
 11
705.8730609373185
 21
-223.8494185300505
 31
0.0
  0
LINE
  5
1F0
330
1F
100
AcDbEntity
  8
0-0
  6
JWW_DASHED1
 62
   120
370
     5
100
AcDbLine
 10
132.8730609373179
 20
-210.8494185289508
 30
0.0
 11
705.8730609373185
 21
-210.8494185289508
 31
0.0
  0
LINE
  5
1F1
330
1F
100
AcDbEntity
  8
0-0
  6
JWW_DASHED1
 62
   120
370
     5
100
AcDbLine
 10
132.8730609373179
 20
-209.8494185290507
 30
0.0
 11
705.8730609373185
 21
-209.8494185290507
 31
0.0
  0
LINE
  5
1F2
330
1F
100
AcDbEntity
  8
0-0
  6
JWW_DASHED1
 62
   120
370
     5
100
AcDbLine
 10
132.8730609373179
 20
-196.8494185279511
 30
0.0
 11
705.8730609373185
 21
-196.8494185279511
 31
0.0
  0
LINE
  5
1F3
330
1F
100
AcDbEntity
  8
0-0
  6
JWW_DASHED1
 62
   120
370
     5
100
AcDbLine
 10
132.8730609373179
 20
-195.8494185280509
 30
0.0
 11
705.8730609373185
 21
-195.8494185280509
 31
0.0
  0
LINE
  5
1F4
330
1F
100
AcDbEntity
  8
0-0
  6
JWW_DASHED1
 62
   120
370
     5
100
AcDbLine
 10
132.8730609373179
 20
-182.8494185269513
 30
0.0
 11
705.8730609373185
 21
-182.8494185269513
 31
0.0
  0
LINE
  5
1F5
330
1F
100
AcDbEntity
  8
0-0
  6
JWW_DASHED1
 62
   120
370
     5
100
AcDbLine
 10
132.8730609373179
 20
-181.8494185270511
 30
0.0
 11
705.8730609373185
 21
-181.8494185270511
 31
0.0
  0
LINE
  5
1F6
330
1F
100
AcDbEntity
  8
0-0
  6
JWW_DASHED1
 62
   120
370
     5
100
AcDbLine
 10
132.8730609373179
 20
-168.8494185259515
 30
0.0
 11
705.8730609373185
 21
-168.8494185259515
 31
0.0
  0
LINE
  5
1F7
330
1F
100
AcDbEntity
  8
0-0
  6
JWW_DASHED1
 62
   120
370
     5
100
AcDbLine
 10
132.8730609373179
 20
-167.8494185260513
 30
0.0
 11
705.8730609373185
 21
-167.8494185260513
 31
0.0
  0
LINE
  5
1F8
330
1F
100
AcDbEntity
  8
0-0
  6
JWW_DASHED1
 62
   120
370
     5
100
AcDbLine
 10
132.8730609373179
 20
-154.8494185249517
 30
0.0
 11
705.8730609373185
 21
-154.8494185249517
 31
0.0
  0
LINE
  5
1F9
330
1F
100
AcDbEntity
  8
0-0
  6
JWW_DASHED1
 62
   120
370
     5
100
AcDbLine
 10
132.8730609373179
 20
-153.8494185250515
 30
0.0
 11
705.8730609373185
 21
-153.8494185250515
 31
0.0
  0
LINE
  5
1FA
330
1F
100
AcDbEntity
  8
0-0
  6
JWW_DASHED1
 62
   120
370
     5
100
AcDbLine
 10
132.8730609373179
 20
-140.8494185239519
 30
0.0
 11
705.8730609373185
 21
-140.8494185239519
 31
0.0
  0
LINE
  5
1FB
330
1F
100
AcDbEntity
  8
0-0
  6
JWW_DASHED1
 62
   120
370
     5
100
AcDbLine
 10
132.8730609373179
 20
-139.8494185240517
 30
0.0
 11
705.8730609373185
 21
-139.8494185240517
 31
0.0
  0
LINE
  5
1FC
330
1F
100
AcDbEntity
  8
0-0
  6
JWW_DASHED1
 62
   120
370
     5
100
AcDbLine
 10
132.8730609373179
 20
-126.8494185229521
 30
0.0
 11
705.8730609373185
 21
-126.8494185229521
 31
0.0
  0
LINE
  5
1FD
330
1F
100
AcDbEntity
  8
0-0
  6
JWW_DASHED1
 62
   120
370
     5
100
AcDbLine
 10
132.8730609373179
 20
-125.8494185230519
 30
0.0
 11
705.8730609373185
 21
-125.8494185230519
 31
0.0
  0
LINE
  5
1FE
330
1F
100
AcDbEntity
  8
0-0
  6
JWW_DASHED1
 62
   120
370
     5
100
AcDbLine
 10
132.8730609373179
 20
-112.8494185219523
 30
0.0
 11
705.8730609373185
 21
-112.8494185219523
 31
0.0
  0
LINE
  5
1FF
330
1F
100
AcDbEntity
  8
0-0
  6
JWW_DASHED1
 62
   120
370
     5
100
AcDbLine
 10
132.8730609373179
 20
-111.8494185220521
 30
0.0
 11
705.8730609373185
 21
-111.8494185220521
 31
0.0
  0
LINE
  5
200
330
1F
100
AcDbEntity
  8
0-0
  6
JWW_DASHED1
 62
   120
370
     5
100
AcDbLine
 10
132.8730609373179
 20
-98.84941852095253
 30
0.0
 11
705.8730609373185
 21
-98.84941852095253
 31
0.0
  0
LINE
  5
201
330
1F
100
AcDbEntity
  8
0-0
  6
JWW_DASHED1
 62
   120
370
     5
100
AcDbLine
 10
132.8730609373179
 20
-97.84941852105234
 30
0.0
 11
705.8730609373185
 21
-97.84941852105234
 31
0.0
  0
LINE
  5
202
330
1F
100
AcDbEntity
  8
0-0
  6
JWW_DASHED1
 62
   120
370
     5
100
AcDbLine
 10
132.8730609373179
 20
-84.84941851995274
 30
0.0
 11
705.8730609373185
 21
-84.84941851995274
 31
0.0
  0
LINE
  5
203
330
1F
100
AcDbEntity
  8
0-0
  6
JWW_DASHED1
 62
   120
370
     5
100
AcDbLine
 10
132.8730609373179
 20
-83.84941852005255
 30
0.0
 11
705.8730609373185
 21
-83.84941852005255
 31
0.0
  0
LINE
  5
204
330
1F
100
AcDbEntity
  8
0-0
  6
JWW_DASHED1
 62
   120
370
     5
100
AcDbLine
 10
132.8730609373179
 20
-70.84941851895294
 30
0.0
 11
705.8730609373185
 21
-70.84941851895294
 31
0.0
  0
LINE
  5
205
330
1F
100
AcDbEntity
  8
0-0
  6
JWW_DASHED1
 62
   120
370
     5
100
AcDbLine
 10
132.8730609373179
 20
-69.84941851905276
 30
0.0
 11
705.8730609373185
 21
-69.84941851905276
 31
0.0
  0
LINE
  5
206
330
1F
100
AcDbEntity
  8
0-0
  6
JWW_DASHED1
 62
   120
370
     5
100
AcDbLine
 10
132.8730609373179
 20
-56.84941851795315
 30
0.0
 11
705.8730609373185
 21
-56.84941851795315
 31
0.0
  0
LINE
  5
207
330
1F
100
AcDbEntity
  8
0-0
  6
JWW_DASHED1
 62
   120
370
     5
100
AcDbLine
 10
132.8730609373179
 20
-55.84941851805297
 30
0.0
 11
705.8730609373185
 21
-55.84941851805297
 31
0.0
  0
LINE
  5
208
330
1F
100
AcDbEntity
  8
0-0
  6
JWW_DASHED1
 62
   120
370
     5
100
AcDbLine
 10
132.8730609373179
 20
-42.84941851695336
 30
0.0
 11
705.8730609373185
 21
-42.84941851695336
 31
0.0
  0
LINE
  5
209
330
1F
100
AcDbEntity
  8
0-0
  6
JWW_DASHED1
 62
   120
370
     5
100
AcDbLine
 10
132.8730609373179
 20
-41.84941851705318
 30
0.0
 11
705.8730609373185
 21
-41.84941851705318
 31
0.0
  0
LINE
  5
20A
330
1F
100
AcDbEntity
  8
0-0
  6
JWW_DASHED1
 62
   120
370
     5
100
AcDbLine
 10
132.8730609373179
 20
-28.84941851595357
 30
0.0
 11
705.8730609373185
 21
-28.84941851595357
 31
0.0
  0
LINE
  5
20B
330
1F
100
AcDbEntity
  8
0-0
  6
JWW_DASHED1
 62
   120
370
     5
100
AcDbLine
 10
132.8730609373179
 20
-27.84941851605339
 30
0.0
 11
705.8730609373185
 21
-27.84941851605339
 31
0.0
  0
LINE
  5
20C
330
1F
100
AcDbEntity
  8
0-0
  6
JWW_DASHED1
 62
   120
370
     5
100
AcDbLine
 10
132.8730609373179
 20
-14.84941851495378
 30
0.0
 11
705.8730609373185
 21
-14.84941851495378
 31
0.0
  0
LINE
  5
20D
330
1F
100
AcDbEntity
  8
0-0
  6
JWW_DASHED1
 62
   120
370
     5
100
AcDbLine
 10
132.8730609373179
 20
-13.8494185150536
 30
0.0
 11
705.8730609373185
 21
-13.8494185150536
 31
0.0
  0
LINE
  5
20E
330
1F
100
AcDbEntity
  8
0-0
  6
JWW_DASHED1
 62
   120
370
     5
100
AcDbLine
 10
132.8730609373179
 20
-0.8494185139539923
 30
0.0
 11
705.8730609373185
 21
-0.8494185139539923
 31
0.0
  0
LINE
  5
20F
330
1F
100
AcDbEntity
  8
0-0
  6
JWW_DASHED1
 62
   120
370
     5
100
AcDbLine
 10
132.8730609373179
 20
0.1505814859461907
 30
0.0
 11
705.8730609373185
 21
0.1505814859461907
 31
0.0
  0
LINE
  5
210
330
1F
100
AcDbEntity
  8
0-0
  6
JWW_DASHED1
 62
   120
370
     5
100
AcDbLine
 10
132.8730609373179
 20
13.1505814870458
 30
0.0
 11
705.8730609373185
 21
13.1505814870458
 31
0.0
  0
LINE
  5
211
330
1F
100
AcDbEntity
  8
0-0
  6
JWW_DASHED1
 62
   120
370
     5
100
AcDbLine
 10
132.8730609373179
 20
14.15058148694598
 30
0.0
 11
705.8730609373185
 21
14.15058148694598
 31
0.0
  0
LINE
  5
212
330
1F
100
AcDbEntity
  8
0-0
  6
JWW_DASHED1
 62
   120
370
     5
100
AcDbLine
 10
132.8730609373179
 20
27.15058148804559
 30
0.0
 11
705.8730609373185
 21
27.15058148804559
 31
0.0
  0
LINE
  5
213
330
1F
100
AcDbEntity
  8
0-0
  6
JWW_DASHED1
 62
   120
370
     5
100
AcDbLine
 10
132.8730609373179
 20
28.15058148794577
 30
0.0
 11
705.8730609373185
 21
28.15058148794577
 31
0.0
  0
LINE
  5
214
330
1F
100
AcDbEntity
  8
0-0
  6
JWW_DASHED1
 62
   120
370
     5
100
AcDbLine
 10
132.8730609373179
 20
41.15058148904538
 30
0.0
 11
705.8730609373185
 21
41.15058148904538
 31
0.0
  0
LINE
  5
215
330
1F
100
AcDbEntity
  8
0-0
  6
JWW_DASHED1
 62
   120
370
     5
100
AcDbLine
 10
132.8730609373179
 20
42.15058148894556
 30
0.0
 11
705.8730609373185
 21
42.15058148894556
 31
0.0
  0
LINE
  5
216
330
1F
100
AcDbEntity
  8
0-0
  6
JWW_DASHED1
 62
   120
370
     5
100
AcDbLine
 10
132.8730609373179
 20
55.15058149004517
 30
0.0
 11
705.8730609373185
 21
55.15058149004517
 31
0.0
  0
LINE
  5
217
330
1F
100
AcDbEntity
  8
0-0
  6
JWW_DASHED1
 62
   120
370
     5
100
AcDbLine
 10
132.8730609373179
 20
56.15058148994535
 30
0.0
 11
705.8730609373185
 21
56.15058148994535
 31
0.0
  0
LINE
  5
218
330
1F
100
AcDbEntity
  8
0-0
  6
JWW_DASHED1
 62
   120
370
     5
100
AcDbLine
 10
132.8730609373179
 20
69.15058149104496
 30
0.0
 11
705.8730609373185
 21
69.15058149104496
 31
0.0
  0
LINE
  5
219
330
1F
100
AcDbEntity
  8
0-0
  6
JWW_DASHED1
 62
   120
370
     5
100
AcDbLine
 10
132.8730609373179
 20
70.15058149094514
 30
0.0
 11
705.8730609373185
 21
70.15058149094514
 31
0.0
  0
LINE
  5
21A
330
1F
100
AcDbEntity
  8
0-0
  6
JWW_DASHED1
 62
   120
370
     5
100
AcDbLine
 10
132.8730609373179
 20
83.15058149204475
 30
0.0
 11
705.8730609373185
 21
83.15058149204475
 31
0.0
  0
LINE
  5
21B
330
1F
100
AcDbEntity
  8
0-0
  6
JWW_DASHED1
 62
   120
370
     5
100
AcDbLine
 10
132.8730609373179
 20
84.15058149194493
 30
0.0
 11
705.8730609373185
 21
84.15058149194493
 31
0.0
  0
LINE
  5
21C
330
1F
100
AcDbEntity
  8
0-0
  6
JWW_DASHED1
 62
   120
370
     5
100
AcDbLine
 10
132.8730609373179
 20
97.15058149304454
 30
0.0
 11
705.8730609373185
 21
97.15058149304454
 31
0.0
  0
LINE
  5
21D
330
1F
100
AcDbEntity
  8
0-0
  6
JWW_DASHED1
 62
   120
370
     5
100
AcDbLine
 10
132.8730609373179
 20
98.15058149294472
 30
0.0
 11
705.8730609373185
 21
98.15058149294472
 31
0.0
  0
LINE
  5
21E
330
1F
100
AcDbEntity
  8
0-0
  6
JWW_DASHED1
 62
   120
370
     5
100
AcDbLine
 10
132.8730609373179
 20
111.1505814940443
 30
0.0
 11
705.8730609373185
 21
111.1505814940443
 31
0.0
  0
LINE
  5
21F
330
1F
100
AcDbEntity
  8
0-0
  6
JWW_DASHED1
 62
   120
370
     5
100
AcDbLine
 10
132.8730609373179
 20
112.1505814939445
 30
0.0
 11
705.8730609373185
 21
112.1505814939445
 31
0.0
  0
LINE
  5
220
330
1F
100
AcDbEntity
  8
0-0
  6
JWW_DASHED1
 62
   120
370
     5
100
AcDbLine
 10
132.8730609373179
 20
125.1505814950441
 30
0.0
 11
705.8730609373185
 21
125.1505814950441
 31
0.0
  0
LINE
  5
221
330
1F
100
AcDbEntity
  8
0-0
  6
JWW_DASHED1
 62
   120
370
     5
100
AcDbLine
 10
132.8730609373179
 20
126.1505814949443
 30
0.0
 11
705.8730609373185
 21
126.1505814949443
 31
0.0
  0
LINE
  5
222
330
1F
100
AcDbEntity
  8
0-0
  6
JWW_DASHED1
 62
   120
370
     5
100
AcDbLine
 10
132.8730609373179
 20
139.1505814960439
 30
0.0
 11
705.8730609373185
 21
139.1505814960439
 31
0.0
  0
LINE
  5
223
330
1F
100
AcDbEntity
  8
0-0
  6
JWW_DASHED1
 62
   120
370
     5
100
AcDbLine
 10
132.8730609373179
 20
140.1505814959441
 30
0.0
 11
705.8730609373185
 21
140.1505814959441
 31
0.0
  0
LINE
  5
224
330
1F
100
AcDbEntity
  8
0-0
  6
JWW_DASHED1
 62
   120
370
     5
100
AcDbLine
 10
132.8730609373179
 20
153.1505814970437
 30
0.0
 11
705.8730609373185
 21
153.1505814970437
 31
0.0
  0
LINE
  5
225
330
1F
100
AcDbEntity
  8
0-0
  6
JWW_DASHED1
 62
   120
370
     5
100
AcDbLine
 10
132.8730609373179
 20
154.1505814969439
 30
0.0
 11
705.8730609373185
 21
154.1505814969439
 31
0.0
  0
LINE
  5
226
330
1F
100
AcDbEntity
  8
0-0
  6
JWW_DASHED1
 62
   120
370
     5
100
AcDbLine
 10
132.8730609373179
 20
167.1505814980435
 30
0.0
 11
705.8730609373185
 21
167.1505814980435
 31
0.0
  0
LINE
  5
227
330
1F
100
AcDbEntity
  8
0-0
  6
JWW_DASHED1
 62
   120
370
     5
100
AcDbLine
 10
132.8730609373179
 20
168.1505814979437
 30
0.0
 11
705.8730609373185
 21
168.1505814979437
 31
0.0
  0
LINE
  5
228
330
1F
100
AcDbEntity
  8
0-0
  6
JWW_DASHED1
 62
   120
370
     5
100
AcDbLine
 10
132.8730609373179
 20
181.1505814990433
 30
0.0
 11
705.8730609373185
 21
181.1505814990433
 31
0.0
  0
LINE
  5
229
330
1F
100
AcDbEntity
  8
0-0
  6
JWW_DASHED1
 62
   120
370
     5
100
AcDbLine
 10
132.8730609373179
 20
182.1505814989435
 30
0.0
 11
705.8730609373185
 21
182.1505814989435
 31
0.0
  0
LINE
  5
22A
330
1F
100
AcDbEntity
  8
0-0
  6
JWW_DASHED1
 62
   120
370
     5
100
AcDbLine
 10
132.8730609373179
 20
195.1505815000431
 30
0.0
 11
705.8730609373185
 21
195.1505815000431
 31
0.0
  0
LINE
  5
22B
330
1F
100
AcDbEntity
  8
0-0
  6
JWW_DASHED1
 62
   120
370
     5
100
AcDbLine
 10
132.8730609373179
 20
196.1505814999433
 30
0.0
 11
705.8730609373185
 21
196.1505814999433
 31
0.0
  0
LINE
  5
22C
330
1F
100
AcDbEntity
  8
0-0
  6
JWW_DASHED1
 62
   120
370
     5
100
AcDbLine
 10
132.8730609373179
 20
209.1505815010429
 30
0.0
 11
705.8730609373185
 21
209.1505815010429
 31
0.0
  0
LINE
  5
22D
330
1F
100
AcDbEntity
  8
0-0
  6
JWW_DASHED1
 62
   120
370
     5
100
AcDbLine
 10
132.8730609373179
 20
210.150581500943
 30
0.0
 11
705.8730609373185
 21
210.150581500943
 31
0.0
  0
LINE
  5
22E
330
1F
100
AcDbEntity
  8
0-0
  6
JWW_DASHED1
 62
   120
370
     5
100
AcDbLine
 10
132.8730609373179
 20
223.1505815020427
 30
0.0
 11
705.8730609373185
 21
223.1505815020427
 31
0.0
  0
LINE
  5
22F
330
1F
100
AcDbEntity
  8
0-0
  6
JWW_DASHED1
 62
   120
370
     5
100
AcDbLine
 10
132.8730609373179
 20
224.1505815019428
 30
0.0
 11
705.8730609373185
 21
224.1505815019428
 31
0.0
  0
LINE
  5
230
330
1F
100
AcDbEntity
  8
0-0
  6
JWW_DASHED1
 62
   120
370
     5
100
AcDbLine
 10
132.8730609373179
 20
237.1505815030424
 30
0.0
 11
705.8730609373185
 21
237.1505815030424
 31
0.0
  0
LINE
  5
231
330
1F
100
AcDbEntity
  8
0-0
  6
JWW_DASHED1
 62
   120
370
     5
100
AcDbLine
 10
132.8730609373179
 20
238.1505815029426
 30
0.0
 11
705.8730609373185
 21
238.1505815029426
 31
0.0
  0
LINE
  5
232
330
1F
100
AcDbEntity
  8
0-0
  6
JWW_DASHED1
 62
   120
370
     5
100
AcDbLine
 10
132.8730609373179
 20
251.1505815040422
 30
0.0
 11
705.8730609373185
 21
251.1505815040422
 31
0.0
  0
LINE
  5
233
330
1F
100
AcDbEntity
  8
0-0
  6
JWW_DASHED1
 62
   120
370
     5
100
AcDbLine
 10
132.8730609373179
 20
252.1505815039424
 30
0.0
 11
705.8730609373185
 21
252.1505815039424
 31
0.0
  0
LINE
  5
234
330
1F
100
AcDbEntity
  8
0-0
  6
JWW_DASHED1
 62
   120
370
     5
100
AcDbLine
 10
132.8730609373179
 20
265.1505815050421
 30
0.0
 11
705.8730609373185
 21
265.1505815050421
 31
0.0
  0
LINE
  5
235
330
1F
100
AcDbEntity
  8
0-0
  6
JWW_DASHED1
 62
   120
370
     5
100
AcDbLine
 10
132.8730609373179
 20
266.1505815049422
 30
0.0
 11
705.8730609373185
 21
266.1505815049422
 31
0.0
  0
LINE
  5
236
330
1F
100
AcDbEntity
  8
0-0
  6
JWW_DASHED1
 62
   120
370
     5
100
AcDbLine
 10
132.8730609373179
 20
279.1505815060418
 30
0.0
 11
705.8730609373185
 21
279.1505815060418
 31
0.0
  0
LINE
  5
237
330
1F
100
AcDbEntity
  8
0-0
  6
JWW_DASHED1
 62
   120
370
     5
100
AcDbLine
 10
132.8730609373179
 20
280.150581505942
 30
0.0
 11
705.8730609373185
 21
280.150581505942
 31
0.0
  0
LINE
  5
238
330
1F
100
AcDbEntity
  8
0-0
  6
JWW_DASHED1
 62
   120
370
     5
100
AcDbLine
 10
132.8730609373179
 20
293.1505815070416
 30
0.0
 11
705.8730609373185
 21
293.1505815070416
 31
0.0
  0
LINE
  5
239
330
1F
100
AcDbEntity
  8
0-0
  6
JWW_DASHED1
 62
   120
370
     5
100
AcDbLine
 10
132.8730609373179
 20
294.1505815069418
 30
0.0
 11
705.8730609373185
 21
294.1505815069418
 31
0.0
  0
LINE
  5
23A
330
1F
100
AcDbEntity
  8
0-0
  6
JWW_DASHED1
 62
   120
370
     5
100
AcDbLine
 10
132.8730609373179
 20
307.1505815080414
 30
0.0
 11
705.8730609373185
 21
307.1505815080414
 31
0.0
  0
LINE
  5
23B
330
1F
100
AcDbEntity
  8
0-0
  6
JWW_DASHED1
 62
   120
370
     5
100
AcDbLine
 10
132.8730609373179
 20
308.1505815079416
 30
0.0
 11
705.8730609373185
 21
308.1505815079416
 31
0.0
  0
LINE
  5
23C
330
1F
100
AcDbEntity
  8
0-0
  6
JWW_DASHED1
 62
   120
370
     5
100
AcDbLine
 10
132.8730609373179
 20
321.1505815090412
 30
0.0
 11
705.8730609373185
 21
321.1505815090412
 31
0.0
  0
LINE
  5
23D
330
1F
100
AcDbEntity
  8
0-0
  6
JWW_DASHED1
 62
   120
370
     5
100
AcDbLine
 10
132.8730609373179
 20
322.1505815089414
 30
0.0
 11
705.8730609373185
 21
322.1505815089414
 31
0.0
  0
LINE
  5
23E
330
1F
100
AcDbEntity
  8
0-0
  6
JWW_DASHED1
 62
   120
370
     5
100
AcDbLine
 10
132.8730609373179
 20
335.150581510041
 30
0.0
 11
705.8730609373185
 21
335.150581510041
 31
0.0
  0
LINE
  5
23F
330
1F
100
AcDbEntity
  8
0-0
  6
JWW_DASHED1
 62
   120
370
     5
100
AcDbLine
 10
132.8730609373179
 20
336.1505815099412
 30
0.0
 11
705.8730609373185
 21
336.1505815099412
 31
0.0
  0
LINE
  5
240
330
1F
100
AcDbEntity
  8
0-0
  6
JWW_DASHED1
 62
   120
370
     5
100
AcDbLine
 10
132.8730609373179
 20
349.1505815110407
 30
0.0
 11
705.8730609373185
 21
349.1505815110407
 31
0.0
  0
LINE
  5
241
330
1F
100
AcDbEntity
  8
0-0
  6
JWW_DASHED1
 62
   120
370
     5
100
AcDbLine
 10
132.8730609373179
 20
350.1505815109409
 30
0.0
 11
705.8730609373185
 21
350.1505815109409
 31
0.0
  0
LINE
  5
242
330
1F
100
AcDbEntity
  8
0-0
  6
JWW_DASHED1
 62
   120
370
     5
100
AcDbLine
 10
132.8730609373179
 20
363.1505815120406
 30
0.0
 11
705.8730609373185
 21
363.1505815120406
 31
0.0
  0
LINE
  5
243
330
1F
100
AcDbEntity
  8
0-0
  6
JWW_DASHED1
 62
   120
370
     5
100
AcDbLine
 10
132.8730609373179
 20
364.1505815119407
 30
0.0
 11
705.8730609373185
 21
364.1505815119407
 31
0.0
  0
LINE
  5
244
330
1F
100
AcDbEntity
  8
0-0
  6
JWW_DASHED1
 62
   120
370
     5
100
AcDbLine
 10
132.8730609373179
 20
377.1505815130404
 30
0.0
 11
705.8730609373185
 21
377.1505815130404
 31
0.0
  0
LINE
  5
245
330
1F
100
AcDbEntity
  8
0-0
  6
JWW_DASHED1
 62
   120
370
     5
100
AcDbLine
 10
132.8730609373179
 20
378.1505815129406
 30
0.0
 11
705.8730609373185
 21
378.1505815129406
 31
0.0
  0
LINE
  5
246
330
1F
100
AcDbEntity
  8
0-0
  6
JWW_DASHED1
 62
   120
370
     5
100
AcDbLine
 10
132.8730609373179
 20
391.1505815140401
 30
0.0
 11
705.8730609373185
 21
391.1505815140401
 31
0.0
  0
LINE
  5
247
330
1F
100
AcDbEntity
  8
0-0
  6
JWW_DASHED1
 62
   120
370
     5
100
AcDbLine
 10
132.8730609373179
 20
392.1505815139403
 30
0.0
 11
705.8730609373185
 21
392.1505815139403
 31
0.0
  0
LINE
  5
248
330
1F
100
AcDbEntity
  8
0-0
  6
JWW_DASHED1
 62
   120
370
     5
100
AcDbLine
 10
132.8730609373179
 20
405.1505815150399
 30
0.0
 11
705.8730609373185
 21
405.1505815150399
 31
0.0
  0
LINE
  5
249
330
1F
100
AcDbEntity
  8
0-0
  6
JWW_DASHED1
 62
   120
370
     5
100
AcDbLine
 10
132.8730609373179
 20
406.1505815149401
 30
0.0
 11
705.8730609373185
 21
406.1505815149401
 31
0.0
  0
LINE
  5
24A
330
1F
100
AcDbEntity
  8
0-0
  6
JWW_DASHED1
 62
   120
370
     5
100
AcDbLine
 10
132.8730609373179
 20
419.1505815160397
 30
0.0
 11
705.8730609373185
 21
419.1505815160397
 31
0.0
  0
LINE
  5
24B
330
1F
100
AcDbEntity
  8
0-0
  6
JWW_DASHED1
 62
   120
370
     5
100
AcDbLine
 10
132.8730609373179
 20
420.1505815159399
 30
0.0
 11
705.8730609373185
 21
420.1505815159399
 31
0.0
  0
LINE
  5
24C
330
1F
100
AcDbEntity
  8
0-0
  6
JWW_DASHED1
 62
   120
370
     5
100
AcDbLine
 10
132.8730609373179
 20
433.1505815170395
 30
0.0
 11
705.8730609373185
 21
433.1505815170395
 31
0.0
  0
LINE
  5
24D
330
1F
100
AcDbEntity
  8
0-0
  6
JWW_DASHED1
 62
   120
370
     5
100
AcDbLine
 10
132.8730609373179
 20
434.1505815169397
 30
0.0
 11
705.8730609373185
 21
434.1505815169397
 31
0.0
  0
LINE
  5
24E
330
1F
100
AcDbEntity
  8
0-0
  6
JWW_DASHED1
 62
   120
370
     5
100
AcDbLine
 10
132.8730609373179
 20
447.1505815180393
 30
0.0
 11
705.8730609373185
 21
447.1505815180393
 31
0.0
  0
LINE
  5
24F
330
1F
100
AcDbEntity
  8
0-0
  6
JWW_DASHED1
 62
   120
370
     5
100
AcDbLine
 10
132.8730609373179
 20
448.1505815179395
 30
0.0
 11
705.8730609373185
 21
448.1505815179395
 31
0.0
  0
LINE
  5
250
330
1F
100
AcDbEntity
  8
0-0
  6
JWW_DASHED1
 62
   120
370
     5
100
AcDbLine
 10
132.8730609373179
 20
461.1505815190391
 30
0.0
 11
705.8730609373185
 21
461.1505815190391
 31
0.0
  0
LINE
  5
251
330
1F
100
AcDbEntity
  8
0-0
  6
JWW_DASHED1
 62
   120
370
     5
100
AcDbLine
 10
132.8730609373179
 20
462.1505815189392
 30
0.0
 11
705.8730609373185
 21
462.1505815189392
 31
0.0
  0
LINE
  5
252
330
1F
100
AcDbEntity
  8
0-0
  6
JWW_DASHED1
 62
   120
370
     5
100
AcDbLine
 10
132.8730609373179
 20
475.1505815200389
 30
0.0
 11
705.8730609373185
 21
475.1505815200389
 31
0.0
  0
LINE
  5
253
330
1F
100
AcDbEntity
  8
0-0
  6
JWW_DASHED1
 62
   120
370
     5
100
AcDbLine
 10
132.8730609373179
 20
476.1505815199391
 30
0.0
 11
705.8730609373185
 21
476.1505815199391
 31
0.0
  0
LINE
  5
254
330
1F
100
AcDbEntity
  8
0-0
  6
JWW_DASHED1
 62
   120
370
     5
100
AcDbLine
 10
132.8730609373179
 20
489.1505815210387
 30
0.0
 11
705.8730609373185
 21
489.1505815210387
 31
0.0
  0
LINE
  5
255
330
1F
100
AcDbEntity
  8
0-0
  6
JWW_DASHED1
 62
   120
370
     5
100
AcDbLine
 10
132.8730609373179
 20
490.1505815209389
 30
0.0
 11
705.8730609373185
 21
490.1505815209389
 31
0.0
  0
LINE
  5
256
330
1F
100
AcDbEntity
  8
0-0
  6
JWW_DASHED1
 62
   120
370
     5
100
AcDbLine
 10
132.8730609373179
 20
503.1505815220385
 30
0.0
 11
705.8730609373185
 21
503.1505815220385
 31
0.0
  0
LINE
  5
257
330
1F
100
AcDbEntity
  8
0-0
  6
JWW_DASHED1
 62
   120
370
     5
100
AcDbLine
 10
132.8730609373179
 20
504.1505815219386
 30
0.0
 11
705.8730609373185
 21
504.1505815219386
 31
0.0
  0
LINE
  5
258
330
1F
100
AcDbEntity
  8
0-0
  6
JWW_DASHED1
 62
   120
370
     5
100
AcDbLine
 10
132.8730609373179
 20
517.1505815230382
 30
0.0
 11
705.8730609373185
 21
517.1505815230382
 31
0.0
  0
LINE
  5
259
330
1F
100
AcDbEntity
  8
0-0
  6
JWW_DASHED1
 62
   120
370
     5
100
AcDbLine
 10
132.8730609373179
 20
518.1505815229384
 30
0.0
 11
705.8730609373185
 21
518.1505815229384
 31
0.0
  0
LINE
  5
25A
330
1F
100
AcDbEntity
  8
0-0
  6
JWW_DASHED1
 62
   120
370
     5
100
AcDbLine
 10
132.8730609373179
 20
531.150581524038
 30
0.0
 11
705.8730609373185
 21
531.150581524038
 31
0.0
  0
LINE
  5
25B
330
1F
100
AcDbEntity
  8
0-0
  6
JWW_DASHED1
 62
   120
370
     5
100
AcDbLine
 10
132.8730609373179
 20
532.1505815239382
 30
0.0
 11
705.8730609373185
 21
532.1505815239382
 31
0.0
  0
LINE
  5
25C
330
1F
100
AcDbEntity
  8
0-0
  6
JWW_DASHED1
 62
   120
370
     5
100
AcDbLine
 10
132.8730609373179
 20
545.1505815250379
 30
0.0
 11
705.8730609373185
 21
545.1505815250379
 31
0.0
  0
LINE
  5
25D
330
1F
100
AcDbEntity
  8
0-0
  6
JWW_DASHED1
 62
   120
370
     5
100
AcDbLine
 10
132.8730609373179
 20
546.150581524938
 30
0.0
 11
705.8730609373185
 21
546.150581524938
 31
0.0
  0
LINE
  5
25E
330
1F
100
AcDbEntity
  8
0-0
  6
JWW_DASHED1
 62
   120
370
     5
100
AcDbLine
 10
132.8730609373179
 20
559.1505815260376
 30
0.0
 11
705.8730609373185
 21
559.1505815260376
 31
0.0
  0
LINE
  5
25F
330
1F
100
AcDbEntity
  8
0-0
  6
JWW_DASHED1
 62
   120
370
     5
100
AcDbLine
 10
132.8730609373179
 20
560.1505815259378
 30
0.0
 11
705.8730609373185
 21
560.1505815259378
 31
0.0
  0
LINE
  5
260
330
1F
100
AcDbEntity
  8
0-0
  6
JWW_DASHED1
 62
   120
370
     5
100
AcDbLine
 10
132.8730609373179
 20
573.1505815270374
 30
0.0
 11
705.8730609373185
 21
573.1505815270374
 31
0.0
  0
LINE
  5
261
330
1F
100
AcDbEntity
  8
0-0
  6
JWW_DASHED1
 62
   120
370
     5
100
AcDbLine
 10
132.8730609373179
 20
574.1505815269376
 30
0.0
 11
705.8730609373185
 21
574.1505815269376
 31
0.0
  0
LINE
  5
262
330
1F
100
AcDbEntity
  8
0-0
  6
JWW_DASHED1
 62
   120
370
     5
100
AcDbLine
 10
132.8730609373179
 20
587.1505815280373
 30
0.0
 11
705.8730609373185
 21
587.1505815280373
 31
0.0
  0
LINE
  5
263
330
1F
100
AcDbEntity
  8
0-0
  6
JWW_DASHED1
 62
   120
370
     5
100
AcDbLine
 10
132.8730609373179
 20
588.1505815279374
 30
0.0
 11
705.8730609373185
 21
588.1505815279374
 31
0.0
  0
LINE
  5
264
330
1F
100
AcDbEntity
  8
0-0
  6
JWW_DASHED1
 62
   120
370
     5
100
AcDbLine
 10
132.8730609373179
 20
601.150581529037
 30
0.0
 11
705.8730609373185
 21
601.150581529037
 31
0.0
  0
LINE
  5
265
330
1F
100
AcDbEntity
  8
0-0
  6
JWW_DASHED1
 62
   120
370
     5
100
AcDbLine
 10
132.8730609373179
 20
602.1505815289372
 30
0.0
 11
705.8730609373185
 21
602.1505815289372
 31
0.0
  0
LINE
  5
266
330
1F
100
AcDbEntity
  8
0-0
  6
JWW_DASHED1
 62
   120
370
     5
100
AcDbLine
 10
132.8730609373179
 20
615.1505815300368
 30
0.0
 11
705.8730609373185
 21
615.1505815300368
 31
0.0
  0
LINE
  5
267
330
1F
100
AcDbEntity
  8
0-0
  6
JWW_DASHED1
 62
   120
370
     5
100
AcDbLine
 10
132.8730609373179
 20
616.150581529937
 30
0.0
 11
705.8730609373185
 21
616.150581529937
 31
0.0
  0
LINE
  5
268
330
1F
100
AcDbEntity
  8
0-0
  6
JWW_DASHED1
 62
   120
370
     5
100
AcDbLine
 10
132.8730609373179
 20
629.1505815310366
 30
0.0
 11
705.8730609373185
 21
629.1505815310366
 31
0.0
  0
LINE
  5
269
330
1F
100
AcDbEntity
  8
0-0
  6
JWW_DASHED1
 62
   120
370
     5
100
AcDbLine
 10
132.8730609373179
 20
630.1505815309365
 30
0.0
 11
705.8730609373185
 21
630.1505815309365
 31
0.0
  0
LINE
  5
26A
330
1F
100
AcDbEntity
  8
0-0
  6
JWW_DASHED1
 62
   120
370
     5
100
AcDbLine
 10
132.8730609373179
 20
643.1505815320363
 30
0.0
 11
705.8730609373185
 21
643.1505815320363
 31
0.0
  0
LINE
  5
26B
330
1F
100
AcDbEntity
  8
0-0
  6
JWW_DASHED1
 62
   120
370
     5
100
AcDbLine
 10
132.8730609373179
 20
644.1505815319365
 30
0.0
 11
705.8730609373185
 21
644.1505815319365
 31
0.0
  0
LINE
  5
26C
330
1F
100
AcDbEntity
  8
0-0
  6
JWW_DASHED1
 62
   120
370
     5
100
AcDbLine
 10
132.8730609373179
 20
657.1505815330362
 30
0.0
 11
705.8730609373185
 21
657.1505815330362
 31
0.0
  0
LINE
  5
26D
330
1F
100
AcDbEntity
  8
0-0
  6
JWW_DASHED1
 62
   120
370
     5
100
AcDbLine
 10
132.8730609373179
 20
658.1505815329364
 30
0.0
 11
705.8730609373185
 21
658.1505815329364
 31
0.0
  0
LINE
  5
26E
330
1F
100
AcDbEntity
  8
0-0
  6
JWW_DASHED1
 62
   120
370
     5
100
AcDbLine
 10
220.2919026992816
 20
671.150581534036
 30
0.0
 11
618.4542191753543
 21
671.150581534036
 31
0.0
  0
LINE
  5
26F
330
1F
100
AcDbEntity
  8
0-0
  6
JWW_DASHED1
 62
   120
370
     5
100
AcDbLine
 10
223.8861325706415
 20
672.1505815339361
 30
0.0
 11
614.8599893039944
 21
672.1505815339361
 31
0.0
  0
LINE
  5
270
330
1F
100
AcDbEntity
  8
0-0
  6
JWW_DASHED1
 62
   120
370
     5
100
AcDbLine
 10
254.9982100388974
 20
685.1505815350357
 30
0.0
 11
583.7479118357386
 21
685.1505815350357
 31
0.0
  0
LINE
  5
271
330
1F
100
AcDbEntity
  8
0-0
  6
JWW_DASHED1
 62
   120
370
     5
100
AcDbLine
 10
256.8920100285635
 20
686.1505815349359
 30
0.0
 11
581.8541118460724
 21
686.1505815349359
 31
0.0
  0
LINE
  5
272
330
1F
100
AcDbEntity
  8
0-0
  6
JWW_DASHED1
 62
   120
370
     5
100
AcDbLine
 10
284.5728541208827
 20
699.1505815360356
 30
0.0
 11
554.1732677537528
 21
699.1505815360356
 31
0.0
  0
LINE
  5
273
330
1F
100
AcDbEntity
  8
0-0
  6
JWW_DASHED1
 62
   120
370
     5
100
AcDbLine
 10
286.9944521884589
 20
700.1505815359358
 30
0.0
 11
551.7516696861766
 21
700.1505815359358
 31
0.0
  0
LINE
  5
274
330
1F
100
AcDbEntity
  8
0-0
  6
JWW_DASHED1
 62
   120
370
     5
100
AcDbLine
 10
324.8685641788269
 20
713.1505815370354
 30
0.0
 11
513.8775576958086
 21
713.1505815370354
 31
0.0
  0
LINE
  5
275
330
1F
100
AcDbEntity
  8
0-0
  6
JWW_DASHED1
 62
   120
370
     5
100
AcDbLine
 10
328.5099760011998
 20
714.1505815369355
 30
0.0
 11
510.2361458734357
 21
714.1505815369355
 31
0.0
  0
LINE
  5
276
330
1F
100
AcDbEntity
  8
0-0
  6
JWW_DASHED1
 62
   120
370
     5
100
AcDbLine
 10
699.87307943525
 20
-448.8492702321035
 30
0.0
 11
699.87307943525
 21
666.150462223588
 31
0.0
  0
LINE
  5
277
330
1F
100
AcDbEntity
  8
0-0
  6
JWW_DASHED1
 62
   120
370
     5
100
AcDbLine
 10
698.8730794353498
 20
-448.8492702321035
 30
0.0
 11
698.8730794353498
 21
666.150462223588
 31
0.0
  0
LINE
  5
278
330
1F
100
AcDbEntity
  8
0-0
  6
JWW_DASHED1
 62
   120
370
     5
100
AcDbLine
 10
685.8730794342498
 20
-448.8492702321035
 30
0.0
 11
685.8730794342498
 21
666.150462223588
 31
0.0
  0
LINE
  5
279
330
1F
100
AcDbEntity
  8
0-0
  6
JWW_DASHED1
 62
   120
370
     5
100
AcDbLine
 10
684.87307943435
 20
-448.8492702321035
 30
0.0
 11
684.87307943435
 21
666.150462223588
 31
0.0
  0
LINE
  5
27A
330
1F
100
AcDbEntity
  8
0-0
  6
JWW_DASHED1
 62
   120
370
     5
100
AcDbLine
 10
671.8730794332499
 20
-448.8492702321035
 30
0.0
 11
671.8730794332499
 21
666.150462223588
 31
0.0
  0
LINE
  5
27B
330
1F
100
AcDbEntity
  8
0-0
  6
JWW_DASHED1
 62
   120
370
     5
100
AcDbLine
 10
670.8730794333497
 20
-448.8492702321035
 30
0.0
 11
670.8730794333502
 21
666.150462223588
 31
0.0
  0
LINE
  5
27C
330
1F
100
AcDbEntity
  8
0-0
  6
JWW_DASHED1
 62
   120
370
     5
100
AcDbLine
 10
657.8730794322497
 20
-448.8492702321035
 30
0.0
 11
657.8730794322502
 21
666.150462223588
 31
0.0
  0
LINE
  5
27D
330
1F
100
AcDbEntity
  8
0-0
  6
JWW_DASHED1
 62
   120
370
     5
100
AcDbLine
 10
656.87307943235
 20
-448.8492702321035
 30
0.0
 11
656.87307943235
 21
666.150462223588
 31
0.0
  0
LINE
  5
27E
330
1F
100
AcDbEntity
  8
0-0
  6
JWW_DASHED1
 62
   120
370
     5
100
AcDbLine
 10
643.87307943125
 20
-448.8492702321035
 30
0.0
 11
643.87307943125
 21
666.7137547288003
 31
0.0
  0
LINE
  5
27F
330
1F
100
AcDbEntity
  8
0-0
  6
JWW_DASHED1
 62
   120
370
     5
100
AcDbLine
 10
642.8730794313498
 20
-448.8492702321035
 30
0.0
 11
642.8730794313498
 21
666.8040363908331
 31
0.0
  0
LINE
  5
280
330
1F
100
AcDbEntity
  8
0-0
  6
JWW_DASHED1
 62
   120
370
     5
100
AcDbLine
 10
629.8730794302497
 20
-448.8492702321035
 30
0.0
 11
629.8730794302497
 21
668.5981507653669
 31
0.0
  0
LINE
  5
281
330
1F
100
AcDbEntity
  8
0-0
  6
JWW_DASHED1
 62
   120
370
     5
100
AcDbLine
 10
628.87307943035
 20
-448.8492702321035
 30
0.0
 11
628.87307943035
 21
668.7845571478028
 31
0.0
  0
LINE
  5
282
330
1F
100
AcDbEntity
  8
0-0
  6
JWW_DASHED1
 62
   120
370
     5
100
AcDbLine
 10
615.87307942925
 20
-448.8492702321035
 30
0.0
 11
615.87307942925
 21
671.8589528185585
 31
0.0
  0
LINE
  5
283
330
1F
100
AcDbEntity
  8
0-0
  6
JWW_DASHED1
 62
   120
370
     5
100
AcDbLine
 10
614.8730794293498
 20
-448.8492702321035
 30
0.0
 11
614.8730794293501
 21
672.1467641859381
 31
0.0
  0
LINE
  5
284
330
1F
100
AcDbEntity
  8
0-0
  6
JWW_DASHED1
 62
   120
370
     5
100
AcDbLine
 10
601.8730794282498
 20
-448.8492702321035
 30
0.0
 11
601.8730794282501
 21
676.5926077114018
 31
0.0
  0
LINE
  5
285
330
1F
100
AcDbEntity
  8
0-0
  6
JWW_DASHED1
 62
   120
370
     5
100
AcDbLine
 10
600.8730794283499
 20
-448.8492702321035
 30
0.0
 11
600.8730794283499
 21
676.9907693589194
 31
0.0
  0
LINE
  5
286
330
1F
100
AcDbEntity
  8
0-0
  6
JWW_DASHED1
 62
   120
370
     5
100
AcDbLine
 10
587.8730794272499
 20
-448.8492702321035
 30
0.0
 11
587.8730794272499
 21
682.956056088562
 31
0.0
  0
LINE
  5
287
330
1F
100
AcDbEntity
  8
0-0
  6
JWW_DASHED1
 62
   120
370
     5
100
AcDbLine
 10
586.8730794273497
 20
-448.8492702321035
 30
0.0
 11
586.8730794273497
 21
683.4787802873616
 31
0.0
  0
LINE
  5
288
330
1F
100
AcDbEntity
  8
0-0
  6
JWW_DASHED1
 62
   120
370
     5
100
AcDbLine
 10
573.8730794262501
 20
-448.8492702321035
 30
0.0
 11
573.8730794262501
 21
690.204458112121
 31
0.0
  0
LINE
  5
289
330
1F
100
AcDbEntity
  8
0-0
  6
JWW_DASHED1
 62
   120
370
     5
100
AcDbLine
 10
572.8730794263499
 20
-448.8492702321035
 30
0.0
 11
572.8730794263499
 21
690.6944378974277
 31
0.0
  0
LINE
  5
28A
330
1F
100
AcDbEntity
  8
0-0
  6
JWW_DASHED1
 62
   120
370
     5
100
AcDbLine
 10
559.8730794252504
 20
-448.8492702321035
 30
0.0
 11
559.8730794252504
 21
696.7123382067531
 31
0.0
  0
LINE
  5
28B
330
1F
100
AcDbEntity
  8
0-0
  6
JWW_DASHED1
 62
   120
370
     5
100
AcDbLine
 10
558.8730794253502
 20
-448.8492702321035
 30
0.0
 11
558.8730794253502
 21
697.1487746869299
 31
0.0
  0
LINE
  5
28C
330
1F
100
AcDbEntity
  8
0-0
  6
JWW_DASHED1
 62
   120
370
     5
100
AcDbLine
 10
545.8730794242501
 20
-448.8492702321035
 30
0.0
 11
545.8730794242501
 21
702.4906527359873
 31
0.0
  0
LINE
  5
28D
330
1F
100
AcDbEntity
  8
0-0
  6
JWW_DASHED1
 62
   120
370
     5
100
AcDbLine
 10
544.87307942435
 20
-448.8492702321035
 30
0.0
 11
544.87307942435
 21
702.8765251372625
 31
0.0
  0
LINE
  5
28E
330
1F
100
AcDbEntity
  8
0-0
  6
JWW_DASHED1
 62
   120
370
     5
100
AcDbLine
 10
531.8730794232499
 20
-448.8492702321035
 30
0.0
 11
531.8730794232499
 21
707.5775630820591
 31
0.0
  0
LINE
  5
28F
330
1F
100
AcDbEntity
  8
0-0
  6
JWW_DASHED1
 62
   120
370
     5
100
AcDbLine
 10
530.8730794233497
 20
-448.8492702321035
 30
0.0
 11
530.8730794233497
 21
707.915323836669
 31
0.0
  0
LINE
  5
290
330
1F
100
AcDbEntity
  8
0-0
  6
JWW_DASHED1
 62
   120
370
     5
100
AcDbLine
 10
517.8730794222502
 20
-448.8492702321035
 30
0.0
 11
517.8730794222502
 21
712.0044871660776
 31
0.0
  0
LINE
  5
291
330
1F
100
AcDbEntity
  8
0-0
  6
JWW_DASHED1
 62
   120
370
     5
100
AcDbLine
 10
516.87307942235
 20
-448.8492702321035
 30
0.0
 11
516.87307942235
 21
712.2961542428039
 31
0.0
  0
LINE
  5
292
330
1F
100
AcDbEntity
  8
0-0
  6
JWW_DASHED1
 62
   120
370
     5
100
AcDbLine
 10
503.8730794212503
 20
-448.8492702321035
 30
0.0
 11
503.8730794212503
 21
715.7972325854554
 31
0.0
  0
LINE
  5
293
330
1F
100
AcDbEntity
  8
0-0
  6
JWW_DASHED1
 62
   120
370
     5
100
AcDbLine
 10
502.8730794213502
 20
-448.8492702321035
 30
0.0
 11
502.8730794213502
 21
716.0444586202449
 31
0.0
  0
LINE
  5
294
330
1F
100
AcDbEntity
  8
0-0
  6
JWW_DASHED1
 62
   120
370
     5
100
AcDbLine
 10
489.8730794202501
 20
-448.8492702321035
 30
0.0
 11
489.8730794202501
 21
718.9768480755721
 31
0.0
  0
LINE
  5
295
330
1F
100
AcDbEntity
  8
0-0
  6
JWW_DASHED1
 62
   120
370
     5
100
AcDbLine
 10
488.8730794203499
 20
-448.8492702321035
 30
0.0
 11
488.8730794203499
 21
719.1809725029362
 31
0.0
  0
LINE
  5
296
330
1F
100
AcDbEntity
  8
0-0
  6
JWW_DASHED1
 62
   120
370
     5
100
AcDbLine
 10
475.8730794192499
 20
-448.8492702321035
 30
0.0
 11
475.8730794192499
 21
721.5602662771654
 31
0.0
  0
LINE
  5
297
330
1F
100
AcDbEntity
  8
0-0
  6
JWW_DASHED1
 62
   120
370
     5
100
AcDbLine
 10
474.8730794193497
 20
-448.8492702321035
 30
0.0
 11
474.8730794193497
 21
721.7223546859442
 31
0.0
  0
LINE
  5
298
330
1F
100
AcDbEntity
  8
0-0
  6
JWW_DASHED1
 62
   120
370
     5
100
AcDbLine
 10
461.8730794182501
 20
-448.8492702321035
 30
0.0
 11
461.8730794182501
 21
723.5607878104476
 31
0.0
  0
LINE
  5
299
330
1F
100
AcDbEntity
  8
0-0
  6
JWW_DASHED1
 62
   120
370
     5
100
AcDbLine
 10
460.8730794183499
 20
-448.8492702321035
 30
0.0
 11
460.8730794183499
 21
723.6816614359396
 31
0.0
  0
LINE
  5
29A
330
1F
100
AcDbEntity
  8
0-0
  6
JWW_DASHED1
 62
   120
370
     5
100
AcDbLine
 10
447.8730794172503
 20
-448.8492702321035
 30
0.0
 11
447.8730794172503
 21
724.9884412422126
 31
0.0
  0
LINE
  5
29B
330
1F
100
AcDbEntity
  8
0-0
  6
JWW_DASHED1
 62
   120
370
     5
100
AcDbLine
 10
446.8730794173501
 20
-448.8492702321035
 30
0.0
 11
446.8730794173501
 21
725.068698613859
 31
0.0
  0
LINE
  5
29C
330
1F
100
AcDbEntity
  8
0-0
  6
JWW_DASHED1
 62
   120
370
     5
100
AcDbLine
 10
433.8730794162501
 20
-448.8492702321035
 30
0.0
 11
433.8730794162501
 21
725.8502428703742
 31
0.0
  0
LINE
  5
29D
330
1F
100
AcDbEntity
  8
0-0
  6
JWW_DASHED1
 62
   120
370
     5
100
AcDbLine
 10
432.8730794163499
 20
-448.8492702321035
 30
0.0
 11
432.8730794163499
 21
725.8902750027029
 31
0.0
  0
LINE
  5
29E
330
1F
100
AcDbEntity
  8
0-0
  6
JWW_DASHED1
 62
   120
370
     5
100
AcDbLine
 10
419.8730794152499
 20
-448.8492702321035
 30
0.0
 11
419.8730794152499
 21
726.1503725984495
 31
0.0
  0
LINE
  5
29F
330
1F
100
AcDbEntity
  8
0-0
  6
JWW_DASHED1
 62
   120
370
     5
100
AcDbLine
 10
418.8730794153497
 20
-448.8492702321035
 30
0.0
 11
418.8730794153497
 21
726.150372651273
 31
0.0
  0
LINE
  5
2A0
330
1F
100
AcDbEntity
  8
0-0
  6
JWW_DASHED1
 62
   120
370
     5
100
AcDbLine
 10
405.8730794142501
 20
-448.8492702321035
 30
0.0
 11
405.8730794142501
 21
725.8902764292089
 31
0.0
  0
LINE
  5
2A1
330
1F
100
AcDbEntity
  8
0-0
  6
JWW_DASHED1
 62
   120
370
     5
100
AcDbLine
 10
404.8730794143499
 20
-448.8492702321035
 30
0.0
 11
404.8730794143499
 21
725.8502444027455
 31
0.0
  0
LINE
  5
2A2
330
1F
100
AcDbEntity
  8
0-0
  6
JWW_DASHED1
 62
   120
370
     5
100
AcDbLine
 10
391.8730794132503
 20
-448.8492702321035
 30
0.0
 11
391.8730794132503
 21
725.0687015265704
 31
0.0
  0
LINE
  5
2A3
330
1F
100
AcDbEntity
  8
0-0
  6
JWW_DASHED1
 62
   120
370
     5
100
AcDbLine
 10
390.8730794133501
 20
-448.8492702321035
 30
0.0
 11
390.8730794133501
 21
724.9884442614986
 31
0.0
  0
LINE
  5
2A4
330
1F
100
AcDbEntity
  8
0-0
  6
JWW_DASHED1
 62
   120
370
     5
100
AcDbLine
 10
377.8730794122501
 20
-448.8492702321035
 30
0.0
 11
377.8730794122501
 21
723.6816658489898
 31
0.0
  0
LINE
  5
2A5
330
1F
100
AcDbEntity
  8
0-0
  6
JWW_DASHED1
 62
   120
370
     5
100
AcDbLine
 10
376.8730794123499
 20
-448.8492702321035
 30
0.0
 11
376.8730794123499
 21
723.560792331382
 31
0.0
  0
LINE
  5
2A6
330
1F
100
AcDbEntity
  8
0-0
  6
JWW_DASHED1
 62
   120
370
     5
100
AcDbLine
 10
363.8730794112499
 20
-448.8492702321035
 30
0.0
 11
363.8730794112499
 21
721.7223606212157
 31
0.0
  0
LINE
  5
2A7
330
1F
100
AcDbEntity
  8
0-0
  6
JWW_DASHED1
 62
   120
370
     5
100
AcDbLine
 10
362.8730794113497
 20
-448.8492702321035
 30
0.0
 11
362.8730794113497
 21
721.5602723221765
 31
0.0
  0
LINE
  5
2A8
330
1F
100
AcDbEntity
  8
0-0
  6
JWW_DASHED1
 62
   120
370
     5
100
AcDbLine
 10
349.8730794102501
 20
-448.8492702321035
 30
0.0
 11
349.8730794102501
 21
719.1809799904423
 31
0.0
  0
LINE
  5
2A9
330
1F
100
AcDbEntity
  8
0-0
  6
JWW_DASHED1
 62
   120
370
     5
100
AcDbLine
 10
348.8730794103499
 20
-448.8492702321035
 30
0.0
 11
348.8730794103499
 21
718.976855675328
 31
0.0
  0
LINE
  5
2AA
330
1F
100
AcDbEntity
  8
0-0
  6
JWW_DASHED1
 62
   120
370
     5
100
AcDbLine
 10
335.8730794092498
 20
-448.8492702321035
 30
0.0
 11
335.8730794092498
 21
716.0444676990575
 31
0.0
  0
LINE
  5
2AB
330
1F
100
AcDbEntity
  8
0-0
  6
JWW_DASHED1
 62
   120
370
     5
100
AcDbLine
 10
334.8730794093497
 20
-448.8492702321035
 30
0.0
 11
334.8730794093497
 21
715.7972417796828
 31
0.0
  0
LINE
  5
2AC
330
1F
100
AcDbEntity
  8
0-0
  6
JWW_DASHED1
 62
   120
370
     5
100
AcDbLine
 10
321.8730794082501
 20
-448.8492702321035
 30
0.0
 11
321.8730794082501
 21
712.2961649619812
 31
0.0
  0
LINE
  5
2AD
330
1F
100
AcDbEntity
  8
0-0
  6
JWW_DASHED1
 62
   120
370
     5
100
AcDbLine
 10
320.8730794083499
 20
-448.8492702321035
 30
0.0
 11
320.8730794083499
 21
712.0044980045988
 31
0.0
  0
LINE
  5
2AE
330
1F
100
AcDbEntity
  8
0-0
  6
JWW_DASHED1
 62
   120
370
     5
100
AcDbLine
 10
307.8730794072499
 20
-448.8492702321035
 30
0.0
 11
307.8730794072499
 21
707.9153362568924
 31
0.0
  0
LINE
  5
2AF
330
1F
100
AcDbEntity
  8
0-0
  6
JWW_DASHED1
 62
   120
370
     5
100
AcDbLine
 10
306.8730794073497
 20
-448.8492702321035
 30
0.0
 11
306.8730794073497
 21
707.577575626483
 31
0.0
  0
LINE
  5
2B0
330
1F
100
AcDbEntity
  8
0-0
  6
JWW_DASHED1
 62
   120
370
     5
100
AcDbLine
 10
293.8730794062501
 20
-448.8492702321035
 30
0.0
 11
293.8730794062501
 21
702.8765393325831
 31
0.0
  0
LINE
  5
2B1
330
1F
100
AcDbEntity
  8
0-0
  6
JWW_DASHED1
 62
   120
370
     5
100
AcDbLine
 10
292.8730794063499
 20
-448.8492702321035
 30
0.0
 11
292.8730794063499
 21
702.4906670612928
 31
0.0
  0
LINE
  5
2B2
330
1F
100
AcDbEntity
  8
0-0
  6
JWW_DASHED1
 62
   120
370
     5
100
AcDbLine
 10
279.8730794052499
 20
-448.8492702321035
 30
0.0
 11
279.8730794052499
 21
697.148790747333
 31
0.0
  0
LINE
  5
2B3
330
1F
100
AcDbEntity
  8
0-0
  6
JWW_DASHED1
 62
   120
370
     5
100
AcDbLine
 10
278.8730794053497
 20
-448.8492702321035
 30
0.0
 11
278.8730794053497
 21
696.7123544042898
 31
0.0
  0
LINE
  5
2B4
330
1F
100
AcDbEntity
  8
0-0
  6
JWW_DASHED1
 62
   120
370
     5
100
AcDbLine
 10
265.8730794042501
 20
-448.8492702321035
 30
0.0
 11
265.8730794042501
 21
690.6944559322166
 31
0.0
  0
LINE
  5
2B5
330
1F
100
AcDbEntity
  8
0-0
  6
JWW_DASHED1
 62
   120
370
     5
100
AcDbLine
 10
264.8730794043499
 20
-448.8492702321035
 30
0.0
 11
264.8730794043499
 21
690.2044762927745
 31
0.0
  0
LINE
  5
2B6
330
1F
100
AcDbEntity
  8
0-0
  6
JWW_DASHED1
 62
   120
370
     5
100
AcDbLine
 10
251.8730794032498
 20
-448.8492702321035
 30
0.0
 11
251.8730794032498
 21
683.4787997824351
 31
0.0
  0
LINE
  5
2B7
330
1F
100
AcDbEntity
  8
0-0
  6
JWW_DASHED1
 62
   120
370
     5
100
AcDbLine
 10
250.8730794033497
 20
-448.8492702321035
 30
0.0
 11
250.8730794033497
 21
682.9560752297511
 31
0.0
  0
LINE
  5
2B8
330
1F
100
AcDbEntity
  8
0-0
  6
JWW_DASHED1
 62
   120
370
     5
100
AcDbLine
 10
237.8730794022505
 20
-448.8492702321035
 30
0.0
 11
237.8730794022505
 21
676.9907842272478
 31
0.0
  0
LINE
  5
2B9
330
1F
100
AcDbEntity
  8
0-0
  6
JWW_DASHED1
 62
   120
370
     5
100
AcDbLine
 10
236.8730794023503
 20
-448.8492702321035
 30
0.0
 11
236.8730794023503
 21
676.5926222724484
 31
0.0
  0
LINE
  5
2BA
330
1F
100
AcDbEntity
  8
0-0
  6
JWW_DASHED1
 62
   120
370
     5
100
AcDbLine
 10
223.8730794012503
 20
-448.8492702321035
 30
0.0
 11
223.8730794012503
 21
672.1467749612129
 31
0.0
  0
LINE
  5
2BB
330
1F
100
AcDbEntity
  8
0-0
  6
JWW_DASHED1
 62
   120
370
     5
100
AcDbLine
 10
222.8730794013501
 20
-448.8492702321035
 30
0.0
 11
222.8730794013501
 21
671.8589633162374
 31
0.0
  0
LINE
  5
2BC
330
1F
100
AcDbEntity
  8
0-0
  6
JWW_DASHED1
 62
   120
370
     5
100
AcDbLine
 10
209.87307940025
 20
-448.8492702321035
 30
0.0
 11
209.87307940025
 21
668.7845641663916
 31
0.0
  0
LINE
  5
2BD
330
1F
100
AcDbEntity
  8
0-0
  6
JWW_DASHED1
 62
   120
370
     5
100
AcDbLine
 10
208.8730794003499
 20
-448.8492702321035
 30
0.0
 11
208.8730794003499
 21
668.5981575246406
 31
0.0
  0
LINE
  5
2BE
330
1F
100
AcDbEntity
  8
0-0
  6
JWW_DASHED1
 62
   120
370
     5
100
AcDbLine
 10
195.8730793992498
 20
-448.8492702321035
 30
0.0
 11
195.8730793992498
 21
666.8040398520243
 31
0.0
  0
LINE
  5
2BF
330
1F
100
AcDbEntity
  8
0-0
  6
JWW_DASHED1
 62
   120
370
     5
100
AcDbLine
 10
194.8730793993496
 20
-448.8492702321035
 30
0.0
 11
194.8730793993496
 21
666.7137579405535
 31
0.0
  0
LINE
  5
2C0
330
1F
100
AcDbEntity
  8
0-0
  6
JWW_DASHED1
 62
   120
370
     5
100
AcDbLine
 10
181.8730793982496
 20
-448.8492702321035
 30
0.0
 11
181.8730793982496
 21
666.150462223588
 31
0.0
  0
LINE
  5
2C1
330
1F
100
AcDbEntity
  8
0-0
  6
JWW_DASHED1
 62
   120
370
     5
100
AcDbLine
 10
180.8730793983494
 20
-448.8492702321035
 30
0.0
 11
180.8730793983494
 21
666.150462223588
 31
0.0
  0
LINE
  5
2C2
330
1F
100
AcDbEntity
  8
0-0
  6
JWW_DASHED1
 62
   120
370
     5
100
AcDbLine
 10
167.8730793972503
 20
-448.8492702321035
 30
0.0
 11
167.8730793972503
 21
666.150462223588
 31
0.0
  0
LINE
  5
2C3
330
1F
100
AcDbEntity
  8
0-0
  6
JWW_DASHED1
 62
   120
370
     5
100
AcDbLine
 10
166.8730793973501
 20
-448.8492702321035
 30
0.0
 11
166.8730793973501
 21
666.150462223588
 31
0.0
  0
LINE
  5
2C4
330
1F
100
AcDbEntity
  8
0-0
  6
JWW_DASHED1
 62
   120
370
     5
100
AcDbLine
 10
153.87307939625
 20
-448.8492702321035
 30
0.0
 11
153.87307939625
 21
666.150462223588
 31
0.0
  0
LINE
  5
2C5
330
1F
100
AcDbEntity
  8
0-0
  6
JWW_DASHED1
 62
   120
370
     5
100
AcDbLine
 10
152.8730793963499
 20
-448.8492702321035
 30
0.0
 11
152.8730793963499
 21
666.150462223588
 31
0.0
  0
LINE
  5
2C6
330
1F
100
AcDbEntity
  8
0-0
  6
JWW_DASHED1
 62
   120
370
     5
100
AcDbLine
 10
139.8730793952498
 20
-448.8492702321035
 30
0.0
 11
139.8730793952498
 21
666.150462223588
 31
0.0
  0
LINE
  5
2C7
330
1F
100
AcDbEntity
  8
0-0
  6
JWW_DASHED1
 62
   120
370
     5
100
AcDbLine
 10
138.8730793953496
 20
-448.8492702321035
 30
0.0
 11
138.8730793953496
 21
666.150462223588
 31
0.0
  0
ENDSEC
  0
SECTION
  2
OBJECTS
  0
DICTIONARY
  5
C
330
0
100
AcDbDictionary
281
     1
  3
ACAD_GROUP
350
D
  3
ACAD_LAYOUT
350
1A
  3
ACAD_MATERIAL
350
3B
  3
ACAD_MLEADERSTYLE
350
2C9
  3
ACAD_MLINESTYLE
350
17
  3
ACAD_PLOTSETTINGS
350
19
  3
ACAD_PLOTSTYLENAME
350
E
  3
ACAD_TABLESTYLE
350
2C8
  3
ACAD_VISUALSTYLE
350
2A
  0
DICTIONARY
  5
D
102
{ACAD_REACTORS
330
C
102
}
330
C
100
AcDbDictionary
281
     1
  0
DICTIONARY
  5
1A
102
{ACAD_REACTORS
330
C
102
}
330
C
100
AcDbDictionary
281
     1
  3
Layout1
350
1E
  3
Layout2
350
26
  3
Model
350
22
  0
DICTIONARY
  5
3B
102
{ACAD_REACTORS
330
C
102
}
330
C
100
AcDbDictionary
281
     1
  3
ByBlock
350
3D
  3
ByLayer
350
3C
  3
Global
350
3E
  0
DICTIONARY
  5
2C9
102
{ACAD_REACTORS
330
C
102
}
330
C
100
AcDbDictionary
281
     1
  0
DICTIONARY
  5
17
102
{ACAD_REACTORS
330
C
102
}
330
C
100
AcDbDictionary
281
     1
  3
Standard
350
18
  0
DICTIONARY
  5
19
102
{ACAD_REACTORS
330
C
102
}
330
C
100
AcDbDictionary
281
     1
  0
ACDBDICTIONARYWDFLT
  5
E
102
{ACAD_REACTORS
330
C
102
}
330
C
100
AcDbDictionary
281
     1
  3
Normal
350
F
100
AcDbDictionaryWithDefault
340
F
  0
DICTIONARY
  5
2C8
102
{ACAD_REACTORS
330
C
102
}
330
C
100
AcDbDictionary
281
     1
  0
DICTIONARY
  5
2A
102
{ACAD_REACTORS
330
C
102
}
330
C
100
AcDbDictionary
281
     1
  3
2dWireframe
350
2F
  3
3D Hidden
350
31
  3
3dWireframe
350
30
  3
Basic
350
32
  3
Brighten
350
36
  3
ColorChange
350
3A
  3
Conceptual
350
34
  3
Dim
350
35
  3
Facepattern
350
39
  3
Flat
350
2B
  3
FlatWithEdges
350
2C
  3
Gouraud
350
2D
  3
GouraudWithEdges
350
2E
  3
Linepattern
350
38
  3
Realistic
350
33
  3
Thicken
350
37
  0
LAYOUT
  5
1E
102
{ACAD_REACTORS
330
1A
102
}
330
1A
100
AcDbPlotSettings
  1

  2
none_device
  4

  6

 40
0.0
 41
0.0
 42
0.0
 43
0.0
 44
0.0
 45
0.0
 46
0.0
 47
0.0
 48
0.0
 49
0.0
140
0.0
141
0.0
142
1.0
143
1.0
 70
   688
 72
     0
 73
     0
 74
     5
  7

 75
    16
 76
     0
 77
     5
 78
   300
147
1.0
148
0.0
149
0.0
100
AcDbLayout
  1
Layout1
 70
     1
 71
     1
 10
0.0
 20
0.0
 11
420.0
 21
297.0
 12
0.0
 22
0.0
 32
0.0
 14
1.000000000000000E+20
 24
1.000000000000000E+20
 34
1.000000000000000E+20
 15
-1.000000000000000E+20
 25
-1.000000000000000E+20
 35
-1.000000000000000E+20
146
0.0
 13
0.0
 23
0.0
 33
0.0
 16
1.0
 26
0.0
 36
0.0
 17
0.0
 27
1.0
 37
0.0
 76
     0
330
1B
  0
LAYOUT
  5
26
102
{ACAD_REACTORS
330
1A
102
}
330
1A
100
AcDbPlotSettings
  1

  2
none_device
  4

  6

 40
0.0
 41
0.0
 42
0.0
 43
0.0
 44
0.0
 45
0.0
 46
0.0
 47
0.0
 48
0.0
 49
0.0
140
0.0
141
0.0
142
1.0
143
1.0
 70
   688
 72
     0
 73
     0
 74
     5
  7

 75
    16
 76
     0
 77
     5
 78
   300
147
1.0
148
0.0
149
0.0
100
AcDbLayout
  1
Layout2
 70
     1
 71
     2
 10
0.0
 20
0.0
 11
0.0
 21
0.0
 12
0.0
 22
0.0
 32
0.0
 14
0.0
 24
0.0
 34
0.0
 15
0.0
 25
0.0
 35
0.0
146
0.0
 13
0.0
 23
0.0
 33
0.0
 16
1.0
 26
0.0
 36
0.0
 17
0.0
 27
1.0
 37
0.0
 76
     0
330
23
  0
LAYOUT
  5
22
102
{ACAD_REACTORS
330
1A
102
}
330
1A
100
AcDbPlotSettings
  1

  2
none_device
  4

  6

 40
0.0
 41
0.0
 42
0.0
 43
0.0
 44
0.0
 45
0.0
 46
0.0
 47
0.0
 48
0.0
 49
0.0
140
0.0
141
0.0
142
1.0
143
1.0
 70
  1712
 72
     0
 73
     0
 74
     0
  7

 75
     0
 76
     0
 77
     5
 78
   300
147
1.0
148
0.0
149
0.0
100
AcDbLayout
  1
Model
 70
     1
 71
     0
 10
-4455.0
 20
-3150.0
 11
4455.0
 21
3150.0
 12
0.0
 22
0.0
 32
0.0
 14
-4455.0
 24
-3150.0
 34
0.0
 15
4455.0
 25
3150.0
 35
0.0
146
0.0
 13
0.0
 23
0.0
 33
0.0
 16
1.0
 26
0.0
 36
0.0
 17
0.0
 27
1.0
 37
0.0
 76
     0
330
1F
331
29
  0
MATERIAL
  5
3D
102
{ACAD_REACTORS
330
3B
102
}
330
3B
100
AcDbMaterial
  1
ByBlock
 72
     1
 94
      127
  0
MATERIAL
  5
3C
102
{ACAD_REACTORS
330
3B
102
}
330
3B
100
AcDbMaterial
  1
ByLayer
 72
     1
 94
      127
  0
MATERIAL
  5
3E
102
{ACAD_REACTORS
330
3B
102
}
330
3B
100
AcDbMaterial
  1
Global
 72
     1
 94
      127
  0
MLINESTYLE
  5
18
102
{ACAD_REACTORS
330
17
102
}
330
17
100
AcDbMlineStyle
  2
Standard
 70
     0
  3

 62
   256
 51
90.0
 52
90.0
 71
     2
 49
0.5
 62
   256
  6
BYLAYER
 49
-0.5
 62
   256
  6
BYLAYER
  0
ACDBPLACEHOLDER
  5
F
102
{ACAD_REACTORS
330
E
102
}
330
E
  0
VISUALSTYLE
  5
2F
102
{ACAD_REACTORS
330
2A
102
}
330
2A
100
AcDbVisualStyle
  2
2dWireframe
 70
     4
177
     2
291
     0
 71
     0
176
     1
 72
     2
176
     1
 73
     0
176
     1
 90
        0
176
     1
 40
-0.6
176
     1
 41
-30.0
176
     1
 62
     5
 63
     7
421
 16777215
176
     1
 74
     1
176
     1
 91
        4
176
     1
 64
     7
176
     1
 65
   257
176
     1
 75
     1
176
     1
175
     1
176
     1
 42
1.0
176
     1
 92
        0
176
     1
 66
   257
176
     1
 43
1.0
176
     1
 76
     1
176
     1
 77
     6
176
     1
 78
     2
176
     1
 67
     7
176
     1
 79
     5
176
     1
170
     0
176
     1
171
     0
176
     1
290
     0
176
     1
 93
        1
176
     1
 44
0.0
176
     1
173
     0
176
     1
  0
VISUALSTYLE
  5
31
102
{ACAD_REACTORS
330
2A
102
}
330
2A
100
AcDbVisualStyle
  2
3D Hidden
 70
     6
177
     2
291
     0
 71
     1
176
     1
 72
     2
176
     1
 73
     2
176
     1
 90
        0
176
     1
 40
-0.6
176
     1
 41
-30.0
176
     1
 62
     5
 63
     7
421
 16777215
176
     1
 74
     2
176
     1
 91
        2
176
     1
 64
     7
176
     1
 65
   257
176
     1
 75
     2
176
     1
175
     1
176
     1
 42
40.0
176
     1
 92
        0
176
     1
 66
   257
176
     1
 43
1.0
176
     1
 76
     1
176
     1
 77
     6
176
     1
 78
     2
176
     1
 67
     7
176
     1
 79
     3
176
     1
170
     0
176
     1
171
     0
176
     1
290
     0
176
     1
 93
        1
176
     1
 44
0.0
176
     1
173
     0
176
     1
  0
VISUALSTYLE
  5
30
102
{ACAD_REACTORS
330
2A
102
}
330
2A
100
AcDbVisualStyle
  2
3dWireframe
 70
     5
177
     2
291
     0
 71
     0
176
     1
 72
     2
176
     1
 73
     0
176
     1
 90
        0
176
     1
 40
-0.6
176
     1
 41
-30.0
176
     1
 62
     5
 63
     7
421
 16777215
176
     1
 74
     1
176
     1
 91
        4
176
     1
 64
     7
176
     1
 65
   257
176
     1
 75
     1
176
     1
175
     1
176
     1
 42
1.0
176
     1
 92
        0
176
     1
 66
   257
176
     1
 43
1.0
176
     1
 76
     1
176
     1
 77
     6
176
     1
 78
     2
176
     1
 67
     7
176
     1
 79
     5
176
     1
170
     0
176
     1
171
     0
176
     1
290
     0
176
     1
 93
        1
176
     1
 44
0.0
176
     1
173
     0
176
     1
  0
VISUALSTYLE
  5
32
102
{ACAD_REACTORS
330
2A
102
}
330
2A
100
AcDbVisualStyle
  2
Basic
 70
     7
177
     2
291
     1
 71
     1
176
     1
 72
     0
176
     1
 73
     1
176
     1
 90
        0
176
     1
 40
-0.6
176
     1
 41
-30.0
176
     1
 62
     5
 63
     7
421
 16777215
176
     1
 74
     0
176
     1
 91
        4
176
     1
 64
     7
176
     1
 65
   257
176
     1
 75
     1
176
     1
175
     1
176
     1
 42
1.0
176
     1
 92
        8
176
     1
 66
     7
176
     1
 43
1.0
176
     1
 76
     1
176
     1
 77
     6
176
     1
 78
     2
176
     1
 67
     7
176
     1
 79
     5
176
     1
170
     0
176
     1
171
     0
176
     1
290
     0
176
     1
 93
        1
176
     1
 44
0.0
176
     1
173
     0
176
     1
  0
VISUALSTYLE
  5
36
102
{ACAD_REACTORS
330
2A
102
}
330
2A
100
AcDbVisualStyle
  2
Brighten
 70
    12
177
     2
291
     1
 71
     2
176
     1
 72
     2
176
     1
 73
     0
176
     1
 90
        0
176
     1
 40
-0.6
176
     1
 41
-30.0
176
     1
 62
     5
 63
     7
421
 16777215
176
     1
 74
     1
176
     1
 91
        4
176
     1
 64
     7
176
     1
 65
   257
176
     1
 75
     1
176
     1
175
     1
176
     1
 42
1.0
176
     1
 92
        8
176
     1
 66
     7
176
     1
 43
1.0
176
     1
 76
     1
176
     1
 77
     6
176
     1
 78
     2
176
     1
 67
     7
176
     1
 79
     5
176
     1
170
     0
176
     1
171
     0
176
     1
290
     0
176
     1
 93
        1
176
     1
 44
50.0
176
     1
173
     0
176
     1
  0
VISUALSTYLE
  5
3A
102
{ACAD_REACTORS
330
2A
102
}
330
2A
100
AcDbVisualStyle
  2
ColorChange
 70
    16
177
     2
291
     1
 71
     2
176
     1
 72
     2
176
     1
 73
     3
176
     1
 90
        0
176
     1
 40
-0.6
176
     1
 41
-30.0
176
     1
 62
     5
 63
     8
421
  8421504
176
     1
 74
     1
176
     1
 91
        4
176
     1
 64
     7
176
     1
 65
   257
176
     1
 75
     1
176
     1
175
     1
176
     1
 42
1.0
176
     1
 92
        8
176
     1
 66
     8
424
  8421504
176
     1
 43
1.0
176
     1
 76
     1
176
     1
 77
     6
176
     1
 78
     2
176
     1
 67
     7
176
     1
 79
     5
176
     1
170
     0
176
     1
171
     0
176
     1
290
     0
176
     1
 93
        1
176
     1
 44
0.0
176
     1
173
     0
176
     1
  0
VISUALSTYLE
  5
34
102
{ACAD_REACTORS
330
2A
102
}
330
2A
100
AcDbVisualStyle
  2
Conceptual
 70
     9
177
     2
291
     0
 71
     3
176
     1
 72
     2
176
     1
 73
     0
176
     1
 90
        0
176
     1
 40
-0.6
176
     1
 41
-30.0
176
     1
 62
     5
 63
     7
421
 16777215
176
     1
 74
     2
176
     1
 91
        2
176
     1
 64
     7
176
     1
 65
   257
176
     1
 75
     1
176
     1
175
     1
176
     1
 42
40.0
176
     1
 92
        8
176
     1
 66
     7
176
     1
 43
1.0
176
     1
 76
     1
176
     1
 77
     6
176
     1
 78
     2
176
     1
 67
     7
176
     1
 79
     3
176
     1
170
     0
176
     1
171
     0
176
     1
290
     0
176
     1
 93
        1
176
     1
 44
0.0
176
     1
173
     0
176
     1
  0
VISUALSTYLE
  5
35
102
{ACAD_REACTORS
330
2A
102
}
330
2A
100
AcDbVisualStyle
  2
Dim
 70
    11
177
     2
291
     1
 71
     2
176
     1
 72
     2
176
     1
 73
     0
176
     1
 90
        0
176
     1
 40
-0.6
176
     1
 41
-30.0
176
     1
 62
     5
 63
     7
421
 16777215
176
     1
 74
     1
176
     1
 91
        4
176
     1
 64
     7
176
     1
 65
   257
176
     1
 75
     1
176
     1
175
     1
176
     1
 42
1.0
176
     1
 92
        8
176
     1
 66
     7
176
     1
 43
1.0
176
     1
 76
     1
176
     1
 77
     6
176
     1
 78
     2
176
     1
 67
     7
176
     1
 79
     5
176
     1
170
     0
176
     1
171
     0
176
     1
290
     0
176
     1
 93
        1
176
     1
 44
-50.0
176
     1
173
     0
176
     1
  0
VISUALSTYLE
  5
39
102
{ACAD_REACTORS
330
2A
102
}
330
2A
100
AcDbVisualStyle
  2
Facepattern
 70
    15
177
     2
291
     1
 71
     2
176
     1
 72
     2
176
     1
 73
     0
176
     1
 90
        0
176
     1
 40
-0.6
176
     1
 41
-30.0
176
     1
 62
     5
 63
     7
421
 16777215
176
     1
 74
     1
176
     1
 91
        4
176
     1
 64
     7
176
     1
 65
   257
176
     1
 75
     1
176
     1
175
     1
176
     1
 42
1.0
176
     1
 92
        8
176
     1
 66
     7
176
     1
 43
1.0
176
     1
 76
     1
176
     1
 77
     6
176
     1
 78
     2
176
     1
 67
     7
176
     1
 79
     5
176
     1
170
     0
176
     1
171
     0
176
     1
290
     0
176
     1
 93
        1
176
     1
 44
0.0
176
     1
173
     0
176
     1
  0
VISUALSTYLE
  5
2B
102
{ACAD_REACTORS
330
2A
102
}
330
2A
100
AcDbVisualStyle
  2
Flat
 70
     0
177
     2
291
     1
 71
     2
176
     1
 72
     1
176
     1
 73
     1
176
     1
 90
        2
176
     1
 40
-0.6
176
     1
 41
30.0
176
     1
 62
     5
 63
     7
421
 16777215
176
     1
 74
     0
176
     1
 91
        4
176
     1
 64
     7
176
     1
 65
   257
176
     1
 75
     1
176
     1
175
     1
176
     1
 42
1.0
176
     1
 92
        8
176
     1
 66
     7
176
     1
 43
1.0
176
     1
 76
     1
176
     1
 77
     6
176
     1
 78
     2
176
     1
 67
     7
176
     1
 79
     5
176
     1
170
     0
176
     1
171
     0
176
     1
290
     0
176
     1
 93
       13
176
     1
 44
0.0
176
     1
173
     0
176
     1
  0
VISUALSTYLE
  5
2C
102
{ACAD_REACTORS
330
2A
102
}
330
2A
100
AcDbVisualStyle
  2
FlatWithEdges
 70
     1
177
     2
291
     1
 71
     2
176
     1
 72
     1
176
     1
 73
     1
176
     1
 90
        2
176
     1
 40
-0.6
176
     1
 41
30.0
176
     1
 62
     5
 63
     7
421
 16777215
176
     1
 74
     1
176
     1
 91
        4
176
     1
 64
     7
176
     1
 65
   257
176
     1
 75
     1
176
     1
175
     1
176
     1
 42
1.0
176
     1
 92
        0
176
     1
 66
   257
176
     1
 43
1.0
176
     1
 76
     1
176
     1
 77
     6
176
     1
 78
     2
176
     1
 67
     7
176
     1
 79
     5
176
     1
170
     0
176
     1
171
     0
176
     1
290
     0
176
     1
 93
       13
176
     1
 44
0.0
176
     1
173
     0
176
     1
  0
VISUALSTYLE
  5
2D
102
{ACAD_REACTORS
330
2A
102
}
330
2A
100
AcDbVisualStyle
  2
Gouraud
 70
     2
177
     2
291
     1
 71
     2
176
     1
 72
     2
176
     1
 73
     1
176
     1
 90
        2
176
     1
 40
-0.6
176
     1
 41
30.0
176
     1
 62
     5
 63
     7
421
 16777215
176
     1
 74
     0
176
     1
 91
        4
176
     1
 64
     7
176
     1
 65
   257
176
     1
 75
     1
176
     1
175
     1
176
     1
 42
1.0
176
     1
 92
        0
176
     1
 66
     7
176
     1
 43
1.0
176
     1
 76
     1
176
     1
 77
     6
176
     1
 78
     2
176
     1
 67
     7
176
     1
 79
     5
176
     1
170
     0
176
     1
171
     0
176
     1
290
     0
176
     1
 93
       13
176
     1
 44
0.0
176
     1
173
     0
176
     1
  0
VISUALSTYLE
  5
2E
102
{ACAD_REACTORS
330
2A
102
}
330
2A
100
AcDbVisualStyle
  2
GouraudWithEdges
 70
     3
177
     2
291
     1
 71
     2
176
     1
 72
     2
176
     1
 73
     1
176
     1
 90
        2
176
     1
 40
-0.6
176
     1
 41
30.0
176
     1
 62
     5
 63
     7
421
 16777215
176
     1
 74
     1
176
     1
 91
        4
176
     1
 64
     7
176
     1
 65
   257
176
     1
 75
     1
176
     1
175
     1
176
     1
 42
1.0
176
     1
 92
        0
176
     1
 66
   257
176
     1
 43
1.0
176
     1
 76
     1
176
     1
 77
     6
176
     1
 78
     2
176
     1
 67
     7
176
     1
 79
     5
176
     1
170
     0
176
     1
171
     0
176
     1
290
     0
176
     1
 93
       13
176
     1
 44
0.0
176
     1
173
     0
176
     1
  0
VISUALSTYLE
  5
38
102
{ACAD_REACTORS
330
2A
102
}
330
2A
100
AcDbVisualStyle
  2
Linepattern
 70
    14
177
     2
291
     1
 71
     2
176
     1
 72
     2
176
     1
 73
     0
176
     1
 90
        0
176
     1
 40
-0.6
176
     1
 41
-30.0
176
     1
 62
     5
 63
     7
421
 16777215
176
     1
 74
     1
176
     1
 91
        4
176
     1
 64
     7
176
     1
 65
   257
176
     1
 75
     7
176
     1
175
     7
176
     1
 42
1.0
176
     1
 92
        8
176
     1
 66
     7
176
     1
 43
1.0
176
     1
 76
     1
176
     1
 77
     6
176
     1
 78
     2
176
     1
 67
     7
176
     1
 79
     5
176
     1
170
     0
176
     1
171
     0
176
     1
290
     0
176
     1
 93
        1
176
     1
 44
0.0
176
     1
173
     0
176
     1
  0
VISUALSTYLE
  5
33
102
{ACAD_REACTORS
330
2A
102
}
330
2A
100
AcDbVisualStyle
  2
Realistic
 70
     8
177
     2
291
     0
 71
     2
176
     1
 72
     2
176
     1
 73
     0
176
     1
 90
        0
176
     1
 40
-0.6
176
     1
 41
-30.0
176
     1
 62
     5
 63
     7
421
 16777215
176
     1
 74
     1
176
     1
 91
        0
176
     1
 64
     7
176
     1
 65
   257
176
     1
 75
     1
176
     1
175
     1
176
     1
 42
1.0
176
     1
 92
        8
176
     1
 66
     8
424
  7895160
176
     1
 43
1.0
176
     1
 76
     1
176
     1
 77
     6
176
     1
 78
     2
176
     1
 67
     7
176
     1
 79
     5
176
     1
170
     0
176
     1
171
     0
176
     1
290
     0
176
     1
 93
       13
176
     1
 44
0.0
176
     1
173
     0
176
     1
  0
VISUALSTYLE
  5
37
102
{ACAD_REACTORS
330
2A
102
}
330
2A
100
AcDbVisualStyle
  2
Thicken
 70
    13
177
     2
291
     1
 71
     2
176
     1
 72
     2
176
     1
 73
     0
176
     1
 90
        0
176
     1
 40
-0.6
176
     1
 41
-30.0
176
     1
 62
     5
 63
     7
421
 16777215
176
     1
 74
     1
176
     1
 91
        4
176
     1
 64
     7
176
     1
 65
   257
176
     1
 75
     1
176
     1
175
     1
176
     1
 42
1.0
176
     1
 92
       12
176
     1
 66
     7
176
     1
 43
1.0
176
     1
 76
     1
176
     1
 77
     6
176
     1
 78
     2
176
     1
 67
     7
176
     1
 79
     5
176
     1
170
     0
176
     1
171
     0
176
     1
290
     0
176
     1
 93
        1
176
     1
 44
0.0
176
     1
173
     0
176
     1
  0
ENDSEC
  0
EOF
