  0
SECTION
  2
HEADER
  9
$ACADVER
  1
AC1024
  9
$ACADMAINTVER
 70
     6
  9
$DWGCODEPAGE
  3
ANSI_932
  9
$INSBASE
 10
0.0
 20
0.0
 30
0.0
  9
$EXTMIN
 10
-4455.0
 20
-3150.0
 30
0.0
  9
$EXTMAX
 10
4455.0
 20
3150.0
 30
0.0
  9
$LIMMIN
 10
-4455.0
 20
-3150.0
  9
$LIMMAX
 10
4455.0
 20
3150.0
  9
$ORTHOMODE
 70
     0
  9
$REGENMODE
 70
     1
  9
$FILLMODE
 70
     1
  9
$QTEXTMODE
 70
     0
  9
$MIRRTEXT
 70
     1
  9
$LTSCALE
 40
30.0
  9
$ATTMODE
 70
     1
  9
$TEXTSIZE
 40
2.5
  9
$TRACEWID
 40
1.0
  9
$TEXTSTYLE
  7
Standard
  9
$CLAYER
  8
0
  9
$CELTYPE
  6
ByLayer
  9
$CECOLOR
 62
   256
  9
$CELTSCALE
 40
1.0
  9
$DISPSILH
 70
     0
  9
$DIMSCALE
 40
1.0
  9
$DIMASZ
 40
2.5
  9
$DIMEXO
 40
0.625
  9
$DIMDLI
 40
3.75
  9
$DIMRND
 40
0.0
  9
$DIMDLE
 40
0.0
  9
$DIMEXE
 40
1.25
  9
$DIMTP
 40
0.0
  9
$DIMTM
 40
0.0
  9
$DIMTXT
 40
2.5
  9
$DIMCEN
 40
2.5
  9
$DIMTSZ
 40
0.0
  9
$DIMTOL
 70
     0
  9
$DIMLIM
 70
     0
  9
$DIMTIH
 70
     0
  9
$DIMTOH
 70
     0
  9
$DIMSE1
 70
     0
  9
$DIMSE2
 70
     0
  9
$DIMTAD
 70
     1
  9
$DIMZIN
 70
     8
  9
$DIMBLK
  1

  9
$DIMASO
 70
     1
  9
$DIMSHO
 70
     1
  9
$DIMPOST
  1

  9
$DIMAPOST
  1

  9
$DIMALT
 70
     0
  9
$DIMALTD
 70
     3
  9
$DIMALTF
 40
0.03937007874016
  9
$DIMLFAC
 40
1.0
  9
$DIMTOFL
 70
     1
  9
$DIMTVP
 40
0.0
  9
$DIMTIX
 70
     0
  9
$DIMSOXD
 70
     0
  9
$DIMSAH
 70
     0
  9
$DIMBLK1
  1

  9
$DIMBLK2
  1

  9
$DIMSTYLE
  2
ISO-25
  9
$DIMCLRD
 70
     0
  9
$DIMCLRE
 70
     0
  9
$DIMCLRT
 70
     0
  9
$DIMTFAC
 40
1.0
  9
$DIMGAP
 40
0.625
  9
$DIMJUST
 70
     0
  9
$DIMSD1
 70
     0
  9
$DIMSD2
 70
     0
  9
$DIMTOLJ
 70
     0
  9
$DIMTZIN
 70
     8
  9
$DIMALTZ
 70
     0
  9
$DIMALTTZ
 70
     0
  9
$DIMUPT
 70
     0
  9
$DIMDEC
 70
     2
  9
$DIMTDEC
 70
     2
  9
$DIMALTU
 70
     2
  9
$DIMALTTD
 70
     3
  9
$DIMTXSTY
  7
Standard
  9
$DIMAUNIT
 70
     0
  9
$DIMADEC
 70
     0
  9
$DIMALTRND
 40
0.0
  9
$DIMAZIN
 70
     0
  9
$DIMDSEP
 70
    44
  9
$DIMATFIT
 70
     3
  9
$DIMFRAC
 70
     0
  9
$DIMLDRBLK
  1

  9
$DIMLUNIT
 70
     2
  9
$DIMLWD
 70
    -2
  9
$DIMLWE
 70
    -2
  9
$DIMTMOVE
 70
     0
  9
$DIMFXL
 40
1.0
  9
$DIMFXLON
 70
     0
  9
$DIMJOGANG
 40
0.7853981633974483
  9
$DIMTFILL
 70
     0
  9
$DIMTFILLCLR
 70
     0
  9
$DIMARCSYM
 70
     0
  9
$DIMLTYPE
  6

  9
$DIMLTEX1
  6

  9
$DIMLTEX2
  6

  9
$DIMTXTDIRECTION
 70
     0
  9
$LUNITS
 70
     2
  9
$LUPREC
 70
     4
  9
$SKETCHINC
 40
1.0
  9
$FILLETRAD
 40
10.0
  9
$AUNITS
 70
     0
  9
$AUPREC
 70
     0
  9
$MENU
  1
.
  9
$ELEVATION
 40
0.0
  9
$PELEVATION
 40
0.0
  9
$THICKNESS
 40
0.0
  9
$LIMCHECK
 70
     0
  9
$CHAMFERA
 40
10.0
  9
$CHAMFERB
 40
10.0
  9
$CHAMFERC
 40
20.0
  9
$CHAMFERD
 40
0.0
  9
$SKPOLY
 70
     0
  9
$TDCREATE
 40
2457953.400819109
  9
$TDUCREATE
 40
2457953.025819109
  9
$TDUPDATE
 40
2457953.40081912
  9
$TDUUPDATE
 40
2457953.02581912
  9
$TDINDWG
 40
0.0000000116
  9
$TDUSRTIMER
 40
0.0000000116
  9
$USRTIMER
 70
     1
  9
$ANGBASE
 50
0.0
  9
$ANGDIR
 70
     0
  9
$PDMODE
 70
     0
  9
$PDSIZE
 40
0.0
  9
$PLINEWID
 40
0.0
  9
$SPLFRAME
 70
     0
  9
$SPLINETYPE
 70
     6
  9
$SPLINESEGS
 70
     8
  9
$HANDSEED
  5
578
  9
$SURFTAB1
 70
     6
  9
$SURFTAB2
 70
     6
  9
$SURFTYPE
 70
     6
  9
$SURFU
 70
     6
  9
$SURFV
 70
     6
  9
$UCSBASE
  2

  9
$UCSNAME
  2

  9
$UCSORG
 10
0.0
 20
0.0
 30
0.0
  9
$UCSXDIR
 10
1.0
 20
0.0
 30
0.0
  9
$UCSYDIR
 10
0.0
 20
1.0
 30
0.0
  9
$UCSORTHOREF
  2

  9
$UCSORTHOVIEW
 70
     0
  9
$UCSORGTOP
 10
0.0
 20
0.0
 30
0.0
  9
$UCSORGBOTTOM
 10
0.0
 20
0.0
 30
0.0
  9
$UCSORGLEFT
 10
0.0
 20
0.0
 30
0.0
  9
$UCSORGRIGHT
 10
0.0
 20
0.0
 30
0.0
  9
$UCSORGFRONT
 10
0.0
 20
0.0
 30
0.0
  9
$UCSORGBACK
 10
0.0
 20
0.0
 30
0.0
  9
$PUCSBASE
  2

  9
$PUCSNAME
  2

  9
$PUCSORG
 10
0.0
 20
0.0
 30
0.0
  9
$PUCSXDIR
 10
1.0
 20
0.0
 30
0.0
  9
$PUCSYDIR
 10
0.0
 20
1.0
 30
0.0
  9
$PUCSORTHOREF
  2

  9
$PUCSORTHOVIEW
 70
     0
  9
$PUCSORGTOP
 10
0.0
 20
0.0
 30
0.0
  9
$PUCSORGBOTTOM
 10
0.0
 20
0.0
 30
0.0
  9
$PUCSORGLEFT
 10
0.0
 20
0.0
 30
0.0
  9
$PUCSORGRIGHT
 10
0.0
 20
0.0
 30
0.0
  9
$PUCSORGFRONT
 10
0.0
 20
0.0
 30
0.0
  9
$PUCSORGBACK
 10
0.0
 20
0.0
 30
0.0
  9
$USERI1
 70
     0
  9
$USERI2
 70
     0
  9
$USERI3
 70
     0
  9
$USERI4
 70
     0
  9
$USERI5
 70
     0
  9
$USERR1
 40
0.0
  9
$USERR2
 40
0.0
  9
$USERR3
 40
0.0
  9
$USERR4
 40
0.0
  9
$USERR5
 40
0.0
  9
$WORLDVIEW
 70
     1
  9
$SHADEDGE
 70
     3
  9
$SHADEDIF
 70
    70
  9
$TILEMODE
 70
     1
  9
$MAXACTVP
 70
    64
  9
$PINSBASE
 10
0.0
 20
0.0
 30
0.0
  9
$PLIMCHECK
 70
     0
  9
$PEXTMIN
 10
1.000000000000000E+20
 20
1.000000000000000E+20
 30
1.000000000000000E+20
  9
$PEXTMAX
 10
-1.000000000000000E+20
 20
-1.000000000000000E+20
 30
-1.000000000000000E+20
  9
$PLIMMIN
 10
0.0
 20
0.0
  9
$PLIMMAX
 10
420.0
 20
297.0
  9
$UNITMODE
 70
     0
  9
$VISRETAIN
 70
     1
  9
$PLINEGEN
 70
     0
  9
$PSLTSCALE
 70
     1
  9
$TREEDEPTH
 70
  3020
  9
$CMLSTYLE
  2
Standard
  9
$CMLJUST
 70
     0
  9
$CMLSCALE
 40
20.0
  9
$PROXYGRAPHICS
 70
     1
  9
$MEASUREMENT
 70
     1
  9
$CELWEIGHT
370
    -1
  9
$ENDCAPS
280
     0
  9
$JOINSTYLE
280
     0
  9
$LWDISPLAY
290
     0
  9
$INSUNITS
 70
     4
  9
$HYPERLINKBASE
  1

  9
$STYLESHEET
  1

  9
$XEDIT
290
     1
  9
$CEPSNTYPE
380
     0
  9
$PSTYLEMODE
290
     1
  9
$FINGERPRINTGUID
  2
{7FEE0392-69D6-4B3C-A4A1-268088D19633}
  9
$VERSIONGUID
  2
{FAEB1C32-E019-11D5-929B-00C0DF256EC4}
  9
$EXTNAMES
290
     1
  9
$PSVPSCALE
 40
0.0
  9
$OLESTARTUP
290
     0
  9
$SORTENTS
280
   127
  9
$INDEXCTL
280
     0
  9
$HIDETEXT
280
     1
  9
$XCLIPFRAME
280
     2
  9
$HALOGAP
280
     0
  9
$OBSCOLOR
 70
   257
  9
$OBSLTYPE
280
     0
  9
$INTERSECTIONDISPLAY
280
     0
  9
$INTERSECTIONCOLOR
 70
   257
  9
$DIMASSOC
280
     2
  9
$PROJECTNAME
  1

  9
$CAMERADISPLAY
290
     0
  9
$LENSLENGTH
 40
50.0
  9
$CAMERAHEIGHT
 40
0.0
  9
$STEPSPERSEC
 40
2.0
  9
$STEPSIZE
 40
6.0
  9
$3DDWFPREC
 40
2.0
  9
$PSOLWIDTH
 40
5.0
  9
$PSOLHEIGHT
 40
80.0
  9
$LOFTANG1
 40
1.570796326794897
  9
$LOFTANG2
 40
1.570796326794897
  9
$LOFTMAG1
 40
0.0
  9
$LOFTMAG2
 40
0.0
  9
$LOFTPARAM
 70
     7
  9
$LOFTNORMALS
280
     1
  9
$LATITUDE
 40
37.795
  9
$LONGITUDE
 40
-122.394
  9
$NORTHDIRECTION
 40
0.0
  9
$TIMEZONE
 70
 -8000
  9
$LIGHTGLYPHDISPLAY
280
     1
  9
$TILEMODELIGHTSYNCH
280
     1
  9
$SOLIDHIST
280
     1
  9
$SHOWHIST
280
     1
  9
$DWFFRAME
280
     2
  9
$DGNFRAME
280
     2
  9
$REALWORLDSCALE
290
     1
  9
$INTERFERECOLOR
 62
   256
  9
$CSHADOW
280
     0
  9
$SHADOWPLANELOCATION
 40
0.0
  0
ENDSEC
  0
SECTION
  2
CLASSES
  0
CLASS
  1
ACDBDICTIONARYWDFLT
  2
AcDbDictionaryWithDefault
  3
ObjectDBX Classes
 90
        0
 91
        4
280
     0
281
     0
  0
CLASS
  1
VISUALSTYLE
  2
AcDbVisualStyle
  3
ObjectDBX Classes
 90
     4095
 91
        4
280
     0
281
     0
  0
CLASS
  1
MATERIAL
  2
AcDbMaterial
  3
ObjectDBX Classes
 90
     1153
 91
        4
280
     0
281
     0
  0
ENDSEC
  0
SECTION
  2
TABLES
  0
TABLE
  2
VPORT
  5
8
330
0
100
AcDbSymbolTable
 70
     1
  0
VPORT
  5
29
330
8
100
AcDbSymbolTableRecord
100
AcDbViewportTableRecord
  2
*Active
 70
     0
 10
0.0
 20
0.0
 11
1.0
 21
1.0
 12
0.0
 22
0.0
 13
0.0
 23
0.0
 14
10.0
 24
10.0
 15
10.0
 25
10.0
 16
0.0
 26
0.0
 36
1.0
 17
0.0
 27
0.0
 37
0.0
 40
6930.000000000001
 41
1.414285714285714
 42
50.0
 43
0.0
 44
0.0
 50
0.0
 51
0.0
 71
     0
 72
 10000
 73
     1
 74
     3
 75
     0
 76
     0
 77
     0
 78
     0
281
     0
 65
     1
110
0.0
120
0.0
130
0.0
111
1.0
121
0.0
131
0.0
112
0.0
122
1.0
132
0.0
 79
     0
146
0.0
 60
     3
 61
     5
292
     1
282
     1
141
0.0
142
0.0
 63
   250
  0
ENDTAB
  0
TABLE
  2
LTYPE
  5
5
330
0
100
AcDbSymbolTable
 70
     2
  0
LTYPE
  5
14
330
5
100
AcDbSymbolTableRecord
100
AcDbLinetypeTableRecord
  2
ByBlock
 70
     0
  3

 72
    65
 73
     0
 40
0.0
  0
LTYPE
  5
15
330
5
100
AcDbSymbolTableRecord
100
AcDbLinetypeTableRecord
  2
ByLayer
 70
     0
  3

 72
    65
 73
     0
 40
0.0
  0
LTYPE
  5
16
330
5
100
AcDbSymbolTableRecord
100
AcDbLinetypeTableRecord
  2
Continuous
 70
     0
  3
Solid line
 72
    65
 73
     0
 40
0.0
  0
LTYPE
  5
3F
330
5
100
AcDbSymbolTableRecord
100
AcDbLinetypeTableRecord
  2
JWW_DASHED1
 70
     0
  3
-  --  --  --  --  --  --  --  -
 72
    65
 73
     2
 40
1.693333333333333
 49
0.8466666666666667
 74
     0
 49
-0.8466666666666667
 74
     0
  0
ENDTAB
  0
TABLE
  2
LAYER
  5
2
330
0
100
AcDbSymbolTable
 70
     3
  0
LAYER
  5
10
330
2
100
AcDbSymbolTableRecord
100
AcDbLayerTableRecord
  2
0
 70
     0
 62
     7
  6
Continuous
370
    -3
390
F
347
3E
  0
LAYER
  5
40
330
2
100
AcDbSymbolTableRecord
100
AcDbLayerTableRecord
  2
0-0
 70
     0
 62
     7
  6
Continuous
370
    -3
390
F
347
3E
  0
LAYER
  5
41
330
2
100
AcDbSymbolTableRecord
100
AcDbLayerTableRecord
  2
寸法
 70
     0
 62
     7
  6
Continuous
370
    -3
390
F
347
3E
  0
ENDTAB
  0
TABLE
  2
STYLE
  5
3
330
0
100
AcDbSymbolTable
 70
     1
  0
STYLE
  5
11
330
3
100
AcDbSymbolTableRecord
100
AcDbTextStyleTableRecord
  2
Standard
 70
     0
 40
0.0
 41
1.0
 50
0.0
 71
     0
 42
2.5
  3
txt
  4

  0
ENDTAB
  0
TABLE
  2
VIEW
  5
6
330
0
100
AcDbSymbolTable
 70
     0
  0
ENDTAB
  0
TABLE
  2
UCS
  5
7
330
0
100
AcDbSymbolTable
 70
     0
  0
ENDTAB
  0
TABLE
  2
APPID
  5
9
330
0
100
AcDbSymbolTable
 70
     1
  0
APPID
  5
12
330
9
100
AcDbSymbolTableRecord
100
AcDbRegAppTableRecord
  2
ACAD
 70
     0
  0
ENDTAB
  0
TABLE
  2
DIMSTYLE
  5
A
330
0
100
AcDbSymbolTable
 70
     1
100
AcDbDimStyleTable
  0
DIMSTYLE
105
27
330
A
100
AcDbSymbolTableRecord
100
AcDbDimStyleTableRecord
  2
ISO-25
 70
     0
 41
2.5
 42
0.625
 43
3.75
 44
1.25
 73
     0
 74
     0
 77
     1
 78
     8
140
2.5
141
2.5
143
0.03937007874016
147
0.625
171
     3
172
     1
178
     0
271
     2
272
     2
274
     3
278
    44
283
     0
284
     8
340
11
  0
ENDTAB
  0
TABLE
  2
BLOCK_RECORD
  5
1
330
0
100
AcDbSymbolTable
 70
     1
  0
BLOCK_RECORD
  5
1F
330
1
100
AcDbSymbolTableRecord
100
AcDbBlockTableRecord
  2
*Model_Space
340
22
 70
     0
280
     1
281
     0
  0
BLOCK_RECORD
  5
1B
330
1
100
AcDbSymbolTableRecord
100
AcDbBlockTableRecord
  2
*Paper_Space
340
1E
 70
     0
280
     1
281
     0
  0
BLOCK_RECORD
  5
23
330
1
100
AcDbSymbolTableRecord
100
AcDbBlockTableRecord
  2
*Paper_Space0
340
26
 70
     0
280
     1
281
     0
  0
ENDTAB
  0
ENDSEC
  0
SECTION
  2
BLOCKS
  0
BLOCK
  5
20
330
1F
100
AcDbEntity
  8
0
100
AcDbBlockBegin
  2
*Model_Space
 70
     0
 10
0.0
 20
0.0
 30
0.0
  3
*Model_Space
  1

  0
ENDBLK
  5
21
330
1F
100
AcDbEntity
  8
0
100
AcDbBlockEnd
  0
BLOCK
  5
1C
330
1B
100
AcDbEntity
 67
     1
  8
0
100
AcDbBlockBegin
  2
*Paper_Space
 70
     0
 10
0.0
 20
0.0
 30
0.0
  3
*Paper_Space
  1

  0
ENDBLK
  5
1D
330
1B
100
AcDbEntity
 67
     1
  8
0
100
AcDbBlockEnd
  0
BLOCK
  5
24
330
23
100
AcDbEntity
  8
0
100
AcDbBlockBegin
  2
*Paper_Space0
 70
     0
 10
0.0
 20
0.0
 30
0.0
  3
*Paper_Space0
  1

  0
ENDBLK
  5
25
330
23
100
AcDbEntity
  8
0
100
AcDbBlockEnd
  0
ENDSEC
  0
SECTION
  2
ENTITIES
  0
LINE
  5
42
330
1F
100
AcDbEntity
  8
0-0
  6
Continuous
 62
    92
370
    13
100
AcDbLine
 10
1624.659727299757
 20
-1092.009591978718
 30
0.0
 11
-799.3402727002419
 21
-1092.009591978718
 31
0.0
  0
LINE
  5
43
330
1F
100
AcDbEntity
  8
0-0
  6
Continuous
 62
    92
370
    13
100
AcDbLine
 10
1594.659727299757
 20
-1077.009591978718
 30
0.0
 11
-769.3402727002419
 21
-1077.009591978718
 31
0.0
  0
ARC
  5
44
330
1F
100
AcDbEntity
  8
0-0
  6
Continuous
 62
    92
370
    13
100
AcDbCircle
 10
-740.840272700244
 20
-61.00959197871738
 30
0.0
 40
1.5
100
AcDbArc
 50
90.0
 51
180.0
  0
LINE
  5
45
330
1F
100
AcDbEntity
  8
0-0
  6
Continuous
 62
    92
370
    13
100
AcDbLine
 10
-742.3402727002426
 20
-168.0095919787164
 30
0.0
 11
-742.3402727002426
 21
-61.00959197871738
 31
0.0
  0
ARC
  5
46
330
1F
100
AcDbEntity
  8
0-0
  6
Continuous
 62
    92
370
    13
100
AcDbCircle
 10
-740.840272700244
 20
-168.0095919787164
 30
0.0
 40
1.5
100
AcDbArc
 50
180.0
 51
270.0
  0
LINE
  5
47
330
1F
100
AcDbEntity
  8
0-0
  6
Continuous
 62
    92
370
    13
100
AcDbLine
 10
-701.8402727002435
 20
-169.5095919787163
 30
0.0
 11
-740.840272700244
 21
-169.5095919787163
 31
0.0
  0
ARC
  5
48
330
1F
100
AcDbEntity
  8
0-0
  6
Continuous
 62
    92
370
    13
100
AcDbCircle
 10
-701.8402727002435
 20
-168.0095919787164
 30
0.0
 40
1.5
100
AcDbArc
 50
270.0
 51
0.0
  0
LINE
  5
49
330
1F
100
AcDbEntity
  8
0-0
  6
Continuous
 62
    92
370
    13
100
AcDbLine
 10
-700.3402727002467
 20
-61.00959197871738
 30
0.0
 11
-700.3402727002467
 21
-168.0095919787164
 31
0.0
  0
LINE
  5
4A
330
1F
100
AcDbEntity
  8
0-0
  6
Continuous
 62
    92
370
    13
100
AcDbLine
 10
-701.8402727002435
 20
-59.50959197871704
 30
0.0
 11
-740.840272700244
 21
-59.50959197871704
 31
0.0
  0
ARC
  5
4B
330
1F
100
AcDbEntity
  8
0-0
  6
Continuous
 62
    92
370
    13
100
AcDbCircle
 10
-701.8402727002435
 20
-61.00959197871738
 30
0.0
 40
1.5
100
AcDbArc
 50
0.0
 51
90.0
  0
ARC
  5
4C
330
1F
100
AcDbEntity
  8
0-0
  6
Continuous
 62
     7
370
     9
100
AcDbCircle
 10
-732.3402727002449
 20
-77.0095919787169
 30
0.0
 40
1.5
100
AcDbArc
 50
90.0
 51
180.0
  0
LINE
  5
4D
330
1F
100
AcDbEntity
  8
0-0
  6
Continuous
 62
     7
370
     9
100
AcDbLine
 10
-733.8402727002435
 20
-152.0095919787169
 30
0.0
 11
-733.8402727002435
 21
-77.0095919787169
 31
0.0
  0
ARC
  5
4E
330
1F
100
AcDbEntity
  8
0-0
  6
Continuous
 62
     7
370
     9
100
AcDbCircle
 10
-732.3402727002449
 20
-152.0095919787169
 30
0.0
 40
1.5
100
AcDbArc
 50
180.0
 51
270.0
  0
LINE
  5
4F
330
1F
100
AcDbEntity
  8
0-0
  6
Continuous
 62
     7
370
     9
100
AcDbLine
 10
-710.3402727002444
 20
-153.5095919787168
 30
0.0
 11
-732.3402727002449
 21
-153.5095919787168
 31
0.0
  0
ARC
  5
50
330
1F
100
AcDbEntity
  8
0-0
  6
Continuous
 62
     7
370
     9
100
AcDbCircle
 10
-710.3402727002444
 20
-152.0095919787169
 30
0.0
 40
1.5
100
AcDbArc
 50
270.0
 51
0.0
  0
LINE
  5
51
330
1F
100
AcDbEntity
  8
0-0
  6
Continuous
 62
     7
370
     9
100
AcDbLine
 10
-708.8402727002458
 20
-77.0095919787169
 30
0.0
 11
-708.8402727002458
 21
-152.0095919787169
 31
0.0
  0
LINE
  5
52
330
1F
100
AcDbEntity
  8
0-0
  6
Continuous
 62
     7
370
     9
100
AcDbLine
 10
-710.3402727002444
 20
-75.50959197871698
 30
0.0
 11
-732.3402727002449
 21
-75.50959197871698
 31
0.0
  0
ARC
  5
53
330
1F
100
AcDbEntity
  8
0-0
  6
Continuous
 62
     7
370
     9
100
AcDbCircle
 10
-710.3402727002444
 20
-77.0095919787169
 30
0.0
 40
1.5
100
AcDbArc
 50
0.0
 51
90.0
  0
ARC
  5
54
330
1F
100
AcDbEntity
  8
0-0
  6
Continuous
 62
    92
370
    13
100
AcDbCircle
 10
-740.840272700244
 20
-55.00959197871687
 30
0.0
 40
1.5
100
AcDbArc
 50
90.0
 51
180.0
  0
LINE
  5
55
330
1F
100
AcDbEntity
  8
0-0
  6
Continuous
 62
    92
370
    13
100
AcDbLine
 10
-701.8402727002435
 20
-53.50959197871738
 30
0.0
 11
-740.840272700244
 21
-53.50959197871738
 31
0.0
  0
ARC
  5
56
330
1F
100
AcDbEntity
  8
0-0
  6
Continuous
 62
    92
370
    13
100
AcDbCircle
 10
-701.8402727002435
 20
-55.00959197871687
 30
0.0
 40
1.5
100
AcDbArc
 50
0.0
 51
90.00000000000001
  0
LINE
  5
57
330
1F
100
AcDbEntity
  8
0-0
  6
Continuous
 62
    92
370
    13
100
AcDbLine
 10
-700.3402727002467
 20
-174.0095919787169
 30
0.0
 11
-700.3402727002467
 21
-55.00959197871687
 31
0.0
  0
ARC
  5
58
330
1F
100
AcDbEntity
  8
0-0
  6
Continuous
 62
    92
370
    13
100
AcDbCircle
 10
-701.8402727002435
 20
-174.0095919787169
 30
0.0
 40
1.5
100
AcDbArc
 50
270.0
 51
0.0
  0
LINE
  5
59
330
1F
100
AcDbEntity
  8
0-0
  6
Continuous
 62
    92
370
    13
100
AcDbLine
 10
-740.840272700244
 20
-175.5095919787169
 30
0.0
 11
-701.8402727002435
 21
-175.5095919787169
 31
0.0
  0
LINE
  5
5A
330
1F
100
AcDbEntity
  8
0-0
  6
Continuous
 62
    92
370
    13
100
AcDbLine
 10
-742.3402727002426
 20
-174.0095919787169
 30
0.0
 11
-742.3402727002426
 21
-55.00959197871687
 31
0.0
  0
ARC
  5
5B
330
1F
100
AcDbEntity
  8
0-0
  6
Continuous
 62
    92
370
    13
100
AcDbCircle
 10
-740.840272700244
 20
-174.0095919787169
 30
0.0
 40
1.5
100
AcDbArc
 50
180.0
 51
270.0
  0
ARC
  5
5C
330
1F
100
AcDbEntity
  8
0-0
  6
Continuous
 62
     7
370
     9
100
AcDbCircle
 10
-721.3402727002447
 20
-144.1095919787173
 30
0.0
 40
15.0
100
AcDbArc
 50
180.0
 51
0.0
  0
ARC
  5
5D
330
1F
100
AcDbEntity
  8
0-0
  6
Continuous
 62
     7
370
     9
100
AcDbCircle
 10
-721.3402727002447
 20
-84.90959197871696
 30
0.0
 40
15.0
100
AcDbArc
 50
0.0
 51
180.0
  0
LINE
  5
5E
330
1F
100
AcDbEntity
  8
0-0
  6
Continuous
 62
     7
370
     9
100
AcDbLine
 10
-706.3402727002447
 20
-144.1095919787173
 30
0.0
 11
-706.3402727002447
 21
-84.90959197871696
 31
0.0
  0
LINE
  5
5F
330
1F
100
AcDbEntity
  8
0-0
  6
Continuous
 62
     7
370
     9
100
AcDbLine
 10
-736.3402727002447
 20
-84.90959197871696
 30
0.0
 11
-736.3402727002447
 21
-144.1095919787173
 31
0.0
  0
ARC
  5
60
330
1F
100
AcDbEntity
  8
0-0
  6
Continuous
 62
    92
370
    13
100
AcDbCircle
 10
39.15972729975607
 20
-61.00959197871738
 30
0.0
 40
1.5
100
AcDbArc
 50
90.0
 51
180.0
  0
LINE
  5
61
330
1F
100
AcDbEntity
  8
0-0
  6
Continuous
 62
    92
370
    13
100
AcDbLine
 10
37.65972729975744
 20
-168.0095919787164
 30
0.0
 11
37.65972729975744
 21
-61.00959197871738
 31
0.0
  0
ARC
  5
62
330
1F
100
AcDbEntity
  8
0-0
  6
Continuous
 62
    92
370
    13
100
AcDbCircle
 10
39.15972729975607
 20
-168.0095919787164
 30
0.0
 40
1.5
100
AcDbArc
 50
180.0
 51
270.0
  0
LINE
  5
63
330
1F
100
AcDbEntity
  8
0-0
  6
Continuous
 62
    92
370
    13
100
AcDbLine
 10
78.15972729975641
 20
-169.5095919787163
 30
0.0
 11
39.15972729975607
 21
-169.5095919787163
 31
0.0
  0
ARC
  5
64
330
1F
100
AcDbEntity
  8
0-0
  6
Continuous
 62
    92
370
    13
100
AcDbCircle
 10
78.15972729975641
 20
-168.0095919787164
 30
0.0
 40
1.5
100
AcDbArc
 50
270.0
 51
0.0
  0
LINE
  5
65
330
1F
100
AcDbEntity
  8
0-0
  6
Continuous
 62
    92
370
    13
100
AcDbLine
 10
79.65972729975334
 20
-61.00959197871738
 30
0.0
 11
79.65972729975334
 21
-168.0095919787164
 31
0.0
  0
LINE
  5
66
330
1F
100
AcDbEntity
  8
0-0
  6
Continuous
 62
    92
370
    13
100
AcDbLine
 10
78.15972729975641
 20
-59.50959197871704
 30
0.0
 11
39.15972729975607
 21
-59.50959197871704
 31
0.0
  0
ARC
  5
67
330
1F
100
AcDbEntity
  8
0-0
  6
Continuous
 62
    92
370
    13
100
AcDbCircle
 10
78.15972729975641
 20
-61.00959197871738
 30
0.0
 40
1.5
100
AcDbArc
 50
0.0
 51
90.0
  0
ARC
  5
68
330
1F
100
AcDbEntity
  8
0-0
  6
Continuous
 62
     7
370
     9
100
AcDbCircle
 10
47.65972729975516
 20
-77.0095919787169
 30
0.0
 40
1.5
100
AcDbArc
 50
90.0
 51
180.0
  0
LINE
  5
69
330
1F
100
AcDbEntity
  8
0-0
  6
Continuous
 62
     7
370
     9
100
AcDbLine
 10
46.15972729975653
 20
-152.0095919787169
 30
0.0
 11
46.15972729975653
 21
-77.0095919787169
 31
0.0
  0
ARC
  5
6A
330
1F
100
AcDbEntity
  8
0-0
  6
Continuous
 62
     7
370
     9
100
AcDbCircle
 10
47.65972729975516
 20
-152.0095919787169
 30
0.0
 40
1.5
100
AcDbArc
 50
180.0
 51
270.0
  0
LINE
  5
6B
330
1F
100
AcDbEntity
  8
0-0
  6
Continuous
 62
     7
370
     9
100
AcDbLine
 10
69.65972729975562
 20
-153.5095919787168
 30
0.0
 11
47.65972729975516
 21
-153.5095919787168
 31
0.0
  0
ARC
  5
6C
330
1F
100
AcDbEntity
  8
0-0
  6
Continuous
 62
     7
370
     9
100
AcDbCircle
 10
69.65972729975562
 20
-152.0095919787169
 30
0.0
 40
1.5
100
AcDbArc
 50
270.0
 51
0.0
  0
LINE
  5
6D
330
1F
100
AcDbEntity
  8
0-0
  6
Continuous
 62
     7
370
     9
100
AcDbLine
 10
71.15972729975425
 20
-77.0095919787169
 30
0.0
 11
71.15972729975425
 21
-152.0095919787169
 31
0.0
  0
LINE
  5
6E
330
1F
100
AcDbEntity
  8
0-0
  6
Continuous
 62
     7
370
     9
100
AcDbLine
 10
69.65972729975562
 20
-75.50959197871698
 30
0.0
 11
47.65972729975516
 21
-75.50959197871698
 31
0.0
  0
ARC
  5
6F
330
1F
100
AcDbEntity
  8
0-0
  6
Continuous
 62
     7
370
     9
100
AcDbCircle
 10
69.65972729975562
 20
-77.0095919787169
 30
0.0
 40
1.5
100
AcDbArc
 50
0.0
 51
90.0
  0
ARC
  5
70
330
1F
100
AcDbEntity
  8
0-0
  6
Continuous
 62
    92
370
    13
100
AcDbCircle
 10
39.15972729975607
 20
-55.00959197871687
 30
0.0
 40
1.5
100
AcDbArc
 50
90.0
 51
180.0
  0
LINE
  5
71
330
1F
100
AcDbEntity
  8
0-0
  6
Continuous
 62
    92
370
    13
100
AcDbLine
 10
78.15972729975641
 20
-53.50959197871738
 30
0.0
 11
39.15972729975607
 21
-53.50959197871738
 31
0.0
  0
ARC
  5
72
330
1F
100
AcDbEntity
  8
0-0
  6
Continuous
 62
    92
370
    13
100
AcDbCircle
 10
78.15972729975641
 20
-55.00959197871687
 30
0.0
 40
1.5
100
AcDbArc
 50
0.0
 51
90.00000000000001
  0
LINE
  5
73
330
1F
100
AcDbEntity
  8
0-0
  6
Continuous
 62
    92
370
    13
100
AcDbLine
 10
79.65972729975334
 20
-174.0095919787169
 30
0.0
 11
79.65972729975334
 21
-55.00959197871687
 31
0.0
  0
ARC
  5
74
330
1F
100
AcDbEntity
  8
0-0
  6
Continuous
 62
    92
370
    13
100
AcDbCircle
 10
78.15972729975641
 20
-174.0095919787169
 30
0.0
 40
1.5
100
AcDbArc
 50
270.0
 51
0.0
  0
LINE
  5
75
330
1F
100
AcDbEntity
  8
0-0
  6
Continuous
 62
    92
370
    13
100
AcDbLine
 10
39.15972729975607
 20
-175.5095919787169
 30
0.0
 11
78.15972729975641
 21
-175.5095919787169
 31
0.0
  0
LINE
  5
76
330
1F
100
AcDbEntity
  8
0-0
  6
Continuous
 62
    92
370
    13
100
AcDbLine
 10
37.65972729975744
 20
-174.0095919787169
 30
0.0
 11
37.65972729975744
 21
-55.00959197871687
 31
0.0
  0
ARC
  5
77
330
1F
100
AcDbEntity
  8
0-0
  6
Continuous
 62
    92
370
    13
100
AcDbCircle
 10
39.15972729975607
 20
-174.0095919787169
 30
0.0
 40
1.5
100
AcDbArc
 50
180.0
 51
270.0
  0
ARC
  5
78
330
1F
100
AcDbEntity
  8
0-0
  6
Continuous
 62
     7
370
     9
100
AcDbCircle
 10
58.65972729975539
 20
-144.1095919787173
 30
0.0
 40
15.0
100
AcDbArc
 50
180.0
 51
0.0
  0
ARC
  5
79
330
1F
100
AcDbEntity
  8
0-0
  6
Continuous
 62
     7
370
     9
100
AcDbCircle
 10
58.65972729975539
 20
-84.90959197871696
 30
0.0
 40
15.0
100
AcDbArc
 50
0.0
 51
180.0
  0
LINE
  5
7A
330
1F
100
AcDbEntity
  8
0-0
  6
Continuous
 62
     7
370
     9
100
AcDbLine
 10
73.65972729975539
 20
-144.1095919787173
 30
0.0
 11
73.65972729975539
 21
-84.90959197871696
 31
0.0
  0
LINE
  5
7B
330
1F
100
AcDbEntity
  8
0-0
  6
Continuous
 62
     7
370
     9
100
AcDbLine
 10
43.65972729975539
 20
-84.90959197871696
 30
0.0
 11
43.65972729975539
 21
-144.1095919787173
 31
0.0
  0
LINE
  5
7C
330
1F
100
AcDbEntity
  8
0-0
  6
JWW_DASHED1
 62
   120
370
     5
100
AcDbLine
 10
-769.3402727002419
 20
-1072.009591978717
 30
0.0
 11
-772.3402727002426
 21
-1072.009591978717
 31
0.0
  0
LINE
  5
7D
330
1F
100
AcDbEntity
  8
0-0
  6
Continuous
 62
    92
370
    13
100
AcDbLine
 10
-769.3402727002419
 20
-1072.009591978717
 30
0.0
 11
817.6597272997574
 21
-1072.009591978717
 31
0.0
  0
LINE
  5
7E
330
1F
100
AcDbEntity
  8
0-0
  6
Continuous
 62
    92
370
    13
100
AcDbLine
 10
-799.3402727002419
 20
-1092.009591978718
 30
0.0
 11
-799.3402727002419
 21
1154.990408021281
 31
0.0
  0
LINE
  5
7F
330
1F
100
AcDbEntity
  8
0-0
  6
Continuous
 62
    92
370
    13
100
AcDbLine
 10
1624.659727299757
 20
-1092.009591978718
 30
0.0
 11
1624.659727299757
 21
1154.990408021281
 31
0.0
  0
LINE
  5
80
330
1F
100
AcDbEntity
  8
0-0
  6
JWW_DASHED1
 62
   120
370
     5
100
AcDbLine
 10
787.6597272997574
 20
-1077.009591978718
 30
0.0
 11
787.6597272997574
 21
1118.990408021282
 31
0.0
  0
LINE
  5
81
330
1F
100
AcDbEntity
  8
0-0
  6
JWW_DASHED1
 62
   120
370
     5
100
AcDbLine
 10
817.6597272997574
 20
-1077.009591978718
 30
0.0
 11
817.6597272997574
 21
1118.990408021282
 31
0.0
  0
LINE
  5
82
330
1F
100
AcDbEntity
  8
0-0
  6
Continuous
 62
    92
370
    13
100
AcDbLine
 10
-769.3402727002419
 20
-1092.009591978718
 30
0.0
 11
-769.3402727002419
 21
1154.990408021281
 31
0.0
  0
LINE
  5
83
330
1F
100
AcDbEntity
  8
0-0
  6
Continuous
 62
    92
370
    13
100
AcDbLine
 10
1594.659727299757
 20
-1092.009591978718
 30
0.0
 11
1594.659727299757
 21
1154.990408021281
 31
0.0
  0
LINE
  5
84
330
1F
100
AcDbEntity
  8
0-0
  6
Continuous
 62
    92
370
    13
100
AcDbLine
 10
-769.3402727002419
 20
1118.990408021282
 30
0.0
 11
1594.659727299757
 21
1118.990408021282
 31
0.0
  0
LINE
  5
85
330
1F
100
AcDbEntity
  8
0-0
  6
Continuous
 62
    92
370
    13
100
AcDbLine
 10
-799.3402727002419
 20
1154.990408021281
 30
0.0
 11
1624.659727299757
 21
1154.990408021281
 31
0.0
  0
LINE
  5
86
330
1F
100
AcDbEntity
  8
0-0
  6
JWW_DASHED1
 62
   120
370
     5
100
AcDbLine
 10
-772.3402727002426
 20
-1072.009591978717
 30
0.0
 11
-772.3402727002426
 21
1110.990408021283
 31
0.0
  0
LINE
  5
87
330
1F
100
AcDbEntity
  8
0-0
  6
JWW_DASHED1
 62
   120
370
     5
100
AcDbLine
 10
-772.3402727002426
 20
1110.990408021283
 30
0.0
 11
-769.3402727002419
 21
1110.990408021283
 31
0.0
  0
LINE
  5
88
330
1F
100
AcDbEntity
  8
0-0
  6
JWW_DASHED1
 62
   120
370
     5
100
AcDbLine
 10
37.65972729975744
 20
-1072.009591978717
 30
0.0
 11
37.65972729975744
 21
1110.990408021283
 31
0.0
  0
LINE
  5
89
330
1F
100
AcDbEntity
  8
0-0
  6
Continuous
 62
    92
370
    13
100
AcDbLine
 10
-769.3402727002419
 20
1110.990408021283
 30
0.0
 11
817.6597272997574
 21
1110.990408021283
 31
0.0
  0
LINE
  5
8A
330
1F
100
AcDbEntity
  8
0-0
  6
Continuous
 62
    92
370
    13
100
AcDbLine
 10
7.659727299757435
 20
1110.990408021283
 30
0.0
 11
7.659727299757435
 21
-1072.009591978717
 31
0.0
  0
LINE
  5
8B
330
1F
100
AcDbEntity
  8
0-0
  6
Continuous
 62
    92
370
    13
100
AcDbLine
 10
817.6597272997574
 20
-1072.009591978717
 30
0.0
 11
817.6597272997574
 21
1110.990408021283
 31
0.0
  0
LINE
  5
8C
330
1F
100
AcDbEntity
  8
0-0
  6
Continuous
 62
    92
370
    13
100
AcDbLine
 10
-662.3402727002438
 20
-922.0095919787179
 30
0.0
 11
-72.34027270024143
 21
-922.0095919787179
 31
0.0
  0
LINE
  5
8D
330
1F
100
AcDbEntity
  8
0-0
  6
Continuous
 62
    92
370
    13
100
AcDbLine
 10
117.6597272997563
 20
-922.0095919787179
 30
0.0
 11
707.6597272997585
 21
-922.0095919787179
 31
0.0
  0
LINE
  5
8E
330
1F
100
AcDbEntity
  8
0-0
  6
Continuous
 62
    92
370
    13
100
AcDbLine
 10
-662.3402727002438
 20
975.9904080212814
 30
0.0
 11
-72.34027270024143
 21
975.9904080212814
 31
0.0
  0
LINE
  5
8F
330
1F
100
AcDbEntity
  8
0-0
  6
Continuous
 62
    92
370
    13
100
AcDbLine
 10
117.6597272997563
 20
975.9904080212814
 30
0.0
 11
707.6597272997585
 21
975.9904080212814
 31
0.0
  0
LINE
  5
90
330
1F
100
AcDbEntity
  8
0-0
  6
Continuous
 62
    92
370
    13
100
AcDbLine
 10
367.6597272997574
 20
975.9904080212816
 30
0.0
 11
367.6597272997574
 21
-922.0095919787179
 31
0.0
  0
LINE
  5
91
330
1F
100
AcDbEntity
  8
0-0
  6
Continuous
 62
    92
370
    13
100
AcDbLine
 10
457.6597272997574
 20
975.9904080212816
 30
0.0
 11
457.6597272997574
 21
-922.0095919787179
 31
0.0
  0
LINE
  5
92
330
1F
100
AcDbEntity
  8
0-0
  6
Continuous
 62
    92
370
    13
100
AcDbLine
 10
-412.3402727002426
 20
975.9904080212816
 30
0.0
 11
-412.3402727002426
 21
-922.0095919787179
 31
0.0
  0
LINE
  5
93
330
1F
100
AcDbEntity
  8
0-0
  6
Continuous
 62
    92
370
    13
100
AcDbLine
 10
-322.3402727002426
 20
975.9904080212816
 30
0.0
 11
-322.3402727002426
 21
-922.0095919787179
 31
0.0
  0
LINE
  5
94
330
1F
100
AcDbEntity
  8
0-0
  6
Continuous
 62
    92
370
    13
100
AcDbLine
 10
-662.3402727002438
 20
-1072.009591978718
 30
0.0
 11
-662.3402727002438
 21
1110.990408021283
 31
0.0
  0
LINE
  5
95
330
1F
100
AcDbEntity
  8
0-0
  6
Continuous
 62
    92
370
    13
100
AcDbLine
 10
-72.34027270024143
 20
-1072.009591978718
 30
0.0
 11
-72.34027270024143
 21
1110.990408021283
 31
0.0
  0
LINE
  5
96
330
1F
100
AcDbEntity
  8
0-0
  6
Continuous
 62
    92
370
    13
100
AcDbLine
 10
707.6597272997585
 20
-1072.009591978718
 30
0.0
 11
707.6597272997585
 21
1110.990408021283
 31
0.0
  0
LINE
  5
97
330
1F
100
AcDbEntity
  8
0-0
  6
Continuous
 62
    92
370
    13
100
AcDbLine
 10
117.6597272997563
 20
-1072.009591978718
 30
0.0
 11
117.6597272997563
 21
1110.990408021283
 31
0.0
  0
LINE
  5
98
330
1F
100
AcDbEntity
  8
0-0
  6
JWW_DASHED1
 62
   120
370
     5
100
AcDbLine
 10
-662.3402727002317
 20
972.1129188562562
 30
0.0
 11
-658.4627835352173
 21
975.9904080212706
 31
0.0
  0
LINE
  5
99
330
1F
100
AcDbEntity
  8
0-0
  6
JWW_DASHED1
 62
   120
370
     5
100
AcDbLine
 10
-662.3402727002438
 20
965.0418510429588
 30
0.0
 11
-651.39171572192
 21
975.990408021283
 31
0.0
  0
LINE
  5
9A
330
1F
100
AcDbEntity
  8
0-0
  6
JWW_DASHED1
 62
   120
370
     5
100
AcDbLine
 10
-662.3402727002351
 20
957.9707832297364
 30
0.0
 11
-644.3206479086967
 21
975.9904080212748
 31
0.0
  0
LINE
  5
9B
330
1F
100
AcDbEntity
  8
0-0
  6
JWW_DASHED1
 62
   120
370
     5
100
AcDbLine
 10
-662.3402727002309
 20
950.899715416455
 30
0.0
 11
-637.2495800954155
 21
975.990408021271
 31
0.0
  0
LINE
  5
9C
330
1F
100
AcDbEntity
  8
0-0
  6
JWW_DASHED1
 62
   120
370
     5
100
AcDbLine
 10
-662.3402727002428
 20
943.8286476031576
 30
0.0
 11
-630.1785122821198
 21
975.9904080212808
 31
0.0
  0
LINE
  5
9D
330
1F
100
AcDbEntity
  8
0-0
  6
JWW_DASHED1
 62
   120
370
     5
100
AcDbLine
 10
-662.3402727002394
 20
936.7575797898761
 30
0.0
 11
-623.1074444688386
 21
975.9904080212765
 31
0.0
  0
LINE
  5
9E
330
1F
100
AcDbEntity
  8
0-0
  6
JWW_DASHED1
 62
   120
370
     5
100
AcDbLine
 10
-662.3402727002351
 20
929.6865119765949
 30
0.0
 11
-616.0363766555574
 21
975.9904080212727
 31
0.0
  0
LINE
  5
9F
330
1F
100
AcDbEntity
  8
0-0
  6
JWW_DASHED1
 62
   120
370
     5
100
AcDbLine
 10
-662.3402727002309
 20
922.6154441633131
 30
0.0
 11
-608.965308842272
 21
975.9904080212718
 31
0.0
  0
LINE
  5
A0
330
1F
100
AcDbEntity
  8
0-0
  6
JWW_DASHED1
 62
   120
370
     5
100
AcDbLine
 10
-662.3402727002419
 20
915.5443763500167
 30
0.0
 11
-601.8942410289744
 21
975.9904080212838
 31
0.0
  0
LINE
  5
A1
330
1F
100
AcDbEntity
  8
0-0
  6
JWW_DASHED1
 62
   120
370
     5
100
AcDbLine
 10
-662.3402727002385
 20
908.4733085367351
 30
0.0
 11
-594.8231732156933
 21
975.9904080212799
 31
0.0
  0
LINE
  5
A2
330
1F
100
AcDbEntity
  8
0-0
  6
JWW_DASHED1
 62
   120
370
     5
100
AcDbLine
 10
-662.3402727002351
 20
901.402240723453
 30
0.0
 11
-587.7521054024121
 21
975.9904080212762
 31
0.0
  0
LINE
  5
A3
330
1F
100
AcDbEntity
  8
0-0
  6
JWW_DASHED1
 62
   120
370
     5
100
AcDbLine
 10
-662.3402727002283
 20
894.3311729102012
 30
0.0
 11
-580.6810375891589
 21
975.9904080212706
 31
0.0
  0
LINE
  5
A4
330
1F
100
AcDbEntity
  8
0-0
  6
JWW_DASHED1
 62
   120
370
     5
100
AcDbLine
 10
-662.3402727002385
 20
887.2601050969332
 30
0.0
 11
-573.6099697758965
 21
975.9904080212748
 31
0.0
  0
LINE
  5
A5
330
1F
100
AcDbEntity
  8
0-0
  6
JWW_DASHED1
 62
   120
370
     5
100
AcDbLine
 10
-662.3402727002343
 20
880.1890372836519
 30
0.0
 11
-566.5389019626152
 21
975.9904080212706
 31
0.0
  0
LINE
  5
A6
330
1F
100
AcDbEntity
  8
0-0
  6
JWW_DASHED1
 62
   120
370
     5
100
AcDbLine
 10
-662.3402727002454
 20
873.1179694703554
 30
0.0
 11
-559.4678341493119
 21
975.9904080212884
 31
0.0
  0
LINE
  5
A7
330
1F
100
AcDbEntity
  8
0-0
  6
JWW_DASHED1
 62
   120
370
     5
100
AcDbLine
 10
-662.3402727002411
 20
866.0469016570742
 30
0.0
 11
-552.3967663360298
 21
975.990408021285
 31
0.0
  0
LINE
  5
A8
330
1F
100
AcDbEntity
  8
0-0
  6
JWW_DASHED1
 62
   120
370
     5
100
AcDbLine
 10
-662.3402727002377
 20
858.9758338437915
 30
0.0
 11
-545.3256985227486
 21
975.9904080212813
 31
0.0
  0
LINE
  5
A9
330
1F
100
AcDbEntity
  8
0-0
  6
JWW_DASHED1
 62
   120
370
     5
100
AcDbLine
 10
-662.3402727002343
 20
851.90476603051
 30
0.0
 11
-538.2546307094665
 21
975.9904080212774
 31
0.0
  0
LINE
  5
AA
330
1F
100
AcDbEntity
  8
0-0
  6
JWW_DASHED1
 62
   120
370
     5
100
AcDbLine
 10
-662.3402727002301
 20
844.8336982172289
 30
0.0
 11
-531.1835628961844
 21
975.9904080212735
 31
0.0
  0
LINE
  5
AB
330
1F
100
AcDbEntity
  8
0-0
  6
JWW_DASHED1
 62
   120
370
     5
100
AcDbLine
 10
-662.3402727002419
 20
837.7626304039314
 30
0.0
 11
-524.1124950828955
 21
975.990408021277
 31
0.0
  0
LINE
  5
AC
330
1F
100
AcDbEntity
  8
0-0
  6
JWW_DASHED1
 62
   120
370
     5
100
AcDbLine
 10
-662.3402727002351
 20
830.6915625906792
 30
0.0
 11
-517.0414272696441
 21
975.9904080212706
 31
0.0
  0
LINE
  5
AD
330
1F
100
AcDbEntity
  8
0-0
  6
JWW_DASHED1
 62
   120
370
     5
100
AcDbLine
 10
-662.3402727002438
 20
823.6204947774129
 30
0.0
 11
-509.9703594563672
 21
975.9904080212898
 31
0.0
  0
LINE
  5
AE
330
1F
100
AcDbEntity
  8
0-0
  6
JWW_DASHED1
 62
   120
370
     5
100
AcDbLine
 10
-662.3402727002394
 20
816.5494269641315
 30
0.0
 11
-502.8992916430852
 21
975.9904080212859
 31
0.0
  0
LINE
  5
AF
330
1F
100
AcDbEntity
  8
0-0
  6
JWW_DASHED1
 62
   120
370
     5
100
AcDbLine
 10
-662.3402727002369
 20
809.4783591508487
 30
0.0
 11
-495.8282238298031
 21
975.9904080212821
 31
0.0
  0
LINE
  5
B0
330
1F
100
AcDbEntity
  8
0-0
  6
JWW_DASHED1
 62
   120
370
     5
100
AcDbLine
 10
-662.3402727002335
 20
802.4072913375671
 30
0.0
 11
-488.7571560165219
 21
975.9904080212782
 31
0.0
  0
LINE
  5
B1
330
1F
100
AcDbEntity
  8
0-0
  6
JWW_DASHED1
 62
   120
370
     5
100
AcDbLine
 10
-662.3402727002292
 20
795.3362235242853
 30
0.0
 11
-481.6860882032398
 21
975.9904080212748
 31
0.0
  0
LINE
  5
B2
330
1F
100
AcDbEntity
  8
0-0
  6
JWW_DASHED1
 62
   120
370
     5
100
AcDbLine
 10
-662.3402727002403
 20
788.2651557109884
 30
0.0
 11
-474.6150203899543
 21
975.9904080212748
 31
0.0
  0
LINE
  5
B3
330
1F
100
AcDbEntity
  8
0-0
  6
JWW_DASHED1
 62
   120
370
     5
100
AcDbLine
 10
-662.3402727002369
 20
781.1940878977068
 30
0.0
 11
-467.5439525766731
 21
975.9904080212706
 31
0.0
  0
LINE
  5
B4
330
1F
100
AcDbEntity
  8
0-0
  6
JWW_DASHED1
 62
   120
370
     5
100
AcDbLine
 10
-662.3402727002326
 20
774.1230200844254
 30
0.0
 11
-460.4728847633791
 21
975.9904080212791
 31
0.0
  0
LINE
  5
B5
330
1F
100
AcDbEntity
  8
0-0
  6
JWW_DASHED1
 62
   120
370
     5
100
AcDbLine
 10
-662.3402727002411
 20
767.0519522711593
 30
0.0
 11
-453.4018169501107
 21
975.9904080212893
 31
0.0
  0
LINE
  5
B6
330
1F
100
AcDbEntity
  8
0-0
  6
JWW_DASHED1
 62
   120
370
     5
100
AcDbLine
 10
-662.340272700236
 20
759.9808844579057
 30
0.0
 11
-446.3307491368585
 21
975.9904080212833
 31
0.0
  0
LINE
  5
B7
330
1F
100
AcDbEntity
  8
0-0
  6
JWW_DASHED1
 62
   120
370
     5
100
AcDbLine
 10
-662.3402727002326
 20
752.9098166446241
 30
0.0
 11
-439.2596813235772
 21
975.9904080212796
 31
0.0
  0
LINE
  5
B8
330
1F
100
AcDbEntity
  8
0-0
  6
JWW_DASHED1
 62
   120
370
     5
100
AcDbLine
 10
-662.3402727002438
 20
745.8387488313272
 30
0.0
 11
-432.1886135102935
 21
975.990408021277
 31
0.0
  0
LINE
  5
B9
330
1F
100
AcDbEntity
  8
0-0
  6
JWW_DASHED1
 62
   120
370
     5
100
AcDbLine
 10
-662.3402727002403
 20
738.7676810180456
 30
0.0
 11
-425.1175456970131
 21
975.9904080212727
 31
0.0
  0
LINE
  5
BA
330
1F
100
AcDbEntity
  8
0-0
  6
JWW_DASHED1
 62
   120
370
     5
100
AcDbLine
 10
-662.340272700236
 20
731.6966132047638
 30
0.0
 11
-418.046477883731
 21
975.9904080212684
 31
0.0
  0
LINE
  5
BB
330
1F
100
AcDbEntity
  8
0-0
  6
JWW_DASHED1
 62
   120
370
     5
100
AcDbLine
 10
-662.3402727002317
 20
724.6255453914827
 30
0.0
 11
-412.3402727002409
 21
974.625545391474
 31
0.0
  0
LINE
  5
BC
330
1F
100
AcDbEntity
  8
0-0
  6
JWW_DASHED1
 62
   120
370
     5
100
AcDbLine
 10
-662.3402727002411
 20
717.5544775781877
 30
0.0
 11
-412.3402727002519
 21
967.5544775781769
 31
0.0
  0
LINE
  5
BD
330
1F
100
AcDbEntity
  8
0-0
  6
JWW_DASHED1
 62
   120
370
     5
100
AcDbLine
 10
-662.3402727002377
 20
710.4834097649057
 30
0.0
 11
-412.3402727002477
 21
960.4834097648958
 31
0.0
  0
LINE
  5
BE
330
1F
100
AcDbEntity
  8
0-0
  6
JWW_DASHED1
 62
   120
370
     5
100
AcDbLine
 10
-662.3402727002335
 20
703.4123419516518
 30
0.0
 11
-412.3402727002417
 21
953.4123419516434
 31
0.0
  0
LINE
  5
BF
330
1F
100
AcDbEntity
  8
0-0
  6
JWW_DASHED1
 62
   120
370
     5
100
AcDbLine
 10
-662.3402727002428
 20
696.3412741383842
 30
0.0
 11
-412.3402727002357
 21
946.3412741383913
 31
0.0
  0
LINE
  5
C0
330
1F
100
AcDbEntity
  8
0-0
  6
JWW_DASHED1
 62
   120
370
     5
100
AcDbLine
 10
-662.3402727002385
 20
689.2702063251025
 30
0.0
 11
-412.3402727002315
 21
939.2702063251099
 31
0.0
  0
LINE
  5
C1
330
1F
100
AcDbEntity
  8
0-0
  6
JWW_DASHED1
 62
   120
370
     5
100
AcDbLine
 10
-662.3402727002351
 20
682.1991385118209
 30
0.0
 11
-412.3402727002272
 21
932.1991385118284
 31
0.0
  0
LINE
  5
C2
330
1F
100
AcDbEntity
  8
0-0
  6
JWW_DASHED1
 62
   120
370
     5
100
AcDbLine
 10
-662.3402727002446
 20
675.1280706985265
 30
0.0
 11
-412.3402727002545
 21
925.1280706985157
 31
0.0
  0
LINE
  5
C3
330
1F
100
AcDbEntity
  8
0-0
  6
JWW_DASHED1
 62
   120
370
     5
100
AcDbLine
 10
-662.3402727002403
 20
668.0570028852449
 30
0.0
 11
-412.3402727002511
 21
918.0570028852345
 31
0.0
  0
LINE
  5
C4
330
1F
100
AcDbEntity
  8
0-0
  6
JWW_DASHED1
 62
   120
370
     5
100
AcDbLine
 10
-662.3402727002394
 20
660.9859350719606
 30
0.0
 11
-412.3402727002477
 21
910.9859350719524
 31
0.0
  0
LINE
  5
C5
330
1F
100
AcDbEntity
  8
0-0
  6
JWW_DASHED1
 62
   120
370
     5
100
AcDbLine
 10
-662.3402727002351
 20
653.9148672586795
 30
0.0
 11
-412.3402727002434
 21
903.9148672586706
 31
0.0
  0
LINE
  5
C6
330
1F
100
AcDbEntity
  8
0-0
  6
JWW_DASHED1
 62
   120
370
     5
100
AcDbLine
 10
-662.3402727002309
 20
646.8437994453977
 30
0.0
 11
-412.3402727002392
 21
896.8437994453895
 31
0.0
  0
LINE
  5
C7
330
1F
100
AcDbEntity
  8
0-0
  6
JWW_DASHED1
 62
   120
370
     5
100
AcDbLine
 10
-662.3402727002428
 20
639.7727316321008
 30
0.0
 11
-412.3402727002357
 21
889.7727316321079
 31
0.0
  0
LINE
  5
C8
330
1F
100
AcDbEntity
  8
0-0
  6
JWW_DASHED1
 62
   120
370
     5
100
AcDbLine
 10
-322.3402727002349
 20
972.7016638188774
 30
0.0
 11
-319.0515284978366
 21
975.9904080212752
 31
0.0
  0
LINE
  5
C9
330
1F
100
AcDbEntity
  8
0-0
  6
JWW_DASHED1
 62
   120
370
     5
100
AcDbLine
 10
-662.3402727002343
 20
632.7016638188779
 30
0.0
 11
-412.3402727002272
 21
882.7016638188855
 31
0.0
  0
LINE
  5
CA
330
1F
100
AcDbEntity
  8
0-0
  6
JWW_DASHED1
 62
   120
370
     5
100
AcDbLine
 10
-322.3402727002468
 20
965.63059600558
 30
0.0
 11
-311.9804606845392
 21
975.9904080212872
 31
0.0
  0
LINE
  5
CB
330
1F
100
AcDbEntity
  8
0-0
  6
JWW_DASHED1
 62
   120
370
     5
100
AcDbLine
 10
-662.3402727002438
 20
625.6305960055836
 30
0.0
 11
-412.3402727002536
 21
875.630596005573
 31
0.0
  0
LINE
  5
CC
330
1F
100
AcDbEntity
  8
0-0
  6
JWW_DASHED1
 62
   120
370
     5
100
AcDbLine
 10
-322.3402727002426
 20
958.5595281922988
 30
0.0
 11
-304.909392871258
 21
975.9904080212833
 31
0.0
  0
LINE
  5
CD
330
1F
100
AcDbEntity
  8
0-0
  6
JWW_DASHED1
 62
   120
370
     5
100
AcDbLine
 10
-662.3402727002385
 20
618.5595281923023
 30
0.0
 11
-412.3402727002494
 21
868.559528192292
 31
0.0
  0
LINE
  5
CE
330
1F
100
AcDbEntity
  8
0-0
  6
JWW_DASHED1
 62
   120
370
     5
100
AcDbLine
 10
-322.3402727002392
 20
951.4884603790172
 30
0.0
 11
-297.8383250579759
 21
975.9904080212799
 31
0.0
  0
LINE
  5
CF
330
1F
100
AcDbEntity
  8
0-0
  6
JWW_DASHED1
 62
   120
370
     5
100
AcDbLine
 10
-662.3402727002385
 20
611.4884603790177
 30
0.0
 11
-412.340272700246
 21
861.4884603790094
 31
0.0
  0
LINE
  5
D0
330
1F
100
AcDbEntity
  8
0-0
  6
JWW_DASHED1
 62
   120
370
     5
100
AcDbLine
 10
-322.3402727002349
 20
944.4173925657353
 30
0.0
 11
-290.7672572446947
 21
975.9904080212762
 31
0.0
  0
LINE
  5
D1
330
1F
100
AcDbEntity
  8
0-0
  6
JWW_DASHED1
 62
   120
370
     5
100
AcDbLine
 10
-662.3402727002335
 20
604.4173925657369
 30
0.0
 11
-412.3402727002426
 21
854.4173925657278
 31
0.0
  0
LINE
  5
D2
330
1F
100
AcDbEntity
  8
0-0
  6
JWW_DASHED1
 62
   120
370
     5
100
AcDbLine
 10
-322.3402727002468
 20
937.3463247524379
 30
0.0
 11
-283.696189431399
 21
975.9904080212855
 31
0.0
  0
LINE
  5
D3
330
1F
100
AcDbEntity
  8
0-0
  6
JWW_DASHED1
 62
   120
370
     5
100
AcDbLine
 10
-662.3402727002301
 20
597.3463247524548
 30
0.0
 11
-412.3402727002383
 21
847.3463247524464
 31
0.0
  0
LINE
  5
D4
330
1F
100
AcDbEntity
  8
0-0
  6
JWW_DASHED1
 62
   120
370
     5
100
AcDbLine
 10
-322.3402727002426
 20
930.2752569391569
 30
0.0
 11
-276.6251216181178
 21
975.9904080212816
 31
0.0
  0
LINE
  5
D5
330
1F
100
AcDbEntity
  8
0-0
  6
JWW_DASHED1
 62
   120
370
     5
100
AcDbLine
 10
-662.3402727002419
 20
590.2752569391579
 30
0.0
 11
-412.340272700234
 21
840.2752569391649
 31
0.0
  0
LINE
  5
D6
330
1F
100
AcDbEntity
  8
0-0
  6
JWW_DASHED1
 62
   120
370
     5
100
AcDbLine
 10
-322.3402727002392
 20
923.2041891258752
 30
0.0
 11
-269.5540538048331
 21
975.9904080212808
 31
0.0
  0
LINE
  5
D7
330
1F
100
AcDbEntity
  8
0-0
  6
JWW_DASHED1
 62
   120
370
     5
100
AcDbLine
 10
-662.3402727002377
 20
583.2041891258762
 30
0.0
 11
-412.3402727002306
 21
833.2041891258838
 31
0.0
  0
LINE
  5
D8
330
1F
100
AcDbEntity
  8
0-0
  6
JWW_DASHED1
 62
   120
370
     5
100
AcDbLine
 10
-322.3402727002349
 20
916.1331213125934
 30
0.0
 11
-262.4829859915511
 21
975.990408021277
 31
0.0
  0
LINE
  5
D9
330
1F
100
AcDbEntity
  8
0-0
  6
JWW_DASHED1
 62
   120
370
     5
100
AcDbLine
 10
-662.3402727002343
 20
576.1331213125945
 30
0.0
 11
-412.3402727002426
 21
826.1331213125864
 31
0.0
  0
LINE
  5
DA
330
1F
100
AcDbEntity
  8
0-0
  6
JWW_DASHED1
 62
   120
370
     5
100
AcDbLine
 10
-322.3402727002417
 20
909.0620534993557
 30
0.0
 11
-255.4119181783133
 21
975.9904080212847
 31
0.0
  0
LINE
  5
DB
330
1F
100
AcDbEntity
  8
0-0
  6
JWW_DASHED1
 62
   120
370
     5
100
AcDbLine
 10
-662.3402727002377
 20
569.0620534993598
 30
0.0
 11
-412.3402727002485
 21
819.0620534993494
 31
0.0
  0
LINE
  5
DC
330
1F
100
AcDbEntity
  8
0-0
  6
JWW_DASHED1
 62
   120
370
     5
100
AcDbLine
 10
-322.3402727002383
 20
901.9909856860742
 30
0.0
 11
-248.3408503650313
 21
975.9904080212808
 31
0.0
  0
LINE
  5
DD
330
1F
100
AcDbEntity
  8
0-0
  6
JWW_DASHED1
 62
   120
370
     5
100
AcDbLine
 10
-662.3402727002369
 20
561.9909856860747
 30
0.0
 11
-412.340272700246
 21
811.9909856860666
 31
0.0
  0
LINE
  5
DE
330
1F
100
AcDbEntity
  8
0-0
  6
JWW_DASHED1
 62
   120
370
     5
100
AcDbLine
 10
-322.340272700234
 20
894.9199178727926
 30
0.0
 11
-241.26978255175
 21
975.990408021277
 31
0.0
  0
LINE
  5
DF
330
1F
100
AcDbEntity
  8
0-0
  6
JWW_DASHED1
 62
   120
370
     5
100
AcDbLine
 10
-662.3402727002335
 20
554.9199178727939
 30
0.0
 11
-412.3402727002417
 21
804.9199178727847
 31
0.0
  0
LINE
  5
E0
330
1F
100
AcDbEntity
  8
0-0
  6
JWW_DASHED1
 62
   120
370
     5
100
AcDbLine
 10
-322.340272700246
 20
887.8488500594951
 30
0.0
 11
-234.1987147384577
 21
975.9904080212838
 31
0.0
  0
LINE
  5
E1
330
1F
100
AcDbEntity
  8
0-0
  6
JWW_DASHED1
 62
   120
370
     5
100
AcDbLine
 10
-662.3402727002454
 20
547.8488500594962
 30
0.0
 11
-412.3402727002374
 21
797.8488500595037
 31
0.0
  0
LINE
  5
E2
330
1F
100
AcDbEntity
  8
0-0
  6
JWW_DASHED1
 62
   120
370
     5
100
AcDbLine
 10
-322.3402727002417
 20
880.7777822462137
 30
0.0
 11
-227.1276469251765
 21
975.9904080212796
 31
0.0
  0
LINE
  5
E3
330
1F
100
AcDbEntity
  8
0-0
  6
JWW_DASHED1
 62
   120
370
     5
100
AcDbLine
 10
-662.3402727002411
 20
540.7777822462149
 30
0.0
 11
-412.340272700234
 21
790.777782246222
 31
0.0
  0
LINE
  5
E4
330
1F
100
AcDbEntity
  8
0-0
  6
JWW_DASHED1
 62
   120
370
     5
100
AcDbLine
 10
-322.3402727002374
 20
873.7067144329322
 30
0.0
 11
-220.0565791118885
 21
975.9904080212816
 31
0.0
  0
LINE
  5
E5
330
1F
100
AcDbEntity
  8
0-0
  6
JWW_DASHED1
 62
   120
370
     5
100
AcDbLine
 10
-662.3402727002369
 20
533.7067144329333
 30
0.0
 11
-412.3402727002298
 21
783.7067144329408
 31
0.0
  0
LINE
  5
E6
330
1F
100
AcDbEntity
  8
0-0
  6
JWW_DASHED1
 62
   120
370
     5
100
AcDbLine
 10
-322.340272700234
 20
866.6356466196506
 30
0.0
 11
-212.9855112986073
 21
975.9904080212779
 31
0.0
  0
LINE
  5
E7
330
1F
100
AcDbEntity
  8
0-0
  6
JWW_DASHED1
 62
   120
370
     5
100
AcDbLine
 10
-662.3402727002335
 20
526.6356466196517
 30
0.0
 11
-412.3402727002409
 21
776.6356466196434
 31
0.0
  0
LINE
  5
E8
330
1F
100
AcDbEntity
  8
0-0
  6
JWW_DASHED1
 62
   120
370
     5
100
AcDbLine
 10
-322.3402727002451
 20
859.5645788063545
 30
0.0
 11
-205.914443485309
 21
975.9904080212901
 31
0.0
  0
LINE
  5
E9
330
1F
100
AcDbEntity
  8
0-0
  6
JWW_DASHED1
 62
   120
370
     5
100
AcDbLine
 10
-662.3402727002411
 20
519.5645788063584
 30
0.0
 11
-412.3402727002511
 21
769.5645788063476
 31
0.0
  0
LINE
  5
EA
330
1F
100
AcDbEntity
  8
0-0
  6
JWW_DASHED1
 62
   120
370
     5
100
AcDbLine
 10
-322.3402727002409
 20
852.4935109930733
 30
0.0
 11
-198.8433756720278
 21
975.9904080212864
 31
0.0
  0
LINE
  5
EB
330
1F
100
AcDbEntity
  8
0-0
  6
JWW_DASHED1
 62
   120
370
     5
100
AcDbLine
 10
-662.3402727002369
 20
512.4935109930768
 30
0.0
 11
-412.3402727002477
 21
762.4935109930665
 31
0.0
  0
LINE
  5
EC
330
1F
100
AcDbEntity
  8
0-0
  6
JWW_DASHED1
 62
   120
370
     5
100
AcDbLine
 10
-322.3402727002494
 20
845.4224431798339
 30
0.0
 11
-191.7723078587969
 21
975.9904080212859
 31
0.0
  0
LINE
  5
ED
330
1F
100
AcDbEntity
  8
0-0
  6
JWW_DASHED1
 62
   120
370
     5
100
AcDbLine
 10
-662.3402727002326
 20
505.4224431798506
 30
0.0
 11
-412.3402727002409
 21
755.4224431798419
 31
0.0
  0
LINE
  5
EE
330
1F
100
AcDbEntity
  8
0-0
  6
JWW_DASHED1
 62
   120
370
     5
100
AcDbLine
 10
-322.3402727002451
 20
838.351375366552
 30
0.0
 11
-184.7012400455156
 21
975.9904080212816
 31
0.0
  0
LINE
  5
EF
330
1F
100
AcDbEntity
  8
0-0
  6
JWW_DASHED1
 62
   120
370
     5
100
AcDbLine
 10
-662.3402727002446
 20
498.3513753665532
 30
0.0
 11
-412.3402727002366
 21
748.3513753665607
 31
0.0
  0
LINE
  5
F0
330
1F
100
AcDbEntity
  8
0-0
  6
JWW_DASHED1
 62
   120
370
     5
100
AcDbLine
 10
-322.3402727002409
 20
831.280307553271
 30
0.0
 11
-177.6301722322344
 21
975.9904080212774
 31
0.0
  0
LINE
  5
F1
330
1F
100
AcDbEntity
  8
0-0
  6
JWW_DASHED1
 62
   120
370
     5
100
AcDbLine
 10
-662.3402727002403
 20
491.2803075532719
 30
0.0
 11
-412.3402727002332
 21
741.280307553279
 31
0.0
  0
LINE
  5
F2
330
1F
100
AcDbEntity
  8
0-0
  6
JWW_DASHED1
 62
   120
370
     5
100
AcDbLine
 10
-322.3402727002374
 20
824.2092397399894
 30
0.0
 11
-170.5591044189438
 21
975.990408021283
 31
0.0
  0
LINE
  5
F3
330
1F
100
AcDbEntity
  8
0-0
  6
JWW_DASHED1
 62
   120
370
     5
100
AcDbLine
 10
-662.340272700236
 20
484.2092397399903
 30
0.0
 11
-412.3402727002289
 21
734.2092397399974
 31
0.0
  0
LINE
  5
F4
330
1F
100
AcDbEntity
  8
0-0
  6
JWW_DASHED1
 62
   120
370
     5
100
AcDbLine
 10
-322.3402727002332
 20
817.1381719267075
 30
0.0
 11
-163.4880366056618
 21
975.9904080212791
 31
0.0
  0
LINE
  5
F5
330
1F
100
AcDbEntity
  8
0-0
  6
JWW_DASHED1
 62
   120
370
     5
100
AcDbLine
 10
-662.3402727002326
 20
477.1381719267087
 30
0.0
 11
-412.3402727002409
 21
727.1381719267005
 31
0.0
  0
LINE
  5
F6
330
1F
100
AcDbEntity
  8
0-0
  6
JWW_DASHED1
 62
   120
370
     5
100
AcDbLine
 10
-322.3402727002434
 20
810.0671041134118
 30
0.0
 11
-156.4169687923643
 21
975.990408021291
 31
0.0
  0
LINE
  5
F7
330
1F
100
AcDbEntity
  8
0-0
  6
JWW_DASHED1
 62
   120
370
     5
100
AcDbLine
 10
-662.3402727002394
 20
470.067104113416
 30
0.0
 11
-412.3402727002502
 21
720.0671041134051
 31
0.0
  0
LINE
  5
F8
330
1F
100
AcDbEntity
  8
0-0
  6
JWW_DASHED1
 62
   120
370
     5
100
AcDbLine
 10
-322.3402727002392
 20
802.9960363001308
 30
0.0
 11
-149.3459009790823
 21
975.9904080212872
 31
0.0
  0
LINE
  5
F9
330
1F
100
AcDbEntity
  8
0-0
  6
JWW_DASHED1
 62
   120
370
     5
100
AcDbLine
 10
-662.340272700236
 20
462.9960363001343
 30
0.0
 11
-412.340272700246
 21
712.9960363001239
 31
0.0
  0
LINE
  5
FA
330
1F
100
AcDbEntity
  8
0-0
  6
JWW_DASHED1
 62
   120
370
     5
100
AcDbLine
 10
-322.3402727002366
 20
795.9249684868477
 30
0.0
 11
-142.2748331658002
 21
975.9904080212838
 31
0.0
  0
LINE
  5
FB
330
1F
100
AcDbEntity
  8
0-0
  6
JWW_DASHED1
 62
   120
370
     5
100
AcDbLine
 10
-662.340272700236
 20
455.9249684868484
 30
0.0
 11
-412.3402727002443
 21
705.9249684868402
 31
0.0
  0
LINE
  5
FC
330
1F
100
AcDbEntity
  8
0-0
  6
JWW_DASHED1
 62
   120
370
     5
100
AcDbLine
 10
-322.3402727002485
 20
788.8539006735502
 30
0.0
 11
-135.2037653525156
 21
975.9904080212838
 31
0.0
  0
LINE
  5
FD
330
1F
100
AcDbEntity
  8
0-0
  6
JWW_DASHED1
 62
   120
370
     5
100
AcDbLine
 10
-662.3402727002317
 20
448.8539006735672
 30
0.0
 11
-412.34027270024
 21
698.8539006735589
 31
0.0
  0
LINE
  5
FE
330
1F
100
AcDbEntity
  8
0-0
  6
JWW_DASHED1
 62
   120
370
     5
100
AcDbLine
 10
-322.34027270024
 20
781.7828328603279
 30
0.0
 11
-128.1326975392923
 21
975.9904080212752
 31
0.0
  0
LINE
  5
FF
330
1F
100
AcDbEntity
  8
0-0
  6
JWW_DASHED1
 62
   120
370
     5
100
AcDbLine
 10
-662.3402727002394
 20
441.782832860329
 30
0.0
 11
-412.3402727002323
 21
691.7828328603362
 31
0.0
  0
LINE
  5
100
330
1F
100
AcDbEntity
  8
0-0
  6
JWW_DASHED1
 62
   120
370
     5
100
AcDbLine
 10
-322.3402727002366
 20
774.7117650470464
 30
0.0
 11
-121.0616297259983
 21
975.9904080212838
 31
0.0
  0
LINE
  5
101
330
1F
100
AcDbEntity
  8
0-0
  6
JWW_DASHED1
 62
   120
370
     5
100
AcDbLine
 10
-662.3402727002351
 20
434.7117650470474
 30
0.0
 11
-412.3402727002281
 21
684.7117650470544
 31
0.0
  0
LINE
  5
102
330
1F
100
AcDbEntity
  8
0-0
  6
JWW_DASHED1
 62
   120
370
     5
100
AcDbLine
 10
-322.340272700246
 20
767.6406972337511
 30
0.0
 11
-113.9905619127009
 21
975.9904080212957
 31
0.0
  0
LINE
  5
103
330
1F
100
AcDbEntity
  8
0-0
  6
JWW_DASHED1
 62
   120
370
     5
100
AcDbLine
 10
-662.3402727002419
 20
427.6406972337551
 30
0.0
 11
-412.3402727002528
 21
677.6406972337443
 31
0.0
  0
LINE
  5
104
330
1F
100
AcDbEntity
  8
0-0
  6
JWW_DASHED1
 62
   120
370
     5
100
AcDbLine
 10
-322.3402727002426
 20
760.5696294204695
 30
0.0
 11
-106.9194940994197
 21
975.9904080212923
 31
0.0
  0
LINE
  5
105
330
1F
100
AcDbEntity
  8
0-0
  6
JWW_DASHED1
 62
   120
370
     5
100
AcDbLine
 10
-662.3402727002385
 20
420.569629420473
 30
0.0
 11
-412.3402727002494
 21
670.5696294204627
 31
0.0
  0
LINE
  5
106
330
1F
100
AcDbEntity
  8
0-0
  6
JWW_DASHED1
 62
   120
370
     5
100
AcDbLine
 10
-322.34027270024
 20
753.498561607186
 30
0.0
 11
-99.84842628613762
 21
975.9904080212884
 31
0.0
  0
LINE
  5
107
330
1F
100
AcDbEntity
  8
0-0
  6
JWW_DASHED1
 62
   120
370
     5
100
AcDbLine
 10
-662.3402727002385
 20
413.4985616071871
 30
0.0
 11
-412.3402727002477
 21
663.4985616071789
 31
0.0
  0
LINE
  5
108
330
1F
100
AcDbEntity
  8
0-0
  6
JWW_DASHED1
 62
   120
370
     5
100
AcDbLine
 10
-322.3402727002357
 20
746.4274937939049
 30
0.0
 11
-92.7773584728564
 21
975.9904080212847
 31
0.0
  0
LINE
  5
109
330
1F
100
AcDbEntity
  8
0-0
  6
JWW_DASHED1
 62
   120
370
     5
100
AcDbLine
 10
-662.3402727002351
 20
406.4274937939055
 30
0.0
 11
-412.3402727002434
 21
656.4274937938972
 31
0.0
  0
LINE
  5
10A
330
1F
100
AcDbEntity
  8
0-0
  6
JWW_DASHED1
 62
   120
370
     5
100
AcDbLine
 10
-322.3402727002477
 20
739.3564259806075
 30
0.0
 11
-85.70629065957348
 21
975.9904080212816
 31
0.0
  0
LINE
  5
10B
330
1F
100
AcDbEntity
  8
0-0
  6
JWW_DASHED1
 62
   120
370
     5
100
AcDbLine
 10
-662.3402727002309
 20
399.3564259806242
 30
0.0
 11
-412.3402727002392
 21
649.356425980616
 31
0.0
  0
LINE
  5
10C
330
1F
100
AcDbEntity
  8
0-0
  6
JWW_DASHED1
 62
   120
370
     5
100
AcDbLine
 10
-322.3402727002434
 20
732.2853581673262
 30
0.0
 11
-78.63522284629227
 21
975.9904080212774
 31
0.0
  0
LINE
  5
10D
330
1F
100
AcDbEntity
  8
0-0
  6
JWW_DASHED1
 62
   120
370
     5
100
AcDbLine
 10
-662.3402727002428
 20
392.2853581673268
 30
0.0
 11
-412.3402727002357
 21
642.2853581673344
 31
0.0
  0
LINE
  5
10E
330
1F
100
AcDbEntity
  8
0-0
  6
JWW_DASHED1
 62
   120
370
     5
100
AcDbLine
 10
-322.34027270024
 20
725.2142903540446
 30
0.0
 11
-72.34027270023205
 21
975.2142903540521
 31
0.0
  0
LINE
  5
10F
330
1F
100
AcDbEntity
  8
0-0
  6
JWW_DASHED1
 62
   120
370
     5
100
AcDbLine
 10
-662.3402727002385
 20
385.2142903540456
 30
0.0
 11
-412.3402727002315
 21
635.2142903540527
 31
0.0
  0
LINE
  5
110
330
1F
100
AcDbEntity
  8
0-0
  6
JWW_DASHED1
 62
   120
370
     5
100
AcDbLine
 10
-322.3402727002451
 20
718.1432225408081
 30
0.0
 11
-72.34027270025507
 21
968.1432225407978
 31
0.0
  0
LINE
  5
111
330
1F
100
AcDbEntity
  8
0-0
  6
JWW_DASHED1
 62
   120
370
     5
100
AcDbLine
 10
-662.3402727002411
 20
378.1432225408121
 30
0.0
 11
-412.3402727002519
 21
628.1432225408017
 31
0.0
  0
LINE
  5
112
330
1F
100
AcDbEntity
  8
0-0
  6
JWW_DASHED1
 62
   120
370
     5
100
AcDbLine
 10
-322.3402727002409
 20
711.0721547275269
 30
0.0
 11
-72.34027270025166
 21
961.0721547275166
 31
0.0
  0
LINE
  5
113
330
1F
100
AcDbEntity
  8
0-0
  6
JWW_DASHED1
 62
   120
370
     5
100
AcDbLine
 10
-662.3402727002369
 20
371.0721547275309
 30
0.0
 11
-412.3402727002477
 21
621.0721547275201
 31
0.0
  0
LINE
  5
114
330
1F
100
AcDbEntity
  8
0-0
  6
JWW_DASHED1
 62
   120
370
     5
100
AcDbLine
 10
-322.3402727002392
 20
704.0010869142432
 30
0.0
 11
-72.3402727002474
 21
954.0010869142347
 31
0.0
  0
LINE
  5
115
330
1F
100
AcDbEntity
  8
0-0
  6
JWW_DASHED1
 62
   120
370
     5
100
AcDbLine
 10
-662.3402727002385
 20
364.0010869142441
 30
0.0
 11
-412.3402727002468
 21
614.0010869142359
 31
0.0
  0
LINE
  5
116
330
1F
100
AcDbEntity
  8
0-0
  6
JWW_DASHED1
 62
   120
370
     5
100
AcDbLine
 10
-322.3402727002349
 20
696.9300191009619
 30
0.0
 11
-72.34027270024313
 21
946.9300191009532
 31
0.0
  0
LINE
  5
117
330
1F
100
AcDbEntity
  8
0-0
  6
JWW_DASHED1
 62
   120
370
     5
100
AcDbLine
 10
-662.3402727002343
 20
356.9300191009625
 30
0.0
 11
-412.3402727002426
 21
606.9300191009543
 31
0.0
  0
LINE
  5
118
330
1F
100
AcDbEntity
  8
0-0
  6
JWW_DASHED1
 62
   120
370
     5
100
AcDbLine
 10
-322.3402727002468
 20
689.8589512876645
 30
0.0
 11
-72.34027270023972
 21
939.8589512876721
 31
0.0
  0
LINE
  5
119
330
1F
100
AcDbEntity
  8
0-0
  6
JWW_DASHED1
 62
   120
370
     5
100
AcDbLine
 10
-662.3402727002454
 20
349.8589512876659
 30
0.0
 11
-412.3402727002392
 21
599.8589512876727
 31
0.0
  0
LINE
  5
11A
330
1F
100
AcDbEntity
  8
0-0
  6
JWW_DASHED1
 62
   120
370
     5
100
AcDbLine
 10
-322.3402727002426
 20
682.7878834743829
 30
0.0
 11
-72.34027270023546
 21
932.7878834743902
 31
0.0
  0
LINE
  5
11B
330
1F
100
AcDbEntity
  8
0-0
  6
JWW_DASHED1
 62
   120
370
     5
100
AcDbLine
 10
-662.3402727002419
 20
342.7878834743839
 30
0.0
 11
-412.3402727002349
 21
592.7878834743914
 31
0.0
  0
LINE
  5
11C
330
1F
100
AcDbEntity
  8
0-0
  6
JWW_DASHED1
 62
   120
370
     5
100
AcDbLine
 10
-322.3402727002392
 20
675.7168156611012
 30
0.0
 11
-72.3402727002474
 21
925.7168156610928
 31
0.0
  0
LINE
  5
11D
330
1F
100
AcDbEntity
  8
0-0
  6
JWW_DASHED1
 62
   120
370
     5
100
AcDbLine
 10
-662.3402727002377
 20
335.7168156611027
 30
0.0
 11
-412.3402727002306
 21
585.7168156611098
 31
0.0
  0
LINE
  5
11E
330
1F
100
AcDbEntity
  8
0-0
  6
JWW_DASHED1
 62
   120
370
     5
100
AcDbLine
 10
-322.3402727002349
 20
668.64574784782
 30
0.0
 11
-72.34027270024313
 21
918.6457478478118
 31
0.0
  0
LINE
  5
11F
330
1F
100
AcDbEntity
  8
0-0
  6
JWW_DASHED1
 62
   120
370
     5
100
AcDbLine
 10
-662.3402727002335
 20
328.6457478478214
 30
0.0
 11
-412.3402727002426
 21
578.6457478478123
 31
0.0
  0
LINE
  5
120
330
1F
100
AcDbEntity
  8
0-0
  6
JWW_DASHED1
 62
   120
370
     5
100
AcDbLine
 10
-322.3402727002443
 20
661.5746800345256
 30
0.0
 11
-72.34027270025507
 21
911.5746800345148
 31
0.0
  0
LINE
  5
121
330
1F
100
AcDbEntity
  8
0-0
  6
JWW_DASHED1
 62
   120
370
     5
100
AcDbLine
 10
-662.3402727002403
 20
321.5746800345291
 30
0.0
 11
-412.3402727002511
 21
571.5746800345188
 31
0.0
  0
LINE
  5
122
330
1F
100
AcDbEntity
  8
0-0
  6
JWW_DASHED1
 62
   120
370
     5
100
AcDbLine
 10
-322.34027270024
 20
654.5036122212439
 30
0.0
 11
-72.34027270024995
 21
904.5036122212335
 31
0.0
  0
LINE
  5
123
330
1F
100
AcDbEntity
  8
0-0
  6
JWW_DASHED1
 62
   120
370
     5
100
AcDbLine
 10
-662.340272700236
 20
314.5036122212479
 30
0.0
 11
-412.3402727002468
 21
564.5036122212371
 31
0.0
  0
LINE
  5
124
330
1F
100
AcDbEntity
  8
0-0
  6
JWW_DASHED1
 62
   120
370
     5
100
AcDbLine
 10
-322.3402727002502
 20
647.4325444080032
 30
0.0
 11
-72.34027270024228
 21
897.4325444080104
 31
0.0
  0
LINE
  5
125
330
1F
100
AcDbEntity
  8
0-0
  6
JWW_DASHED1
 62
   120
370
     5
100
AcDbLine
 10
-662.3402727002335
 20
307.4325444080196
 30
0.0
 11
-412.3402727002417
 21
557.4325444080113
 31
0.0
  0
LINE
  5
126
330
1F
100
AcDbEntity
  8
0-0
  6
JWW_DASHED1
 62
   120
370
     5
100
AcDbLine
 10
-322.340272700246
 20
640.3614765947216
 30
0.0
 11
-72.34027270023887
 21
890.3614765947285
 31
0.0
  0
LINE
  5
127
330
1F
100
AcDbEntity
  8
0-0
  6
JWW_DASHED1
 62
   120
370
     5
100
AcDbLine
 10
-662.3402727002454
 20
300.3614765947221
 30
0.0
 11
-412.3402727002383
 21
550.3614765947297
 31
0.0
  0
LINE
  5
128
330
1F
100
AcDbEntity
  8
0-0
  6
JWW_DASHED1
 62
   120
370
     5
100
AcDbLine
 10
-322.3402727002426
 20
633.29040878144
 30
0.0
 11
-72.3402727002346
 21
883.2904087814475
 31
0.0
  0
LINE
  5
129
330
1F
100
AcDbEntity
  8
0-0
  6
JWW_DASHED1
 62
   120
370
     5
100
AcDbLine
 10
-662.3402727002411
 20
293.2904087814409
 30
0.0
 11
-412.340272700234
 21
543.2904087814485
 31
0.0
  0
LINE
  5
12A
330
1F
100
AcDbEntity
  8
0-0
  6
JWW_DASHED1
 62
   120
370
     5
100
AcDbLine
 10
-322.3402727002383
 20
626.2193409681587
 30
0.0
 11
-72.34027270024654
 21
876.21934096815
 31
0.0
  0
LINE
  5
12B
330
1F
100
AcDbEntity
  8
0-0
  6
JWW_DASHED1
 62
   120
370
     5
100
AcDbLine
 10
-662.3402727002369
 20
286.2193409681597
 30
0.0
 11
-412.3402727002298
 21
536.2193409681668
 31
0.0
  0
LINE
  5
12C
330
1F
100
AcDbEntity
  8
0-0
  6
JWW_DASHED1
 62
   120
370
     5
100
AcDbLine
 10
-322.340272700234
 20
619.1482731548771
 30
0.0
 11
-72.34027270024228
 21
869.1482731548687
 31
0.0
  0
LINE
  5
12D
330
1F
100
AcDbEntity
  8
0-0
  6
JWW_DASHED1
 62
   120
370
     5
100
AcDbLine
 10
-662.3402727002335
 20
279.1482731548785
 30
0.0
 11
-412.3402727002417
 21
529.1482731548698
 31
0.0
  0
LINE
  5
12E
330
1F
100
AcDbEntity
  8
0-0
  6
JWW_DASHED1
 62
   120
370
     5
100
AcDbLine
 10
-322.3402727002426
 20
612.0772053415831
 30
0.0
 11
-72.34027270025337
 21
862.0772053415723
 31
0.0
  0
LINE
  5
12F
330
1F
100
AcDbEntity
  8
0-0
  6
JWW_DASHED1
 62
   120
370
     5
100
AcDbLine
 10
-662.3402727002385
 20
272.0772053415866
 30
0.0
 11
-412.3402727002494
 21
522.0772053415762
 31
0.0
  0
LINE
  5
130
330
1F
100
AcDbEntity
  8
0-0
  6
JWW_DASHED1
 62
   120
370
     5
100
AcDbLine
 10
-322.3402727002392
 20
605.0061375283015
 30
0.0
 11
-72.3402727002491
 21
855.0061375282909
 31
0.0
  0
LINE
  5
131
330
1F
100
AcDbEntity
  8
0-0
  6
JWW_DASHED1
 62
   120
370
     5
100
AcDbLine
 10
-662.3402727002351
 20
265.0061375283054
 30
0.0
 11
-412.340272700246
 21
515.0061375282946
 31
0.0
  0
LINE
  5
132
330
1F
100
AcDbEntity
  8
0-0
  6
JWW_DASHED1
 62
   120
370
     5
100
AcDbLine
 10
-322.3402727002374
 20
597.9350697150172
 30
0.0
 11
-72.34027270024654
 21
847.9350697150086
 31
0.0
  0
LINE
  5
133
330
1F
100
AcDbEntity
  8
0-0
  6
JWW_DASHED1
 62
   120
370
     5
100
AcDbLine
 10
-662.3402727002369
 20
257.9350697150178
 30
0.0
 11
-412.3402727002451
 21
507.9350697150095
 31
0.0
  0
LINE
  5
134
330
1F
100
AcDbEntity
  8
0-0
  6
JWW_DASHED1
 62
   120
370
     5
100
AcDbLine
 10
-322.3402727002494
 20
590.8640019017198
 30
0.0
 11
-72.34027270024228
 21
840.8640019017267
 31
0.0
  0
LINE
  5
135
330
1F
100
AcDbEntity
  8
0-0
  6
JWW_DASHED1
 62
   120
370
     5
100
AcDbLine
 10
-662.3402727002326
 20
250.8640019017366
 30
0.0
 11
-412.3402727002409
 21
500.8640019017279
 31
0.0
  0
LINE
  5
136
330
1F
100
AcDbEntity
  8
0-0
  6
JWW_DASHED1
 62
   120
370
     5
100
AcDbLine
 10
-322.3402727002409
 20
583.792934088497
 30
0.0
 11
-72.34027270023375
 21
833.7929340885044
 31
0.0
  0
LINE
  5
137
330
1F
100
AcDbEntity
  8
0-0
  6
JWW_DASHED1
 62
   120
370
     5
100
AcDbLine
 10
-662.3402727002403
 20
243.792934088498
 30
0.0
 11
-412.3402727002332
 21
493.7929340885055
 31
0.0
  0
LINE
  5
138
330
1F
100
AcDbEntity
  8
0-0
  6
JWW_DASHED1
 62
   120
370
     5
100
AcDbLine
 10
-322.3402727002374
 20
576.7218662752158
 30
0.0
 11
-72.34027270024569
 21
826.7218662752069
 31
0.0
  0
LINE
  5
139
330
1F
100
AcDbEntity
  8
0-0
  6
JWW_DASHED1
 62
   120
370
     5
100
AcDbLine
 10
-662.3402727002369
 20
236.7218662752168
 30
0.0
 11
-412.3402727002289
 21
486.7218662752239
 31
0.0
  0
LINE
  5
13A
330
1F
100
AcDbEntity
  8
0-0
  6
JWW_DASHED1
 62
   120
370
     5
100
AcDbLine
 10
-322.340272700246
 20
569.6507984619218
 30
0.0
 11
-72.34027270025592
 21
819.6507984619112
 31
0.0
  0
LINE
  5
13B
330
1F
100
AcDbEntity
  8
0-0
  6
JWW_DASHED1
 62
   120
370
     5
100
AcDbLine
 10
-662.3402727002419
 20
229.6507984619253
 30
0.0
 11
-412.3402727002528
 21
479.6507984619149
 31
0.0
  0
LINE
  5
13C
330
1F
100
AcDbEntity
  8
0-0
  6
JWW_DASHED1
 62
   120
370
     5
100
AcDbLine
 10
-322.3402727002417
 20
562.5797306486405
 30
0.0
 11
-72.34027270025166
 21
812.5797306486297
 31
0.0
  0
LINE
  5
13D
330
1F
100
AcDbEntity
  8
0-0
  6
JWW_DASHED1
 62
   120
370
     5
100
AcDbLine
 10
-662.3402727002377
 20
222.5797306486441
 30
0.0
 11
-412.3402727002485
 21
472.5797306486333
 31
0.0
  0
LINE
  5
13E
330
1F
100
AcDbEntity
  8
0-0
  6
JWW_DASHED1
 62
   120
370
     5
100
AcDbLine
 10
-322.3402727002409
 20
555.5086628353555
 30
0.0
 11
-72.34027270024995
 21
805.5086628353469
 31
0.0
  0
LINE
  5
13F
330
1F
100
AcDbEntity
  8
0-0
  6
JWW_DASHED1
 62
   120
370
     5
100
AcDbLine
 10
-662.3402727002403
 20
215.5086628353565
 30
0.0
 11
-412.3402727002485
 21
465.5086628353478
 31
0.0
  0
LINE
  5
140
330
1F
100
AcDbEntity
  8
0-0
  6
JWW_DASHED1
 62
   120
370
     5
100
AcDbLine
 10
-322.3402727002374
 20
548.4375950220739
 30
0.0
 11
-72.34027270024484
 21
798.4375950220656
 31
0.0
  0
LINE
  5
141
330
1F
100
AcDbEntity
  8
0-0
  6
JWW_DASHED1
 62
   120
370
     5
100
AcDbLine
 10
-662.340272700236
 20
208.4375950220748
 30
0.0
 11
-412.3402727002443
 21
458.4375950220666
 31
0.0
  0
LINE
  5
142
330
1F
100
AcDbEntity
  8
0-0
  6
JWW_DASHED1
 62
   120
370
     5
100
AcDbLine
 10
-322.3402727002485
 20
541.3665272087768
 30
0.0
 11
-72.34027270024143
 21
791.366527208784
 31
0.0
  0
LINE
  5
143
330
1F
100
AcDbEntity
  8
0-0
  6
JWW_DASHED1
 62
   120
370
     5
100
AcDbLine
 10
-662.3402727002326
 20
201.3665272087932
 30
0.0
 11
-412.3402727002409
 21
451.3665272087849
 31
0.0
  0
LINE
  5
144
330
1F
100
AcDbEntity
  8
0-0
  6
JWW_DASHED1
 62
   120
370
     5
100
AcDbLine
 10
-322.3402727002451
 20
534.2954593954952
 30
0.0
 11
-72.34027270023716
 21
784.2954593955026
 31
0.0
  0
LINE
  5
145
330
1F
100
AcDbEntity
  8
0-0
  6
JWW_DASHED1
 62
   120
370
     5
100
AcDbLine
 10
-662.3402727002438
 20
194.2954593954962
 30
0.0
 11
-412.3402727002366
 21
444.2954593955033
 31
0.0
  0
LINE
  5
146
330
1F
100
AcDbEntity
  8
0-0
  6
JWW_DASHED1
 62
   120
370
     5
100
AcDbLine
 10
-322.3402727002409
 20
527.224391582214
 30
0.0
 11
-72.3402727002329
 21
777.2243915822211
 31
0.0
  0
LINE
  5
147
330
1F
100
AcDbEntity
  8
0-0
  6
JWW_DASHED1
 62
   120
370
     5
100
AcDbLine
 10
-662.3402727002403
 20
187.224391582215
 30
0.0
 11
-412.3402727002323
 21
437.2243915822221
 31
0.0
  0
LINE
  5
148
330
1F
100
AcDbEntity
  8
0-0
  6
JWW_DASHED1
 62
   120
370
     5
100
AcDbLine
 10
-322.3402727002443
 20
520.1533237689792
 30
0.0
 11
-72.34027270025507
 21
770.1533237689689
 31
0.0
  0
LINE
  5
149
330
1F
100
AcDbEntity
  8
0-0
  6
JWW_DASHED1
 62
   120
370
     5
100
AcDbLine
 10
-662.3402727002403
 20
180.1533237689832
 30
0.0
 11
-412.3402727002511
 21
430.1533237689724
 31
0.0
  0
LINE
  5
14A
330
1F
100
AcDbEntity
  8
0-0
  6
JWW_DASHED1
 62
   120
370
     5
100
AcDbLine
 10
-322.3402727002409
 20
513.0822559556976
 30
0.0
 11
-72.34027270025081
 21
763.0822559556872
 31
0.0
  0
LINE
  5
14B
330
1F
100
AcDbEntity
  8
0-0
  6
JWW_DASHED1
 62
   120
370
     5
100
AcDbLine
 10
-662.3402727002369
 20
173.082255955702
 30
0.0
 11
-412.3402727002468
 21
423.0822559556912
 31
0.0
  0
LINE
  5
14C
330
1F
100
AcDbEntity
  8
0-0
  6
JWW_DASHED1
 62
   120
370
     5
100
AcDbLine
 10
-322.34027270024
 20
506.0111881424125
 30
0.0
 11
-72.34027270024825
 21
756.0111881424039
 31
0.0
  0
LINE
  5
14D
330
1F
100
AcDbEntity
  8
0-0
  6
JWW_DASHED1
 62
   120
370
     5
100
AcDbLine
 10
-662.3402727002394
 20
166.0111881424131
 30
0.0
 11
-412.3402727002477
 21
416.0111881424049
 31
0.0
  0
LINE
  5
14E
330
1F
100
AcDbEntity
  8
0-0
  6
JWW_DASHED1
 62
   120
370
     5
100
AcDbLine
 10
-322.3402727002366
 20
498.9401203291309
 30
0.0
 11
-72.34027270024484
 21
748.9401203291227
 31
0.0
  0
LINE
  5
14F
330
1F
100
AcDbEntity
  8
0-0
  6
JWW_DASHED1
 62
   120
370
     5
100
AcDbLine
 10
-662.3402727002351
 20
158.9401203291319
 30
0.0
 11
-412.3402727002434
 21
408.9401203291237
 31
0.0
  0
LINE
  5
150
330
1F
100
AcDbEntity
  8
0-0
  6
JWW_DASHED1
 62
   120
370
     5
100
AcDbLine
 10
-322.3402727002477
 20
491.8690525158339
 30
0.0
 11
-72.34027270024058
 21
741.869052515841
 31
0.0
  0
LINE
  5
151
330
1F
100
AcDbEntity
  8
0-0
  6
JWW_DASHED1
 62
   120
370
     5
100
AcDbLine
 10
-662.3402727002317
 20
151.8690525158502
 30
0.0
 11
-412.3402727002392
 21
401.869052515842
 31
0.0
  0
LINE
  5
152
330
1F
100
AcDbEntity
  8
0-0
  6
JWW_DASHED1
 62
   120
370
     5
100
AcDbLine
 10
-322.3402727002443
 20
484.7979847025522
 30
0.0
 11
-72.34027270023631
 21
734.7979847025598
 31
0.0
  0
LINE
  5
153
330
1F
100
AcDbEntity
  8
0-0
  6
JWW_DASHED1
 62
   120
370
     5
100
AcDbLine
 10
-662.3402727002428
 20
144.7979847025533
 30
0.0
 11
-412.3402727002357
 21
394.7979847025604
 31
0.0
  0
LINE
  5
154
330
1F
100
AcDbEntity
  8
0-0
  6
JWW_DASHED1
 62
   120
370
     5
100
AcDbLine
 10
-322.34027270024
 20
477.7269168892706
 30
0.0
 11
-72.34027270024825
 21
727.7269168892624
 31
0.0
  0
LINE
  5
155
330
1F
100
AcDbEntity
  8
0-0
  6
JWW_DASHED1
 62
   120
370
     5
100
AcDbLine
 10
-662.3402727002385
 20
137.726916889272
 30
0.0
 11
-412.3402727002315
 21
387.7269168892792
 31
0.0
  0
LINE
  5
156
330
1F
100
AcDbEntity
  8
0-0
  6
JWW_DASHED1
 62
   120
370
     5
100
AcDbLine
 10
-322.3402727002357
 20
470.6558490759894
 30
0.0
 11
-72.34027270024484
 21
720.6558490759808
 31
0.0
  0
LINE
  5
157
330
1F
100
AcDbEntity
  8
0-0
  6
JWW_DASHED1
 62
   120
370
     5
100
AcDbLine
 10
-662.3402727002351
 20
130.65584907599
 30
0.0
 11
-412.3402727002434
 21
380.6558490759817
 31
0.0
  0
LINE
  5
158
330
1F
100
AcDbEntity
  8
0-0
  6
JWW_DASHED1
 62
   120
370
     5
100
AcDbLine
 10
-322.3402727002434
 20
463.5847812626963
 30
0.0
 11
-72.34027270025422
 21
713.5847812626859
 31
0.0
  0
LINE
  5
159
330
1F
100
AcDbEntity
  8
0-0
  6
JWW_DASHED1
 62
   120
370
     5
100
AcDbLine
 10
-662.3402727002394
 20
123.5847812627002
 30
0.0
 11
-412.3402727002502
 21
373.5847812626894
 31
0.0
  0
LINE
  5
15A
330
1F
100
AcDbEntity
  8
0-0
  6
JWW_DASHED1
 62
   120
370
     5
100
AcDbLine
 10
-322.3402727002392
 20
456.5137134494696
 30
0.0
 11
-72.34027270024825
 21
706.513713449461
 31
0.0
  0
LINE
  5
15B
330
1F
100
AcDbEntity
  8
0-0
  6
JWW_DASHED1
 62
   120
370
     5
100
AcDbLine
 10
-662.3402727002385
 20
116.5137134494702
 30
0.0
 11
-412.3402727002468
 21
366.5137134494619
 31
0.0
  0
LINE
  5
15C
330
1F
100
AcDbEntity
  8
0-0
  6
JWW_DASHED1
 62
   120
370
     5
100
AcDbLine
 10
-322.3402727002511
 20
449.4426456361722
 30
0.0
 11
-72.34027270024313
 21
699.4426456361797
 31
0.0
  0
LINE
  5
15D
330
1F
100
AcDbEntity
  8
0-0
  6
JWW_DASHED1
 62
   120
370
     5
100
AcDbLine
 10
-662.3402727002343
 20
109.4426456361889
 30
0.0
 11
-412.3402727002426
 21
359.4426456361807
 31
0.0
  0
LINE
  5
15E
330
1F
100
AcDbEntity
  8
0-0
  6
JWW_DASHED1
 62
   120
370
     5
100
AcDbLine
 10
-322.3402727002468
 20
442.371577822891
 30
0.0
 11
-72.34027270023972
 21
692.3715778228981
 31
0.0
  0
LINE
  5
15F
330
1F
100
AcDbEntity
  8
0-0
  6
JWW_DASHED1
 62
   120
370
     5
100
AcDbLine
 10
-662.3402727002463
 20
102.3715778228915
 30
0.0
 11
-412.3402727002392
 21
352.371577822899
 31
0.0
  0
LINE
  5
160
330
1F
100
AcDbEntity
  8
0-0
  6
JWW_DASHED1
 62
   120
370
     5
100
AcDbLine
 10
-322.3402727002426
 20
435.3005100096093
 30
0.0
 11
-72.34027270023546
 21
685.3005100096168
 31
0.0
  0
LINE
  5
161
330
1F
100
AcDbEntity
  8
0-0
  6
JWW_DASHED1
 62
   120
370
     5
100
AcDbLine
 10
-662.3402727002419
 20
95.3005100096103
 30
0.0
 11
-412.3402727002349
 21
345.3005100096174
 31
0.0
  0
LINE
  5
162
330
1F
100
AcDbEntity
  8
0-0
  6
JWW_DASHED1
 62
   120
370
     5
100
AcDbLine
 10
-322.3402727002392
 20
428.2294421963277
 30
0.0
 11
-72.3402727002474
 21
678.2294421963194
 31
0.0
  0
LINE
  5
163
330
1F
100
AcDbEntity
  8
0-0
  6
JWW_DASHED1
 62
   120
370
     5
100
AcDbLine
 10
-662.3402727002385
 20
88.22944219632866
 30
0.0
 11
-412.3402727002306
 21
338.2294421963362
 31
0.0
  0
LINE
  5
164
330
1F
100
AcDbEntity
  8
0-0
  6
JWW_DASHED1
 62
   120
370
     5
100
AcDbLine
 10
-322.3402727002349
 20
421.1583743830465
 30
0.0
 11
-72.34027270024313
 21
671.1583743830378
 31
0.0
  0
LINE
  5
165
330
1F
100
AcDbEntity
  8
0-0
  6
JWW_DASHED1
 62
   120
370
     5
100
AcDbLine
 10
-662.3402727002343
 20
81.15837438304702
 30
0.0
 11
-412.3402727002426
 21
331.1583743830388
 31
0.0
  0
LINE
  5
166
330
1F
100
AcDbEntity
  8
0-0
  6
JWW_DASHED1
 62
   120
370
     5
100
AcDbLine
 10
-322.3402727002426
 20
414.0873065697537
 30
0.0
 11
-72.34027270025251
 21
664.0873065697433
 31
0.0
  0
LINE
  5
167
330
1F
100
AcDbEntity
  8
0-0
  6
JWW_DASHED1
 62
   120
370
     5
100
AcDbLine
 10
-662.3402727002385
 20
74.08730656975727
 30
0.0
 11
-412.3402727002494
 21
324.0873065697469
 31
0.0
  0
LINE
  5
168
330
1F
100
AcDbEntity
  8
0-0
  6
JWW_DASHED1
 62
   120
370
     5
100
AcDbLine
 10
-322.3402727002383
 20
407.0162387564721
 30
0.0
 11
-72.34027270024825
 21
657.0162387564617
 31
0.0
  0
LINE
  5
169
330
1F
100
AcDbEntity
  8
0-0
  6
JWW_DASHED1
 62
   120
370
     5
100
AcDbLine
 10
-662.3402727002343
 20
67.01623875647606
 30
0.0
 11
-412.3402727002451
 21
317.0162387564657
 31
0.0
  0
LINE
  5
16A
330
1F
100
AcDbEntity
  8
0-0
  6
JWW_DASHED1
 62
   120
370
     5
100
AcDbLine
 10
-322.3402727002392
 20
399.9451709431862
 30
0.0
 11
-72.3402727002474
 21
649.9451709431775
 31
0.0
  0
LINE
  5
16B
330
1F
100
AcDbEntity
  8
0-0
  6
JWW_DASHED1
 62
   120
370
     5
100
AcDbLine
 10
-662.3402727002377
 20
59.94517094318716
 30
0.0
 11
-412.3402727002468
 21
309.9451709431785
 31
0.0
  0
LINE
  5
16C
330
1F
100
AcDbEntity
  8
0-0
  6
JWW_DASHED1
 62
   120
370
     5
100
AcDbLine
 10
-322.3402727002468
 20
392.8741031299476
 30
0.0
 11
-72.34027270023887
 21
642.8741031299551
 31
0.0
  0
LINE
  5
16D
330
1F
100
AcDbEntity
  8
0-0
  6
JWW_DASHED1
 62
   120
370
     5
100
AcDbLine
 10
-662.3402727002454
 20
52.87410312994858
 30
0.0
 11
-412.3402727002374
 21
302.8741031299561
 31
0.0
  0
LINE
  5
16E
330
1F
100
AcDbEntity
  8
0-0
  6
JWW_DASHED1
 62
   120
370
     5
100
AcDbLine
 10
-322.3402727002426
 20
385.8030353166664
 30
0.0
 11
-72.3402727002346
 21
635.8030353166739
 31
0.0
  0
LINE
  5
16F
330
1F
100
AcDbEntity
  8
0-0
  6
JWW_DASHED1
 62
   120
370
     5
100
AcDbLine
 10
-662.3402727002411
 20
45.80303531666736
 30
0.0
 11
-412.340272700234
 21
295.8030353166745
 31
0.0
  0
LINE
  5
170
330
1F
100
AcDbEntity
  8
0-0
  6
JWW_DASHED1
 62
   120
370
     5
100
AcDbLine
 10
-322.3402727002383
 20
378.7319675033847
 30
0.0
 11
-72.34027270024654
 21
628.7319675033765
 31
0.0
  0
LINE
  5
171
330
1F
100
AcDbEntity
  8
0-0
  6
JWW_DASHED1
 62
   120
370
     5
100
AcDbLine
 10
-662.3402727002369
 20
38.73196750338572
 30
0.0
 11
-412.3402727002298
 21
288.7319675033933
 31
0.0
  0
LINE
  5
172
330
1F
100
AcDbEntity
  8
0-0
  6
JWW_DASHED1
 62
   120
370
     5
100
AcDbLine
 10
-322.3402727002451
 20
371.6608996900924
 30
0.0
 11
-72.34027270025507
 21
621.660899690082
 31
0.0
  0
LINE
  5
173
330
1F
100
AcDbEntity
  8
0-0
  6
JWW_DASHED1
 62
   120
370
     5
100
AcDbLine
 10
-662.3402727002411
 20
31.6608996900964
 30
0.0
 11
-412.3402727002519
 21
281.6608996900856
 31
0.0
  0
LINE
  5
174
330
1F
100
AcDbEntity
  8
0-0
  6
JWW_DASHED1
 62
   120
370
     5
100
AcDbLine
 10
-322.3402727002409
 20
364.5898318768112
 30
0.0
 11
-72.34027270025166
 21
614.5898318768009
 31
0.0
  0
LINE
  5
175
330
1F
100
AcDbEntity
  8
0-0
  6
JWW_DASHED1
 62
   120
370
     5
100
AcDbLine
 10
-662.3402727002369
 20
24.58983187681518
 30
0.0
 11
-412.3402727002477
 21
274.5898318768044
 31
0.0
  0
LINE
  5
176
330
1F
100
AcDbEntity
  8
0-0
  6
JWW_DASHED1
 62
   120
370
     5
100
AcDbLine
 10
-322.3402727002426
 20
357.5187640635244
 30
0.0
 11
-72.34027270024995
 21
607.5187640635162
 31
0.0
  0
LINE
  5
177
330
1F
100
AcDbEntity
  8
0-0
  6
JWW_DASHED1
 62
   120
370
     5
100
AcDbLine
 10
-662.3402727002411
 20
17.51876406352544
 30
0.0
 11
-412.3402727002494
 21
267.5187640635172
 31
0.0
  0
LINE
  5
178
330
1F
100
AcDbEntity
  8
0-0
  6
JWW_DASHED1
 62
   120
370
     5
100
AcDbLine
 10
-322.3402727002383
 20
350.4476962502432
 30
0.0
 11
-72.34027270024654
 21
600.4476962502346
 31
0.0
  0
LINE
  5
179
330
1F
100
AcDbEntity
  8
0-0
  6
JWW_DASHED1
 62
   120
370
     5
100
AcDbLine
 10
-662.3402727002369
 20
10.44769625024422
 30
0.0
 11
-412.340272700246
 21
260.4476962502355
 31
0.0
  0
LINE
  5
17A
330
1F
100
AcDbEntity
  8
0-0
  6
JWW_DASHED1
 62
   120
370
     5
100
AcDbLine
 10
-322.3402727002494
 20
343.3766284369462
 30
0.0
 11
-72.34027270024228
 21
593.3766284369533
 31
0.0
  0
LINE
  5
17B
330
1F
100
AcDbEntity
  8
0-0
  6
JWW_DASHED1
 62
   120
370
     5
100
AcDbLine
 10
-662.3402727002335
 20
3.376628436963003
 30
0.0
 11
-412.3402727002417
 21
253.3766284369543
 31
0.0
  0
LINE
  5
17C
330
1F
100
AcDbEntity
  8
0-0
  6
JWW_DASHED1
 62
   120
370
     5
100
AcDbLine
 10
-322.340272700246
 20
336.3055606236642
 30
0.0
 11
-72.34027270023802
 21
586.3055606236717
 31
0.0
  0
LINE
  5
17D
330
1F
100
AcDbEntity
  8
0-0
  6
JWW_DASHED1
 62
   120
370
     5
100
AcDbLine
 10
-662.3402727002446
 20
-3.694439376334415
 30
0.0
 11
-412.3402727002374
 21
246.3055606236727
 31
0.0
  0
LINE
  5
17E
330
1F
100
AcDbEntity
  8
0-0
  6
JWW_DASHED1
 62
   120
370
     5
100
AcDbLine
 10
-322.3402727002374
 20
329.2344928104418
 30
0.0
 11
-72.34027270024569
 21
579.2344928104335
 31
0.0
  0
LINE
  5
17F
330
1F
100
AcDbEntity
  8
0-0
  6
JWW_DASHED1
 62
   120
370
     5
100
AcDbLine
 10
-662.3402727002369
 20
-10.76550718955723
 30
0.0
 11
-412.3402727002451
 21
239.2344928104345
 31
0.0
  0
LINE
  5
180
330
1F
100
AcDbEntity
  8
0-0
  6
JWW_DASHED1
 62
   120
370
     5
100
AcDbLine
 10
-322.3402727002443
 20
322.1634249971499
 30
0.0
 11
-72.34027270025422
 21
572.1634249971395
 31
0.0
  0
LINE
  5
181
330
1F
100
AcDbEntity
  8
0-0
  6
JWW_DASHED1
 62
   120
370
     5
100
AcDbLine
 10
-662.3402727002403
 20
-17.83657500284654
 30
0.0
 11
-412.3402727002511
 21
232.1634249971431
 31
0.0
  0
LINE
  5
182
330
1F
100
AcDbEntity
  8
0-0
  6
JWW_DASHED1
 62
   120
370
     5
100
AcDbLine
 10
-322.34027270024
 20
315.0923571838687
 30
0.0
 11
-72.34027270024995
 21
565.0923571838583
 31
0.0
  0
LINE
  5
183
330
1F
100
AcDbEntity
  8
0-0
  6
JWW_DASHED1
 62
   120
370
     5
100
AcDbLine
 10
-662.340272700236
 20
-24.90764281612776
 30
0.0
 11
-412.340272700246
 21
225.0923571838618
 31
0.0
  0
LINE
  5
184
330
1F
100
AcDbEntity
  8
0-0
  6
JWW_DASHED1
 62
   120
370
     5
100
AcDbLine
 10
-322.3402727002409
 20
308.0212893705815
 30
0.0
 11
-72.34027270024995
 21
558.0212893705733
 31
0.0
  0
LINE
  5
185
330
1F
100
AcDbEntity
  8
0-0
  6
JWW_DASHED1
 62
   120
370
     5
100
AcDbLine
 10
-662.3402727002403
 20
-31.97871062941751
 30
0.0
 11
-412.3402727002485
 21
218.0212893705743
 31
0.0
  0
LINE
  5
186
330
1F
100
AcDbEntity
  8
0-0
  6
JWW_DASHED1
 62
   120
370
     5
100
AcDbLine
 10
-322.3402727002374
 20
300.9502215573003
 30
0.0
 11
-72.34027270024569
 21
550.9502215572916
 31
0.0
  0
LINE
  5
187
330
1F
100
AcDbEntity
  8
0-0
  6
JWW_DASHED1
 62
   120
370
     5
100
AcDbLine
 10
-662.3402727002369
 20
-39.04977844269872
 30
0.0
 11
-412.3402727002443
 21
210.9502215572926
 31
0.0
  0
LINE
  5
188
330
1F
100
AcDbEntity
  8
0-0
  6
JWW_DASHED1
 62
   120
370
     5
100
AcDbLine
 10
-322.3402727002494
 20
293.8791537440028
 30
0.0
 11
-72.34027270024143
 21
543.8791537440104
 31
0.0
  0
LINE
  5
189
330
1F
100
AcDbEntity
  8
0-0
  6
JWW_DASHED1
 62
   120
370
     5
100
AcDbLine
 10
-662.3402727002317
 20
-46.12084625597994
 30
0.0
 11
-412.3402727002409
 21
203.8791537440114
 31
0.0
  0
LINE
  5
18A
330
1F
100
AcDbEntity
  8
0-0
  6
JWW_DASHED1
 62
   120
370
     5
100
AcDbLine
 10
-322.3402727002451
 20
286.8080859307212
 30
0.0
 11
-72.34027270023802
 21
536.8080859307288
 31
0.0
  0
LINE
  5
18B
330
1F
100
AcDbEntity
  8
0-0
  6
JWW_DASHED1
 62
   120
370
     5
100
AcDbLine
 10
-662.3402727002438
 20
-53.19191406927736
 30
0.0
 11
-412.3402727002366
 21
196.8080859307298
 31
0.0
  0
LINE
  5
18C
330
1F
100
AcDbEntity
  8
0-0
  6
JWW_DASHED1
 62
   120
370
     5
100
AcDbLine
 10
-322.3402727002409
 20
279.73701811744
 30
0.0
 11
-72.3402727002491
 21
529.7370181174317
 31
0.0
  0
LINE
  5
18D
330
1F
100
AcDbEntity
  8
0-0
  6
JWW_DASHED1
 62
   120
370
     5
100
AcDbLine
 10
-662.3402727002403
 20
-60.26298188255858
 30
0.0
 11
-412.3402727002323
 21
189.7370181174485
 31
0.0
  0
LINE
  5
18E
330
1F
100
AcDbEntity
  8
0-0
  6
JWW_DASHED1
 62
   120
370
     5
100
AcDbLine
 10
-322.3402727002366
 20
272.6659503041588
 30
0.0
 11
-72.34027270024484
 21
522.6659503041501
 31
0.0
  0
LINE
  5
18F
330
1F
100
AcDbEntity
  8
0-0
  6
JWW_DASHED1
 62
   120
370
     5
100
AcDbLine
 10
-662.340272700236
 20
-67.33404969584065
 30
0.0
 11
-412.3402727002443
 21
182.6659503041511
 31
0.0
  0
LINE
  5
190
330
1F
100
AcDbEntity
  8
0-0
  6
JWW_DASHED1
 62
   120
370
     5
100
AcDbLine
 10
-322.3402727002409
 20
265.5948824908967
 30
0.0
 11
-72.34027270025166
 21
515.594882490886
 31
0.0
  0
LINE
  5
191
330
1F
100
AcDbEntity
  8
0-0
  6
JWW_DASHED1
 62
   120
370
     5
100
AcDbLine
 10
-662.3402727002369
 20
-74.4051175090997
 30
0.0
 11
-412.3402727002477
 21
175.5948824908899
 31
0.0
  0
LINE
  5
192
330
1F
100
AcDbEntity
  8
0-0
  6
JWW_DASHED1
 62
   120
370
     5
100
AcDbLine
 10
-322.3402727002409
 20
258.5238146776385
 30
0.0
 11
-72.3402727002491
 21
508.5238146776303
 31
0.0
  0
LINE
  5
193
330
1F
100
AcDbEntity
  8
0-0
  6
JWW_DASHED1
 62
   120
370
     5
100
AcDbLine
 10
-662.3402727002394
 20
-81.47618532236045
 30
0.0
 11
-412.3402727002477
 21
168.5238146776313
 31
0.0
  0
LINE
  5
194
330
1F
100
AcDbEntity
  8
0-0
  6
JWW_DASHED1
 62
   120
370
     5
100
AcDbLine
 10
-322.3402727002366
 20
251.4527468643573
 30
0.0
 11
-72.34027270024484
 21
501.4527468643487
 31
0.0
  0
LINE
  5
195
330
1F
100
AcDbEntity
  8
0-0
  6
JWW_DASHED1
 62
   120
370
     5
100
AcDbLine
 10
-662.3402727002351
 20
-88.54725313564167
 30
0.0
 11
-412.3402727002443
 21
161.4527468643496
 31
0.0
  0
LINE
  5
196
330
1F
100
AcDbEntity
  8
0-0
  6
JWW_DASHED1
 62
   120
370
     5
100
AcDbLine
 10
-322.3402727002477
 20
244.3816790510604
 30
0.0
 11
-72.34027270024058
 21
494.3816790510675
 31
0.0
  0
LINE
  5
197
330
1F
100
AcDbEntity
  8
0-0
  6
JWW_DASHED1
 62
   120
370
     5
100
AcDbLine
 10
-662.3402727002472
 20
-95.61832094893909
 30
0.0
 11
-412.34027270024
 21
154.3816790510684
 31
0.0
  0
LINE
  5
198
330
1F
100
AcDbEntity
  8
0-0
  6
JWW_DASHED1
 62
   120
370
     5
100
AcDbLine
 10
-322.3402727002443
 20
237.3106112377783
 30
0.0
 11
-72.34027270023631
 21
487.3106112377858
 31
0.0
  0
LINE
  5
199
330
1F
100
AcDbEntity
  8
0-0
  6
JWW_DASHED1
 62
   120
370
     5
100
AcDbLine
 10
-662.3402727002438
 20
-102.6893887622207
 30
0.0
 11
-412.3402727002357
 21
147.3106112377868
 31
0.0
  0
LINE
  5
19A
330
1F
100
AcDbEntity
  8
0-0
  6
JWW_DASHED1
 62
   120
370
     5
100
AcDbLine
 10
-322.34027270024
 20
230.2395434244971
 30
0.0
 11
-72.34027270024825
 21
480.2395434244888
 31
0.0
  0
LINE
  5
19B
330
1F
100
AcDbEntity
  8
0-0
  6
JWW_DASHED1
 62
   120
370
     5
100
AcDbLine
 10
-662.3402727002394
 20
-109.7604565755019
 30
0.0
 11
-412.3402727002323
 21
140.2395434245051
 31
0.0
  0
LINE
  5
19C
330
1F
100
AcDbEntity
  8
0-0
  6
JWW_DASHED1
 62
   120
370
     5
100
AcDbLine
 10
-322.3402727002357
 20
223.1684756112159
 30
0.0
 11
-72.34027270024484
 21
473.1684756112072
 31
0.0
  0
LINE
  5
19D
330
1F
100
AcDbEntity
  8
0-0
  6
JWW_DASHED1
 62
   120
370
     5
100
AcDbLine
 10
-662.3402727002351
 20
-116.8315243887836
 30
0.0
 11
-412.3402727002443
 21
133.1684756112082
 31
0.0
  0
LINE
  5
19E
330
1F
100
AcDbEntity
  8
0-0
  6
JWW_DASHED1
 62
   120
370
     5
100
AcDbLine
 10
-322.3402727002417
 20
216.0974077979248
 30
0.0
 11
-72.34027270025166
 21
466.097407797914
 31
0.0
  0
LINE
  5
19F
330
1F
100
AcDbEntity
  8
0-0
  6
JWW_DASHED1
 62
   120
370
     5
100
AcDbLine
 10
-662.3402727002377
 20
-123.9025922020716
 30
0.0
 11
-412.3402727002485
 21
126.097407797918
 31
0.0
  0
LINE
  5
1A0
330
1F
100
AcDbEntity
  8
0-0
  6
JWW_DASHED1
 62
   120
370
     5
100
AcDbLine
 10
-322.3402727002374
 20
209.0263399846432
 30
0.0
 11
-72.34027270024825
 21
459.0263399846328
 31
0.0
  0
LINE
  5
1A1
330
1F
100
AcDbEntity
  8
0-0
  6
JWW_DASHED1
 62
   120
370
     5
100
AcDbLine
 10
-662.3402727002335
 20
-130.9736600153528
 30
0.0
 11
-412.3402727002443
 21
119.0263399846364
 31
0.0
  0
LINE
  5
1A2
330
1F
100
AcDbEntity
  8
0-0
  6
JWW_DASHED1
 62
   120
370
     5
100
AcDbLine
 10
-322.3402727002374
 20
201.955272171385
 30
0.0
 11
-72.34027270024654
 21
451.9552721713763
 31
0.0
  0
LINE
  5
1A3
330
1F
100
AcDbEntity
  8
0-0
  6
JWW_DASHED1
 62
   120
370
     5
100
AcDbLine
 10
-662.3402727002369
 20
-138.0447278286144
 30
0.0
 11
-412.3402727002451
 21
111.9552721713773
 31
0.0
  0
LINE
  5
1A4
330
1F
100
AcDbEntity
  8
0-0
  6
JWW_DASHED1
 62
   120
370
     5
100
AcDbLine
 10
-322.3402727002477
 20
194.884204358117
 30
0.0
 11
-72.34027270023972
 21
444.8842043581245
 31
0.0
  0
LINE
  5
1A5
330
1F
100
AcDbEntity
  8
0-0
  6
JWW_DASHED1
 62
   120
370
     5
100
AcDbLine
 10
-662.3402727002463
 20
-145.115795641882
 30
0.0
 11
-412.3402727002392
 21
104.8842043581255
 31
0.0
  0
LINE
  5
1A6
330
1F
100
AcDbEntity
  8
0-0
  6
JWW_DASHED1
 62
   120
370
     5
100
AcDbLine
 10
-322.3402727002434
 20
187.8131365448353
 30
0.0
 11
-72.34027270023631
 21
437.8131365448428
 31
0.0
  0
LINE
  5
1A7
330
1F
100
AcDbEntity
  8
0-0
  6
JWW_DASHED1
 62
   120
370
     5
100
AcDbLine
 10
-662.3402727002419
 20
-152.1868634551632
 30
0.0
 11
-412.3402727002349
 21
97.81313654484386
 31
0.0
  0
LINE
  5
1A8
330
1F
100
AcDbEntity
  8
0-0
  6
JWW_DASHED1
 62
   120
370
     5
100
AcDbLine
 10
-322.3402727002392
 20
180.7420687315541
 30
0.0
 11
-72.34027270024825
 21
430.7420687315454
 31
0.0
  0
LINE
  5
1A9
330
1F
100
AcDbEntity
  8
0-0
  6
JWW_DASHED1
 62
   120
370
     5
100
AcDbLine
 10
-662.3402727002385
 20
-159.2579312684449
 30
0.0
 11
-412.3402727002315
 21
90.74206873156221
 31
0.0
  0
LINE
  5
1AA
330
1F
100
AcDbEntity
  8
0-0
  6
JWW_DASHED1
 62
   120
370
     5
100
AcDbLine
 10
-322.3402727002443
 20
173.6710009182635
 30
0.0
 11
-72.34027270025507
 21
423.6710009182531
 31
0.0
  0
LINE
  5
1AB
330
1F
100
AcDbEntity
  8
0-0
  6
JWW_DASHED1
 62
   120
370
     5
100
AcDbLine
 10
-662.3402727002411
 20
-166.3289990817329
 30
0.0
 11
-412.3402727002511
 21
83.6710009182567
 31
0.0
  0
LINE
  5
1AC
330
1F
100
AcDbEntity
  8
0-0
  6
JWW_DASHED1
 62
   120
370
     5
100
AcDbLine
 10
-322.3402727002409
 20
166.5999331049819
 30
0.0
 11
-72.34027270025081
 21
416.5999331049715
 31
0.0
  0
LINE
  5
1AD
330
1F
100
AcDbEntity
  8
0-0
  6
JWW_DASHED1
 62
   120
370
     5
100
AcDbLine
 10
-662.3402727002369
 20
-173.4000668950137
 30
0.0
 11
-412.3402727002468
 21
76.59993310497548
 31
0.0
  0
LINE
  5
1AE
330
1F
100
AcDbEntity
  8
0-0
  6
JWW_DASHED1
 62
   120
370
     5
100
AcDbLine
 10
-322.3402727002426
 20
159.5288652916938
 30
0.0
 11
-72.34027270025166
 21
409.5288652916856
 31
0.0
  0
LINE
  5
1AF
330
1F
100
AcDbEntity
  8
0-0
  6
JWW_DASHED1
 62
   120
370
     5
100
AcDbLine
 10
-662.3402727002419
 20
-180.4711347083052
 30
0.0
 11
-412.3402727002502
 21
69.52886529168659
 31
0.0
  0
LINE
  5
1B0
330
1F
100
AcDbEntity
  8
0-0
  6
JWW_DASHED1
 62
   120
370
     5
100
AcDbLine
 10
-322.3402727002392
 20
152.4577974784126
 30
0.0
 11
-72.3402727002474
 21
402.457797478404
 31
0.0
  0
LINE
  5
1B1
330
1F
100
AcDbEntity
  8
0-0
  6
JWW_DASHED1
 62
   120
370
     5
100
AcDbLine
 10
-662.3402727002385
 20
-187.5422025215864
 30
0.0
 11
-412.3402727002468
 21
62.45779747840494
 31
0.0
  0
LINE
  5
1B2
330
1F
100
AcDbEntity
  8
0-0
  6
JWW_DASHED1
 62
   120
370
     5
100
AcDbLine
 10
-322.3402727002511
 20
145.3867296651152
 30
0.0
 11
-72.34027270024313
 21
395.3867296651223
 31
0.0
  0
LINE
  5
1B3
330
1F
100
AcDbEntity
  8
0-0
  6
JWW_DASHED1
 62
   120
370
     5
100
AcDbLine
 10
-662.3402727002343
 20
-194.6132703348684
 30
0.0
 11
-412.3402727002426
 21
55.3867296651233
 31
0.0
  0
LINE
  5
1B4
330
1F
100
AcDbEntity
  8
0-0
  6
JWW_DASHED1
 62
   120
370
     5
100
AcDbLine
 10
-322.3402727002468
 20
138.3156618518336
 30
0.0
 11
-72.34027270023972
 21
388.3156618518411
 31
0.0
  0
LINE
  5
1B5
330
1F
100
AcDbEntity
  8
0-0
  6
JWW_DASHED1
 62
   120
370
     5
100
AcDbLine
 10
-662.3402727002454
 20
-201.684338148165
 30
0.0
 11
-412.3402727002383
 21
48.31566185184208
 31
0.0
  0
LINE
  5
1B6
330
1F
100
AcDbEntity
  8
0-0
  6
JWW_DASHED1
 62
   120
370
     5
100
AcDbLine
 10
-322.3402727002383
 20
131.2445940386112
 30
0.0
 11
-72.3402727002474
 21
381.2445940386025
 31
0.0
  0
LINE
  5
1B7
330
1F
100
AcDbEntity
  8
0-0
  6
JWW_DASHED1
 62
   120
370
     5
100
AcDbLine
 10
-662.3402727002377
 20
-208.7554059613879
 30
0.0
 11
-412.3402727002306
 21
41.24459403861927
 31
0.0
  0
LINE
  5
1B8
330
1F
100
AcDbEntity
  8
0-0
  6
JWW_DASHED1
 62
   120
370
     5
100
AcDbLine
 10
-322.3402727002434
 20
124.173526225321
 30
0.0
 11
-72.34027270025337
 21
374.1735262253106
 31
0.0
  0
LINE
  5
1B9
330
1F
100
AcDbEntity
  8
0-0
  6
JWW_DASHED1
 62
   120
370
     5
100
AcDbLine
 10
-662.3402727002394
 20
-215.8264737746754
 30
0.0
 11
-412.3402727002502
 21
34.17352622531418
 31
0.0
  0
LINE
  5
1BA
330
1F
100
AcDbEntity
  8
0-0
  6
JWW_DASHED1
 62
   120
370
     5
100
AcDbLine
 10
-322.3402727002392
 20
117.1024584120394
 30
0.0
 11
-72.34027270024995
 21
367.102458412029
 31
0.0
  0
LINE
  5
1BB
330
1F
100
AcDbEntity
  8
0-0
  6
JWW_DASHED1
 62
   120
370
     5
100
AcDbLine
 10
-662.3402727002351
 20
-222.8975415879567
 30
0.0
 11
-412.340272700246
 21
27.10245841203296
 31
0.0
  0
LINE
  5
1BC
330
1F
100
AcDbEntity
  8
0-0
  6
JWW_DASHED1
 62
   120
370
     5
100
AcDbLine
 10
-322.3402727002426
 20
110.0313905987509
 30
0.0
 11
-72.34027270025081
 21
360.0313905987422
 31
0.0
  0
LINE
  5
1BD
330
1F
100
AcDbEntity
  8
0-0
  6
JWW_DASHED1
 62
   120
370
     5
100
AcDbLine
 10
-662.3402727002411
 20
-229.9686094012481
 30
0.0
 11
-412.3402727002494
 21
20.03139059874364
 31
0.0
  0
LINE
  5
1BE
330
1F
100
AcDbEntity
  8
0-0
  6
JWW_DASHED1
 62
   120
370
     5
100
AcDbLine
 10
-322.3402727002383
 20
102.9603227854692
 30
0.0
 11
-72.34027270024654
 21
352.960322785461
 31
0.0
  0
LINE
  5
1BF
330
1F
100
AcDbEntity
  8
0-0
  6
JWW_DASHED1
 62
   120
370
     5
100
AcDbLine
 10
-662.3402727002369
 20
-237.0396772145298
 30
0.0
 11
-412.340272700246
 21
12.96032278546242
 31
0.0
  0
LINE
  5
1C0
330
1F
100
AcDbEntity
  8
0-0
  6
JWW_DASHED1
 62
   120
370
     5
100
AcDbLine
 10
-322.3402727002502
 20
95.88925497217183
 30
0.0
 11
-72.34027270024313
 21
345.8892549721793
 31
0.0
  0
LINE
  5
1C1
330
1F
100
AcDbEntity
  8
0-0
  6
JWW_DASHED1
 62
   120
370
     5
100
AcDbLine
 10
-662.3402727002335
 20
-244.1107450278114
 30
0.0
 11
-412.3402727002417
 21
5.889254972180353
 31
0.0
  0
LINE
  5
1C2
330
1F
100
AcDbEntity
  8
0-0
  6
JWW_DASHED1
 62
   120
370
     5
100
AcDbLine
 10
-322.340272700246
 20
88.81818715889061
 30
0.0
 11
-72.34027270023802
 21
338.8181871588981
 31
0.0
  0
LINE
  5
1C3
330
1F
100
AcDbEntity
  8
0-0
  6
JWW_DASHED1
 62
   120
370
     5
100
AcDbLine
 10
-662.3402727002454
 20
-251.181812841108
 30
0.0
 11
-412.3402727002374
 21
-1.181812841100864
 31
0.0
  0
LINE
  5
1C4
330
1F
100
AcDbEntity
  8
0-0
  6
JWW_DASHED1
 62
   120
370
     5
100
AcDbLine
 10
-322.3402727002417
 20
81.74711934560939
 30
0.0
 11
-72.34027270025081
 21
331.7471193456007
 31
0.0
  0
LINE
  5
1C5
330
1F
100
AcDbEntity
  8
0-0
  6
JWW_DASHED1
 62
   120
370
     5
100
AcDbLine
 10
-662.3402727002411
 20
-258.2528806543896
 30
0.0
 11
-412.340272700234
 21
-8.252880654382508
 31
0.0
  0
LINE
  5
1C6
330
1F
100
AcDbEntity
  8
0-0
  6
JWW_DASHED1
 62
   120
370
     5
100
AcDbLine
 10
-322.3402727002383
 20
74.67605153232775
 30
0.0
 11
-72.34027270024654
 21
324.6760515323191
 31
0.0
  0
LINE
  5
1C7
330
1F
100
AcDbEntity
  8
0-0
  6
JWW_DASHED1
 62
   120
370
     5
100
AcDbLine
 10
-662.3402727002369
 20
-265.3239484676712
 30
0.0
 11
-412.340272700246
 21
-15.32394846767993
 31
0.0
  0
LINE
  5
1C8
330
1F
100
AcDbEntity
  8
0-0
  6
JWW_DASHED1
 62
   120
370
     5
100
AcDbLine
 10
-322.3402727002374
 20
67.60498371909726
 30
0.0
 11
-72.34027270024825
 21
317.6049837190865
 31
0.0
  0
LINE
  5
1C9
330
1F
100
AcDbEntity
  8
0-0
  6
JWW_DASHED1
 62
   120
370
     5
100
AcDbLine
 10
-662.3402727002343
 20
-272.3950162808992
 30
0.0
 11
-412.3402727002443
 21
-22.39501628090956
 31
0.0
  0
LINE
  5
1CA
330
1F
100
AcDbEntity
  8
0-0
  6
JWW_DASHED1
 62
   120
370
     5
100
AcDbLine
 10
-322.3402727002409
 20
60.53391590580794
 30
0.0
 11
-72.34027270024995
 21
310.5339159057997
 31
0.0
  0
LINE
  5
1CB
330
1F
100
AcDbEntity
  8
0-0
  6
JWW_DASHED1
 62
   120
370
     5
100
AcDbLine
 10
-662.3402727002403
 20
-279.466084094191
 30
0.0
 11
-412.3402727002494
 21
-29.46608409419973
 31
0.0
  0
LINE
  5
1CC
330
1F
100
AcDbEntity
  8
0-0
  6
JWW_DASHED1
 62
   120
370
     5
100
AcDbLine
 10
-322.3402727002374
 20
53.4628480925263
 30
0.0
 11
-72.34027270024569
 21
303.4628480925181
 31
0.0
  0
LINE
  5
1CD
330
1F
100
AcDbEntity
  8
0-0
  6
JWW_DASHED1
 62
   120
370
     5
100
AcDbLine
 10
-662.3402727002369
 20
-286.5371519074727
 30
0.0
 11
-412.3402727002451
 21
-36.53715190748137
 31
0.0
  0
LINE
  5
1CE
330
1F
100
AcDbEntity
  8
0-0
  6
JWW_DASHED1
 62
   120
370
     5
100
AcDbLine
 10
-322.3402727002494
 20
46.39178027922931
 30
0.0
 11
-72.34027270024143
 21
296.3917802792364
 31
0.0
  0
LINE
  5
1CF
330
1F
100
AcDbEntity
  8
0-0
  6
JWW_DASHED1
 62
   120
370
     5
100
AcDbLine
 10
-662.340272700248
 20
-293.6082197207697
 30
0.0
 11
-412.3402727002409
 21
-43.60821972076259
 31
0.0
  0
LINE
  5
1D0
330
1F
100
AcDbEntity
  8
0-0
  6
JWW_DASHED1
 62
   120
370
     5
100
AcDbLine
 10
-322.3402727002451
 20
39.32071246594766
 30
0.0
 11
-72.34027270023802
 21
289.3207124659552
 31
0.0
  0
LINE
  5
1D1
330
1F
100
AcDbEntity
  8
0-0
  6
JWW_DASHED1
 62
   120
370
     5
100
AcDbLine
 10
-662.3402727002438
 20
-300.6792875340509
 30
0.0
 11
-412.3402727002366
 21
-50.67928753404381
 31
0.0
  0
LINE
  5
1D2
330
1F
100
AcDbEntity
  8
0-0
  6
JWW_DASHED1
 62
   120
370
     5
100
AcDbLine
 10
-322.3402727002409
 20
32.24964465266645
 30
0.0
 11
-72.3402727002491
 21
282.2496446526582
 31
0.0
  0
LINE
  5
1D3
330
1F
100
AcDbEntity
  8
0-0
  6
JWW_DASHED1
 62
   120
370
     5
100
AcDbLine
 10
-662.3402727002403
 20
-307.750355347333
 30
0.0
 11
-412.3402727002323
 21
-57.75035534732503
 31
0.0
  0
LINE
  5
1D4
330
1F
100
AcDbEntity
  8
0-0
  6
JWW_DASHED1
 62
   120
370
     5
100
AcDbLine
 10
-322.3402727002374
 20
25.1785768393848
 30
0.0
 11
-72.34027270024569
 21
275.1785768393761
 31
0.0
  0
LINE
  5
1D5
330
1F
100
AcDbEntity
  8
0-0
  6
JWW_DASHED1
 62
   120
370
     5
100
AcDbLine
 10
-662.340272700236
 20
-314.8214231606142
 30
0.0
 11
-412.3402727002451
 21
-64.82142316062287
 31
0.0
  0
LINE
  5
1D6
330
1F
100
AcDbEntity
  8
0-0
  6
JWW_DASHED1
 62
   120
370
     5
100
AcDbLine
 10
-322.3402727002409
 20
18.10750902609549
 30
0.0
 11
-72.34027270025166
 21
268.1075090260851
 31
0.0
  0
LINE
  5
1D7
330
1F
100
AcDbEntity
  8
0-0
  6
JWW_DASHED1
 62
   120
370
     5
100
AcDbLine
 10
-662.3402727002369
 20
-321.8924909739005
 30
0.0
 11
-412.3402727002477
 21
-71.89249097391134
 31
0.0
  0
LINE
  5
1D8
330
1F
100
AcDbEntity
  8
0-0
  6
JWW_DASHED1
 62
   120
370
     5
100
AcDbLine
 10
-322.3402727002366
 20
11.03644121281427
 30
0.0
 11
-72.3402727002474
 21
261.0364412128035
 31
0.0
  0
LINE
  5
1D9
330
1F
100
AcDbEntity
  8
0-0
  6
JWW_DASHED1
 62
   120
370
     5
100
AcDbLine
 10
-662.3402727002335
 20
-328.9635587871817
 30
0.0
 11
-412.3402727002434
 21
-78.96355878719255
 31
0.0
  0
LINE
  5
1DA
330
1F
100
AcDbEntity
  8
0-0
  6
JWW_DASHED1
 62
   120
370
     5
100
AcDbLine
 10
-322.3402727002528
 20
3.965373399567582
 30
0.0
 11
-72.34027270024484
 21
253.9653733995751
 31
0.0
  0
LINE
  5
1DB
330
1F
100
AcDbEntity
  8
0-0
  6
JWW_DASHED1
 62
   120
370
     5
100
AcDbLine
 10
-662.340272700236
 20
-336.0346266004157
 30
0.0
 11
-412.3402727002443
 21
-86.03462660042432
 31
0.0
  0
LINE
  5
1DC
330
1F
100
AcDbEntity
  8
0-0
  6
JWW_DASHED1
 62
   120
370
     5
100
AcDbLine
 10
-322.3402727002485
 20
-3.105694413713636
 30
0.0
 11
-72.34027270024143
 21
246.8943055862935
 31
0.0
  0
LINE
  5
1DD
330
1F
100
AcDbEntity
  8
0-0
  6
JWW_DASHED1
 62
   120
370
     5
100
AcDbLine
 10
-662.3402727002472
 20
-343.1056944137126
 30
0.0
 11
-412.34027270024
 21
-93.10569441370554
 31
0.0
  0
LINE
  5
1DE
330
1F
100
AcDbEntity
  8
0-0
  6
JWW_DASHED1
 62
   120
370
     5
100
AcDbLine
 10
-322.3402727002443
 20
-10.17676222699528
 30
0.0
 11
-72.34027270023716
 21
239.8232377730122
 31
0.0
  0
LINE
  5
1DF
330
1F
100
AcDbEntity
  8
0-0
  6
JWW_DASHED1
 62
   120
370
     5
100
AcDbLine
 10
-662.3402727002438
 20
-350.1767622269938
 30
0.0
 11
-412.3402727002357
 21
-100.1767622269868
 31
0.0
  0
LINE
  5
1E0
330
1F
100
AcDbEntity
  8
0-0
  6
JWW_DASHED1
 62
   120
370
     5
100
AcDbLine
 10
-322.34027270024
 20
-17.2478300402765
 30
0.0
 11
-72.34027270024825
 21
232.7521699597153
 31
0.0
  0
LINE
  5
1E1
330
1F
100
AcDbEntity
  8
0-0
  6
JWW_DASHED1
 62
   120
370
     5
100
AcDbLine
 10
-662.3402727002394
 20
-357.2478300402759
 30
0.0
 11
-412.3402727002323
 21
-107.247830040268
 31
0.0
  0
LINE
  5
1E2
330
1F
100
AcDbEntity
  8
0-0
  6
JWW_DASHED1
 62
   120
370
     5
100
AcDbLine
 10
-322.3402727002366
 20
-24.31889785355814
 30
0.0
 11
-72.34027270024484
 21
225.6811021464332
 31
0.0
  0
LINE
  5
1E3
330
1F
100
AcDbEntity
  8
0-0
  6
JWW_DASHED1
 62
   120
370
     5
100
AcDbLine
 10
-662.3402727002351
 20
-364.3188978535571
 30
0.0
 11
-412.3402727002443
 21
-114.3188978535658
 31
0.0
  0
LINE
  5
1E4
330
1F
100
AcDbEntity
  8
0-0
  6
JWW_DASHED1
 62
   120
370
     5
100
AcDbLine
 10
-322.3402727002392
 20
-31.38996566684703
 30
0.0
 11
-72.34027270024995
 21
218.6100343331426
 31
0.0
  0
LINE
  5
1E5
330
1F
100
AcDbEntity
  8
0-0
  6
JWW_DASHED1
 62
   120
370
     5
100
AcDbLine
 10
-662.340272700236
 20
-371.3899656668431
 30
0.0
 11
-412.340272700246
 21
-121.3899656668534
 31
0.0
  0
LINE
  5
1E6
330
1F
100
AcDbEntity
  8
0-0
  6
JWW_DASHED1
 62
   120
370
     5
100
AcDbLine
 10
-322.3402727002357
 20
-38.46103348012868
 30
0.0
 11
-72.34027270024654
 21
211.5389665198609
 31
0.0
  0
LINE
  5
1E7
330
1F
100
AcDbEntity
  8
0-0
  6
JWW_DASHED1
 62
   120
370
     5
100
AcDbLine
 10
-662.3402727002317
 20
-378.4610334801247
 30
0.0
 11
-412.3402727002426
 21
-128.4610334801351
 31
0.0
  0
LINE
  5
1E8
330
1F
100
AcDbEntity
  8
0-0
  6
JWW_DASHED1
 62
   120
370
     5
100
AcDbLine
 10
-322.34027270024
 20
-45.53210129341842
 30
0.0
 11
-72.34027270024825
 21
204.4678987065734
 31
0.0
  0
LINE
  5
1E9
330
1F
100
AcDbEntity
  8
0-0
  6
JWW_DASHED1
 62
   120
370
     5
100
AcDbLine
 10
-662.3402727002385
 20
-385.532101293417
 30
0.0
 11
-412.3402727002477
 21
-135.5321012934257
 31
0.0
  0
LINE
  5
1EA
330
1F
100
AcDbEntity
  8
0-0
  6
JWW_DASHED1
 62
   120
370
     5
100
AcDbLine
 10
-322.3402727002519
 20
-52.60316910671584
 30
0.0
 11
-72.34027270024484
 21
197.3968308932917
 31
0.0
  0
LINE
  5
1EB
330
1F
100
AcDbEntity
  8
0-0
  6
JWW_DASHED1
 62
   120
370
     5
100
AcDbLine
 10
-662.3402727002351
 20
-392.6031691066991
 30
0.0
 11
-412.3402727002434
 21
-142.6031691067073
 31
0.0
  0
LINE
  5
1EC
330
1F
100
AcDbEntity
  8
0-0
  6
JWW_DASHED1
 62
   120
370
     5
100
AcDbLine
 10
-322.3402727002434
 20
-59.67423691993822
 30
0.0
 11
-72.34027270023631
 21
190.3257630800693
 31
0.0
  0
LINE
  5
1ED
330
1F
100
AcDbEntity
  8
0-0
  6
JWW_DASHED1
 62
   120
370
     5
100
AcDbLine
 10
-662.3402727002419
 20
-399.6742369199368
 30
0.0
 11
-412.3402727002357
 21
-149.6742369199301
 31
0.0
  0
LINE
  5
1EE
330
1F
100
AcDbEntity
  8
0-0
  6
JWW_DASHED1
 62
   120
370
     5
100
AcDbLine
 10
-322.3402727002392
 20
-66.74530473321944
 30
0.0
 11
-72.34027270024825
 21
183.2546952667719
 31
0.0
  0
LINE
  5
1EF
330
1F
100
AcDbEntity
  8
0-0
  6
JWW_DASHED1
 62
   120
370
     5
100
AcDbLine
 10
-662.3402727002385
 20
-406.7453047332189
 30
0.0
 11
-412.3402727002306
 21
-156.7453047332109
 31
0.0
  0
LINE
  5
1F0
330
1F
100
AcDbEntity
  8
0-0
  6
JWW_DASHED1
 62
   120
370
     5
100
AcDbLine
 10
-322.3402727002426
 20
-73.81637254650833
 30
0.0
 11
-72.34027270025337
 21
176.1836274534813
 31
0.0
  0
LINE
  5
1F1
330
1F
100
AcDbEntity
  8
0-0
  6
JWW_DASHED1
 62
   120
370
     5
100
AcDbLine
 10
-662.3402727002385
 20
-413.8163725465043
 30
0.0
 11
-412.3402727002494
 21
-163.8163725465147
 31
0.0
  0
LINE
  5
1F2
330
1F
100
AcDbEntity
  8
0-0
  6
JWW_DASHED1
 62
   120
370
     5
100
AcDbLine
 10
-322.3402727002383
 20
-80.88744035978955
 30
0.0
 11
-72.3402727002491
 21
169.1125596402001
 31
0.0
  0
LINE
  5
1F3
330
1F
100
AcDbEntity
  8
0-0
  6
JWW_DASHED1
 62
   120
370
     5
100
AcDbLine
 10
-662.3402727002351
 20
-420.8874403597856
 30
0.0
 11
-412.3402727002451
 21
-170.8874403597964
 31
0.0
  0
LINE
  5
1F4
330
1F
100
AcDbEntity
  8
0-0
  6
JWW_DASHED1
 62
   120
370
     5
100
AcDbLine
 10
-322.3402727002434
 20
-87.95850817308015
 30
0.0
 11
-72.34027270025166
 21
162.0414918269116
 31
0.0
  0
LINE
  5
1F5
330
1F
100
AcDbEntity
  8
0-0
  6
JWW_DASHED1
 62
   120
370
     5
100
AcDbLine
 10
-662.3402727002419
 20
-427.9585081730787
 30
0.0
 11
-412.3402727002511
 21
-177.958508173087
 31
0.0
  0
LINE
  5
1F6
330
1F
100
AcDbEntity
  8
0-0
  6
JWW_DASHED1
 62
   120
370
     5
100
AcDbLine
 10
-322.3402727002392
 20
-95.02957598636137
 30
0.0
 11
-72.3402727002474
 21
154.9704240136304
 31
0.0
  0
LINE
  5
1F7
330
1F
100
AcDbEntity
  8
0-0
  6
JWW_DASHED1
 62
   120
370
     5
100
AcDbLine
 10
-662.3402727002385
 20
-435.0295759863599
 30
0.0
 11
-412.3402727002468
 21
-185.029575986369
 31
0.0
  0
LINE
  5
1F8
330
1F
100
AcDbEntity
  8
0-0
  6
JWW_DASHED1
 62
   120
370
     5
100
AcDbLine
 10
-322.3402727002511
 20
-102.1006437996588
 30
0.0
 11
-72.34027270024399
 21
147.8993562003487
 31
0.0
  0
LINE
  5
1F9
330
1F
100
AcDbEntity
  8
0-0
  6
JWW_DASHED1
 62
   120
370
     5
100
AcDbLine
 10
-662.3402727002343
 20
-442.100643799642
 30
0.0
 11
-412.3402727002426
 21
-192.1006437996502
 31
0.0
  0
LINE
  5
1FA
330
1F
100
AcDbEntity
  8
0-0
  6
JWW_DASHED1
 62
   120
370
     5
100
AcDbLine
 10
-322.3402727002468
 20
-109.17171161294
 30
0.0
 11
-72.34027270023972
 21
140.8282883870671
 31
0.0
  0
LINE
  5
1FB
330
1F
100
AcDbEntity
  8
0-0
  6
JWW_DASHED1
 62
   120
370
     5
100
AcDbLine
 10
-662.3402727002463
 20
-449.171711612939
 30
0.0
 11
-412.3402727002392
 21
-199.1717116129315
 31
0.0
  0
LINE
  5
1FC
330
1F
100
AcDbEntity
  8
0-0
  6
JWW_DASHED1
 62
   120
370
     5
100
AcDbLine
 10
-322.3402727002426
 20
-116.2427794262212
 30
0.0
 11
-72.34027270023546
 21
133.7572205737859
 31
0.0
  0
LINE
  5
1FD
330
1F
100
AcDbEntity
  8
0-0
  6
JWW_DASHED1
 62
   120
370
     5
100
AcDbLine
 10
-662.3402727002419
 20
-456.2427794262206
 30
0.0
 11
-412.3402727002349
 21
-206.2427794262131
 31
0.0
  0
LINE
  5
1FE
330
1F
100
AcDbEntity
  8
0-0
  6
JWW_DASHED1
 62
   120
370
     5
100
AcDbLine
 10
-322.3402727002409
 20
-123.3138472394504
 30
0.0
 11
-72.34027270025166
 21
126.6861527605388
 31
0.0
  0
LINE
  5
1FF
330
1F
100
AcDbEntity
  8
0-0
  6
JWW_DASHED1
 62
   120
370
     5
100
AcDbLine
 10
-662.3402727002377
 20
-463.3138472394469
 30
0.0
 11
-412.3402727002477
 21
-213.3138472394572
 31
0.0
  0
LINE
  5
200
330
1F
100
AcDbEntity
  8
0-0
  6
JWW_DASHED1
 62
   120
370
     5
100
AcDbLine
 10
-322.3402727002374
 20
-130.3849150527325
 30
0.0
 11
-72.34027270024825
 21
119.6150849472571
 31
0.0
  0
LINE
  5
201
330
1F
100
AcDbEntity
  8
0-0
  6
JWW_DASHED1
 62
   120
370
     5
100
AcDbLine
 10
-662.3402727002335
 20
-470.3849150527285
 30
0.0
 11
-412.3402727002443
 21
-220.3849150527384
 31
0.0
  0
LINE
  5
202
330
1F
100
AcDbEntity
  8
0-0
  6
JWW_DASHED1
 62
   120
370
     5
100
AcDbLine
 10
-322.3402727002426
 20
-137.4559828660231
 30
0.0
 11
-72.34027270025081
 21
112.5440171339687
 31
0.0
  0
LINE
  5
203
330
1F
100
AcDbEntity
  8
0-0
  6
JWW_DASHED1
 62
   120
370
     5
100
AcDbLine
 10
-662.3402727002419
 20
-477.4559828660217
 30
0.0
 11
-412.3402727002494
 21
-227.4559828660304
 31
0.0
  0
LINE
  5
204
330
1F
100
AcDbEntity
  8
0-0
  6
JWW_DASHED1
 62
   120
370
     5
100
AcDbLine
 10
-322.3402727002383
 20
-144.5270506793043
 30
0.0
 11
-72.34027270024654
 21
105.4729493206874
 31
0.0
  0
LINE
  5
205
330
1F
100
AcDbEntity
  8
0-0
  6
JWW_DASHED1
 62
   120
370
     5
100
AcDbLine
 10
-662.3402727002377
 20
-484.5270506793033
 30
0.0
 11
-412.340272700246
 21
-234.527050679312
 31
0.0
  0
LINE
  5
206
330
1F
100
AcDbEntity
  8
0-0
  6
JWW_DASHED1
 62
   120
370
     5
100
AcDbLine
 10
-322.3402727002502
 20
-151.5981184926017
 30
0.0
 11
-72.34027270024313
 21
98.4018815074058
 31
0.0
  0
LINE
  5
207
330
1F
100
AcDbEntity
  8
0-0
  6
JWW_DASHED1
 62
   120
370
     5
100
AcDbLine
 10
-662.3402727002335
 20
-491.5981184925849
 30
0.0
 11
-412.3402727002417
 21
-241.5981184925932
 31
0.0
  0
LINE
  5
208
330
1F
100
AcDbEntity
  8
0-0
  6
JWW_DASHED1
 62
   120
370
     5
100
AcDbLine
 10
-322.340272700246
 20
-158.6691863058829
 30
0.0
 11
-72.34027270023887
 21
91.33081369412416
 31
0.0
  0
LINE
  5
209
330
1F
100
AcDbEntity
  8
0-0
  6
JWW_DASHED1
 62
   120
370
     5
100
AcDbLine
 10
-662.3402727002454
 20
-498.669186305882
 30
0.0
 11
-412.3402727002374
 21
-248.6691863058744
 31
0.0
  0
LINE
  5
20A
330
1F
100
AcDbEntity
  8
0-0
  6
JWW_DASHED1
 62
   120
370
     5
100
AcDbLine
 10
-322.3402727002426
 20
-165.7402541191646
 30
0.0
 11
-72.34027270025081
 21
84.25974588082717
 31
0.0
  0
LINE
  5
20B
330
1F
100
AcDbEntity
  8
0-0
  6
JWW_DASHED1
 62
   120
370
     5
100
AcDbLine
 10
-662.3402727002419
 20
-505.7402541191636
 30
0.0
 11
-412.340272700234
 21
-255.7402541191561
 31
0.0
  0
LINE
  5
20C
330
1F
100
AcDbEntity
  8
0-0
  6
JWW_DASHED1
 62
   120
370
     5
100
AcDbLine
 10
-322.3402727002383
 20
-172.8113219324462
 30
0.0
 11
-72.34027270024654
 21
77.18867806754552
 31
0.0
  0
LINE
  5
20D
330
1F
100
AcDbEntity
  8
0-0
  6
JWW_DASHED1
 62
   120
370
     5
100
AcDbLine
 10
-662.3402727002377
 20
-512.8113219324448
 30
0.0
 11
-412.340272700246
 21
-262.811321932453
 31
0.0
  0
LINE
  5
20E
330
1F
100
AcDbEntity
  8
0-0
  6
JWW_DASHED1
 62
   120
370
     5
100
AcDbLine
 10
-322.34027270024
 20
-179.8823897457334
 30
0.0
 11
-72.34027270025081
 21
70.11761025425578
 31
0.0
  0
LINE
  5
20F
330
1F
100
AcDbEntity
  8
0-0
  6
JWW_DASHED1
 62
   120
370
     5
100
AcDbLine
 10
-662.3402727002369
 20
-519.8823897457295
 30
0.0
 11
-412.3402727002468
 21
-269.8823897457402
 31
0.0
  0
LINE
  5
210
330
1F
100
AcDbEntity
  8
0-0
  6
JWW_DASHED1
 62
   120
370
     5
100
AcDbLine
 10
-322.3402727002417
 20
-186.953457558966
 30
0.0
 11
-72.34027270024995
 21
63.04654244102572
 31
0.0
  0
LINE
  5
211
330
1F
100
AcDbEntity
  8
0-0
  6
JWW_DASHED1
 62
   120
370
     5
100
AcDbLine
 10
-662.3402727002403
 20
-526.9534575589646
 30
0.0
 11
-412.3402727002494
 21
-276.9534575589733
 31
0.0
  0
LINE
  5
212
330
1F
100
AcDbEntity
  8
0-0
  6
JWW_DASHED1
 62
   120
370
     5
100
AcDbLine
 10
-322.3402727002536
 20
-194.024525372263
 30
0.0
 11
-72.34027270024569
 21
55.9754746277445
 31
0.0
  0
LINE
  5
213
330
1F
100
AcDbEntity
  8
0-0
  6
JWW_DASHED1
 62
   120
370
     5
100
AcDbLine
 10
-662.3402727002369
 20
-534.0245253722462
 30
0.0
 11
-412.3402727002451
 21
-284.0245253722549
 31
0.0
  0
LINE
  5
214
330
1F
100
AcDbEntity
  8
0-0
  6
JWW_DASHED1
 62
   120
370
     5
100
AcDbLine
 10
-322.3402727002494
 20
-201.0955931855447
 30
0.0
 11
-72.34027270024143
 21
48.90440681446286
 31
0.0
  0
LINE
  5
215
330
1F
100
AcDbEntity
  8
0-0
  6
JWW_DASHED1
 62
   120
370
     5
100
AcDbLine
 10
-662.3402727002488
 20
-541.0955931855436
 30
0.0
 11
-412.3402727002409
 21
-291.0955931855361
 31
0.0
  0
LINE
  5
216
330
1F
100
AcDbEntity
  8
0-0
  6
JWW_DASHED1
 62
   120
370
     5
100
AcDbLine
 10
-322.3402727002451
 20
-208.1666609988259
 30
0.0
 11
-72.34027270023802
 21
41.83333900118122
 31
0.0
  0
LINE
  5
217
330
1F
100
AcDbEntity
  8
0-0
  6
JWW_DASHED1
 62
   120
370
     5
100
AcDbLine
 10
-662.3402727002446
 20
-548.1666609988249
 30
0.0
 11
-412.3402727002374
 21
-298.1666609988173
 31
0.0
  0
LINE
  5
218
330
1F
100
AcDbEntity
  8
0-0
  6
JWW_DASHED1
 62
   120
370
     5
100
AcDbLine
 10
-322.3402727002409
 20
-215.2377288121075
 30
0.0
 11
-72.34027270024995
 21
34.76227118788422
 31
0.0
  0
LINE
  5
219
330
1F
100
AcDbEntity
  8
0-0
  6
JWW_DASHED1
 62
   120
370
     5
100
AcDbLine
 10
-662.3402727002403
 20
-555.2377288121065
 30
0.0
 11
-412.3402727002332
 21
-305.2377288120994
 31
0.0
  0
LINE
  5
21A
330
1F
100
AcDbEntity
  8
0-0
  6
JWW_DASHED1
 62
   120
370
     5
100
AcDbLine
 10
-322.3402727002374
 20
-222.3087966253892
 30
0.0
 11
-72.34027270024569
 21
27.69120337460258
 31
0.0
  0
LINE
  5
21B
330
1F
100
AcDbEntity
  8
0-0
  6
JWW_DASHED1
 62
   120
370
     5
100
AcDbLine
 10
-662.3402727002369
 20
-562.3087966253881
 30
0.0
 11
-412.3402727002443
 21
-312.308796625396
 31
0.0
  0
LINE
  5
21C
330
1F
100
AcDbEntity
  8
0-0
  6
JWW_DASHED1
 62
   120
370
     5
100
AcDbLine
 10
-322.3402727002392
 20
-229.3798644386763
 30
0.0
 11
-72.34027270024995
 21
20.62013556131326
 31
0.0
  0
LINE
  5
21D
330
1F
100
AcDbEntity
  8
0-0
  6
JWW_DASHED1
 62
   120
370
     5
100
AcDbLine
 10
-662.3402727002351
 20
-569.3798644386724
 30
0.0
 11
-412.340272700246
 21
-319.3798644386832
 31
0.0
  0
LINE
  5
21E
330
1F
100
AcDbEntity
  8
0-0
  6
JWW_DASHED1
 62
   120
370
     5
100
AcDbLine
 10
-322.3402727002349
 20
-236.4509322519576
 30
0.0
 11
-72.34027270024569
 21
13.54906774803204
 31
0.0
  0
LINE
  5
21F
330
1F
100
AcDbEntity
  8
0-0
  6
JWW_DASHED1
 62
   120
370
     5
100
AcDbLine
 10
-662.3402727002309
 20
-576.4509322519536
 30
0.0
 11
-412.3402727002417
 21
-326.4509322519644
 31
0.0
  0
LINE
  5
220
330
1F
100
AcDbEntity
  8
0-0
  6
JWW_DASHED1
 62
   120
370
     5
100
AcDbLine
 10
-322.3402727002409
 20
-243.522000065249
 30
0.0
 11
-72.34027270024995
 21
6.4779999347423
 31
0.0
  0
LINE
  5
221
330
1F
100
AcDbEntity
  8
0-0
  6
JWW_DASHED1
 62
   120
370
     5
100
AcDbLine
 10
-662.3402727002403
 20
-583.5220000652484
 30
0.0
 11
-412.3402727002485
 21
-333.5220000652567
 31
0.0
  0
LINE
  5
222
330
1F
100
AcDbEntity
  8
0-0
  6
JWW_DASHED1
 62
   120
370
     5
100
AcDbLine
 10
-322.3402727002528
 20
-250.5930678785464
 30
0.0
 11
-72.34027270024569
 21
-0.593067878539344
 31
0.0
  0
LINE
  5
223
330
1F
100
AcDbEntity
  8
0-0
  6
JWW_DASHED1
 62
   120
370
     5
100
AcDbLine
 10
-662.340272700236
 20
-590.5930678785297
 30
0.0
 11
-412.3402727002443
 21
-340.5930678785379
 31
0.0
  0
LINE
  5
224
330
1F
100
AcDbEntity
  8
0-0
  6
JWW_DASHED1
 62
   120
370
     5
100
AcDbLine
 10
-322.3402727002443
 20
-257.6641356917688
 30
0.0
 11
-72.34027270023716
 21
-7.664135691761729
 31
0.0
  0
LINE
  5
225
330
1F
100
AcDbEntity
  8
0-0
  6
JWW_DASHED1
 62
   120
370
     5
100
AcDbLine
 10
-662.3402727002438
 20
-597.6641356917678
 30
0.0
 11
-412.3402727002357
 21
-347.6641356917607
 31
0.0
  0
LINE
  5
226
330
1F
100
AcDbEntity
  8
0-0
  6
JWW_DASHED1
 62
   120
370
     5
100
AcDbLine
 10
-322.3402727002409
 20
-264.73520350505
 30
0.0
 11
-72.3402727002491
 21
-14.73520350505872
 31
0.0
  0
LINE
  5
227
330
1F
100
AcDbEntity
  8
0-0
  6
JWW_DASHED1
 62
   120
370
     5
100
AcDbLine
 10
-662.3402727002394
 20
-604.7352035050495
 30
0.0
 11
-412.3402727002323
 21
-354.7352035050424
 31
0.0
  0
LINE
  5
228
330
1F
100
AcDbEntity
  8
0-0
  6
JWW_DASHED1
 62
   120
370
     5
100
AcDbLine
 10
-322.3402727002417
 20
-271.8062713183372
 30
0.0
 11
-72.34027270025251
 21
-21.80627131834804
 31
0.0
  0
LINE
  5
229
330
1F
100
AcDbEntity
  8
0-0
  6
JWW_DASHED1
 62
   120
370
     5
100
AcDbLine
 10
-662.3402727002385
 20
-611.8062713183333
 30
0.0
 11
-412.3402727002485
 21
-361.806271318344
 31
0.0
  0
LINE
  5
22A
330
1F
100
AcDbEntity
  8
0-0
  6
JWW_DASHED1
 62
   120
370
     5
100
AcDbLine
 10
-322.3402727002383
 20
-278.8773391316189
 30
0.0
 11
-72.34027270024825
 21
-28.87733913162926
 31
0.0
  0
LINE
  5
22B
330
1F
100
AcDbEntity
  8
0-0
  6
JWW_DASHED1
 62
   120
370
     5
100
AcDbLine
 10
-662.3402727002335
 20
-618.8773391316145
 30
0.0
 11
-412.3402727002443
 21
-368.8773391316253
 31
0.0
  0
LINE
  5
22C
330
1F
100
AcDbEntity
  8
0-0
  6
JWW_DASHED1
 62
   120
370
     5
100
AcDbLine
 10
-322.3402727002443
 20
-285.9484069449107
 30
0.0
 11
-72.34027270025251
 21
-35.948406944919
 31
0.0
  0
LINE
  5
22D
330
1F
100
AcDbEntity
  8
0-0
  6
JWW_DASHED1
 62
   120
370
     5
100
AcDbLine
 10
-662.3402727002438
 20
-625.9484069449094
 30
0.0
 11
-412.3402727002519
 21
-375.948406944918
 31
0.0
  0
LINE
  5
22E
330
1F
100
AcDbEntity
  8
0-0
  6
JWW_DASHED1
 62
   120
370
     5
100
AcDbLine
 10
-322.34027270024
 20
-293.019474758192
 30
0.0
 11
-72.34027270024825
 21
-43.01947475820022
 31
0.0
  0
LINE
  5
22F
330
1F
100
AcDbEntity
  8
0-0
  6
JWW_DASHED1
 62
   120
370
     5
100
AcDbLine
 10
-662.3402727002394
 20
-633.0194747581914
 30
0.0
 11
-412.3402727002477
 21
-383.0194747581996
 31
0.0
  0
LINE
  5
230
330
1F
100
AcDbEntity
  8
0-0
  6
JWW_DASHED1
 62
   120
370
     5
100
AcDbLine
 10
-322.3402727002519
 20
-300.0905425714894
 30
0.0
 11
-72.34027270024484
 21
-50.09054257148229
 31
0.0
  0
LINE
  5
231
330
1F
100
AcDbEntity
  8
0-0
  6
JWW_DASHED1
 62
   120
370
     5
100
AcDbLine
 10
-662.3402727002351
 20
-640.0905425714726
 30
0.0
 11
-412.3402727002434
 21
-390.0905425714809
 31
0.0
  0
LINE
  5
232
330
1F
100
AcDbEntity
  8
0-0
  6
JWW_DASHED1
 62
   120
370
     5
100
AcDbLine
 10
-322.3402727002477
 20
-307.1616103847706
 30
0.0
 11
-72.34027270024058
 21
-57.16161038476351
 31
0.0
  0
LINE
  5
233
330
1F
100
AcDbEntity
  8
0-0
  6
JWW_DASHED1
 62
   120
370
     5
100
AcDbLine
 10
-662.3402727002472
 20
-647.16161038477
 30
0.0
 11
-412.34027270024
 21
-397.1616103847625
 31
0.0
  0
LINE
  5
234
330
1F
100
AcDbEntity
  8
0-0
  6
JWW_DASHED1
 62
   120
370
     5
100
AcDbLine
 10
-322.3402727002443
 20
-314.2326781980518
 30
0.0
 11
-72.34027270023631
 21
-64.23267819804472
 31
0.0
  0
LINE
  5
235
330
1F
100
AcDbEntity
  8
0-0
  6
JWW_DASHED1
 62
   120
370
     5
100
AcDbLine
 10
-662.3402727002438
 20
-654.2326781980513
 30
0.0
 11
-412.3402727002357
 21
-404.2326781980441
 31
0.0
  0
LINE
  5
236
330
1F
100
AcDbEntity
  8
0-0
  6
JWW_DASHED1
 62
   120
370
     5
100
AcDbLine
 10
-322.3402727002409
 20
-321.3037460112802
 30
0.0
 11
-72.34027270025166
 21
-71.30374601129056
 31
0.0
  0
LINE
  5
237
330
1F
100
AcDbEntity
  8
0-0
  6
JWW_DASHED1
 62
   120
370
     5
100
AcDbLine
 10
-662.3402727002369
 20
-661.3037460112762
 30
0.0
 11
-412.3402727002477
 21
-411.3037460112861
 31
0.0
  0
LINE
  5
238
330
1F
100
AcDbEntity
  8
0-0
  6
JWW_DASHED1
 62
   120
370
     5
100
AcDbLine
 10
-322.3402727002366
 20
-328.3748138245614
 30
0.0
 11
-72.3402727002474
 21
-78.37481382457177
 31
0.0
  0
LINE
  5
239
330
1F
100
AcDbEntity
  8
0-0
  6
JWW_DASHED1
 62
   120
370
     5
100
AcDbLine
 10
-662.3402727002335
 20
-668.3748138245575
 30
0.0
 11
-412.3402727002434
 21
-418.3748138245682
 31
0.0
  0
LINE
  5
23A
330
1F
100
AcDbEntity
  8
0-0
  6
JWW_DASHED1
 62
   120
370
     5
100
AcDbLine
 10
-322.3402727002434
 20
-335.4458816378537
 30
0.0
 11
-72.34027270025166
 21
-85.44588163786194
 31
0.0
  0
LINE
  5
23B
330
1F
100
AcDbEntity
  8
0-0
  6
JWW_DASHED1
 62
   120
370
     5
100
AcDbLine
 10
-662.3402727002419
 20
-675.4458816378523
 30
0.0
 11
-412.3402727002511
 21
-425.445881637861
 31
0.0
  0
LINE
  5
23C
330
1F
100
AcDbEntity
  8
0-0
  6
JWW_DASHED1
 62
   120
370
     5
100
AcDbLine
 10
-322.3402727002392
 20
-342.5169494511349
 30
0.0
 11
-72.34027270024825
 21
-92.51694945114359
 31
0.0
  0
LINE
  5
23D
330
1F
100
AcDbEntity
  8
0-0
  6
JWW_DASHED1
 62
   120
370
     5
100
AcDbLine
 10
-662.3402727002385
 20
-682.5169494511343
 30
0.0
 11
-412.3402727002468
 21
-432.5169494511426
 31
0.0
  0
LINE
  5
23E
330
1F
100
AcDbEntity
  8
0-0
  6
JWW_DASHED1
 62
   120
370
     5
100
AcDbLine
 10
-322.3402727002511
 20
-349.5880172644323
 30
0.0
 11
-72.34027270024399
 21
-99.58801726442523
 31
0.0
  0
LINE
  5
23F
330
1F
100
AcDbEntity
  8
0-0
  6
JWW_DASHED1
 62
   120
370
     5
100
AcDbLine
 10
-662.3402727002343
 20
-689.5880172644156
 30
0.0
 11
-412.3402727002434
 21
-439.5880172644243
 31
0.0
  0
LINE
  5
240
330
1F
100
AcDbEntity
  8
0-0
  6
JWW_DASHED1
 62
   120
370
     5
100
AcDbLine
 10
-322.3402727002477
 20
-356.6590850777135
 30
0.0
 11
-72.34027270023972
 21
-106.6590850777065
 31
0.0
  0
LINE
  5
241
330
1F
100
AcDbEntity
  8
0-0
  6
JWW_DASHED1
 62
   120
370
     5
100
AcDbLine
 10
-662.3402727002463
 20
-696.659085077713
 30
0.0
 11
-412.3402727002392
 21
-446.659085077705
 31
0.0
  0
LINE
  5
242
330
1F
100
AcDbEntity
  8
0-0
  6
JWW_DASHED1
 62
   120
370
     5
100
AcDbLine
 10
-322.3402727002434
 20
-363.7301528909956
 30
0.0
 11
-72.34027270025166
 21
-113.7301528910039
 31
0.0
  0
LINE
  5
243
330
1F
100
AcDbEntity
  8
0-0
  6
JWW_DASHED1
 62
   120
370
     5
100
AcDbLine
 10
-662.3402727002419
 20
-703.7301528909942
 30
0.0
 11
-412.3402727002349
 21
-453.7301528909867
 31
0.0
  0
LINE
  5
244
330
1F
100
AcDbEntity
  8
0-0
  6
JWW_DASHED1
 62
   120
370
     5
100
AcDbLine
 10
-322.3402727002392
 20
-370.8012207042768
 30
0.0
 11
-72.3402727002474
 21
-120.8012207042851
 31
0.0
  0
LINE
  5
245
330
1F
100
AcDbEntity
  8
0-0
  6
JWW_DASHED1
 62
   120
370
     5
100
AcDbLine
 10
-662.3402727002385
 20
-710.8012207042755
 30
0.0
 11
-412.3402727002468
 21
-460.8012207042845
 31
0.0
  0
LINE
  5
246
330
1F
100
AcDbEntity
  8
0-0
  6
JWW_DASHED1
 62
   120
370
     5
100
AcDbLine
 10
-322.3402727002392
 20
-377.8722885175623
 30
0.0
 11
-72.34027270024995
 21
-127.8722885175731
 31
0.0
  0
LINE
  5
247
330
1F
100
AcDbEntity
  8
0-0
  6
JWW_DASHED1
 62
   120
370
     5
100
AcDbLine
 10
-662.340272700236
 20
-717.8722885175592
 30
0.0
 11
-412.340272700246
 21
-467.8722885175691
 31
0.0
  0
LINE
  5
248
330
1F
100
AcDbEntity
  8
0-0
  6
JWW_DASHED1
 62
   120
370
     5
100
AcDbLine
 10
-322.3402727002426
 20
-384.9433563307966
 30
0.0
 11
-72.34027270025166
 21
-134.9433563308049
 31
0.0
  0
LINE
  5
249
330
1F
100
AcDbEntity
  8
0-0
  6
JWW_DASHED1
 62
   120
370
     5
100
AcDbLine
 10
-662.3402727002419
 20
-724.9433563307953
 30
0.0
 11
-412.3402727002502
 21
-474.9433563308039
 31
0.0
  0
LINE
  5
24A
330
1F
100
AcDbEntity
  8
0-0
  6
JWW_DASHED1
 62
   120
370
     5
100
AcDbLine
 10
-322.3402727002545
 20
-392.0144241440941
 30
0.0
 11
-72.34027270024654
 21
-142.0144241440861
 31
0.0
  0
LINE
  5
24B
330
1F
100
AcDbEntity
  8
0-0
  6
JWW_DASHED1
 62
   120
370
     5
100
AcDbLine
 10
-662.3402727002377
 20
-732.0144241440773
 30
0.0
 11
-412.340272700246
 21
-482.0144241440855
 31
0.0
  0
LINE
  5
24C
330
1F
100
AcDbEntity
  8
0-0
  6
JWW_DASHED1
 62
   120
370
     5
100
AcDbLine
 10
-322.3402727002502
 20
-399.0854919573753
 30
0.0
 11
-72.34027270024313
 21
-149.0854919573682
 31
0.0
  0
LINE
  5
24D
330
1F
100
AcDbEntity
  8
0-0
  6
JWW_DASHED1
 62
   120
370
     5
100
AcDbLine
 10
-662.3402727002497
 20
-739.0854919573743
 30
0.0
 11
-412.3402727002417
 21
-489.0854919573667
 31
0.0
  0
LINE
  5
24E
330
1F
100
AcDbEntity
  8
0-0
  6
JWW_DASHED1
 62
   120
370
     5
100
AcDbLine
 10
-322.340272700246
 20
-406.1565597706565
 30
0.0
 11
-72.34027270023887
 21
-156.1565597706494
 31
0.0
  0
LINE
  5
24F
330
1F
100
AcDbEntity
  8
0-0
  6
JWW_DASHED1
 62
   120
370
     5
100
AcDbLine
 10
-662.3402727002454
 20
-746.1565597706559
 30
0.0
 11
-412.3402727002383
 21
-496.1565597706484
 31
0.0
  0
LINE
  5
250
330
1F
100
AcDbEntity
  8
0-0
  6
JWW_DASHED1
 62
   120
370
     5
100
AcDbLine
 10
-322.3402727002426
 20
-413.2276275839382
 30
0.0
 11
-72.34027270025081
 21
-163.2276275839468
 31
0.0
  0
LINE
  5
251
330
1F
100
AcDbEntity
  8
0-0
  6
JWW_DASHED1
 62
   120
370
     5
100
AcDbLine
 10
-662.3402727002419
 20
-753.2276275839372
 30
0.0
 11
-412.340272700234
 21
-503.22762758393
 31
0.0
  0
LINE
  5
252
330
1F
100
AcDbEntity
  8
0-0
  6
JWW_DASHED1
 62
   120
370
     5
100
AcDbLine
 10
-322.3402727002383
 20
-420.2986953972198
 30
0.0
 11
-72.34027270024654
 21
-170.298695397228
 31
0.0
  0
LINE
  5
253
330
1F
100
AcDbEntity
  8
0-0
  6
JWW_DASHED1
 62
   120
370
     5
100
AcDbLine
 10
-662.3402727002369
 20
-760.2986953972184
 30
0.0
 11
-412.340272700246
 21
-510.2986953972274
 31
0.0
  0
LINE
  5
254
330
1F
100
AcDbEntity
  8
0-0
  6
JWW_DASHED1
 62
   120
370
     5
100
AcDbLine
 10
-322.3402727002383
 20
-427.3697632105053
 30
0.0
 11
-72.3402727002491
 21
-177.3697632105157
 31
0.0
  0
LINE
  5
255
330
1F
100
AcDbEntity
  8
0-0
  6
JWW_DASHED1
 62
   120
370
     5
100
AcDbLine
 10
-662.3402727002351
 20
-767.3697632105017
 30
0.0
 11
-412.3402727002451
 21
-517.3697632105121
 31
0.0
  0
LINE
  5
256
330
1F
100
AcDbEntity
  8
0-0
  6
JWW_DASHED1
 62
   120
370
     5
100
AcDbLine
 10
-322.340272700234
 20
-434.4408310237865
 30
0.0
 11
-72.34027270024484
 21
-184.4408310237973
 31
0.0
  0
LINE
  5
257
330
1F
100
AcDbEntity
  8
0-0
  6
JWW_DASHED1
 62
   120
370
     5
100
AcDbLine
 10
-662.3402727002309
 20
-774.440831023783
 30
0.0
 11
-412.3402727002409
 21
-524.4408310237933
 31
0.0
  0
LINE
  5
258
330
1F
100
AcDbEntity
  8
0-0
  6
JWW_DASHED1
 62
   120
370
     5
100
AcDbLine
 10
-322.3402727002426
 20
-441.5118988370796
 30
0.0
 11
-72.34027270024995
 21
-191.5118988370883
 31
0.0
  0
LINE
  5
259
330
1F
100
AcDbEntity
  8
0-0
  6
JWW_DASHED1
 62
   120
370
     5
100
AcDbLine
 10
-662.3402727002411
 20
-781.5118988370791
 30
0.0
 11
-412.3402727002494
 21
-531.5118988370873
 31
0.0
  0
LINE
  5
25A
330
1F
100
AcDbEntity
  8
0-0
  6
JWW_DASHED1
 62
   120
370
     5
100
AcDbLine
 10
-322.3402727002494
 20
-448.5829666503182
 30
0.0
 11
-72.34027270024228
 21
-198.5829666503111
 31
0.0
  0
LINE
  5
25B
330
1F
100
AcDbEntity
  8
0-0
  6
JWW_DASHED1
 62
   120
370
     5
100
AcDbLine
 10
-662.3402727002488
 20
-788.5829666503171
 30
0.0
 11
-412.3402727002409
 21
-538.5829666503097
 31
0.0
  0
LINE
  5
25C
330
1F
100
AcDbEntity
  8
0-0
  6
JWW_DASHED1
 62
   120
370
     5
100
AcDbLine
 10
-322.340272700246
 20
-455.6540344635994
 30
0.0
 11
-72.34027270023802
 21
-205.6540344635923
 31
0.0
  0
LINE
  5
25D
330
1F
100
AcDbEntity
  8
0-0
  6
JWW_DASHED1
 62
   120
370
     5
100
AcDbLine
 10
-662.3402727002446
 20
-795.6540344635989
 30
0.0
 11
-412.3402727002374
 21
-545.6540344635913
 31
0.0
  0
LINE
  5
25E
330
1F
100
AcDbEntity
  8
0-0
  6
JWW_DASHED1
 62
   120
370
     5
100
AcDbLine
 10
-322.3402727002417
 20
-462.7251022768811
 30
0.0
 11
-72.34027270024995
 21
-212.7251022768897
 31
0.0
  0
LINE
  5
25F
330
1F
100
AcDbEntity
  8
0-0
  6
JWW_DASHED1
 62
   120
370
     5
100
AcDbLine
 10
-662.3402727002403
 20
-802.7251022768801
 30
0.0
 11
-412.3402727002332
 21
-552.725102276873
 31
0.0
  0
LINE
  5
260
330
1F
100
AcDbEntity
  8
0-0
  6
JWW_DASHED1
 62
   120
370
     5
100
AcDbLine
 10
-322.3402727002409
 20
-469.7961700901661
 30
0.0
 11
-72.34027270025166
 21
-219.7961700901769
 31
0.0
  0
LINE
  5
261
330
1F
100
AcDbEntity
  8
0-0
  6
JWW_DASHED1
 62
   120
370
     5
100
AcDbLine
 10
-662.3402727002377
 20
-809.7961700901631
 30
0.0
 11
-412.3402727002477
 21
-559.796170090173
 31
0.0
  0
LINE
  5
262
330
1F
100
AcDbEntity
  8
0-0
  6
JWW_DASHED1
 62
   120
370
     5
100
AcDbLine
 10
-322.3402727002374
 20
-476.8672379034478
 30
0.0
 11
-72.34027270024825
 21
-226.8672379034581
 31
0.0
  0
LINE
  5
263
330
1F
100
AcDbEntity
  8
0-0
  6
JWW_DASHED1
 62
   120
370
     5
100
AcDbLine
 10
-662.3402727002335
 20
-816.8672379034442
 30
0.0
 11
-412.3402727002443
 21
-566.8672379034546
 31
0.0
  0
LINE
  5
264
330
1F
100
AcDbEntity
  8
0-0
  6
JWW_DASHED1
 62
   120
370
     5
100
AcDbLine
 10
-322.3402727002451
 20
-483.9383057167414
 30
0.0
 11
-72.34027270025337
 21
-233.9383057167496
 31
0.0
  0
LINE
  5
265
330
1F
100
AcDbEntity
  8
0-0
  6
JWW_DASHED1
 62
   120
370
     5
100
AcDbLine
 10
-662.3402727002446
 20
-823.9383057167404
 30
0.0
 11
-412.3402727002528
 21
-573.938305716749
 31
0.0
  0
LINE
  5
266
330
1F
100
AcDbEntity
  8
0-0
  6
JWW_DASHED1
 62
   120
370
     5
100
AcDbLine
 10
-322.3402727002409
 20
-491.0093735300226
 30
0.0
 11
-72.34027270024995
 21
-241.0093735300313
 31
0.0
  0
LINE
  5
267
330
1F
100
AcDbEntity
  8
0-0
  6
JWW_DASHED1
 62
   120
370
     5
100
AcDbLine
 10
-662.3402727002403
 20
-831.0093735300214
 30
0.0
 11
-412.3402727002494
 21
-581.0093735300303
 31
0.0
  0
LINE
  5
268
330
1F
100
AcDbEntity
  8
0-0
  6
JWW_DASHED1
 62
   120
370
     5
100
AcDbLine
 10
-322.3402727002528
 20
-498.08044134332
 30
0.0
 11
-72.34027270024569
 21
-248.0804413433129
 31
0.0
  0
LINE
  5
269
330
1F
100
AcDbEntity
  8
0-0
  6
JWW_DASHED1
 62
   120
370
     5
100
AcDbLine
 10
-662.340272700236
 20
-838.0804413433033
 30
0.0
 11
-412.3402727002451
 21
-588.0804413433119
 31
0.0
  0
LINE
  5
26A
330
1F
100
AcDbEntity
  8
0-0
  6
JWW_DASHED1
 62
   120
370
     5
100
AcDbLine
 10
-322.3402727002494
 20
-505.1515091566017
 30
0.0
 11
-72.34027270024143
 21
-255.1515091565941
 31
0.0
  0
LINE
  5
26B
330
1F
100
AcDbEntity
  8
0-0
  6
JWW_DASHED1
 62
   120
370
     5
100
AcDbLine
 10
-662.340272700248
 20
-845.1515091566007
 30
0.0
 11
-412.3402727002409
 21
-595.1515091565935
 31
0.0
  0
LINE
  5
26C
330
1F
100
AcDbEntity
  8
0-0
  6
JWW_DASHED1
 62
   120
370
     5
100
AcDbLine
 10
-322.3402727002409
 20
-512.222576969824
 30
0.0
 11
-72.3402727002491
 21
-262.2225769698327
 31
0.0
  0
LINE
  5
26D
330
1F
100
AcDbEntity
  8
0-0
  6
JWW_DASHED1
 62
   120
370
     5
100
AcDbLine
 10
-662.3402727002403
 20
-852.2225769698231
 30
0.0
 11
-412.3402727002485
 21
-602.2225769698317
 31
0.0
  0
LINE
  5
26E
330
1F
100
AcDbEntity
  8
0-0
  6
JWW_DASHED1
 62
   120
370
     5
100
AcDbLine
 10
-322.34027270024
 20
-519.2936447831091
 30
0.0
 11
-72.34027270025081
 21
-269.2936447831195
 31
0.0
  0
LINE
  5
26F
330
1F
100
AcDbEntity
  8
0-0
  6
JWW_DASHED1
 62
   120
370
     5
100
AcDbLine
 10
-662.340272700236
 20
-859.2936447831052
 30
0.0
 11
-412.3402727002468
 21
-609.293644783116
 31
0.0
  0
LINE
  5
270
330
1F
100
AcDbEntity
  8
0-0
  6
JWW_DASHED1
 62
   120
370
     5
100
AcDbLine
 10
-322.3402727002357
 20
-526.3647125963903
 30
0.0
 11
-72.34027270024654
 21
-276.3647125964007
 31
0.0
  0
LINE
  5
271
330
1F
100
AcDbEntity
  8
0-0
  6
JWW_DASHED1
 62
   120
370
     5
100
AcDbLine
 10
-662.3402727002317
 20
-866.3647125963863
 30
0.0
 11
-412.3402727002426
 21
-616.3647125963971
 31
0.0
  0
LINE
  5
272
330
1F
100
AcDbEntity
  8
0-0
  6
JWW_DASHED1
 62
   120
370
     5
100
AcDbLine
 10
-322.3402727002443
 20
-533.4357804096843
 30
0.0
 11
-72.34027270025337
 21
-283.435780409693
 31
0.0
  0
LINE
  5
273
330
1F
100
AcDbEntity
  8
0-0
  6
JWW_DASHED1
 62
   120
370
     5
100
AcDbLine
 10
-662.3402727002438
 20
-873.4357804096832
 30
0.0
 11
-412.3402727002519
 21
-623.435780409692
 31
0.0
  0
LINE
  5
274
330
1F
100
AcDbEntity
  8
0-0
  6
JWW_DASHED1
 62
   120
370
     5
100
AcDbLine
 10
-322.3402727002409
 20
-540.5068482229656
 30
0.0
 11
-72.3402727002491
 21
-290.5068482229742
 31
0.0
  0
LINE
  5
275
330
1F
100
AcDbEntity
  8
0-0
  6
JWW_DASHED1
 62
   120
370
     5
100
AcDbLine
 10
-662.3402727002394
 20
-880.5068482229645
 30
0.0
 11
-412.3402727002477
 21
-630.5068482229732
 31
0.0
  0
LINE
  5
276
330
1F
100
AcDbEntity
  8
0-0
  6
JWW_DASHED1
 62
   120
370
     5
100
AcDbLine
 10
-322.3402727002528
 20
-547.577916036263
 30
0.0
 11
-72.34027270024484
 21
-297.5779160362558
 31
0.0
  0
LINE
  5
277
330
1F
100
AcDbEntity
  8
0-0
  6
JWW_DASHED1
 62
   120
370
     5
100
AcDbLine
 10
-662.340272700236
 20
-887.5779160362466
 30
0.0
 11
-412.3402727002443
 21
-637.5779160362545
 31
0.0
  0
LINE
  5
278
330
1F
100
AcDbEntity
  8
0-0
  6
JWW_DASHED1
 62
   120
370
     5
100
AcDbLine
 10
-322.3402727002485
 20
-554.6489838495446
 30
0.0
 11
-72.34027270024058
 21
-304.648983849537
 31
0.0
  0
LINE
  5
279
330
1F
100
AcDbEntity
  8
0-0
  6
JWW_DASHED1
 62
   120
370
     5
100
AcDbLine
 10
-662.3402727002472
 20
-894.6489838495436
 30
0.0
 11
-412.34027270024
 21
-644.6489838495365
 31
0.0
  0
LINE
  5
27A
330
1F
100
AcDbEntity
  8
0-0
  6
JWW_DASHED1
 62
   120
370
     5
100
AcDbLine
 10
-322.3402727002443
 20
-561.7200516628262
 30
0.0
 11
-72.34027270025251
 21
-311.7200516628345
 31
0.0
  0
LINE
  5
27B
330
1F
100
AcDbEntity
  8
0-0
  6
JWW_DASHED1
 62
   120
370
     5
100
AcDbLine
 10
-662.3402727002438
 20
-901.7200516628249
 30
0.0
 11
-412.3402727002357
 21
-651.7200516628177
 31
0.0
  0
LINE
  5
27C
330
1F
100
AcDbEntity
  8
0-0
  6
JWW_DASHED1
 62
   120
370
     5
100
AcDbLine
 10
-322.34027270024
 20
-568.7911194761075
 30
0.0
 11
-72.34027270024825
 21
-318.7911194761157
 31
0.0
  0
LINE
  5
27D
330
1F
100
AcDbEntity
  8
0-0
  6
JWW_DASHED1
 62
   120
370
     5
100
AcDbLine
 10
-662.3402727002394
 20
-908.7911194761069
 30
0.0
 11
-412.3402727002477
 21
-658.7911194761151
 31
0.0
  0
LINE
  5
27E
330
1F
100
AcDbEntity
  8
0-0
  6
JWW_DASHED1
 62
   120
370
     5
100
AcDbLine
 10
-322.3402727002349
 20
-575.8621872893333
 30
0.0
 11
-72.34027270024484
 21
-325.8621872893436
 31
0.0
  0
LINE
  5
27F
330
1F
100
AcDbEntity
  8
0-0
  6
JWW_DASHED1
 62
   120
370
     5
100
AcDbLine
 10
-662.3402727002309
 20
-915.8621872893293
 30
0.0
 11
-412.3402727002417
 21
-665.8621872893397
 31
0.0
  0
LINE
  5
280
330
1F
100
AcDbEntity
  8
0-0
  6
JWW_DASHED1
 62
   120
370
     5
100
AcDbLine
 10
-322.3402727002434
 20
-582.9332551026273
 30
0.0
 11
-72.34027270025166
 21
-332.9332551026359
 31
0.0
  0
LINE
  5
281
330
1F
100
AcDbEntity
  8
0-0
  6
JWW_DASHED1
 62
   120
370
     5
100
AcDbLine
 10
-661.416609576334
 20
-922.0095919787175
 30
0.0
 11
-412.3402727002511
 21
-672.9332551026349
 31
0.0
  0
LINE
  5
282
330
1F
100
AcDbEntity
  8
0-0
  6
JWW_DASHED1
 62
   120
370
     5
100
AcDbLine
 10
-322.3402727002392
 20
-590.0043229159085
 30
0.0
 11
-72.34027270024825
 21
-340.0043229159176
 31
0.0
  0
LINE
  5
283
330
1F
100
AcDbEntity
  8
0-0
  6
JWW_DASHED1
 62
   120
370
     5
100
AcDbLine
 10
-654.3455417630528
 20
-922.0095919787216
 30
0.0
 11
-412.3402727002468
 21
-680.0043229159162
 31
0.0
  0
LINE
  5
284
330
1F
100
AcDbEntity
  8
0-0
  6
JWW_DASHED1
 62
   120
370
     5
100
AcDbLine
 10
-322.3402727002511
 20
-597.0753907292059
 30
0.0
 11
-72.34027270024399
 21
-347.0753907291988
 31
0.0
  0
LINE
  5
285
330
1F
100
AcDbEntity
  8
0-0
  6
JWW_DASHED1
 62
   120
370
     5
100
AcDbLine
 10
-647.2744739497555
 20
-922.0095919787102
 30
0.0
 11
-412.3402727002426
 21
-687.0753907291974
 31
0.0
  0
LINE
  5
286
330
1F
100
AcDbEntity
  8
0-0
  6
JWW_DASHED1
 62
   120
370
     5
100
AcDbLine
 10
-322.3402727002477
 20
-604.1464585424875
 30
0.0
 11
-72.34027270023972
 21
-354.14645854248
 31
0.0
  0
LINE
  5
287
330
1F
100
AcDbEntity
  8
0-0
  6
JWW_DASHED1
 62
   120
370
     5
100
AcDbLine
 10
-640.203406136475
 20
-922.0095919787145
 30
0.0
 11
-412.3402727002392
 21
-694.1464585424794
 31
0.0
  0
LINE
  5
288
330
1F
100
AcDbEntity
  8
0-0
  6
JWW_DASHED1
 62
   120
370
     5
100
AcDbLine
 10
-322.3402727002434
 20
-611.2175263557692
 30
0.0
 11
-72.34027270025166
 21
-361.2175263557774
 31
0.0
  0
LINE
  5
289
330
1F
100
AcDbEntity
  8
0-0
  6
JWW_DASHED1
 62
   120
370
     5
100
AcDbLine
 10
-633.1323383231929
 20
-922.0095919787187
 30
0.0
 11
-412.3402727002349
 21
-701.2175263557607
 31
0.0
  0
LINE
  5
28A
330
1F
100
AcDbEntity
  8
0-0
  6
JWW_DASHED1
 62
   120
370
     5
100
AcDbLine
 10
-322.3402727002392
 20
-618.2885941690504
 30
0.0
 11
-72.34027270024825
 21
-368.2885941690586
 31
0.0
  0
LINE
  5
28B
330
1F
100
AcDbEntity
  8
0-0
  6
JWW_DASHED1
 62
   120
370
     5
100
AcDbLine
 10
-626.0612705099093
 20
-922.0095919787204
 30
0.0
 11
-412.3402727002468
 21
-708.2885941690581
 31
0.0
  0
LINE
  5
28C
330
1F
100
AcDbEntity
  8
0-0
  6
JWW_DASHED1
 62
   120
370
     5
100
AcDbLine
 10
-322.3402727002374
 20
-625.3596619823342
 30
0.0
 11
-72.34027270024825
 21
-375.359661982345
 31
0.0
  0
LINE
  5
28D
330
1F
100
AcDbEntity
  8
0-0
  6
JWW_DASHED1
 62
   120
370
     5
100
AcDbLine
 10
-618.990202696628
 20
-922.0095919787248
 30
0.0
 11
-412.3402727002443
 21
-715.359661982341
 31
0.0
  0
LINE
  5
28E
330
1F
100
AcDbEntity
  8
0-0
  6
JWW_DASHED1
 62
   120
370
     5
100
AcDbLine
 10
-322.340272700234
 20
-632.4307297956158
 30
0.0
 11
-72.34027270024399
 21
-382.4307297956262
 31
0.0
  0
LINE
  5
28F
330
1F
100
AcDbEntity
  8
0-0
  6
JWW_DASHED1
 62
   120
370
     5
100
AcDbLine
 10
-611.9191348833467
 20
-922.0095919787282
 30
0.0
 11
-412.3402727002409
 21
-722.4307297956223
 31
0.0
  0
LINE
  5
290
330
1F
100
AcDbEntity
  8
0-0
  6
JWW_DASHED1
 62
   120
370
     5
100
AcDbLine
 10
-322.3402727002409
 20
-639.5017976088812
 30
0.0
 11
-72.3402727002491
 21
-389.5017976088895
 31
0.0
  0
LINE
  5
291
330
1F
100
AcDbEntity
  8
0-0
  6
JWW_DASHED1
 62
   120
370
     5
100
AcDbLine
 10
-604.8480670700783
 20
-922.0095919787179
 30
0.0
 11
-412.3402727002485
 21
-729.5017976088885
 31
0.0
  0
LINE
  5
292
330
1F
100
AcDbEntity
  8
0-0
  6
JWW_DASHED1
 62
   120
370
     5
100
AcDbLine
 10
-322.3402727002502
 20
-646.5728654221489
 30
0.0
 11
-72.34027270024313
 21
-396.5728654221417
 31
0.0
  0
LINE
  5
293
330
1F
100
AcDbEntity
  8
0-0
  6
JWW_DASHED1
 62
   120
370
     5
100
AcDbLine
 10
-597.7769992568142
 20
-922.0095919787128
 30
0.0
 11
-412.3402727002426
 21
-736.5728654221411
 31
0.0
  0
LINE
  5
294
330
1F
100
AcDbEntity
  8
0-0
  6
JWW_DASHED1
 62
   120
370
     5
100
AcDbLine
 10
-322.3402727002468
 20
-653.6439332354305
 30
0.0
 11
-72.34027270023887
 21
-403.6439332354229
 31
0.0
  0
LINE
  5
295
330
1F
100
AcDbEntity
  8
0-0
  6
JWW_DASHED1
 62
   120
370
     5
100
AcDbLine
 10
-590.705931443533
 20
-922.0095919787162
 30
0.0
 11
-412.3402727002383
 21
-743.6439332354224
 31
0.0
  0
LINE
  5
296
330
1F
100
AcDbEntity
  8
0-0
  6
JWW_DASHED1
 62
   120
370
     5
100
AcDbLine
 10
-322.3402727002426
 20
-660.7150010487121
 30
0.0
 11
-72.34027270025081
 21
-410.7150010487204
 31
0.0
  0
LINE
  5
297
330
1F
100
AcDbEntity
  8
0-0
  6
JWW_DASHED1
 62
   120
370
     5
100
AcDbLine
 10
-583.634863630251
 20
-922.0095919787204
 30
0.0
 11
-412.340272700234
 21
-750.7150010487036
 31
0.0
  0
LINE
  5
298
330
1F
100
AcDbEntity
  8
0-0
  6
JWW_DASHED1
 62
   120
370
     5
100
AcDbLine
 10
-322.3402727002409
 20
-667.7860688619954
 30
0.0
 11
-72.34027270025081
 21
-417.7860688620058
 31
0.0
  0
LINE
  5
299
330
1F
100
AcDbEntity
  8
0-0
  6
JWW_DASHED1
 62
   120
370
     5
100
AcDbLine
 10
-576.5637958169646
 20
-922.0095919787196
 30
0.0
 11
-412.3402727002477
 21
-757.7860688620023
 31
0.0
  0
LINE
  5
29A
330
1F
100
AcDbEntity
  8
0-0
  6
JWW_DASHED1
 62
   120
370
     5
100
AcDbLine
 10
-322.3402727002366
 20
-674.8571366752767
 30
0.0
 11
-72.34027270024654
 21
-424.8571366752871
 31
0.0
  0
LINE
  5
29B
330
1F
100
AcDbEntity
  8
0-0
  6
JWW_DASHED1
 62
   120
370
     5
100
AcDbLine
 10
-569.4927280036834
 20
-922.009591978723
 30
0.0
 11
-412.3402727002434
 21
-764.8571366752835
 31
0.0
  0
LINE
  5
29C
330
1F
100
AcDbEntity
  8
0-0
  6
JWW_DASHED1
 62
   120
370
     5
100
AcDbLine
 10
-322.340272700246
 20
-681.928204488572
 30
0.0
 11
-72.34027270025507
 21
-431.9282044885802
 31
0.0
  0
LINE
  5
29D
330
1F
100
AcDbEntity
  8
0-0
  6
JWW_DASHED1
 62
   120
370
     5
100
AcDbLine
 10
-562.4216601903859
 20
-922.0095919787113
 30
0.0
 11
-412.3402727002536
 21
-771.9282044885797
 31
0.0
  0
LINE
  5
29E
330
1F
100
AcDbEntity
  8
0-0
  6
JWW_DASHED1
 62
   120
370
     5
100
AcDbLine
 10
-322.3402727002426
 20
-688.999272301854
 30
0.0
 11
-72.34027270025081
 21
-438.9992723018623
 31
0.0
  0
LINE
  5
29F
330
1F
100
AcDbEntity
  8
0-0
  6
JWW_DASHED1
 62
   120
370
     5
100
AcDbLine
 10
-555.3505923771038
 20
-922.0095919787153
 30
0.0
 11
-412.3402727002502
 21
-778.9992723018609
 31
0.0
  0
LINE
  5
2A0
330
1F
100
AcDbEntity
  8
0-0
  6
JWW_DASHED1
 62
   120
370
     5
100
AcDbLine
 10
-322.3402727002545
 20
-696.0703401151507
 30
0.0
 11
-72.34027270024654
 21
-446.0703401151435
 31
0.0
  0
LINE
  5
2A1
330
1F
100
AcDbEntity
  8
0-0
  6
JWW_DASHED1
 62
   120
370
     5
100
AcDbLine
 10
-548.2795245638217
 20
-922.0095919787187
 30
0.0
 11
-412.340272700246
 21
-786.0703401151424
 31
0.0
  0
LINE
  5
2A2
330
1F
100
AcDbEntity
  8
0-0
  6
JWW_DASHED1
 62
   120
370
     5
100
AcDbLine
 10
-322.3402727002477
 20
-703.1414079284028
 30
0.0
 11
-72.34027270024058
 21
-453.1414079283957
 31
0.0
  0
LINE
  5
2A3
330
1F
100
AcDbEntity
  8
0-0
  6
JWW_DASHED1
 62
   120
370
     5
100
AcDbLine
 10
-541.2084567505619
 20
-922.0095919787162
 30
0.0
 11
-412.34027270024
 21
-793.1414079283948
 31
0.0
  0
LINE
  5
2A4
330
1F
100
AcDbEntity
  8
0-0
  6
JWW_DASHED1
 62
   120
370
     5
100
AcDbLine
 10
-322.3402727002417
 20
-710.2124757416547
 30
0.0
 11
-72.34027270024995
 21
-460.2124757416633
 31
0.0
  0
LINE
  5
2A5
330
1F
100
AcDbEntity
  8
0-0
  6
JWW_DASHED1
 62
   120
370
     5
100
AcDbLine
 10
-534.1373889373097
 20
-922.0095919787226
 30
0.0
 11
-412.3402727002332
 21
-800.2124757416466
 31
0.0
  0
LINE
  5
2A6
330
1F
100
AcDbEntity
  8
0-0
  6
JWW_DASHED1
 62
   120
370
     5
100
AcDbLine
 10
-322.3402727002392
 20
-717.283543554938
 30
0.0
 11
-72.34027270024995
 21
-467.2835435549488
 31
0.0
  0
LINE
  5
2A7
330
1F
100
AcDbEntity
  8
0-0
  6
JWW_DASHED1
 62
   120
370
     5
100
AcDbLine
 10
-527.0663211240199
 20
-922.0095919787182
 30
0.0
 11
-412.340272700246
 21
-807.2835435549448
 31
0.0
  0
LINE
  5
2A8
330
1F
100
AcDbEntity
  8
0-0
  6
JWW_DASHED1
 62
   120
370
     5
100
AcDbLine
 10
-322.3402727002357
 20
-724.3546113682196
 30
0.0
 11
-72.34027270024569
 21
-474.35461136823
 31
0.0
  0
LINE
  5
2A9
330
1F
100
AcDbEntity
  8
0-0
  6
JWW_DASHED1
 62
   120
370
     5
100
AcDbLine
 10
-519.9952533107378
 20
-922.0095919787221
 30
0.0
 11
-412.3402727002426
 21
-814.3546113682263
 31
0.0
  0
LINE
  5
2AA
330
1F
100
AcDbEntity
  8
0-0
  6
JWW_DASHED1
 62
   120
370
     5
100
AcDbLine
 10
-322.340272700246
 20
-731.425679181515
 30
0.0
 11
-72.34027270025337
 21
-481.4256791815232
 31
0.0
  0
LINE
  5
2AB
330
1F
100
AcDbEntity
  8
0-0
  6
JWW_DASHED1
 62
   120
370
     5
100
AcDbLine
 10
-512.9241854974405
 20
-922.0095919787096
 30
0.0
 11
-412.3402727002528
 21
-821.4256791815226
 31
0.0
  0
LINE
  5
2AC
330
1F
100
AcDbEntity
  8
0-0
  6
JWW_DASHED1
 62
   120
370
     5
100
AcDbLine
 10
-322.3402727002417
 20
-738.4967469947966
 30
0.0
 11
-72.34027270024995
 21
-488.4967469948052
 31
0.0
  0
LINE
  5
2AD
330
1F
100
AcDbEntity
  8
0-0
  6
JWW_DASHED1
 62
   120
370
     5
100
AcDbLine
 10
-505.8531176841583
 20
-922.0095919787136
 30
0.0
 11
-412.3402727002494
 21
-828.4967469948041
 31
0.0
  0
LINE
  5
2AE
330
1F
100
AcDbEntity
  8
0-0
  6
JWW_DASHED1
 62
   120
370
     5
100
AcDbLine
 10
-322.3402727002528
 20
-745.5678148080935
 30
0.0
 11
-72.34027270024569
 21
-495.5678148080864
 31
0.0
  0
LINE
  5
2AF
330
1F
100
AcDbEntity
  8
0-0
  6
JWW_DASHED1
 62
   120
370
     5
100
AcDbLine
 10
-498.7820498708771
 20
-922.0095919787179
 30
0.0
 11
-412.3402727002451
 21
-835.5678148080855
 31
0.0
  0
LINE
  5
2B0
330
1F
100
AcDbEntity
  8
0-0
  6
JWW_DASHED1
 62
   120
370
     5
100
AcDbLine
 10
-322.3402727002494
 20
-752.6388826213748
 30
0.0
 11
-72.34027270024143
 21
-502.6388826213677
 31
0.0
  0
LINE
  5
2B1
330
1F
100
AcDbEntity
  8
0-0
  6
JWW_DASHED1
 62
   120
370
     5
100
AcDbLine
 10
-491.7109820575908
 20
-922.0095919787162
 30
0.0
 11
-412.3402727002409
 21
-842.6388826213671
 31
0.0
  0
LINE
  5
2B2
330
1F
100
AcDbEntity
  8
0-0
  6
JWW_DASHED1
 62
   120
370
     5
100
AcDbLine
 10
-322.3402727002451
 20
-759.7099504346569
 30
0.0
 11
-72.34027270025337
 21
-509.7099504346651
 31
0.0
  0
LINE
  5
2B3
330
1F
100
AcDbEntity
  8
0-0
  6
JWW_DASHED1
 62
   120
370
     5
100
AcDbLine
 10
-484.6399142443087
 20
-922.0095919787204
 30
0.0
 11
-412.3402727002374
 21
-849.7099504346484
 31
0.0
  0
LINE
  5
2B4
330
1F
100
AcDbEntity
  8
0-0
  6
JWW_DASHED1
 62
   120
370
     5
100
AcDbLine
 10
-322.3402727002409
 20
-766.781018247938
 30
0.0
 11
-72.34027270024995
 21
-516.7810182479467
 31
0.0
  0
LINE
  5
2B5
330
1F
100
AcDbEntity
  8
0-0
  6
JWW_DASHED1
 62
   120
370
     5
100
AcDbLine
 10
-477.5688464310164
 20
-922.0095919787128
 30
0.0
 11
-412.3402727002485
 21
-856.7810182479458
 31
0.0
  0
LINE
  5
2B6
330
1F
100
AcDbEntity
  8
0-0
  6
JWW_DASHED1
 62
   120
370
     5
100
AcDbLine
 10
-322.340272700234
 20
-773.8520860611621
 30
0.0
 11
-72.34027270024484
 21
-523.8520860611725
 31
0.0
  0
LINE
  5
2B7
330
1F
100
AcDbEntity
  8
0-0
  6
JWW_DASHED1
 62
   120
370
     5
100
AcDbLine
 10
-470.4977786177932
 20
-922.0095919787213
 30
0.0
 11
-412.3402727002409
 21
-863.852086061169
 31
0.0
  0
LINE
  5
2B8
330
1F
100
AcDbEntity
  8
0-0
  6
JWW_DASHED1
 62
   120
370
     5
100
AcDbLine
 10
-322.3402727002443
 20
-780.9231538744579
 30
0.0
 11
-72.34027270025337
 21
-530.9231538744665
 31
0.0
  0
LINE
  5
2B9
330
1F
100
AcDbEntity
  8
0-0
  6
JWW_DASHED1
 62
   120
370
     5
100
AcDbLine
 10
-463.4267108044958
 20
-922.009591978709
 30
0.0
 11
-412.3402727002528
 21
-870.9231538744656
 31
0.0
  0
LINE
  5
2BA
330
1F
100
AcDbEntity
  8
0-0
  6
JWW_DASHED1
 62
   120
370
     5
100
AcDbLine
 10
-322.3402727002409
 20
-787.9942216877394
 30
0.0
 11
-72.3402727002491
 21
-537.9942216877482
 31
0.0
  0
LINE
  5
2BB
330
1F
100
AcDbEntity
  8
0-0
  6
JWW_DASHED1
 62
   120
370
     5
100
AcDbLine
 10
-456.3556429912137
 20
-922.0095919787128
 30
0.0
 11
-412.3402727002485
 21
-877.9942216877472
 31
0.0
  0
LINE
  5
2BC
330
1F
100
AcDbEntity
  8
0-0
  6
JWW_DASHED1
 62
   120
370
     5
100
AcDbLine
 10
-322.3402727002528
 20
-795.0652895010365
 30
0.0
 11
-72.34027270024484
 21
-545.0652895010294
 31
0.0
  0
LINE
  5
2BD
330
1F
100
AcDbEntity
  8
0-0
  6
JWW_DASHED1
 62
   120
370
     5
100
AcDbLine
 10
-449.2845751779299
 20
-922.0095919787145
 30
0.0
 11
-412.3402727002443
 21
-885.0652895010282
 31
0.0
  0
LINE
  5
2BE
330
1F
100
AcDbEntity
  8
0-0
  6
JWW_DASHED1
 62
   120
370
     5
100
AcDbLine
 10
-322.3402727002477
 20
-802.1363573143177
 30
0.0
 11
-72.34027270024143
 21
-552.1363573143107
 31
0.0
  0
LINE
  5
2BF
330
1F
100
AcDbEntity
  8
0-0
  6
JWW_DASHED1
 62
   120
370
     5
100
AcDbLine
 10
-442.2135073646487
 20
-922.0095919787187
 30
0.0
 11
-412.3402727002409
 21
-892.1363573143101
 31
0.0
  0
LINE
  5
2C0
330
1F
100
AcDbEntity
  8
0-0
  6
JWW_DASHED1
 62
   120
370
     5
100
AcDbLine
 10
-322.3402727002443
 20
-809.2074251275998
 30
0.0
 11
-72.34027270025251
 21
-559.2074251276081
 31
0.0
  0
LINE
  5
2C1
330
1F
100
AcDbEntity
  8
0-0
  6
JWW_DASHED1
 62
   120
370
     5
100
AcDbLine
 10
-435.1424395513675
 20
-922.0095919787226
 30
0.0
 11
-412.3402727002366
 21
-899.2074251275913
 31
0.0
  0
LINE
  5
2C2
330
1F
100
AcDbEntity
  8
0-0
  6
JWW_DASHED1
 62
   120
370
     5
100
AcDbLine
 10
-322.3402727002409
 20
-816.278492940881
 30
0.0
 11
-72.3402727002491
 21
-566.2784929408897
 31
0.0
  0
LINE
  5
2C3
330
1F
100
AcDbEntity
  8
0-0
  6
JWW_DASHED1
 62
   120
370
     5
100
AcDbLine
 10
-428.0713717380709
 20
-922.0095919787119
 30
0.0
 11
-412.3402727002477
 21
-906.2784929408887
 31
0.0
  0
LINE
  5
2C4
330
1F
100
AcDbEntity
  8
0-0
  6
JWW_DASHED1
 62
   120
370
     5
100
AcDbLine
 10
-322.3402727002374
 20
-823.3495607541639
 30
0.0
 11
-72.3402727002474
 21
-573.3495607541739
 31
0.0
  0
LINE
  5
2C5
330
1F
100
AcDbEntity
  8
0-0
  6
JWW_DASHED1
 62
   120
370
     5
100
AcDbLine
 10
-421.0003039247897
 20
-922.0095919787162
 30
0.0
 11
-412.3402727002443
 21
-913.3495607541699
 31
0.0
  0
LINE
  5
2C6
330
1F
100
AcDbEntity
  8
0-0
  6
JWW_DASHED1
 62
   120
370
     5
100
AcDbLine
 10
-322.3402727002332
 20
-830.4206285674452
 30
0.0
 11
-72.34027270024399
 21
-580.4206285674555
 31
0.0
  0
LINE
  5
2C7
330
1F
100
AcDbEntity
  8
0-0
  6
JWW_DASHED1
 62
   120
370
     5
100
AcDbLine
 10
-413.9292361115076
 20
-922.0095919787192
 30
0.0
 11
-412.34027270024
 21
-920.420628567452
 31
0.0
  0
LINE
  5
2C8
330
1F
100
AcDbEntity
  8
0-0
  6
JWW_DASHED1
 62
   120
370
     5
100
AcDbLine
 10
-322.3402727002562
 20
-837.4916963806983
 30
0.0
 11
-72.34027270024825
 21
-587.4916963806911
 31
0.0
  0
LINE
  5
2C9
330
1F
100
AcDbEntity
  8
0-0
  6
JWW_DASHED1
 62
   120
370
     5
100
AcDbLine
 10
-322.3402727002511
 20
-844.5627641939794
 30
0.0
 11
-72.34027270024399
 21
-594.5627641939724
 31
0.0
  0
LINE
  5
2CA
330
1F
100
AcDbEntity
  8
0-0
  6
JWW_DASHED1
 62
   120
370
     5
100
AcDbLine
 10
-322.3402727002477
 20
-851.6338320072615
 30
0.0
 11
-72.34027270023972
 21
-601.633832007254
 31
0.0
  0
LINE
  5
2CB
330
1F
100
AcDbEntity
  8
0-0
  6
JWW_DASHED1
 62
   120
370
     5
100
AcDbLine
 10
-322.3402727002443
 20
-858.7048998205428
 30
0.0
 11
-72.34027270025166
 21
-608.704899820551
 31
0.0
  0
LINE
  5
2CC
330
1F
100
AcDbEntity
  8
0-0
  6
JWW_DASHED1
 62
   120
370
     5
100
AcDbLine
 10
-322.3402727002392
 20
-865.7759676338239
 30
0.0
 11
-72.34027270024825
 21
-615.7759676338326
 31
0.0
  0
LINE
  5
2CD
330
1F
100
AcDbEntity
  8
0-0
  6
JWW_DASHED1
 62
   120
370
     5
100
AcDbLine
 10
-322.3402727002357
 20
-872.847035447106
 30
0.0
 11
-72.34027270024654
 21
-622.8470354471164
 31
0.0
  0
LINE
  5
2CE
330
1F
100
AcDbEntity
  8
0-0
  6
JWW_DASHED1
 62
   120
370
     5
100
AcDbLine
 10
-322.3402727002315
 20
-879.9181032603873
 30
0.0
 11
-72.34027270024228
 21
-629.9181032603981
 31
0.0
  0
LINE
  5
2CF
330
1F
100
AcDbEntity
  8
0-0
  6
JWW_DASHED1
 62
   120
370
     5
100
AcDbLine
 10
-322.3402727002434
 20
-886.9891710736842
 30
0.0
 11
-72.34027270025166
 21
-636.9891710736929
 31
0.0
  0
LINE
  5
2D0
330
1F
100
AcDbEntity
  8
0-0
  6
JWW_DASHED1
 62
   120
370
     5
100
AcDbLine
 10
-322.3402727002554
 20
-894.0602388869817
 30
0.0
 11
-72.34027270024825
 21
-644.0602388869742
 31
0.0
  0
LINE
  5
2D1
330
1F
100
AcDbEntity
  8
0-0
  6
JWW_DASHED1
 62
   120
370
     5
100
AcDbLine
 10
-322.3402727002468
 20
-901.1313067002045
 30
0.0
 11
-72.34027270023972
 21
-651.1313067001969
 31
0.0
  0
LINE
  5
2D2
330
1F
100
AcDbEntity
  8
0-0
  6
JWW_DASHED1
 62
   120
370
     5
100
AcDbLine
 10
-322.3402727002426
 20
-908.2023745134857
 30
0.0
 11
-72.34027270025166
 21
-658.202374513494
 31
0.0
  0
LINE
  5
2D3
330
1F
100
AcDbEntity
  8
0-0
  6
JWW_DASHED1
 62
   120
370
     5
100
AcDbLine
 10
-322.3402727002392
 20
-915.2734423267669
 30
0.0
 11
-72.3402727002491
 21
-665.2734423267777
 31
0.0
  0
LINE
  5
2D4
330
1F
100
AcDbEntity
  8
0-0
  6
JWW_DASHED1
 62
   120
370
     5
100
AcDbLine
 10
-322.0053545389106
 20
-922.0095919787243
 30
0.0
 11
-72.34027270024484
 21
-672.3445101400589
 31
0.0
  0
LINE
  5
2D5
330
1F
100
AcDbEntity
  8
0-0
  6
JWW_DASHED1
 62
   120
370
     5
100
AcDbLine
 10
-314.9342867256132
 20
-922.0095919787128
 30
0.0
 11
-72.34027270025507
 21
-679.4155779533546
 31
0.0
  0
LINE
  5
2D6
330
1F
100
AcDbEntity
  8
0-0
  6
JWW_DASHED1
 62
   120
370
     5
100
AcDbLine
 10
-307.863218912332
 20
-922.0095919787162
 30
0.0
 11
-72.34027270025081
 21
-686.4866457666359
 31
0.0
  0
LINE
  5
2D7
330
1F
100
AcDbEntity
  8
0-0
  6
JWW_DASHED1
 62
   120
370
     5
100
AcDbLine
 10
-300.7921510990354
 20
-922.009591978706
 30
0.0
 11
-72.34027270024654
 21
-693.557713579917
 31
0.0
  0
LINE
  5
2D8
330
1F
100
AcDbEntity
  8
0-0
  6
JWW_DASHED1
 62
   120
370
     5
100
AcDbLine
 10
-293.7210832857542
 20
-922.0095919787102
 30
0.0
 11
-72.34027270024313
 21
-700.6287813931983
 31
0.0
  0
LINE
  5
2D9
330
1F
100
AcDbEntity
  8
0-0
  6
JWW_DASHED1
 62
   120
370
     5
100
AcDbLine
 10
-286.6500154724721
 20
-922.0095919787136
 30
0.0
 11
-72.34027270023887
 21
-707.6998492064804
 31
0.0
  0
LINE
  5
2DA
330
1F
100
AcDbEntity
  8
0-0
  6
JWW_DASHED1
 62
   120
370
     5
100
AcDbLine
 10
-279.5789476592481
 20
-922.0095919787196
 30
0.0
 11
-72.34027270024825
 21
-714.7709170197202
 31
0.0
  0
LINE
  5
2DB
330
1F
100
AcDbEntity
  8
0-0
  6
JWW_DASHED1
 62
   120
370
     5
100
AcDbLine
 10
-272.507879845966
 20
-922.0095919787238
 30
0.0
 11
-72.34027270024399
 21
-721.8419848330019
 31
0.0
  0
LINE
  5
2DC
330
1F
100
AcDbEntity
  8
0-0
  6
JWW_DASHED1
 62
   120
370
     5
100
AcDbLine
 10
-265.4368120326686
 20
-922.0095919787119
 30
0.0
 11
-72.34027270025422
 21
-728.9130526462972
 31
0.0
  0
LINE
  5
2DD
330
1F
100
AcDbEntity
  8
0-0
  6
JWW_DASHED1
 62
   120
370
     5
100
AcDbLine
 10
-258.3657442193865
 20
-922.0095919787153
 30
0.0
 11
-72.34027270024995
 21
-735.9841204595788
 31
0.0
  0
LINE
  5
2DE
330
1F
100
AcDbEntity
  8
0-0
  6
JWW_DASHED1
 62
   120
370
     5
100
AcDbLine
 10
-251.2946764060942
 20
-922.0095919787077
 30
0.0
 11
-72.34027270024654
 21
-743.05518827286
 31
0.0
  0
LINE
  5
2DF
330
1F
100
AcDbEntity
  8
0-0
  6
JWW_DASHED1
 62
   120
370
     5
100
AcDbLine
 10
-244.2236085928121
 20
-922.0095919787119
 30
0.0
 11
-72.34027270024143
 21
-750.1262560861412
 31
0.0
  0
LINE
  5
2E0
330
1F
100
AcDbEntity
  8
0-0
  6
JWW_DASHED1
 62
   120
370
     5
100
AcDbLine
 10
-237.1525407795258
 20
-922.0095919787111
 30
0.0
 11
-72.34027270025337
 21
-757.1973238994386
 31
0.0
  0
LINE
  5
2E1
330
1F
100
AcDbEntity
  8
0-0
  6
JWW_DASHED1
 62
   120
370
     5
100
AcDbLine
 10
-230.0814729662437
 20
-922.0095919787141
 30
0.0
 11
-72.34027270024995
 21
-764.2683917127207
 31
0.0
  0
LINE
  5
2E2
330
1F
100
AcDbEntity
  8
0-0
  6
JWW_DASHED1
 62
   120
370
     5
100
AcDbLine
 10
-223.0104051529625
 20
-922.0095919787179
 30
0.0
 11
-72.34027270024654
 21
-771.3394595260028
 31
0.0
  0
LINE
  5
2E3
330
1F
100
AcDbEntity
  8
0-0
  6
JWW_DASHED1
 62
   120
370
     5
100
AcDbLine
 10
-215.9393373397231
 20
-922.0095919787102
 30
0.0
 11
-72.34027270025337
 21
-778.4105273392399
 31
0.0
  0
LINE
  5
2E4
330
1F
100
AcDbEntity
  8
0-0
  6
JWW_DASHED1
 62
   120
370
     5
100
AcDbLine
 10
-208.8682695264333
 20
-922.009591978706
 30
0.0
 11
-72.3402727002491
 21
-785.4815951525218
 31
0.0
  0
LINE
  5
2E5
330
1F
100
AcDbEntity
  8
0-0
  6
JWW_DASHED1
 62
   120
370
     5
100
AcDbLine
 10
-201.7972017131521
 20
-922.0095919787094
 30
0.0
 11
-72.34027270024484
 21
-792.5526629658029
 31
0.0
  0
LINE
  5
2E6
330
1F
100
AcDbEntity
  8
0-0
  6
JWW_DASHED1
 62
   120
370
     5
100
AcDbLine
 10
-194.72613389987
 20
-922.0095919787136
 30
0.0
 11
-72.34027270024143
 21
-799.6237307790844
 31
0.0
  0
LINE
  5
2E7
330
1F
100
AcDbEntity
  8
0-0
  6
JWW_DASHED1
 62
   120
370
     5
100
AcDbLine
 10
-187.6550660865811
 20
-922.0095919787094
 30
0.0
 11
-72.34027270025337
 21
-806.6947985923816
 31
0.0
  0
LINE
  5
2E8
330
1F
100
AcDbEntity
  8
0-0
  6
JWW_DASHED1
 62
   120
370
     5
100
AcDbLine
 10
-180.5839982732991
 20
-922.009591978713
 30
0.0
 11
-72.3402727002491
 21
-813.7658664056637
 31
0.0
  0
LINE
  5
2E9
330
1F
100
AcDbEntity
  8
0-0
  6
JWW_DASHED1
 62
   120
370
     5
100
AcDbLine
 10
-173.512930460017
 20
-922.009591978717
 30
0.0
 11
-72.34027270024569
 21
-820.8369342189458
 31
0.0
  0
LINE
  5
2EA
330
1F
100
AcDbEntity
  8
0-0
  6
JWW_DASHED1
 62
   120
370
     5
100
AcDbLine
 10
-166.4418626467358
 20
-922.0095919787209
 30
0.0
 11
-72.34027270024143
 21
-827.9080020322269
 31
0.0
  0
LINE
  5
2EB
330
1F
100
AcDbEntity
  8
0-0
  6
JWW_DASHED1
 62
   120
370
     5
100
AcDbLine
 10
-159.3707948334375
 20
-922.0095919787085
 30
0.0
 11
-72.34027270025251
 21
-834.9790698455236
 31
0.0
  0
LINE
  5
2EC
330
1F
100
AcDbEntity
  8
0-0
  6
JWW_DASHED1
 62
   120
370
     5
100
AcDbLine
 10
-152.29972702021
 20
-922.0095919787119
 30
0.0
 11
-72.34027270024484
 21
-842.0501376587459
 31
0.0
  0
LINE
  5
2ED
330
1F
100
AcDbEntity
  8
0-0
  6
JWW_DASHED1
 62
   120
370
     5
100
AcDbLine
 10
-145.2286592069288
 20
-922.0095919787158
 30
0.0
 11
-72.34027270024058
 21
-849.1212054720276
 31
0.0
  0
LINE
  5
2EE
330
1F
100
AcDbEntity
  8
0-0
  6
JWW_DASHED1
 62
   120
370
     5
100
AcDbLine
 10
-138.1575913936356
 20
-922.0095919787085
 30
0.0
 11
-72.34027270025251
 21
-856.192273285325
 31
0.0
  0
LINE
  5
2EF
330
1F
100
AcDbEntity
  8
0-0
  6
JWW_DASHED1
 62
   120
370
     5
100
AcDbLine
 10
-131.0865235803536
 20
-922.0095919787119
 30
0.0
 11
-72.34027270024825
 21
-863.2633410986066
 31
0.0
  0
LINE
  5
2F0
330
1F
100
AcDbEntity
  8
0-0
  6
JWW_DASHED1
 62
   120
370
     5
100
AcDbLine
 10
-124.0154557670724
 20
-922.0095919787162
 30
0.0
 11
-72.34027270024484
 21
-870.3344089118881
 31
0.0
  0
LINE
  5
2F1
330
1F
100
AcDbEntity
  8
0-0
  6
JWW_DASHED1
 62
   120
370
     5
100
AcDbLine
 10
-116.9443879537749
 20
-922.0095919787043
 30
0.0
 11
-72.34027270025592
 21
-877.4054767251853
 31
0.0
  0
LINE
  5
2F2
330
1F
100
AcDbEntity
  8
0-0
  6
JWW_DASHED1
 62
   120
370
     5
100
AcDbLine
 10
-109.8733201404937
 20
-922.0095919787077
 30
0.0
 11
-72.34027270025166
 21
-884.4765445384664
 31
0.0
  0
LINE
  5
2F3
330
1F
100
AcDbEntity
  8
0-0
  6
JWW_DASHED1
 62
   120
370
     5
100
AcDbLine
 10
-102.8022523272099
 20
-922.0095919787094
 30
0.0
 11
-72.34027270024825
 21
-891.547612351748
 31
0.0
  0
LINE
  5
2F4
330
1F
100
AcDbEntity
  8
0-0
  6
JWW_DASHED1
 62
   120
370
     5
100
AcDbLine
 10
-95.73118451392787
 20
-922.0095919787136
 30
0.0
 11
-72.34027270024399
 21
-898.6186801650298
 31
0.0
  0
LINE
  5
2F5
330
1F
100
AcDbEntity
  8
0-0
  6
JWW_DASHED1
 62
   120
370
     5
100
AcDbLine
 10
-88.6601167006475
 20
-922.0095919787179
 30
0.0
 11
-72.34027270023972
 21
-905.689747978311
 31
0.0
  0
LINE
  5
2F6
330
1F
100
AcDbEntity
  8
0-0
  6
JWW_DASHED1
 62
   120
370
     5
100
AcDbLine
 10
-81.58904888740977
 20
-922.0095919787111
 30
0.0
 11
-72.3402727002474
 21
-912.7608157915496
 31
0.0
  0
LINE
  5
2F7
330
1F
100
AcDbEntity
  8
0-0
  6
JWW_DASHED1
 62
   120
370
     5
100
AcDbLine
 10
-74.5179810741277
 20
-922.0095919787153
 30
0.0
 11
-72.34027270024313
 21
-919.8318836048308
 31
0.0
  0
LINE
  5
2F8
330
1F
100
AcDbEntity
  8
0-0
  6
JWW_DASHED1
 62
   120
370
     5
100
AcDbLine
 10
117.6597272997682
 20
972.1129188562562
 30
0.0
 11
121.5372164647826
 21
975.9904080212706
 31
0.0
  0
LINE
  5
2F9
330
1F
100
AcDbEntity
  8
0-0
  6
JWW_DASHED1
 62
   120
370
     5
100
AcDbLine
 10
117.6597272997563
 20
965.0418510429588
 30
0.0
 11
128.60828427808
 21
975.990408021283
 31
0.0
  0
LINE
  5
2FA
330
1F
100
AcDbEntity
  8
0-0
  6
JWW_DASHED1
 62
   120
370
     5
100
AcDbLine
 10
117.6597272997648
 20
957.9707832297364
 30
0.0
 11
135.6793520913033
 21
975.9904080212748
 31
0.0
  0
LINE
  5
2FB
330
1F
100
AcDbEntity
  8
0-0
  6
JWW_DASHED1
 62
   120
370
     5
100
AcDbLine
 10
117.6597272997691
 20
950.899715416455
 30
0.0
 11
142.7504199045845
 21
975.990408021271
 31
0.0
  0
LINE
  5
2FC
330
1F
100
AcDbEntity
  8
0-0
  6
JWW_DASHED1
 62
   120
370
     5
100
AcDbLine
 10
117.6597272997572
 20
943.8286476031576
 30
0.0
 11
149.8214877178802
 21
975.9904080212808
 31
0.0
  0
LINE
  5
2FD
330
1F
100
AcDbEntity
  8
0-0
  6
JWW_DASHED1
 62
   120
370
     5
100
AcDbLine
 10
117.6597272997606
 20
936.7575797898761
 30
0.0
 11
156.8925555311614
 21
975.9904080212765
 31
0.0
  0
LINE
  5
2FE
330
1F
100
AcDbEntity
  8
0-0
  6
JWW_DASHED1
 62
   120
370
     5
100
AcDbLine
 10
117.6597272997648
 20
929.6865119765949
 30
0.0
 11
163.9636233444426
 21
975.9904080212727
 31
0.0
  0
LINE
  5
2FF
330
1F
100
AcDbEntity
  8
0-0
  6
JWW_DASHED1
 62
   120
370
     5
100
AcDbLine
 10
117.6597272997691
 20
922.6154441633131
 30
0.0
 11
171.0346911577281
 21
975.9904080212718
 31
0.0
  0
LINE
  5
300
330
1F
100
AcDbEntity
  8
0-0
  6
JWW_DASHED1
 62
   120
370
     5
100
AcDbLine
 10
117.659727299758
 20
915.5443763500167
 30
0.0
 11
178.1057589710255
 21
975.9904080212838
 31
0.0
  0
LINE
  5
301
330
1F
100
AcDbEntity
  8
0-0
  6
JWW_DASHED1
 62
   120
370
     5
100
AcDbLine
 10
117.6597272997614
 20
908.4733085367351
 30
0.0
 11
185.1768267843067
 21
975.9904080212799
 31
0.0
  0
LINE
  5
302
330
1F
100
AcDbEntity
  8
0-0
  6
JWW_DASHED1
 62
   120
370
     5
100
AcDbLine
 10
117.6597272997648
 20
901.402240723453
 30
0.0
 11
192.247894597588
 21
975.9904080212762
 31
0.0
  0
LINE
  5
303
330
1F
100
AcDbEntity
  8
0-0
  6
JWW_DASHED1
 62
   120
370
     5
100
AcDbLine
 10
117.6597272997716
 20
894.3311729102012
 30
0.0
 11
199.318962410841
 21
975.9904080212706
 31
0.0
  0
LINE
  5
304
330
1F
100
AcDbEntity
  8
0-0
  6
JWW_DASHED1
 62
   120
370
     5
100
AcDbLine
 10
117.6597272997614
 20
887.2601050969332
 30
0.0
 11
206.3900302241035
 21
975.9904080212748
 31
0.0
  0
LINE
  5
305
330
1F
100
AcDbEntity
  8
0-0
  6
JWW_DASHED1
 62
   120
370
     5
100
AcDbLine
 10
117.6597272997657
 20
880.1890372836519
 30
0.0
 11
213.4610980373847
 21
975.9904080212706
 31
0.0
  0
LINE
  5
306
330
1F
100
AcDbEntity
  8
0-0
  6
JWW_DASHED1
 62
   120
370
     5
100
AcDbLine
 10
117.6597272997546
 20
873.1179694703554
 30
0.0
 11
220.5321658506881
 21
975.9904080212884
 31
0.0
  0
LINE
  5
307
330
1F
100
AcDbEntity
  8
0-0
  6
JWW_DASHED1
 62
   120
370
     5
100
AcDbLine
 10
117.6597272997589
 20
866.0469016570742
 30
0.0
 11
227.6032336639702
 21
975.990408021285
 31
0.0
  0
LINE
  5
308
330
1F
100
AcDbEntity
  8
0-0
  6
JWW_DASHED1
 62
   120
370
     5
100
AcDbLine
 10
117.6597272997623
 20
858.9758338437915
 30
0.0
 11
234.6743014772514
 21
975.9904080212813
 31
0.0
  0
LINE
  5
309
330
1F
100
AcDbEntity
  8
0-0
  6
JWW_DASHED1
 62
   120
370
     5
100
AcDbLine
 10
117.6597272997657
 20
851.90476603051
 30
0.0
 11
241.7453692905335
 21
975.9904080212774
 31
0.0
  0
LINE
  5
30A
330
1F
100
AcDbEntity
  8
0-0
  6
JWW_DASHED1
 62
   120
370
     5
100
AcDbLine
 10
117.6597272997699
 20
844.8336982172289
 30
0.0
 11
248.8164371038155
 21
975.9904080212735
 31
0.0
  0
LINE
  5
30B
330
1F
100
AcDbEntity
  8
0-0
  6
JWW_DASHED1
 62
   120
370
     5
100
AcDbLine
 10
117.659727299758
 20
837.7626304039314
 30
0.0
 11
255.8875049171044
 21
975.990408021277
 31
0.0
  0
LINE
  5
30C
330
1F
100
AcDbEntity
  8
0-0
  6
JWW_DASHED1
 62
   120
370
     5
100
AcDbLine
 10
117.6597272997648
 20
830.6915625906792
 30
0.0
 11
262.9585727303558
 21
975.9904080212706
 31
0.0
  0
LINE
  5
30D
330
1F
100
AcDbEntity
  8
0-0
  6
JWW_DASHED1
 62
   120
370
     5
100
AcDbLine
 10
117.6597272997563
 20
823.6204947774129
 30
0.0
 11
270.0296405436328
 21
975.9904080212898
 31
0.0
  0
LINE
  5
30E
330
1F
100
AcDbEntity
  8
0-0
  6
JWW_DASHED1
 62
   120
370
     5
100
AcDbLine
 10
117.6597272997606
 20
816.5494269641315
 30
0.0
 11
277.1007083569148
 21
975.9904080212859
 31
0.0
  0
LINE
  5
30F
330
1F
100
AcDbEntity
  8
0-0
  6
JWW_DASHED1
 62
   120
370
     5
100
AcDbLine
 10
117.6597272997631
 20
809.4783591508487
 30
0.0
 11
284.1717761701969
 21
975.9904080212821
 31
0.0
  0
LINE
  5
310
330
1F
100
AcDbEntity
  8
0-0
  6
JWW_DASHED1
 62
   120
370
     5
100
AcDbLine
 10
117.6597272997665
 20
802.4072913375671
 30
0.0
 11
291.2428439834781
 21
975.9904080212782
 31
0.0
  0
LINE
  5
311
330
1F
100
AcDbEntity
  8
0-0
  6
JWW_DASHED1
 62
   120
370
     5
100
AcDbLine
 10
117.6597272997708
 20
795.3362235242853
 30
0.0
 11
298.3139117967602
 21
975.9904080212748
 31
0.0
  0
LINE
  5
312
330
1F
100
AcDbEntity
  8
0-0
  6
JWW_DASHED1
 62
   120
370
     5
100
AcDbLine
 10
117.6597272997597
 20
788.2651557109884
 30
0.0
 11
305.3849796100457
 21
975.9904080212748
 31
0.0
  0
LINE
  5
313
330
1F
100
AcDbEntity
  8
0-0
  6
JWW_DASHED1
 62
   120
370
     5
100
AcDbLine
 10
117.6597272997631
 20
781.1940878977068
 30
0.0
 11
312.4560474233269
 21
975.9904080212706
 31
0.0
  0
LINE
  5
314
330
1F
100
AcDbEntity
  8
0-0
  6
JWW_DASHED1
 62
   120
370
     5
100
AcDbLine
 10
117.6597272997674
 20
774.1230200844254
 30
0.0
 11
319.5271152366209
 21
975.9904080212791
 31
0.0
  0
LINE
  5
315
330
1F
100
AcDbEntity
  8
0-0
  6
JWW_DASHED1
 62
   120
370
     5
100
AcDbLine
 10
117.6597272997589
 20
767.0519522711593
 30
0.0
 11
326.5981830498893
 21
975.9904080212893
 31
0.0
  0
LINE
  5
316
330
1F
100
AcDbEntity
  8
0-0
  6
JWW_DASHED1
 62
   120
370
     5
100
AcDbLine
 10
117.659727299764
 20
759.9808844579057
 30
0.0
 11
333.6692508631415
 21
975.9904080212833
 31
0.0
  0
LINE
  5
317
330
1F
100
AcDbEntity
  8
0-0
  6
JWW_DASHED1
 62
   120
370
     5
100
AcDbLine
 10
117.6597272997674
 20
752.9098166446241
 30
0.0
 11
340.7403186764228
 21
975.9904080212796
 31
0.0
  0
LINE
  5
318
330
1F
100
AcDbEntity
  8
0-0
  6
JWW_DASHED1
 62
   120
370
     5
100
AcDbLine
 10
117.6597272997563
 20
745.8387488313272
 30
0.0
 11
347.8113864897065
 21
975.990408021277
 31
0.0
  0
LINE
  5
319
330
1F
100
AcDbEntity
  8
0-0
  6
JWW_DASHED1
 62
   120
370
     5
100
AcDbLine
 10
117.6597272997597
 20
738.7676810180456
 30
0.0
 11
354.8824543029869
 21
975.9904080212727
 31
0.0
  0
LINE
  5
31A
330
1F
100
AcDbEntity
  8
0-0
  6
JWW_DASHED1
 62
   120
370
     5
100
AcDbLine
 10
117.659727299764
 20
731.6966132047638
 30
0.0
 11
361.953522116269
 21
975.9904080212684
 31
0.0
  0
LINE
  5
31B
330
1F
100
AcDbEntity
  8
0-0
  6
JWW_DASHED1
 62
   120
370
     5
100
AcDbLine
 10
117.6597272997682
 20
724.6255453914827
 30
0.0
 11
367.6597272997591
 21
974.625545391474
 31
0.0
  0
LINE
  5
31C
330
1F
100
AcDbEntity
  8
0-0
  6
JWW_DASHED1
 62
   120
370
     5
100
AcDbLine
 10
117.6597272997589
 20
717.5544775781877
 30
0.0
 11
367.6597272997481
 21
967.5544775781769
 31
0.0
  0
LINE
  5
31D
330
1F
100
AcDbEntity
  8
0-0
  6
JWW_DASHED1
 62
   120
370
     5
100
AcDbLine
 10
117.6597272997623
 20
710.4834097649057
 30
0.0
 11
367.6597272997523
 21
960.4834097648958
 31
0.0
  0
LINE
  5
31E
330
1F
100
AcDbEntity
  8
0-0
  6
JWW_DASHED1
 62
   120
370
     5
100
AcDbLine
 10
117.6597272997665
 20
703.4123419516518
 30
0.0
 11
367.6597272997583
 21
953.4123419516434
 31
0.0
  0
LINE
  5
31F
330
1F
100
AcDbEntity
  8
0-0
  6
JWW_DASHED1
 62
   120
370
     5
100
AcDbLine
 10
117.6597272997572
 20
696.3412741383842
 30
0.0
 11
367.6597272997643
 21
946.3412741383913
 31
0.0
  0
LINE
  5
320
330
1F
100
AcDbEntity
  8
0-0
  6
JWW_DASHED1
 62
   120
370
     5
100
AcDbLine
 10
117.6597272997614
 20
689.2702063251025
 30
0.0
 11
367.6597272997685
 21
939.2702063251099
 31
0.0
  0
LINE
  5
321
330
1F
100
AcDbEntity
  8
0-0
  6
JWW_DASHED1
 62
   120
370
     5
100
AcDbLine
 10
117.6597272997648
 20
682.1991385118209
 30
0.0
 11
367.6597272997728
 21
932.1991385118284
 31
0.0
  0
LINE
  5
322
330
1F
100
AcDbEntity
  8
0-0
  6
JWW_DASHED1
 62
   120
370
     5
100
AcDbLine
 10
117.6597272997554
 20
675.1280706985265
 30
0.0
 11
367.6597272997455
 21
925.1280706985157
 31
0.0
  0
LINE
  5
323
330
1F
100
AcDbEntity
  8
0-0
  6
JWW_DASHED1
 62
   120
370
     5
100
AcDbLine
 10
117.6597272997597
 20
668.0570028852449
 30
0.0
 11
367.6597272997489
 21
918.0570028852345
 31
0.0
  0
LINE
  5
324
330
1F
100
AcDbEntity
  8
0-0
  6
JWW_DASHED1
 62
   120
370
     5
100
AcDbLine
 10
117.6597272997606
 20
660.9859350719606
 30
0.0
 11
367.6597272997523
 21
910.9859350719524
 31
0.0
  0
LINE
  5
325
330
1F
100
AcDbEntity
  8
0-0
  6
JWW_DASHED1
 62
   120
370
     5
100
AcDbLine
 10
117.6597272997648
 20
653.9148672586795
 30
0.0
 11
367.6597272997566
 21
903.9148672586706
 31
0.0
  0
LINE
  5
326
330
1F
100
AcDbEntity
  8
0-0
  6
JWW_DASHED1
 62
   120
370
     5
100
AcDbLine
 10
117.6597272997691
 20
646.8437994453977
 30
0.0
 11
367.6597272997608
 21
896.8437994453895
 31
0.0
  0
LINE
  5
327
330
1F
100
AcDbEntity
  8
0-0
  6
JWW_DASHED1
 62
   120
370
     5
100
AcDbLine
 10
117.6597272997572
 20
639.7727316321008
 30
0.0
 11
367.6597272997643
 21
889.7727316321079
 31
0.0
  0
LINE
  5
328
330
1F
100
AcDbEntity
  8
0-0
  6
JWW_DASHED1
 62
   120
370
     5
100
AcDbLine
 10
457.6597272997651
 20
972.7016638188774
 30
0.0
 11
460.9484715021634
 21
975.9904080212752
 31
0.0
  0
LINE
  5
329
330
1F
100
AcDbEntity
  8
0-0
  6
JWW_DASHED1
 62
   120
370
     5
100
AcDbLine
 10
117.6597272997657
 20
632.7016638188779
 30
0.0
 11
367.6597272997728
 21
882.7016638188855
 31
0.0
  0
LINE
  5
32A
330
1F
100
AcDbEntity
  8
0-0
  6
JWW_DASHED1
 62
   120
370
     5
100
AcDbLine
 10
457.6597272997532
 20
965.63059600558
 30
0.0
 11
468.0195393154608
 21
975.9904080212872
 31
0.0
  0
LINE
  5
32B
330
1F
100
AcDbEntity
  8
0-0
  6
JWW_DASHED1
 62
   120
370
     5
100
AcDbLine
 10
117.6597272997563
 20
625.6305960055836
 30
0.0
 11
367.6597272997464
 21
875.630596005573
 31
0.0
  0
LINE
  5
32C
330
1F
100
AcDbEntity
  8
0-0
  6
JWW_DASHED1
 62
   120
370
     5
100
AcDbLine
 10
457.6597272997574
 20
958.5595281922988
 30
0.0
 11
475.090607128742
 21
975.9904080212833
 31
0.0
  0
LINE
  5
32D
330
1F
100
AcDbEntity
  8
0-0
  6
JWW_DASHED1
 62
   120
370
     5
100
AcDbLine
 10
117.6597272997614
 20
618.5595281923023
 30
0.0
 11
367.6597272997506
 21
868.559528192292
 31
0.0
  0
LINE
  5
32E
330
1F
100
AcDbEntity
  8
0-0
  6
JWW_DASHED1
 62
   120
370
     5
100
AcDbLine
 10
457.6597272997608
 20
951.4884603790172
 30
0.0
 11
482.1616749420241
 21
975.9904080212799
 31
0.0
  0
LINE
  5
32F
330
1F
100
AcDbEntity
  8
0-0
  6
JWW_DASHED1
 62
   120
370
     5
100
AcDbLine
 10
117.6597272997614
 20
611.4884603790177
 30
0.0
 11
367.659727299754
 21
861.4884603790094
 31
0.0
  0
LINE
  5
330
330
1F
100
AcDbEntity
  8
0-0
  6
JWW_DASHED1
 62
   120
370
     5
100
AcDbLine
 10
457.6597272997651
 20
944.4173925657353
 30
0.0
 11
489.2327427553053
 21
975.9904080212762
 31
0.0
  0
LINE
  5
331
330
1F
100
AcDbEntity
  8
0-0
  6
JWW_DASHED1
 62
   120
370
     5
100
AcDbLine
 10
117.6597272997665
 20
604.4173925657369
 30
0.0
 11
367.6597272997574
 21
854.4173925657278
 31
0.0
  0
LINE
  5
332
330
1F
100
AcDbEntity
  8
0-0
  6
JWW_DASHED1
 62
   120
370
     5
100
AcDbLine
 10
457.6597272997532
 20
937.3463247524379
 30
0.0
 11
496.303810568601
 21
975.9904080212855
 31
0.0
  0
LINE
  5
333
330
1F
100
AcDbEntity
  8
0-0
  6
JWW_DASHED1
 62
   120
370
     5
100
AcDbLine
 10
117.6597272997699
 20
597.3463247524548
 30
0.0
 11
367.6597272997617
 21
847.3463247524464
 31
0.0
  0
LINE
  5
334
330
1F
100
AcDbEntity
  8
0-0
  6
JWW_DASHED1
 62
   120
370
     5
100
AcDbLine
 10
457.6597272997574
 20
930.2752569391569
 30
0.0
 11
503.3748783818822
 21
975.9904080212816
 31
0.0
  0
LINE
  5
335
330
1F
100
AcDbEntity
  8
0-0
  6
JWW_DASHED1
 62
   120
370
     5
100
AcDbLine
 10
117.659727299758
 20
590.2752569391579
 30
0.0
 11
367.659727299766
 21
840.2752569391649
 31
0.0
  0
LINE
  5
336
330
1F
100
AcDbEntity
  8
0-0
  6
JWW_DASHED1
 62
   120
370
     5
100
AcDbLine
 10
457.6597272997608
 20
923.2041891258752
 30
0.0
 11
510.4459461951669
 21
975.9904080212808
 31
0.0
  0
LINE
  5
337
330
1F
100
AcDbEntity
  8
0-0
  6
JWW_DASHED1
 62
   120
370
     5
100
AcDbLine
 10
117.6597272997623
 20
583.2041891258762
 30
0.0
 11
367.6597272997694
 21
833.2041891258838
 31
0.0
  0
LINE
  5
338
330
1F
100
AcDbEntity
  8
0-0
  6
JWW_DASHED1
 62
   120
370
     5
100
AcDbLine
 10
457.6597272997651
 20
916.1331213125934
 30
0.0
 11
517.517014008449
 21
975.990408021277
 31
0.0
  0
LINE
  5
339
330
1F
100
AcDbEntity
  8
0-0
  6
JWW_DASHED1
 62
   120
370
     5
100
AcDbLine
 10
117.6597272997657
 20
576.1331213125945
 30
0.0
 11
367.6597272997574
 21
826.1331213125864
 31
0.0
  0
LINE
  5
33A
330
1F
100
AcDbEntity
  8
0-0
  6
JWW_DASHED1
 62
   120
370
     5
100
AcDbLine
 10
457.6597272997583
 20
909.0620534993557
 30
0.0
 11
524.5880818216867
 21
975.9904080212847
 31
0.0
  0
LINE
  5
33B
330
1F
100
AcDbEntity
  8
0-0
  6
JWW_DASHED1
 62
   120
370
     5
100
AcDbLine
 10
117.6597272997623
 20
569.0620534993598
 30
0.0
 11
367.6597272997515
 21
819.0620534993494
 31
0.0
  0
LINE
  5
33C
330
1F
100
AcDbEntity
  8
0-0
  6
JWW_DASHED1
 62
   120
370
     5
100
AcDbLine
 10
457.6597272997617
 20
901.9909856860742
 30
0.0
 11
531.6591496349688
 21
975.9904080212808
 31
0.0
  0
LINE
  5
33D
330
1F
100
AcDbEntity
  8
0-0
  6
JWW_DASHED1
 62
   120
370
     5
100
AcDbLine
 10
117.6597272997631
 20
561.9909856860747
 30
0.0
 11
367.659727299754
 21
811.9909856860666
 31
0.0
  0
LINE
  5
33E
330
1F
100
AcDbEntity
  8
0-0
  6
JWW_DASHED1
 62
   120
370
     5
100
AcDbLine
 10
457.659727299766
 20
894.9199178727926
 30
0.0
 11
538.73021744825
 21
975.990408021277
 31
0.0
  0
LINE
  5
33F
330
1F
100
AcDbEntity
  8
0-0
  6
JWW_DASHED1
 62
   120
370
     5
100
AcDbLine
 10
117.6597272997665
 20
554.9199178727939
 30
0.0
 11
367.6597272997583
 21
804.9199178727847
 31
0.0
  0
LINE
  5
340
330
1F
100
AcDbEntity
  8
0-0
  6
JWW_DASHED1
 62
   120
370
     5
100
AcDbLine
 10
457.659727299754
 20
887.8488500594951
 30
0.0
 11
545.8012852615423
 21
975.9904080212838
 31
0.0
  0
LINE
  5
341
330
1F
100
AcDbEntity
  8
0-0
  6
JWW_DASHED1
 62
   120
370
     5
100
AcDbLine
 10
117.6597272997546
 20
547.8488500594962
 30
0.0
 11
367.6597272997626
 21
797.8488500595037
 31
0.0
  0
LINE
  5
342
330
1F
100
AcDbEntity
  8
0-0
  6
JWW_DASHED1
 62
   120
370
     5
100
AcDbLine
 10
457.6597272997583
 20
880.7777822462137
 30
0.0
 11
552.8723530748234
 21
975.9904080212796
 31
0.0
  0
LINE
  5
343
330
1F
100
AcDbEntity
  8
0-0
  6
JWW_DASHED1
 62
   120
370
     5
100
AcDbLine
 10
117.6597272997589
 20
540.7777822462149
 30
0.0
 11
367.659727299766
 21
790.777782246222
 31
0.0
  0
LINE
  5
344
330
1F
100
AcDbEntity
  8
0-0
  6
JWW_DASHED1
 62
   120
370
     5
100
AcDbLine
 10
457.6597272997626
 20
873.7067144329322
 30
0.0
 11
559.9434208881115
 21
975.9904080212816
 31
0.0
  0
LINE
  5
345
330
1F
100
AcDbEntity
  8
0-0
  6
JWW_DASHED1
 62
   120
370
     5
100
AcDbLine
 10
117.6597272997631
 20
533.7067144329333
 30
0.0
 11
367.6597272997702
 21
783.7067144329408
 31
0.0
  0
LINE
  5
346
330
1F
100
AcDbEntity
  8
0-0
  6
JWW_DASHED1
 62
   120
370
     5
100
AcDbLine
 10
457.659727299766
 20
866.6356466196506
 30
0.0
 11
567.0144887013928
 21
975.9904080212779
 31
0.0
  0
LINE
  5
347
330
1F
100
AcDbEntity
  8
0-0
  6
JWW_DASHED1
 62
   120
370
     5
100
AcDbLine
 10
117.6597272997665
 20
526.6356466196517
 30
0.0
 11
367.6597272997591
 21
776.6356466196434
 31
0.0
  0
LINE
  5
348
330
1F
100
AcDbEntity
  8
0-0
  6
JWW_DASHED1
 62
   120
370
     5
100
AcDbLine
 10
457.6597272997549
 20
859.5645788063545
 30
0.0
 11
574.085556514691
 21
975.9904080212901
 31
0.0
  0
LINE
  5
349
330
1F
100
AcDbEntity
  8
0-0
  6
JWW_DASHED1
 62
   120
370
     5
100
AcDbLine
 10
117.6597272997589
 20
519.5645788063584
 30
0.0
 11
367.6597272997489
 21
769.5645788063476
 31
0.0
  0
LINE
  5
34A
330
1F
100
AcDbEntity
  8
0-0
  6
JWW_DASHED1
 62
   120
370
     5
100
AcDbLine
 10
457.6597272997591
 20
852.4935109930733
 30
0.0
 11
581.1566243279722
 21
975.9904080212864
 31
0.0
  0
LINE
  5
34B
330
1F
100
AcDbEntity
  8
0-0
  6
JWW_DASHED1
 62
   120
370
     5
100
AcDbLine
 10
117.6597272997631
 20
512.4935109930768
 30
0.0
 11
367.6597272997523
 21
762.4935109930665
 31
0.0
  0
LINE
  5
34C
330
1F
100
AcDbEntity
  8
0-0
  6
JWW_DASHED1
 62
   120
370
     5
100
AcDbLine
 10
457.6597272997506
 20
845.4224431798339
 30
0.0
 11
588.2276921412031
 21
975.9904080212859
 31
0.0
  0
LINE
  5
34D
330
1F
100
AcDbEntity
  8
0-0
  6
JWW_DASHED1
 62
   120
370
     5
100
AcDbLine
 10
117.6597272997674
 20
505.4224431798506
 30
0.0
 11
367.6597272997591
 21
755.4224431798419
 31
0.0
  0
LINE
  5
34E
330
1F
100
AcDbEntity
  8
0-0
  6
JWW_DASHED1
 62
   120
370
     5
100
AcDbLine
 10
457.6597272997549
 20
838.351375366552
 30
0.0
 11
595.2987599544844
 21
975.9904080212816
 31
0.0
  0
LINE
  5
34F
330
1F
100
AcDbEntity
  8
0-0
  6
JWW_DASHED1
 62
   120
370
     5
100
AcDbLine
 10
117.6597272997554
 20
498.3513753665532
 30
0.0
 11
367.6597272997634
 21
748.3513753665607
 31
0.0
  0
LINE
  5
350
330
1F
100
AcDbEntity
  8
0-0
  6
JWW_DASHED1
 62
   120
370
     5
100
AcDbLine
 10
457.6597272997591
 20
831.280307553271
 30
0.0
 11
602.3698277677656
 21
975.9904080212774
 31
0.0
  0
LINE
  5
351
330
1F
100
AcDbEntity
  8
0-0
  6
JWW_DASHED1
 62
   120
370
     5
100
AcDbLine
 10
117.6597272997597
 20
491.2803075532719
 30
0.0
 11
367.6597272997668
 21
741.280307553279
 31
0.0
  0
LINE
  5
352
330
1F
100
AcDbEntity
  8
0-0
  6
JWW_DASHED1
 62
   120
370
     5
100
AcDbLine
 10
457.6597272997626
 20
824.2092397399894
 30
0.0
 11
609.4408955810561
 21
975.990408021283
 31
0.0
  0
LINE
  5
353
330
1F
100
AcDbEntity
  8
0-0
  6
JWW_DASHED1
 62
   120
370
     5
100
AcDbLine
 10
117.659727299764
 20
484.2092397399903
 30
0.0
 11
367.6597272997711
 21
734.2092397399974
 31
0.0
  0
LINE
  5
354
330
1F
100
AcDbEntity
  8
0-0
  6
JWW_DASHED1
 62
   120
370
     5
100
AcDbLine
 10
457.6597272997668
 20
817.1381719267075
 30
0.0
 11
616.5119633943382
 21
975.9904080212791
 31
0.0
  0
LINE
  5
355
330
1F
100
AcDbEntity
  8
0-0
  6
JWW_DASHED1
 62
   120
370
     5
100
AcDbLine
 10
117.6597272997674
 20
477.1381719267087
 30
0.0
 11
367.6597272997591
 21
727.1381719267005
 31
0.0
  0
LINE
  5
356
330
1F
100
AcDbEntity
  8
0-0
  6
JWW_DASHED1
 62
   120
370
     5
100
AcDbLine
 10
457.6597272997566
 20
810.0671041134118
 30
0.0
 11
623.5830312076357
 21
975.990408021291
 31
0.0
  0
LINE
  5
357
330
1F
100
AcDbEntity
  8
0-0
  6
JWW_DASHED1
 62
   120
370
     5
100
AcDbLine
 10
117.6597272997606
 20
470.067104113416
 30
0.0
 11
367.6597272997498
 21
720.0671041134051
 31
0.0
  0
LINE
  5
358
330
1F
100
AcDbEntity
  8
0-0
  6
JWW_DASHED1
 62
   120
370
     5
100
AcDbLine
 10
457.6597272997608
 20
802.9960363001308
 30
0.0
 11
630.6540990209178
 21
975.9904080212872
 31
0.0
  0
LINE
  5
359
330
1F
100
AcDbEntity
  8
0-0
  6
JWW_DASHED1
 62
   120
370
     5
100
AcDbLine
 10
117.659727299764
 20
462.9960363001343
 30
0.0
 11
367.659727299754
 21
712.9960363001239
 31
0.0
  0
LINE
  5
35A
330
1F
100
AcDbEntity
  8
0-0
  6
JWW_DASHED1
 62
   120
370
     5
100
AcDbLine
 10
457.6597272997634
 20
795.9249684868477
 30
0.0
 11
637.7251668341999
 21
975.9904080212838
 31
0.0
  0
LINE
  5
35B
330
1F
100
AcDbEntity
  8
0-0
  6
JWW_DASHED1
 62
   120
370
     5
100
AcDbLine
 10
117.659727299764
 20
455.9249684868484
 30
0.0
 11
367.6597272997557
 21
705.9249684868402
 31
0.0
  0
LINE
  5
35C
330
1F
100
AcDbEntity
  8
0-0
  6
JWW_DASHED1
 62
   120
370
     5
100
AcDbLine
 10
457.6597272997515
 20
788.8539006735502
 30
0.0
 11
644.7962346474844
 21
975.9904080212838
 31
0.0
  0
LINE
  5
35D
330
1F
100
AcDbEntity
  8
0-0
  6
JWW_DASHED1
 62
   120
370
     5
100
AcDbLine
 10
117.6597272997682
 20
448.8539006735672
 30
0.0
 11
367.65972729976
 21
698.8539006735589
 31
0.0
  0
LINE
  5
35E
330
1F
100
AcDbEntity
  8
0-0
  6
JWW_DASHED1
 62
   120
370
     5
100
AcDbLine
 10
457.65972729976
 20
781.7828328603279
 30
0.0
 11
651.8673024607076
 21
975.9904080212752
 31
0.0
  0
LINE
  5
35F
330
1F
100
AcDbEntity
  8
0-0
  6
JWW_DASHED1
 62
   120
370
     5
100
AcDbLine
 10
117.6597272997606
 20
441.782832860329
 30
0.0
 11
367.6597272997677
 21
691.7828328603362
 31
0.0
  0
LINE
  5
360
330
1F
100
AcDbEntity
  8
0-0
  6
JWW_DASHED1
 62
   120
370
     5
100
AcDbLine
 10
457.6597272997634
 20
774.7117650470464
 30
0.0
 11
658.9383702740017
 21
975.9904080212838
 31
0.0
  0
LINE
  5
361
330
1F
100
AcDbEntity
  8
0-0
  6
JWW_DASHED1
 62
   120
370
     5
100
AcDbLine
 10
117.6597272997648
 20
434.7117650470474
 30
0.0
 11
367.6597272997719
 21
684.7117650470544
 31
0.0
  0
LINE
  5
362
330
1F
100
AcDbEntity
  8
0-0
  6
JWW_DASHED1
 62
   120
370
     5
100
AcDbLine
 10
457.659727299754
 20
767.6406972337511
 30
0.0
 11
666.009438087299
 21
975.9904080212957
 31
0.0
  0
LINE
  5
363
330
1F
100
AcDbEntity
  8
0-0
  6
JWW_DASHED1
 62
   120
370
     5
100
AcDbLine
 10
117.659727299758
 20
427.6406972337551
 30
0.0
 11
367.6597272997472
 21
677.6406972337443
 31
0.0
  0
LINE
  5
364
330
1F
100
AcDbEntity
  8
0-0
  6
JWW_DASHED1
 62
   120
370
     5
100
AcDbLine
 10
457.6597272997574
 20
760.5696294204695
 30
0.0
 11
673.0805059005803
 21
975.9904080212923
 31
0.0
  0
LINE
  5
365
330
1F
100
AcDbEntity
  8
0-0
  6
JWW_DASHED1
 62
   120
370
     5
100
AcDbLine
 10
117.6597272997614
 20
420.569629420473
 30
0.0
 11
367.6597272997506
 21
670.5696294204627
 31
0.0
  0
LINE
  5
366
330
1F
100
AcDbEntity
  8
0-0
  6
JWW_DASHED1
 62
   120
370
     5
100
AcDbLine
 10
457.65972729976
 20
753.498561607186
 30
0.0
 11
680.1515737138624
 21
975.9904080212884
 31
0.0
  0
LINE
  5
367
330
1F
100
AcDbEntity
  8
0-0
  6
JWW_DASHED1
 62
   120
370
     5
100
AcDbLine
 10
117.6597272997614
 20
413.4985616071871
 30
0.0
 11
367.6597272997523
 21
663.4985616071789
 31
0.0
  0
LINE
  5
368
330
1F
100
AcDbEntity
  8
0-0
  6
JWW_DASHED1
 62
   120
370
     5
100
AcDbLine
 10
457.6597272997643
 20
746.4274937939049
 30
0.0
 11
687.2226415271437
 21
975.9904080212847
 31
0.0
  0
LINE
  5
369
330
1F
100
AcDbEntity
  8
0-0
  6
JWW_DASHED1
 62
   120
370
     5
100
AcDbLine
 10
117.6597272997648
 20
406.4274937939055
 30
0.0
 11
367.6597272997566
 21
656.4274937938972
 31
0.0
  0
LINE
  5
36A
330
1F
100
AcDbEntity
  8
0-0
  6
JWW_DASHED1
 62
   120
370
     5
100
AcDbLine
 10
457.6597272997523
 20
739.3564259806075
 30
0.0
 11
694.2937093404265
 21
975.9904080212816
 31
0.0
  0
LINE
  5
36B
330
1F
100
AcDbEntity
  8
0-0
  6
JWW_DASHED1
 62
   120
370
     5
100
AcDbLine
 10
117.6597272997691
 20
399.3564259806242
 30
0.0
 11
367.6597272997608
 21
649.356425980616
 31
0.0
  0
LINE
  5
36C
330
1F
100
AcDbEntity
  8
0-0
  6
JWW_DASHED1
 62
   120
370
     5
100
AcDbLine
 10
457.6597272997566
 20
732.2853581673262
 30
0.0
 11
701.3647771537078
 21
975.9904080212774
 31
0.0
  0
LINE
  5
36D
330
1F
100
AcDbEntity
  8
0-0
  6
JWW_DASHED1
 62
   120
370
     5
100
AcDbLine
 10
117.6597272997572
 20
392.2853581673268
 30
0.0
 11
367.6597272997643
 21
642.2853581673344
 31
0.0
  0
LINE
  5
36E
330
1F
100
AcDbEntity
  8
0-0
  6
JWW_DASHED1
 62
   120
370
     5
100
AcDbLine
 10
457.65972729976
 20
725.2142903540446
 30
0.0
 11
707.659727299768
 21
975.2142903540521
 31
0.0
  0
LINE
  5
36F
330
1F
100
AcDbEntity
  8
0-0
  6
JWW_DASHED1
 62
   120
370
     5
100
AcDbLine
 10
117.6597272997614
 20
385.2142903540456
 30
0.0
 11
367.6597272997685
 21
635.2142903540527
 31
0.0
  0
LINE
  5
370
330
1F
100
AcDbEntity
  8
0-0
  6
JWW_DASHED1
 62
   120
370
     5
100
AcDbLine
 10
457.6597272997549
 20
718.1432225408081
 30
0.0
 11
707.6597272997449
 21
968.1432225407978
 31
0.0
  0
LINE
  5
371
330
1F
100
AcDbEntity
  8
0-0
  6
JWW_DASHED1
 62
   120
370
     5
100
AcDbLine
 10
117.6597272997589
 20
378.1432225408121
 30
0.0
 11
367.6597272997481
 21
628.1432225408017
 31
0.0
  0
LINE
  5
372
330
1F
100
AcDbEntity
  8
0-0
  6
JWW_DASHED1
 62
   120
370
     5
100
AcDbLine
 10
457.6597272997591
 20
711.0721547275269
 30
0.0
 11
707.6597272997483
 21
961.0721547275166
 31
0.0
  0
LINE
  5
373
330
1F
100
AcDbEntity
  8
0-0
  6
JWW_DASHED1
 62
   120
370
     5
100
AcDbLine
 10
117.6597272997631
 20
371.0721547275309
 30
0.0
 11
367.6597272997523
 21
621.0721547275201
 31
0.0
  0
LINE
  5
374
330
1F
100
AcDbEntity
  8
0-0
  6
JWW_DASHED1
 62
   120
370
     5
100
AcDbLine
 10
457.6597272997608
 20
704.0010869142432
 30
0.0
 11
707.6597272997526
 21
954.0010869142347
 31
0.0
  0
LINE
  5
375
330
1F
100
AcDbEntity
  8
0-0
  6
JWW_DASHED1
 62
   120
370
     5
100
AcDbLine
 10
117.6597272997614
 20
364.0010869142441
 30
0.0
 11
367.6597272997532
 21
614.0010869142359
 31
0.0
  0
LINE
  5
376
330
1F
100
AcDbEntity
  8
0-0
  6
JWW_DASHED1
 62
   120
370
     5
100
AcDbLine
 10
457.6597272997651
 20
696.9300191009619
 30
0.0
 11
707.6597272997569
 21
946.9300191009532
 31
0.0
  0
LINE
  5
377
330
1F
100
AcDbEntity
  8
0-0
  6
JWW_DASHED1
 62
   120
370
     5
100
AcDbLine
 10
117.6597272997657
 20
356.9300191009625
 30
0.0
 11
367.6597272997574
 21
606.9300191009543
 31
0.0
  0
LINE
  5
378
330
1F
100
AcDbEntity
  8
0-0
  6
JWW_DASHED1
 62
   120
370
     5
100
AcDbLine
 10
457.6597272997532
 20
689.8589512876645
 30
0.0
 11
707.6597272997603
 21
939.8589512876721
 31
0.0
  0
LINE
  5
379
330
1F
100
AcDbEntity
  8
0-0
  6
JWW_DASHED1
 62
   120
370
     5
100
AcDbLine
 10
117.6597272997546
 20
349.8589512876659
 30
0.0
 11
367.6597272997608
 21
599.8589512876727
 31
0.0
  0
LINE
  5
37A
330
1F
100
AcDbEntity
  8
0-0
  6
JWW_DASHED1
 62
   120
370
     5
100
AcDbLine
 10
457.6597272997574
 20
682.7878834743829
 30
0.0
 11
707.6597272997645
 21
932.7878834743902
 31
0.0
  0
LINE
  5
37B
330
1F
100
AcDbEntity
  8
0-0
  6
JWW_DASHED1
 62
   120
370
     5
100
AcDbLine
 10
117.659727299758
 20
342.7878834743839
 30
0.0
 11
367.6597272997651
 21
592.7878834743914
 31
0.0
  0
LINE
  5
37C
330
1F
100
AcDbEntity
  8
0-0
  6
JWW_DASHED1
 62
   120
370
     5
100
AcDbLine
 10
457.6597272997608
 20
675.7168156611012
 30
0.0
 11
707.6597272997526
 21
925.7168156610928
 31
0.0
  0
LINE
  5
37D
330
1F
100
AcDbEntity
  8
0-0
  6
JWW_DASHED1
 62
   120
370
     5
100
AcDbLine
 10
117.6597272997623
 20
335.7168156611027
 30
0.0
 11
367.6597272997694
 21
585.7168156611098
 31
0.0
  0
LINE
  5
37E
330
1F
100
AcDbEntity
  8
0-0
  6
JWW_DASHED1
 62
   120
370
     5
100
AcDbLine
 10
457.6597272997651
 20
668.64574784782
 30
0.0
 11
707.6597272997569
 21
918.6457478478118
 31
0.0
  0
LINE
  5
37F
330
1F
100
AcDbEntity
  8
0-0
  6
JWW_DASHED1
 62
   120
370
     5
100
AcDbLine
 10
117.6597272997665
 20
328.6457478478214
 30
0.0
 11
367.6597272997574
 21
578.6457478478123
 31
0.0
  0
LINE
  5
380
330
1F
100
AcDbEntity
  8
0-0
  6
JWW_DASHED1
 62
   120
370
     5
100
AcDbLine
 10
457.6597272997557
 20
661.5746800345256
 30
0.0
 11
707.6597272997449
 21
911.5746800345148
 31
0.0
  0
LINE
  5
381
330
1F
100
AcDbEntity
  8
0-0
  6
JWW_DASHED1
 62
   120
370
     5
100
AcDbLine
 10
117.6597272997597
 20
321.5746800345291
 30
0.0
 11
367.6597272997489
 21
571.5746800345188
 31
0.0
  0
LINE
  5
382
330
1F
100
AcDbEntity
  8
0-0
  6
JWW_DASHED1
 62
   120
370
     5
100
AcDbLine
 10
457.65972729976
 20
654.5036122212439
 30
0.0
 11
707.6597272997501
 21
904.5036122212335
 31
0.0
  0
LINE
  5
383
330
1F
100
AcDbEntity
  8
0-0
  6
JWW_DASHED1
 62
   120
370
     5
100
AcDbLine
 10
117.659727299764
 20
314.5036122212479
 30
0.0
 11
367.6597272997532
 21
564.5036122212371
 31
0.0
  0
LINE
  5
384
330
1F
100
AcDbEntity
  8
0-0
  6
JWW_DASHED1
 62
   120
370
     5
100
AcDbLine
 10
457.6597272997498
 20
647.4325444080032
 30
0.0
 11
707.6597272997577
 21
897.4325444080104
 31
0.0
  0
LINE
  5
385
330
1F
100
AcDbEntity
  8
0-0
  6
JWW_DASHED1
 62
   120
370
     5
100
AcDbLine
 10
117.6597272997665
 20
307.4325444080196
 30
0.0
 11
367.6597272997583
 21
557.4325444080113
 31
0.0
  0
LINE
  5
386
330
1F
100
AcDbEntity
  8
0-0
  6
JWW_DASHED1
 62
   120
370
     5
100
AcDbLine
 10
457.659727299754
 20
640.3614765947216
 30
0.0
 11
707.6597272997611
 21
890.3614765947285
 31
0.0
  0
LINE
  5
387
330
1F
100
AcDbEntity
  8
0-0
  6
JWW_DASHED1
 62
   120
370
     5
100
AcDbLine
 10
117.6597272997546
 20
300.3614765947221
 30
0.0
 11
367.6597272997617
 21
550.3614765947297
 31
0.0
  0
LINE
  5
388
330
1F
100
AcDbEntity
  8
0-0
  6
JWW_DASHED1
 62
   120
370
     5
100
AcDbLine
 10
457.6597272997574
 20
633.29040878144
 30
0.0
 11
707.6597272997653
 21
883.2904087814475
 31
0.0
  0
LINE
  5
389
330
1F
100
AcDbEntity
  8
0-0
  6
JWW_DASHED1
 62
   120
370
     5
100
AcDbLine
 10
117.6597272997589
 20
293.2904087814409
 30
0.0
 11
367.659727299766
 21
543.2904087814485
 31
0.0
  0
LINE
  5
38A
330
1F
100
AcDbEntity
  8
0-0
  6
JWW_DASHED1
 62
   120
370
     5
100
AcDbLine
 10
457.6597272997617
 20
626.2193409681587
 30
0.0
 11
707.6597272997535
 21
876.21934096815
 31
0.0
  0
LINE
  5
38B
330
1F
100
AcDbEntity
  8
0-0
  6
JWW_DASHED1
 62
   120
370
     5
100
AcDbLine
 10
117.6597272997631
 20
286.2193409681597
 30
0.0
 11
367.6597272997702
 21
536.2193409681668
 31
0.0
  0
LINE
  5
38C
330
1F
100
AcDbEntity
  8
0-0
  6
JWW_DASHED1
 62
   120
370
     5
100
AcDbLine
 10
457.659727299766
 20
619.1482731548771
 30
0.0
 11
707.6597272997577
 21
869.1482731548687
 31
0.0
  0
LINE
  5
38D
330
1F
100
AcDbEntity
  8
0-0
  6
JWW_DASHED1
 62
   120
370
     5
100
AcDbLine
 10
117.6597272997665
 20
279.1482731548785
 30
0.0
 11
367.6597272997583
 21
529.1482731548698
 31
0.0
  0
LINE
  5
38E
330
1F
100
AcDbEntity
  8
0-0
  6
JWW_DASHED1
 62
   120
370
     5
100
AcDbLine
 10
457.6597272997574
 20
612.0772053415831
 30
0.0
 11
707.6597272997467
 21
862.0772053415723
 31
0.0
  0
LINE
  5
38F
330
1F
100
AcDbEntity
  8
0-0
  6
JWW_DASHED1
 62
   120
370
     5
100
AcDbLine
 10
117.6597272997614
 20
272.0772053415866
 30
0.0
 11
367.6597272997506
 21
522.0772053415762
 31
0.0
  0
LINE
  5
390
330
1F
100
AcDbEntity
  8
0-0
  6
JWW_DASHED1
 62
   120
370
     5
100
AcDbLine
 10
457.6597272997608
 20
605.0061375283015
 30
0.0
 11
707.6597272997509
 21
855.0061375282909
 31
0.0
  0
LINE
  5
391
330
1F
100
AcDbEntity
  8
0-0
  6
JWW_DASHED1
 62
   120
370
     5
100
AcDbLine
 10
117.6597272997648
 20
265.0061375283054
 30
0.0
 11
367.659727299754
 21
515.0061375282946
 31
0.0
  0
LINE
  5
392
330
1F
100
AcDbEntity
  8
0-0
  6
JWW_DASHED1
 62
   120
370
     5
100
AcDbLine
 10
457.6597272997626
 20
597.9350697150172
 30
0.0
 11
707.6597272997535
 21
847.9350697150086
 31
0.0
  0
LINE
  5
393
330
1F
100
AcDbEntity
  8
0-0
  6
JWW_DASHED1
 62
   120
370
     5
100
AcDbLine
 10
117.6597272997631
 20
257.9350697150178
 30
0.0
 11
367.6597272997549
 21
507.9350697150095
 31
0.0
  0
LINE
  5
394
330
1F
100
AcDbEntity
  8
0-0
  6
JWW_DASHED1
 62
   120
370
     5
100
AcDbLine
 10
457.6597272997506
 20
590.8640019017198
 30
0.0
 11
707.6597272997577
 21
840.8640019017267
 31
0.0
  0
LINE
  5
395
330
1F
100
AcDbEntity
  8
0-0
  6
JWW_DASHED1
 62
   120
370
     5
100
AcDbLine
 10
117.6597272997674
 20
250.8640019017366
 30
0.0
 11
367.6597272997591
 21
500.8640019017279
 31
0.0
  0
LINE
  5
396
330
1F
100
AcDbEntity
  8
0-0
  6
JWW_DASHED1
 62
   120
370
     5
100
AcDbLine
 10
457.6597272997591
 20
583.792934088497
 30
0.0
 11
707.6597272997662
 21
833.7929340885044
 31
0.0
  0
LINE
  5
397
330
1F
100
AcDbEntity
  8
0-0
  6
JWW_DASHED1
 62
   120
370
     5
100
AcDbLine
 10
117.6597272997597
 20
243.792934088498
 30
0.0
 11
367.6597272997668
 21
493.7929340885055
 31
0.0
  0
LINE
  5
398
330
1F
100
AcDbEntity
  8
0-0
  6
JWW_DASHED1
 62
   120
370
     5
100
AcDbLine
 10
457.6597272997626
 20
576.7218662752158
 30
0.0
 11
707.6597272997543
 21
826.7218662752069
 31
0.0
  0
LINE
  5
399
330
1F
100
AcDbEntity
  8
0-0
  6
JWW_DASHED1
 62
   120
370
     5
100
AcDbLine
 10
117.6597272997631
 20
236.7218662752168
 30
0.0
 11
367.6597272997711
 21
486.7218662752239
 31
0.0
  0
LINE
  5
39A
330
1F
100
AcDbEntity
  8
0-0
  6
JWW_DASHED1
 62
   120
370
     5
100
AcDbLine
 10
457.659727299754
 20
569.6507984619218
 30
0.0
 11
707.6597272997441
 21
819.6507984619112
 31
0.0
  0
LINE
  5
39B
330
1F
100
AcDbEntity
  8
0-0
  6
JWW_DASHED1
 62
   120
370
     5
100
AcDbLine
 10
117.659727299758
 20
229.6507984619253
 30
0.0
 11
367.6597272997472
 21
479.6507984619149
 31
0.0
  0
LINE
  5
39C
330
1F
100
AcDbEntity
  8
0-0
  6
JWW_DASHED1
 62
   120
370
     5
100
AcDbLine
 10
457.6597272997583
 20
562.5797306486405
 30
0.0
 11
707.6597272997483
 21
812.5797306486297
 31
0.0
  0
LINE
  5
39D
330
1F
100
AcDbEntity
  8
0-0
  6
JWW_DASHED1
 62
   120
370
     5
100
AcDbLine
 10
117.6597272997623
 20
222.5797306486441
 30
0.0
 11
367.6597272997515
 21
472.5797306486333
 31
0.0
  0
LINE
  5
39E
330
1F
100
AcDbEntity
  8
0-0
  6
JWW_DASHED1
 62
   120
370
     5
100
AcDbLine
 10
457.6597272997591
 20
555.5086628353555
 30
0.0
 11
707.6597272997501
 21
805.5086628353469
 31
0.0
  0
LINE
  5
39F
330
1F
100
AcDbEntity
  8
0-0
  6
JWW_DASHED1
 62
   120
370
     5
100
AcDbLine
 10
117.6597272997597
 20
215.5086628353565
 30
0.0
 11
367.6597272997515
 21
465.5086628353478
 31
0.0
  0
LINE
  5
3A0
330
1F
100
AcDbEntity
  8
0-0
  6
JWW_DASHED1
 62
   120
370
     5
100
AcDbLine
 10
457.6597272997626
 20
548.4375950220739
 30
0.0
 11
707.6597272997551
 21
798.4375950220656
 31
0.0
  0
LINE
  5
3A1
330
1F
100
AcDbEntity
  8
0-0
  6
JWW_DASHED1
 62
   120
370
     5
100
AcDbLine
 10
117.659727299764
 20
208.4375950220748
 30
0.0
 11
367.6597272997557
 21
458.4375950220666
 31
0.0
  0
LINE
  5
3A2
330
1F
100
AcDbEntity
  8
0-0
  6
JWW_DASHED1
 62
   120
370
     5
100
AcDbLine
 10
457.6597272997515
 20
541.3665272087768
 30
0.0
 11
707.6597272997585
 21
791.366527208784
 31
0.0
  0
LINE
  5
3A3
330
1F
100
AcDbEntity
  8
0-0
  6
JWW_DASHED1
 62
   120
370
     5
100
AcDbLine
 10
117.6597272997674
 20
201.3665272087932
 30
0.0
 11
367.6597272997591
 21
451.3665272087849
 31
0.0
  0
LINE
  5
3A4
330
1F
100
AcDbEntity
  8
0-0
  6
JWW_DASHED1
 62
   120
370
     5
100
AcDbLine
 10
457.6597272997549
 20
534.2954593954952
 30
0.0
 11
707.6597272997628
 21
784.2954593955026
 31
0.0
  0
LINE
  5
3A5
330
1F
100
AcDbEntity
  8
0-0
  6
JWW_DASHED1
 62
   120
370
     5
100
AcDbLine
 10
117.6597272997563
 20
194.2954593954962
 30
0.0
 11
367.6597272997634
 21
444.2954593955033
 31
0.0
  0
LINE
  5
3A6
330
1F
100
AcDbEntity
  8
0-0
  6
JWW_DASHED1
 62
   120
370
     5
100
AcDbLine
 10
457.6597272997591
 20
527.224391582214
 30
0.0
 11
707.6597272997672
 21
777.2243915822211
 31
0.0
  0
LINE
  5
3A7
330
1F
100
AcDbEntity
  8
0-0
  6
JWW_DASHED1
 62
   120
370
     5
100
AcDbLine
 10
117.6597272997597
 20
187.224391582215
 30
0.0
 11
367.6597272997677
 21
437.2243915822221
 31
0.0
  0
LINE
  5
3A8
330
1F
100
AcDbEntity
  8
0-0
  6
JWW_DASHED1
 62
   120
370
     5
100
AcDbLine
 10
457.6597272997557
 20
520.1533237689792
 30
0.0
 11
707.6597272997449
 21
770.1533237689689
 31
0.0
  0
LINE
  5
3A9
330
1F
100
AcDbEntity
  8
0-0
  6
JWW_DASHED1
 62
   120
370
     5
100
AcDbLine
 10
117.6597272997597
 20
180.1533237689832
 30
0.0
 11
367.6597272997489
 21
430.1533237689724
 31
0.0
  0
LINE
  5
3AA
330
1F
100
AcDbEntity
  8
0-0
  6
JWW_DASHED1
 62
   120
370
     5
100
AcDbLine
 10
457.6597272997591
 20
513.0822559556976
 30
0.0
 11
707.6597272997492
 21
763.0822559556872
 31
0.0
  0
LINE
  5
3AB
330
1F
100
AcDbEntity
  8
0-0
  6
JWW_DASHED1
 62
   120
370
     5
100
AcDbLine
 10
117.6597272997631
 20
173.082255955702
 30
0.0
 11
367.6597272997532
 21
423.0822559556912
 31
0.0
  0
LINE
  5
3AC
330
1F
100
AcDbEntity
  8
0-0
  6
JWW_DASHED1
 62
   120
370
     5
100
AcDbLine
 10
457.65972729976
 20
506.0111881424125
 30
0.0
 11
707.6597272997517
 21
756.0111881424039
 31
0.0
  0
LINE
  5
3AD
330
1F
100
AcDbEntity
  8
0-0
  6
JWW_DASHED1
 62
   120
370
     5
100
AcDbLine
 10
117.6597272997606
 20
166.0111881424131
 30
0.0
 11
367.6597272997523
 21
416.0111881424049
 31
0.0
  0
LINE
  5
3AE
330
1F
100
AcDbEntity
  8
0-0
  6
JWW_DASHED1
 62
   120
370
     5
100
AcDbLine
 10
457.6597272997634
 20
498.9401203291309
 30
0.0
 11
707.6597272997551
 21
748.9401203291227
 31
0.0
  0
LINE
  5
3AF
330
1F
100
AcDbEntity
  8
0-0
  6
JWW_DASHED1
 62
   120
370
     5
100
AcDbLine
 10
117.6597272997648
 20
158.9401203291319
 30
0.0
 11
367.6597272997566
 21
408.9401203291237
 31
0.0
  0
LINE
  5
3B0
330
1F
100
AcDbEntity
  8
0-0
  6
JWW_DASHED1
 62
   120
370
     5
100
AcDbLine
 10
457.6597272997523
 20
491.8690525158339
 30
0.0
 11
707.6597272997594
 21
741.869052515841
 31
0.0
  0
LINE
  5
3B1
330
1F
100
AcDbEntity
  8
0-0
  6
JWW_DASHED1
 62
   120
370
     5
100
AcDbLine
 10
117.6597272997682
 20
151.8690525158502
 30
0.0
 11
367.6597272997608
 21
401.869052515842
 31
0.0
  0
LINE
  5
3B2
330
1F
100
AcDbEntity
  8
0-0
  6
JWW_DASHED1
 62
   120
370
     5
100
AcDbLine
 10
457.6597272997557
 20
484.7979847025522
 30
0.0
 11
707.6597272997637
 21
734.7979847025598
 31
0.0
  0
LINE
  5
3B3
330
1F
100
AcDbEntity
  8
0-0
  6
JWW_DASHED1
 62
   120
370
     5
100
AcDbLine
 10
117.6597272997572
 20
144.7979847025533
 30
0.0
 11
367.6597272997643
 21
394.7979847025604
 31
0.0
  0
LINE
  5
3B4
330
1F
100
AcDbEntity
  8
0-0
  6
JWW_DASHED1
 62
   120
370
     5
100
AcDbLine
 10
457.65972729976
 20
477.7269168892706
 30
0.0
 11
707.6597272997517
 21
727.7269168892624
 31
0.0
  0
LINE
  5
3B5
330
1F
100
AcDbEntity
  8
0-0
  6
JWW_DASHED1
 62
   120
370
     5
100
AcDbLine
 10
117.6597272997614
 20
137.726916889272
 30
0.0
 11
367.6597272997685
 21
387.7269168892792
 31
0.0
  0
LINE
  5
3B6
330
1F
100
AcDbEntity
  8
0-0
  6
JWW_DASHED1
 62
   120
370
     5
100
AcDbLine
 10
457.6597272997643
 20
470.6558490759894
 30
0.0
 11
707.6597272997551
 21
720.6558490759808
 31
0.0
  0
LINE
  5
3B7
330
1F
100
AcDbEntity
  8
0-0
  6
JWW_DASHED1
 62
   120
370
     5
100
AcDbLine
 10
117.6597272997648
 20
130.65584907599
 30
0.0
 11
367.6597272997566
 21
380.6558490759817
 31
0.0
  0
LINE
  5
3B8
330
1F
100
AcDbEntity
  8
0-0
  6
JWW_DASHED1
 62
   120
370
     5
100
AcDbLine
 10
457.6597272997566
 20
463.5847812626963
 30
0.0
 11
707.6597272997458
 21
713.5847812626859
 31
0.0
  0
LINE
  5
3B9
330
1F
100
AcDbEntity
  8
0-0
  6
JWW_DASHED1
 62
   120
370
     5
100
AcDbLine
 10
117.6597272997606
 20
123.5847812627002
 30
0.0
 11
367.6597272997498
 21
373.5847812626894
 31
0.0
  0
LINE
  5
3BA
330
1F
100
AcDbEntity
  8
0-0
  6
JWW_DASHED1
 62
   120
370
     5
100
AcDbLine
 10
457.6597272997608
 20
456.5137134494696
 30
0.0
 11
707.6597272997517
 21
706.513713449461
 31
0.0
  0
LINE
  5
3BB
330
1F
100
AcDbEntity
  8
0-0
  6
JWW_DASHED1
 62
   120
370
     5
100
AcDbLine
 10
117.6597272997614
 20
116.5137134494702
 30
0.0
 11
367.6597272997532
 21
366.5137134494619
 31
0.0
  0
LINE
  5
3BC
330
1F
100
AcDbEntity
  8
0-0
  6
JWW_DASHED1
 62
   120
370
     5
100
AcDbLine
 10
457.6597272997489
 20
449.4426456361722
 30
0.0
 11
707.6597272997569
 21
699.4426456361797
 31
0.0
  0
LINE
  5
3BD
330
1F
100
AcDbEntity
  8
0-0
  6
JWW_DASHED1
 62
   120
370
     5
100
AcDbLine
 10
117.6597272997657
 20
109.4426456361889
 30
0.0
 11
367.6597272997574
 21
359.4426456361807
 31
0.0
  0
LINE
  5
3BE
330
1F
100
AcDbEntity
  8
0-0
  6
JWW_DASHED1
 62
   120
370
     5
100
AcDbLine
 10
457.6597272997532
 20
442.371577822891
 30
0.0
 11
707.6597272997603
 21
692.3715778228981
 31
0.0
  0
LINE
  5
3BF
330
1F
100
AcDbEntity
  8
0-0
  6
JWW_DASHED1
 62
   120
370
     5
100
AcDbLine
 10
117.6597272997537
 20
102.3715778228915
 30
0.0
 11
367.6597272997608
 21
352.371577822899
 31
0.0
  0
LINE
  5
3C0
330
1F
100
AcDbEntity
  8
0-0
  6
JWW_DASHED1
 62
   120
370
     5
100
AcDbLine
 10
457.6597272997574
 20
435.3005100096093
 30
0.0
 11
707.6597272997645
 21
685.3005100096168
 31
0.0
  0
LINE
  5
3C1
330
1F
100
AcDbEntity
  8
0-0
  6
JWW_DASHED1
 62
   120
370
     5
100
AcDbLine
 10
117.659727299758
 20
95.3005100096103
 30
0.0
 11
367.6597272997651
 21
345.3005100096174
 31
0.0
  0
LINE
  5
3C2
330
1F
100
AcDbEntity
  8
0-0
  6
JWW_DASHED1
 62
   120
370
     5
100
AcDbLine
 10
457.6597272997608
 20
428.2294421963277
 30
0.0
 11
707.6597272997526
 21
678.2294421963194
 31
0.0
  0
LINE
  5
3C3
330
1F
100
AcDbEntity
  8
0-0
  6
JWW_DASHED1
 62
   120
370
     5
100
AcDbLine
 10
117.6597272997614
 20
88.22944219632866
 30
0.0
 11
367.6597272997694
 21
338.2294421963362
 31
0.0
  0
LINE
  5
3C4
330
1F
100
AcDbEntity
  8
0-0
  6
JWW_DASHED1
 62
   120
370
     5
100
AcDbLine
 10
457.6597272997651
 20
421.1583743830465
 30
0.0
 11
707.6597272997569
 21
671.1583743830378
 31
0.0
  0
LINE
  5
3C5
330
1F
100
AcDbEntity
  8
0-0
  6
JWW_DASHED1
 62
   120
370
     5
100
AcDbLine
 10
117.6597272997657
 20
81.15837438304702
 30
0.0
 11
367.6597272997574
 21
331.1583743830388
 31
0.0
  0
LINE
  5
3C6
330
1F
100
AcDbEntity
  8
0-0
  6
JWW_DASHED1
 62
   120
370
     5
100
AcDbLine
 10
457.6597272997574
 20
414.0873065697537
 30
0.0
 11
707.6597272997475
 21
664.0873065697433
 31
0.0
  0
LINE
  5
3C7
330
1F
100
AcDbEntity
  8
0-0
  6
JWW_DASHED1
 62
   120
370
     5
100
AcDbLine
 10
117.6597272997614
 20
74.08730656975727
 30
0.0
 11
367.6597272997506
 21
324.0873065697469
 31
0.0
  0
LINE
  5
3C8
330
1F
100
AcDbEntity
  8
0-0
  6
JWW_DASHED1
 62
   120
370
     5
100
AcDbLine
 10
457.6597272997617
 20
407.0162387564721
 30
0.0
 11
707.6597272997517
 21
657.0162387564617
 31
0.0
  0
LINE
  5
3C9
330
1F
100
AcDbEntity
  8
0-0
  6
JWW_DASHED1
 62
   120
370
     5
100
AcDbLine
 10
117.6597272997657
 20
67.01623875647606
 30
0.0
 11
367.6597272997549
 21
317.0162387564657
 31
0.0
  0
LINE
  5
3CA
330
1F
100
AcDbEntity
  8
0-0
  6
JWW_DASHED1
 62
   120
370
     5
100
AcDbLine
 10
457.6597272997608
 20
399.9451709431862
 30
0.0
 11
707.6597272997526
 21
649.9451709431775
 31
0.0
  0
LINE
  5
3CB
330
1F
100
AcDbEntity
  8
0-0
  6
JWW_DASHED1
 62
   120
370
     5
100
AcDbLine
 10
117.6597272997623
 20
59.94517094318716
 30
0.0
 11
367.6597272997532
 21
309.9451709431785
 31
0.0
  0
LINE
  5
3CC
330
1F
100
AcDbEntity
  8
0-0
  6
JWW_DASHED1
 62
   120
370
     5
100
AcDbLine
 10
457.6597272997532
 20
392.8741031299476
 30
0.0
 11
707.6597272997611
 21
642.8741031299551
 31
0.0
  0
LINE
  5
3CD
330
1F
100
AcDbEntity
  8
0-0
  6
JWW_DASHED1
 62
   120
370
     5
100
AcDbLine
 10
117.6597272997546
 20
52.87410312994858
 30
0.0
 11
367.6597272997626
 21
302.8741031299561
 31
0.0
  0
LINE
  5
3CE
330
1F
100
AcDbEntity
  8
0-0
  6
JWW_DASHED1
 62
   120
370
     5
100
AcDbLine
 10
457.6597272997574
 20
385.8030353166664
 30
0.0
 11
707.6597272997653
 21
635.8030353166739
 31
0.0
  0
LINE
  5
3CF
330
1F
100
AcDbEntity
  8
0-0
  6
JWW_DASHED1
 62
   120
370
     5
100
AcDbLine
 10
117.6597272997589
 20
45.80303531666736
 30
0.0
 11
367.659727299766
 21
295.8030353166745
 31
0.0
  0
LINE
  5
3D0
330
1F
100
AcDbEntity
  8
0-0
  6
JWW_DASHED1
 62
   120
370
     5
100
AcDbLine
 10
457.6597272997617
 20
378.7319675033847
 30
0.0
 11
707.6597272997535
 21
628.7319675033765
 31
0.0
  0
LINE
  5
3D1
330
1F
100
AcDbEntity
  8
0-0
  6
JWW_DASHED1
 62
   120
370
     5
100
AcDbLine
 10
117.6597272997631
 20
38.73196750338572
 30
0.0
 11
367.6597272997702
 21
288.7319675033933
 31
0.0
  0
LINE
  5
3D2
330
1F
100
AcDbEntity
  8
0-0
  6
JWW_DASHED1
 62
   120
370
     5
100
AcDbLine
 10
457.6597272997549
 20
371.6608996900924
 30
0.0
 11
707.6597272997449
 21
621.660899690082
 31
0.0
  0
LINE
  5
3D3
330
1F
100
AcDbEntity
  8
0-0
  6
JWW_DASHED1
 62
   120
370
     5
100
AcDbLine
 10
117.6597272997589
 20
31.6608996900964
 30
0.0
 11
367.6597272997481
 21
281.6608996900856
 31
0.0
  0
LINE
  5
3D4
330
1F
100
AcDbEntity
  8
0-0
  6
JWW_DASHED1
 62
   120
370
     5
100
AcDbLine
 10
457.6597272997591
 20
364.5898318768112
 30
0.0
 11
707.6597272997483
 21
614.5898318768009
 31
0.0
  0
LINE
  5
3D5
330
1F
100
AcDbEntity
  8
0-0
  6
JWW_DASHED1
 62
   120
370
     5
100
AcDbLine
 10
117.6597272997631
 20
24.58983187681518
 30
0.0
 11
367.6597272997523
 21
274.5898318768044
 31
0.0
  0
LINE
  5
3D6
330
1F
100
AcDbEntity
  8
0-0
  6
JWW_DASHED1
 62
   120
370
     5
100
AcDbLine
 10
457.6597272997574
 20
357.5187640635244
 30
0.0
 11
707.6597272997501
 21
607.5187640635162
 31
0.0
  0
LINE
  5
3D7
330
1F
100
AcDbEntity
  8
0-0
  6
JWW_DASHED1
 62
   120
370
     5
100
AcDbLine
 10
117.6597272997589
 20
17.51876406352544
 30
0.0
 11
367.6597272997506
 21
267.5187640635172
 31
0.0
  0
LINE
  5
3D8
330
1F
100
AcDbEntity
  8
0-0
  6
JWW_DASHED1
 62
   120
370
     5
100
AcDbLine
 10
457.6597272997617
 20
350.4476962502432
 30
0.0
 11
707.6597272997535
 21
600.4476962502346
 31
0.0
  0
LINE
  5
3D9
330
1F
100
AcDbEntity
  8
0-0
  6
JWW_DASHED1
 62
   120
370
     5
100
AcDbLine
 10
117.6597272997631
 20
10.44769625024422
 30
0.0
 11
367.659727299754
 21
260.4476962502355
 31
0.0
  0
LINE
  5
3DA
330
1F
100
AcDbEntity
  8
0-0
  6
JWW_DASHED1
 62
   120
370
     5
100
AcDbLine
 10
457.6597272997506
 20
343.3766284369462
 30
0.0
 11
707.6597272997577
 21
593.3766284369533
 31
0.0
  0
LINE
  5
3DB
330
1F
100
AcDbEntity
  8
0-0
  6
JWW_DASHED1
 62
   120
370
     5
100
AcDbLine
 10
117.6597272997665
 20
3.376628436963003
 30
0.0
 11
367.6597272997583
 21
253.3766284369543
 31
0.0
  0
LINE
  5
3DC
330
1F
100
AcDbEntity
  8
0-0
  6
JWW_DASHED1
 62
   120
370
     5
100
AcDbLine
 10
457.659727299754
 20
336.3055606236642
 30
0.0
 11
707.6597272997619
 21
586.3055606236717
 31
0.0
  0
LINE
  5
3DD
330
1F
100
AcDbEntity
  8
0-0
  6
JWW_DASHED1
 62
   120
370
     5
100
AcDbLine
 10
117.6597272997554
 20
-3.694439376334415
 30
0.0
 11
367.6597272997626
 21
246.3055606236727
 31
0.0
  0
LINE
  5
3DE
330
1F
100
AcDbEntity
  8
0-0
  6
JWW_DASHED1
 62
   120
370
     5
100
AcDbLine
 10
457.6597272997626
 20
329.2344928104418
 30
0.0
 11
707.6597272997543
 21
579.2344928104335
 31
0.0
  0
LINE
  5
3DF
330
1F
100
AcDbEntity
  8
0-0
  6
JWW_DASHED1
 62
   120
370
     5
100
AcDbLine
 10
117.6597272997631
 20
-10.76550718955723
 30
0.0
 11
367.6597272997549
 21
239.2344928104345
 31
0.0
  0
LINE
  5
3E0
330
1F
100
AcDbEntity
  8
0-0
  6
JWW_DASHED1
 62
   120
370
     5
100
AcDbLine
 10
457.6597272997557
 20
322.1634249971499
 30
0.0
 11
707.6597272997458
 21
572.1634249971395
 31
0.0
  0
LINE
  5
3E1
330
1F
100
AcDbEntity
  8
0-0
  6
JWW_DASHED1
 62
   120
370
     5
100
AcDbLine
 10
117.6597272997597
 20
-17.83657500284654
 30
0.0
 11
367.6597272997489
 21
232.1634249971431
 31
0.0
  0
LINE
  5
3E2
330
1F
100
AcDbEntity
  8
0-0
  6
JWW_DASHED1
 62
   120
370
     5
100
AcDbLine
 10
457.65972729976
 20
315.0923571838687
 30
0.0
 11
707.6597272997501
 21
565.0923571838583
 31
0.0
  0
LINE
  5
3E3
330
1F
100
AcDbEntity
  8
0-0
  6
JWW_DASHED1
 62
   120
370
     5
100
AcDbLine
 10
117.659727299764
 20
-24.90764281612776
 30
0.0
 11
367.659727299754
 21
225.0923571838618
 31
0.0
  0
LINE
  5
3E4
330
1F
100
AcDbEntity
  8
0-0
  6
JWW_DASHED1
 62
   120
370
     5
100
AcDbLine
 10
457.6597272997591
 20
308.0212893705815
 30
0.0
 11
707.6597272997501
 21
558.0212893705733
 31
0.0
  0
LINE
  5
3E5
330
1F
100
AcDbEntity
  8
0-0
  6
JWW_DASHED1
 62
   120
370
     5
100
AcDbLine
 10
117.6597272997597
 20
-31.97871062941751
 30
0.0
 11
367.6597272997515
 21
218.0212893705743
 31
0.0
  0
LINE
  5
3E6
330
1F
100
AcDbEntity
  8
0-0
  6
JWW_DASHED1
 62
   120
370
     5
100
AcDbLine
 10
457.6597272997626
 20
300.9502215573003
 30
0.0
 11
707.6597272997543
 21
550.9502215572916
 31
0.0
  0
LINE
  5
3E7
330
1F
100
AcDbEntity
  8
0-0
  6
JWW_DASHED1
 62
   120
370
     5
100
AcDbLine
 10
117.6597272997631
 20
-39.04977844269872
 30
0.0
 11
367.6597272997557
 21
210.9502215572926
 31
0.0
  0
LINE
  5
3E8
330
1F
100
AcDbEntity
  8
0-0
  6
JWW_DASHED1
 62
   120
370
     5
100
AcDbLine
 10
457.6597272997506
 20
293.8791537440028
 30
0.0
 11
707.6597272997585
 21
543.8791537440104
 31
0.0
  0
LINE
  5
3E9
330
1F
100
AcDbEntity
  8
0-0
  6
JWW_DASHED1
 62
   120
370
     5
100
AcDbLine
 10
117.6597272997682
 20
-46.12084625597994
 30
0.0
 11
367.6597272997591
 21
203.8791537440114
 31
0.0
  0
LINE
  5
3EA
330
1F
100
AcDbEntity
  8
0-0
  6
JWW_DASHED1
 62
   120
370
     5
100
AcDbLine
 10
457.6597272997549
 20
286.8080859307212
 30
0.0
 11
707.6597272997619
 21
536.8080859307288
 31
0.0
  0
LINE
  5
3EB
330
1F
100
AcDbEntity
  8
0-0
  6
JWW_DASHED1
 62
   120
370
     5
100
AcDbLine
 10
117.6597272997563
 20
-53.19191406927736
 30
0.0
 11
367.6597272997634
 21
196.8080859307298
 31
0.0
  0
LINE
  5
3EC
330
1F
100
AcDbEntity
  8
0-0
  6
JWW_DASHED1
 62
   120
370
     5
100
AcDbLine
 10
457.6597272997591
 20
279.73701811744
 30
0.0
 11
707.6597272997509
 21
529.7370181174317
 31
0.0
  0
LINE
  5
3ED
330
1F
100
AcDbEntity
  8
0-0
  6
JWW_DASHED1
 62
   120
370
     5
100
AcDbLine
 10
117.6597272997597
 20
-60.26298188255858
 30
0.0
 11
367.6597272997677
 21
189.7370181174485
 31
0.0
  0
LINE
  5
3EE
330
1F
100
AcDbEntity
  8
0-0
  6
JWW_DASHED1
 62
   120
370
     5
100
AcDbLine
 10
457.6597272997634
 20
272.6659503041588
 30
0.0
 11
707.6597272997551
 21
522.6659503041501
 31
0.0
  0
LINE
  5
3EF
330
1F
100
AcDbEntity
  8
0-0
  6
JWW_DASHED1
 62
   120
370
     5
100
AcDbLine
 10
117.659727299764
 20
-67.33404969584065
 30
0.0
 11
367.6597272997557
 21
182.6659503041511
 31
0.0
  0
LINE
  5
3F0
330
1F
100
AcDbEntity
  8
0-0
  6
JWW_DASHED1
 62
   120
370
     5
100
AcDbLine
 10
457.6597272997591
 20
265.5948824908967
 30
0.0
 11
707.6597272997483
 21
515.594882490886
 31
0.0
  0
LINE
  5
3F1
330
1F
100
AcDbEntity
  8
0-0
  6
JWW_DASHED1
 62
   120
370
     5
100
AcDbLine
 10
117.6597272997631
 20
-74.4051175090997
 30
0.0
 11
367.6597272997523
 21
175.5948824908899
 31
0.0
  0
LINE
  5
3F2
330
1F
100
AcDbEntity
  8
0-0
  6
JWW_DASHED1
 62
   120
370
     5
100
AcDbLine
 10
457.6597272997591
 20
258.5238146776385
 30
0.0
 11
707.6597272997509
 21
508.5238146776303
 31
0.0
  0
LINE
  5
3F3
330
1F
100
AcDbEntity
  8
0-0
  6
JWW_DASHED1
 62
   120
370
     5
100
AcDbLine
 10
117.6597272997606
 20
-81.47618532236045
 30
0.0
 11
367.6597272997523
 21
168.5238146776313
 31
0.0
  0
LINE
  5
3F4
330
1F
100
AcDbEntity
  8
0-0
  6
JWW_DASHED1
 62
   120
370
     5
100
AcDbLine
 10
457.6597272997634
 20
251.4527468643573
 30
0.0
 11
707.6597272997551
 21
501.4527468643487
 31
0.0
  0
LINE
  5
3F5
330
1F
100
AcDbEntity
  8
0-0
  6
JWW_DASHED1
 62
   120
370
     5
100
AcDbLine
 10
117.6597272997648
 20
-88.54725313564167
 30
0.0
 11
367.6597272997557
 21
161.4527468643496
 31
0.0
  0
LINE
  5
3F6
330
1F
100
AcDbEntity
  8
0-0
  6
JWW_DASHED1
 62
   120
370
     5
100
AcDbLine
 10
457.6597272997523
 20
244.3816790510604
 30
0.0
 11
707.6597272997594
 21
494.3816790510675
 31
0.0
  0
LINE
  5
3F7
330
1F
100
AcDbEntity
  8
0-0
  6
JWW_DASHED1
 62
   120
370
     5
100
AcDbLine
 10
117.6597272997529
 20
-95.61832094893909
 30
0.0
 11
367.65972729976
 21
154.3816790510684
 31
0.0
  0
LINE
  5
3F8
330
1F
100
AcDbEntity
  8
0-0
  6
JWW_DASHED1
 62
   120
370
     5
100
AcDbLine
 10
457.6597272997557
 20
237.3106112377783
 30
0.0
 11
707.6597272997637
 21
487.3106112377858
 31
0.0
  0
LINE
  5
3F9
330
1F
100
AcDbEntity
  8
0-0
  6
JWW_DASHED1
 62
   120
370
     5
100
AcDbLine
 10
117.6597272997563
 20
-102.6893887622207
 30
0.0
 11
367.6597272997643
 21
147.3106112377868
 31
0.0
  0
LINE
  5
3FA
330
1F
100
AcDbEntity
  8
0-0
  6
JWW_DASHED1
 62
   120
370
     5
100
AcDbLine
 10
457.65972729976
 20
230.2395434244971
 30
0.0
 11
707.6597272997517
 21
480.2395434244888
 31
0.0
  0
LINE
  5
3FB
330
1F
100
AcDbEntity
  8
0-0
  6
JWW_DASHED1
 62
   120
370
     5
100
AcDbLine
 10
117.6597272997606
 20
-109.7604565755019
 30
0.0
 11
367.6597272997677
 21
140.2395434245051
 31
0.0
  0
LINE
  5
3FC
330
1F
100
AcDbEntity
  8
0-0
  6
JWW_DASHED1
 62
   120
370
     5
100
AcDbLine
 10
457.6597272997643
 20
223.1684756112159
 30
0.0
 11
707.6597272997551
 21
473.1684756112072
 31
0.0
  0
LINE
  5
3FD
330
1F
100
AcDbEntity
  8
0-0
  6
JWW_DASHED1
 62
   120
370
     5
100
AcDbLine
 10
117.6597272997648
 20
-116.8315243887836
 30
0.0
 11
367.6597272997557
 21
133.1684756112082
 31
0.0
  0
LINE
  5
3FE
330
1F
100
AcDbEntity
  8
0-0
  6
JWW_DASHED1
 62
   120
370
     5
100
AcDbLine
 10
457.6597272997583
 20
216.0974077979248
 30
0.0
 11
707.6597272997483
 21
466.097407797914
 31
0.0
  0
LINE
  5
3FF
330
1F
100
AcDbEntity
  8
0-0
  6
JWW_DASHED1
 62
   120
370
     5
100
AcDbLine
 10
117.6597272997623
 20
-123.9025922020716
 30
0.0
 11
367.6597272997515
 21
126.097407797918
 31
0.0
  0
LINE
  5
400
330
1F
100
AcDbEntity
  8
0-0
  6
JWW_DASHED1
 62
   120
370
     5
100
AcDbLine
 10
457.6597272997626
 20
209.0263399846432
 30
0.0
 11
707.6597272997517
 21
459.0263399846328
 31
0.0
  0
LINE
  5
401
330
1F
100
AcDbEntity
  8
0-0
  6
JWW_DASHED1
 62
   120
370
     5
100
AcDbLine
 10
117.6597272997665
 20
-130.9736600153528
 30
0.0
 11
367.6597272997557
 21
119.0263399846364
 31
0.0
  0
LINE
  5
402
330
1F
100
AcDbEntity
  8
0-0
  6
JWW_DASHED1
 62
   120
370
     5
100
AcDbLine
 10
457.6597272997626
 20
201.955272171385
 30
0.0
 11
707.6597272997535
 21
451.9552721713763
 31
0.0
  0
LINE
  5
403
330
1F
100
AcDbEntity
  8
0-0
  6
JWW_DASHED1
 62
   120
370
     5
100
AcDbLine
 10
117.6597272997631
 20
-138.0447278286144
 30
0.0
 11
367.6597272997549
 21
111.9552721713773
 31
0.0
  0
LINE
  5
404
330
1F
100
AcDbEntity
  8
0-0
  6
JWW_DASHED1
 62
   120
370
     5
100
AcDbLine
 10
457.6597272997523
 20
194.884204358117
 30
0.0
 11
707.6597272997603
 21
444.8842043581245
 31
0.0
  0
LINE
  5
405
330
1F
100
AcDbEntity
  8
0-0
  6
JWW_DASHED1
 62
   120
370
     5
100
AcDbLine
 10
117.6597272997537
 20
-145.115795641882
 30
0.0
 11
367.6597272997608
 21
104.8842043581255
 31
0.0
  0
LINE
  5
406
330
1F
100
AcDbEntity
  8
0-0
  6
JWW_DASHED1
 62
   120
370
     5
100
AcDbLine
 10
457.6597272997566
 20
187.8131365448353
 30
0.0
 11
707.6597272997637
 21
437.8131365448428
 31
0.0
  0
LINE
  5
407
330
1F
100
AcDbEntity
  8
0-0
  6
JWW_DASHED1
 62
   120
370
     5
100
AcDbLine
 10
117.659727299758
 20
-152.1868634551632
 30
0.0
 11
367.6597272997651
 21
97.81313654484386
 31
0.0
  0
LINE
  5
408
330
1F
100
AcDbEntity
  8
0-0
  6
JWW_DASHED1
 62
   120
370
     5
100
AcDbLine
 10
457.6597272997608
 20
180.7420687315541
 30
0.0
 11
707.6597272997517
 21
430.7420687315454
 31
0.0
  0
LINE
  5
409
330
1F
100
AcDbEntity
  8
0-0
  6
JWW_DASHED1
 62
   120
370
     5
100
AcDbLine
 10
117.6597272997614
 20
-159.2579312684449
 30
0.0
 11
367.6597272997685
 21
90.74206873156221
 31
0.0
  0
LINE
  5
40A
330
1F
100
AcDbEntity
  8
0-0
  6
JWW_DASHED1
 62
   120
370
     5
100
AcDbLine
 10
457.6597272997557
 20
173.6710009182635
 30
0.0
 11
707.6597272997449
 21
423.6710009182531
 31
0.0
  0
LINE
  5
40B
330
1F
100
AcDbEntity
  8
0-0
  6
JWW_DASHED1
 62
   120
370
     5
100
AcDbLine
 10
117.6597272997589
 20
-166.3289990817329
 30
0.0
 11
367.6597272997489
 21
83.6710009182567
 31
0.0
  0
LINE
  5
40C
330
1F
100
AcDbEntity
  8
0-0
  6
JWW_DASHED1
 62
   120
370
     5
100
AcDbLine
 10
457.6597272997591
 20
166.5999331049819
 30
0.0
 11
707.6597272997492
 21
416.5999331049715
 31
0.0
  0
LINE
  5
40D
330
1F
100
AcDbEntity
  8
0-0
  6
JWW_DASHED1
 62
   120
370
     5
100
AcDbLine
 10
117.6597272997631
 20
-173.4000668950137
 30
0.0
 11
367.6597272997532
 21
76.59993310497548
 31
0.0
  0
LINE
  5
40E
330
1F
100
AcDbEntity
  8
0-0
  6
JWW_DASHED1
 62
   120
370
     5
100
AcDbLine
 10
457.6597272997574
 20
159.5288652916938
 30
0.0
 11
707.6597272997483
 21
409.5288652916856
 31
0.0
  0
LINE
  5
40F
330
1F
100
AcDbEntity
  8
0-0
  6
JWW_DASHED1
 62
   120
370
     5
100
AcDbLine
 10
117.659727299758
 20
-180.4711347083052
 30
0.0
 11
367.6597272997498
 21
69.52886529168659
 31
0.0
  0
LINE
  5
410
330
1F
100
AcDbEntity
  8
0-0
  6
JWW_DASHED1
 62
   120
370
     5
100
AcDbLine
 10
457.6597272997608
 20
152.4577974784126
 30
0.0
 11
707.6597272997526
 21
402.457797478404
 31
0.0
  0
LINE
  5
411
330
1F
100
AcDbEntity
  8
0-0
  6
JWW_DASHED1
 62
   120
370
     5
100
AcDbLine
 10
117.6597272997614
 20
-187.5422025215864
 30
0.0
 11
367.6597272997532
 21
62.45779747840494
 31
0.0
  0
LINE
  5
412
330
1F
100
AcDbEntity
  8
0-0
  6
JWW_DASHED1
 62
   120
370
     5
100
AcDbLine
 10
457.6597272997489
 20
145.3867296651152
 30
0.0
 11
707.6597272997569
 21
395.3867296651223
 31
0.0
  0
LINE
  5
413
330
1F
100
AcDbEntity
  8
0-0
  6
JWW_DASHED1
 62
   120
370
     5
100
AcDbLine
 10
117.6597272997657
 20
-194.6132703348684
 30
0.0
 11
367.6597272997574
 21
55.3867296651233
 31
0.0
  0
LINE
  5
414
330
1F
100
AcDbEntity
  8
0-0
  6
JWW_DASHED1
 62
   120
370
     5
100
AcDbLine
 10
457.6597272997532
 20
138.3156618518336
 30
0.0
 11
707.6597272997603
 21
388.3156618518411
 31
0.0
  0
LINE
  5
415
330
1F
100
AcDbEntity
  8
0-0
  6
JWW_DASHED1
 62
   120
370
     5
100
AcDbLine
 10
117.6597272997546
 20
-201.684338148165
 30
0.0
 11
367.6597272997617
 21
48.31566185184208
 31
0.0
  0
LINE
  5
416
330
1F
100
AcDbEntity
  8
0-0
  6
JWW_DASHED1
 62
   120
370
     5
100
AcDbLine
 10
457.6597272997617
 20
131.2445940386112
 30
0.0
 11
707.6597272997526
 21
381.2445940386025
 31
0.0
  0
LINE
  5
417
330
1F
100
AcDbEntity
  8
0-0
  6
JWW_DASHED1
 62
   120
370
     5
100
AcDbLine
 10
117.6597272997623
 20
-208.7554059613879
 30
0.0
 11
367.6597272997694
 21
41.24459403861927
 31
0.0
  0
LINE
  5
418
330
1F
100
AcDbEntity
  8
0-0
  6
JWW_DASHED1
 62
   120
370
     5
100
AcDbLine
 10
457.6597272997566
 20
124.173526225321
 30
0.0
 11
707.6597272997467
 21
374.1735262253106
 31
0.0
  0
LINE
  5
419
330
1F
100
AcDbEntity
  8
0-0
  6
JWW_DASHED1
 62
   120
370
     5
100
AcDbLine
 10
117.6597272997606
 20
-215.8264737746754
 30
0.0
 11
367.6597272997498
 21
34.17352622531418
 31
0.0
  0
LINE
  5
41A
330
1F
100
AcDbEntity
  8
0-0
  6
JWW_DASHED1
 62
   120
370
     5
100
AcDbLine
 10
457.6597272997608
 20
117.1024584120394
 30
0.0
 11
707.6597272997501
 21
367.102458412029
 31
0.0
  0
LINE
  5
41B
330
1F
100
AcDbEntity
  8
0-0
  6
JWW_DASHED1
 62
   120
370
     5
100
AcDbLine
 10
117.6597272997648
 20
-222.8975415879567
 30
0.0
 11
367.659727299754
 21
27.10245841203296
 31
0.0
  0
LINE
  5
41C
330
1F
100
AcDbEntity
  8
0-0
  6
JWW_DASHED1
 62
   120
370
     5
100
AcDbLine
 10
457.6597272997574
 20
110.0313905987509
 30
0.0
 11
707.6597272997492
 21
360.0313905987422
 31
0.0
  0
LINE
  5
41D
330
1F
100
AcDbEntity
  8
0-0
  6
JWW_DASHED1
 62
   120
370
     5
100
AcDbLine
 10
117.6597272997589
 20
-229.9686094012481
 30
0.0
 11
367.6597272997506
 21
20.03139059874364
 31
0.0
  0
LINE
  5
41E
330
1F
100
AcDbEntity
  8
0-0
  6
JWW_DASHED1
 62
   120
370
     5
100
AcDbLine
 10
457.6597272997617
 20
102.9603227854692
 30
0.0
 11
707.6597272997535
 21
352.960322785461
 31
0.0
  0
LINE
  5
41F
330
1F
100
AcDbEntity
  8
0-0
  6
JWW_DASHED1
 62
   120
370
     5
100
AcDbLine
 10
117.6597272997631
 20
-237.0396772145298
 30
0.0
 11
367.659727299754
 21
12.96032278546242
 31
0.0
  0
LINE
  5
420
330
1F
100
AcDbEntity
  8
0-0
  6
JWW_DASHED1
 62
   120
370
     5
100
AcDbLine
 10
457.6597272997498
 20
95.88925497217183
 30
0.0
 11
707.6597272997569
 21
345.8892549721793
 31
0.0
  0
LINE
  5
421
330
1F
100
AcDbEntity
  8
0-0
  6
JWW_DASHED1
 62
   120
370
     5
100
AcDbLine
 10
117.6597272997665
 20
-244.1107450278114
 30
0.0
 11
367.6597272997583
 21
5.889254972180353
 31
0.0
  0
LINE
  5
422
330
1F
100
AcDbEntity
  8
0-0
  6
JWW_DASHED1
 62
   120
370
     5
100
AcDbLine
 10
457.659727299754
 20
88.81818715889061
 30
0.0
 11
707.6597272997619
 21
338.8181871588981
 31
0.0
  0
LINE
  5
423
330
1F
100
AcDbEntity
  8
0-0
  6
JWW_DASHED1
 62
   120
370
     5
100
AcDbLine
 10
117.6597272997546
 20
-251.181812841108
 30
0.0
 11
367.6597272997626
 21
-1.181812841100864
 31
0.0
  0
LINE
  5
424
330
1F
100
AcDbEntity
  8
0-0
  6
JWW_DASHED1
 62
   120
370
     5
100
AcDbLine
 10
457.6597272997583
 20
81.74711934560939
 30
0.0
 11
707.6597272997492
 21
331.7471193456007
 31
0.0
  0
LINE
  5
425
330
1F
100
AcDbEntity
  8
0-0
  6
JWW_DASHED1
 62
   120
370
     5
100
AcDbLine
 10
117.6597272997589
 20
-258.2528806543896
 30
0.0
 11
367.659727299766
 21
-8.252880654382508
 31
0.0
  0
LINE
  5
426
330
1F
100
AcDbEntity
  8
0-0
  6
JWW_DASHED1
 62
   120
370
     5
100
AcDbLine
 10
457.6597272997617
 20
74.67605153232775
 30
0.0
 11
707.6597272997535
 21
324.6760515323191
 31
0.0
  0
LINE
  5
427
330
1F
100
AcDbEntity
  8
0-0
  6
JWW_DASHED1
 62
   120
370
     5
100
AcDbLine
 10
117.6597272997631
 20
-265.3239484676712
 30
0.0
 11
367.659727299754
 21
-15.32394846767993
 31
0.0
  0
LINE
  5
428
330
1F
100
AcDbEntity
  8
0-0
  6
JWW_DASHED1
 62
   120
370
     5
100
AcDbLine
 10
457.6597272997626
 20
67.60498371909726
 30
0.0
 11
707.6597272997517
 21
317.6049837190865
 31
0.0
  0
LINE
  5
429
330
1F
100
AcDbEntity
  8
0-0
  6
JWW_DASHED1
 62
   120
370
     5
100
AcDbLine
 10
117.6597272997657
 20
-272.3950162808992
 30
0.0
 11
367.6597272997557
 21
-22.39501628090956
 31
0.0
  0
LINE
  5
42A
330
1F
100
AcDbEntity
  8
0-0
  6
JWW_DASHED1
 62
   120
370
     5
100
AcDbLine
 10
457.6597272997591
 20
60.53391590580794
 30
0.0
 11
707.6597272997501
 21
310.5339159057997
 31
0.0
  0
LINE
  5
42B
330
1F
100
AcDbEntity
  8
0-0
  6
JWW_DASHED1
 62
   120
370
     5
100
AcDbLine
 10
117.6597272997597
 20
-279.466084094191
 30
0.0
 11
367.6597272997506
 21
-29.46608409419973
 31
0.0
  0
LINE
  5
42C
330
1F
100
AcDbEntity
  8
0-0
  6
JWW_DASHED1
 62
   120
370
     5
100
AcDbLine
 10
457.6597272997626
 20
53.4628480925263
 30
0.0
 11
707.6597272997543
 21
303.4628480925181
 31
0.0
  0
LINE
  5
42D
330
1F
100
AcDbEntity
  8
0-0
  6
JWW_DASHED1
 62
   120
370
     5
100
AcDbLine
 10
117.6597272997631
 20
-286.5371519074727
 30
0.0
 11
367.6597272997549
 21
-36.53715190748137
 31
0.0
  0
LINE
  5
42E
330
1F
100
AcDbEntity
  8
0-0
  6
JWW_DASHED1
 62
   120
370
     5
100
AcDbLine
 10
457.6597272997506
 20
46.39178027922931
 30
0.0
 11
707.6597272997585
 21
296.3917802792364
 31
0.0
  0
LINE
  5
42F
330
1F
100
AcDbEntity
  8
0-0
  6
JWW_DASHED1
 62
   120
370
     5
100
AcDbLine
 10
117.659727299752
 20
-293.6082197207697
 30
0.0
 11
367.6597272997591
 21
-43.60821972076259
 31
0.0
  0
LINE
  5
430
330
1F
100
AcDbEntity
  8
0-0
  6
JWW_DASHED1
 62
   120
370
     5
100
AcDbLine
 10
457.6597272997549
 20
39.32071246594766
 30
0.0
 11
707.6597272997619
 21
289.3207124659552
 31
0.0
  0
LINE
  5
431
330
1F
100
AcDbEntity
  8
0-0
  6
JWW_DASHED1
 62
   120
370
     5
100
AcDbLine
 10
117.6597272997563
 20
-300.6792875340509
 30
0.0
 11
367.6597272997634
 21
-50.67928753404381
 31
0.0
  0
LINE
  5
432
330
1F
100
AcDbEntity
  8
0-0
  6
JWW_DASHED1
 62
   120
370
     5
100
AcDbLine
 10
457.6597272997591
 20
32.24964465266645
 30
0.0
 11
707.6597272997509
 21
282.2496446526582
 31
0.0
  0
LINE
  5
433
330
1F
100
AcDbEntity
  8
0-0
  6
JWW_DASHED1
 62
   120
370
     5
100
AcDbLine
 10
117.6597272997597
 20
-307.750355347333
 30
0.0
 11
367.6597272997677
 21
-57.75035534732503
 31
0.0
  0
LINE
  5
434
330
1F
100
AcDbEntity
  8
0-0
  6
JWW_DASHED1
 62
   120
370
     5
100
AcDbLine
 10
457.6597272997626
 20
25.1785768393848
 30
0.0
 11
707.6597272997543
 21
275.1785768393761
 31
0.0
  0
LINE
  5
435
330
1F
100
AcDbEntity
  8
0-0
  6
JWW_DASHED1
 62
   120
370
     5
100
AcDbLine
 10
117.659727299764
 20
-314.8214231606142
 30
0.0
 11
367.6597272997549
 21
-64.82142316062287
 31
0.0
  0
LINE
  5
436
330
1F
100
AcDbEntity
  8
0-0
  6
JWW_DASHED1
 62
   120
370
     5
100
AcDbLine
 10
457.6597272997591
 20
18.10750902609549
 30
0.0
 11
707.6597272997483
 21
268.1075090260851
 31
0.0
  0
LINE
  5
437
330
1F
100
AcDbEntity
  8
0-0
  6
JWW_DASHED1
 62
   120
370
     5
100
AcDbLine
 10
117.6597272997631
 20
-321.8924909739005
 30
0.0
 11
367.6597272997523
 21
-71.89249097391134
 31
0.0
  0
LINE
  5
438
330
1F
100
AcDbEntity
  8
0-0
  6
JWW_DASHED1
 62
   120
370
     5
100
AcDbLine
 10
457.6597272997634
 20
11.03644121281427
 30
0.0
 11
707.6597272997526
 21
261.0364412128035
 31
0.0
  0
LINE
  5
439
330
1F
100
AcDbEntity
  8
0-0
  6
JWW_DASHED1
 62
   120
370
     5
100
AcDbLine
 10
117.6597272997665
 20
-328.9635587871817
 30
0.0
 11
367.6597272997566
 21
-78.96355878719255
 31
0.0
  0
LINE
  5
43A
330
1F
100
AcDbEntity
  8
0-0
  6
JWW_DASHED1
 62
   120
370
     5
100
AcDbLine
 10
457.6597272997472
 20
3.965373399567582
 30
0.0
 11
707.6597272997551
 21
253.9653733995751
 31
0.0
  0
LINE
  5
43B
330
1F
100
AcDbEntity
  8
0-0
  6
JWW_DASHED1
 62
   120
370
     5
100
AcDbLine
 10
117.659727299764
 20
-336.0346266004157
 30
0.0
 11
367.6597272997557
 21
-86.03462660042432
 31
0.0
  0
LINE
  5
43C
330
1F
100
AcDbEntity
  8
0-0
  6
JWW_DASHED1
 62
   120
370
     5
100
AcDbLine
 10
457.6597272997515
 20
-3.105694413713636
 30
0.0
 11
707.6597272997585
 21
246.8943055862935
 31
0.0
  0
LINE
  5
43D
330
1F
100
AcDbEntity
  8
0-0
  6
JWW_DASHED1
 62
   120
370
     5
100
AcDbLine
 10
117.6597272997529
 20
-343.1056944137126
 30
0.0
 11
367.65972729976
 21
-93.10569441370554
 31
0.0
  0
LINE
  5
43E
330
1F
100
AcDbEntity
  8
0-0
  6
JWW_DASHED1
 62
   120
370
     5
100
AcDbLine
 10
457.6597272997557
 20
-10.17676222699528
 30
0.0
 11
707.6597272997628
 21
239.8232377730122
 31
0.0
  0
LINE
  5
43F
330
1F
100
AcDbEntity
  8
0-0
  6
JWW_DASHED1
 62
   120
370
     5
100
AcDbLine
 10
117.6597272997563
 20
-350.1767622269938
 30
0.0
 11
367.6597272997643
 21
-100.1767622269868
 31
0.0
  0
LINE
  5
440
330
1F
100
AcDbEntity
  8
0-0
  6
JWW_DASHED1
 62
   120
370
     5
100
AcDbLine
 10
457.65972729976
 20
-17.2478300402765
 30
0.0
 11
707.6597272997517
 21
232.7521699597153
 31
0.0
  0
LINE
  5
441
330
1F
100
AcDbEntity
  8
0-0
  6
JWW_DASHED1
 62
   120
370
     5
100
AcDbLine
 10
117.6597272997606
 20
-357.2478300402759
 30
0.0
 11
367.6597272997677
 21
-107.247830040268
 31
0.0
  0
LINE
  5
442
330
1F
100
AcDbEntity
  8
0-0
  6
JWW_DASHED1
 62
   120
370
     5
100
AcDbLine
 10
457.6597272997634
 20
-24.31889785355814
 30
0.0
 11
707.6597272997551
 21
225.6811021464332
 31
0.0
  0
LINE
  5
443
330
1F
100
AcDbEntity
  8
0-0
  6
JWW_DASHED1
 62
   120
370
     5
100
AcDbLine
 10
117.6597272997648
 20
-364.3188978535571
 30
0.0
 11
367.6597272997557
 21
-114.3188978535658
 31
0.0
  0
LINE
  5
444
330
1F
100
AcDbEntity
  8
0-0
  6
JWW_DASHED1
 62
   120
370
     5
100
AcDbLine
 10
457.6597272997608
 20
-31.38996566684703
 30
0.0
 11
707.6597272997501
 21
218.6100343331426
 31
0.0
  0
LINE
  5
445
330
1F
100
AcDbEntity
  8
0-0
  6
JWW_DASHED1
 62
   120
370
     5
100
AcDbLine
 10
117.659727299764
 20
-371.3899656668431
 30
0.0
 11
367.659727299754
 21
-121.3899656668534
 31
0.0
  0
LINE
  5
446
330
1F
100
AcDbEntity
  8
0-0
  6
JWW_DASHED1
 62
   120
370
     5
100
AcDbLine
 10
457.6597272997643
 20
-38.46103348012868
 30
0.0
 11
707.6597272997535
 21
211.5389665198609
 31
0.0
  0
LINE
  5
447
330
1F
100
AcDbEntity
  8
0-0
  6
JWW_DASHED1
 62
   120
370
     5
100
AcDbLine
 10
117.6597272997682
 20
-378.4610334801247
 30
0.0
 11
367.6597272997574
 21
-128.4610334801351
 31
0.0
  0
LINE
  5
448
330
1F
100
AcDbEntity
  8
0-0
  6
JWW_DASHED1
 62
   120
370
     5
100
AcDbLine
 10
457.65972729976
 20
-45.53210129341842
 30
0.0
 11
707.6597272997517
 21
204.4678987065734
 31
0.0
  0
LINE
  5
449
330
1F
100
AcDbEntity
  8
0-0
  6
JWW_DASHED1
 62
   120
370
     5
100
AcDbLine
 10
117.6597272997614
 20
-385.532101293417
 30
0.0
 11
367.6597272997523
 21
-135.5321012934257
 31
0.0
  0
LINE
  5
44A
330
1F
100
AcDbEntity
  8
0-0
  6
JWW_DASHED1
 62
   120
370
     5
100
AcDbLine
 10
457.6597272997481
 20
-52.60316910671584
 30
0.0
 11
707.6597272997551
 21
197.3968308932917
 31
0.0
  0
LINE
  5
44B
330
1F
100
AcDbEntity
  8
0-0
  6
JWW_DASHED1
 62
   120
370
     5
100
AcDbLine
 10
117.6597272997648
 20
-392.6031691066991
 30
0.0
 11
367.6597272997566
 21
-142.6031691067073
 31
0.0
  0
LINE
  5
44C
330
1F
100
AcDbEntity
  8
0-0
  6
JWW_DASHED1
 62
   120
370
     5
100
AcDbLine
 10
457.6597272997566
 20
-59.67423691993822
 30
0.0
 11
707.6597272997637
 21
190.3257630800693
 31
0.0
  0
LINE
  5
44D
330
1F
100
AcDbEntity
  8
0-0
  6
JWW_DASHED1
 62
   120
370
     5
100
AcDbLine
 10
117.659727299758
 20
-399.6742369199368
 30
0.0
 11
367.6597272997643
 21
-149.6742369199301
 31
0.0
  0
LINE
  5
44E
330
1F
100
AcDbEntity
  8
0-0
  6
JWW_DASHED1
 62
   120
370
     5
100
AcDbLine
 10
457.6597272997608
 20
-66.74530473321944
 30
0.0
 11
707.6597272997517
 21
183.2546952667719
 31
0.0
  0
LINE
  5
44F
330
1F
100
AcDbEntity
  8
0-0
  6
JWW_DASHED1
 62
   120
370
     5
100
AcDbLine
 10
117.6597272997614
 20
-406.7453047332189
 30
0.0
 11
367.6597272997694
 21
-156.7453047332109
 31
0.0
  0
LINE
  5
450
330
1F
100
AcDbEntity
  8
0-0
  6
JWW_DASHED1
 62
   120
370
     5
100
AcDbLine
 10
457.6597272997574
 20
-73.81637254650833
 30
0.0
 11
707.6597272997467
 21
176.1836274534813
 31
0.0
  0
LINE
  5
451
330
1F
100
AcDbEntity
  8
0-0
  6
JWW_DASHED1
 62
   120
370
     5
100
AcDbLine
 10
117.6597272997614
 20
-413.8163725465043
 30
0.0
 11
367.6597272997506
 21
-163.8163725465147
 31
0.0
  0
LINE
  5
452
330
1F
100
AcDbEntity
  8
0-0
  6
JWW_DASHED1
 62
   120
370
     5
100
AcDbLine
 10
457.6597272997617
 20
-80.88744035978955
 30
0.0
 11
707.6597272997509
 21
169.1125596402001
 31
0.0
  0
LINE
  5
453
330
1F
100
AcDbEntity
  8
0-0
  6
JWW_DASHED1
 62
   120
370
     5
100
AcDbLine
 10
117.6597272997648
 20
-420.8874403597856
 30
0.0
 11
367.6597272997549
 21
-170.8874403597964
 31
0.0
  0
LINE
  5
454
330
1F
100
AcDbEntity
  8
0-0
  6
JWW_DASHED1
 62
   120
370
     5
100
AcDbLine
 10
457.6597272997566
 20
-87.95850817308015
 30
0.0
 11
707.6597272997483
 21
162.0414918269116
 31
0.0
  0
LINE
  5
455
330
1F
100
AcDbEntity
  8
0-0
  6
JWW_DASHED1
 62
   120
370
     5
100
AcDbLine
 10
117.659727299758
 20
-427.9585081730787
 30
0.0
 11
367.6597272997489
 21
-177.958508173087
 31
0.0
  0
LINE
  5
456
330
1F
100
AcDbEntity
  8
0-0
  6
JWW_DASHED1
 62
   120
370
     5
100
AcDbLine
 10
457.6597272997608
 20
-95.02957598636137
 30
0.0
 11
707.6597272997526
 21
154.9704240136304
 31
0.0
  0
LINE
  5
457
330
1F
100
AcDbEntity
  8
0-0
  6
JWW_DASHED1
 62
   120
370
     5
100
AcDbLine
 10
117.6597272997614
 20
-435.0295759863599
 30
0.0
 11
367.6597272997532
 21
-185.029575986369
 31
0.0
  0
LINE
  5
458
330
1F
100
AcDbEntity
  8
0-0
  6
JWW_DASHED1
 62
   120
370
     5
100
AcDbLine
 10
457.6597272997489
 20
-102.1006437996588
 30
0.0
 11
707.659727299756
 21
147.8993562003487
 31
0.0
  0
LINE
  5
459
330
1F
100
AcDbEntity
  8
0-0
  6
JWW_DASHED1
 62
   120
370
     5
100
AcDbLine
 10
117.6597272997657
 20
-442.100643799642
 30
0.0
 11
367.6597272997574
 21
-192.1006437996502
 31
0.0
  0
LINE
  5
45A
330
1F
100
AcDbEntity
  8
0-0
  6
JWW_DASHED1
 62
   120
370
     5
100
AcDbLine
 10
457.6597272997532
 20
-109.17171161294
 30
0.0
 11
707.6597272997603
 21
140.8282883870671
 31
0.0
  0
LINE
  5
45B
330
1F
100
AcDbEntity
  8
0-0
  6
JWW_DASHED1
 62
   120
370
     5
100
AcDbLine
 10
117.6597272997537
 20
-449.171711612939
 30
0.0
 11
367.6597272997608
 21
-199.1717116129315
 31
0.0
  0
LINE
  5
45C
330
1F
100
AcDbEntity
  8
0-0
  6
JWW_DASHED1
 62
   120
370
     5
100
AcDbLine
 10
457.6597272997574
 20
-116.2427794262212
 30
0.0
 11
707.6597272997645
 21
133.7572205737859
 31
0.0
  0
LINE
  5
45D
330
1F
100
AcDbEntity
  8
0-0
  6
JWW_DASHED1
 62
   120
370
     5
100
AcDbLine
 10
117.659727299758
 20
-456.2427794262206
 30
0.0
 11
367.6597272997651
 21
-206.2427794262131
 31
0.0
  0
LINE
  5
45E
330
1F
100
AcDbEntity
  8
0-0
  6
JWW_DASHED1
 62
   120
370
     5
100
AcDbLine
 10
457.6597272997591
 20
-123.3138472394504
 30
0.0
 11
707.6597272997483
 21
126.6861527605388
 31
0.0
  0
LINE
  5
45F
330
1F
100
AcDbEntity
  8
0-0
  6
JWW_DASHED1
 62
   120
370
     5
100
AcDbLine
 10
117.6597272997623
 20
-463.3138472394469
 30
0.0
 11
367.6597272997523
 21
-213.3138472394572
 31
0.0
  0
LINE
  5
460
330
1F
100
AcDbEntity
  8
0-0
  6
JWW_DASHED1
 62
   120
370
     5
100
AcDbLine
 10
457.6597272997626
 20
-130.3849150527325
 30
0.0
 11
707.6597272997517
 21
119.6150849472571
 31
0.0
  0
LINE
  5
461
330
1F
100
AcDbEntity
  8
0-0
  6
JWW_DASHED1
 62
   120
370
     5
100
AcDbLine
 10
117.6597272997665
 20
-470.3849150527285
 30
0.0
 11
367.6597272997557
 21
-220.3849150527384
 31
0.0
  0
LINE
  5
462
330
1F
100
AcDbEntity
  8
0-0
  6
JWW_DASHED1
 62
   120
370
     5
100
AcDbLine
 10
457.6597272997574
 20
-137.4559828660231
 30
0.0
 11
707.6597272997492
 21
112.5440171339687
 31
0.0
  0
LINE
  5
463
330
1F
100
AcDbEntity
  8
0-0
  6
JWW_DASHED1
 62
   120
370
     5
100
AcDbLine
 10
117.659727299758
 20
-477.4559828660217
 30
0.0
 11
367.6597272997506
 21
-227.4559828660304
 31
0.0
  0
LINE
  5
464
330
1F
100
AcDbEntity
  8
0-0
  6
JWW_DASHED1
 62
   120
370
     5
100
AcDbLine
 10
457.6597272997617
 20
-144.5270506793043
 30
0.0
 11
707.6597272997535
 21
105.4729493206874
 31
0.0
  0
LINE
  5
465
330
1F
100
AcDbEntity
  8
0-0
  6
JWW_DASHED1
 62
   120
370
     5
100
AcDbLine
 10
117.6597272997623
 20
-484.5270506793033
 30
0.0
 11
367.659727299754
 21
-234.527050679312
 31
0.0
  0
LINE
  5
466
330
1F
100
AcDbEntity
  8
0-0
  6
JWW_DASHED1
 62
   120
370
     5
100
AcDbLine
 10
457.6597272997498
 20
-151.5981184926017
 30
0.0
 11
707.6597272997569
 21
98.4018815074058
 31
0.0
  0
LINE
  5
467
330
1F
100
AcDbEntity
  8
0-0
  6
JWW_DASHED1
 62
   120
370
     5
100
AcDbLine
 10
117.6597272997665
 20
-491.5981184925849
 30
0.0
 11
367.6597272997583
 21
-241.5981184925932
 31
0.0
  0
LINE
  5
468
330
1F
100
AcDbEntity
  8
0-0
  6
JWW_DASHED1
 62
   120
370
     5
100
AcDbLine
 10
457.659727299754
 20
-158.6691863058829
 30
0.0
 11
707.6597272997611
 21
91.33081369412416
 31
0.0
  0
LINE
  5
469
330
1F
100
AcDbEntity
  8
0-0
  6
JWW_DASHED1
 62
   120
370
     5
100
AcDbLine
 10
117.6597272997546
 20
-498.669186305882
 30
0.0
 11
367.6597272997626
 21
-248.6691863058744
 31
0.0
  0
LINE
  5
46A
330
1F
100
AcDbEntity
  8
0-0
  6
JWW_DASHED1
 62
   120
370
     5
100
AcDbLine
 10
457.6597272997574
 20
-165.7402541191646
 30
0.0
 11
707.6597272997492
 21
84.25974588082717
 31
0.0
  0
LINE
  5
46B
330
1F
100
AcDbEntity
  8
0-0
  6
JWW_DASHED1
 62
   120
370
     5
100
AcDbLine
 10
117.659727299758
 20
-505.7402541191636
 30
0.0
 11
367.659727299766
 21
-255.7402541191561
 31
0.0
  0
LINE
  5
46C
330
1F
100
AcDbEntity
  8
0-0
  6
JWW_DASHED1
 62
   120
370
     5
100
AcDbLine
 10
457.6597272997617
 20
-172.8113219324462
 30
0.0
 11
707.6597272997535
 21
77.18867806754552
 31
0.0
  0
LINE
  5
46D
330
1F
100
AcDbEntity
  8
0-0
  6
JWW_DASHED1
 62
   120
370
     5
100
AcDbLine
 10
117.6597272997623
 20
-512.8113219324448
 30
0.0
 11
367.659727299754
 21
-262.811321932453
 31
0.0
  0
LINE
  5
46E
330
1F
100
AcDbEntity
  8
0-0
  6
JWW_DASHED1
 62
   120
370
     5
100
AcDbLine
 10
457.65972729976
 20
-179.8823897457334
 30
0.0
 11
707.6597272997492
 21
70.11761025425578
 31
0.0
  0
LINE
  5
46F
330
1F
100
AcDbEntity
  8
0-0
  6
JWW_DASHED1
 62
   120
370
     5
100
AcDbLine
 10
117.6597272997631
 20
-519.8823897457295
 30
0.0
 11
367.6597272997532
 21
-269.8823897457402
 31
0.0
  0
LINE
  5
470
330
1F
100
AcDbEntity
  8
0-0
  6
JWW_DASHED1
 62
   120
370
     5
100
AcDbLine
 10
457.6597272997583
 20
-186.953457558966
 30
0.0
 11
707.6597272997501
 21
63.04654244102572
 31
0.0
  0
LINE
  5
471
330
1F
100
AcDbEntity
  8
0-0
  6
JWW_DASHED1
 62
   120
370
     5
100
AcDbLine
 10
117.6597272997597
 20
-526.9534575589646
 30
0.0
 11
367.6597272997506
 21
-276.9534575589733
 31
0.0
  0
LINE
  5
472
330
1F
100
AcDbEntity
  8
0-0
  6
JWW_DASHED1
 62
   120
370
     5
100
AcDbLine
 10
457.6597272997464
 20
-194.024525372263
 30
0.0
 11
707.6597272997543
 21
55.9754746277445
 31
0.0
  0
LINE
  5
473
330
1F
100
AcDbEntity
  8
0-0
  6
JWW_DASHED1
 62
   120
370
     5
100
AcDbLine
 10
117.6597272997631
 20
-534.0245253722462
 30
0.0
 11
367.6597272997549
 21
-284.0245253722549
 31
0.0
  0
LINE
  5
474
330
1F
100
AcDbEntity
  8
0-0
  6
JWW_DASHED1
 62
   120
370
     5
100
AcDbLine
 10
457.6597272997506
 20
-201.0955931855447
 30
0.0
 11
707.6597272997585
 21
48.90440681446286
 31
0.0
  0
LINE
  5
475
330
1F
100
AcDbEntity
  8
0-0
  6
JWW_DASHED1
 62
   120
370
     5
100
AcDbLine
 10
117.6597272997512
 20
-541.0955931855436
 30
0.0
 11
367.6597272997591
 21
-291.0955931855361
 31
0.0
  0
LINE
  5
476
330
1F
100
AcDbEntity
  8
0-0
  6
JWW_DASHED1
 62
   120
370
     5
100
AcDbLine
 10
457.6597272997549
 20
-208.1666609988259
 30
0.0
 11
707.6597272997619
 21
41.83333900118122
 31
0.0
  0
LINE
  5
477
330
1F
100
AcDbEntity
  8
0-0
  6
JWW_DASHED1
 62
   120
370
     5
100
AcDbLine
 10
117.6597272997554
 20
-548.1666609988249
 30
0.0
 11
367.6597272997626
 21
-298.1666609988173
 31
0.0
  0
LINE
  5
478
330
1F
100
AcDbEntity
  8
0-0
  6
JWW_DASHED1
 62
   120
370
     5
100
AcDbLine
 10
457.6597272997591
 20
-215.2377288121075
 30
0.0
 11
707.6597272997501
 21
34.76227118788422
 31
0.0
  0
LINE
  5
479
330
1F
100
AcDbEntity
  8
0-0
  6
JWW_DASHED1
 62
   120
370
     5
100
AcDbLine
 10
117.6597272997597
 20
-555.2377288121065
 30
0.0
 11
367.6597272997668
 21
-305.2377288120994
 31
0.0
  0
LINE
  5
47A
330
1F
100
AcDbEntity
  8
0-0
  6
JWW_DASHED1
 62
   120
370
     5
100
AcDbLine
 10
457.6597272997626
 20
-222.3087966253892
 30
0.0
 11
707.6597272997543
 21
27.69120337460258
 31
0.0
  0
LINE
  5
47B
330
1F
100
AcDbEntity
  8
0-0
  6
JWW_DASHED1
 62
   120
370
     5
100
AcDbLine
 10
117.6597272997631
 20
-562.3087966253881
 30
0.0
 11
367.6597272997557
 21
-312.308796625396
 31
0.0
  0
LINE
  5
47C
330
1F
100
AcDbEntity
  8
0-0
  6
JWW_DASHED1
 62
   120
370
     5
100
AcDbLine
 10
457.6597272997608
 20
-229.3798644386763
 30
0.0
 11
707.6597272997501
 21
20.62013556131326
 31
0.0
  0
LINE
  5
47D
330
1F
100
AcDbEntity
  8
0-0
  6
JWW_DASHED1
 62
   120
370
     5
100
AcDbLine
 10
117.6597272997648
 20
-569.3798644386724
 30
0.0
 11
367.659727299754
 21
-319.3798644386832
 31
0.0
  0
LINE
  5
47E
330
1F
100
AcDbEntity
  8
0-0
  6
JWW_DASHED1
 62
   120
370
     5
100
AcDbLine
 10
457.6597272997651
 20
-236.4509322519576
 30
0.0
 11
707.6597272997543
 21
13.54906774803204
 31
0.0
  0
LINE
  5
47F
330
1F
100
AcDbEntity
  8
0-0
  6
JWW_DASHED1
 62
   120
370
     5
100
AcDbLine
 10
117.6597272997691
 20
-576.4509322519536
 30
0.0
 11
367.6597272997583
 21
-326.4509322519644
 31
0.0
  0
LINE
  5
480
330
1F
100
AcDbEntity
  8
0-0
  6
JWW_DASHED1
 62
   120
370
     5
100
AcDbLine
 10
457.6597272997591
 20
-243.522000065249
 30
0.0
 11
707.6597272997501
 21
6.4779999347423
 31
0.0
  0
LINE
  5
481
330
1F
100
AcDbEntity
  8
0-0
  6
JWW_DASHED1
 62
   120
370
     5
100
AcDbLine
 10
117.6597272997597
 20
-583.5220000652484
 30
0.0
 11
367.6597272997515
 21
-333.5220000652567
 31
0.0
  0
LINE
  5
482
330
1F
100
AcDbEntity
  8
0-0
  6
JWW_DASHED1
 62
   120
370
     5
100
AcDbLine
 10
457.6597272997472
 20
-250.5930678785464
 30
0.0
 11
707.6597272997543
 21
-0.593067878539344
 31
0.0
  0
LINE
  5
483
330
1F
100
AcDbEntity
  8
0-0
  6
JWW_DASHED1
 62
   120
370
     5
100
AcDbLine
 10
117.659727299764
 20
-590.5930678785297
 30
0.0
 11
367.6597272997557
 21
-340.5930678785379
 31
0.0
  0
LINE
  5
484
330
1F
100
AcDbEntity
  8
0-0
  6
JWW_DASHED1
 62
   120
370
     5
100
AcDbLine
 10
457.6597272997557
 20
-257.6641356917688
 30
0.0
 11
707.6597272997628
 21
-7.664135691761729
 31
0.0
  0
LINE
  5
485
330
1F
100
AcDbEntity
  8
0-0
  6
JWW_DASHED1
 62
   120
370
     5
100
AcDbLine
 10
117.6597272997563
 20
-597.6641356917678
 30
0.0
 11
367.6597272997643
 21
-347.6641356917607
 31
0.0
  0
LINE
  5
486
330
1F
100
AcDbEntity
  8
0-0
  6
JWW_DASHED1
 62
   120
370
     5
100
AcDbLine
 10
457.6597272997591
 20
-264.73520350505
 30
0.0
 11
707.6597272997509
 21
-14.73520350505872
 31
0.0
  0
LINE
  5
487
330
1F
100
AcDbEntity
  8
0-0
  6
JWW_DASHED1
 62
   120
370
     5
100
AcDbLine
 10
117.6597272997606
 20
-604.7352035050495
 30
0.0
 11
367.6597272997677
 21
-354.7352035050424
 31
0.0
  0
LINE
  5
488
330
1F
100
AcDbEntity
  8
0-0
  6
JWW_DASHED1
 62
   120
370
     5
100
AcDbLine
 10
457.6597272997583
 20
-271.8062713183372
 30
0.0
 11
707.6597272997475
 21
-21.80627131834804
 31
0.0
  0
LINE
  5
489
330
1F
100
AcDbEntity
  8
0-0
  6
JWW_DASHED1
 62
   120
370
     5
100
AcDbLine
 10
117.6597272997614
 20
-611.8062713183333
 30
0.0
 11
367.6597272997515
 21
-361.806271318344
 31
0.0
  0
LINE
  5
48A
330
1F
100
AcDbEntity
  8
0-0
  6
JWW_DASHED1
 62
   120
370
     5
100
AcDbLine
 10
457.6597272997617
 20
-278.8773391316189
 30
0.0
 11
707.6597272997517
 21
-28.87733913162926
 31
0.0
  0
LINE
  5
48B
330
1F
100
AcDbEntity
  8
0-0
  6
JWW_DASHED1
 62
   120
370
     5
100
AcDbLine
 10
117.6597272997665
 20
-618.8773391316145
 30
0.0
 11
367.6597272997557
 21
-368.8773391316253
 31
0.0
  0
LINE
  5
48C
330
1F
100
AcDbEntity
  8
0-0
  6
JWW_DASHED1
 62
   120
370
     5
100
AcDbLine
 10
457.6597272997557
 20
-285.9484069449107
 30
0.0
 11
707.6597272997475
 21
-35.948406944919
 31
0.0
  0
LINE
  5
48D
330
1F
100
AcDbEntity
  8
0-0
  6
JWW_DASHED1
 62
   120
370
     5
100
AcDbLine
 10
117.6597272997563
 20
-625.9484069449094
 30
0.0
 11
367.6597272997481
 21
-375.948406944918
 31
0.0
  0
LINE
  5
48E
330
1F
100
AcDbEntity
  8
0-0
  6
JWW_DASHED1
 62
   120
370
     5
100
AcDbLine
 10
457.65972729976
 20
-293.019474758192
 30
0.0
 11
707.6597272997517
 21
-43.01947475820022
 31
0.0
  0
LINE
  5
48F
330
1F
100
AcDbEntity
  8
0-0
  6
JWW_DASHED1
 62
   120
370
     5
100
AcDbLine
 10
117.6597272997606
 20
-633.0194747581914
 30
0.0
 11
367.6597272997523
 21
-383.0194747581996
 31
0.0
  0
LINE
  5
490
330
1F
100
AcDbEntity
  8
0-0
  6
JWW_DASHED1
 62
   120
370
     5
100
AcDbLine
 10
457.6597272997481
 20
-300.0905425714894
 30
0.0
 11
707.6597272997551
 21
-50.09054257148229
 31
0.0
  0
LINE
  5
491
330
1F
100
AcDbEntity
  8
0-0
  6
JWW_DASHED1
 62
   120
370
     5
100
AcDbLine
 10
117.6597272997648
 20
-640.0905425714726
 30
0.0
 11
367.6597272997566
 21
-390.0905425714809
 31
0.0
  0
LINE
  5
492
330
1F
100
AcDbEntity
  8
0-0
  6
JWW_DASHED1
 62
   120
370
     5
100
AcDbLine
 10
457.6597272997523
 20
-307.1616103847706
 30
0.0
 11
707.6597272997594
 21
-57.16161038476351
 31
0.0
  0
LINE
  5
493
330
1F
100
AcDbEntity
  8
0-0
  6
JWW_DASHED1
 62
   120
370
     5
100
AcDbLine
 10
117.6597272997529
 20
-647.16161038477
 30
0.0
 11
367.65972729976
 21
-397.1616103847625
 31
0.0
  0
LINE
  5
494
330
1F
100
AcDbEntity
  8
0-0
  6
JWW_DASHED1
 62
   120
370
     5
100
AcDbLine
 10
457.6597272997557
 20
-314.2326781980518
 30
0.0
 11
707.6597272997637
 21
-64.23267819804472
 31
0.0
  0
LINE
  5
495
330
1F
100
AcDbEntity
  8
0-0
  6
JWW_DASHED1
 62
   120
370
     5
100
AcDbLine
 10
117.6597272997563
 20
-654.2326781980513
 30
0.0
 11
367.6597272997643
 21
-404.2326781980441
 31
0.0
  0
LINE
  5
496
330
1F
100
AcDbEntity
  8
0-0
  6
JWW_DASHED1
 62
   120
370
     5
100
AcDbLine
 10
457.6597272997591
 20
-321.3037460112802
 30
0.0
 11
707.6597272997483
 21
-71.30374601129056
 31
0.0
  0
LINE
  5
497
330
1F
100
AcDbEntity
  8
0-0
  6
JWW_DASHED1
 62
   120
370
     5
100
AcDbLine
 10
117.6597272997631
 20
-661.3037460112762
 30
0.0
 11
367.6597272997523
 21
-411.3037460112861
 31
0.0
  0
LINE
  5
498
330
1F
100
AcDbEntity
  8
0-0
  6
JWW_DASHED1
 62
   120
370
     5
100
AcDbLine
 10
457.6597272997634
 20
-328.3748138245614
 30
0.0
 11
707.6597272997526
 21
-78.37481382457177
 31
0.0
  0
LINE
  5
499
330
1F
100
AcDbEntity
  8
0-0
  6
JWW_DASHED1
 62
   120
370
     5
100
AcDbLine
 10
117.6597272997665
 20
-668.3748138245575
 30
0.0
 11
367.6597272997566
 21
-418.3748138245682
 31
0.0
  0
LINE
  5
49A
330
1F
100
AcDbEntity
  8
0-0
  6
JWW_DASHED1
 62
   120
370
     5
100
AcDbLine
 10
457.6597272997566
 20
-335.4458816378537
 30
0.0
 11
707.6597272997483
 21
-85.44588163786194
 31
0.0
  0
LINE
  5
49B
330
1F
100
AcDbEntity
  8
0-0
  6
JWW_DASHED1
 62
   120
370
     5
100
AcDbLine
 10
117.659727299758
 20
-675.4458816378523
 30
0.0
 11
367.6597272997489
 21
-425.445881637861
 31
0.0
  0
LINE
  5
49C
330
1F
100
AcDbEntity
  8
0-0
  6
JWW_DASHED1
 62
   120
370
     5
100
AcDbLine
 10
457.6597272997608
 20
-342.5169494511349
 30
0.0
 11
707.6597272997517
 21
-92.51694945114359
 31
0.0
  0
LINE
  5
49D
330
1F
100
AcDbEntity
  8
0-0
  6
JWW_DASHED1
 62
   120
370
     5
100
AcDbLine
 10
117.6597272997614
 20
-682.5169494511343
 30
0.0
 11
367.6597272997532
 21
-432.5169494511426
 31
0.0
  0
LINE
  5
49E
330
1F
100
AcDbEntity
  8
0-0
  6
JWW_DASHED1
 62
   120
370
     5
100
AcDbLine
 10
457.6597272997489
 20
-349.5880172644323
 30
0.0
 11
707.659727299756
 21
-99.58801726442523
 31
0.0
  0
LINE
  5
49F
330
1F
100
AcDbEntity
  8
0-0
  6
JWW_DASHED1
 62
   120
370
     5
100
AcDbLine
 10
117.6597272997657
 20
-689.5880172644156
 30
0.0
 11
367.6597272997566
 21
-439.5880172644243
 31
0.0
  0
LINE
  5
4A0
330
1F
100
AcDbEntity
  8
0-0
  6
JWW_DASHED1
 62
   120
370
     5
100
AcDbLine
 10
457.6597272997523
 20
-356.6590850777135
 30
0.0
 11
707.6597272997603
 21
-106.6590850777065
 31
0.0
  0
LINE
  5
4A1
330
1F
100
AcDbEntity
  8
0-0
  6
JWW_DASHED1
 62
   120
370
     5
100
AcDbLine
 10
117.6597272997537
 20
-696.659085077713
 30
0.0
 11
367.6597272997608
 21
-446.659085077705
 31
0.0
  0
LINE
  5
4A2
330
1F
100
AcDbEntity
  8
0-0
  6
JWW_DASHED1
 62
   120
370
     5
100
AcDbLine
 10
457.6597272997566
 20
-363.7301528909956
 30
0.0
 11
707.6597272997483
 21
-113.7301528910039
 31
0.0
  0
LINE
  5
4A3
330
1F
100
AcDbEntity
  8
0-0
  6
JWW_DASHED1
 62
   120
370
     5
100
AcDbLine
 10
117.659727299758
 20
-703.7301528909942
 30
0.0
 11
367.6597272997651
 21
-453.7301528909867
 31
0.0
  0
LINE
  5
4A4
330
1F
100
AcDbEntity
  8
0-0
  6
JWW_DASHED1
 62
   120
370
     5
100
AcDbLine
 10
457.6597272997608
 20
-370.8012207042768
 30
0.0
 11
707.6597272997526
 21
-120.8012207042851
 31
0.0
  0
LINE
  5
4A5
330
1F
100
AcDbEntity
  8
0-0
  6
JWW_DASHED1
 62
   120
370
     5
100
AcDbLine
 10
117.6597272997614
 20
-710.8012207042755
 30
0.0
 11
367.6597272997532
 21
-460.8012207042845
 31
0.0
  0
LINE
  5
4A6
330
1F
100
AcDbEntity
  8
0-0
  6
JWW_DASHED1
 62
   120
370
     5
100
AcDbLine
 10
457.6597272997608
 20
-377.8722885175623
 30
0.0
 11
707.6597272997501
 21
-127.8722885175731
 31
0.0
  0
LINE
  5
4A7
330
1F
100
AcDbEntity
  8
0-0
  6
JWW_DASHED1
 62
   120
370
     5
100
AcDbLine
 10
117.659727299764
 20
-717.8722885175592
 30
0.0
 11
367.659727299754
 21
-467.8722885175691
 31
0.0
  0
LINE
  5
4A8
330
1F
100
AcDbEntity
  8
0-0
  6
JWW_DASHED1
 62
   120
370
     5
100
AcDbLine
 10
457.6597272997574
 20
-384.9433563307966
 30
0.0
 11
707.6597272997483
 21
-134.9433563308049
 31
0.0
  0
LINE
  5
4A9
330
1F
100
AcDbEntity
  8
0-0
  6
JWW_DASHED1
 62
   120
370
     5
100
AcDbLine
 10
117.659727299758
 20
-724.9433563307953
 30
0.0
 11
367.6597272997498
 21
-474.9433563308039
 31
0.0
  0
LINE
  5
4AA
330
1F
100
AcDbEntity
  8
0-0
  6
JWW_DASHED1
 62
   120
370
     5
100
AcDbLine
 10
457.6597272997455
 20
-392.0144241440941
 30
0.0
 11
707.6597272997535
 21
-142.0144241440861
 31
0.0
  0
LINE
  5
4AB
330
1F
100
AcDbEntity
  8
0-0
  6
JWW_DASHED1
 62
   120
370
     5
100
AcDbLine
 10
117.6597272997623
 20
-732.0144241440773
 30
0.0
 11
367.659727299754
 21
-482.0144241440855
 31
0.0
  0
LINE
  5
4AC
330
1F
100
AcDbEntity
  8
0-0
  6
JWW_DASHED1
 62
   120
370
     5
100
AcDbLine
 10
457.6597272997498
 20
-399.0854919573753
 30
0.0
 11
707.6597272997569
 21
-149.0854919573682
 31
0.0
  0
LINE
  5
4AD
330
1F
100
AcDbEntity
  8
0-0
  6
JWW_DASHED1
 62
   120
370
     5
100
AcDbLine
 10
117.6597272997503
 20
-739.0854919573743
 30
0.0
 11
367.6597272997583
 21
-489.0854919573667
 31
0.0
  0
LINE
  5
4AE
330
1F
100
AcDbEntity
  8
0-0
  6
JWW_DASHED1
 62
   120
370
     5
100
AcDbLine
 10
457.659727299754
 20
-406.1565597706565
 30
0.0
 11
707.6597272997611
 21
-156.1565597706494
 31
0.0
  0
LINE
  5
4AF
330
1F
100
AcDbEntity
  8
0-0
  6
JWW_DASHED1
 62
   120
370
     5
100
AcDbLine
 10
117.6597272997546
 20
-746.1565597706559
 30
0.0
 11
367.6597272997617
 21
-496.1565597706484
 31
0.0
  0
LINE
  5
4B0
330
1F
100
AcDbEntity
  8
0-0
  6
JWW_DASHED1
 62
   120
370
     5
100
AcDbLine
 10
457.6597272997574
 20
-413.2276275839382
 30
0.0
 11
707.6597272997492
 21
-163.2276275839468
 31
0.0
  0
LINE
  5
4B1
330
1F
100
AcDbEntity
  8
0-0
  6
JWW_DASHED1
 62
   120
370
     5
100
AcDbLine
 10
117.659727299758
 20
-753.2276275839372
 30
0.0
 11
367.659727299766
 21
-503.22762758393
 31
0.0
  0
LINE
  5
4B2
330
1F
100
AcDbEntity
  8
0-0
  6
JWW_DASHED1
 62
   120
370
     5
100
AcDbLine
 10
457.6597272997617
 20
-420.2986953972198
 30
0.0
 11
707.6597272997535
 21
-170.298695397228
 31
0.0
  0
LINE
  5
4B3
330
1F
100
AcDbEntity
  8
0-0
  6
JWW_DASHED1
 62
   120
370
     5
100
AcDbLine
 10
117.6597272997631
 20
-760.2986953972184
 30
0.0
 11
367.659727299754
 21
-510.2986953972274
 31
0.0
  0
LINE
  5
4B4
330
1F
100
AcDbEntity
  8
0-0
  6
JWW_DASHED1
 62
   120
370
     5
100
AcDbLine
 10
457.6597272997617
 20
-427.3697632105053
 30
0.0
 11
707.6597272997509
 21
-177.3697632105157
 31
0.0
  0
LINE
  5
4B5
330
1F
100
AcDbEntity
  8
0-0
  6
JWW_DASHED1
 62
   120
370
     5
100
AcDbLine
 10
117.6597272997648
 20
-767.3697632105017
 30
0.0
 11
367.6597272997549
 21
-517.3697632105121
 31
0.0
  0
LINE
  5
4B6
330
1F
100
AcDbEntity
  8
0-0
  6
JWW_DASHED1
 62
   120
370
     5
100
AcDbLine
 10
457.659727299766
 20
-434.4408310237865
 30
0.0
 11
707.6597272997551
 21
-184.4408310237973
 31
0.0
  0
LINE
  5
4B7
330
1F
100
AcDbEntity
  8
0-0
  6
JWW_DASHED1
 62
   120
370
     5
100
AcDbLine
 10
117.6597272997691
 20
-774.440831023783
 30
0.0
 11
367.6597272997591
 21
-524.4408310237933
 31
0.0
  0
LINE
  5
4B8
330
1F
100
AcDbEntity
  8
0-0
  6
JWW_DASHED1
 62
   120
370
     5
100
AcDbLine
 10
457.6597272997574
 20
-441.5118988370796
 30
0.0
 11
707.6597272997501
 21
-191.5118988370883
 31
0.0
  0
LINE
  5
4B9
330
1F
100
AcDbEntity
  8
0-0
  6
JWW_DASHED1
 62
   120
370
     5
100
AcDbLine
 10
117.6597272997589
 20
-781.5118988370791
 30
0.0
 11
367.6597272997506
 21
-531.5118988370873
 31
0.0
  0
LINE
  5
4BA
330
1F
100
AcDbEntity
  8
0-0
  6
JWW_DASHED1
 62
   120
370
     5
100
AcDbLine
 10
457.6597272997506
 20
-448.5829666503182
 30
0.0
 11
707.6597272997577
 21
-198.5829666503111
 31
0.0
  0
LINE
  5
4BB
330
1F
100
AcDbEntity
  8
0-0
  6
JWW_DASHED1
 62
   120
370
     5
100
AcDbLine
 10
117.6597272997512
 20
-788.5829666503171
 30
0.0
 11
367.6597272997591
 21
-538.5829666503097
 31
0.0
  0
LINE
  5
4BC
330
1F
100
AcDbEntity
  8
0-0
  6
JWW_DASHED1
 62
   120
370
     5
100
AcDbLine
 10
457.659727299754
 20
-455.6540344635994
 30
0.0
 11
707.6597272997619
 21
-205.6540344635923
 31
0.0
  0
LINE
  5
4BD
330
1F
100
AcDbEntity
  8
0-0
  6
JWW_DASHED1
 62
   120
370
     5
100
AcDbLine
 10
117.6597272997554
 20
-795.6540344635989
 30
0.0
 11
367.6597272997626
 21
-545.6540344635913
 31
0.0
  0
LINE
  5
4BE
330
1F
100
AcDbEntity
  8
0-0
  6
JWW_DASHED1
 62
   120
370
     5
100
AcDbLine
 10
457.6597272997583
 20
-462.7251022768811
 30
0.0
 11
707.6597272997501
 21
-212.7251022768897
 31
0.0
  0
LINE
  5
4BF
330
1F
100
AcDbEntity
  8
0-0
  6
JWW_DASHED1
 62
   120
370
     5
100
AcDbLine
 10
117.6597272997597
 20
-802.7251022768801
 30
0.0
 11
367.6597272997668
 21
-552.725102276873
 31
0.0
  0
LINE
  5
4C0
330
1F
100
AcDbEntity
  8
0-0
  6
JWW_DASHED1
 62
   120
370
     5
100
AcDbLine
 10
457.6597272997591
 20
-469.7961700901661
 30
0.0
 11
707.6597272997483
 21
-219.7961700901769
 31
0.0
  0
LINE
  5
4C1
330
1F
100
AcDbEntity
  8
0-0
  6
JWW_DASHED1
 62
   120
370
     5
100
AcDbLine
 10
117.6597272997623
 20
-809.7961700901631
 30
0.0
 11
367.6597272997523
 21
-559.796170090173
 31
0.0
  0
LINE
  5
4C2
330
1F
100
AcDbEntity
  8
0-0
  6
JWW_DASHED1
 62
   120
370
     5
100
AcDbLine
 10
457.6597272997626
 20
-476.8672379034478
 30
0.0
 11
707.6597272997517
 21
-226.8672379034581
 31
0.0
  0
LINE
  5
4C3
330
1F
100
AcDbEntity
  8
0-0
  6
JWW_DASHED1
 62
   120
370
     5
100
AcDbLine
 10
117.6597272997665
 20
-816.8672379034442
 30
0.0
 11
367.6597272997557
 21
-566.8672379034546
 31
0.0
  0
LINE
  5
4C4
330
1F
100
AcDbEntity
  8
0-0
  6
JWW_DASHED1
 62
   120
370
     5
100
AcDbLine
 10
457.6597272997549
 20
-483.9383057167414
 30
0.0
 11
707.6597272997467
 21
-233.9383057167496
 31
0.0
  0
LINE
  5
4C5
330
1F
100
AcDbEntity
  8
0-0
  6
JWW_DASHED1
 62
   120
370
     5
100
AcDbLine
 10
117.6597272997554
 20
-823.9383057167404
 30
0.0
 11
367.6597272997472
 21
-573.938305716749
 31
0.0
  0
LINE
  5
4C6
330
1F
100
AcDbEntity
  8
0-0
  6
JWW_DASHED1
 62
   120
370
     5
100
AcDbLine
 10
457.6597272997591
 20
-491.0093735300226
 30
0.0
 11
707.6597272997501
 21
-241.0093735300313
 31
0.0
  0
LINE
  5
4C7
330
1F
100
AcDbEntity
  8
0-0
  6
JWW_DASHED1
 62
   120
370
     5
100
AcDbLine
 10
117.6597272997597
 20
-831.0093735300214
 30
0.0
 11
367.6597272997506
 21
-581.0093735300303
 31
0.0
  0
LINE
  5
4C8
330
1F
100
AcDbEntity
  8
0-0
  6
JWW_DASHED1
 62
   120
370
     5
100
AcDbLine
 10
457.6597272997472
 20
-498.08044134332
 30
0.0
 11
707.6597272997543
 21
-248.0804413433129
 31
0.0
  0
LINE
  5
4C9
330
1F
100
AcDbEntity
  8
0-0
  6
JWW_DASHED1
 62
   120
370
     5
100
AcDbLine
 10
117.659727299764
 20
-838.0804413433033
 30
0.0
 11
367.6597272997549
 21
-588.0804413433119
 31
0.0
  0
LINE
  5
4CA
330
1F
100
AcDbEntity
  8
0-0
  6
JWW_DASHED1
 62
   120
370
     5
100
AcDbLine
 10
457.6597272997506
 20
-505.1515091566017
 30
0.0
 11
707.6597272997585
 21
-255.1515091565941
 31
0.0
  0
LINE
  5
4CB
330
1F
100
AcDbEntity
  8
0-0
  6
JWW_DASHED1
 62
   120
370
     5
100
AcDbLine
 10
117.659727299752
 20
-845.1515091566007
 30
0.0
 11
367.6597272997591
 21
-595.1515091565935
 31
0.0
  0
LINE
  5
4CC
330
1F
100
AcDbEntity
  8
0-0
  6
JWW_DASHED1
 62
   120
370
     5
100
AcDbLine
 10
457.6597272997591
 20
-512.222576969824
 30
0.0
 11
707.6597272997509
 21
-262.2225769698327
 31
0.0
  0
LINE
  5
4CD
330
1F
100
AcDbEntity
  8
0-0
  6
JWW_DASHED1
 62
   120
370
     5
100
AcDbLine
 10
117.6597272997597
 20
-852.2225769698231
 30
0.0
 11
367.6597272997515
 21
-602.2225769698317
 31
0.0
  0
LINE
  5
4CE
330
1F
100
AcDbEntity
  8
0-0
  6
JWW_DASHED1
 62
   120
370
     5
100
AcDbLine
 10
457.65972729976
 20
-519.2936447831091
 30
0.0
 11
707.6597272997492
 21
-269.2936447831195
 31
0.0
  0
LINE
  5
4CF
330
1F
100
AcDbEntity
  8
0-0
  6
JWW_DASHED1
 62
   120
370
     5
100
AcDbLine
 10
117.659727299764
 20
-859.2936447831052
 30
0.0
 11
367.6597272997532
 21
-609.293644783116
 31
0.0
  0
LINE
  5
4D0
330
1F
100
AcDbEntity
  8
0-0
  6
JWW_DASHED1
 62
   120
370
     5
100
AcDbLine
 10
457.6597272997643
 20
-526.3647125963903
 30
0.0
 11
707.6597272997535
 21
-276.3647125964007
 31
0.0
  0
LINE
  5
4D1
330
1F
100
AcDbEntity
  8
0-0
  6
JWW_DASHED1
 62
   120
370
     5
100
AcDbLine
 10
117.6597272997682
 20
-866.3647125963863
 30
0.0
 11
367.6597272997574
 21
-616.3647125963971
 31
0.0
  0
LINE
  5
4D2
330
1F
100
AcDbEntity
  8
0-0
  6
JWW_DASHED1
 62
   120
370
     5
100
AcDbLine
 10
457.6597272997557
 20
-533.4357804096843
 30
0.0
 11
707.6597272997467
 21
-283.435780409693
 31
0.0
  0
LINE
  5
4D3
330
1F
100
AcDbEntity
  8
0-0
  6
JWW_DASHED1
 62
   120
370
     5
100
AcDbLine
 10
117.6597272997563
 20
-873.4357804096832
 30
0.0
 11
367.6597272997481
 21
-623.435780409692
 31
0.0
  0
LINE
  5
4D4
330
1F
100
AcDbEntity
  8
0-0
  6
JWW_DASHED1
 62
   120
370
     5
100
AcDbLine
 10
457.6597272997591
 20
-540.5068482229656
 30
0.0
 11
707.6597272997509
 21
-290.5068482229742
 31
0.0
  0
LINE
  5
4D5
330
1F
100
AcDbEntity
  8
0-0
  6
JWW_DASHED1
 62
   120
370
     5
100
AcDbLine
 10
117.6597272997606
 20
-880.5068482229645
 30
0.0
 11
367.6597272997523
 21
-630.5068482229732
 31
0.0
  0
LINE
  5
4D6
330
1F
100
AcDbEntity
  8
0-0
  6
JWW_DASHED1
 62
   120
370
     5
100
AcDbLine
 10
457.6597272997472
 20
-547.577916036263
 30
0.0
 11
707.6597272997551
 21
-297.5779160362558
 31
0.0
  0
LINE
  5
4D7
330
1F
100
AcDbEntity
  8
0-0
  6
JWW_DASHED1
 62
   120
370
     5
100
AcDbLine
 10
117.659727299764
 20
-887.5779160362466
 30
0.0
 11
367.6597272997557
 21
-637.5779160362545
 31
0.0
  0
LINE
  5
4D8
330
1F
100
AcDbEntity
  8
0-0
  6
JWW_DASHED1
 62
   120
370
     5
100
AcDbLine
 10
457.6597272997515
 20
-554.6489838495446
 30
0.0
 11
707.6597272997594
 21
-304.648983849537
 31
0.0
  0
LINE
  5
4D9
330
1F
100
AcDbEntity
  8
0-0
  6
JWW_DASHED1
 62
   120
370
     5
100
AcDbLine
 10
117.6597272997529
 20
-894.6489838495436
 30
0.0
 11
367.65972729976
 21
-644.6489838495365
 31
0.0
  0
LINE
  5
4DA
330
1F
100
AcDbEntity
  8
0-0
  6
JWW_DASHED1
 62
   120
370
     5
100
AcDbLine
 10
457.6597272997557
 20
-561.7200516628262
 30
0.0
 11
707.6597272997475
 21
-311.7200516628345
 31
0.0
  0
LINE
  5
4DB
330
1F
100
AcDbEntity
  8
0-0
  6
JWW_DASHED1
 62
   120
370
     5
100
AcDbLine
 10
117.6597272997563
 20
-901.7200516628249
 30
0.0
 11
367.6597272997643
 21
-651.7200516628177
 31
0.0
  0
LINE
  5
4DC
330
1F
100
AcDbEntity
  8
0-0
  6
JWW_DASHED1
 62
   120
370
     5
100
AcDbLine
 10
457.65972729976
 20
-568.7911194761075
 30
0.0
 11
707.6597272997517
 21
-318.7911194761157
 31
0.0
  0
LINE
  5
4DD
330
1F
100
AcDbEntity
  8
0-0
  6
JWW_DASHED1
 62
   120
370
     5
100
AcDbLine
 10
117.6597272997606
 20
-908.7911194761069
 30
0.0
 11
367.6597272997523
 21
-658.7911194761151
 31
0.0
  0
LINE
  5
4DE
330
1F
100
AcDbEntity
  8
0-0
  6
JWW_DASHED1
 62
   120
370
     5
100
AcDbLine
 10
457.6597272997651
 20
-575.8621872893333
 30
0.0
 11
707.6597272997551
 21
-325.8621872893436
 31
0.0
  0
LINE
  5
4DF
330
1F
100
AcDbEntity
  8
0-0
  6
JWW_DASHED1
 62
   120
370
     5
100
AcDbLine
 10
117.6597272997691
 20
-915.8621872893293
 30
0.0
 11
367.6597272997583
 21
-665.8621872893397
 31
0.0
  0
LINE
  5
4E0
330
1F
100
AcDbEntity
  8
0-0
  6
JWW_DASHED1
 62
   120
370
     5
100
AcDbLine
 10
457.6597272997566
 20
-582.9332551026273
 30
0.0
 11
707.6597272997483
 21
-332.9332551026359
 31
0.0
  0
LINE
  5
4E1
330
1F
100
AcDbEntity
  8
0-0
  6
JWW_DASHED1
 62
   120
370
     5
100
AcDbLine
 10
118.5833904236659
 20
-922.0095919787175
 30
0.0
 11
367.6597272997489
 21
-672.9332551026349
 31
0.0
  0
LINE
  5
4E2
330
1F
100
AcDbEntity
  8
0-0
  6
JWW_DASHED1
 62
   120
370
     5
100
AcDbLine
 10
457.6597272997608
 20
-590.0043229159085
 30
0.0
 11
707.6597272997517
 21
-340.0043229159176
 31
0.0
  0
LINE
  5
4E3
330
1F
100
AcDbEntity
  8
0-0
  6
JWW_DASHED1
 62
   120
370
     5
100
AcDbLine
 10
125.6544582369472
 20
-922.0095919787216
 30
0.0
 11
367.6597272997532
 21
-680.0043229159162
 31
0.0
  0
LINE
  5
4E4
330
1F
100
AcDbEntity
  8
0-0
  6
JWW_DASHED1
 62
   120
370
     5
100
AcDbLine
 10
457.6597272997489
 20
-597.0753907292059
 30
0.0
 11
707.659727299756
 21
-347.0753907291988
 31
0.0
  0
LINE
  5
4E5
330
1F
100
AcDbEntity
  8
0-0
  6
JWW_DASHED1
 62
   120
370
     5
100
AcDbLine
 10
132.7255260502446
 20
-922.0095919787102
 30
0.0
 11
367.6597272997574
 21
-687.0753907291974
 31
0.0
  0
LINE
  5
4E6
330
1F
100
AcDbEntity
  8
0-0
  6
JWW_DASHED1
 62
   120
370
     5
100
AcDbLine
 10
457.6597272997523
 20
-604.1464585424875
 30
0.0
 11
707.6597272997603
 21
-354.14645854248
 31
0.0
  0
LINE
  5
4E7
330
1F
100
AcDbEntity
  8
0-0
  6
JWW_DASHED1
 62
   120
370
     5
100
AcDbLine
 10
139.7965938635249
 20
-922.0095919787145
 30
0.0
 11
367.6597272997608
 21
-694.1464585424794
 31
0.0
  0
LINE
  5
4E8
330
1F
100
AcDbEntity
  8
0-0
  6
JWW_DASHED1
 62
   120
370
     5
100
AcDbLine
 10
457.6597272997566
 20
-611.2175263557692
 30
0.0
 11
707.6597272997483
 21
-361.2175263557774
 31
0.0
  0
LINE
  5
4E9
330
1F
100
AcDbEntity
  8
0-0
  6
JWW_DASHED1
 62
   120
370
     5
100
AcDbLine
 10
146.867661676807
 20
-922.0095919787187
 30
0.0
 11
367.6597272997651
 21
-701.2175263557607
 31
0.0
  0
LINE
  5
4EA
330
1F
100
AcDbEntity
  8
0-0
  6
JWW_DASHED1
 62
   120
370
     5
100
AcDbLine
 10
457.6597272997608
 20
-618.2885941690504
 30
0.0
 11
707.6597272997517
 21
-368.2885941690586
 31
0.0
  0
LINE
  5
4EB
330
1F
100
AcDbEntity
  8
0-0
  6
JWW_DASHED1
 62
   120
370
     5
100
AcDbLine
 10
153.9387294900908
 20
-922.0095919787204
 30
0.0
 11
367.6597272997532
 21
-708.2885941690581
 31
0.0
  0
LINE
  5
4EC
330
1F
100
AcDbEntity
  8
0-0
  6
JWW_DASHED1
 62
   120
370
     5
100
AcDbLine
 10
457.6597272997626
 20
-625.3596619823342
 30
0.0
 11
707.6597272997517
 21
-375.359661982345
 31
0.0
  0
LINE
  5
4ED
330
1F
100
AcDbEntity
  8
0-0
  6
JWW_DASHED1
 62
   120
370
     5
100
AcDbLine
 10
161.009797303372
 20
-922.0095919787248
 30
0.0
 11
367.6597272997557
 21
-715.359661982341
 31
0.0
  0
LINE
  5
4EE
330
1F
100
AcDbEntity
  8
0-0
  6
JWW_DASHED1
 62
   120
370
     5
100
AcDbLine
 10
457.659727299766
 20
-632.4307297956158
 30
0.0
 11
707.659727299756
 21
-382.4307297956262
 31
0.0
  0
LINE
  5
4EF
330
1F
100
AcDbEntity
  8
0-0
  6
JWW_DASHED1
 62
   120
370
     5
100
AcDbLine
 10
168.0808651166532
 20
-922.0095919787282
 30
0.0
 11
367.6597272997591
 21
-722.4307297956223
 31
0.0
  0
LINE
  5
4F0
330
1F
100
AcDbEntity
  8
0-0
  6
JWW_DASHED1
 62
   120
370
     5
100
AcDbLine
 10
457.6597272997591
 20
-639.5017976088812
 30
0.0
 11
707.6597272997509
 21
-389.5017976088895
 31
0.0
  0
LINE
  5
4F1
330
1F
100
AcDbEntity
  8
0-0
  6
JWW_DASHED1
 62
   120
370
     5
100
AcDbLine
 10
175.1519329299217
 20
-922.0095919787179
 30
0.0
 11
367.6597272997515
 21
-729.5017976088885
 31
0.0
  0
LINE
  5
4F2
330
1F
100
AcDbEntity
  8
0-0
  6
JWW_DASHED1
 62
   120
370
     5
100
AcDbLine
 10
457.6597272997498
 20
-646.5728654221489
 30
0.0
 11
707.6597272997569
 21
-396.5728654221417
 31
0.0
  0
LINE
  5
4F3
330
1F
100
AcDbEntity
  8
0-0
  6
JWW_DASHED1
 62
   120
370
     5
100
AcDbLine
 10
182.2230007431858
 20
-922.0095919787128
 30
0.0
 11
367.6597272997574
 21
-736.5728654221411
 31
0.0
  0
LINE
  5
4F4
330
1F
100
AcDbEntity
  8
0-0
  6
JWW_DASHED1
 62
   120
370
     5
100
AcDbLine
 10
457.6597272997532
 20
-653.6439332354305
 30
0.0
 11
707.6597272997611
 21
-403.6439332354229
 31
0.0
  0
LINE
  5
4F5
330
1F
100
AcDbEntity
  8
0-0
  6
JWW_DASHED1
 62
   120
370
     5
100
AcDbLine
 10
189.294068556467
 20
-922.0095919787162
 30
0.0
 11
367.6597272997617
 21
-743.6439332354224
 31
0.0
  0
LINE
  5
4F6
330
1F
100
AcDbEntity
  8
0-0
  6
JWW_DASHED1
 62
   120
370
     5
100
AcDbLine
 10
457.6597272997574
 20
-660.7150010487121
 30
0.0
 11
707.6597272997492
 21
-410.7150010487204
 31
0.0
  0
LINE
  5
4F7
330
1F
100
AcDbEntity
  8
0-0
  6
JWW_DASHED1
 62
   120
370
     5
100
AcDbLine
 10
196.3651363697491
 20
-922.0095919787204
 30
0.0
 11
367.659727299766
 21
-750.7150010487036
 31
0.0
  0
LINE
  5
4F8
330
1F
100
AcDbEntity
  8
0-0
  6
JWW_DASHED1
 62
   120
370
     5
100
AcDbLine
 10
457.6597272997591
 20
-667.7860688619954
 30
0.0
 11
707.6597272997492
 21
-417.7860688620058
 31
0.0
  0
LINE
  5
4F9
330
1F
100
AcDbEntity
  8
0-0
  6
JWW_DASHED1
 62
   120
370
     5
100
AcDbLine
 10
203.4362041830354
 20
-922.0095919787196
 30
0.0
 11
367.6597272997523
 21
-757.7860688620023
 31
0.0
  0
LINE
  5
4FA
330
1F
100
AcDbEntity
  8
0-0
  6
JWW_DASHED1
 62
   120
370
     5
100
AcDbLine
 10
457.6597272997634
 20
-674.8571366752767
 30
0.0
 11
707.6597272997535
 21
-424.8571366752871
 31
0.0
  0
LINE
  5
4FB
330
1F
100
AcDbEntity
  8
0-0
  6
JWW_DASHED1
 62
   120
370
     5
100
AcDbLine
 10
210.5072719963167
 20
-922.009591978723
 30
0.0
 11
367.6597272997566
 21
-764.8571366752835
 31
0.0
  0
LINE
  5
4FC
330
1F
100
AcDbEntity
  8
0-0
  6
JWW_DASHED1
 62
   120
370
     5
100
AcDbLine
 10
457.659727299754
 20
-681.928204488572
 30
0.0
 11
707.6597272997449
 21
-431.9282044885802
 31
0.0
  0
LINE
  5
4FD
330
1F
100
AcDbEntity
  8
0-0
  6
JWW_DASHED1
 62
   120
370
     5
100
AcDbLine
 10
217.5783398096141
 20
-922.0095919787113
 30
0.0
 11
367.6597272997464
 21
-771.9282044885797
 31
0.0
  0
LINE
  5
4FE
330
1F
100
AcDbEntity
  8
0-0
  6
JWW_DASHED1
 62
   120
370
     5
100
AcDbLine
 10
457.6597272997574
 20
-688.999272301854
 30
0.0
 11
707.6597272997492
 21
-438.9992723018623
 31
0.0
  0
LINE
  5
4FF
330
1F
100
AcDbEntity
  8
0-0
  6
JWW_DASHED1
 62
   120
370
     5
100
AcDbLine
 10
224.6494076228961
 20
-922.0095919787153
 30
0.0
 11
367.6597272997498
 21
-778.9992723018609
 31
0.0
  0
LINE
  5
500
330
1F
100
AcDbEntity
  8
0-0
  6
JWW_DASHED1
 62
   120
370
     5
100
AcDbLine
 10
457.6597272997455
 20
-696.0703401151507
 30
0.0
 11
707.6597272997535
 21
-446.0703401151435
 31
0.0
  0
LINE
  5
501
330
1F
100
AcDbEntity
  8
0-0
  6
JWW_DASHED1
 62
   120
370
     5
100
AcDbLine
 10
231.7204754361782
 20
-922.0095919787187
 30
0.0
 11
367.659727299754
 21
-786.0703401151424
 31
0.0
  0
LINE
  5
502
330
1F
100
AcDbEntity
  8
0-0
  6
JWW_DASHED1
 62
   120
370
     5
100
AcDbLine
 10
457.6597272997523
 20
-703.1414079284028
 30
0.0
 11
707.6597272997594
 21
-453.1414079283957
 31
0.0
  0
LINE
  5
503
330
1F
100
AcDbEntity
  8
0-0
  6
JWW_DASHED1
 62
   120
370
     5
100
AcDbLine
 10
238.7915432494381
 20
-922.0095919787162
 30
0.0
 11
367.65972729976
 21
-793.1414079283948
 31
0.0
  0
LINE
  5
504
330
1F
100
AcDbEntity
  8
0-0
  6
JWW_DASHED1
 62
   120
370
     5
100
AcDbLine
 10
457.6597272997583
 20
-710.2124757416547
 30
0.0
 11
707.6597272997501
 21
-460.2124757416633
 31
0.0
  0
LINE
  5
505
330
1F
100
AcDbEntity
  8
0-0
  6
JWW_DASHED1
 62
   120
370
     5
100
AcDbLine
 10
245.8626110626903
 20
-922.0095919787226
 30
0.0
 11
367.6597272997668
 21
-800.2124757416466
 31
0.0
  0
LINE
  5
506
330
1F
100
AcDbEntity
  8
0-0
  6
JWW_DASHED1
 62
   120
370
     5
100
AcDbLine
 10
457.6597272997608
 20
-717.283543554938
 30
0.0
 11
707.6597272997501
 21
-467.2835435549488
 31
0.0
  0
LINE
  5
507
330
1F
100
AcDbEntity
  8
0-0
  6
JWW_DASHED1
 62
   120
370
     5
100
AcDbLine
 10
252.9336788759801
 20
-922.0095919787182
 30
0.0
 11
367.659727299754
 21
-807.2835435549448
 31
0.0
  0
LINE
  5
508
330
1F
100
AcDbEntity
  8
0-0
  6
JWW_DASHED1
 62
   120
370
     5
100
AcDbLine
 10
457.6597272997643
 20
-724.3546113682196
 30
0.0
 11
707.6597272997543
 21
-474.35461136823
 31
0.0
  0
LINE
  5
509
330
1F
100
AcDbEntity
  8
0-0
  6
JWW_DASHED1
 62
   120
370
     5
100
AcDbLine
 10
260.0047466892622
 20
-922.0095919787221
 30
0.0
 11
367.6597272997574
 21
-814.3546113682263
 31
0.0
  0
LINE
  5
50A
330
1F
100
AcDbEntity
  8
0-0
  6
JWW_DASHED1
 62
   120
370
     5
100
AcDbLine
 10
457.659727299754
 20
-731.425679181515
 30
0.0
 11
707.6597272997467
 21
-481.4256791815232
 31
0.0
  0
LINE
  5
50B
330
1F
100
AcDbEntity
  8
0-0
  6
JWW_DASHED1
 62
   120
370
     5
100
AcDbLine
 10
267.0758145025596
 20
-922.0095919787096
 30
0.0
 11
367.6597272997472
 21
-821.4256791815226
 31
0.0
  0
LINE
  5
50C
330
1F
100
AcDbEntity
  8
0-0
  6
JWW_DASHED1
 62
   120
370
     5
100
AcDbLine
 10
457.6597272997583
 20
-738.4967469947966
 30
0.0
 11
707.6597272997501
 21
-488.4967469948052
 31
0.0
  0
LINE
  5
50D
330
1F
100
AcDbEntity
  8
0-0
  6
JWW_DASHED1
 62
   120
370
     5
100
AcDbLine
 10
274.1468823158417
 20
-922.0095919787136
 30
0.0
 11
367.6597272997506
 21
-828.4967469948041
 31
0.0
  0
LINE
  5
50E
330
1F
100
AcDbEntity
  8
0-0
  6
JWW_DASHED1
 62
   120
370
     5
100
AcDbLine
 10
457.6597272997472
 20
-745.5678148080935
 30
0.0
 11
707.6597272997543
 21
-495.5678148080864
 31
0.0
  0
LINE
  5
50F
330
1F
100
AcDbEntity
  8
0-0
  6
JWW_DASHED1
 62
   120
370
     5
100
AcDbLine
 10
281.2179501291229
 20
-922.0095919787179
 30
0.0
 11
367.6597272997549
 21
-835.5678148080855
 31
0.0
  0
LINE
  5
510
330
1F
100
AcDbEntity
  8
0-0
  6
JWW_DASHED1
 62
   120
370
     5
100
AcDbLine
 10
457.6597272997506
 20
-752.6388826213748
 30
0.0
 11
707.6597272997585
 21
-502.6388826213677
 31
0.0
  0
LINE
  5
511
330
1F
100
AcDbEntity
  8
0-0
  6
JWW_DASHED1
 62
   120
370
     5
100
AcDbLine
 10
288.2890179424092
 20
-922.0095919787162
 30
0.0
 11
367.6597272997591
 21
-842.6388826213671
 31
0.0
  0
LINE
  5
512
330
1F
100
AcDbEntity
  8
0-0
  6
JWW_DASHED1
 62
   120
370
     5
100
AcDbLine
 10
457.6597272997549
 20
-759.7099504346569
 30
0.0
 11
707.6597272997467
 21
-509.7099504346651
 31
0.0
  0
LINE
  5
513
330
1F
100
AcDbEntity
  8
0-0
  6
JWW_DASHED1
 62
   120
370
     5
100
AcDbLine
 10
295.3600857556913
 20
-922.0095919787204
 30
0.0
 11
367.6597272997626
 21
-849.7099504346484
 31
0.0
  0
LINE
  5
514
330
1F
100
AcDbEntity
  8
0-0
  6
JWW_DASHED1
 62
   120
370
     5
100
AcDbLine
 10
457.6597272997591
 20
-766.781018247938
 30
0.0
 11
707.6597272997501
 21
-516.7810182479467
 31
0.0
  0
LINE
  5
515
330
1F
100
AcDbEntity
  8
0-0
  6
JWW_DASHED1
 62
   120
370
     5
100
AcDbLine
 10
302.4311535689836
 20
-922.0095919787128
 30
0.0
 11
367.6597272997515
 21
-856.7810182479458
 31
0.0
  0
LINE
  5
516
330
1F
100
AcDbEntity
  8
0-0
  6
JWW_DASHED1
 62
   120
370
     5
100
AcDbLine
 10
457.659727299766
 20
-773.8520860611621
 30
0.0
 11
707.6597272997551
 21
-523.8520860611725
 31
0.0
  0
LINE
  5
517
330
1F
100
AcDbEntity
  8
0-0
  6
JWW_DASHED1
 62
   120
370
     5
100
AcDbLine
 10
309.5022213822068
 20
-922.0095919787213
 30
0.0
 11
367.6597272997591
 21
-863.852086061169
 31
0.0
  0
LINE
  5
518
330
1F
100
AcDbEntity
  8
0-0
  6
JWW_DASHED1
 62
   120
370
     5
100
AcDbLine
 10
457.6597272997557
 20
-780.9231538744579
 30
0.0
 11
707.6597272997467
 21
-530.9231538744665
 31
0.0
  0
LINE
  5
519
330
1F
100
AcDbEntity
  8
0-0
  6
JWW_DASHED1
 62
   120
370
     5
100
AcDbLine
 10
316.5732891955042
 20
-922.009591978709
 30
0.0
 11
367.6597272997472
 21
-870.9231538744656
 31
0.0
  0
LINE
  5
51A
330
1F
100
AcDbEntity
  8
0-0
  6
JWW_DASHED1
 62
   120
370
     5
100
AcDbLine
 10
457.6597272997591
 20
-787.9942216877394
 30
0.0
 11
707.6597272997509
 21
-537.9942216877482
 31
0.0
  0
LINE
  5
51B
330
1F
100
AcDbEntity
  8
0-0
  6
JWW_DASHED1
 62
   120
370
     5
100
AcDbLine
 10
323.6443570087863
 20
-922.0095919787128
 30
0.0
 11
367.6597272997515
 21
-877.9942216877472
 31
0.0
  0
LINE
  5
51C
330
1F
100
AcDbEntity
  8
0-0
  6
JWW_DASHED1
 62
   120
370
     5
100
AcDbLine
 10
457.6597272997472
 20
-795.0652895010365
 30
0.0
 11
707.6597272997551
 21
-545.0652895010294
 31
0.0
  0
LINE
  5
51D
330
1F
100
AcDbEntity
  8
0-0
  6
JWW_DASHED1
 62
   120
370
     5
100
AcDbLine
 10
330.7154248220701
 20
-922.0095919787145
 30
0.0
 11
367.6597272997557
 21
-885.0652895010282
 31
0.0
  0
LINE
  5
51E
330
1F
100
AcDbEntity
  8
0-0
  6
JWW_DASHED1
 62
   120
370
     5
100
AcDbLine
 10
457.6597272997523
 20
-802.1363573143177
 30
0.0
 11
707.6597272997585
 21
-552.1363573143107
 31
0.0
  0
LINE
  5
51F
330
1F
100
AcDbEntity
  8
0-0
  6
JWW_DASHED1
 62
   120
370
     5
100
AcDbLine
 10
337.7864926353513
 20
-922.0095919787187
 30
0.0
 11
367.6597272997591
 21
-892.1363573143101
 31
0.0
  0
LINE
  5
520
330
1F
100
AcDbEntity
  8
0-0
  6
JWW_DASHED1
 62
   120
370
     5
100
AcDbLine
 10
457.6597272997557
 20
-809.2074251275998
 30
0.0
 11
707.6597272997475
 21
-559.2074251276081
 31
0.0
  0
LINE
  5
521
330
1F
100
AcDbEntity
  8
0-0
  6
JWW_DASHED1
 62
   120
370
     5
100
AcDbLine
 10
344.8575604486325
 20
-922.0095919787226
 30
0.0
 11
367.6597272997634
 21
-899.2074251275913
 31
0.0
  0
LINE
  5
522
330
1F
100
AcDbEntity
  8
0-0
  6
JWW_DASHED1
 62
   120
370
     5
100
AcDbLine
 10
457.6597272997591
 20
-816.278492940881
 30
0.0
 11
707.6597272997509
 21
-566.2784929408897
 31
0.0
  0
LINE
  5
523
330
1F
100
AcDbEntity
  8
0-0
  6
JWW_DASHED1
 62
   120
370
     5
100
AcDbLine
 10
351.9286282619291
 20
-922.0095919787119
 30
0.0
 11
367.6597272997523
 21
-906.2784929408887
 31
0.0
  0
LINE
  5
524
330
1F
100
AcDbEntity
  8
0-0
  6
JWW_DASHED1
 62
   120
370
     5
100
AcDbLine
 10
457.6597272997626
 20
-823.3495607541639
 30
0.0
 11
707.6597272997526
 21
-573.3495607541739
 31
0.0
  0
LINE
  5
525
330
1F
100
AcDbEntity
  8
0-0
  6
JWW_DASHED1
 62
   120
370
     5
100
AcDbLine
 10
358.9996960752103
 20
-922.0095919787162
 30
0.0
 11
367.6597272997557
 21
-913.3495607541699
 31
0.0
  0
LINE
  5
526
330
1F
100
AcDbEntity
  8
0-0
  6
JWW_DASHED1
 62
   120
370
     5
100
AcDbLine
 10
457.6597272997668
 20
-830.4206285674452
 30
0.0
 11
707.659727299756
 21
-580.4206285674555
 31
0.0
  0
LINE
  5
527
330
1F
100
AcDbEntity
  8
0-0
  6
JWW_DASHED1
 62
   120
370
     5
100
AcDbLine
 10
366.0707638884924
 20
-922.0095919787192
 30
0.0
 11
367.65972729976
 21
-920.420628567452
 31
0.0
  0
LINE
  5
528
330
1F
100
AcDbEntity
  8
0-0
  6
JWW_DASHED1
 62
   120
370
     5
100
AcDbLine
 10
457.6597272997438
 20
-837.4916963806983
 30
0.0
 11
707.6597272997517
 21
-587.4916963806911
 31
0.0
  0
LINE
  5
529
330
1F
100
AcDbEntity
  8
0-0
  6
JWW_DASHED1
 62
   120
370
     5
100
AcDbLine
 10
457.6597272997489
 20
-844.5627641939794
 30
0.0
 11
707.659727299756
 21
-594.5627641939724
 31
0.0
  0
LINE
  5
52A
330
1F
100
AcDbEntity
  8
0-0
  6
JWW_DASHED1
 62
   120
370
     5
100
AcDbLine
 10
457.6597272997523
 20
-851.6338320072615
 30
0.0
 11
707.6597272997603
 21
-601.633832007254
 31
0.0
  0
LINE
  5
52B
330
1F
100
AcDbEntity
  8
0-0
  6
JWW_DASHED1
 62
   120
370
     5
100
AcDbLine
 10
457.6597272997557
 20
-858.7048998205428
 30
0.0
 11
707.6597272997483
 21
-608.704899820551
 31
0.0
  0
LINE
  5
52C
330
1F
100
AcDbEntity
  8
0-0
  6
JWW_DASHED1
 62
   120
370
     5
100
AcDbLine
 10
457.6597272997608
 20
-865.7759676338239
 30
0.0
 11
707.6597272997517
 21
-615.7759676338326
 31
0.0
  0
LINE
  5
52D
330
1F
100
AcDbEntity
  8
0-0
  6
JWW_DASHED1
 62
   120
370
     5
100
AcDbLine
 10
457.6597272997643
 20
-872.847035447106
 30
0.0
 11
707.6597272997535
 21
-622.8470354471164
 31
0.0
  0
LINE
  5
52E
330
1F
100
AcDbEntity
  8
0-0
  6
JWW_DASHED1
 62
   120
370
     5
100
AcDbLine
 10
457.6597272997685
 20
-879.9181032603873
 30
0.0
 11
707.6597272997577
 21
-629.9181032603981
 31
0.0
  0
LINE
  5
52F
330
1F
100
AcDbEntity
  8
0-0
  6
JWW_DASHED1
 62
   120
370
     5
100
AcDbLine
 10
457.6597272997566
 20
-886.9891710736842
 30
0.0
 11
707.6597272997483
 21
-636.9891710736929
 31
0.0
  0
LINE
  5
530
330
1F
100
AcDbEntity
  8
0-0
  6
JWW_DASHED1
 62
   120
370
     5
100
AcDbLine
 10
457.6597272997446
 20
-894.0602388869817
 30
0.0
 11
707.6597272997517
 21
-644.0602388869742
 31
0.0
  0
LINE
  5
531
330
1F
100
AcDbEntity
  8
0-0
  6
JWW_DASHED1
 62
   120
370
     5
100
AcDbLine
 10
457.6597272997532
 20
-901.1313067002045
 30
0.0
 11
707.6597272997603
 21
-651.1313067001969
 31
0.0
  0
LINE
  5
532
330
1F
100
AcDbEntity
  8
0-0
  6
JWW_DASHED1
 62
   120
370
     5
100
AcDbLine
 10
457.6597272997574
 20
-908.2023745134857
 30
0.0
 11
707.6597272997483
 21
-658.202374513494
 31
0.0
  0
LINE
  5
533
330
1F
100
AcDbEntity
  8
0-0
  6
JWW_DASHED1
 62
   120
370
     5
100
AcDbLine
 10
457.6597272997608
 20
-915.2734423267669
 30
0.0
 11
707.6597272997509
 21
-665.2734423267777
 31
0.0
  0
LINE
  5
534
330
1F
100
AcDbEntity
  8
0-0
  6
JWW_DASHED1
 62
   120
370
     5
100
AcDbLine
 10
457.9946454610894
 20
-922.0095919787243
 30
0.0
 11
707.6597272997551
 21
-672.3445101400589
 31
0.0
  0
LINE
  5
535
330
1F
100
AcDbEntity
  8
0-0
  6
JWW_DASHED1
 62
   120
370
     5
100
AcDbLine
 10
465.0657132743868
 20
-922.0095919787128
 30
0.0
 11
707.6597272997449
 21
-679.4155779533546
 31
0.0
  0
LINE
  5
536
330
1F
100
AcDbEntity
  8
0-0
  6
JWW_DASHED1
 62
   120
370
     5
100
AcDbLine
 10
472.136781087668
 20
-922.0095919787162
 30
0.0
 11
707.6597272997492
 21
-686.4866457666359
 31
0.0
  0
LINE
  5
537
330
1F
100
AcDbEntity
  8
0-0
  6
JWW_DASHED1
 62
   120
370
     5
100
AcDbLine
 10
479.2078489009646
 20
-922.009591978706
 30
0.0
 11
707.6597272997535
 21
-693.557713579917
 31
0.0
  0
LINE
  5
538
330
1F
100
AcDbEntity
  8
0-0
  6
JWW_DASHED1
 62
   120
370
     5
100
AcDbLine
 10
486.2789167142458
 20
-922.0095919787102
 30
0.0
 11
707.6597272997569
 21
-700.6287813931983
 31
0.0
  0
LINE
  5
539
330
1F
100
AcDbEntity
  8
0-0
  6
JWW_DASHED1
 62
   120
370
     5
100
AcDbLine
 10
493.3499845275279
 20
-922.0095919787136
 30
0.0
 11
707.6597272997611
 21
-707.6998492064804
 31
0.0
  0
LINE
  5
53A
330
1F
100
AcDbEntity
  8
0-0
  6
JWW_DASHED1
 62
   120
370
     5
100
AcDbLine
 10
500.4210523407519
 20
-922.0095919787196
 30
0.0
 11
707.6597272997517
 21
-714.7709170197202
 31
0.0
  0
LINE
  5
53B
330
1F
100
AcDbEntity
  8
0-0
  6
JWW_DASHED1
 62
   120
370
     5
100
AcDbLine
 10
507.492120154034
 20
-922.0095919787238
 30
0.0
 11
707.659727299756
 21
-721.8419848330019
 31
0.0
  0
LINE
  5
53C
330
1F
100
AcDbEntity
  8
0-0
  6
JWW_DASHED1
 62
   120
370
     5
100
AcDbLine
 10
514.5631879673315
 20
-922.0095919787119
 30
0.0
 11
707.6597272997458
 21
-728.9130526462972
 31
0.0
  0
LINE
  5
53D
330
1F
100
AcDbEntity
  8
0-0
  6
JWW_DASHED1
 62
   120
370
     5
100
AcDbLine
 10
521.6342557806136
 20
-922.0095919787153
 30
0.0
 11
707.6597272997501
 21
-735.9841204595788
 31
0.0
  0
LINE
  5
53E
330
1F
100
AcDbEntity
  8
0-0
  6
JWW_DASHED1
 62
   120
370
     5
100
AcDbLine
 10
528.7053235939059
 20
-922.0095919787077
 30
0.0
 11
707.6597272997535
 21
-743.05518827286
 31
0.0
  0
LINE
  5
53F
330
1F
100
AcDbEntity
  8
0-0
  6
JWW_DASHED1
 62
   120
370
     5
100
AcDbLine
 10
535.7763914071879
 20
-922.0095919787119
 30
0.0
 11
707.6597272997585
 21
-750.1262560861412
 31
0.0
  0
LINE
  5
540
330
1F
100
AcDbEntity
  8
0-0
  6
JWW_DASHED1
 62
   120
370
     5
100
AcDbLine
 10
542.8474592204742
 20
-922.0095919787111
 30
0.0
 11
707.6597272997467
 21
-757.1973238994386
 31
0.0
  0
LINE
  5
541
330
1F
100
AcDbEntity
  8
0-0
  6
JWW_DASHED1
 62
   120
370
     5
100
AcDbLine
 10
549.9185270337563
 20
-922.0095919787141
 30
0.0
 11
707.6597272997501
 21
-764.2683917127207
 31
0.0
  0
LINE
  5
542
330
1F
100
AcDbEntity
  8
0-0
  6
JWW_DASHED1
 62
   120
370
     5
100
AcDbLine
 10
556.9895948470376
 20
-922.0095919787179
 30
0.0
 11
707.6597272997535
 21
-771.3394595260028
 31
0.0
  0
LINE
  5
543
330
1F
100
AcDbEntity
  8
0-0
  6
JWW_DASHED1
 62
   120
370
     5
100
AcDbLine
 10
564.0606626602769
 20
-922.0095919787102
 30
0.0
 11
707.6597272997467
 21
-778.4105273392399
 31
0.0
  0
LINE
  5
544
330
1F
100
AcDbEntity
  8
0-0
  6
JWW_DASHED1
 62
   120
370
     5
100
AcDbLine
 10
571.1317304735667
 20
-922.009591978706
 30
0.0
 11
707.6597272997509
 21
-785.4815951525218
 31
0.0
  0
LINE
  5
545
330
1F
100
AcDbEntity
  8
0-0
  6
JWW_DASHED1
 62
   120
370
     5
100
AcDbLine
 10
578.2027982868478
 20
-922.0095919787094
 30
0.0
 11
707.6597272997551
 21
-792.5526629658029
 31
0.0
  0
LINE
  5
546
330
1F
100
AcDbEntity
  8
0-0
  6
JWW_DASHED1
 62
   120
370
     5
100
AcDbLine
 10
585.2738661001299
 20
-922.0095919787136
 30
0.0
 11
707.6597272997585
 21
-799.6237307790844
 31
0.0
  0
LINE
  5
547
330
1F
100
AcDbEntity
  8
0-0
  6
JWW_DASHED1
 62
   120
370
     5
100
AcDbLine
 10
592.3449339134188
 20
-922.0095919787094
 30
0.0
 11
707.6597272997467
 21
-806.6947985923816
 31
0.0
  0
LINE
  5
548
330
1F
100
AcDbEntity
  8
0-0
  6
JWW_DASHED1
 62
   120
370
     5
100
AcDbLine
 10
599.4160017267009
 20
-922.009591978713
 30
0.0
 11
707.6597272997509
 21
-813.7658664056637
 31
0.0
  0
LINE
  5
549
330
1F
100
AcDbEntity
  8
0-0
  6
JWW_DASHED1
 62
   120
370
     5
100
AcDbLine
 10
606.4870695399829
 20
-922.009591978717
 30
0.0
 11
707.6597272997543
 21
-820.8369342189458
 31
0.0
  0
LINE
  5
54A
330
1F
100
AcDbEntity
  8
0-0
  6
JWW_DASHED1
 62
   120
370
     5
100
AcDbLine
 10
613.5581373532642
 20
-922.0095919787209
 30
0.0
 11
707.6597272997585
 21
-827.9080020322269
 31
0.0
  0
LINE
  5
54B
330
1F
100
AcDbEntity
  8
0-0
  6
JWW_DASHED1
 62
   120
370
     5
100
AcDbLine
 10
620.6292051665625
 20
-922.0095919787085
 30
0.0
 11
707.6597272997475
 21
-834.9790698455236
 31
0.0
  0
LINE
  5
54C
330
1F
100
AcDbEntity
  8
0-0
  6
JWW_DASHED1
 62
   120
370
     5
100
AcDbLine
 10
627.70027297979
 20
-922.0095919787119
 30
0.0
 11
707.6597272997551
 21
-842.0501376587459
 31
0.0
  0
LINE
  5
54D
330
1F
100
AcDbEntity
  8
0-0
  6
JWW_DASHED1
 62
   120
370
     5
100
AcDbLine
 10
634.7713407930712
 20
-922.0095919787158
 30
0.0
 11
707.6597272997594
 21
-849.1212054720276
 31
0.0
  0
LINE
  5
54E
330
1F
100
AcDbEntity
  8
0-0
  6
JWW_DASHED1
 62
   120
370
     5
100
AcDbLine
 10
641.8424086063644
 20
-922.0095919787085
 30
0.0
 11
707.6597272997475
 21
-856.192273285325
 31
0.0
  0
LINE
  5
54F
330
1F
100
AcDbEntity
  8
0-0
  6
JWW_DASHED1
 62
   120
370
     5
100
AcDbLine
 10
648.9134764196465
 20
-922.0095919787119
 30
0.0
 11
707.6597272997517
 21
-863.2633410986066
 31
0.0
  0
LINE
  5
550
330
1F
100
AcDbEntity
  8
0-0
  6
JWW_DASHED1
 62
   120
370
     5
100
AcDbLine
 10
655.9845442329276
 20
-922.0095919787162
 30
0.0
 11
707.6597272997551
 21
-870.3344089118881
 31
0.0
  0
LINE
  5
551
330
1F
100
AcDbEntity
  8
0-0
  6
JWW_DASHED1
 62
   120
370
     5
100
AcDbLine
 10
663.0556120462251
 20
-922.0095919787043
 30
0.0
 11
707.6597272997441
 21
-877.4054767251853
 31
0.0
  0
LINE
  5
552
330
1F
100
AcDbEntity
  8
0-0
  6
JWW_DASHED1
 62
   120
370
     5
100
AcDbLine
 10
670.1266798595063
 20
-922.0095919787077
 30
0.0
 11
707.6597272997483
 21
-884.4765445384664
 31
0.0
  0
LINE
  5
553
330
1F
100
AcDbEntity
  8
0-0
  6
JWW_DASHED1
 62
   120
370
     5
100
AcDbLine
 10
677.19774767279
 20
-922.0095919787094
 30
0.0
 11
707.6597272997517
 21
-891.547612351748
 31
0.0
  0
LINE
  5
554
330
1F
100
AcDbEntity
  8
0-0
  6
JWW_DASHED1
 62
   120
370
     5
100
AcDbLine
 10
684.2688154860721
 20
-922.0095919787136
 30
0.0
 11
707.659727299756
 21
-898.6186801650298
 31
0.0
  0
LINE
  5
555
330
1F
100
AcDbEntity
  8
0-0
  6
JWW_DASHED1
 62
   120
370
     5
100
AcDbLine
 10
691.3398832993526
 20
-922.0095919787179
 30
0.0
 11
707.6597272997603
 21
-905.689747978311
 31
0.0
  0
LINE
  5
556
330
1F
100
AcDbEntity
  8
0-0
  6
JWW_DASHED1
 62
   120
370
     5
100
AcDbLine
 10
698.4109511125903
 20
-922.0095919787111
 30
0.0
 11
707.6597272997526
 21
-912.7608157915496
 31
0.0
  0
LINE
  5
557
330
1F
100
AcDbEntity
  8
0-0
  6
JWW_DASHED1
 62
   120
370
     5
100
AcDbLine
 10
705.4820189258724
 20
-922.0095919787153
 30
0.0
 11
707.6597272997569
 21
-919.8318836048308
 31
0.0
  0
LINE
  5
558
330
1F
100
AcDbEntity
  8
寸法
  6
Continuous
 62
   120
370
     5
100
AcDbLine
 10
37.65972729975744
 20
-1342.009591978718
 30
0.0
 11
-772.3402727002426
 21
-1342.009591978718
 31
0.0
  0
LINE
  5
559
330
1F
100
AcDbEntity
  8
寸法
  6
Continuous
 62
   120
370
     5
100
AcDbLine
 10
37.65972729975744
 20
-1342.009591978718
 30
0.0
 11
37.65972729975744
 21
-1142.009591978719
 31
0.0
  0
LINE
  5
55A
330
1F
100
AcDbEntity
  8
寸法
  6
Continuous
 62
   120
370
     5
100
AcDbLine
 10
-772.3402727002426
 20
-1342.009591978718
 30
0.0
 11
-772.3402727002426
 21
-1142.009591978719
 31
0.0
  0
LINE
  5
55B
330
1F
100
AcDbEntity
  8
寸法
  6
Continuous
 62
   120
370
     5
100
AcDbLine
 10
-799.3402727002419
 20
-1742.009591978718
 30
0.0
 11
-799.3402727002419
 21
-1142.009591978719
 31
0.0
  0
LINE
  5
55C
330
1F
100
AcDbEntity
  8
寸法
  6
Continuous
 62
   120
370
     5
100
AcDbLine
 10
-799.3402727002419
 20
-1742.009591978718
 30
0.0
 11
1624.659727299757
 21
-1742.009591978717
 31
0.0
  0
LINE
  5
55D
330
1F
100
AcDbEntity
  8
寸法
  6
Continuous
 62
   120
370
     5
100
AcDbLine
 10
1624.659727299757
 20
-1742.009591978717
 30
0.0
 11
1624.659727299757
 21
-1142.009591978718
 31
0.0
  0
LINE
  5
55E
330
1F
100
AcDbEntity
  8
寸法
  6
Continuous
 62
   120
370
     5
100
AcDbLine
 10
-769.3402727002419
 20
-1542.009591978718
 30
0.0
 11
787.6597272997574
 21
-1542.009591978718
 31
0.0
  0
LINE
  5
55F
330
1F
100
AcDbEntity
  8
寸法
  6
Continuous
 62
   120
370
     5
100
AcDbLine
 10
-769.3402727002419
 20
-1542.009591978718
 30
0.0
 11
-769.3402727002419
 21
-1142.009591978719
 31
0.0
  0
LINE
  5
560
330
1F
100
AcDbEntity
  8
寸法
  6
Continuous
 62
   120
370
     5
100
AcDbLine
 10
787.6597272997574
 20
-1542.009591978718
 30
0.0
 11
787.6597272997574
 21
-1142.009591978719
 31
0.0
  0
LWPOLYLINE
  5
561
330
1F
100
AcDbEntity
  8
寸法
  6
Continuous
 62
     7
370
     9
100
AcDbPolyline
 90
        4
 70
     1
 43
3.0
 10
39.15972729975744
 20
-1342.009591978718
 42
0.4142135623731
 10
37.65972729975744
 20
-1340.509591978718
 42
0.4142135623731
 10
36.15972729975744
 20
-1342.009591978718
 42
0.4142135623731
 10
37.65972729975744
 20
-1343.509591978718
 42
0.4142135623731
  0
LWPOLYLINE
  5
562
330
1F
100
AcDbEntity
  8
寸法
  6
Continuous
 62
     7
370
     9
100
AcDbPolyline
 90
        4
 70
     1
 43
3.0
 10
-770.8402727002425
 20
-1342.009591978718
 42
0.4142135623731
 10
-772.3402727002426
 20
-1340.509591978718
 42
0.4142135623731
 10
-773.8402727002426
 20
-1342.009591978718
 42
0.4142135623731
 10
-772.3402727002426
 20
-1343.509591978718
 42
0.4142135623731
  0
LWPOLYLINE
  5
563
330
1F
100
AcDbEntity
  8
寸法
  6
Continuous
 62
     7
370
     9
100
AcDbPolyline
 90
        4
 70
     1
 43
3.0
 10
-797.8402727002418
 20
-1742.009591978718
 42
0.4142135623731
 10
-799.3402727002419
 20
-1740.509591978718
 42
0.4142135623731
 10
-800.8402727002419
 20
-1742.009591978718
 42
0.4142135623731
 10
-799.3402727002419
 20
-1743.509591978718
 42
0.4142135623731
  0
LWPOLYLINE
  5
564
330
1F
100
AcDbEntity
  8
寸法
  6
Continuous
 62
     7
370
     9
100
AcDbPolyline
 90
        4
 70
     1
 43
3.0
 10
1626.159727299757
 20
-1742.009591978717
 42
0.4142135623731
 10
1624.659727299757
 20
-1740.509591978717
 42
0.4142135623731
 10
1623.159727299757
 20
-1742.009591978717
 42
0.4142135623731
 10
1624.659727299757
 20
-1743.509591978717
 42
0.4142135623731
  0
LWPOLYLINE
  5
565
330
1F
100
AcDbEntity
  8
寸法
  6
Continuous
 62
     7
370
     9
100
AcDbPolyline
 90
        4
 70
     1
 43
3.0
 10
-767.8402727002418
 20
-1542.009591978718
 42
0.4142135623731
 10
-769.3402727002419
 20
-1540.509591978718
 42
0.4142135623731
 10
-770.8402727002419
 20
-1542.009591978718
 42
0.4142135623731
 10
-769.3402727002419
 20
-1543.509591978717
 42
0.4142135623731
  0
LWPOLYLINE
  5
566
330
1F
100
AcDbEntity
  8
寸法
  6
Continuous
 62
     7
370
     9
100
AcDbPolyline
 90
        4
 70
     1
 43
3.0
 10
789.1597272997574
 20
-1542.009591978718
 42
0.4142135623731
 10
787.6597272997574
 20
-1540.509591978718
 42
0.4142135623731
 10
786.1597272997573
 20
-1542.009591978718
 42
0.4142135623731
 10
787.6597272997574
 20
-1543.509591978717
 42
0.4142135623731
  0
LINE
  5
567
330
1F
100
AcDbEntity
  8
寸法
  6
Continuous
 62
   120
370
     5
100
AcDbLine
 10
-1249.340272700244
 20
-1092.009591978718
 30
0.0
 11
-849.3402727002442
 21
-1092.009591978718
 31
0.0
  0
LINE
  5
568
330
1F
100
AcDbEntity
  8
寸法
  6
Continuous
 62
   120
370
     5
100
AcDbLine
 10
-1049.340272700243
 20
-1072.009591978717
 30
0.0
 11
-849.3402727002442
 21
-1072.009591978717
 31
0.0
  0
LWPOLYLINE
  5
569
330
1F
100
AcDbEntity
  8
寸法
  6
Continuous
 62
     7
370
     9
100
AcDbPolyline
 90
        4
 70
     1
 43
3.0
 10
-1247.840272700244
 20
-1092.009591978718
 42
0.4142135623731
 10
-1249.340272700244
 20
-1090.509591978719
 42
0.4142135623731
 10
-1250.840272700244
 20
-1092.009591978718
 42
0.4142135623731
 10
-1249.340272700244
 20
-1093.509591978718
 42
0.4142135623731
  0
LWPOLYLINE
  5
56A
330
1F
100
AcDbEntity
  8
寸法
  6
Continuous
 62
     7
370
     9
100
AcDbPolyline
 90
        4
 70
     1
 43
3.0
 10
-1047.840272700243
 20
-1072.009591978717
 42
0.4142135623731
 10
-1049.340272700243
 20
-1070.509591978717
 42
0.4142135623731
 10
-1050.840272700243
 20
-1072.009591978717
 42
0.4142135623731
 10
-1049.340272700243
 20
-1073.509591978717
 42
0.4142135623731
  0
LINE
  5
56B
330
1F
100
AcDbEntity
  8
寸法
  6
Continuous
 62
   120
370
     5
100
AcDbLine
 10
-1249.340272700244
 20
1154.990408021281
 30
0.0
 11
-1249.340272700244
 21
-1092.009591978718
 31
0.0
  0
LINE
  5
56C
330
1F
100
AcDbEntity
  8
寸法
  6
Continuous
 62
   120
370
     5
100
AcDbLine
 10
-1249.340272700244
 20
1154.990408021281
 30
0.0
 11
-849.3402727002442
 21
1154.990408021281
 31
0.0
  0
LWPOLYLINE
  5
56D
330
1F
100
AcDbEntity
  8
寸法
  6
Continuous
 62
     7
370
     9
100
AcDbPolyline
 90
        4
 70
     1
 43
3.0
 10
-1247.840272700244
 20
1154.990408021281
 42
0.4142135623731
 10
-1249.340272700244
 20
1156.490408021281
 42
0.4142135623731
 10
-1250.840272700244
 20
1154.990408021281
 42
0.4142135623731
 10
-1249.340272700244
 20
1153.490408021282
 42
0.4142135623731
  0
LINE
  5
56E
330
1F
100
AcDbEntity
  8
寸法
  6
Continuous
 62
   120
370
     5
100
AcDbLine
 10
-1049.340272700243
 20
1110.990408021283
 30
0.0
 11
-849.3402727002442
 21
1110.990408021283
 31
0.0
  0
LINE
  5
56F
330
1F
100
AcDbEntity
  8
寸法
  6
Continuous
 62
   120
370
     5
100
AcDbLine
 10
-1049.340272700243
 20
1110.990408021283
 30
0.0
 11
-1049.340272700243
 21
-1072.009591978717
 31
0.0
  0
LWPOLYLINE
  5
570
330
1F
100
AcDbEntity
  8
寸法
  6
Continuous
 62
     7
370
     9
100
AcDbPolyline
 90
        4
 70
     1
 43
3.0
 10
-1047.840272700243
 20
1110.990408021283
 42
0.4142135623731
 10
-1049.340272700243
 20
1112.490408021283
 42
0.4142135623731
 10
-1050.840272700243
 20
1110.990408021283
 42
0.4142135623731
 10
-1049.340272700243
 20
1109.490408021283
 42
0.4142135623731
  0
MTEXT
  5
571
330
1F
100
AcDbEntity
  8
寸法
  6
Continuous
 62
     7
370
    70
100
AcDbMText
 10
-1264.340272700244
 20
-192.6845919787174
 30
0.0
 40
57.14999999999999
 41
412.5
 46
0.0
 71
     7
 72
     1
  1
{\fＭＳ ゴシック|b0|i0|c128|p49;枠外＝2,247}
 11
6.123031769111886E-17
 21
1.0
 31
0.0
 73
     1
 44
1.0
  0
MTEXT
  5
572
330
1F
100
AcDbEntity
  8
寸法
  6
Continuous
 62
     7
370
    70
100
AcDbMText
 10
-1064.340272700243
 20
-198.6845919787179
 30
0.0
 40
57.14999999999999
 41
412.5
 46
0.0
 71
     7
 72
     1
  1
{\fＭＳ ゴシック|b0|i0|c128|p49;ＤＨ＝2,183}
 11
6.123031769111886E-17
 21
1.0
 31
0.0
 73
     1
 44
1.0
  0
MTEXT
  5
573
330
1F
100
AcDbEntity
  8
寸法
  6
Continuous
 62
     7
370
   211
100
AcDbMText
 10
-536.0902727002426
 20
-1335.934591978718
 30
0.0
 40
57.14999999999998
 41
337.4999999999999
 46
0.0
 71
     7
 72
     1
  1
{\fＭＳ ゴシック|b0|i0|c128|p49;ＤＷ＝810}
 73
     1
 44
1.0
  0
MTEXT
  5
574
330
1F
100
AcDbEntity
  8
寸法
  6
Continuous
 62
     7
370
   211
100
AcDbMText
 10
-197.0902727002439
 20
-1535.934591978718
 30
0.0
 40
57.14999999999999
 41
412.5
 46
0.0
 71
     7
 72
     1
  1
{\fＭＳ ゴシック|b0|i0|c128|p49;枠内＝1,557}
 73
     1
 44
1.0
  0
MTEXT
  5
575
330
1F
100
AcDbEntity
  8
寸法
  6
Continuous
 62
     7
370
   211
100
AcDbMText
 10
206.4097272997573
 20
-1735.934591978718
 30
0.0
 40
57.14999999999999
 41
412.5
 46
0.0
 71
     7
 72
     1
  1
{\fＭＳ ゴシック|b0|i0|c128|p49;枠外＝2,427}
 73
     1
 44
1.0
  0
ENDSEC
  0
SECTION
  2
OBJECTS
  0
DICTIONARY
  5
C
330
0
100
AcDbDictionary
281
     1
  3
ACAD_GROUP
350
D
  3
ACAD_LAYOUT
350
1A
  3
ACAD_MATERIAL
350
3B
  3
ACAD_MLEADERSTYLE
350
577
  3
ACAD_MLINESTYLE
350
17
  3
ACAD_PLOTSETTINGS
350
19
  3
ACAD_PLOTSTYLENAME
350
E
  3
ACAD_TABLESTYLE
350
576
  3
ACAD_VISUALSTYLE
350
2A
  0
DICTIONARY
  5
D
102
{ACAD_REACTORS
330
C
102
}
330
C
100
AcDbDictionary
281
     1
  0
DICTIONARY
  5
1A
102
{ACAD_REACTORS
330
C
102
}
330
C
100
AcDbDictionary
281
     1
  3
Layout1
350
1E
  3
Layout2
350
26
  3
Model
350
22
  0
DICTIONARY
  5
3B
102
{ACAD_REACTORS
330
C
102
}
330
C
100
AcDbDictionary
281
     1
  3
ByBlock
350
3D
  3
ByLayer
350
3C
  3
Global
350
3E
  0
DICTIONARY
  5
577
102
{ACAD_REACTORS
330
C
102
}
330
C
100
AcDbDictionary
281
     1
  0
DICTIONARY
  5
17
102
{ACAD_REACTORS
330
C
102
}
330
C
100
AcDbDictionary
281
     1
  3
Standard
350
18
  0
DICTIONARY
  5
19
102
{ACAD_REACTORS
330
C
102
}
330
C
100
AcDbDictionary
281
     1
  0
ACDBDICTIONARYWDFLT
  5
E
102
{ACAD_REACTORS
330
C
102
}
330
C
100
AcDbDictionary
281
     1
  3
Normal
350
F
100
AcDbDictionaryWithDefault
340
F
  0
DICTIONARY
  5
576
102
{ACAD_REACTORS
330
C
102
}
330
C
100
AcDbDictionary
281
     1
  0
DICTIONARY
  5
2A
102
{ACAD_REACTORS
330
C
102
}
330
C
100
AcDbDictionary
281
     1
  3
2dWireframe
350
2F
  3
3D Hidden
350
31
  3
3dWireframe
350
30
  3
Basic
350
32
  3
Brighten
350
36
  3
ColorChange
350
3A
  3
Conceptual
350
34
  3
Dim
350
35
  3
Facepattern
350
39
  3
Flat
350
2B
  3
FlatWithEdges
350
2C
  3
Gouraud
350
2D
  3
GouraudWithEdges
350
2E
  3
Linepattern
350
38
  3
Realistic
350
33
  3
Thicken
350
37
  0
LAYOUT
  5
1E
102
{ACAD_REACTORS
330
1A
102
}
330
1A
100
AcDbPlotSettings
  1

  2
none_device
  4

  6

 40
0.0
 41
0.0
 42
0.0
 43
0.0
 44
0.0
 45
0.0
 46
0.0
 47
0.0
 48
0.0
 49
0.0
140
0.0
141
0.0
142
1.0
143
1.0
 70
   688
 72
     0
 73
     0
 74
     5
  7

 75
    16
 76
     0
 77
     5
 78
   300
147
1.0
148
0.0
149
0.0
100
AcDbLayout
  1
Layout1
 70
     1
 71
     1
 10
0.0
 20
0.0
 11
420.0
 21
297.0
 12
0.0
 22
0.0
 32
0.0
 14
1.000000000000000E+20
 24
1.000000000000000E+20
 34
1.000000000000000E+20
 15
-1.000000000000000E+20
 25
-1.000000000000000E+20
 35
-1.000000000000000E+20
146
0.0
 13
0.0
 23
0.0
 33
0.0
 16
1.0
 26
0.0
 36
0.0
 17
0.0
 27
1.0
 37
0.0
 76
     0
330
1B
  0
LAYOUT
  5
26
102
{ACAD_REACTORS
330
1A
102
}
330
1A
100
AcDbPlotSettings
  1

  2
none_device
  4

  6

 40
0.0
 41
0.0
 42
0.0
 43
0.0
 44
0.0
 45
0.0
 46
0.0
 47
0.0
 48
0.0
 49
0.0
140
0.0
141
0.0
142
1.0
143
1.0
 70
   688
 72
     0
 73
     0
 74
     5
  7

 75
    16
 76
     0
 77
     5
 78
   300
147
1.0
148
0.0
149
0.0
100
AcDbLayout
  1
Layout2
 70
     1
 71
     2
 10
0.0
 20
0.0
 11
0.0
 21
0.0
 12
0.0
 22
0.0
 32
0.0
 14
0.0
 24
0.0
 34
0.0
 15
0.0
 25
0.0
 35
0.0
146
0.0
 13
0.0
 23
0.0
 33
0.0
 16
1.0
 26
0.0
 36
0.0
 17
0.0
 27
1.0
 37
0.0
 76
     0
330
23
  0
LAYOUT
  5
22
102
{ACAD_REACTORS
330
1A
102
}
330
1A
100
AcDbPlotSettings
  1

  2
none_device
  4

  6

 40
0.0
 41
0.0
 42
0.0
 43
0.0
 44
0.0
 45
0.0
 46
0.0
 47
0.0
 48
0.0
 49
0.0
140
0.0
141
0.0
142
1.0
143
1.0
 70
  1712
 72
     0
 73
     0
 74
     0
  7

 75
     0
 76
     0
 77
     5
 78
   300
147
1.0
148
0.0
149
0.0
100
AcDbLayout
  1
Model
 70
     1
 71
     0
 10
-4455.0
 20
-3150.0
 11
4455.0
 21
3150.0
 12
0.0
 22
0.0
 32
0.0
 14
-4455.0
 24
-3150.0
 34
0.0
 15
4455.0
 25
3150.0
 35
0.0
146
0.0
 13
0.0
 23
0.0
 33
0.0
 16
1.0
 26
0.0
 36
0.0
 17
0.0
 27
1.0
 37
0.0
 76
     0
330
1F
331
29
  0
MATERIAL
  5
3D
102
{ACAD_REACTORS
330
3B
102
}
330
3B
100
AcDbMaterial
  1
ByBlock
 72
     1
 94
      127
  0
MATERIAL
  5
3C
102
{ACAD_REACTORS
330
3B
102
}
330
3B
100
AcDbMaterial
  1
ByLayer
 72
     1
 94
      127
  0
MATERIAL
  5
3E
102
{ACAD_REACTORS
330
3B
102
}
330
3B
100
AcDbMaterial
  1
Global
 72
     1
 94
      127
  0
MLINESTYLE
  5
18
102
{ACAD_REACTORS
330
17
102
}
330
17
100
AcDbMlineStyle
  2
Standard
 70
     0
  3

 62
   256
 51
90.0
 52
90.0
 71
     2
 49
0.5
 62
   256
  6
BYLAYER
 49
-0.5
 62
   256
  6
BYLAYER
  0
ACDBPLACEHOLDER
  5
F
102
{ACAD_REACTORS
330
E
102
}
330
E
  0
VISUALSTYLE
  5
2F
102
{ACAD_REACTORS
330
2A
102
}
330
2A
100
AcDbVisualStyle
  2
2dWireframe
 70
     4
177
     2
291
     0
 71
     0
176
     1
 72
     2
176
     1
 73
     0
176
     1
 90
        0
176
     1
 40
-0.6
176
     1
 41
-30.0
176
     1
 62
     5
 63
     7
421
 16777215
176
     1
 74
     1
176
     1
 91
        4
176
     1
 64
     7
176
     1
 65
   257
176
     1
 75
     1
176
     1
175
     1
176
     1
 42
1.0
176
     1
 92
        0
176
     1
 66
   257
176
     1
 43
1.0
176
     1
 76
     1
176
     1
 77
     6
176
     1
 78
     2
176
     1
 67
     7
176
     1
 79
     5
176
     1
170
     0
176
     1
171
     0
176
     1
290
     0
176
     1
 93
        1
176
     1
 44
0.0
176
     1
173
     0
176
     1
  0
VISUALSTYLE
  5
31
102
{ACAD_REACTORS
330
2A
102
}
330
2A
100
AcDbVisualStyle
  2
3D Hidden
 70
     6
177
     2
291
     0
 71
     1
176
     1
 72
     2
176
     1
 73
     2
176
     1
 90
        0
176
     1
 40
-0.6
176
     1
 41
-30.0
176
     1
 62
     5
 63
     7
421
 16777215
176
     1
 74
     2
176
     1
 91
        2
176
     1
 64
     7
176
     1
 65
   257
176
     1
 75
     2
176
     1
175
     1
176
     1
 42
40.0
176
     1
 92
        0
176
     1
 66
   257
176
     1
 43
1.0
176
     1
 76
     1
176
     1
 77
     6
176
     1
 78
     2
176
     1
 67
     7
176
     1
 79
     3
176
     1
170
     0
176
     1
171
     0
176
     1
290
     0
176
     1
 93
        1
176
     1
 44
0.0
176
     1
173
     0
176
     1
  0
VISUALSTYLE
  5
30
102
{ACAD_REACTORS
330
2A
102
}
330
2A
100
AcDbVisualStyle
  2
3dWireframe
 70
     5
177
     2
291
     0
 71
     0
176
     1
 72
     2
176
     1
 73
     0
176
     1
 90
        0
176
     1
 40
-0.6
176
     1
 41
-30.0
176
     1
 62
     5
 63
     7
421
 16777215
176
     1
 74
     1
176
     1
 91
        4
176
     1
 64
     7
176
     1
 65
   257
176
     1
 75
     1
176
     1
175
     1
176
     1
 42
1.0
176
     1
 92
        0
176
     1
 66
   257
176
     1
 43
1.0
176
     1
 76
     1
176
     1
 77
     6
176
     1
 78
     2
176
     1
 67
     7
176
     1
 79
     5
176
     1
170
     0
176
     1
171
     0
176
     1
290
     0
176
     1
 93
        1
176
     1
 44
0.0
176
     1
173
     0
176
     1
  0
VISUALSTYLE
  5
32
102
{ACAD_REACTORS
330
2A
102
}
330
2A
100
AcDbVisualStyle
  2
Basic
 70
     7
177
     2
291
     1
 71
     1
176
     1
 72
     0
176
     1
 73
     1
176
     1
 90
        0
176
     1
 40
-0.6
176
     1
 41
-30.0
176
     1
 62
     5
 63
     7
421
 16777215
176
     1
 74
     0
176
     1
 91
        4
176
     1
 64
     7
176
     1
 65
   257
176
     1
 75
     1
176
     1
175
     1
176
     1
 42
1.0
176
     1
 92
        8
176
     1
 66
     7
176
     1
 43
1.0
176
     1
 76
     1
176
     1
 77
     6
176
     1
 78
     2
176
     1
 67
     7
176
     1
 79
     5
176
     1
170
     0
176
     1
171
     0
176
     1
290
     0
176
     1
 93
        1
176
     1
 44
0.0
176
     1
173
     0
176
     1
  0
VISUALSTYLE
  5
36
102
{ACAD_REACTORS
330
2A
102
}
330
2A
100
AcDbVisualStyle
  2
Brighten
 70
    12
177
     2
291
     1
 71
     2
176
     1
 72
     2
176
     1
 73
     0
176
     1
 90
        0
176
     1
 40
-0.6
176
     1
 41
-30.0
176
     1
 62
     5
 63
     7
421
 16777215
176
     1
 74
     1
176
     1
 91
        4
176
     1
 64
     7
176
     1
 65
   257
176
     1
 75
     1
176
     1
175
     1
176
     1
 42
1.0
176
     1
 92
        8
176
     1
 66
     7
176
     1
 43
1.0
176
     1
 76
     1
176
     1
 77
     6
176
     1
 78
     2
176
     1
 67
     7
176
     1
 79
     5
176
     1
170
     0
176
     1
171
     0
176
     1
290
     0
176
     1
 93
        1
176
     1
 44
50.0
176
     1
173
     0
176
     1
  0
VISUALSTYLE
  5
3A
102
{ACAD_REACTORS
330
2A
102
}
330
2A
100
AcDbVisualStyle
  2
ColorChange
 70
    16
177
     2
291
     1
 71
     2
176
     1
 72
     2
176
     1
 73
     3
176
     1
 90
        0
176
     1
 40
-0.6
176
     1
 41
-30.0
176
     1
 62
     5
 63
     8
421
  8421504
176
     1
 74
     1
176
     1
 91
        4
176
     1
 64
     7
176
     1
 65
   257
176
     1
 75
     1
176
     1
175
     1
176
     1
 42
1.0
176
     1
 92
        8
176
     1
 66
     8
424
  8421504
176
     1
 43
1.0
176
     1
 76
     1
176
     1
 77
     6
176
     1
 78
     2
176
     1
 67
     7
176
     1
 79
     5
176
     1
170
     0
176
     1
171
     0
176
     1
290
     0
176
     1
 93
        1
176
     1
 44
0.0
176
     1
173
     0
176
     1
  0
VISUALSTYLE
  5
34
102
{ACAD_REACTORS
330
2A
102
}
330
2A
100
AcDbVisualStyle
  2
Conceptual
 70
     9
177
     2
291
     0
 71
     3
176
     1
 72
     2
176
     1
 73
     0
176
     1
 90
        0
176
     1
 40
-0.6
176
     1
 41
-30.0
176
     1
 62
     5
 63
     7
421
 16777215
176
     1
 74
     2
176
     1
 91
        2
176
     1
 64
     7
176
     1
 65
   257
176
     1
 75
     1
176
     1
175
     1
176
     1
 42
40.0
176
     1
 92
        8
176
     1
 66
     7
176
     1
 43
1.0
176
     1
 76
     1
176
     1
 77
     6
176
     1
 78
     2
176
     1
 67
     7
176
     1
 79
     3
176
     1
170
     0
176
     1
171
     0
176
     1
290
     0
176
     1
 93
        1
176
     1
 44
0.0
176
     1
173
     0
176
     1
  0
VISUALSTYLE
  5
35
102
{ACAD_REACTORS
330
2A
102
}
330
2A
100
AcDbVisualStyle
  2
Dim
 70
    11
177
     2
291
     1
 71
     2
176
     1
 72
     2
176
     1
 73
     0
176
     1
 90
        0
176
     1
 40
-0.6
176
     1
 41
-30.0
176
     1
 62
     5
 63
     7
421
 16777215
176
     1
 74
     1
176
     1
 91
        4
176
     1
 64
     7
176
     1
 65
   257
176
     1
 75
     1
176
     1
175
     1
176
     1
 42
1.0
176
     1
 92
        8
176
     1
 66
     7
176
     1
 43
1.0
176
     1
 76
     1
176
     1
 77
     6
176
     1
 78
     2
176
     1
 67
     7
176
     1
 79
     5
176
     1
170
     0
176
     1
171
     0
176
     1
290
     0
176
     1
 93
        1
176
     1
 44
-50.0
176
     1
173
     0
176
     1
  0
VISUALSTYLE
  5
39
102
{ACAD_REACTORS
330
2A
102
}
330
2A
100
AcDbVisualStyle
  2
Facepattern
 70
    15
177
     2
291
     1
 71
     2
176
     1
 72
     2
176
     1
 73
     0
176
     1
 90
        0
176
     1
 40
-0.6
176
     1
 41
-30.0
176
     1
 62
     5
 63
     7
421
 16777215
176
     1
 74
     1
176
     1
 91
        4
176
     1
 64
     7
176
     1
 65
   257
176
     1
 75
     1
176
     1
175
     1
176
     1
 42
1.0
176
     1
 92
        8
176
     1
 66
     7
176
     1
 43
1.0
176
     1
 76
     1
176
     1
 77
     6
176
     1
 78
     2
176
     1
 67
     7
176
     1
 79
     5
176
     1
170
     0
176
     1
171
     0
176
     1
290
     0
176
     1
 93
        1
176
     1
 44
0.0
176
     1
173
     0
176
     1
  0
VISUALSTYLE
  5
2B
102
{ACAD_REACTORS
330
2A
102
}
330
2A
100
AcDbVisualStyle
  2
Flat
 70
     0
177
     2
291
     1
 71
     2
176
     1
 72
     1
176
     1
 73
     1
176
     1
 90
        2
176
     1
 40
-0.6
176
     1
 41
30.0
176
     1
 62
     5
 63
     7
421
 16777215
176
     1
 74
     0
176
     1
 91
        4
176
     1
 64
     7
176
     1
 65
   257
176
     1
 75
     1
176
     1
175
     1
176
     1
 42
1.0
176
     1
 92
        8
176
     1
 66
     7
176
     1
 43
1.0
176
     1
 76
     1
176
     1
 77
     6
176
     1
 78
     2
176
     1
 67
     7
176
     1
 79
     5
176
     1
170
     0
176
     1
171
     0
176
     1
290
     0
176
     1
 93
       13
176
     1
 44
0.0
176
     1
173
     0
176
     1
  0
VISUALSTYLE
  5
2C
102
{ACAD_REACTORS
330
2A
102
}
330
2A
100
AcDbVisualStyle
  2
FlatWithEdges
 70
     1
177
     2
291
     1
 71
     2
176
     1
 72
     1
176
     1
 73
     1
176
     1
 90
        2
176
     1
 40
-0.6
176
     1
 41
30.0
176
     1
 62
     5
 63
     7
421
 16777215
176
     1
 74
     1
176
     1
 91
        4
176
     1
 64
     7
176
     1
 65
   257
176
     1
 75
     1
176
     1
175
     1
176
     1
 42
1.0
176
     1
 92
        0
176
     1
 66
   257
176
     1
 43
1.0
176
     1
 76
     1
176
     1
 77
     6
176
     1
 78
     2
176
     1
 67
     7
176
     1
 79
     5
176
     1
170
     0
176
     1
171
     0
176
     1
290
     0
176
     1
 93
       13
176
     1
 44
0.0
176
     1
173
     0
176
     1
  0
VISUALSTYLE
  5
2D
102
{ACAD_REACTORS
330
2A
102
}
330
2A
100
AcDbVisualStyle
  2
Gouraud
 70
     2
177
     2
291
     1
 71
     2
176
     1
 72
     2
176
     1
 73
     1
176
     1
 90
        2
176
     1
 40
-0.6
176
     1
 41
30.0
176
     1
 62
     5
 63
     7
421
 16777215
176
     1
 74
     0
176
     1
 91
        4
176
     1
 64
     7
176
     1
 65
   257
176
     1
 75
     1
176
     1
175
     1
176
     1
 42
1.0
176
     1
 92
        0
176
     1
 66
     7
176
     1
 43
1.0
176
     1
 76
     1
176
     1
 77
     6
176
     1
 78
     2
176
     1
 67
     7
176
     1
 79
     5
176
     1
170
     0
176
     1
171
     0
176
     1
290
     0
176
     1
 93
       13
176
     1
 44
0.0
176
     1
173
     0
176
     1
  0
VISUALSTYLE
  5
2E
102
{ACAD_REACTORS
330
2A
102
}
330
2A
100
AcDbVisualStyle
  2
GouraudWithEdges
 70
     3
177
     2
291
     1
 71
     2
176
     1
 72
     2
176
     1
 73
     1
176
     1
 90
        2
176
     1
 40
-0.6
176
     1
 41
30.0
176
     1
 62
     5
 63
     7
421
 16777215
176
     1
 74
     1
176
     1
 91
        4
176
     1
 64
     7
176
     1
 65
   257
176
     1
 75
     1
176
     1
175
     1
176
     1
 42
1.0
176
     1
 92
        0
176
     1
 66
   257
176
     1
 43
1.0
176
     1
 76
     1
176
     1
 77
     6
176
     1
 78
     2
176
     1
 67
     7
176
     1
 79
     5
176
     1
170
     0
176
     1
171
     0
176
     1
290
     0
176
     1
 93
       13
176
     1
 44
0.0
176
     1
173
     0
176
     1
  0
VISUALSTYLE
  5
38
102
{ACAD_REACTORS
330
2A
102
}
330
2A
100
AcDbVisualStyle
  2
Linepattern
 70
    14
177
     2
291
     1
 71
     2
176
     1
 72
     2
176
     1
 73
     0
176
     1
 90
        0
176
     1
 40
-0.6
176
     1
 41
-30.0
176
     1
 62
     5
 63
     7
421
 16777215
176
     1
 74
     1
176
     1
 91
        4
176
     1
 64
     7
176
     1
 65
   257
176
     1
 75
     7
176
     1
175
     7
176
     1
 42
1.0
176
     1
 92
        8
176
     1
 66
     7
176
     1
 43
1.0
176
     1
 76
     1
176
     1
 77
     6
176
     1
 78
     2
176
     1
 67
     7
176
     1
 79
     5
176
     1
170
     0
176
     1
171
     0
176
     1
290
     0
176
     1
 93
        1
176
     1
 44
0.0
176
     1
173
     0
176
     1
  0
VISUALSTYLE
  5
33
102
{ACAD_REACTORS
330
2A
102
}
330
2A
100
AcDbVisualStyle
  2
Realistic
 70
     8
177
     2
291
     0
 71
     2
176
     1
 72
     2
176
     1
 73
     0
176
     1
 90
        0
176
     1
 40
-0.6
176
     1
 41
-30.0
176
     1
 62
     5
 63
     7
421
 16777215
176
     1
 74
     1
176
     1
 91
        0
176
     1
 64
     7
176
     1
 65
   257
176
     1
 75
     1
176
     1
175
     1
176
     1
 42
1.0
176
     1
 92
        8
176
     1
 66
     8
424
  7895160
176
     1
 43
1.0
176
     1
 76
     1
176
     1
 77
     6
176
     1
 78
     2
176
     1
 67
     7
176
     1
 79
     5
176
     1
170
     0
176
     1
171
     0
176
     1
290
     0
176
     1
 93
       13
176
     1
 44
0.0
176
     1
173
     0
176
     1
  0
VISUALSTYLE
  5
37
102
{ACAD_REACTORS
330
2A
102
}
330
2A
100
AcDbVisualStyle
  2
Thicken
 70
    13
177
     2
291
     1
 71
     2
176
     1
 72
     2
176
     1
 73
     0
176
     1
 90
        0
176
     1
 40
-0.6
176
     1
 41
-30.0
176
     1
 62
     5
 63
     7
421
 16777215
176
     1
 74
     1
176
     1
 91
        4
176
     1
 64
     7
176
     1
 65
   257
176
     1
 75
     1
176
     1
175
     1
176
     1
 42
1.0
176
     1
 92
       12
176
     1
 66
     7
176
     1
 43
1.0
176
     1
 76
     1
176
     1
 77
     6
176
     1
 78
     2
176
     1
 67
     7
176
     1
 79
     5
176
     1
170
     0
176
     1
171
     0
176
     1
290
     0
176
     1
 93
        1
176
     1
 44
0.0
176
     1
173
     0
176
     1
  0
ENDSEC
  0
EOF
