  0
SECTION
  2
HEADER
  9
$ACADVER
  1
AC1024
  9
$ACADMAINTVER
 70
     6
  9
$DWGCODEPAGE
  3
ANSI_932
  9
$INSBASE
 10
0.0
 20
0.0
 30
0.0
  9
$EXTMIN
 10
-4455.0
 20
-3150.0
 30
0.0
  9
$EXTMAX
 10
4455.0
 20
3150.0
 30
0.0
  9
$LIMMIN
 10
-4455.0
 20
-3150.0
  9
$LIMMAX
 10
4455.0
 20
3150.0
  9
$ORTHOMODE
 70
     0
  9
$REGENMODE
 70
     1
  9
$FILLMODE
 70
     1
  9
$QTEXTMODE
 70
     0
  9
$MIRRTEXT
 70
     1
  9
$LTSCALE
 40
30.0
  9
$ATTMODE
 70
     1
  9
$TEXTSIZE
 40
2.5
  9
$TRACEWID
 40
1.0
  9
$TEXTSTYLE
  7
Standard
  9
$CLAYER
  8
0
  9
$CELTYPE
  6
ByLayer
  9
$CECOLOR
 62
   256
  9
$CELTSCALE
 40
1.0
  9
$DISPSILH
 70
     0
  9
$DIMSCALE
 40
1.0
  9
$DIMASZ
 40
2.5
  9
$DIMEXO
 40
0.625
  9
$DIMDLI
 40
3.75
  9
$DIMRND
 40
0.0
  9
$DIMDLE
 40
0.0
  9
$DIMEXE
 40
1.25
  9
$DIMTP
 40
0.0
  9
$DIMTM
 40
0.0
  9
$DIMTXT
 40
2.5
  9
$DIMCEN
 40
2.5
  9
$DIMTSZ
 40
0.0
  9
$DIMTOL
 70
     0
  9
$DIMLIM
 70
     0
  9
$DIMTIH
 70
     0
  9
$DIMTOH
 70
     0
  9
$DIMSE1
 70
     0
  9
$DIMSE2
 70
     0
  9
$DIMTAD
 70
     1
  9
$DIMZIN
 70
     8
  9
$DIMBLK
  1

  9
$DIMASO
 70
     1
  9
$DIMSHO
 70
     1
  9
$DIMPOST
  1

  9
$DIMAPOST
  1

  9
$DIMALT
 70
     0
  9
$DIMALTD
 70
     3
  9
$DIMALTF
 40
0.03937007874016
  9
$DIMLFAC
 40
1.0
  9
$DIMTOFL
 70
     1
  9
$DIMTVP
 40
0.0
  9
$DIMTIX
 70
     0
  9
$DIMSOXD
 70
     0
  9
$DIMSAH
 70
     0
  9
$DIMBLK1
  1

  9
$DIMBLK2
  1

  9
$DIMSTYLE
  2
ISO-25
  9
$DIMCLRD
 70
     0
  9
$DIMCLRE
 70
     0
  9
$DIMCLRT
 70
     0
  9
$DIMTFAC
 40
1.0
  9
$DIMGAP
 40
0.625
  9
$DIMJUST
 70
     0
  9
$DIMSD1
 70
     0
  9
$DIMSD2
 70
     0
  9
$DIMTOLJ
 70
     0
  9
$DIMTZIN
 70
     8
  9
$DIMALTZ
 70
     0
  9
$DIMALTTZ
 70
     0
  9
$DIMUPT
 70
     0
  9
$DIMDEC
 70
     2
  9
$DIMTDEC
 70
     2
  9
$DIMALTU
 70
     2
  9
$DIMALTTD
 70
     3
  9
$DIMTXSTY
  7
Standard
  9
$DIMAUNIT
 70
     0
  9
$DIMADEC
 70
     0
  9
$DIMALTRND
 40
0.0
  9
$DIMAZIN
 70
     0
  9
$DIMDSEP
 70
    44
  9
$DIMATFIT
 70
     3
  9
$DIMFRAC
 70
     0
  9
$DIMLDRBLK
  1

  9
$DIMLUNIT
 70
     2
  9
$DIMLWD
 70
    -2
  9
$DIMLWE
 70
    -2
  9
$DIMTMOVE
 70
     0
  9
$DIMFXL
 40
1.0
  9
$DIMFXLON
 70
     0
  9
$DIMJOGANG
 40
0.7853981633974483
  9
$DIMTFILL
 70
     0
  9
$DIMTFILLCLR
 70
     0
  9
$DIMARCSYM
 70
     0
  9
$DIMLTYPE
  6

  9
$DIMLTEX1
  6

  9
$DIMLTEX2
  6

  9
$DIMTXTDIRECTION
 70
     0
  9
$LUNITS
 70
     2
  9
$LUPREC
 70
     4
  9
$SKETCHINC
 40
1.0
  9
$FILLETRAD
 40
10.0
  9
$AUNITS
 70
     0
  9
$AUPREC
 70
     0
  9
$MENU
  1
.
  9
$ELEVATION
 40
0.0
  9
$PELEVATION
 40
0.0
  9
$THICKNESS
 40
0.0
  9
$LIMCHECK
 70
     0
  9
$CHAMFERA
 40
10.0
  9
$CHAMFERB
 40
10.0
  9
$CHAMFERC
 40
20.0
  9
$CHAMFERD
 40
0.0
  9
$SKPOLY
 70
     0
  9
$TDCREATE
 40
2457953.400815498
  9
$TDUCREATE
 40
2457953.025815498
  9
$TDUPDATE
 40
2457953.400815509
  9
$TDUUPDATE
 40
2457953.025815509
  9
$TDINDWG
 40
0.0000000116
  9
$TDUSRTIMER
 40
0.0000000116
  9
$USRTIMER
 70
     1
  9
$ANGBASE
 50
0.0
  9
$ANGDIR
 70
     0
  9
$PDMODE
 70
     0
  9
$PDSIZE
 40
0.0
  9
$PLINEWID
 40
0.0
  9
$SPLFRAME
 70
     0
  9
$SPLINETYPE
 70
     6
  9
$SPLINESEGS
 70
     8
  9
$HANDSEED
  5
254
  9
$SURFTAB1
 70
     6
  9
$SURFTAB2
 70
     6
  9
$SURFTYPE
 70
     6
  9
$SURFU
 70
     6
  9
$SURFV
 70
     6
  9
$UCSBASE
  2

  9
$UCSNAME
  2

  9
$UCSORG
 10
0.0
 20
0.0
 30
0.0
  9
$UCSXDIR
 10
1.0
 20
0.0
 30
0.0
  9
$UCSYDIR
 10
0.0
 20
1.0
 30
0.0
  9
$UCSORTHOREF
  2

  9
$UCSORTHOVIEW
 70
     0
  9
$UCSORGTOP
 10
0.0
 20
0.0
 30
0.0
  9
$UCSORGBOTTOM
 10
0.0
 20
0.0
 30
0.0
  9
$UCSORGLEFT
 10
0.0
 20
0.0
 30
0.0
  9
$UCSORGRIGHT
 10
0.0
 20
0.0
 30
0.0
  9
$UCSORGFRONT
 10
0.0
 20
0.0
 30
0.0
  9
$UCSORGBACK
 10
0.0
 20
0.0
 30
0.0
  9
$PUCSBASE
  2

  9
$PUCSNAME
  2

  9
$PUCSORG
 10
0.0
 20
0.0
 30
0.0
  9
$PUCSXDIR
 10
1.0
 20
0.0
 30
0.0
  9
$PUCSYDIR
 10
0.0
 20
1.0
 30
0.0
  9
$PUCSORTHOREF
  2

  9
$PUCSORTHOVIEW
 70
     0
  9
$PUCSORGTOP
 10
0.0
 20
0.0
 30
0.0
  9
$PUCSORGBOTTOM
 10
0.0
 20
0.0
 30
0.0
  9
$PUCSORGLEFT
 10
0.0
 20
0.0
 30
0.0
  9
$PUCSORGRIGHT
 10
0.0
 20
0.0
 30
0.0
  9
$PUCSORGFRONT
 10
0.0
 20
0.0
 30
0.0
  9
$PUCSORGBACK
 10
0.0
 20
0.0
 30
0.0
  9
$USERI1
 70
     0
  9
$USERI2
 70
     0
  9
$USERI3
 70
     0
  9
$USERI4
 70
     0
  9
$USERI5
 70
     0
  9
$USERR1
 40
0.0
  9
$USERR2
 40
0.0
  9
$USERR3
 40
0.0
  9
$USERR4
 40
0.0
  9
$USERR5
 40
0.0
  9
$WORLDVIEW
 70
     1
  9
$SHADEDGE
 70
     3
  9
$SHADEDIF
 70
    70
  9
$TILEMODE
 70
     1
  9
$MAXACTVP
 70
    64
  9
$PINSBASE
 10
0.0
 20
0.0
 30
0.0
  9
$PLIMCHECK
 70
     0
  9
$PEXTMIN
 10
1.000000000000000E+20
 20
1.000000000000000E+20
 30
1.000000000000000E+20
  9
$PEXTMAX
 10
-1.000000000000000E+20
 20
-1.000000000000000E+20
 30
-1.000000000000000E+20
  9
$PLIMMIN
 10
0.0
 20
0.0
  9
$PLIMMAX
 10
420.0
 20
297.0
  9
$UNITMODE
 70
     0
  9
$VISRETAIN
 70
     1
  9
$PLINEGEN
 70
     0
  9
$PSLTSCALE
 70
     1
  9
$TREEDEPTH
 70
  3020
  9
$CMLSTYLE
  2
Standard
  9
$CMLJUST
 70
     0
  9
$CMLSCALE
 40
20.0
  9
$PROXYGRAPHICS
 70
     1
  9
$MEASUREMENT
 70
     1
  9
$CELWEIGHT
370
    -1
  9
$ENDCAPS
280
     0
  9
$JOINSTYLE
280
     0
  9
$LWDISPLAY
290
     0
  9
$INSUNITS
 70
     4
  9
$HYPERLINKBASE
  1

  9
$STYLESHEET
  1

  9
$XEDIT
290
     1
  9
$CEPSNTYPE
380
     0
  9
$PSTYLEMODE
290
     1
  9
$FINGERPRINTGUID
  2
{49C34E7B-AFA8-4EEE-BF45-CC8F96119557}
  9
$VERSIONGUID
  2
{FAEB1C32-E019-11D5-929B-00C0DF256EC4}
  9
$EXTNAMES
290
     1
  9
$PSVPSCALE
 40
0.0
  9
$OLESTARTUP
290
     0
  9
$SORTENTS
280
   127
  9
$INDEXCTL
280
     0
  9
$HIDETEXT
280
     1
  9
$XCLIPFRAME
280
     2
  9
$HALOGAP
280
     0
  9
$OBSCOLOR
 70
   257
  9
$OBSLTYPE
280
     0
  9
$INTERSECTIONDISPLAY
280
     0
  9
$INTERSECTIONCOLOR
 70
   257
  9
$DIMASSOC
280
     2
  9
$PROJECTNAME
  1

  9
$CAMERADISPLAY
290
     0
  9
$LENSLENGTH
 40
50.0
  9
$CAMERAHEIGHT
 40
0.0
  9
$STEPSPERSEC
 40
2.0
  9
$STEPSIZE
 40
6.0
  9
$3DDWFPREC
 40
2.0
  9
$PSOLWIDTH
 40
5.0
  9
$PSOLHEIGHT
 40
80.0
  9
$LOFTANG1
 40
1.570796326794897
  9
$LOFTANG2
 40
1.570796326794897
  9
$LOFTMAG1
 40
0.0
  9
$LOFTMAG2
 40
0.0
  9
$LOFTPARAM
 70
     7
  9
$LOFTNORMALS
280
     1
  9
$LATITUDE
 40
37.795
  9
$LONGITUDE
 40
-122.394
  9
$NORTHDIRECTION
 40
0.0
  9
$TIMEZONE
 70
 -8000
  9
$LIGHTGLYPHDISPLAY
280
     1
  9
$TILEMODELIGHTSYNCH
280
     1
  9
$SOLIDHIST
280
     1
  9
$SHOWHIST
280
     1
  9
$DWFFRAME
280
     2
  9
$DGNFRAME
280
     2
  9
$REALWORLDSCALE
290
     1
  9
$INTERFERECOLOR
 62
   256
  9
$CSHADOW
280
     0
  9
$SHADOWPLANELOCATION
 40
0.0
  0
ENDSEC
  0
SECTION
  2
CLASSES
  0
CLASS
  1
ACDBDICTIONARYWDFLT
  2
AcDbDictionaryWithDefault
  3
ObjectDBX Classes
 90
        0
 91
        4
280
     0
281
     0
  0
CLASS
  1
VISUALSTYLE
  2
AcDbVisualStyle
  3
ObjectDBX Classes
 90
     4095
 91
        4
280
     0
281
     0
  0
CLASS
  1
MATERIAL
  2
AcDbMaterial
  3
ObjectDBX Classes
 90
     1153
 91
        4
280
     0
281
     0
  0
ENDSEC
  0
SECTION
  2
TABLES
  0
TABLE
  2
VPORT
  5
8
330
0
100
AcDbSymbolTable
 70
     1
  0
VPORT
  5
29
330
8
100
AcDbSymbolTableRecord
100
AcDbViewportTableRecord
  2
*Active
 70
     0
 10
0.0
 20
0.0
 11
1.0
 21
1.0
 12
0.0
 22
0.0
 13
0.0
 23
0.0
 14
10.0
 24
10.0
 15
10.0
 25
10.0
 16
0.0
 26
0.0
 36
1.0
 17
0.0
 27
0.0
 37
0.0
 40
6930.000000000001
 41
1.414285714285714
 42
50.0
 43
0.0
 44
0.0
 50
0.0
 51
0.0
 71
     0
 72
 10000
 73
     1
 74
     3
 75
     0
 76
     0
 77
     0
 78
     0
281
     0
 65
     1
110
0.0
120
0.0
130
0.0
111
1.0
121
0.0
131
0.0
112
0.0
122
1.0
132
0.0
 79
     0
146
0.0
 60
     3
 61
     5
292
     1
282
     1
141
0.0
142
0.0
 63
   250
  0
ENDTAB
  0
TABLE
  2
LTYPE
  5
5
330
0
100
AcDbSymbolTable
 70
     2
  0
LTYPE
  5
14
330
5
100
AcDbSymbolTableRecord
100
AcDbLinetypeTableRecord
  2
ByBlock
 70
     0
  3

 72
    65
 73
     0
 40
0.0
  0
LTYPE
  5
15
330
5
100
AcDbSymbolTableRecord
100
AcDbLinetypeTableRecord
  2
ByLayer
 70
     0
  3

 72
    65
 73
     0
 40
0.0
  0
LTYPE
  5
16
330
5
100
AcDbSymbolTableRecord
100
AcDbLinetypeTableRecord
  2
Continuous
 70
     0
  3
Solid line
 72
    65
 73
     0
 40
0.0
  0
LTYPE
  5
3F
330
5
100
AcDbSymbolTableRecord
100
AcDbLinetypeTableRecord
  2
JWW_DASHED1
 70
     0
  3
-  --  --  --  --  --  --  --  -
 72
    65
 73
     2
 40
1.693333333333333
 49
0.8466666666666667
 74
     0
 49
-0.8466666666666667
 74
     0
  0
ENDTAB
  0
TABLE
  2
LAYER
  5
2
330
0
100
AcDbSymbolTable
 70
     4
  0
LAYER
  5
10
330
2
100
AcDbSymbolTableRecord
100
AcDbLayerTableRecord
  2
0
 70
     0
 62
     7
  6
Continuous
370
    -3
390
F
347
3E
  0
LAYER
  5
40
330
2
100
AcDbSymbolTableRecord
100
AcDbLayerTableRecord
  2
0-0
 70
     0
 62
     7
  6
Continuous
370
    -3
390
F
347
3E
  0
LAYER
  5
41
330
2
100
AcDbSymbolTableRecord
100
AcDbLayerTableRecord
  2
文字
 70
     0
 62
     7
  6
Continuous
370
    -3
390
F
347
3E
  0
LAYER
  5
42
330
2
100
AcDbSymbolTableRecord
100
AcDbLayerTableRecord
  2
寸法
 70
     0
 62
     7
  6
Continuous
370
    -3
390
F
347
3E
  0
ENDTAB
  0
TABLE
  2
STYLE
  5
3
330
0
100
AcDbSymbolTable
 70
     1
  0
STYLE
  5
11
330
3
100
AcDbSymbolTableRecord
100
AcDbTextStyleTableRecord
  2
Standard
 70
     0
 40
0.0
 41
1.0
 50
0.0
 71
     0
 42
2.5
  3
txt
  4

  0
ENDTAB
  0
TABLE
  2
VIEW
  5
6
330
0
100
AcDbSymbolTable
 70
     0
  0
ENDTAB
  0
TABLE
  2
UCS
  5
7
330
0
100
AcDbSymbolTable
 70
     0
  0
ENDTAB
  0
TABLE
  2
APPID
  5
9
330
0
100
AcDbSymbolTable
 70
     1
  0
APPID
  5
12
330
9
100
AcDbSymbolTableRecord
100
AcDbRegAppTableRecord
  2
ACAD
 70
     0
  0
ENDTAB
  0
TABLE
  2
DIMSTYLE
  5
A
330
0
100
AcDbSymbolTable
 70
     1
100
AcDbDimStyleTable
  0
DIMSTYLE
105
27
330
A
100
AcDbSymbolTableRecord
100
AcDbDimStyleTableRecord
  2
ISO-25
 70
     0
 41
2.5
 42
0.625
 43
3.75
 44
1.25
 73
     0
 74
     0
 77
     1
 78
     8
140
2.5
141
2.5
143
0.03937007874016
147
0.625
171
     3
172
     1
178
     0
271
     2
272
     2
274
     3
278
    44
283
     0
284
     8
340
11
  0
ENDTAB
  0
TABLE
  2
BLOCK_RECORD
  5
1
330
0
100
AcDbSymbolTable
 70
     1
  0
BLOCK_RECORD
  5
1F
330
1
100
AcDbSymbolTableRecord
100
AcDbBlockTableRecord
  2
*Model_Space
340
22
 70
     0
280
     1
281
     0
  0
BLOCK_RECORD
  5
1B
330
1
100
AcDbSymbolTableRecord
100
AcDbBlockTableRecord
  2
*Paper_Space
340
1E
 70
     0
280
     1
281
     0
  0
BLOCK_RECORD
  5
23
330
1
100
AcDbSymbolTableRecord
100
AcDbBlockTableRecord
  2
*Paper_Space0
340
26
 70
     0
280
     1
281
     0
  0
ENDTAB
  0
ENDSEC
  0
SECTION
  2
BLOCKS
  0
BLOCK
  5
20
330
1F
100
AcDbEntity
  8
0
100
AcDbBlockBegin
  2
*Model_Space
 70
     0
 10
0.0
 20
0.0
 30
0.0
  3
*Model_Space
  1

  0
ENDBLK
  5
21
330
1F
100
AcDbEntity
  8
0
100
AcDbBlockEnd
  0
BLOCK
  5
1C
330
1B
100
AcDbEntity
 67
     1
  8
0
100
AcDbBlockBegin
  2
*Paper_Space
 70
     0
 10
0.0
 20
0.0
 30
0.0
  3
*Paper_Space
  1

  0
ENDBLK
  5
1D
330
1B
100
AcDbEntity
 67
     1
  8
0
100
AcDbBlockEnd
  0
BLOCK
  5
24
330
23
100
AcDbEntity
  8
0
100
AcDbBlockBegin
  2
*Paper_Space0
 70
     0
 10
0.0
 20
0.0
 30
0.0
  3
*Paper_Space0
  1

  0
ENDBLK
  5
25
330
23
100
AcDbEntity
  8
0
100
AcDbBlockEnd
  0
ENDSEC
  0
SECTION
  2
ENTITIES
  0
LINE
  5
43
330
1F
100
AcDbEntity
  8
0-0
  6
Continuous
 62
    92
370
    13
100
AcDbLine
 10
1639.000678284633
 20
-1450.086407938295
 30
0.0
 11
-784.9993217153661
 21
-1450.086407938295
 31
0.0
  0
LINE
  5
44
330
1F
100
AcDbEntity
  8
0-0
  6
Continuous
 62
    92
370
    13
100
AcDbLine
 10
1609.000678284633
 20
-1435.086407938295
 30
0.0
 11
-754.9993217153661
 21
-1435.086407938295
 31
0.0
  0
ARC
  5
45
330
1F
100
AcDbEntity
  8
0-0
  6
Continuous
 62
    92
370
    13
100
AcDbCircle
 10
-726.4993217153682
 20
-413.086407938294
 30
0.0
 40
1.5
100
AcDbArc
 50
90.0
 51
180.0
  0
LINE
  5
46
330
1F
100
AcDbEntity
  8
0-0
  6
Continuous
 62
    92
370
    13
100
AcDbLine
 10
-687.4993217153678
 20
-411.5864079382945
 30
0.0
 11
-726.4993217153682
 21
-411.5864079382945
 31
0.0
  0
ARC
  5
47
330
1F
100
AcDbEntity
  8
0-0
  6
Continuous
 62
    92
370
    13
100
AcDbCircle
 10
-687.4993217153678
 20
-413.086407938294
 30
0.0
 40
1.5
100
AcDbArc
 50
0.0
 51
90.00000000000001
  0
LINE
  5
48
330
1F
100
AcDbEntity
  8
0-0
  6
Continuous
 62
    92
370
    13
100
AcDbLine
 10
-685.9993217153709
 20
-532.0864079382941
 30
0.0
 11
-685.9993217153709
 21
-413.086407938294
 31
0.0
  0
ARC
  5
49
330
1F
100
AcDbEntity
  8
0-0
  6
Continuous
 62
    92
370
    13
100
AcDbCircle
 10
-687.4993217153678
 20
-532.0864079382941
 30
0.0
 40
1.5
100
AcDbArc
 50
270.0
 51
0.0
  0
LINE
  5
4A
330
1F
100
AcDbEntity
  8
0-0
  6
Continuous
 62
    92
370
    13
100
AcDbLine
 10
-726.4993217153682
 20
-533.586407938294
 30
0.0
 11
-687.4993217153678
 21
-533.586407938294
 31
0.0
  0
LINE
  5
4B
330
1F
100
AcDbEntity
  8
0-0
  6
Continuous
 62
    92
370
    13
100
AcDbLine
 10
-727.9993217153668
 20
-532.0864079382941
 30
0.0
 11
-727.9993217153668
 21
-413.086407938294
 31
0.0
  0
ARC
  5
4C
330
1F
100
AcDbEntity
  8
0-0
  6
Continuous
 62
    92
370
    13
100
AcDbCircle
 10
-726.4993217153682
 20
-532.0864079382941
 30
0.0
 40
1.5
100
AcDbArc
 50
180.0
 51
270.0
  0
ARC
  5
4D
330
1F
100
AcDbEntity
  8
0-0
  6
Continuous
 62
     7
370
     9
100
AcDbCircle
 10
-706.9993217153689
 20
-502.1864079382943
 30
0.0
 40
15.0
100
AcDbArc
 50
180.0
 51
0.0
  0
ARC
  5
4E
330
1F
100
AcDbEntity
  8
0-0
  6
Continuous
 62
     7
370
     9
100
AcDbCircle
 10
-706.9993217153689
 20
-442.9864079382941
 30
0.0
 40
15.0
100
AcDbArc
 50
0.0
 51
180.0
  0
LINE
  5
4F
330
1F
100
AcDbEntity
  8
0-0
  6
Continuous
 62
     7
370
     9
100
AcDbLine
 10
-691.9993217153689
 20
-502.1864079382943
 30
0.0
 11
-691.9993217153689
 21
-442.9864079382941
 31
0.0
  0
LINE
  5
50
330
1F
100
AcDbEntity
  8
0-0
  6
Continuous
 62
     7
370
     9
100
AcDbLine
 10
-721.9993217153689
 20
-442.9864079382941
 30
0.0
 11
-721.9993217153689
 21
-502.1864079382943
 31
0.0
  0
ARC
  5
51
330
1F
100
AcDbEntity
  8
0-0
  6
Continuous
 62
    92
370
    13
100
AcDbCircle
 10
53.50067828463182
 20
-413.086407938294
 30
0.0
 40
1.5
100
AcDbArc
 50
90.0
 51
180.0
  0
LINE
  5
52
330
1F
100
AcDbEntity
  8
0-0
  6
Continuous
 62
    92
370
    13
100
AcDbLine
 10
92.50067828463216
 20
-411.5864079382945
 30
0.0
 11
53.50067828463182
 21
-411.5864079382945
 31
0.0
  0
ARC
  5
53
330
1F
100
AcDbEntity
  8
0-0
  6
Continuous
 62
    92
370
    13
100
AcDbCircle
 10
92.50067828463216
 20
-413.086407938294
 30
0.0
 40
1.5
100
AcDbArc
 50
0.0
 51
90.00000000000001
  0
LINE
  5
54
330
1F
100
AcDbEntity
  8
0-0
  6
Continuous
 62
    92
370
    13
100
AcDbLine
 10
94.00067828462909
 20
-532.0864079382941
 30
0.0
 11
94.00067828462909
 21
-413.086407938294
 31
0.0
  0
ARC
  5
55
330
1F
100
AcDbEntity
  8
0-0
  6
Continuous
 62
    92
370
    13
100
AcDbCircle
 10
92.50067828463216
 20
-532.0864079382941
 30
0.0
 40
1.5
100
AcDbArc
 50
270.0
 51
0.0
  0
LINE
  5
56
330
1F
100
AcDbEntity
  8
0-0
  6
Continuous
 62
    92
370
    13
100
AcDbLine
 10
53.50067828463182
 20
-533.586407938294
 30
0.0
 11
92.50067828463216
 21
-533.586407938294
 31
0.0
  0
LINE
  5
57
330
1F
100
AcDbEntity
  8
0-0
  6
Continuous
 62
    92
370
    13
100
AcDbLine
 10
52.00067828463318
 20
-532.0864079382941
 30
0.0
 11
52.00067828463318
 21
-413.086407938294
 31
0.0
  0
ARC
  5
58
330
1F
100
AcDbEntity
  8
0-0
  6
Continuous
 62
    92
370
    13
100
AcDbCircle
 10
53.50067828463182
 20
-532.0864079382941
 30
0.0
 40
1.5
100
AcDbArc
 50
180.0
 51
270.0
  0
ARC
  5
59
330
1F
100
AcDbEntity
  8
0-0
  6
Continuous
 62
     7
370
     9
100
AcDbCircle
 10
73.00067828463114
 20
-502.1864079382943
 30
0.0
 40
15.0
100
AcDbArc
 50
180.0
 51
0.0
  0
ARC
  5
5A
330
1F
100
AcDbEntity
  8
0-0
  6
Continuous
 62
     7
370
     9
100
AcDbCircle
 10
73.00067828463114
 20
-442.9864079382941
 30
0.0
 40
15.0
100
AcDbArc
 50
0.0
 51
180.0
  0
LINE
  5
5B
330
1F
100
AcDbEntity
  8
0-0
  6
Continuous
 62
     7
370
     9
100
AcDbLine
 10
88.00067828463114
 20
-502.1864079382943
 30
0.0
 11
88.00067828463114
 21
-442.9864079382941
 31
0.0
  0
LINE
  5
5C
330
1F
100
AcDbEntity
  8
0-0
  6
Continuous
 62
     7
370
     9
100
AcDbLine
 10
58.00067828463114
 20
-442.9864079382941
 30
0.0
 11
58.00067828463114
 21
-502.1864079382943
 31
0.0
  0
LINE
  5
5D
330
1F
100
AcDbEntity
  8
0-0
  6
JWW_DASHED1
 62
   120
370
     5
100
AcDbLine
 10
-754.9993217153661
 20
-1430.086407938294
 30
0.0
 11
-757.9993217153668
 21
-1430.086407938294
 31
0.0
  0
LINE
  5
5E
330
1F
100
AcDbEntity
  8
0-0
  6
Continuous
 62
    92
370
    13
100
AcDbLine
 10
-754.9993217153661
 20
-1430.086407938294
 30
0.0
 11
832.0006782846332
 21
-1430.086407938294
 31
0.0
  0
LINE
  5
5F
330
1F
100
AcDbEntity
  8
0-0
  6
Continuous
 62
    92
370
    13
100
AcDbLine
 10
-784.9993217153661
 20
-1450.086407938295
 30
0.0
 11
-784.9993217153661
 21
796.9135920617045
 31
0.0
  0
LINE
  5
60
330
1F
100
AcDbEntity
  8
0-0
  6
Continuous
 62
    92
370
    13
100
AcDbLine
 10
1639.000678284633
 20
-1450.086407938295
 30
0.0
 11
1639.000678284633
 21
796.9135920617045
 31
0.0
  0
LINE
  5
61
330
1F
100
AcDbEntity
  8
0-0
  6
JWW_DASHED1
 62
   120
370
     5
100
AcDbLine
 10
802.0006782846332
 20
-1435.086407938295
 30
0.0
 11
802.0006782846332
 21
760.913592061705
 31
0.0
  0
LINE
  5
62
330
1F
100
AcDbEntity
  8
0-0
  6
JWW_DASHED1
 62
   120
370
     5
100
AcDbLine
 10
832.0006782846332
 20
-1435.086407938295
 30
0.0
 11
832.0006782846332
 21
760.913592061705
 31
0.0
  0
LINE
  5
63
330
1F
100
AcDbEntity
  8
0-0
  6
Continuous
 62
    92
370
    13
100
AcDbLine
 10
-754.9993217153661
 20
-1450.086407938295
 30
0.0
 11
-754.9993217153661
 21
796.9135920617045
 31
0.0
  0
LINE
  5
64
330
1F
100
AcDbEntity
  8
0-0
  6
Continuous
 62
    92
370
    13
100
AcDbLine
 10
1609.000678284633
 20
-1450.086407938295
 30
0.0
 11
1609.000678284633
 21
796.9135920617045
 31
0.0
  0
LINE
  5
65
330
1F
100
AcDbEntity
  8
0-0
  6
Continuous
 62
    92
370
    13
100
AcDbLine
 10
-754.9993217153661
 20
760.913592061705
 30
0.0
 11
1609.000678284633
 21
760.913592061705
 31
0.0
  0
LINE
  5
66
330
1F
100
AcDbEntity
  8
0-0
  6
Continuous
 62
    92
370
    13
100
AcDbLine
 10
-784.9993217153661
 20
796.9135920617045
 30
0.0
 11
1639.000678284633
 21
796.9135920617045
 31
0.0
  0
LINE
  5
67
330
1F
100
AcDbEntity
  8
0-0
  6
JWW_DASHED1
 62
   120
370
     5
100
AcDbLine
 10
-757.9993217153668
 20
-1430.086407938294
 30
0.0
 11
-757.9993217153668
 21
752.9135920617055
 31
0.0
  0
LINE
  5
68
330
1F
100
AcDbEntity
  8
0-0
  6
JWW_DASHED1
 62
   120
370
     5
100
AcDbLine
 10
-757.9993217153668
 20
752.9135920617055
 30
0.0
 11
-754.9993217153661
 21
752.9135920617055
 31
0.0
  0
LINE
  5
69
330
1F
100
AcDbEntity
  8
0-0
  6
JWW_DASHED1
 62
   120
370
     5
100
AcDbLine
 10
52.00067828463318
 20
-1430.086407938294
 30
0.0
 11
52.00067828463318
 21
752.9135920617055
 31
0.0
  0
LINE
  5
6A
330
1F
100
AcDbEntity
  8
0-0
  6
Continuous
 62
    92
370
    13
100
AcDbLine
 10
-754.9993217153661
 20
752.9135920617055
 30
0.0
 11
832.0006782846332
 21
752.9135920617055
 31
0.0
  0
LINE
  5
6B
330
1F
100
AcDbEntity
  8
0-0
  6
Continuous
 62
    92
370
    13
100
AcDbLine
 10
22.00067828463318
 20
752.9135920617055
 30
0.0
 11
22.00067828463318
 21
-1430.086407938294
 31
0.0
  0
LINE
  5
6C
330
1F
100
AcDbEntity
  8
0-0
  6
Continuous
 62
    92
370
    13
100
AcDbLine
 10
832.0006782846332
 20
-1430.086407938294
 30
0.0
 11
832.0006782846332
 21
752.9135920617055
 31
0.0
  0
LINE
  5
6D
330
1F
100
AcDbEntity
  8
0-0
  6
Continuous
 62
    92
370
    13
100
AcDbLine
 10
-647.999321715368
 20
-1280.086407938295
 30
0.0
 11
-57.99932171536568
 21
-1280.086407938295
 31
0.0
  0
LINE
  5
6E
330
1F
100
AcDbEntity
  8
0-0
  6
Continuous
 62
    92
370
    13
100
AcDbLine
 10
132.000678284632
 20
-1280.086407938295
 30
0.0
 11
722.0006782846343
 21
-1280.086407938295
 31
0.0
  0
LINE
  5
6F
330
1F
100
AcDbEntity
  8
0-0
  6
Continuous
 62
    92
370
    13
100
AcDbLine
 10
-647.999321715368
 20
617.9135920617043
 30
0.0
 11
-57.99932171536568
 21
617.9135920617043
 31
0.0
  0
LINE
  5
70
330
1F
100
AcDbEntity
  8
0-0
  6
Continuous
 62
    92
370
    13
100
AcDbLine
 10
132.000678284632
 20
617.9135920617043
 30
0.0
 11
722.0006782846343
 21
617.9135920617043
 31
0.0
  0
LINE
  5
71
330
1F
100
AcDbEntity
  8
0-0
  6
Continuous
 62
    92
370
    13
100
AcDbLine
 10
-647.999321715368
 20
-357.0864079382959
 30
0.0
 11
-57.99932171536568
 21
-357.0864079382959
 31
0.0
  0
LINE
  5
72
330
1F
100
AcDbEntity
  8
0-0
  6
JWW_DASHED1
 62
   120
370
     5
100
AcDbLine
 10
-62.45510009693987
 20
-357.0864079382796
 30
0.0
 11
-57.99932171538273
 21
-352.6306295567213
 31
0.0
  0
LINE
  5
73
330
1F
100
AcDbEntity
  8
0-0
  6
JWW_DASHED1
 62
   120
370
     5
100
AcDbLine
 10
-69.52616790881677
 20
-357.0864079382903
 30
0.0
 11
-57.9993217153725
 21
-345.5595617448448
 31
0.0
  0
LINE
  5
74
330
1F
100
AcDbEntity
  8
0-0
  6
JWW_DASHED1
 62
   120
370
     5
100
AcDbLine
 10
-76.59723572068003
 20
-357.0864079382844
 30
0.0
 11
-57.99932171537591
 21
-338.4884939329837
 31
0.0
  0
LINE
  5
75
330
1F
100
AcDbEntity
  8
0-0
  6
JWW_DASHED1
 62
   120
370
     5
100
AcDbLine
 10
-83.66830353253988
 20
-357.0864079382789
 30
0.0
 11
-57.99932171538273
 21
-331.417426121123
 31
0.0
  0
LINE
  5
76
330
1F
100
AcDbEntity
  8
0-0
  6
JWW_DASHED1
 62
   120
370
     5
100
AcDbLine
 10
-90.73937134441678
 20
-357.0864079382891
 30
0.0
 11
-57.9993217153725
 21
-324.3463583092465
 31
0.0
  0
LINE
  5
77
330
1F
100
AcDbEntity
  8
0-0
  6
JWW_DASHED1
 62
   120
370
     5
100
AcDbLine
 10
-97.81043915627663
 20
-357.0864079382831
 30
0.0
 11
-57.99932171537932
 21
-317.275290497385
 31
0.0
  0
LINE
  5
78
330
1F
100
AcDbEntity
  8
0-0
  6
JWW_DASHED1
 62
   120
370
     5
100
AcDbLine
 10
-104.8815069681535
 20
-357.086407938292
 30
0.0
 11
-57.99932171536909
 21
-310.2042226855093
 31
0.0
  0
LINE
  5
79
330
1F
100
AcDbEntity
  8
0-0
  6
JWW_DASHED1
 62
   120
370
     5
100
AcDbLine
 10
-111.9525747800134
 20
-357.0864079382874
 30
0.0
 11
-57.99932171537591
 21
-303.1331548736486
 31
0.0
  0
LINE
  5
7A
330
1F
100
AcDbEntity
  8
0-0
  6
JWW_DASHED1
 62
   120
370
     5
100
AcDbLine
 10
-119.0236425918732
 20
-357.0864079382814
 30
0.0
 11
-57.99932171537932
 21
-296.0620870617867
 31
0.0
  0
LINE
  5
7B
330
1F
100
AcDbEntity
  8
0-0
  6
JWW_DASHED1
 62
   120
370
     5
100
AcDbLine
 10
-126.0947104037501
 20
-357.0864079382899
 30
0.0
 11
-57.9993217153725
 21
-288.991019249911
 31
0.0
  0
LINE
  5
7C
330
1F
100
AcDbEntity
  8
0-0
  6
JWW_DASHED1
 62
   120
370
     5
100
AcDbLine
 10
-133.1657782156134
 20
-357.0864079382861
 30
0.0
 11
-57.99932171537591
 21
-281.9199514380503
 31
0.0
  0
LINE
  5
7D
330
1F
100
AcDbEntity
  8
0-0
  6
JWW_DASHED1
 62
   120
370
     5
100
AcDbLine
 10
-140.2368460274903
 20
-357.0864079382959
 30
0.0
 11
-57.99932171536909
 21
-274.8488836261738
 31
0.0
  0
LINE
  5
7E
330
1F
100
AcDbEntity
  8
0-0
  6
JWW_DASHED1
 62
   120
370
     5
100
AcDbLine
 10
-147.3079138393467
 20
-357.0864079382882
 30
0.0
 11
-57.9993217153725
 21
-267.7778158143132
 31
0.0
  0
LINE
  5
7F
330
1F
100
AcDbEntity
  8
0-0
  6
JWW_DASHED1
 62
   120
370
     5
100
AcDbLine
 10
-154.3789816512134
 20
-357.0864079382848
 30
0.0
 11
-57.99932171537932
 21
-260.706748002452
 31
0.0
  0
LINE
  5
80
330
1F
100
AcDbEntity
  8
0-0
  6
JWW_DASHED1
 62
   120
370
     5
100
AcDbLine
 10
-161.4500494630869
 20
-357.086407938295
 30
0.0
 11
-57.99932171536909
 21
-253.6356801905755
 31
0.0
  0
LINE
  5
81
330
1F
100
AcDbEntity
  8
0-0
  6
JWW_DASHED1
 62
   120
370
     5
100
AcDbLine
 10
-168.5211172749467
 20
-357.0864079382865
 30
0.0
 11
-57.9993217153725
 21
-246.5646123787131
 31
0.0
  0
LINE
  5
82
330
1F
100
AcDbEntity
  8
0-0
  6
JWW_DASHED1
 62
   120
370
     5
100
AcDbLine
 10
-175.5921850867657
 20
-357.086407938292
 30
0.0
 11
-57.99932171536909
 21
-239.4935445668972
 31
0.0
  0
LINE
  5
83
330
1F
100
AcDbEntity
  8
0-0
  6
JWW_DASHED1
 62
   120
370
     5
100
AcDbLine
 10
-182.6632528986289
 20
-357.0864079382895
 30
0.0
 11
-57.99932171537591
 21
-232.4224767550365
 31
0.0
  0
LINE
  5
84
330
1F
100
AcDbEntity
  8
0-0
  6
JWW_DASHED1
 62
   120
370
     5
100
AcDbLine
 10
-189.7343207104888
 20
-357.0864079382835
 30
0.0
 11
-57.99932171537932
 21
-225.3514089431732
 31
0.0
  0
LINE
  5
85
330
1F
100
AcDbEntity
  8
0-0
  6
JWW_DASHED1
 62
   120
370
     5
100
AcDbLine
 10
-196.8053885223623
 20
-357.0864079382899
 30
0.0
 11
-57.9993217153725
 21
-218.2803411312989
 31
0.0
  0
LINE
  5
86
330
1F
100
AcDbEntity
  8
0-0
  6
JWW_DASHED1
 62
   120
370
     5
100
AcDbLine
 10
-203.8764563342255
 20
-357.0864079382882
 30
0.0
 11
-57.99932171537591
 21
-211.2092733194382
 31
0.0
  0
LINE
  5
87
330
1F
100
AcDbEntity
  8
0-0
  6
JWW_DASHED1
 62
   120
370
     5
100
AcDbLine
 10
-210.9475241461058
 20
-357.086407938298
 30
0.0
 11
-57.99932171536909
 21
-204.1382055075617
 31
0.0
  0
LINE
  5
88
330
1F
100
AcDbEntity
  8
0-0
  6
JWW_DASHED1
 62
   120
370
     5
100
AcDbLine
 10
-218.0185919579588
 20
-357.0864079382882
 30
0.0
 11
-57.9993217153725
 21
-197.067137695701
 31
0.0
  0
LINE
  5
89
330
1F
100
AcDbEntity
  8
0-0
  6
JWW_DASHED1
 62
   120
370
     5
100
AcDbLine
 10
-225.0896597698255
 20
-357.0864079382865
 30
0.0
 11
-57.99932171537932
 21
-189.9960698838399
 31
0.0
  0
LINE
  5
8A
330
1F
100
AcDbEntity
  8
0-0
  6
JWW_DASHED1
 62
   120
370
     5
100
AcDbLine
 10
-232.1607275817024
 20
-357.0864079382967
 30
0.0
 11
-57.99932171536909
 21
-182.9250020719634
 31
0.0
  0
LINE
  5
8B
330
1F
100
AcDbEntity
  8
0-0
  6
JWW_DASHED1
 62
   120
370
     5
100
AcDbLine
 10
-239.2317953935589
 20
-357.0864079382865
 30
0.0
 11
-57.9993217153725
 21
-175.8539342600997
 31
0.0
  0
LINE
  5
8C
330
1F
100
AcDbEntity
  8
0-0
  6
JWW_DASHED1
 62
   120
370
     5
100
AcDbLine
 10
-246.3028632054255
 20
-357.0864079382857
 30
0.0
 11
-57.99932171538273
 21
-168.782866448242
 31
0.0
  0
LINE
  5
8D
330
1F
100
AcDbEntity
  8
0-0
  6
JWW_DASHED1
 62
   120
370
     5
100
AcDbLine
 10
-253.373931017299
 20
-357.086407938295
 30
0.0
 11
-57.99932171536909
 21
-161.7117986363651
 31
0.0
  0
LINE
  5
8E
330
1F
100
AcDbEntity
  8
0-0
  6
JWW_DASHED1
 62
   120
370
     5
100
AcDbLine
 10
-260.4449988291623
 20
-357.0864079382899
 30
0.0
 11
-57.99932171537591
 21
-154.6407308245014
 31
0.0
  0
LINE
  5
8F
330
1F
100
AcDbEntity
  8
0-0
  6
JWW_DASHED1
 62
   120
370
     5
100
AcDbLine
 10
-267.5160666410255
 20
-357.0864079382844
 30
0.0
 11
-57.99932171538273
 21
-147.5696630126437
 31
0.0
  0
LINE
  5
90
330
1F
100
AcDbEntity
  8
0-0
  6
JWW_DASHED1
 62
   120
370
     5
100
AcDbLine
 10
-274.587134452899
 20
-357.0864079382942
 30
0.0
 11
-57.9993217153725
 21
-140.4985952007672
 31
0.0
  0
LINE
  5
91
330
1F
100
AcDbEntity
  8
0-0
  6
JWW_DASHED1
 62
   120
370
     5
100
AcDbLine
 10
-281.6582022647589
 20
-357.0864079382882
 30
0.0
 11
-57.99932171537591
 21
-133.4275273889027
 31
0.0
  0
LINE
  5
92
330
1F
100
AcDbEntity
  8
0-0
  6
JWW_DASHED1
 62
   120
370
     5
100
AcDbLine
 10
-288.7292700766221
 20
-357.0864079382831
 30
0.0
 11
-57.99932171538615
 21
-126.3564595770458
 31
0.0
  0
LINE
  5
93
330
1F
100
AcDbEntity
  8
0-0
  6
JWW_DASHED1
 62
   120
370
     5
100
AcDbLine
 10
-295.800337888499
 20
-357.0864079382925
 30
0.0
 11
-57.99932171537591
 21
-119.2853917651689
 31
0.0
  0
LINE
  5
94
330
1F
100
AcDbEntity
  8
0-0
  6
JWW_DASHED1
 62
   120
370
     5
100
AcDbLine
 10
-302.8714057003589
 20
-357.0864079382874
 30
0.0
 11
-57.99932171537591
 21
-112.2143239533044
 31
0.0
  0
LINE
  5
95
330
1F
100
AcDbEntity
  8
0-0
  6
JWW_DASHED1
 62
   120
370
     5
100
AcDbLine
 10
-309.942473512229
 20
-357.0864079382908
 30
0.0
 11
-57.99932171536909
 21
-105.1432561414317
 31
0.0
  0
LINE
  5
96
330
1F
100
AcDbEntity
  8
0-0
  6
JWW_DASHED1
 62
   120
370
     5
100
AcDbLine
 10
-317.013541324099
 20
-357.0864079382916
 30
0.0
 11
-57.99932171537591
 21
-98.07218832957105
 31
0.0
  0
LINE
  5
97
330
1F
100
AcDbEntity
  8
0-0
  6
JWW_DASHED1
 62
   120
370
     5
100
AcDbLine
 10
-331.155676947829
 20
-357.0864079382886
 30
0.0
 11
-57.9993217153725
 21
-83.93005270583345
 31
0.0
  0
LINE
  5
98
330
1F
100
AcDbEntity
  8
0-0
  6
JWW_DASHED1
 62
   120
370
     5
100
AcDbLine
 10
-338.2267447596956
 20
-357.0864079382903
 30
0.0
 11
-57.99932171537932
 21
-76.85898489397275
 31
0.0
  0
LINE
  5
99
330
1F
100
AcDbEntity
  8
0-0
  6
JWW_DASHED1
 62
   120
370
     5
100
AcDbLine
 10
-345.2978125715725
 20
-357.0864079383001
 30
0.0
 11
-57.99932171536909
 21
-69.78791708209584
 31
0.0
  0
LINE
  5
9A
330
1F
100
AcDbEntity
  8
0-0
  6
JWW_DASHED1
 62
   120
370
     5
100
AcDbLine
 10
-352.3688803834256
 20
-357.0864079382869
 30
0.0
 11
-57.99932171537591
 21
-62.71684927023557
 31
0.0
  0
LINE
  5
9B
330
1F
100
AcDbEntity
  8
0-0
  6
JWW_DASHED1
 62
   120
370
     5
100
AcDbLine
 10
-359.4399481952956
 20
-357.0864079382891
 30
0.0
 11
-57.99932171538273
 21
-55.64578145837487
 31
0.0
  0
LINE
  5
9C
330
1F
100
AcDbEntity
  8
0-0
  6
JWW_DASHED1
 62
   120
370
     5
100
AcDbLine
 10
-366.5110160071725
 20
-357.0864079382993
 30
0.0
 11
-57.99932171536909
 21
-48.5747136464984
 31
0.0
  0
LINE
  5
9D
330
1F
100
AcDbEntity
  8
0-0
  6
JWW_DASHED1
 62
   120
370
     5
100
AcDbLine
 10
-373.5820838190256
 20
-357.0864079382848
 30
0.0
 11
-57.9993217153725
 21
-41.50364583463215
 31
0.0
  0
LINE
  5
9E
330
1F
100
AcDbEntity
  8
0-0
  6
JWW_DASHED1
 62
   120
370
     5
100
AcDbLine
 10
-380.6531516308922
 20
-357.0864079382878
 30
0.0
 11
-57.99932171538273
 21
-34.43257802277657
 31
0.0
  0
LINE
  5
9F
330
1F
100
AcDbEntity
  8
0-0
  6
JWW_DASHED1
 62
   120
370
     5
100
AcDbLine
 10
-387.7242194427726
 20
-357.086407938298
 30
0.0
 11
-57.9993217153725
 21
-27.36151021090009
 31
0.0
  0
LINE
  5
A0
330
1F
100
AcDbEntity
  8
0-0
  6
JWW_DASHED1
 62
   120
370
     5
100
AcDbLine
 10
-394.7952872546324
 20
-357.086407938292
 30
0.0
 11
-57.9993217153725
 21
-20.29044239903385
 31
0.0
  0
LINE
  5
A1
330
1F
100
AcDbEntity
  8
0-0
  6
JWW_DASHED1
 62
   120
370
     5
100
AcDbLine
 10
-401.8663550664922
 20
-357.0864079382865
 30
0.0
 11
-57.99932171538273
 21
-13.21937458717869
 31
0.0
  0
LINE
  5
A2
330
1F
100
AcDbEntity
  8
0-0
  6
JWW_DASHED1
 62
   120
370
     5
100
AcDbLine
 10
-408.9374228783691
 20
-357.0864079382967
 30
0.0
 11
-57.99932171537591
 21
-6.148306775301791
 31
0.0
  0
LINE
  5
A3
330
1F
100
AcDbEntity
  8
0-0
  6
JWW_DASHED1
 62
   120
370
     5
100
AcDbLine
 10
-416.0084906901983
 20
-357.0864079382882
 30
0.0
 11
-57.99932171537591
 21
0.9227610365350358
 31
0.0
  0
LINE
  5
A4
330
1F
100
AcDbEntity
  8
0-0
  6
JWW_DASHED1
 62
   120
370
     5
100
AcDbLine
 10
-423.0795585020377
 20
-357.0864079382869
 30
0.0
 11
-57.99932171537591
 21
7.993828848376552
 31
0.0
  0
LINE
  5
A5
330
1F
100
AcDbEntity
  8
0-0
  6
JWW_DASHED1
 62
   120
370
     5
100
AcDbLine
 10
-430.1506263139078
 20
-357.0864079382908
 30
0.0
 11
-57.99932171538273
 21
15.06489666023725
 31
0.0
  0
LINE
  5
A6
330
1F
100
AcDbEntity
  8
0-0
  6
JWW_DASHED1
 62
   120
370
     5
100
AcDbLine
 10
-437.2216941257847
 20
-357.086407938301
 30
0.0
 11
-57.99932171536909
 21
22.13596447211373
 31
0.0
  0
LINE
  5
A7
330
1F
100
AcDbEntity
  8
0-0
  6
JWW_DASHED1
 62
   120
370
     5
100
AcDbLine
 10
-444.2927619376377
 20
-357.0864079382848
 30
0.0
 11
-57.99932171536909
 21
29.20703228398125
 31
0.0
  0
LINE
  5
A8
330
1F
100
AcDbEntity
  8
0-0
  6
JWW_DASHED1
 62
   120
370
     5
100
AcDbLine
 10
-451.3638297495078
 20
-357.0864079382891
 30
0.0
 11
-57.99932171538273
 21
36.27810009583555
 31
0.0
  0
LINE
  5
A9
330
1F
100
AcDbEntity
  8
0-0
  6
JWW_DASHED1
 62
   120
370
     5
100
AcDbLine
 10
-458.4348975613847
 20
-357.0864079382993
 30
0.0
 11
-57.9993217153725
 21
43.34916790771203
 31
0.0
  0
LINE
  5
AA
330
1F
100
AcDbEntity
  8
0-0
  6
JWW_DASHED1
 62
   120
370
     5
100
AcDbLine
 10
-465.5059653732445
 20
-357.0864079382942
 30
0.0
 11
-57.9993217153725
 21
50.42023571957955
 31
0.0
  0
LINE
  5
AB
330
1F
100
AcDbEntity
  8
0-0
  6
JWW_DASHED1
 62
   120
370
     5
100
AcDbLine
 10
-472.5770331851044
 20
-357.0864079382882
 30
0.0
 11
-57.99932171538273
 21
57.49130353143343
 31
0.0
  0
LINE
  5
AC
330
1F
100
AcDbEntity
  8
0-0
  6
JWW_DASHED1
 62
   120
370
     5
100
AcDbLine
 10
-479.6481009969847
 20
-357.0864079382984
 30
0.0
 11
-57.99932171537591
 21
64.56237134331033
 31
0.0
  0
LINE
  5
AD
330
1F
100
AcDbEntity
  8
0-0
  6
JWW_DASHED1
 62
   120
370
     5
100
AcDbLine
 10
-486.7191688088445
 20
-357.0864079382925
 30
0.0
 11
-57.9993217153725
 21
71.63343915517785
 31
0.0
  0
LINE
  5
AE
330
1F
100
AcDbEntity
  8
0-0
  6
JWW_DASHED1
 62
   120
370
     5
100
AcDbLine
 10
-493.7902366207044
 20
-357.0864079382869
 30
0.0
 11
-57.99932171538615
 21
78.70450696703173
 31
0.0
  0
LINE
  5
AF
330
1F
100
AcDbEntity
  8
0-0
  6
JWW_DASHED1
 62
   120
370
     5
100
AcDbLine
 10
-500.8613044325813
 20
-357.0864079382972
 30
0.0
 11
-57.99932171537591
 21
85.77557477890821
 31
0.0
  0
LINE
  5
B0
330
1F
100
AcDbEntity
  8
0-0
  6
JWW_DASHED1
 62
   120
370
     5
100
AcDbLine
 10
-507.9323722444445
 20
-357.0864079382912
 30
0.0
 11
-57.99932171537591
 21
92.84664259077616
 31
0.0
  0
LINE
  5
B1
330
1F
100
AcDbEntity
  8
0-0
  6
JWW_DASHED1
 62
   120
370
     5
100
AcDbLine
 10
-515.0034400563078
 20
-357.0864079382891
 30
0.0
 11
-57.9993217153725
 21
99.91771040264581
 31
0.0
  0
LINE
  5
B2
330
1F
100
AcDbEntity
  8
0-0
  6
JWW_DASHED1
 62
   120
370
     5
100
AcDbLine
 10
-522.0745078681813
 20
-357.0864079382959
 30
0.0
 11
-57.99932171537932
 21
106.9887782145065
 31
0.0
  0
LINE
  5
B3
330
1F
100
AcDbEntity
  8
0-0
  6
JWW_DASHED1
 62
   120
370
     5
100
AcDbLine
 10
-529.1455756800582
 20
-357.0864079383057
 30
0.0
 11
-57.99932171536909
 21
114.059846026383
 31
0.0
  0
LINE
  5
B4
330
1F
100
AcDbEntity
  8
0-0
  6
JWW_DASHED1
 62
   120
370
     5
100
AcDbLine
 10
-536.2166434919044
 20
-357.0864079382874
 30
0.0
 11
-57.99932171537591
 21
121.1309138382441
 31
0.0
  0
LINE
  5
B5
330
1F
100
AcDbEntity
  8
0-0
  6
JWW_DASHED1
 62
   120
370
     5
100
AcDbLine
 10
-543.2877113037779
 20
-357.0864079382946
 30
0.0
 11
-57.99932171537932
 21
128.2019816501048
 31
0.0
  0
LINE
  5
B6
330
1F
100
AcDbEntity
  8
0-0
  6
JWW_DASHED1
 62
   120
370
     5
100
AcDbLine
 10
-550.3587791156548
 20
-357.0864079383044
 30
0.0
 11
-57.99932171536909
 21
135.2730494619813
 31
0.0
  0
LINE
  5
B7
330
1F
100
AcDbEntity
  8
0-0
  6
JWW_DASHED1
 62
   120
370
     5
100
AcDbLine
 10
-557.4298469275044
 20
-357.0864079382857
 30
0.0
 11
-57.99932171537591
 21
142.344117273842
 31
0.0
  0
LINE
  5
B8
330
1F
100
AcDbEntity
  8
0-0
  6
JWW_DASHED1
 62
   120
370
     5
100
AcDbLine
 10
-564.5009147393779
 20
-357.0864079382933
 30
0.0
 11
-57.99932171538273
 21
149.4151850857027
 31
0.0
  0
LINE
  5
B9
330
1F
100
AcDbEntity
  8
0-0
  6
JWW_DASHED1
 62
   120
370
     5
100
AcDbLine
 10
-571.5719825512548
 20
-357.0864079383027
 30
0.0
 11
-57.9993217153725
 21
156.4862528975796
 31
0.0
  0
LINE
  5
BA
330
1F
100
AcDbEntity
  8
0-0
  6
JWW_DASHED1
 62
   120
370
     5
100
AcDbLine
 10
-578.643050363101
 20
-357.0864079382835
 30
0.0
 11
-57.99932171536909
 21
163.5573207094488
 31
0.0
  0
LINE
  5
BB
330
1F
100
AcDbEntity
  8
0-0
  6
JWW_DASHED1
 62
   120
370
     5
100
AcDbLine
 10
-585.7141181749779
 20
-357.086407938292
 30
0.0
 11
-57.99932171538273
 21
170.628388521301
 31
0.0
  0
LINE
  5
BC
330
1F
100
AcDbEntity
  8
0-0
  6
JWW_DASHED1
 62
   120
370
     5
100
AcDbLine
 10
-592.7851859868514
 20
-357.0864079383018
 30
0.0
 11
-57.99932171537591
 21
177.6994563331775
 31
0.0
  0
LINE
  5
BD
330
1F
100
AcDbEntity
  8
0-0
  6
JWW_DASHED1
 62
   120
370
     5
100
AcDbLine
 10
-599.8562537987146
 20
-357.0864079382959
 30
0.0
 11
-57.99932171536909
 21
184.7705241450471
 31
0.0
  0
LINE
  5
BE
330
1F
100
AcDbEntity
  8
0-0
  6
JWW_DASHED1
 62
   120
370
     5
100
AcDbLine
 10
-606.9273216105745
 20
-357.0864079382908
 30
0.0
 11
-57.99932171538615
 21
191.8415919568993
 31
0.0
  0
LINE
  5
BF
330
1F
100
AcDbEntity
  8
0-0
  6
JWW_DASHED1
 62
   120
370
     5
100
AcDbLine
 10
-613.9983894224514
 20
-357.0864079383006
 30
0.0
 11
-57.99932171537591
 21
198.9126597687753
 31
0.0
  0
LINE
  5
C0
330
1F
100
AcDbEntity
  8
0-0
  6
JWW_DASHED1
 62
   120
370
     5
100
AcDbLine
 10
-621.0694572343112
 20
-357.086407938295
 30
0.0
 11
-57.9993217153725
 21
205.9837275806454
 31
0.0
  0
LINE
  5
C1
330
1F
100
AcDbEntity
  8
0-0
  6
JWW_DASHED1
 62
   120
370
     5
100
AcDbLine
 10
-628.1405250461745
 20
-357.0864079382899
 30
0.0
 11
-57.9993217153725
 21
213.0547953925129
 31
0.0
  0
LINE
  5
C2
330
1F
100
AcDbEntity
  8
0-0
  6
JWW_DASHED1
 62
   120
370
     5
100
AcDbLine
 10
-635.2115928580514
 20
-357.0864079382993
 30
0.0
 11
-57.99932171537591
 21
220.1258632043736
 31
0.0
  0
LINE
  5
C3
330
1F
100
AcDbEntity
  8
0-0
  6
JWW_DASHED1
 62
   120
370
     5
100
AcDbLine
 10
-642.2826606699113
 20
-357.0864079382937
 30
0.0
 11
-57.99932171537591
 21
227.1969310162437
 31
0.0
  0
LINE
  5
C4
330
1F
100
AcDbEntity
  8
0-0
  6
JWW_DASHED1
 62
   120
370
     5
100
AcDbLine
 10
-647.9993217153748
 20
-355.7320011718901
 30
0.0
 11
-57.9993217153725
 21
234.2679988281112
 31
0.0
  0
LINE
  5
C5
330
1F
100
AcDbEntity
  8
0-0
  6
JWW_DASHED1
 62
   120
370
     5
100
AcDbLine
 10
-647.9993217153645
 20
-348.6609333600142
 30
0.0
 11
-57.99932171537932
 21
241.3390666399719
 31
0.0
  0
LINE
  5
C6
330
1F
100
AcDbEntity
  8
0-0
  6
JWW_DASHED1
 62
   120
370
     5
100
AcDbLine
 10
-647.9993217153577
 20
-341.589865548196
 30
0.0
 11
-57.99932171537591
 21
248.4101344517896
 31
0.0
  0
LINE
  5
C7
330
1F
100
AcDbEntity
  8
0-0
  6
JWW_DASHED1
 62
   120
370
     5
100
AcDbLine
 10
-647.9993217153645
 20
-334.5187977363354
 30
0.0
 11
-57.99932171536909
 21
255.4812022636605
 31
0.0
  0
LINE
  5
C8
330
1F
100
AcDbEntity
  8
0-0
  6
JWW_DASHED1
 62
   120
370
     5
100
AcDbLine
 10
-647.9993217153714
 20
-327.4477299244746
 30
0.0
 11
-57.99932171538615
 21
262.552270075511
 31
0.0
  0
LINE
  5
C9
330
1F
100
AcDbEntity
  8
0-0
  6
JWW_DASHED1
 62
   120
370
     5
100
AcDbLine
 10
-647.9993217153611
 20
-320.3766621125977
 30
0.0
 11
-57.99932171537591
 21
269.6233378873879
 31
0.0
  0
LINE
  5
CA
330
1F
100
AcDbEntity
  8
0-0
  6
JWW_DASHED1
 62
   120
370
     5
100
AcDbLine
 10
-647.999321715368
 20
-313.3055943007366
 30
0.0
 11
-57.99932171536909
 21
276.6944056992588
 31
0.0
  0
LINE
  5
CB
330
1F
100
AcDbEntity
  8
0-0
  6
JWW_DASHED1
 62
   120
370
     5
100
AcDbLine
 10
-647.9993217153714
 20
-306.2345264888763
 30
0.0
 11
-57.9993217153725
 21
283.765473511125
 31
0.0
  0
LINE
  5
CC
330
1F
100
AcDbEntity
  8
0-0
  6
JWW_DASHED1
 62
   120
370
     5
100
AcDbLine
 10
-647.9993217153645
 20
-299.1634586769994
 30
0.0
 11
-57.99932171537591
 21
290.8365413229858
 31
0.0
  0
LINE
  5
CD
330
1F
100
AcDbEntity
  8
0-0
  6
JWW_DASHED1
 62
   120
370
     5
100
AcDbLine
 10
-647.999321715368
 20
-292.0923908651379
 30
0.0
 11
-57.9993217153725
 21
297.9076091348571
 31
0.0
  0
LINE
  5
CE
330
1F
100
AcDbEntity
  8
0-0
  6
JWW_DASHED1
 62
   120
370
     5
100
AcDbLine
 10
-647.9993217153748
 20
-285.021323053278
 30
0.0
 11
-57.9993217153725
 21
304.9786769467233
 31
0.0
  0
LINE
  5
CF
330
1F
100
AcDbEntity
  8
0-0
  6
JWW_DASHED1
 62
   120
370
     5
100
AcDbLine
 10
-647.9993217153645
 20
-277.9502552414016
 30
0.0
 11
-57.99932171537932
 21
312.0497447585841
 31
0.0
  0
LINE
  5
D0
330
1F
100
AcDbEntity
  8
0-0
  6
JWW_DASHED1
 62
   120
370
     5
100
AcDbLine
 10
-647.9993217153543
 20
-270.8791874295251
 30
0.0
 11
-57.99932171536909
 21
319.1208125704605
 31
0.0
  0
LINE
  5
D1
330
1F
100
AcDbEntity
  8
0-0
  6
JWW_DASHED1
 62
   120
370
     5
100
AcDbLine
 10
-647.9993217153782
 20
-263.8081196176797
 30
0.0
 11
-57.99932171537591
 21
326.1918803823212
 31
0.0
  0
LINE
  5
D2
330
1F
100
AcDbEntity
  8
0-0
  6
JWW_DASHED1
 62
   120
370
     5
100
AcDbLine
 10
-647.999321715368
 20
-256.7370518058037
 30
0.0
 11
-57.99932171538273
 21
333.2629481941824
 31
0.0
  0
LINE
  5
D3
330
1F
100
AcDbEntity
  8
0-0
  6
JWW_DASHED1
 62
   120
370
     5
100
AcDbLine
 10
-647.9993217153577
 20
-249.6659839939268
 30
0.0
 11
-57.9993217153725
 21
340.3340160060588
 31
0.0
  0
LINE
  5
D4
330
1F
100
AcDbEntity
  8
0-0
  6
JWW_DASHED1
 62
   120
370
     5
100
AcDbLine
 10
-647.9993217153782
 20
-242.5949161820797
 30
0.0
 11
-57.99932171536568
 21
347.4050838179311
 31
0.0
  0
LINE
  5
D5
330
1F
100
AcDbEntity
  8
0-0
  6
JWW_DASHED1
 62
   120
370
     5
100
AcDbLine
 10
-647.9993217153714
 20
-235.5238483702054
 30
0.0
 11
-57.99932171538273
 21
354.4761516297802
 31
0.0
  0
LINE
  5
D6
330
1F
100
AcDbEntity
  8
0-0
  6
JWW_DASHED1
 62
   120
370
     5
100
AcDbLine
 10
-647.9993217153577
 20
-228.4527805583289
 30
0.0
 11
-57.9993217153725
 21
361.5472194416567
 31
0.0
  0
LINE
  5
D7
330
1F
100
AcDbEntity
  8
0-0
  6
JWW_DASHED1
 62
   120
370
     5
100
AcDbLine
 10
-647.9993217153645
 20
-221.3817127464661
 30
0.0
 11
-57.99932171536909
 21
368.6182872535294
 31
0.0
  0
LINE
  5
D8
330
1F
100
AcDbEntity
  8
0-0
  6
JWW_DASHED1
 62
   120
370
     5
100
AcDbLine
 10
-647.9993217153714
 20
-214.3106449346071
 30
0.0
 11
-57.99932171538615
 21
375.6893550653785
 31
0.0
  0
LINE
  5
D9
330
1F
100
AcDbEntity
  8
0-0
  6
JWW_DASHED1
 62
   120
370
     5
100
AcDbLine
 10
-647.9993217153611
 20
-207.239577122731
 30
0.0
 11
-57.99932171537591
 21
382.760422877255
 31
0.0
  0
LINE
  5
DA
330
1F
100
AcDbEntity
  8
0-0
  6
JWW_DASHED1
 62
   120
370
     5
100
AcDbLine
 10
-647.9993217153645
 20
-200.1685093108674
 30
0.0
 11
-57.99932171536909
 21
389.8314906891281
 31
0.0
  0
LINE
  5
DB
330
1F
100
AcDbEntity
  8
0-0
  6
JWW_DASHED1
 62
   120
370
     5
100
AcDbLine
 10
-647.9993217153714
 20
-193.0974414990092
 30
0.0
 11
-57.99932171538615
 21
396.9025585009764
 31
0.0
  0
LINE
  5
DC
330
1F
100
AcDbEntity
  8
0-0
  6
JWW_DASHED1
 62
   120
370
     5
100
AcDbLine
 10
-647.9993217153645
 20
-186.0263736871327
 30
0.0
 11
-57.99932171537591
 21
403.9736263128533
 31
0.0
  0
LINE
  5
DD
330
1F
100
AcDbEntity
  8
0-0
  6
JWW_DASHED1
 62
   120
370
     5
100
AcDbLine
 10
-647.9993217153645
 20
-178.9553058752686
 30
0.0
 11
-57.99932171536909
 21
411.0446941247264
 31
0.0
  0
LINE
  5
DE
330
1F
100
AcDbEntity
  8
0-0
  6
JWW_DASHED1
 62
   120
370
     5
100
AcDbLine
 10
-647.9993217153748
 20
-171.8842380634113
 30
0.0
 11
-57.9993217153725
 21
418.1157619365905
 31
0.0
  0
LINE
  5
DF
330
1F
100
AcDbEntity
  8
0-0
  6
JWW_DASHED1
 62
   120
370
     5
100
AcDbLine
 10
-647.9993217153645
 20
-164.8131702515344
 30
0.0
 11
-57.99932171537932
 21
425.1868297484512
 31
0.0
  0
LINE
  5
E0
330
1F
100
AcDbEntity
  8
0-0
  6
JWW_DASHED1
 62
   120
370
     5
100
AcDbLine
 10
-647.999321715368
 20
-157.7421024396703
 30
0.0
 11
-57.9993217153725
 21
432.2578975603251
 31
0.0
  0
LINE
  5
E1
330
1F
100
AcDbEntity
  8
0-0
  6
JWW_DASHED1
 62
   120
370
     5
100
AcDbLine
 10
-647.9993217153782
 20
-150.671034627813
 30
0.0
 11
-57.99932171537591
 21
439.3289653721883
 31
0.0
  0
LINE
  5
E2
330
1F
100
AcDbEntity
  8
0-0
  6
JWW_DASHED1
 62
   120
370
     5
100
AcDbLine
 10
-647.9993217153645
 20
-143.5999668159361
 30
0.0
 11
-57.99932171538273
 21
446.4000331840495
 31
0.0
  0
LINE
  5
E3
330
1F
100
AcDbEntity
  8
0-0
  6
JWW_DASHED1
 62
   120
370
     5
100
AcDbLine
 10
-647.9993217153577
 20
-136.5288990040597
 30
0.0
 11
-57.99932171536909
 21
453.471100995926
 31
0.0
  0
LINE
  5
E4
330
1F
100
AcDbEntity
  8
0-0
  6
JWW_DASHED1
 62
   120
370
     5
100
AcDbLine
 10
-647.9993217153782
 20
-129.4578311922147
 30
0.0
 11
-57.99932171537591
 21
460.5421688077867
 31
0.0
  0
LINE
  5
E5
330
1F
100
AcDbEntity
  8
0-0
  6
JWW_DASHED1
 62
   120
370
     5
100
AcDbLine
 10
-647.999321715368
 20
-122.3867633803383
 30
0.0
 11
-57.99932171538273
 21
467.6132366196474
 31
0.0
  0
LINE
  5
E6
330
1F
100
AcDbEntity
  8
0-0
  6
JWW_DASHED1
 62
   120
370
     5
100
AcDbLine
 10
-647.9993217153577
 20
-115.3156955684618
 30
0.0
 11
-57.9993217153725
 21
474.6843044315243
 31
0.0
  0
LINE
  5
E7
330
1F
100
AcDbEntity
  8
0-0
  6
JWW_DASHED1
 62
   120
370
     5
100
AcDbLine
 10
-647.9993217153645
 20
-108.2446277566258
 30
0.0
 11
-57.99932171536909
 21
481.7553722433692
 31
0.0
  0
LINE
  5
E8
330
1F
100
AcDbEntity
  8
0-0
  6
JWW_DASHED1
 62
   120
370
     5
100
AcDbLine
 10
-647.9993217153748
 20
-101.1735599447992
 30
0.0
 11
-57.9993217153725
 21
488.8264400552026
 31
0.0
  0
LINE
  5
E9
330
1F
100
AcDbEntity
  8
0-0
  6
JWW_DASHED1
 62
   120
370
     5
100
AcDbLine
 10
-647.9993217153645
 20
-94.10249213292232
 30
0.0
 11
-57.99932171537932
 21
495.8975078670633
 31
0.0
  0
LINE
  5
EA
330
1F
100
AcDbEntity
  8
0-0
  6
JWW_DASHED1
 62
   120
370
     5
100
AcDbLine
 10
-647.9993217153645
 20
-87.03142432105736
 30
0.0
 11
-57.99932171536909
 21
502.9685756789381
 31
0.0
  0
LINE
  5
EB
330
1F
100
AcDbEntity
  8
0-0
  6
JWW_DASHED1
 62
   120
370
     5
100
AcDbLine
 10
-647.9993217153782
 20
-79.96035650920092
 30
0.0
 11
-57.99932171537591
 21
510.0396434908005
 31
0.0
  0
LINE
  5
EC
330
1F
100
AcDbEntity
  8
0-0
  6
JWW_DASHED1
 62
   120
370
     5
100
AcDbLine
 10
-647.9993217153645
 20
-72.88928869732402
 30
0.0
 11
-57.99932171538273
 21
517.1107113026617
 31
0.0
  0
LINE
  5
ED
330
1F
100
AcDbEntity
  8
0-0
  6
JWW_DASHED1
 62
   120
370
     5
100
AcDbLine
 10
-647.9993217153577
 20
-65.81822088544754
 30
0.0
 11
-57.99932171536909
 21
524.1817791145381
 31
0.0
  0
LINE
  5
EE
330
1F
100
AcDbEntity
  8
0-0
  6
JWW_DASHED1
 62
   120
370
     5
100
AcDbLine
 10
-647.9993217153782
 20
-58.74715307360262
 30
0.0
 11
-57.99932171537591
 21
531.2528469263988
 31
0.0
  0
LINE
  5
EF
330
1F
100
AcDbEntity
  8
0-0
  6
JWW_DASHED1
 62
   120
370
     5
100
AcDbLine
 10
-647.999321715368
 20
-51.67608526172614
 30
0.0
 11
-57.99932171538273
 21
538.3239147382595
 31
0.0
  0
LINE
  5
F0
330
1F
100
AcDbEntity
  8
0-0
  6
JWW_DASHED1
 62
   120
370
     5
100
AcDbLine
 10
-647.9993217153577
 20
-44.60501744984967
 30
0.0
 11
-57.9993217153725
 21
545.3949825501364
 31
0.0
  0
LINE
  5
F1
330
1F
100
AcDbEntity
  8
0-0
  6
JWW_DASHED1
 62
   120
370
     5
100
AcDbLine
 10
-647.9993217153748
 20
-37.5339496379992
 30
0.0
 11
-57.99932171536227
 21
552.4660503620116
 31
0.0
  0
LINE
  5
F2
330
1F
100
AcDbEntity
  8
0-0
  6
JWW_DASHED1
 62
   120
370
     5
100
AcDbLine
 10
-647.9993217153714
 20
-30.46288182612784
 30
0.0
 11
-57.99932171538273
 21
559.5371181738578
 31
0.0
  0
LINE
  5
F3
330
1F
100
AcDbEntity
  8
0-0
  6
JWW_DASHED1
 62
   120
370
     5
100
AcDbLine
 10
-647.9993217153611
 20
-23.39181401425137
 30
0.0
 11
-57.99932171537591
 21
566.6081859857343
 31
0.0
  0
LINE
  5
F4
330
1F
100
AcDbEntity
  8
0-0
  6
JWW_DASHED1
 62
   120
370
     5
100
AcDbLine
 10
-647.9993217153611
 20
-16.3207462023847
 30
0.0
 11
-57.99932171536568
 21
573.6792537976103
 31
0.0
  0
LINE
  5
F5
330
1F
100
AcDbEntity
  8
0-0
  6
JWW_DASHED1
 62
   120
370
     5
100
AcDbLine
 10
-647.9993217153714
 20
-9.249678390529965
 30
0.0
 11
-57.99932171538615
 21
580.7503216094561
 31
0.0
  0
LINE
  5
F6
330
1F
100
AcDbEntity
  8
0-0
  6
JWW_DASHED1
 62
   120
370
     5
100
AcDbLine
 10
-647.9993217153611
 20
-2.178610578653064
 30
0.0
 11
-57.99932171537591
 21
587.8213894213326
 31
0.0
  0
LINE
  5
F7
330
1F
100
AcDbEntity
  8
0-0
  6
JWW_DASHED1
 62
   120
370
     5
100
AcDbLine
 10
-647.9993217153611
 20
4.892457233213605
 30
0.0
 11
-57.99932171536909
 21
594.8924572332087
 31
0.0
  0
LINE
  5
F8
330
1F
100
AcDbEntity
  8
0-0
  6
JWW_DASHED1
 62
   120
370
     5
100
AcDbLine
 10
-647.9993217153748
 20
11.96352504506834
 30
0.0
 11
-57.99932171538956
 21
601.963525045054
 31
0.0
  0
LINE
  5
F9
330
1F
100
AcDbEntity
  8
0-0
  6
JWW_DASHED1
 62
   120
370
     5
100
AcDbLine
 10
-647.9993217153645
 20
19.03459285694524
 30
0.0
 11
-57.99932171537932
 21
609.0345928569309
 31
0.0
  0
LINE
  5
FA
330
1F
100
AcDbEntity
  8
0-0
  6
JWW_DASHED1
 62
   120
370
     5
100
AcDbLine
 10
-647.9993217153645
 20
26.10566066881191
 30
0.0
 11
-57.99932171536909
 21
616.1056606688073
 31
0.0
  0
LINE
  5
FB
330
1F
100
AcDbEntity
  8
0-0
  6
JWW_DASHED1
 62
   120
370
     5
100
AcDbLine
 10
-647.9993217153748
 20
33.17672848066664
 30
0.0
 11
-63.26245813432877
 21
617.9135920617135
 31
0.0
  0
LINE
  5
FC
330
1F
100
AcDbEntity
  8
0-0
  6
JWW_DASHED1
 62
   120
370
     5
100
AcDbLine
 10
-647.9993217153645
 20
40.24779629254269
 30
0.0
 11
-70.33352594618862
 21
617.9135920617186
 31
0.0
  0
LINE
  5
FD
330
1F
100
AcDbEntity
  8
0-0
  6
JWW_DASHED1
 62
   120
370
     5
100
AcDbLine
 10
-647.9993217153577
 20
47.31886410441959
 30
0.0
 11
-77.40459375806893
 21
617.9135920617089
 31
0.0
  0
LINE
  5
FE
330
1F
100
AcDbEntity
  8
0-0
  6
JWW_DASHED1
 62
   120
370
     5
100
AcDbLine
 10
-647.9993217153782
 20
54.38993191626494
 30
0.0
 11
-84.47566156992877
 21
617.9135920617152
 31
0.0
  0
LINE
  5
FF
330
1F
100
AcDbEntity
  8
0-0
  6
JWW_DASHED1
 62
   120
370
     5
100
AcDbLine
 10
-647.999321715368
 20
61.46099972814099
 30
0.0
 11
-91.54672938178862
 21
617.9135920617204
 31
0.0
  0
LINE
  5
100
330
1F
100
AcDbEntity
  8
0-0
  6
JWW_DASHED1
 62
   120
370
     5
100
AcDbLine
 10
-647.9993217153577
 20
68.53206754001789
 30
0.0
 11
-98.61779719366552
 21
617.9135920617101
 31
0.0
  0
LINE
  5
101
330
1F
100
AcDbEntity
  8
0-0
  6
JWW_DASHED1
 62
   120
370
     5
100
AcDbLine
 10
-647.9993217153782
 20
75.60313535186239
 30
0.0
 11
-105.6888650055254
 21
617.9135920617169
 31
0.0
  0
LINE
  5
102
330
1F
100
AcDbEntity
  8
0-0
  6
JWW_DASHED1
 62
   120
370
     5
100
AcDbLine
 10
-647.9993217153714
 20
82.67420316373929
 30
0.0
 11
-112.7599328173886
 21
617.9135920617216
 31
0.0
  0
LINE
  5
103
330
1F
100
AcDbEntity
  8
0-0
  6
JWW_DASHED1
 62
   120
370
     5
100
AcDbLine
 10
-647.9993217153611
 20
89.74527097561577
 30
0.0
 11
-119.8310006292655
 21
617.9135920617109
 31
0.0
  0
LINE
  5
104
330
1F
100
AcDbEntity
  8
0-0
  6
JWW_DASHED1
 62
   120
370
     5
100
AcDbLine
 10
-647.9993217153748
 20
96.81633878746837
 30
0.0
 11
-126.902068441139
 21
617.9135920617033
 31
0.0
  0
LINE
  5
105
330
1F
100
AcDbEntity
  8
0-0
  6
JWW_DASHED1
 62
   120
370
     5
100
AcDbLine
 10
-647.9993217153714
 20
103.8874065993376
 30
0.0
 11
-133.9731362529852
 21
617.9135920617229
 31
0.0
  0
LINE
  5
106
330
1F
100
AcDbEntity
  8
0-0
  6
JWW_DASHED1
 62
   120
370
     5
100
AcDbLine
 10
-647.9993217153611
 20
110.9584744112145
 30
0.0
 11
-141.0442040648621
 21
617.9135920617126
 31
0.0
  0
LINE
  5
107
330
1F
100
AcDbEntity
  8
0-0
  6
JWW_DASHED1
 62
   120
370
     5
100
AcDbLine
 10
-647.9993217153577
 20
118.0295422230829
 30
0.0
 11
-148.115271876739
 21
617.9135920617024
 31
0.0
  0
LINE
  5
108
330
1F
100
AcDbEntity
  8
0-0
  6
JWW_DASHED1
 62
   120
370
     5
100
AcDbLine
 10
-647.9993217153714
 20
125.1006100349359
 30
0.0
 11
-155.1863396885852
 21
617.9135920617238
 31
0.0
  0
LINE
  5
109
330
1F
100
AcDbEntity
  8
0-0
  6
JWW_DASHED1
 62
   120
370
     5
100
AcDbLine
 10
-647.9993217153645
 20
132.1716778468119
 30
0.0
 11
-162.2574075004621
 21
617.9135920617135
 31
0.0
  0
LINE
  5
10A
330
1F
100
AcDbEntity
  8
0-0
  6
JWW_DASHED1
 62
   120
370
     5
100
AcDbLine
 10
-647.9993217153645
 20
139.2427456586513
 30
0.0
 11
-169.3284753123083
 21
617.9135920617058
 31
0.0
  0
LINE
  5
10B
330
1F
100
AcDbEntity
  8
0-0
  6
JWW_DASHED1
 62
   120
370
     5
100
AcDbLine
 10
-647.9993217153782
 20
146.3138134704745
 30
0.0
 11
-176.3995431241375
 21
617.9135920617169
 31
0.0
  0
LINE
  5
10C
330
1F
100
AcDbEntity
  8
0-0
  6
JWW_DASHED1
 62
   120
370
     5
100
AcDbLine
 10
-647.9993217153714
 20
153.3848812823514
 30
0.0
 11
-183.4706109360008
 21
617.9135920617194
 31
0.0
  0
LINE
  5
10D
330
1F
100
AcDbEntity
  8
0-0
  6
JWW_DASHED1
 62
   120
370
     5
100
AcDbLine
 10
-647.9993217153611
 20
160.4559490942279
 30
0.0
 11
-190.5416787478777
 21
617.9135920617092
 31
0.0
  0
LINE
  5
10E
330
1F
100
AcDbEntity
  8
0-0
  6
JWW_DASHED1
 62
   120
370
     5
100
AcDbLine
 10
-647.9993217153714
 20
167.5270169060813
 30
0.0
 11
-197.6127465597511
 21
617.9135920617033
 31
0.0
  0
LINE
  5
10F
330
1F
100
AcDbEntity
  8
0-0
  6
JWW_DASHED1
 62
   120
370
     5
100
AcDbLine
 10
-647.9993217153714
 20
174.5980847179497
 30
0.0
 11
-204.6838143716008
 21
617.9135920617211
 31
0.0
  0
LINE
  5
110
330
1F
100
AcDbEntity
  8
0-0
  6
JWW_DASHED1
 62
   120
370
     5
100
AcDbLine
 10
-647.9993217153611
 20
181.6691525298262
 30
0.0
 11
-211.7548821834777
 21
617.9135920617109
 31
0.0
  0
LINE
  5
111
330
1F
100
AcDbEntity
  8
0-0
  6
JWW_DASHED1
 62
   120
370
     5
100
AcDbLine
 10
-647.9993217153577
 20
188.7402203416958
 30
0.0
 11
-218.8259499953546
 21
617.9135920617007
 31
0.0
  0
LINE
  5
112
330
1F
100
AcDbEntity
  8
0-0
  6
JWW_DASHED1
 62
   120
370
     5
100
AcDbLine
 10
-647.9993217153748
 20
195.8112881535476
 30
0.0
 11
-225.8970178072008
 21
617.9135920617225
 31
0.0
  0
LINE
  5
113
330
1F
100
AcDbEntity
  8
0-0
  6
JWW_DASHED1
 62
   120
370
     5
100
AcDbLine
 10
-647.9993217153645
 20
202.8823559654241
 30
0.0
 11
-232.9680856190743
 21
617.9135920617118
 31
0.0
  0
LINE
  5
114
330
1F
100
AcDbEntity
  8
0-0
  6
JWW_DASHED1
 62
   120
370
     5
100
AcDbLine
 10
-647.9993217153611
 20
209.9534237772941
 30
0.0
 11
-240.0391534309546
 21
617.9135920617016
 31
0.0
  0
LINE
  5
115
330
1F
100
AcDbEntity
  8
0-0
  6
JWW_DASHED1
 62
   120
370
     5
100
AcDbLine
 10
-647.9993217153748
 20
217.0244915891459
 30
0.0
 11
-247.1102212428076
 21
617.9135920617126
 31
0.0
  0
LINE
  5
116
330
1F
100
AcDbEntity
  8
0-0
  6
JWW_DASHED1
 62
   120
370
     5
100
AcDbLine
 10
-647.9993217153645
 20
224.0955594010224
 30
0.0
 11
-254.1812890546743
 21
617.9135920617135
 31
0.0
  0
LINE
  5
117
330
1F
100
AcDbEntity
  8
0-0
  6
JWW_DASHED1
 62
   120
370
     5
100
AcDbLine
 10
-647.9993217153611
 20
231.1666272128929
 30
0.0
 11
-261.2523568665512
 21
617.9135920617033
 31
0.0
  0
LINE
  5
118
330
1F
100
AcDbEntity
  8
0-0
  6
JWW_DASHED1
 62
   120
370
     5
100
AcDbLine
 10
-647.9993217153782
 20
238.2376950247442
 30
0.0
 11
-268.3234246784076
 21
617.9135920617148
 31
0.0
  0
LINE
  5
119
330
1F
100
AcDbEntity
  8
0-0
  6
JWW_DASHED1
 62
   120
370
     5
100
AcDbLine
 10
-647.999321715368
 20
245.3087628366207
 30
0.0
 11
-275.3944924902743
 21
617.9135920617148
 31
0.0
  0
LINE
  5
11A
330
1F
100
AcDbEntity
  8
0-0
  6
JWW_DASHED1
 62
   120
370
     5
100
AcDbLine
 10
-647.9993217153577
 20
252.3798306484971
 30
0.0
 11
-282.4655603021512
 21
617.9135920617041
 31
0.0
  0
LINE
  5
11B
330
1F
100
AcDbEntity
  8
0-0
  6
JWW_DASHED1
 62
   120
370
     5
100
AcDbLine
 10
-647.9993217153782
 20
259.450898460342
 30
0.0
 11
-289.5366281140042
 21
617.913592061716
 31
0.0
  0
LINE
  5
11C
330
1F
100
AcDbEntity
  8
0-0
  6
JWW_DASHED1
 62
   120
370
     5
100
AcDbLine
 10
-647.9993217153714
 20
266.5219662722185
 30
0.0
 11
-296.6076959258709
 21
617.913592061716
 31
0.0
  0
LINE
  5
11D
330
1F
100
AcDbEntity
  8
0-0
  6
JWW_DASHED1
 62
   120
370
     5
100
AcDbLine
 10
-647.9993217153577
 20
273.5930340840954
 30
0.0
 11
-303.6787637377478
 21
617.9135920617058
 31
0.0
  0
LINE
  5
11E
330
1F
100
AcDbEntity
  8
0-0
  6
JWW_DASHED1
 62
   120
370
     5
100
AcDbLine
 10
-647.9993217153714
 20
280.6641018959506
 30
0.0
 11
-310.7498315496179
 21
617.9135920617028
 31
0.0
  0
LINE
  5
11F
330
1F
100
AcDbEntity
  8
0-0
  6
JWW_DASHED1
 62
   120
370
     5
100
AcDbLine
 10
-647.9993217153714
 20
287.7351697078169
 30
0.0
 11
-317.8208993614709
 21
617.9135920617173
 31
0.0
  0
LINE
  5
120
330
1F
100
AcDbEntity
  8
0-0
  6
JWW_DASHED1
 62
   120
370
     5
100
AcDbLine
 10
-647.9993217153611
 20
294.8062375196934
 30
0.0
 11
-324.8919671733478
 21
617.9135920617075
 31
0.0
  0
LINE
  5
121
330
1F
100
AcDbEntity
  8
0-0
  6
JWW_DASHED1
 62
   120
370
     5
100
AcDbLine
 10
-647.9993217153577
 20
301.8773053315647
 30
0.0
 11
-331.9630349852247
 21
617.9135920616973
 31
0.0
  0
LINE
  5
122
330
1F
100
AcDbEntity
  8
0-0
  6
JWW_DASHED1
 62
   120
370
     5
100
AcDbLine
 10
-647.9993217153714
 20
308.9483731434152
 30
0.0
 11
-339.0341027970675
 21
617.9135920617186
 31
0.0
  0
LINE
  5
123
330
1F
100
AcDbEntity
  8
0-0
  6
JWW_DASHED1
 62
   120
370
     5
100
AcDbLine
 10
-647.9993217153645
 20
316.0194409552917
 30
0.0
 11
-346.1051706089478
 21
617.9135920617089
 31
0.0
  0
LINE
  5
124
330
1F
100
AcDbEntity
  8
0-0
  6
JWW_DASHED1
 62
   120
370
     5
100
AcDbLine
 10
-647.9993217153577
 20
323.0905087671634
 30
0.0
 11
-353.1762384208213
 21
617.9135920616986
 31
0.0
  0
LINE
  5
125
330
1F
100
AcDbEntity
  8
0-0
  6
JWW_DASHED1
 62
   120
370
     5
100
AcDbLine
 10
-647.9993217153748
 20
330.1615765790131
 30
0.0
 11
-360.2473062326675
 21
617.9135920617199
 31
0.0
  0
LINE
  5
126
330
1F
100
AcDbEntity
  8
0-0
  6
JWW_DASHED1
 62
   120
370
     5
100
AcDbLine
 10
-647.9993217153645
 20
337.2326443908895
 30
0.0
 11
-367.3183740445444
 21
617.9135920617101
 31
0.0
  0
LINE
  5
127
330
1F
100
AcDbEntity
  8
0-0
  6
JWW_DASHED1
 62
   120
370
     5
100
AcDbLine
 10
-647.9993217153577
 20
344.3037122027617
 30
0.0
 11
-374.3894418564213
 21
617.9135920616999
 31
0.0
  0
LINE
  5
128
330
1F
100
AcDbEntity
  8
0-0
  6
JWW_DASHED1
 62
   120
370
     5
100
AcDbLine
 10
-647.9993217153782
 20
351.3747800146114
 30
0.0
 11
-381.4605096682743
 21
617.9135920617143
 31
0.0
  0
LINE
  5
129
330
1F
100
AcDbEntity
  8
0-0
  6
JWW_DASHED1
 62
   120
370
     5
100
AcDbLine
 10
-647.9993217153645
 20
358.4458478264878
 30
0.0
 11
-388.5315774801444
 21
617.9135920617109
 31
0.0
  0
LINE
  5
12A
330
1F
100
AcDbEntity
  8
0-0
  6
JWW_DASHED1
 62
   120
370
     5
100
AcDbLine
 10
-647.9993217153611
 20
365.5169156383604
 30
0.0
 11
-395.6026452920213
 21
617.9135920617011
 31
0.0
  0
LINE
  5
12B
330
1F
100
AcDbEntity
  8
0-0
  6
JWW_DASHED1
 62
   120
370
     5
100
AcDbLine
 10
-647.9993217153645
 20
372.5879834501956
 30
0.0
 11
-402.6737131038504
 21
617.9135920617092
 31
0.0
  0
LINE
  5
12C
330
1F
100
AcDbEntity
  8
0-0
  6
JWW_DASHED1
 62
   120
370
     5
100
AcDbLine
 10
-647.9993217153714
 20
379.6590512620273
 30
0.0
 11
-409.744780915683
 21
617.9135920617169
 31
0.0
  0
LINE
  5
12D
330
1F
100
AcDbEntity
  8
0-0
  6
JWW_DASHED1
 62
   120
370
     5
100
AcDbLine
 10
-647.9993217153645
 20
386.7301190739038
 30
0.0
 11
-416.8158487275599
 21
617.9135920617067
 31
0.0
  0
LINE
  5
12E
330
1F
100
AcDbEntity
  8
0-0
  6
JWW_DASHED1
 62
   120
370
     5
100
AcDbLine
 10
-647.9993217153577
 20
393.8011868857768
 30
0.0
 11
-423.8869165394368
 21
617.9135920616968
 31
0.0
  0
LINE
  5
12F
330
1F
100
AcDbEntity
  8
0-0
  6
JWW_DASHED1
 62
   120
370
     5
100
AcDbLine
 10
-647.9993217153748
 20
400.8722546976252
 30
0.0
 11
-430.957984351283
 21
617.9135920617182
 31
0.0
  0
LINE
  5
130
330
1F
100
AcDbEntity
  8
0-0
  6
JWW_DASHED1
 62
   120
370
     5
100
AcDbLine
 10
-647.9993217153645
 20
407.9433225095016
 30
0.0
 11
-438.0290521631599
 21
617.913592061708
 31
0.0
  0
LINE
  5
131
330
1F
100
AcDbEntity
  8
0-0
  6
JWW_DASHED1
 62
   120
370
     5
100
AcDbLine
 10
-647.9993217153577
 20
415.0143903213756
 30
0.0
 11
-445.1001199750334
 21
617.9135920616982
 31
0.0
  0
LINE
  5
132
330
1F
100
AcDbEntity
  8
0-0
  6
JWW_DASHED1
 62
   120
370
     5
100
AcDbLine
 10
-647.9993217153782
 20
422.0854581332235
 30
0.0
 11
-452.1711877868864
 21
617.9135920617143
 31
0.0
  0
LINE
  5
133
330
1F
100
AcDbEntity
  8
0-0
  6
JWW_DASHED1
 62
   120
370
     5
100
AcDbLine
 10
-647.9993217153645
 20
429.1565259451004
 30
0.0
 11
-459.2422555987565
 21
617.9135920617092
 31
0.0
  0
LINE
  5
134
330
1F
100
AcDbEntity
  8
0-0
  6
JWW_DASHED1
 62
   120
370
     5
100
AcDbLine
 10
-647.9993217153577
 20
436.2275937569734
 30
0.0
 11
-466.3133234106334
 21
617.9135920616994
 31
0.0
  0
LINE
  5
135
330
1F
100
AcDbEntity
  8
0-0
  6
JWW_DASHED1
 62
   120
370
     5
100
AcDbLine
 10
-647.9993217153782
 20
443.2986615688213
 30
0.0
 11
-473.384391222483
 21
617.913592061716
 31
0.0
  0
LINE
  5
136
330
1F
100
AcDbEntity
  8
0-0
  6
JWW_DASHED1
 62
   120
370
     5
100
AcDbLine
 10
-647.999321715368
 20
450.3697293806978
 30
0.0
 11
-480.4554590343565
 21
617.9135920617109
 31
0.0
  0
LINE
  5
137
330
1F
100
AcDbEntity
  8
0-0
  6
JWW_DASHED1
 62
   120
370
     5
100
AcDbLine
 10
-647.9993217153577
 20
457.4407971925747
 30
0.0
 11
-487.5265268462334
 21
617.9135920617007
 31
0.0
  0
LINE
  5
138
330
1F
100
AcDbEntity
  8
0-0
  6
JWW_DASHED1
 62
   120
370
     5
100
AcDbLine
 10
-647.9993217153782
 20
464.5118650044201
 30
0.0
 11
-494.597594658083
 21
617.9135920617182
 31
0.0
  0
LINE
  5
139
330
1F
100
AcDbEntity
  8
0-0
  6
JWW_DASHED1
 62
   120
370
     5
100
AcDbLine
 10
-647.9993217153714
 20
471.5829328162961
 30
0.0
 11
-501.6686624699531
 21
617.9135920617118
 31
0.0
  0
LINE
  5
13A
330
1F
100
AcDbEntity
  8
0-0
  6
JWW_DASHED1
 62
   120
370
     5
100
AcDbLine
 10
-647.9993217153611
 20
478.6540006281726
 30
0.0
 11
-508.7397302818334
 21
617.913592061702
 31
0.0
  0
LINE
  5
13B
330
1F
100
AcDbEntity
  8
0-0
  6
JWW_DASHED1
 62
   120
370
     5
100
AcDbLine
 10
-647.999321715368
 20
485.7250684400316
 30
0.0
 11
-515.8107980936967
 21
617.9135920617041
 31
0.0
  0
LINE
  5
13C
330
1F
100
AcDbEntity
  8
0-0
  6
JWW_DASHED1
 62
   120
370
     5
100
AcDbLine
 10
-647.9993217153714
 20
492.7961362518944
 30
0.0
 11
-522.8818659055531
 21
617.9135920617135
 31
0.0
  0
LINE
  5
13D
330
1F
100
AcDbEntity
  8
0-0
  6
JWW_DASHED1
 62
   120
370
     5
100
AcDbLine
 10
-647.9993217153645
 20
499.8672040637709
 30
0.0
 11
-529.95293371743
 21
617.9135920617033
 31
0.0
  0
LINE
  5
13E
330
1F
100
AcDbEntity
  8
0-0
  6
JWW_DASHED1
 62
   120
370
     5
100
AcDbLine
 10
-647.9993217153543
 20
506.9382718756457
 30
0.0
 11
-537.0240015293069
 21
617.9135920616931
 31
0.0
  0
LINE
  5
13F
330
1F
100
AcDbEntity
  8
0-0
  6
JWW_DASHED1
 62
   120
370
     5
100
AcDbLine
 10
-647.9993217153748
 20
514.0093396874922
 30
0.0
 11
-544.0950693411531
 21
617.9135920617143
 31
0.0
  0
LINE
  5
140
330
1F
100
AcDbEntity
  8
0-0
  6
JWW_DASHED1
 62
   120
370
     5
100
AcDbLine
 10
-647.9993217153645
 20
521.0804074993691
 30
0.0
 11
-551.16613715303
 21
617.9135920617041
 31
0.0
  0
LINE
  5
141
330
1F
100
AcDbEntity
  8
0-0
  6
JWW_DASHED1
 62
   120
370
     5
100
AcDbLine
 10
-647.9993217153577
 20
528.1514753112444
 30
0.0
 11
-558.2372049649069
 21
617.9135920616943
 31
0.0
  0
LINE
  5
142
330
1F
100
AcDbEntity
  8
0-0
  6
JWW_DASHED1
 62
   120
370
     5
100
AcDbLine
 10
-647.9993217153782
 20
535.2225431230906
 30
0.0
 11
-565.3082727767531
 21
617.9135920617139
 31
0.0
  0
LINE
  5
143
330
1F
100
AcDbEntity
  8
0-0
  6
JWW_DASHED1
 62
   120
370
     5
100
AcDbLine
 10
-647.9993217153645
 20
542.2936109349671
 30
0.0
 11
-572.3793405886266
 21
617.9135920617058
 31
0.0
  0
LINE
  5
144
330
1F
100
AcDbEntity
  8
0-0
  6
JWW_DASHED1
 62
   120
370
     5
100
AcDbLine
 10
-647.9993217153577
 20
549.3646787468426
 30
0.0
 11
-579.4504084005035
 21
617.9135920616956
 31
0.0
  0
LINE
  5
145
330
1F
100
AcDbEntity
  8
0-0
  6
JWW_DASHED1
 62
   120
370
     5
100
AcDbLine
 10
-647.9993217153782
 20
556.4357465586888
 30
0.0
 11
-586.5214762123532
 21
617.9135920617152
 31
0.0
  0
LINE
  5
146
330
1F
100
AcDbEntity
  8
0-0
  6
JWW_DASHED1
 62
   120
370
     5
100
AcDbLine
 10
-647.999321715368
 20
563.5068143705654
 30
0.0
 11
-593.5925440242266
 21
617.913592061707
 31
0.0
  0
LINE
  5
147
330
1F
100
AcDbEntity
  8
0-0
  6
JWW_DASHED1
 62
   120
370
     5
100
AcDbLine
 10
-647.9993217153577
 20
570.5778821824418
 30
0.0
 11
-600.6636118361035
 21
617.9135920616965
 31
0.0
  0
LINE
  5
148
330
1F
100
AcDbEntity
  8
0-0
  6
JWW_DASHED1
 62
   120
370
     5
100
AcDbLine
 10
-647.9993217153782
 20
577.6489499942868
 30
0.0
 11
-607.7346796479497
 21
617.9135920617173
 31
0.0
  0
LINE
  5
149
330
1F
100
AcDbEntity
  8
0-0
  6
JWW_DASHED1
 62
   120
370
     5
100
AcDbLine
 10
-647.9993217153714
 20
584.7200178061637
 30
0.0
 11
-614.8057474598266
 21
617.9135920617084
 31
0.0
  0
LINE
  5
14A
330
1F
100
AcDbEntity
  8
0-0
  6
JWW_DASHED1
 62
   120
370
     5
100
AcDbLine
 10
-647.9993217153611
 20
591.7910856180401
 30
0.0
 11
-621.8768152717001
 21
617.9135920616986
 31
0.0
  0
LINE
  5
14B
330
1F
100
AcDbEntity
  8
0-0
  6
JWW_DASHED1
 62
   120
370
     5
100
AcDbLine
 10
-647.9993217153645
 20
598.8621534299004
 30
0.0
 11
-628.9478830835634
 21
617.9135920617033
 31
0.0
  0
LINE
  5
14C
330
1F
100
AcDbEntity
  8
0-0
  6
JWW_DASHED1
 62
   120
370
     5
100
AcDbLine
 10
-647.9993217153714
 20
605.9332212417615
 30
0.0
 11
-636.0189508954232
 21
617.9135920617092
 31
0.0
  0
LINE
  5
14D
330
1F
100
AcDbEntity
  8
0-0
  6
JWW_DASHED1
 62
   120
370
     5
100
AcDbLine
 10
-647.9993217153611
 20
613.004289053638
 30
0.0
 11
-643.0900187073001
 21
617.9135920616999
 31
0.0
  0
LINE
  5
14E
330
1F
100
AcDbEntity
  8
0-0
  6
JWW_DASHED1
 62
   120
370
     5
100
AcDbLine
 10
-324.0846091359589
 20
-357.0864079382861
 30
0.0
 11
-57.99932171537932
 21
-91.00112051770566
 31
0.0
  0
LINE
  5
14F
330
1F
100
AcDbEntity
  8
0-0
  6
Continuous
 62
    92
370
    13
100
AcDbLine
 10
-647.999321715368
 20
-487.0864079382957
 30
0.0
 11
-57.99932171536568
 21
-487.0864079382957
 31
0.0
  0
LINE
  5
150
330
1F
100
AcDbEntity
  8
0-0
  6
Continuous
 62
    92
370
    13
100
AcDbLine
 10
132.000678284632
 20
-357.0864079382959
 30
0.0
 11
722.0006782846343
 21
-357.0864079382959
 31
0.0
  0
LINE
  5
151
330
1F
100
AcDbEntity
  8
0-0
  6
JWW_DASHED1
 62
   120
370
     5
100
AcDbLine
 10
717.5448999030601
 20
-357.0864079382796
 30
0.0
 11
722.0006782846173
 21
-352.6306295567213
 31
0.0
  0
LINE
  5
152
330
1F
100
AcDbEntity
  8
0-0
  6
JWW_DASHED1
 62
   120
370
     5
100
AcDbLine
 10
710.4738320911832
 20
-357.0864079382903
 30
0.0
 11
722.0006782846275
 21
-345.5595617448448
 31
0.0
  0
LINE
  5
153
330
1F
100
AcDbEntity
  8
0-0
  6
JWW_DASHED1
 62
   120
370
     5
100
AcDbLine
 10
703.40276427932
 20
-357.0864079382844
 30
0.0
 11
722.0006782846241
 21
-338.4884939329837
 31
0.0
  0
LINE
  5
154
330
1F
100
AcDbEntity
  8
0-0
  6
JWW_DASHED1
 62
   120
370
     5
100
AcDbLine
 10
696.3316964674601
 20
-357.0864079382789
 30
0.0
 11
722.0006782846173
 21
-331.417426121123
 31
0.0
  0
LINE
  5
155
330
1F
100
AcDbEntity
  8
0-0
  6
JWW_DASHED1
 62
   120
370
     5
100
AcDbLine
 10
689.2606286555832
 20
-357.0864079382891
 30
0.0
 11
722.0006782846275
 21
-324.3463583092465
 31
0.0
  0
LINE
  5
156
330
1F
100
AcDbEntity
  8
0-0
  6
JWW_DASHED1
 62
   120
370
     5
100
AcDbLine
 10
682.1895608437234
 20
-357.0864079382831
 30
0.0
 11
722.0006782846207
 21
-317.275290497385
 31
0.0
  0
LINE
  5
157
330
1F
100
AcDbEntity
  8
0-0
  6
JWW_DASHED1
 62
   120
370
     5
100
AcDbLine
 10
675.1184930318465
 20
-357.086407938292
 30
0.0
 11
722.0006782846309
 21
-310.2042226855093
 31
0.0
  0
LINE
  5
158
330
1F
100
AcDbEntity
  8
0-0
  6
JWW_DASHED1
 62
   120
370
     5
100
AcDbLine
 10
668.0474252199866
 20
-357.0864079382874
 30
0.0
 11
722.0006782846241
 21
-303.1331548736486
 31
0.0
  0
LINE
  5
159
330
1F
100
AcDbEntity
  8
0-0
  6
JWW_DASHED1
 62
   120
370
     5
100
AcDbLine
 10
660.9763574081268
 20
-357.0864079382814
 30
0.0
 11
722.0006782846207
 21
-296.0620870617867
 31
0.0
  0
LINE
  5
15A
330
1F
100
AcDbEntity
  8
0-0
  6
JWW_DASHED1
 62
   120
370
     5
100
AcDbLine
 10
653.9052895962499
 20
-357.0864079382899
 30
0.0
 11
722.0006782846275
 21
-288.991019249911
 31
0.0
  0
LINE
  5
15B
330
1F
100
AcDbEntity
  8
0-0
  6
JWW_DASHED1
 62
   120
370
     5
100
AcDbLine
 10
646.8342217843866
 20
-357.0864079382861
 30
0.0
 11
722.0006782846241
 21
-281.9199514380503
 31
0.0
  0
LINE
  5
15C
330
1F
100
AcDbEntity
  8
0-0
  6
JWW_DASHED1
 62
   120
370
     5
100
AcDbLine
 10
639.7631539725097
 20
-357.0864079382959
 30
0.0
 11
722.0006782846309
 21
-274.8488836261738
 31
0.0
  0
LINE
  5
15D
330
1F
100
AcDbEntity
  8
0-0
  6
JWW_DASHED1
 62
   120
370
     5
100
AcDbLine
 10
632.6920861606533
 20
-357.0864079382882
 30
0.0
 11
722.0006782846275
 21
-267.7778158143132
 31
0.0
  0
LINE
  5
15E
330
1F
100
AcDbEntity
  8
0-0
  6
JWW_DASHED1
 62
   120
370
     5
100
AcDbLine
 10
625.6210183487866
 20
-357.0864079382848
 30
0.0
 11
722.0006782846207
 21
-260.706748002452
 31
0.0
  0
LINE
  5
15F
330
1F
100
AcDbEntity
  8
0-0
  6
JWW_DASHED1
 62
   120
370
     5
100
AcDbLine
 10
618.5499505369131
 20
-357.086407938295
 30
0.0
 11
722.0006782846309
 21
-253.6356801905755
 31
0.0
  0
LINE
  5
160
330
1F
100
AcDbEntity
  8
0-0
  6
JWW_DASHED1
 62
   120
370
     5
100
AcDbLine
 10
611.4788827250533
 20
-357.0864079382865
 30
0.0
 11
722.0006782846275
 21
-246.5646123787131
 31
0.0
  0
LINE
  5
161
330
1F
100
AcDbEntity
  8
0-0
  6
JWW_DASHED1
 62
   120
370
     5
100
AcDbLine
 10
604.4078149132343
 20
-357.086407938292
 30
0.0
 11
722.0006782846309
 21
-239.4935445668972
 31
0.0
  0
LINE
  5
162
330
1F
100
AcDbEntity
  8
0-0
  6
JWW_DASHED1
 62
   120
370
     5
100
AcDbLine
 10
597.3367471013711
 20
-357.0864079382895
 30
0.0
 11
722.0006782846241
 21
-232.4224767550365
 31
0.0
  0
LINE
  5
163
330
1F
100
AcDbEntity
  8
0-0
  6
JWW_DASHED1
 62
   120
370
     5
100
AcDbLine
 10
590.2656792895112
 20
-357.0864079382835
 30
0.0
 11
722.0006782846207
 21
-225.3514089431732
 31
0.0
  0
LINE
  5
164
330
1F
100
AcDbEntity
  8
0-0
  6
JWW_DASHED1
 62
   120
370
     5
100
AcDbLine
 10
583.1946114776377
 20
-357.0864079382899
 30
0.0
 11
722.0006782846275
 21
-218.2803411312989
 31
0.0
  0
LINE
  5
165
330
1F
100
AcDbEntity
  8
0-0
  6
JWW_DASHED1
 62
   120
370
     5
100
AcDbLine
 10
576.1235436657745
 20
-357.0864079382882
 30
0.0
 11
722.0006782846241
 21
-211.2092733194382
 31
0.0
  0
LINE
  5
166
330
1F
100
AcDbEntity
  8
0-0
  6
JWW_DASHED1
 62
   120
370
     5
100
AcDbLine
 10
569.0524758538942
 20
-357.086407938298
 30
0.0
 11
722.0006782846309
 21
-204.1382055075617
 31
0.0
  0
LINE
  5
167
330
1F
100
AcDbEntity
  8
0-0
  6
JWW_DASHED1
 62
   120
370
     5
100
AcDbLine
 10
561.9814080420412
 20
-357.0864079382882
 30
0.0
 11
722.0006782846275
 21
-197.067137695701
 31
0.0
  0
LINE
  5
168
330
1F
100
AcDbEntity
  8
0-0
  6
JWW_DASHED1
 62
   120
370
     5
100
AcDbLine
 10
554.9103402301745
 20
-357.0864079382865
 30
0.0
 11
722.0006782846207
 21
-189.9960698838399
 31
0.0
  0
LINE
  5
169
330
1F
100
AcDbEntity
  8
0-0
  6
JWW_DASHED1
 62
   120
370
     5
100
AcDbLine
 10
547.8392724182976
 20
-357.0864079382967
 30
0.0
 11
722.0006782846309
 21
-182.9250020719634
 31
0.0
  0
LINE
  5
16A
330
1F
100
AcDbEntity
  8
0-0
  6
JWW_DASHED1
 62
   120
370
     5
100
AcDbLine
 10
540.7682046064411
 20
-357.0864079382865
 30
0.0
 11
722.0006782846275
 21
-175.8539342600997
 31
0.0
  0
LINE
  5
16B
330
1F
100
AcDbEntity
  8
0-0
  6
JWW_DASHED1
 62
   120
370
     5
100
AcDbLine
 10
533.6971367945745
 20
-357.0864079382857
 30
0.0
 11
722.0006782846173
 21
-168.782866448242
 31
0.0
  0
LINE
  5
16C
330
1F
100
AcDbEntity
  8
0-0
  6
JWW_DASHED1
 62
   120
370
     5
100
AcDbLine
 10
526.626068982701
 20
-357.086407938295
 30
0.0
 11
722.0006782846309
 21
-161.7117986363651
 31
0.0
  0
LINE
  5
16D
330
1F
100
AcDbEntity
  8
0-0
  6
JWW_DASHED1
 62
   120
370
     5
100
AcDbLine
 10
519.5550011708377
 20
-357.0864079382899
 30
0.0
 11
722.0006782846241
 21
-154.6407308245014
 31
0.0
  0
LINE
  5
16E
330
1F
100
AcDbEntity
  8
0-0
  6
JWW_DASHED1
 62
   120
370
     5
100
AcDbLine
 10
512.4839333589745
 20
-357.0864079382844
 30
0.0
 11
722.0006782846173
 21
-147.5696630126437
 31
0.0
  0
LINE
  5
16F
330
1F
100
AcDbEntity
  8
0-0
  6
JWW_DASHED1
 62
   120
370
     5
100
AcDbLine
 10
505.412865547101
 20
-357.0864079382942
 30
0.0
 11
722.0006782846275
 21
-140.4985952007672
 31
0.0
  0
LINE
  5
170
330
1F
100
AcDbEntity
  8
0-0
  6
JWW_DASHED1
 62
   120
370
     5
100
AcDbLine
 10
498.3417977352411
 20
-357.0864079382882
 30
0.0
 11
722.0006782846241
 21
-133.4275273889027
 31
0.0
  0
LINE
  5
171
330
1F
100
AcDbEntity
  8
0-0
  6
JWW_DASHED1
 62
   120
370
     5
100
AcDbLine
 10
491.2707299233779
 20
-357.0864079382831
 30
0.0
 11
722.0006782846139
 21
-126.3564595770458
 31
0.0
  0
LINE
  5
172
330
1F
100
AcDbEntity
  8
0-0
  6
JWW_DASHED1
 62
   120
370
     5
100
AcDbLine
 10
484.199662111501
 20
-357.0864079382925
 30
0.0
 11
722.0006782846241
 21
-119.2853917651689
 31
0.0
  0
LINE
  5
173
330
1F
100
AcDbEntity
  8
0-0
  6
JWW_DASHED1
 62
   120
370
     5
100
AcDbLine
 10
477.1285942996411
 20
-357.0864079382874
 30
0.0
 11
722.0006782846241
 21
-112.2143239533044
 31
0.0
  0
LINE
  5
174
330
1F
100
AcDbEntity
  8
0-0
  6
JWW_DASHED1
 62
   120
370
     5
100
AcDbLine
 10
470.057526487771
 20
-357.0864079382908
 30
0.0
 11
722.0006782846309
 21
-105.1432561414317
 31
0.0
  0
LINE
  5
175
330
1F
100
AcDbEntity
  8
0-0
  6
JWW_DASHED1
 62
   120
370
     5
100
AcDbLine
 10
462.986458675901
 20
-357.0864079382916
 30
0.0
 11
722.0006782846241
 21
-98.07218832957105
 31
0.0
  0
LINE
  5
176
330
1F
100
AcDbEntity
  8
0-0
  6
JWW_DASHED1
 62
   120
370
     5
100
AcDbLine
 10
448.844323052171
 20
-357.0864079382886
 30
0.0
 11
722.0006782846275
 21
-83.93005270583345
 31
0.0
  0
LINE
  5
177
330
1F
100
AcDbEntity
  8
0-0
  6
JWW_DASHED1
 62
   120
370
     5
100
AcDbLine
 10
441.7732552403044
 20
-357.0864079382903
 30
0.0
 11
722.0006782846207
 21
-76.85898489397275
 31
0.0
  0
LINE
  5
178
330
1F
100
AcDbEntity
  8
0-0
  6
JWW_DASHED1
 62
   120
370
     5
100
AcDbLine
 10
434.7021874284275
 20
-357.0864079383001
 30
0.0
 11
722.0006782846309
 21
-69.78791708209584
 31
0.0
  0
LINE
  5
179
330
1F
100
AcDbEntity
  8
0-0
  6
JWW_DASHED1
 62
   120
370
     5
100
AcDbLine
 10
427.6311196165744
 20
-357.0864079382869
 30
0.0
 11
722.0006782846241
 21
-62.71684927023557
 31
0.0
  0
LINE
  5
17A
330
1F
100
AcDbEntity
  8
0-0
  6
JWW_DASHED1
 62
   120
370
     5
100
AcDbLine
 10
420.5600518047044
 20
-357.0864079382891
 30
0.0
 11
722.0006782846173
 21
-55.64578145837487
 31
0.0
  0
LINE
  5
17B
330
1F
100
AcDbEntity
  8
0-0
  6
JWW_DASHED1
 62
   120
370
     5
100
AcDbLine
 10
413.4889839928275
 20
-357.0864079382993
 30
0.0
 11
722.0006782846309
 21
-48.5747136464984
 31
0.0
  0
LINE
  5
17C
330
1F
100
AcDbEntity
  8
0-0
  6
JWW_DASHED1
 62
   120
370
     5
100
AcDbLine
 10
406.4179161809744
 20
-357.0864079382848
 30
0.0
 11
722.0006782846275
 21
-41.50364583463215
 31
0.0
  0
LINE
  5
17D
330
1F
100
AcDbEntity
  8
0-0
  6
JWW_DASHED1
 62
   120
370
     5
100
AcDbLine
 10
399.3468483691078
 20
-357.0864079382878
 30
0.0
 11
722.0006782846173
 21
-34.43257802277657
 31
0.0
  0
LINE
  5
17E
330
1F
100
AcDbEntity
  8
0-0
  6
JWW_DASHED1
 62
   120
370
     5
100
AcDbLine
 10
392.2757805572274
 20
-357.086407938298
 30
0.0
 11
722.0006782846275
 21
-27.36151021090009
 31
0.0
  0
LINE
  5
17F
330
1F
100
AcDbEntity
  8
0-0
  6
JWW_DASHED1
 62
   120
370
     5
100
AcDbLine
 10
385.2047127453676
 20
-357.086407938292
 30
0.0
 11
722.0006782846275
 21
-20.29044239903385
 31
0.0
  0
LINE
  5
180
330
1F
100
AcDbEntity
  8
0-0
  6
JWW_DASHED1
 62
   120
370
     5
100
AcDbLine
 10
378.1336449335078
 20
-357.0864079382865
 30
0.0
 11
722.0006782846173
 21
-13.21937458717869
 31
0.0
  0
LINE
  5
181
330
1F
100
AcDbEntity
  8
0-0
  6
JWW_DASHED1
 62
   120
370
     5
100
AcDbLine
 10
371.0625771216309
 20
-357.0864079382967
 30
0.0
 11
722.0006782846241
 21
-6.148306775301791
 31
0.0
  0
LINE
  5
182
330
1F
100
AcDbEntity
  8
0-0
  6
JWW_DASHED1
 62
   120
370
     5
100
AcDbLine
 10
363.9915093098017
 20
-357.0864079382882
 30
0.0
 11
722.0006782846241
 21
0.9227610365350358
 31
0.0
  0
LINE
  5
183
330
1F
100
AcDbEntity
  8
0-0
  6
JWW_DASHED1
 62
   120
370
     5
100
AcDbLine
 10
356.9204414979623
 20
-357.0864079382869
 30
0.0
 11
722.0006782846241
 21
7.993828848376552
 31
0.0
  0
LINE
  5
184
330
1F
100
AcDbEntity
  8
0-0
  6
JWW_DASHED1
 62
   120
370
     5
100
AcDbLine
 10
349.8493736860922
 20
-357.0864079382908
 30
0.0
 11
722.0006782846173
 21
15.06489666023725
 31
0.0
  0
LINE
  5
185
330
1F
100
AcDbEntity
  8
0-0
  6
JWW_DASHED1
 62
   120
370
     5
100
AcDbLine
 10
342.7783058742153
 20
-357.086407938301
 30
0.0
 11
722.0006782846309
 21
22.13596447211373
 31
0.0
  0
LINE
  5
186
330
1F
100
AcDbEntity
  8
0-0
  6
JWW_DASHED1
 62
   120
370
     5
100
AcDbLine
 10
335.7072380623623
 20
-357.0864079382848
 30
0.0
 11
722.0006782846309
 21
29.20703228398125
 31
0.0
  0
LINE
  5
187
330
1F
100
AcDbEntity
  8
0-0
  6
JWW_DASHED1
 62
   120
370
     5
100
AcDbLine
 10
328.6361702504922
 20
-357.0864079382891
 30
0.0
 11
722.0006782846173
 21
36.27810009583555
 31
0.0
  0
LINE
  5
188
330
1F
100
AcDbEntity
  8
0-0
  6
JWW_DASHED1
 62
   120
370
     5
100
AcDbLine
 10
321.5651024386153
 20
-357.0864079382993
 30
0.0
 11
722.0006782846275
 21
43.34916790771203
 31
0.0
  0
LINE
  5
189
330
1F
100
AcDbEntity
  8
0-0
  6
JWW_DASHED1
 62
   120
370
     5
100
AcDbLine
 10
314.4940346267555
 20
-357.0864079382942
 30
0.0
 11
722.0006782846275
 21
50.42023571957955
 31
0.0
  0
LINE
  5
18A
330
1F
100
AcDbEntity
  8
0-0
  6
JWW_DASHED1
 62
   120
370
     5
100
AcDbLine
 10
307.4229668148956
 20
-357.0864079382882
 30
0.0
 11
722.0006782846173
 21
57.49130353143343
 31
0.0
  0
LINE
  5
18B
330
1F
100
AcDbEntity
  8
0-0
  6
JWW_DASHED1
 62
   120
370
     5
100
AcDbLine
 10
300.3518990030153
 20
-357.0864079382984
 30
0.0
 11
722.0006782846241
 21
64.56237134331033
 31
0.0
  0
LINE
  5
18C
330
1F
100
AcDbEntity
  8
0-0
  6
JWW_DASHED1
 62
   120
370
     5
100
AcDbLine
 10
293.2808311911555
 20
-357.0864079382925
 30
0.0
 11
722.0006782846275
 21
71.63343915517785
 31
0.0
  0
LINE
  5
18D
330
1F
100
AcDbEntity
  8
0-0
  6
JWW_DASHED1
 62
   120
370
     5
100
AcDbLine
 10
286.2097633792956
 20
-357.0864079382869
 30
0.0
 11
722.0006782846139
 21
78.70450696703173
 31
0.0
  0
LINE
  5
18E
330
1F
100
AcDbEntity
  8
0-0
  6
JWW_DASHED1
 62
   120
370
     5
100
AcDbLine
 10
279.1386955674187
 20
-357.0864079382972
 30
0.0
 11
722.0006782846241
 21
85.77557477890821
 31
0.0
  0
LINE
  5
18F
330
1F
100
AcDbEntity
  8
0-0
  6
JWW_DASHED1
 62
   120
370
     5
100
AcDbLine
 10
272.0676277555555
 20
-357.0864079382912
 30
0.0
 11
722.0006782846241
 21
92.84664259077616
 31
0.0
  0
LINE
  5
190
330
1F
100
AcDbEntity
  8
0-0
  6
JWW_DASHED1
 62
   120
370
     5
100
AcDbLine
 10
264.9965599436922
 20
-357.0864079382891
 30
0.0
 11
722.0006782846275
 21
99.91771040264581
 31
0.0
  0
LINE
  5
191
330
1F
100
AcDbEntity
  8
0-0
  6
JWW_DASHED1
 62
   120
370
     5
100
AcDbLine
 10
257.9254921318187
 20
-357.0864079382959
 30
0.0
 11
722.0006782846207
 21
106.9887782145065
 31
0.0
  0
LINE
  5
192
330
1F
100
AcDbEntity
  8
0-0
  6
JWW_DASHED1
 62
   120
370
     5
100
AcDbLine
 10
250.8544243199418
 20
-357.0864079383057
 30
0.0
 11
722.0006782846309
 21
114.059846026383
 31
0.0
  0
LINE
  5
193
330
1F
100
AcDbEntity
  8
0-0
  6
JWW_DASHED1
 62
   120
370
     5
100
AcDbLine
 10
243.7833565080956
 20
-357.0864079382874
 30
0.0
 11
722.0006782846241
 21
121.1309138382441
 31
0.0
  0
LINE
  5
194
330
1F
100
AcDbEntity
  8
0-0
  6
JWW_DASHED1
 62
   120
370
     5
100
AcDbLine
 10
236.7122886962221
 20
-357.0864079382946
 30
0.0
 11
722.0006782846207
 21
128.2019816501048
 31
0.0
  0
LINE
  5
195
330
1F
100
AcDbEntity
  8
0-0
  6
JWW_DASHED1
 62
   120
370
     5
100
AcDbLine
 10
229.6412208843452
 20
-357.0864079383044
 30
0.0
 11
722.0006782846309
 21
135.2730494619813
 31
0.0
  0
LINE
  5
196
330
1F
100
AcDbEntity
  8
0-0
  6
JWW_DASHED1
 62
   120
370
     5
100
AcDbLine
 10
222.5701530724956
 20
-357.0864079382857
 30
0.0
 11
722.0006782846241
 21
142.344117273842
 31
0.0
  0
LINE
  5
197
330
1F
100
AcDbEntity
  8
0-0
  6
JWW_DASHED1
 62
   120
370
     5
100
AcDbLine
 10
215.4990852606221
 20
-357.0864079382933
 30
0.0
 11
722.0006782846173
 21
149.4151850857027
 31
0.0
  0
LINE
  5
198
330
1F
100
AcDbEntity
  8
0-0
  6
JWW_DASHED1
 62
   120
370
     5
100
AcDbLine
 10
208.4280174487452
 20
-357.0864079383027
 30
0.0
 11
722.0006782846275
 21
156.4862528975796
 31
0.0
  0
LINE
  5
199
330
1F
100
AcDbEntity
  8
0-0
  6
JWW_DASHED1
 62
   120
370
     5
100
AcDbLine
 10
201.356949636899
 20
-357.0864079382835
 30
0.0
 11
722.0006782846309
 21
163.5573207094488
 31
0.0
  0
LINE
  5
19A
330
1F
100
AcDbEntity
  8
0-0
  6
JWW_DASHED1
 62
   120
370
     5
100
AcDbLine
 10
194.2858818250221
 20
-357.086407938292
 30
0.0
 11
722.0006782846173
 21
170.628388521301
 31
0.0
  0
LINE
  5
19B
330
1F
100
AcDbEntity
  8
0-0
  6
JWW_DASHED1
 62
   120
370
     5
100
AcDbLine
 10
187.2148140131486
 20
-357.0864079383018
 30
0.0
 11
722.0006782846241
 21
177.6994563331775
 31
0.0
  0
LINE
  5
19C
330
1F
100
AcDbEntity
  8
0-0
  6
JWW_DASHED1
 62
   120
370
     5
100
AcDbLine
 10
180.1437462012854
 20
-357.0864079382959
 30
0.0
 11
722.0006782846309
 21
184.7705241450471
 31
0.0
  0
LINE
  5
19D
330
1F
100
AcDbEntity
  8
0-0
  6
JWW_DASHED1
 62
   120
370
     5
100
AcDbLine
 10
173.0726783894255
 20
-357.0864079382908
 30
0.0
 11
722.0006782846139
 21
191.8415919568993
 31
0.0
  0
LINE
  5
19E
330
1F
100
AcDbEntity
  8
0-0
  6
JWW_DASHED1
 62
   120
370
     5
100
AcDbLine
 10
166.0016105775486
 20
-357.0864079383006
 30
0.0
 11
722.0006782846241
 21
198.9126597687753
 31
0.0
  0
LINE
  5
19F
330
1F
100
AcDbEntity
  8
0-0
  6
JWW_DASHED1
 62
   120
370
     5
100
AcDbLine
 10
158.9305427656888
 20
-357.086407938295
 30
0.0
 11
722.0006782846275
 21
205.9837275806454
 31
0.0
  0
LINE
  5
1A0
330
1F
100
AcDbEntity
  8
0-0
  6
JWW_DASHED1
 62
   120
370
     5
100
AcDbLine
 10
151.8594749538255
 20
-357.0864079382899
 30
0.0
 11
722.0006782846275
 21
213.0547953925129
 31
0.0
  0
LINE
  5
1A1
330
1F
100
AcDbEntity
  8
0-0
  6
JWW_DASHED1
 62
   120
370
     5
100
AcDbLine
 10
144.7884071419486
 20
-357.0864079382993
 30
0.0
 11
722.0006782846241
 21
220.1258632043736
 31
0.0
  0
LINE
  5
1A2
330
1F
100
AcDbEntity
  8
0-0
  6
JWW_DASHED1
 62
   120
370
     5
100
AcDbLine
 10
137.7173393300887
 20
-357.0864079382937
 30
0.0
 11
722.0006782846241
 21
227.1969310162437
 31
0.0
  0
LINE
  5
1A3
330
1F
100
AcDbEntity
  8
0-0
  6
JWW_DASHED1
 62
   120
370
     5
100
AcDbLine
 10
132.0006782846252
 20
-355.7320011718901
 30
0.0
 11
722.0006782846275
 21
234.2679988281112
 31
0.0
  0
LINE
  5
1A4
330
1F
100
AcDbEntity
  8
0-0
  6
JWW_DASHED1
 62
   120
370
     5
100
AcDbLine
 10
132.0006782846355
 20
-348.6609333600142
 30
0.0
 11
722.0006782846207
 21
241.3390666399719
 31
0.0
  0
LINE
  5
1A5
330
1F
100
AcDbEntity
  8
0-0
  6
JWW_DASHED1
 62
   120
370
     5
100
AcDbLine
 10
132.0006782846423
 20
-341.589865548196
 30
0.0
 11
722.0006782846241
 21
248.4101344517896
 31
0.0
  0
LINE
  5
1A6
330
1F
100
AcDbEntity
  8
0-0
  6
JWW_DASHED1
 62
   120
370
     5
100
AcDbLine
 10
132.0006782846355
 20
-334.5187977363354
 30
0.0
 11
722.0006782846309
 21
255.4812022636605
 31
0.0
  0
LINE
  5
1A7
330
1F
100
AcDbEntity
  8
0-0
  6
JWW_DASHED1
 62
   120
370
     5
100
AcDbLine
 10
132.0006782846286
 20
-327.4477299244746
 30
0.0
 11
722.0006782846139
 21
262.552270075511
 31
0.0
  0
LINE
  5
1A8
330
1F
100
AcDbEntity
  8
0-0
  6
JWW_DASHED1
 62
   120
370
     5
100
AcDbLine
 10
132.0006782846389
 20
-320.3766621125977
 30
0.0
 11
722.0006782846241
 21
269.6233378873879
 31
0.0
  0
LINE
  5
1A9
330
1F
100
AcDbEntity
  8
0-0
  6
JWW_DASHED1
 62
   120
370
     5
100
AcDbLine
 10
132.000678284632
 20
-313.3055943007366
 30
0.0
 11
722.0006782846309
 21
276.6944056992588
 31
0.0
  0
LINE
  5
1AA
330
1F
100
AcDbEntity
  8
0-0
  6
JWW_DASHED1
 62
   120
370
     5
100
AcDbLine
 10
132.0006782846286
 20
-306.2345264888763
 30
0.0
 11
722.0006782846275
 21
283.765473511125
 31
0.0
  0
LINE
  5
1AB
330
1F
100
AcDbEntity
  8
0-0
  6
JWW_DASHED1
 62
   120
370
     5
100
AcDbLine
 10
132.0006782846355
 20
-299.1634586769994
 30
0.0
 11
722.0006782846241
 21
290.8365413229858
 31
0.0
  0
LINE
  5
1AC
330
1F
100
AcDbEntity
  8
0-0
  6
JWW_DASHED1
 62
   120
370
     5
100
AcDbLine
 10
132.000678284632
 20
-292.0923908651379
 30
0.0
 11
722.0006782846275
 21
297.9076091348571
 31
0.0
  0
LINE
  5
1AD
330
1F
100
AcDbEntity
  8
0-0
  6
JWW_DASHED1
 62
   120
370
     5
100
AcDbLine
 10
132.0006782846252
 20
-285.021323053278
 30
0.0
 11
722.0006782846275
 21
304.9786769467233
 31
0.0
  0
LINE
  5
1AE
330
1F
100
AcDbEntity
  8
0-0
  6
JWW_DASHED1
 62
   120
370
     5
100
AcDbLine
 10
132.0006782846355
 20
-277.9502552414016
 30
0.0
 11
722.0006782846207
 21
312.0497447585841
 31
0.0
  0
LINE
  5
1AF
330
1F
100
AcDbEntity
  8
0-0
  6
JWW_DASHED1
 62
   120
370
     5
100
AcDbLine
 10
132.0006782846457
 20
-270.8791874295251
 30
0.0
 11
722.0006782846309
 21
319.1208125704605
 31
0.0
  0
LINE
  5
1B0
330
1F
100
AcDbEntity
  8
0-0
  6
JWW_DASHED1
 62
   120
370
     5
100
AcDbLine
 10
132.0006782846218
 20
-263.8081196176797
 30
0.0
 11
722.0006782846241
 21
326.1918803823212
 31
0.0
  0
LINE
  5
1B1
330
1F
100
AcDbEntity
  8
0-0
  6
JWW_DASHED1
 62
   120
370
     5
100
AcDbLine
 10
132.000678284632
 20
-256.7370518058037
 30
0.0
 11
722.0006782846173
 21
333.2629481941824
 31
0.0
  0
LINE
  5
1B2
330
1F
100
AcDbEntity
  8
0-0
  6
JWW_DASHED1
 62
   120
370
     5
100
AcDbLine
 10
132.0006782846423
 20
-249.6659839939268
 30
0.0
 11
722.0006782846275
 21
340.3340160060588
 31
0.0
  0
LINE
  5
1B3
330
1F
100
AcDbEntity
  8
0-0
  6
JWW_DASHED1
 62
   120
370
     5
100
AcDbLine
 10
132.0006782846218
 20
-242.5949161820797
 30
0.0
 11
722.0006782846343
 21
347.4050838179311
 31
0.0
  0
LINE
  5
1B4
330
1F
100
AcDbEntity
  8
0-0
  6
JWW_DASHED1
 62
   120
370
     5
100
AcDbLine
 10
132.0006782846286
 20
-235.5238483702054
 30
0.0
 11
722.0006782846173
 21
354.4761516297802
 31
0.0
  0
LINE
  5
1B5
330
1F
100
AcDbEntity
  8
0-0
  6
JWW_DASHED1
 62
   120
370
     5
100
AcDbLine
 10
132.0006782846423
 20
-228.4527805583289
 30
0.0
 11
722.0006782846275
 21
361.5472194416567
 31
0.0
  0
LINE
  5
1B6
330
1F
100
AcDbEntity
  8
0-0
  6
JWW_DASHED1
 62
   120
370
     5
100
AcDbLine
 10
132.0006782846355
 20
-221.3817127464661
 30
0.0
 11
722.0006782846309
 21
368.6182872535294
 31
0.0
  0
LINE
  5
1B7
330
1F
100
AcDbEntity
  8
0-0
  6
JWW_DASHED1
 62
   120
370
     5
100
AcDbLine
 10
132.0006782846286
 20
-214.3106449346071
 30
0.0
 11
722.0006782846139
 21
375.6893550653785
 31
0.0
  0
LINE
  5
1B8
330
1F
100
AcDbEntity
  8
0-0
  6
JWW_DASHED1
 62
   120
370
     5
100
AcDbLine
 10
132.0006782846389
 20
-207.239577122731
 30
0.0
 11
722.0006782846241
 21
382.760422877255
 31
0.0
  0
LINE
  5
1B9
330
1F
100
AcDbEntity
  8
0-0
  6
JWW_DASHED1
 62
   120
370
     5
100
AcDbLine
 10
132.0006782846355
 20
-200.1685093108674
 30
0.0
 11
722.0006782846309
 21
389.8314906891281
 31
0.0
  0
LINE
  5
1BA
330
1F
100
AcDbEntity
  8
0-0
  6
JWW_DASHED1
 62
   120
370
     5
100
AcDbLine
 10
132.0006782846286
 20
-193.0974414990092
 30
0.0
 11
722.0006782846139
 21
396.9025585009764
 31
0.0
  0
LINE
  5
1BB
330
1F
100
AcDbEntity
  8
0-0
  6
JWW_DASHED1
 62
   120
370
     5
100
AcDbLine
 10
132.0006782846355
 20
-186.0263736871327
 30
0.0
 11
722.0006782846241
 21
403.9736263128533
 31
0.0
  0
LINE
  5
1BC
330
1F
100
AcDbEntity
  8
0-0
  6
JWW_DASHED1
 62
   120
370
     5
100
AcDbLine
 10
132.0006782846355
 20
-178.9553058752686
 30
0.0
 11
722.0006782846309
 21
411.0446941247264
 31
0.0
  0
LINE
  5
1BD
330
1F
100
AcDbEntity
  8
0-0
  6
JWW_DASHED1
 62
   120
370
     5
100
AcDbLine
 10
132.0006782846252
 20
-171.8842380634113
 30
0.0
 11
722.0006782846275
 21
418.1157619365905
 31
0.0
  0
LINE
  5
1BE
330
1F
100
AcDbEntity
  8
0-0
  6
JWW_DASHED1
 62
   120
370
     5
100
AcDbLine
 10
132.0006782846355
 20
-164.8131702515344
 30
0.0
 11
722.0006782846207
 21
425.1868297484512
 31
0.0
  0
LINE
  5
1BF
330
1F
100
AcDbEntity
  8
0-0
  6
JWW_DASHED1
 62
   120
370
     5
100
AcDbLine
 10
132.000678284632
 20
-157.7421024396703
 30
0.0
 11
722.0006782846275
 21
432.2578975603251
 31
0.0
  0
LINE
  5
1C0
330
1F
100
AcDbEntity
  8
0-0
  6
JWW_DASHED1
 62
   120
370
     5
100
AcDbLine
 10
132.0006782846218
 20
-150.671034627813
 30
0.0
 11
722.0006782846241
 21
439.3289653721883
 31
0.0
  0
LINE
  5
1C1
330
1F
100
AcDbEntity
  8
0-0
  6
JWW_DASHED1
 62
   120
370
     5
100
AcDbLine
 10
132.0006782846355
 20
-143.5999668159361
 30
0.0
 11
722.0006782846173
 21
446.4000331840495
 31
0.0
  0
LINE
  5
1C2
330
1F
100
AcDbEntity
  8
0-0
  6
JWW_DASHED1
 62
   120
370
     5
100
AcDbLine
 10
132.0006782846423
 20
-136.5288990040597
 30
0.0
 11
722.0006782846309
 21
453.471100995926
 31
0.0
  0
LINE
  5
1C3
330
1F
100
AcDbEntity
  8
0-0
  6
JWW_DASHED1
 62
   120
370
     5
100
AcDbLine
 10
132.0006782846218
 20
-129.4578311922147
 30
0.0
 11
722.0006782846241
 21
460.5421688077867
 31
0.0
  0
LINE
  5
1C4
330
1F
100
AcDbEntity
  8
0-0
  6
JWW_DASHED1
 62
   120
370
     5
100
AcDbLine
 10
132.000678284632
 20
-122.3867633803383
 30
0.0
 11
722.0006782846173
 21
467.6132366196474
 31
0.0
  0
LINE
  5
1C5
330
1F
100
AcDbEntity
  8
0-0
  6
JWW_DASHED1
 62
   120
370
     5
100
AcDbLine
 10
132.0006782846423
 20
-115.3156955684618
 30
0.0
 11
722.0006782846275
 21
474.6843044315243
 31
0.0
  0
LINE
  5
1C6
330
1F
100
AcDbEntity
  8
0-0
  6
JWW_DASHED1
 62
   120
370
     5
100
AcDbLine
 10
132.0006782846355
 20
-108.2446277566258
 30
0.0
 11
722.0006782846309
 21
481.7553722433692
 31
0.0
  0
LINE
  5
1C7
330
1F
100
AcDbEntity
  8
0-0
  6
JWW_DASHED1
 62
   120
370
     5
100
AcDbLine
 10
132.0006782846252
 20
-101.1735599447992
 30
0.0
 11
722.0006782846275
 21
488.8264400552026
 31
0.0
  0
LINE
  5
1C8
330
1F
100
AcDbEntity
  8
0-0
  6
JWW_DASHED1
 62
   120
370
     5
100
AcDbLine
 10
132.0006782846355
 20
-94.10249213292232
 30
0.0
 11
722.0006782846207
 21
495.8975078670633
 31
0.0
  0
LINE
  5
1C9
330
1F
100
AcDbEntity
  8
0-0
  6
JWW_DASHED1
 62
   120
370
     5
100
AcDbLine
 10
132.0006782846355
 20
-87.03142432105736
 30
0.0
 11
722.0006782846309
 21
502.9685756789381
 31
0.0
  0
LINE
  5
1CA
330
1F
100
AcDbEntity
  8
0-0
  6
JWW_DASHED1
 62
   120
370
     5
100
AcDbLine
 10
132.0006782846218
 20
-79.96035650920092
 30
0.0
 11
722.0006782846241
 21
510.0396434908005
 31
0.0
  0
LINE
  5
1CB
330
1F
100
AcDbEntity
  8
0-0
  6
JWW_DASHED1
 62
   120
370
     5
100
AcDbLine
 10
132.0006782846355
 20
-72.88928869732402
 30
0.0
 11
722.0006782846173
 21
517.1107113026617
 31
0.0
  0
LINE
  5
1CC
330
1F
100
AcDbEntity
  8
0-0
  6
JWW_DASHED1
 62
   120
370
     5
100
AcDbLine
 10
132.0006782846423
 20
-65.81822088544754
 30
0.0
 11
722.0006782846309
 21
524.1817791145381
 31
0.0
  0
LINE
  5
1CD
330
1F
100
AcDbEntity
  8
0-0
  6
JWW_DASHED1
 62
   120
370
     5
100
AcDbLine
 10
132.0006782846218
 20
-58.74715307360262
 30
0.0
 11
722.0006782846241
 21
531.2528469263988
 31
0.0
  0
LINE
  5
1CE
330
1F
100
AcDbEntity
  8
0-0
  6
JWW_DASHED1
 62
   120
370
     5
100
AcDbLine
 10
132.000678284632
 20
-51.67608526172614
 30
0.0
 11
722.0006782846173
 21
538.3239147382595
 31
0.0
  0
LINE
  5
1CF
330
1F
100
AcDbEntity
  8
0-0
  6
JWW_DASHED1
 62
   120
370
     5
100
AcDbLine
 10
132.0006782846423
 20
-44.60501744984967
 30
0.0
 11
722.0006782846275
 21
545.3949825501364
 31
0.0
  0
LINE
  5
1D0
330
1F
100
AcDbEntity
  8
0-0
  6
JWW_DASHED1
 62
   120
370
     5
100
AcDbLine
 10
132.0006782846252
 20
-37.5339496379992
 30
0.0
 11
722.0006782846377
 21
552.4660503620116
 31
0.0
  0
LINE
  5
1D1
330
1F
100
AcDbEntity
  8
0-0
  6
JWW_DASHED1
 62
   120
370
     5
100
AcDbLine
 10
132.0006782846286
 20
-30.46288182612784
 30
0.0
 11
722.0006782846173
 21
559.5371181738578
 31
0.0
  0
LINE
  5
1D2
330
1F
100
AcDbEntity
  8
0-0
  6
JWW_DASHED1
 62
   120
370
     5
100
AcDbLine
 10
132.0006782846389
 20
-23.39181401425137
 30
0.0
 11
722.0006782846241
 21
566.6081859857343
 31
0.0
  0
LINE
  5
1D3
330
1F
100
AcDbEntity
  8
0-0
  6
JWW_DASHED1
 62
   120
370
     5
100
AcDbLine
 10
132.0006782846389
 20
-16.3207462023847
 30
0.0
 11
722.0006782846343
 21
573.6792537976103
 31
0.0
  0
LINE
  5
1D4
330
1F
100
AcDbEntity
  8
0-0
  6
JWW_DASHED1
 62
   120
370
     5
100
AcDbLine
 10
132.0006782846286
 20
-9.249678390529965
 30
0.0
 11
722.0006782846139
 21
580.7503216094561
 31
0.0
  0
LINE
  5
1D5
330
1F
100
AcDbEntity
  8
0-0
  6
JWW_DASHED1
 62
   120
370
     5
100
AcDbLine
 10
132.0006782846389
 20
-2.178610578653064
 30
0.0
 11
722.0006782846241
 21
587.8213894213326
 31
0.0
  0
LINE
  5
1D6
330
1F
100
AcDbEntity
  8
0-0
  6
JWW_DASHED1
 62
   120
370
     5
100
AcDbLine
 10
132.0006782846389
 20
4.892457233213605
 30
0.0
 11
722.0006782846309
 21
594.8924572332087
 31
0.0
  0
LINE
  5
1D7
330
1F
100
AcDbEntity
  8
0-0
  6
JWW_DASHED1
 62
   120
370
     5
100
AcDbLine
 10
132.0006782846252
 20
11.96352504506834
 30
0.0
 11
722.0006782846104
 21
601.963525045054
 31
0.0
  0
LINE
  5
1D8
330
1F
100
AcDbEntity
  8
0-0
  6
JWW_DASHED1
 62
   120
370
     5
100
AcDbLine
 10
132.0006782846355
 20
19.03459285694524
 30
0.0
 11
722.0006782846207
 21
609.0345928569309
 31
0.0
  0
LINE
  5
1D9
330
1F
100
AcDbEntity
  8
0-0
  6
JWW_DASHED1
 62
   120
370
     5
100
AcDbLine
 10
132.0006782846355
 20
26.10566066881191
 30
0.0
 11
722.0006782846309
 21
616.1056606688073
 31
0.0
  0
LINE
  5
1DA
330
1F
100
AcDbEntity
  8
0-0
  6
JWW_DASHED1
 62
   120
370
     5
100
AcDbLine
 10
132.0006782846252
 20
33.17672848066664
 30
0.0
 11
716.7375418656712
 21
617.9135920617135
 31
0.0
  0
LINE
  5
1DB
330
1F
100
AcDbEntity
  8
0-0
  6
JWW_DASHED1
 62
   120
370
     5
100
AcDbLine
 10
132.0006782846355
 20
40.24779629254269
 30
0.0
 11
709.6664740538114
 21
617.9135920617186
 31
0.0
  0
LINE
  5
1DC
330
1F
100
AcDbEntity
  8
0-0
  6
JWW_DASHED1
 62
   120
370
     5
100
AcDbLine
 10
132.0006782846423
 20
47.31886410441959
 30
0.0
 11
702.5954062419311
 21
617.9135920617089
 31
0.0
  0
LINE
  5
1DD
330
1F
100
AcDbEntity
  8
0-0
  6
JWW_DASHED1
 62
   120
370
     5
100
AcDbLine
 10
132.0006782846218
 20
54.38993191626494
 30
0.0
 11
695.5243384300712
 21
617.9135920617152
 31
0.0
  0
LINE
  5
1DE
330
1F
100
AcDbEntity
  8
0-0
  6
JWW_DASHED1
 62
   120
370
     5
100
AcDbLine
 10
132.000678284632
 20
61.46099972814099
 30
0.0
 11
688.4532706182114
 21
617.9135920617204
 31
0.0
  0
LINE
  5
1DF
330
1F
100
AcDbEntity
  8
0-0
  6
JWW_DASHED1
 62
   120
370
     5
100
AcDbLine
 10
132.0006782846423
 20
68.53206754001789
 30
0.0
 11
681.3822028063345
 21
617.9135920617101
 31
0.0
  0
LINE
  5
1E0
330
1F
100
AcDbEntity
  8
0-0
  6
JWW_DASHED1
 62
   120
370
     5
100
AcDbLine
 10
132.0006782846218
 20
75.60313535186239
 30
0.0
 11
674.3111349944746
 21
617.9135920617169
 31
0.0
  0
LINE
  5
1E1
330
1F
100
AcDbEntity
  8
0-0
  6
JWW_DASHED1
 62
   120
370
     5
100
AcDbLine
 10
132.0006782846286
 20
82.67420316373929
 30
0.0
 11
667.2400671826114
 21
617.9135920617216
 31
0.0
  0
LINE
  5
1E2
330
1F
100
AcDbEntity
  8
0-0
  6
JWW_DASHED1
 62
   120
370
     5
100
AcDbLine
 10
132.0006782846389
 20
89.74527097561577
 30
0.0
 11
660.1689993707345
 21
617.9135920617109
 31
0.0
  0
LINE
  5
1E3
330
1F
100
AcDbEntity
  8
0-0
  6
JWW_DASHED1
 62
   120
370
     5
100
AcDbLine
 10
132.0006782846252
 20
96.81633878746837
 30
0.0
 11
653.097931558861
 21
617.9135920617033
 31
0.0
  0
LINE
  5
1E4
330
1F
100
AcDbEntity
  8
0-0
  6
JWW_DASHED1
 62
   120
370
     5
100
AcDbLine
 10
132.0006782846286
 20
103.8874065993376
 30
0.0
 11
646.0268637470148
 21
617.9135920617229
 31
0.0
  0
LINE
  5
1E5
330
1F
100
AcDbEntity
  8
0-0
  6
JWW_DASHED1
 62
   120
370
     5
100
AcDbLine
 10
132.0006782846389
 20
110.9584744112145
 30
0.0
 11
638.9557959351379
 21
617.9135920617126
 31
0.0
  0
LINE
  5
1E6
330
1F
100
AcDbEntity
  8
0-0
  6
JWW_DASHED1
 62
   120
370
     5
100
AcDbLine
 10
132.0006782846423
 20
118.0295422230829
 30
0.0
 11
631.884728123261
 21
617.9135920617024
 31
0.0
  0
LINE
  5
1E7
330
1F
100
AcDbEntity
  8
0-0
  6
JWW_DASHED1
 62
   120
370
     5
100
AcDbLine
 10
132.0006782846286
 20
125.1006100349359
 30
0.0
 11
624.8136603114148
 21
617.9135920617238
 31
0.0
  0
LINE
  5
1E8
330
1F
100
AcDbEntity
  8
0-0
  6
JWW_DASHED1
 62
   120
370
     5
100
AcDbLine
 10
132.0006782846355
 20
132.1716778468119
 30
0.0
 11
617.7425924995379
 21
617.9135920617135
 31
0.0
  0
LINE
  5
1E9
330
1F
100
AcDbEntity
  8
0-0
  6
JWW_DASHED1
 62
   120
370
     5
100
AcDbLine
 10
132.0006782846355
 20
139.2427456586513
 30
0.0
 11
610.6715246876917
 21
617.9135920617058
 31
0.0
  0
LINE
  5
1EA
330
1F
100
AcDbEntity
  8
0-0
  6
JWW_DASHED1
 62
   120
370
     5
100
AcDbLine
 10
132.0006782846218
 20
146.3138134704745
 30
0.0
 11
603.6004568758625
 21
617.9135920617169
 31
0.0
  0
LINE
  5
1EB
330
1F
100
AcDbEntity
  8
0-0
  6
JWW_DASHED1
 62
   120
370
     5
100
AcDbLine
 10
132.0006782846286
 20
153.3848812823514
 30
0.0
 11
596.5293890639992
 21
617.9135920617194
 31
0.0
  0
LINE
  5
1EC
330
1F
100
AcDbEntity
  8
0-0
  6
JWW_DASHED1
 62
   120
370
     5
100
AcDbLine
 10
132.0006782846389
 20
160.4559490942279
 30
0.0
 11
589.4583212521223
 21
617.9135920617092
 31
0.0
  0
LINE
  5
1ED
330
1F
100
AcDbEntity
  8
0-0
  6
JWW_DASHED1
 62
   120
370
     5
100
AcDbLine
 10
132.0006782846286
 20
167.5270169060813
 30
0.0
 11
582.3872534402489
 21
617.9135920617033
 31
0.0
  0
LINE
  5
1EE
330
1F
100
AcDbEntity
  8
0-0
  6
JWW_DASHED1
 62
   120
370
     5
100
AcDbLine
 10
132.0006782846286
 20
174.5980847179497
 30
0.0
 11
575.3161856283992
 21
617.9135920617211
 31
0.0
  0
LINE
  5
1EF
330
1F
100
AcDbEntity
  8
0-0
  6
JWW_DASHED1
 62
   120
370
     5
100
AcDbLine
 10
132.0006782846389
 20
181.6691525298262
 30
0.0
 11
568.2451178165223
 21
617.9135920617109
 31
0.0
  0
LINE
  5
1F0
330
1F
100
AcDbEntity
  8
0-0
  6
JWW_DASHED1
 62
   120
370
     5
100
AcDbLine
 10
132.0006782846423
 20
188.7402203416958
 30
0.0
 11
561.1740500046454
 21
617.9135920617007
 31
0.0
  0
LINE
  5
1F1
330
1F
100
AcDbEntity
  8
0-0
  6
JWW_DASHED1
 62
   120
370
     5
100
AcDbLine
 10
132.0006782846252
 20
195.8112881535476
 30
0.0
 11
554.1029821927992
 21
617.9135920617225
 31
0.0
  0
LINE
  5
1F2
330
1F
100
AcDbEntity
  8
0-0
  6
JWW_DASHED1
 62
   120
370
     5
100
AcDbLine
 10
132.0006782846355
 20
202.8823559654241
 30
0.0
 11
547.0319143809257
 21
617.9135920617118
 31
0.0
  0
LINE
  5
1F3
330
1F
100
AcDbEntity
  8
0-0
  6
JWW_DASHED1
 62
   120
370
     5
100
AcDbLine
 10
132.0006782846389
 20
209.9534237772941
 30
0.0
 11
539.9608465690454
 21
617.9135920617016
 31
0.0
  0
LINE
  5
1F4
330
1F
100
AcDbEntity
  8
0-0
  6
JWW_DASHED1
 62
   120
370
     5
100
AcDbLine
 10
132.0006782846252
 20
217.0244915891459
 30
0.0
 11
532.8897787571924
 21
617.9135920617126
 31
0.0
  0
LINE
  5
1F5
330
1F
100
AcDbEntity
  8
0-0
  6
JWW_DASHED1
 62
   120
370
     5
100
AcDbLine
 10
132.0006782846355
 20
224.0955594010224
 30
0.0
 11
525.8187109453257
 21
617.9135920617135
 31
0.0
  0
LINE
  5
1F6
330
1F
100
AcDbEntity
  8
0-0
  6
JWW_DASHED1
 62
   120
370
     5
100
AcDbLine
 10
132.0006782846389
 20
231.1666272128929
 30
0.0
 11
518.7476431334488
 21
617.9135920617033
 31
0.0
  0
LINE
  5
1F7
330
1F
100
AcDbEntity
  8
0-0
  6
JWW_DASHED1
 62
   120
370
     5
100
AcDbLine
 10
132.0006782846218
 20
238.2376950247442
 30
0.0
 11
511.6765753215924
 21
617.9135920617148
 31
0.0
  0
LINE
  5
1F8
330
1F
100
AcDbEntity
  8
0-0
  6
JWW_DASHED1
 62
   120
370
     5
100
AcDbLine
 10
132.000678284632
 20
245.3087628366207
 30
0.0
 11
504.6055075097257
 21
617.9135920617148
 31
0.0
  0
LINE
  5
1F9
330
1F
100
AcDbEntity
  8
0-0
  6
JWW_DASHED1
 62
   120
370
     5
100
AcDbLine
 10
132.0006782846423
 20
252.3798306484971
 30
0.0
 11
497.5344396978488
 21
617.9135920617041
 31
0.0
  0
LINE
  5
1FA
330
1F
100
AcDbEntity
  8
0-0
  6
JWW_DASHED1
 62
   120
370
     5
100
AcDbLine
 10
132.0006782846218
 20
259.450898460342
 30
0.0
 11
490.4633718859958
 21
617.913592061716
 31
0.0
  0
LINE
  5
1FB
330
1F
100
AcDbEntity
  8
0-0
  6
JWW_DASHED1
 62
   120
370
     5
100
AcDbLine
 10
132.0006782846286
 20
266.5219662722185
 30
0.0
 11
483.3923040741291
 21
617.913592061716
 31
0.0
  0
LINE
  5
1FC
330
1F
100
AcDbEntity
  8
0-0
  6
JWW_DASHED1
 62
   120
370
     5
100
AcDbLine
 10
132.0006782846423
 20
273.5930340840954
 30
0.0
 11
476.3212362622522
 21
617.9135920617058
 31
0.0
  0
LINE
  5
1FD
330
1F
100
AcDbEntity
  8
0-0
  6
JWW_DASHED1
 62
   120
370
     5
100
AcDbLine
 10
132.0006782846286
 20
280.6641018959506
 30
0.0
 11
469.2501684503821
 21
617.9135920617028
 31
0.0
  0
LINE
  5
1FE
330
1F
100
AcDbEntity
  8
0-0
  6
JWW_DASHED1
 62
   120
370
     5
100
AcDbLine
 10
132.0006782846286
 20
287.7351697078169
 30
0.0
 11
462.1791006385291
 21
617.9135920617173
 31
0.0
  0
LINE
  5
1FF
330
1F
100
AcDbEntity
  8
0-0
  6
JWW_DASHED1
 62
   120
370
     5
100
AcDbLine
 10
132.0006782846389
 20
294.8062375196934
 30
0.0
 11
455.1080328266522
 21
617.9135920617075
 31
0.0
  0
LINE
  5
200
330
1F
100
AcDbEntity
  8
0-0
  6
JWW_DASHED1
 62
   120
370
     5
100
AcDbLine
 10
132.0006782846423
 20
301.8773053315647
 30
0.0
 11
448.0369650147753
 21
617.9135920616973
 31
0.0
  0
LINE
  5
201
330
1F
100
AcDbEntity
  8
0-0
  6
JWW_DASHED1
 62
   120
370
     5
100
AcDbLine
 10
132.0006782846286
 20
308.9483731434152
 30
0.0
 11
440.9658972029325
 21
617.9135920617186
 31
0.0
  0
LINE
  5
202
330
1F
100
AcDbEntity
  8
0-0
  6
JWW_DASHED1
 62
   120
370
     5
100
AcDbLine
 10
132.0006782846355
 20
316.0194409552917
 30
0.0
 11
433.8948293910522
 21
617.9135920617089
 31
0.0
  0
LINE
  5
203
330
1F
100
AcDbEntity
  8
0-0
  6
JWW_DASHED1
 62
   120
370
     5
100
AcDbLine
 10
132.0006782846423
 20
323.0905087671634
 30
0.0
 11
426.8237615791787
 21
617.9135920616986
 31
0.0
  0
LINE
  5
204
330
1F
100
AcDbEntity
  8
0-0
  6
JWW_DASHED1
 62
   120
370
     5
100
AcDbLine
 10
132.0006782846252
 20
330.1615765790131
 30
0.0
 11
419.7526937673325
 21
617.9135920617199
 31
0.0
  0
LINE
  5
205
330
1F
100
AcDbEntity
  8
0-0
  6
JWW_DASHED1
 62
   120
370
     5
100
AcDbLine
 10
132.0006782846355
 20
337.2326443908895
 30
0.0
 11
412.6816259554556
 21
617.9135920617101
 31
0.0
  0
LINE
  5
206
330
1F
100
AcDbEntity
  8
0-0
  6
JWW_DASHED1
 62
   120
370
     5
100
AcDbLine
 10
132.0006782846423
 20
344.3037122027617
 30
0.0
 11
405.6105581435787
 21
617.9135920616999
 31
0.0
  0
LINE
  5
207
330
1F
100
AcDbEntity
  8
0-0
  6
JWW_DASHED1
 62
   120
370
     5
100
AcDbLine
 10
132.0006782846218
 20
351.3747800146114
 30
0.0
 11
398.5394903317257
 21
617.9135920617143
 31
0.0
  0
LINE
  5
208
330
1F
100
AcDbEntity
  8
0-0
  6
JWW_DASHED1
 62
   120
370
     5
100
AcDbLine
 10
132.0006782846355
 20
358.4458478264878
 30
0.0
 11
391.4684225198556
 21
617.9135920617109
 31
0.0
  0
LINE
  5
209
330
1F
100
AcDbEntity
  8
0-0
  6
JWW_DASHED1
 62
   120
370
     5
100
AcDbLine
 10
132.0006782846389
 20
365.5169156383604
 30
0.0
 11
384.3973547079787
 21
617.9135920617011
 31
0.0
  0
LINE
  5
20A
330
1F
100
AcDbEntity
  8
0-0
  6
JWW_DASHED1
 62
   120
370
     5
100
AcDbLine
 10
132.0006782846355
 20
372.5879834501956
 30
0.0
 11
377.3262868961496
 21
617.9135920617092
 31
0.0
  0
LINE
  5
20B
330
1F
100
AcDbEntity
  8
0-0
  6
JWW_DASHED1
 62
   120
370
     5
100
AcDbLine
 10
132.0006782846286
 20
379.6590512620273
 30
0.0
 11
370.255219084317
 21
617.9135920617169
 31
0.0
  0
LINE
  5
20C
330
1F
100
AcDbEntity
  8
0-0
  6
JWW_DASHED1
 62
   120
370
     5
100
AcDbLine
 10
132.0006782846355
 20
386.7301190739038
 30
0.0
 11
363.1841512724401
 21
617.9135920617067
 31
0.0
  0
LINE
  5
20D
330
1F
100
AcDbEntity
  8
0-0
  6
JWW_DASHED1
 62
   120
370
     5
100
AcDbLine
 10
132.0006782846423
 20
393.8011868857768
 30
0.0
 11
356.1130834605632
 21
617.9135920616968
 31
0.0
  0
LINE
  5
20E
330
1F
100
AcDbEntity
  8
0-0
  6
JWW_DASHED1
 62
   120
370
     5
100
AcDbLine
 10
132.0006782846252
 20
400.8722546976252
 30
0.0
 11
349.042015648717
 21
617.9135920617182
 31
0.0
  0
LINE
  5
20F
330
1F
100
AcDbEntity
  8
0-0
  6
JWW_DASHED1
 62
   120
370
     5
100
AcDbLine
 10
132.0006782846355
 20
407.9433225095016
 30
0.0
 11
341.9709478368401
 21
617.913592061708
 31
0.0
  0
LINE
  5
210
330
1F
100
AcDbEntity
  8
0-0
  6
JWW_DASHED1
 62
   120
370
     5
100
AcDbLine
 10
132.0006782846423
 20
415.0143903213756
 30
0.0
 11
334.8998800249666
 21
617.9135920616982
 31
0.0
  0
LINE
  5
211
330
1F
100
AcDbEntity
  8
0-0
  6
JWW_DASHED1
 62
   120
370
     5
100
AcDbLine
 10
132.0006782846218
 20
422.0854581332235
 30
0.0
 11
327.8288122131136
 21
617.9135920617143
 31
0.0
  0
LINE
  5
212
330
1F
100
AcDbEntity
  8
0-0
  6
JWW_DASHED1
 62
   120
370
     5
100
AcDbLine
 10
132.0006782846355
 20
429.1565259451004
 30
0.0
 11
320.7577444012435
 21
617.9135920617092
 31
0.0
  0
LINE
  5
213
330
1F
100
AcDbEntity
  8
0-0
  6
JWW_DASHED1
 62
   120
370
     5
100
AcDbLine
 10
132.0006782846423
 20
436.2275937569734
 30
0.0
 11
313.6866765893666
 21
617.9135920616994
 31
0.0
  0
LINE
  5
214
330
1F
100
AcDbEntity
  8
0-0
  6
JWW_DASHED1
 62
   120
370
     5
100
AcDbLine
 10
132.0006782846218
 20
443.2986615688213
 30
0.0
 11
306.615608777517
 21
617.913592061716
 31
0.0
  0
LINE
  5
215
330
1F
100
AcDbEntity
  8
0-0
  6
JWW_DASHED1
 62
   120
370
     5
100
AcDbLine
 10
132.000678284632
 20
450.3697293806978
 30
0.0
 11
299.5445409656435
 21
617.9135920617109
 31
0.0
  0
LINE
  5
216
330
1F
100
AcDbEntity
  8
0-0
  6
JWW_DASHED1
 62
   120
370
     5
100
AcDbLine
 10
132.0006782846423
 20
457.4407971925747
 30
0.0
 11
292.4734731537666
 21
617.9135920617007
 31
0.0
  0
LINE
  5
217
330
1F
100
AcDbEntity
  8
0-0
  6
JWW_DASHED1
 62
   120
370
     5
100
AcDbLine
 10
132.0006782846218
 20
464.5118650044201
 30
0.0
 11
285.402405341917
 21
617.9135920617182
 31
0.0
  0
LINE
  5
218
330
1F
100
AcDbEntity
  8
0-0
  6
JWW_DASHED1
 62
   120
370
     5
100
AcDbLine
 10
132.0006782846286
 20
471.5829328162961
 30
0.0
 11
278.3313375300469
 21
617.9135920617118
 31
0.0
  0
LINE
  5
219
330
1F
100
AcDbEntity
  8
0-0
  6
JWW_DASHED1
 62
   120
370
     5
100
AcDbLine
 10
132.0006782846389
 20
478.6540006281726
 30
0.0
 11
271.2602697181666
 21
617.913592061702
 31
0.0
  0
LINE
  5
21A
330
1F
100
AcDbEntity
  8
0-0
  6
JWW_DASHED1
 62
   120
370
     5
100
AcDbLine
 10
132.000678284632
 20
485.7250684400316
 30
0.0
 11
264.1892019063033
 21
617.9135920617041
 31
0.0
  0
LINE
  5
21B
330
1F
100
AcDbEntity
  8
0-0
  6
JWW_DASHED1
 62
   120
370
     5
100
AcDbLine
 10
132.0006782846286
 20
492.7961362518944
 30
0.0
 11
257.1181340944469
 21
617.9135920617135
 31
0.0
  0
LINE
  5
21C
330
1F
100
AcDbEntity
  8
0-0
  6
JWW_DASHED1
 62
   120
370
     5
100
AcDbLine
 10
132.0006782846355
 20
499.8672040637709
 30
0.0
 11
250.04706628257
 21
617.9135920617033
 31
0.0
  0
LINE
  5
21D
330
1F
100
AcDbEntity
  8
0-0
  6
JWW_DASHED1
 62
   120
370
     5
100
AcDbLine
 10
132.0006782846457
 20
506.9382718756457
 30
0.0
 11
242.9759984706931
 21
617.9135920616931
 31
0.0
  0
LINE
  5
21E
330
1F
100
AcDbEntity
  8
0-0
  6
JWW_DASHED1
 62
   120
370
     5
100
AcDbLine
 10
132.0006782846252
 20
514.0093396874922
 30
0.0
 11
235.9049306588469
 21
617.9135920617143
 31
0.0
  0
LINE
  5
21F
330
1F
100
AcDbEntity
  8
0-0
  6
JWW_DASHED1
 62
   120
370
     5
100
AcDbLine
 10
132.0006782846355
 20
521.0804074993691
 30
0.0
 11
228.83386284697
 21
617.9135920617041
 31
0.0
  0
LINE
  5
220
330
1F
100
AcDbEntity
  8
0-0
  6
JWW_DASHED1
 62
   120
370
     5
100
AcDbLine
 10
132.0006782846423
 20
528.1514753112444
 30
0.0
 11
221.7627950350931
 21
617.9135920616943
 31
0.0
  0
LINE
  5
221
330
1F
100
AcDbEntity
  8
0-0
  6
JWW_DASHED1
 62
   120
370
     5
100
AcDbLine
 10
132.0006782846218
 20
535.2225431230906
 30
0.0
 11
214.6917272232469
 21
617.9135920617139
 31
0.0
  0
LINE
  5
222
330
1F
100
AcDbEntity
  8
0-0
  6
JWW_DASHED1
 62
   120
370
     5
100
AcDbLine
 10
132.0006782846355
 20
542.2936109349671
 30
0.0
 11
207.6206594113734
 21
617.9135920617058
 31
0.0
  0
LINE
  5
223
330
1F
100
AcDbEntity
  8
0-0
  6
JWW_DASHED1
 62
   120
370
     5
100
AcDbLine
 10
132.0006782846423
 20
549.3646787468426
 30
0.0
 11
200.5495915994965
 21
617.9135920616956
 31
0.0
  0
LINE
  5
224
330
1F
100
AcDbEntity
  8
0-0
  6
JWW_DASHED1
 62
   120
370
     5
100
AcDbLine
 10
132.0006782846218
 20
556.4357465586888
 30
0.0
 11
193.4785237876468
 21
617.9135920617152
 31
0.0
  0
LINE
  5
225
330
1F
100
AcDbEntity
  8
0-0
  6
JWW_DASHED1
 62
   120
370
     5
100
AcDbLine
 10
132.000678284632
 20
563.5068143705654
 30
0.0
 11
186.4074559757734
 21
617.913592061707
 31
0.0
  0
LINE
  5
226
330
1F
100
AcDbEntity
  8
0-0
  6
JWW_DASHED1
 62
   120
370
     5
100
AcDbLine
 10
132.0006782846423
 20
570.5778821824418
 30
0.0
 11
179.3363881638965
 21
617.9135920616965
 31
0.0
  0
LINE
  5
227
330
1F
100
AcDbEntity
  8
0-0
  6
JWW_DASHED1
 62
   120
370
     5
100
AcDbLine
 10
132.0006782846218
 20
577.6489499942868
 30
0.0
 11
172.2653203520503
 21
617.9135920617173
 31
0.0
  0
LINE
  5
228
330
1F
100
AcDbEntity
  8
0-0
  6
JWW_DASHED1
 62
   120
370
     5
100
AcDbLine
 10
132.0006782846286
 20
584.7200178061637
 30
0.0
 11
165.1942525401734
 21
617.9135920617084
 31
0.0
  0
LINE
  5
229
330
1F
100
AcDbEntity
  8
0-0
  6
JWW_DASHED1
 62
   120
370
     5
100
AcDbLine
 10
132.0006782846389
 20
591.7910856180401
 30
0.0
 11
158.1231847282999
 21
617.9135920616986
 31
0.0
  0
LINE
  5
22A
330
1F
100
AcDbEntity
  8
0-0
  6
JWW_DASHED1
 62
   120
370
     5
100
AcDbLine
 10
132.0006782846355
 20
598.8621534299004
 30
0.0
 11
151.0521169164366
 21
617.9135920617033
 31
0.0
  0
LINE
  5
22B
330
1F
100
AcDbEntity
  8
0-0
  6
JWW_DASHED1
 62
   120
370
     5
100
AcDbLine
 10
132.0006782846286
 20
605.9332212417615
 30
0.0
 11
143.9810491045768
 21
617.9135920617092
 31
0.0
  0
LINE
  5
22C
330
1F
100
AcDbEntity
  8
0-0
  6
JWW_DASHED1
 62
   120
370
     5
100
AcDbLine
 10
132.0006782846389
 20
613.004289053638
 30
0.0
 11
136.9099812926999
 21
617.9135920616999
 31
0.0
  0
LINE
  5
22D
330
1F
100
AcDbEntity
  8
0-0
  6
JWW_DASHED1
 62
   120
370
     5
100
AcDbLine
 10
455.9153908640411
 20
-357.0864079382861
 30
0.0
 11
722.0006782846207
 21
-91.00112051770566
 31
0.0
  0
LINE
  5
22E
330
1F
100
AcDbEntity
  8
0-0
  6
Continuous
 62
    92
370
    13
100
AcDbLine
 10
132.000678284632
 20
-487.0864079382957
 30
0.0
 11
722.0006782846343
 21
-487.0864079382957
 31
0.0
  0
LINE
  5
22F
330
1F
100
AcDbEntity
  8
0-0
  6
Continuous
 62
    92
370
    13
100
AcDbLine
 10
-647.999321715368
 20
-1430.086407938295
 30
0.0
 11
-647.999321715368
 21
752.9135920617045
 31
0.0
  0
LINE
  5
230
330
1F
100
AcDbEntity
  8
0-0
  6
Continuous
 62
    92
370
    13
100
AcDbLine
 10
-57.99932171536568
 20
-1430.086407938295
 30
0.0
 11
-57.99932171536568
 21
752.9135920617045
 31
0.0
  0
LINE
  5
231
330
1F
100
AcDbEntity
  8
0-0
  6
Continuous
 62
    92
370
    13
100
AcDbLine
 10
722.0006782846343
 20
-1430.086407938295
 30
0.0
 11
722.0006782846343
 21
752.9135920617045
 31
0.0
  0
LINE
  5
232
330
1F
100
AcDbEntity
  8
0-0
  6
Continuous
 62
    92
370
    13
100
AcDbLine
 10
132.000678284632
 20
-1430.086407938295
 30
0.0
 11
132.000678284632
 21
752.9135920617045
 31
0.0
  0
MTEXT
  5
233
330
1F
100
AcDbEntity
  8
文字
  6
Continuous
 62
     7
370
     9
100
AcDbMText
 10
-1334.999321715367
 20
1097.896974001919
 30
0.0
 40
45.71999999999998
 41
1620.0
 46
0.0
 71
     7
 72
     1
  1
{\fＭＳ ゴシック|b0|i0|c128|p49;※ＣＨは縦木目柄、ＣＹは横木目柄のデザインとなります。}
 73
     1
 44
1.0
  0
LINE
  5
234
330
1F
100
AcDbEntity
  8
寸法
  6
Continuous
 62
   120
370
     5
100
AcDbLine
 10
52.00067828463318
 20
-1700.086407938295
 30
0.0
 11
-757.9993217153668
 21
-1700.086407938295
 31
0.0
  0
LINE
  5
235
330
1F
100
AcDbEntity
  8
寸法
  6
Continuous
 62
   120
370
     5
100
AcDbLine
 10
52.00067828463318
 20
-1700.086407938295
 30
0.0
 11
52.00067828463318
 21
-1500.086407938296
 31
0.0
  0
LINE
  5
236
330
1F
100
AcDbEntity
  8
寸法
  6
Continuous
 62
   120
370
     5
100
AcDbLine
 10
-757.9993217153668
 20
-1700.086407938295
 30
0.0
 11
-757.9993217153668
 21
-1500.086407938296
 31
0.0
  0
LINE
  5
237
330
1F
100
AcDbEntity
  8
寸法
  6
Continuous
 62
   120
370
     5
100
AcDbLine
 10
-784.9993217153661
 20
-2100.086407938295
 30
0.0
 11
-784.9993217153661
 21
-1500.086407938296
 31
0.0
  0
LINE
  5
238
330
1F
100
AcDbEntity
  8
寸法
  6
Continuous
 62
   120
370
     5
100
AcDbLine
 10
-784.9993217153661
 20
-2100.086407938295
 30
0.0
 11
1639.000678284633
 21
-2100.086407938294
 31
0.0
  0
LINE
  5
239
330
1F
100
AcDbEntity
  8
寸法
  6
Continuous
 62
   120
370
     5
100
AcDbLine
 10
1639.000678284633
 20
-2100.086407938294
 30
0.0
 11
1639.000678284633
 21
-1500.086407938295
 31
0.0
  0
LINE
  5
23A
330
1F
100
AcDbEntity
  8
寸法
  6
Continuous
 62
   120
370
     5
100
AcDbLine
 10
-754.9993217153661
 20
-1900.086407938295
 30
0.0
 11
802.0006782846332
 21
-1900.086407938295
 31
0.0
  0
LINE
  5
23B
330
1F
100
AcDbEntity
  8
寸法
  6
Continuous
 62
   120
370
     5
100
AcDbLine
 10
-754.9993217153661
 20
-1900.086407938295
 30
0.0
 11
-754.9993217153661
 21
-1500.086407938296
 31
0.0
  0
LINE
  5
23C
330
1F
100
AcDbEntity
  8
寸法
  6
Continuous
 62
   120
370
     5
100
AcDbLine
 10
802.0006782846332
 20
-1900.086407938295
 30
0.0
 11
802.0006782846332
 21
-1500.086407938296
 31
0.0
  0
LWPOLYLINE
  5
23D
330
1F
100
AcDbEntity
  8
寸法
  6
Continuous
 62
     7
370
     9
100
AcDbPolyline
 90
        4
 70
     1
 43
3.0
 10
53.50067828463318
 20
-1700.086407938295
 42
0.4142135623731
 10
52.00067828463318
 20
-1698.586407938295
 42
0.4142135623731
 10
50.50067828463318
 20
-1700.086407938295
 42
0.4142135623731
 10
52.00067828463318
 20
-1701.586407938295
 42
0.4142135623731
  0
LWPOLYLINE
  5
23E
330
1F
100
AcDbEntity
  8
寸法
  6
Continuous
 62
     7
370
     9
100
AcDbPolyline
 90
        4
 70
     1
 43
3.0
 10
-756.4993217153668
 20
-1700.086407938295
 42
0.4142135623731
 10
-757.9993217153668
 20
-1698.586407938295
 42
0.4142135623731
 10
-759.4993217153668
 20
-1700.086407938295
 42
0.4142135623731
 10
-757.9993217153668
 20
-1701.586407938295
 42
0.4142135623731
  0
LWPOLYLINE
  5
23F
330
1F
100
AcDbEntity
  8
寸法
  6
Continuous
 62
     7
370
     9
100
AcDbPolyline
 90
        4
 70
     1
 43
3.0
 10
-783.4993217153661
 20
-2100.086407938295
 42
0.4142135623731
 10
-784.9993217153661
 20
-2098.586407938295
 42
0.4142135623731
 10
-786.4993217153661
 20
-2100.086407938295
 42
0.4142135623731
 10
-784.9993217153661
 20
-2101.586407938295
 42
0.4142135623731
  0
LWPOLYLINE
  5
240
330
1F
100
AcDbEntity
  8
寸法
  6
Continuous
 62
     7
370
     9
100
AcDbPolyline
 90
        4
 70
     1
 43
3.0
 10
1640.500678284632
 20
-2100.086407938294
 42
0.4142135623731
 10
1639.000678284633
 20
-2098.586407938294
 42
0.4142135623731
 10
1637.500678284633
 20
-2100.086407938294
 42
0.4142135623731
 10
1639.000678284633
 20
-2101.586407938294
 42
0.4142135623731
  0
LWPOLYLINE
  5
241
330
1F
100
AcDbEntity
  8
寸法
  6
Continuous
 62
     7
370
     9
100
AcDbPolyline
 90
        4
 70
     1
 43
3.0
 10
-753.4993217153661
 20
-1900.086407938295
 42
0.4142135623731
 10
-754.9993217153661
 20
-1898.586407938295
 42
0.4142135623731
 10
-756.4993217153661
 20
-1900.086407938295
 42
0.4142135623731
 10
-754.9993217153661
 20
-1901.586407938295
 42
0.4142135623731
  0
LWPOLYLINE
  5
242
330
1F
100
AcDbEntity
  8
寸法
  6
Continuous
 62
     7
370
     9
100
AcDbPolyline
 90
        4
 70
     1
 43
3.0
 10
803.5006782846332
 20
-1900.086407938295
 42
0.4142135623731
 10
802.0006782846332
 20
-1898.586407938295
 42
0.4142135623731
 10
800.5006782846332
 20
-1900.086407938295
 42
0.4142135623731
 10
802.0006782846332
 20
-1901.586407938295
 42
0.4142135623731
  0
LINE
  5
243
330
1F
100
AcDbEntity
  8
寸法
  6
Continuous
 62
   120
370
     5
100
AcDbLine
 10
-1234.999321715368
 20
-1450.086407938295
 30
0.0
 11
-834.9993217153684
 21
-1450.086407938295
 31
0.0
  0
LINE
  5
244
330
1F
100
AcDbEntity
  8
寸法
  6
Continuous
 62
   120
370
     5
100
AcDbLine
 10
-1034.999321715367
 20
-1430.086407938295
 30
0.0
 11
-834.9993217153684
 21
-1430.086407938295
 31
0.0
  0
LWPOLYLINE
  5
245
330
1F
100
AcDbEntity
  8
寸法
  6
Continuous
 62
     7
370
     9
100
AcDbPolyline
 90
        4
 70
     1
 43
3.0
 10
-1233.499321715368
 20
-1450.086407938295
 42
0.4142135623731
 10
-1234.999321715368
 20
-1448.586407938295
 42
0.4142135623731
 10
-1236.499321715368
 20
-1450.086407938295
 42
0.4142135623731
 10
-1234.999321715368
 20
-1451.586407938295
 42
0.4142135623731
  0
LWPOLYLINE
  5
246
330
1F
100
AcDbEntity
  8
寸法
  6
Continuous
 62
     7
370
     9
100
AcDbPolyline
 90
        4
 70
     1
 43
3.0
 10
-1033.499321715367
 20
-1430.086407938295
 42
0.4142135623731
 10
-1034.999321715367
 20
-1428.586407938295
 42
0.4142135623731
 10
-1036.499321715367
 20
-1430.086407938295
 42
0.4142135623731
 10
-1034.999321715367
 20
-1431.586407938295
 42
0.4142135623731
  0
LINE
  5
247
330
1F
100
AcDbEntity
  8
寸法
  6
Continuous
 62
   120
370
     5
100
AcDbLine
 10
-1234.999321715368
 20
796.9135920617045
 30
0.0
 11
-1234.999321715368
 21
-1450.086407938295
 31
0.0
  0
LINE
  5
248
330
1F
100
AcDbEntity
  8
寸法
  6
Continuous
 62
   120
370
     5
100
AcDbLine
 10
-1234.999321715368
 20
796.9135920617045
 30
0.0
 11
-834.9993217153684
 21
796.9135920617045
 31
0.0
  0
LWPOLYLINE
  5
249
330
1F
100
AcDbEntity
  8
寸法
  6
Continuous
 62
     7
370
     9
100
AcDbPolyline
 90
        4
 70
     1
 43
3.0
 10
-1233.499321715368
 20
796.9135920617045
 42
0.4142135623731
 10
-1234.999321715368
 20
798.4135920617045
 42
0.4142135623731
 10
-1236.499321715368
 20
796.9135920617045
 42
0.4142135623731
 10
-1234.999321715368
 20
795.4135920617044
 42
0.4142135623731
  0
LINE
  5
24A
330
1F
100
AcDbEntity
  8
寸法
  6
Continuous
 62
   120
370
     5
100
AcDbLine
 10
-1034.999321715367
 20
752.9135920617055
 30
0.0
 11
-834.9993217153684
 21
752.9135920617055
 31
0.0
  0
LINE
  5
24B
330
1F
100
AcDbEntity
  8
寸法
  6
Continuous
 62
   120
370
     5
100
AcDbLine
 10
-1034.999321715367
 20
752.9135920617055
 30
0.0
 11
-1034.999321715367
 21
-1430.086407938295
 31
0.0
  0
LWPOLYLINE
  5
24C
330
1F
100
AcDbEntity
  8
寸法
  6
Continuous
 62
     7
370
     9
100
AcDbPolyline
 90
        4
 70
     1
 43
3.0
 10
-1033.499321715367
 20
752.9135920617055
 42
0.4142135623731
 10
-1034.999321715367
 20
754.4135920617055
 42
0.4142135623731
 10
-1036.499321715367
 20
752.9135920617055
 42
0.4142135623731
 10
-1034.999321715367
 20
751.4135920617053
 42
0.4142135623731
  0
MTEXT
  5
24D
330
1F
100
AcDbEntity
  8
寸法
  6
Continuous
 62
     7
370
    70
100
AcDbMText
 10
-1249.999321715368
 20
-550.7614079382945
 30
0.0
 40
57.14999999999999
 41
412.5
 46
0.0
 71
     7
 72
     1
  1
{\fＭＳ ゴシック|b0|i0|c128|p49;枠外＝2,247}
 11
6.123031769111886E-17
 21
1.0
 31
0.0
 73
     1
 44
1.0
  0
MTEXT
  5
24E
330
1F
100
AcDbEntity
  8
寸法
  6
Continuous
 62
     7
370
    70
100
AcDbMText
 10
-1049.999321715367
 20
-556.761407938295
 30
0.0
 40
57.15
 41
412.5000000000001
 46
0.0
 71
     7
 72
     1
  1
{\fＭＳ ゴシック|b0|i0|c128|p49;ＤＨ＝2,183}
 11
6.123031769111886E-17
 21
1.0
 31
0.0
 73
     1
 44
1.0
  0
MTEXT
  5
24F
330
1F
100
AcDbEntity
  8
寸法
  6
Continuous
 62
     7
370
   211
100
AcDbMText
 10
-521.7493217153668
 20
-1694.011407938295
 30
0.0
 40
57.15
 41
337.5
 46
0.0
 71
     7
 72
     1
  1
{\fＭＳ ゴシック|b0|i0|c128|p49;ＤＷ＝810}
 73
     1
 44
1.0
  0
MTEXT
  5
250
330
1F
100
AcDbEntity
  8
寸法
  6
Continuous
 62
     7
370
   211
100
AcDbMText
 10
-182.7493217153682
 20
-1894.011407938295
 30
0.0
 40
57.14999999999999
 41
412.5
 46
0.0
 71
     7
 72
     1
  1
{\fＭＳ ゴシック|b0|i0|c128|p49;枠内＝1,557}
 73
     1
 44
1.0
  0
MTEXT
  5
251
330
1F
100
AcDbEntity
  8
寸法
  6
Continuous
 62
     7
370
   211
100
AcDbMText
 10
220.7506782846332
 20
-2094.011407938295
 30
0.0
 40
57.14999999999999
 41
412.5
 46
0.0
 71
     7
 72
     1
  1
{\fＭＳ ゴシック|b0|i0|c128|p49;枠外＝2,427}
 73
     1
 44
1.0
  0
ENDSEC
  0
SECTION
  2
OBJECTS
  0
DICTIONARY
  5
C
330
0
100
AcDbDictionary
281
     1
  3
ACAD_GROUP
350
D
  3
ACAD_LAYOUT
350
1A
  3
ACAD_MATERIAL
350
3B
  3
ACAD_MLEADERSTYLE
350
253
  3
ACAD_MLINESTYLE
350
17
  3
ACAD_PLOTSETTINGS
350
19
  3
ACAD_PLOTSTYLENAME
350
E
  3
ACAD_TABLESTYLE
350
252
  3
ACAD_VISUALSTYLE
350
2A
  0
DICTIONARY
  5
D
102
{ACAD_REACTORS
330
C
102
}
330
C
100
AcDbDictionary
281
     1
  0
DICTIONARY
  5
1A
102
{ACAD_REACTORS
330
C
102
}
330
C
100
AcDbDictionary
281
     1
  3
Layout1
350
1E
  3
Layout2
350
26
  3
Model
350
22
  0
DICTIONARY
  5
3B
102
{ACAD_REACTORS
330
C
102
}
330
C
100
AcDbDictionary
281
     1
  3
ByBlock
350
3D
  3
ByLayer
350
3C
  3
Global
350
3E
  0
DICTIONARY
  5
253
102
{ACAD_REACTORS
330
C
102
}
330
C
100
AcDbDictionary
281
     1
  0
DICTIONARY
  5
17
102
{ACAD_REACTORS
330
C
102
}
330
C
100
AcDbDictionary
281
     1
  3
Standard
350
18
  0
DICTIONARY
  5
19
102
{ACAD_REACTORS
330
C
102
}
330
C
100
AcDbDictionary
281
     1
  0
ACDBDICTIONARYWDFLT
  5
E
102
{ACAD_REACTORS
330
C
102
}
330
C
100
AcDbDictionary
281
     1
  3
Normal
350
F
100
AcDbDictionaryWithDefault
340
F
  0
DICTIONARY
  5
252
102
{ACAD_REACTORS
330
C
102
}
330
C
100
AcDbDictionary
281
     1
  0
DICTIONARY
  5
2A
102
{ACAD_REACTORS
330
C
102
}
330
C
100
AcDbDictionary
281
     1
  3
2dWireframe
350
2F
  3
3D Hidden
350
31
  3
3dWireframe
350
30
  3
Basic
350
32
  3
Brighten
350
36
  3
ColorChange
350
3A
  3
Conceptual
350
34
  3
Dim
350
35
  3
Facepattern
350
39
  3
Flat
350
2B
  3
FlatWithEdges
350
2C
  3
Gouraud
350
2D
  3
GouraudWithEdges
350
2E
  3
Linepattern
350
38
  3
Realistic
350
33
  3
Thicken
350
37
  0
LAYOUT
  5
1E
102
{ACAD_REACTORS
330
1A
102
}
330
1A
100
AcDbPlotSettings
  1

  2
none_device
  4

  6

 40
0.0
 41
0.0
 42
0.0
 43
0.0
 44
0.0
 45
0.0
 46
0.0
 47
0.0
 48
0.0
 49
0.0
140
0.0
141
0.0
142
1.0
143
1.0
 70
   688
 72
     0
 73
     0
 74
     5
  7

 75
    16
 76
     0
 77
     5
 78
   300
147
1.0
148
0.0
149
0.0
100
AcDbLayout
  1
Layout1
 70
     1
 71
     1
 10
0.0
 20
0.0
 11
420.0
 21
297.0
 12
0.0
 22
0.0
 32
0.0
 14
1.000000000000000E+20
 24
1.000000000000000E+20
 34
1.000000000000000E+20
 15
-1.000000000000000E+20
 25
-1.000000000000000E+20
 35
-1.000000000000000E+20
146
0.0
 13
0.0
 23
0.0
 33
0.0
 16
1.0
 26
0.0
 36
0.0
 17
0.0
 27
1.0
 37
0.0
 76
     0
330
1B
  0
LAYOUT
  5
26
102
{ACAD_REACTORS
330
1A
102
}
330
1A
100
AcDbPlotSettings
  1

  2
none_device
  4

  6

 40
0.0
 41
0.0
 42
0.0
 43
0.0
 44
0.0
 45
0.0
 46
0.0
 47
0.0
 48
0.0
 49
0.0
140
0.0
141
0.0
142
1.0
143
1.0
 70
   688
 72
     0
 73
     0
 74
     5
  7

 75
    16
 76
     0
 77
     5
 78
   300
147
1.0
148
0.0
149
0.0
100
AcDbLayout
  1
Layout2
 70
     1
 71
     2
 10
0.0
 20
0.0
 11
0.0
 21
0.0
 12
0.0
 22
0.0
 32
0.0
 14
0.0
 24
0.0
 34
0.0
 15
0.0
 25
0.0
 35
0.0
146
0.0
 13
0.0
 23
0.0
 33
0.0
 16
1.0
 26
0.0
 36
0.0
 17
0.0
 27
1.0
 37
0.0
 76
     0
330
23
  0
LAYOUT
  5
22
102
{ACAD_REACTORS
330
1A
102
}
330
1A
100
AcDbPlotSettings
  1

  2
none_device
  4

  6

 40
0.0
 41
0.0
 42
0.0
 43
0.0
 44
0.0
 45
0.0
 46
0.0
 47
0.0
 48
0.0
 49
0.0
140
0.0
141
0.0
142
1.0
143
1.0
 70
  1712
 72
     0
 73
     0
 74
     0
  7

 75
     0
 76
     0
 77
     5
 78
   300
147
1.0
148
0.0
149
0.0
100
AcDbLayout
  1
Model
 70
     1
 71
     0
 10
-4455.0
 20
-3150.0
 11
4455.0
 21
3150.0
 12
0.0
 22
0.0
 32
0.0
 14
-4455.0
 24
-3150.0
 34
0.0
 15
4455.0
 25
3150.0
 35
0.0
146
0.0
 13
0.0
 23
0.0
 33
0.0
 16
1.0
 26
0.0
 36
0.0
 17
0.0
 27
1.0
 37
0.0
 76
     0
330
1F
331
29
  0
MATERIAL
  5
3D
102
{ACAD_REACTORS
330
3B
102
}
330
3B
100
AcDbMaterial
  1
ByBlock
 72
     1
 94
      127
  0
MATERIAL
  5
3C
102
{ACAD_REACTORS
330
3B
102
}
330
3B
100
AcDbMaterial
  1
ByLayer
 72
     1
 94
      127
  0
MATERIAL
  5
3E
102
{ACAD_REACTORS
330
3B
102
}
330
3B
100
AcDbMaterial
  1
Global
 72
     1
 94
      127
  0
MLINESTYLE
  5
18
102
{ACAD_REACTORS
330
17
102
}
330
17
100
AcDbMlineStyle
  2
Standard
 70
     0
  3

 62
   256
 51
90.0
 52
90.0
 71
     2
 49
0.5
 62
   256
  6
BYLAYER
 49
-0.5
 62
   256
  6
BYLAYER
  0
ACDBPLACEHOLDER
  5
F
102
{ACAD_REACTORS
330
E
102
}
330
E
  0
VISUALSTYLE
  5
2F
102
{ACAD_REACTORS
330
2A
102
}
330
2A
100
AcDbVisualStyle
  2
2dWireframe
 70
     4
177
     2
291
     0
 71
     0
176
     1
 72
     2
176
     1
 73
     0
176
     1
 90
        0
176
     1
 40
-0.6
176
     1
 41
-30.0
176
     1
 62
     5
 63
     7
421
 16777215
176
     1
 74
     1
176
     1
 91
        4
176
     1
 64
     7
176
     1
 65
   257
176
     1
 75
     1
176
     1
175
     1
176
     1
 42
1.0
176
     1
 92
        0
176
     1
 66
   257
176
     1
 43
1.0
176
     1
 76
     1
176
     1
 77
     6
176
     1
 78
     2
176
     1
 67
     7
176
     1
 79
     5
176
     1
170
     0
176
     1
171
     0
176
     1
290
     0
176
     1
 93
        1
176
     1
 44
0.0
176
     1
173
     0
176
     1
  0
VISUALSTYLE
  5
31
102
{ACAD_REACTORS
330
2A
102
}
330
2A
100
AcDbVisualStyle
  2
3D Hidden
 70
     6
177
     2
291
     0
 71
     1
176
     1
 72
     2
176
     1
 73
     2
176
     1
 90
        0
176
     1
 40
-0.6
176
     1
 41
-30.0
176
     1
 62
     5
 63
     7
421
 16777215
176
     1
 74
     2
176
     1
 91
        2
176
     1
 64
     7
176
     1
 65
   257
176
     1
 75
     2
176
     1
175
     1
176
     1
 42
40.0
176
     1
 92
        0
176
     1
 66
   257
176
     1
 43
1.0
176
     1
 76
     1
176
     1
 77
     6
176
     1
 78
     2
176
     1
 67
     7
176
     1
 79
     3
176
     1
170
     0
176
     1
171
     0
176
     1
290
     0
176
     1
 93
        1
176
     1
 44
0.0
176
     1
173
     0
176
     1
  0
VISUALSTYLE
  5
30
102
{ACAD_REACTORS
330
2A
102
}
330
2A
100
AcDbVisualStyle
  2
3dWireframe
 70
     5
177
     2
291
     0
 71
     0
176
     1
 72
     2
176
     1
 73
     0
176
     1
 90
        0
176
     1
 40
-0.6
176
     1
 41
-30.0
176
     1
 62
     5
 63
     7
421
 16777215
176
     1
 74
     1
176
     1
 91
        4
176
     1
 64
     7
176
     1
 65
   257
176
     1
 75
     1
176
     1
175
     1
176
     1
 42
1.0
176
     1
 92
        0
176
     1
 66
   257
176
     1
 43
1.0
176
     1
 76
     1
176
     1
 77
     6
176
     1
 78
     2
176
     1
 67
     7
176
     1
 79
     5
176
     1
170
     0
176
     1
171
     0
176
     1
290
     0
176
     1
 93
        1
176
     1
 44
0.0
176
     1
173
     0
176
     1
  0
VISUALSTYLE
  5
32
102
{ACAD_REACTORS
330
2A
102
}
330
2A
100
AcDbVisualStyle
  2
Basic
 70
     7
177
     2
291
     1
 71
     1
176
     1
 72
     0
176
     1
 73
     1
176
     1
 90
        0
176
     1
 40
-0.6
176
     1
 41
-30.0
176
     1
 62
     5
 63
     7
421
 16777215
176
     1
 74
     0
176
     1
 91
        4
176
     1
 64
     7
176
     1
 65
   257
176
     1
 75
     1
176
     1
175
     1
176
     1
 42
1.0
176
     1
 92
        8
176
     1
 66
     7
176
     1
 43
1.0
176
     1
 76
     1
176
     1
 77
     6
176
     1
 78
     2
176
     1
 67
     7
176
     1
 79
     5
176
     1
170
     0
176
     1
171
     0
176
     1
290
     0
176
     1
 93
        1
176
     1
 44
0.0
176
     1
173
     0
176
     1
  0
VISUALSTYLE
  5
36
102
{ACAD_REACTORS
330
2A
102
}
330
2A
100
AcDbVisualStyle
  2
Brighten
 70
    12
177
     2
291
     1
 71
     2
176
     1
 72
     2
176
     1
 73
     0
176
     1
 90
        0
176
     1
 40
-0.6
176
     1
 41
-30.0
176
     1
 62
     5
 63
     7
421
 16777215
176
     1
 74
     1
176
     1
 91
        4
176
     1
 64
     7
176
     1
 65
   257
176
     1
 75
     1
176
     1
175
     1
176
     1
 42
1.0
176
     1
 92
        8
176
     1
 66
     7
176
     1
 43
1.0
176
     1
 76
     1
176
     1
 77
     6
176
     1
 78
     2
176
     1
 67
     7
176
     1
 79
     5
176
     1
170
     0
176
     1
171
     0
176
     1
290
     0
176
     1
 93
        1
176
     1
 44
50.0
176
     1
173
     0
176
     1
  0
VISUALSTYLE
  5
3A
102
{ACAD_REACTORS
330
2A
102
}
330
2A
100
AcDbVisualStyle
  2
ColorChange
 70
    16
177
     2
291
     1
 71
     2
176
     1
 72
     2
176
     1
 73
     3
176
     1
 90
        0
176
     1
 40
-0.6
176
     1
 41
-30.0
176
     1
 62
     5
 63
     8
421
  8421504
176
     1
 74
     1
176
     1
 91
        4
176
     1
 64
     7
176
     1
 65
   257
176
     1
 75
     1
176
     1
175
     1
176
     1
 42
1.0
176
     1
 92
        8
176
     1
 66
     8
424
  8421504
176
     1
 43
1.0
176
     1
 76
     1
176
     1
 77
     6
176
     1
 78
     2
176
     1
 67
     7
176
     1
 79
     5
176
     1
170
     0
176
     1
171
     0
176
     1
290
     0
176
     1
 93
        1
176
     1
 44
0.0
176
     1
173
     0
176
     1
  0
VISUALSTYLE
  5
34
102
{ACAD_REACTORS
330
2A
102
}
330
2A
100
AcDbVisualStyle
  2
Conceptual
 70
     9
177
     2
291
     0
 71
     3
176
     1
 72
     2
176
     1
 73
     0
176
     1
 90
        0
176
     1
 40
-0.6
176
     1
 41
-30.0
176
     1
 62
     5
 63
     7
421
 16777215
176
     1
 74
     2
176
     1
 91
        2
176
     1
 64
     7
176
     1
 65
   257
176
     1
 75
     1
176
     1
175
     1
176
     1
 42
40.0
176
     1
 92
        8
176
     1
 66
     7
176
     1
 43
1.0
176
     1
 76
     1
176
     1
 77
     6
176
     1
 78
     2
176
     1
 67
     7
176
     1
 79
     3
176
     1
170
     0
176
     1
171
     0
176
     1
290
     0
176
     1
 93
        1
176
     1
 44
0.0
176
     1
173
     0
176
     1
  0
VISUALSTYLE
  5
35
102
{ACAD_REACTORS
330
2A
102
}
330
2A
100
AcDbVisualStyle
  2
Dim
 70
    11
177
     2
291
     1
 71
     2
176
     1
 72
     2
176
     1
 73
     0
176
     1
 90
        0
176
     1
 40
-0.6
176
     1
 41
-30.0
176
     1
 62
     5
 63
     7
421
 16777215
176
     1
 74
     1
176
     1
 91
        4
176
     1
 64
     7
176
     1
 65
   257
176
     1
 75
     1
176
     1
175
     1
176
     1
 42
1.0
176
     1
 92
        8
176
     1
 66
     7
176
     1
 43
1.0
176
     1
 76
     1
176
     1
 77
     6
176
     1
 78
     2
176
     1
 67
     7
176
     1
 79
     5
176
     1
170
     0
176
     1
171
     0
176
     1
290
     0
176
     1
 93
        1
176
     1
 44
-50.0
176
     1
173
     0
176
     1
  0
VISUALSTYLE
  5
39
102
{ACAD_REACTORS
330
2A
102
}
330
2A
100
AcDbVisualStyle
  2
Facepattern
 70
    15
177
     2
291
     1
 71
     2
176
     1
 72
     2
176
     1
 73
     0
176
     1
 90
        0
176
     1
 40
-0.6
176
     1
 41
-30.0
176
     1
 62
     5
 63
     7
421
 16777215
176
     1
 74
     1
176
     1
 91
        4
176
     1
 64
     7
176
     1
 65
   257
176
     1
 75
     1
176
     1
175
     1
176
     1
 42
1.0
176
     1
 92
        8
176
     1
 66
     7
176
     1
 43
1.0
176
     1
 76
     1
176
     1
 77
     6
176
     1
 78
     2
176
     1
 67
     7
176
     1
 79
     5
176
     1
170
     0
176
     1
171
     0
176
     1
290
     0
176
     1
 93
        1
176
     1
 44
0.0
176
     1
173
     0
176
     1
  0
VISUALSTYLE
  5
2B
102
{ACAD_REACTORS
330
2A
102
}
330
2A
100
AcDbVisualStyle
  2
Flat
 70
     0
177
     2
291
     1
 71
     2
176
     1
 72
     1
176
     1
 73
     1
176
     1
 90
        2
176
     1
 40
-0.6
176
     1
 41
30.0
176
     1
 62
     5
 63
     7
421
 16777215
176
     1
 74
     0
176
     1
 91
        4
176
     1
 64
     7
176
     1
 65
   257
176
     1
 75
     1
176
     1
175
     1
176
     1
 42
1.0
176
     1
 92
        8
176
     1
 66
     7
176
     1
 43
1.0
176
     1
 76
     1
176
     1
 77
     6
176
     1
 78
     2
176
     1
 67
     7
176
     1
 79
     5
176
     1
170
     0
176
     1
171
     0
176
     1
290
     0
176
     1
 93
       13
176
     1
 44
0.0
176
     1
173
     0
176
     1
  0
VISUALSTYLE
  5
2C
102
{ACAD_REACTORS
330
2A
102
}
330
2A
100
AcDbVisualStyle
  2
FlatWithEdges
 70
     1
177
     2
291
     1
 71
     2
176
     1
 72
     1
176
     1
 73
     1
176
     1
 90
        2
176
     1
 40
-0.6
176
     1
 41
30.0
176
     1
 62
     5
 63
     7
421
 16777215
176
     1
 74
     1
176
     1
 91
        4
176
     1
 64
     7
176
     1
 65
   257
176
     1
 75
     1
176
     1
175
     1
176
     1
 42
1.0
176
     1
 92
        0
176
     1
 66
   257
176
     1
 43
1.0
176
     1
 76
     1
176
     1
 77
     6
176
     1
 78
     2
176
     1
 67
     7
176
     1
 79
     5
176
     1
170
     0
176
     1
171
     0
176
     1
290
     0
176
     1
 93
       13
176
     1
 44
0.0
176
     1
173
     0
176
     1
  0
VISUALSTYLE
  5
2D
102
{ACAD_REACTORS
330
2A
102
}
330
2A
100
AcDbVisualStyle
  2
Gouraud
 70
     2
177
     2
291
     1
 71
     2
176
     1
 72
     2
176
     1
 73
     1
176
     1
 90
        2
176
     1
 40
-0.6
176
     1
 41
30.0
176
     1
 62
     5
 63
     7
421
 16777215
176
     1
 74
     0
176
     1
 91
        4
176
     1
 64
     7
176
     1
 65
   257
176
     1
 75
     1
176
     1
175
     1
176
     1
 42
1.0
176
     1
 92
        0
176
     1
 66
     7
176
     1
 43
1.0
176
     1
 76
     1
176
     1
 77
     6
176
     1
 78
     2
176
     1
 67
     7
176
     1
 79
     5
176
     1
170
     0
176
     1
171
     0
176
     1
290
     0
176
     1
 93
       13
176
     1
 44
0.0
176
     1
173
     0
176
     1
  0
VISUALSTYLE
  5
2E
102
{ACAD_REACTORS
330
2A
102
}
330
2A
100
AcDbVisualStyle
  2
GouraudWithEdges
 70
     3
177
     2
291
     1
 71
     2
176
     1
 72
     2
176
     1
 73
     1
176
     1
 90
        2
176
     1
 40
-0.6
176
     1
 41
30.0
176
     1
 62
     5
 63
     7
421
 16777215
176
     1
 74
     1
176
     1
 91
        4
176
     1
 64
     7
176
     1
 65
   257
176
     1
 75
     1
176
     1
175
     1
176
     1
 42
1.0
176
     1
 92
        0
176
     1
 66
   257
176
     1
 43
1.0
176
     1
 76
     1
176
     1
 77
     6
176
     1
 78
     2
176
     1
 67
     7
176
     1
 79
     5
176
     1
170
     0
176
     1
171
     0
176
     1
290
     0
176
     1
 93
       13
176
     1
 44
0.0
176
     1
173
     0
176
     1
  0
VISUALSTYLE
  5
38
102
{ACAD_REACTORS
330
2A
102
}
330
2A
100
AcDbVisualStyle
  2
Linepattern
 70
    14
177
     2
291
     1
 71
     2
176
     1
 72
     2
176
     1
 73
     0
176
     1
 90
        0
176
     1
 40
-0.6
176
     1
 41
-30.0
176
     1
 62
     5
 63
     7
421
 16777215
176
     1
 74
     1
176
     1
 91
        4
176
     1
 64
     7
176
     1
 65
   257
176
     1
 75
     7
176
     1
175
     7
176
     1
 42
1.0
176
     1
 92
        8
176
     1
 66
     7
176
     1
 43
1.0
176
     1
 76
     1
176
     1
 77
     6
176
     1
 78
     2
176
     1
 67
     7
176
     1
 79
     5
176
     1
170
     0
176
     1
171
     0
176
     1
290
     0
176
     1
 93
        1
176
     1
 44
0.0
176
     1
173
     0
176
     1
  0
VISUALSTYLE
  5
33
102
{ACAD_REACTORS
330
2A
102
}
330
2A
100
AcDbVisualStyle
  2
Realistic
 70
     8
177
     2
291
     0
 71
     2
176
     1
 72
     2
176
     1
 73
     0
176
     1
 90
        0
176
     1
 40
-0.6
176
     1
 41
-30.0
176
     1
 62
     5
 63
     7
421
 16777215
176
     1
 74
     1
176
     1
 91
        0
176
     1
 64
     7
176
     1
 65
   257
176
     1
 75
     1
176
     1
175
     1
176
     1
 42
1.0
176
     1
 92
        8
176
     1
 66
     8
424
  7895160
176
     1
 43
1.0
176
     1
 76
     1
176
     1
 77
     6
176
     1
 78
     2
176
     1
 67
     7
176
     1
 79
     5
176
     1
170
     0
176
     1
171
     0
176
     1
290
     0
176
     1
 93
       13
176
     1
 44
0.0
176
     1
173
     0
176
     1
  0
VISUALSTYLE
  5
37
102
{ACAD_REACTORS
330
2A
102
}
330
2A
100
AcDbVisualStyle
  2
Thicken
 70
    13
177
     2
291
     1
 71
     2
176
     1
 72
     2
176
     1
 73
     0
176
     1
 90
        0
176
     1
 40
-0.6
176
     1
 41
-30.0
176
     1
 62
     5
 63
     7
421
 16777215
176
     1
 74
     1
176
     1
 91
        4
176
     1
 64
     7
176
     1
 65
   257
176
     1
 75
     1
176
     1
175
     1
176
     1
 42
1.0
176
     1
 92
       12
176
     1
 66
     7
176
     1
 43
1.0
176
     1
 76
     1
176
     1
 77
     6
176
     1
 78
     2
176
     1
 67
     7
176
     1
 79
     5
176
     1
170
     0
176
     1
171
     0
176
     1
290
     0
176
     1
 93
        1
176
     1
 44
0.0
176
     1
173
     0
176
     1
  0
ENDSEC
  0
EOF
